  0
SECTION
  2
HEADER
  9
$ACADVER
  1
AC1009
  9
$INSBASE
 10
0
 20
0
 30
0
  9
$EXTMIN
 10
0
 20
0
  9
$EXTMAX
 10
1782
 20
1260
  9
$LIMMIN
 10
0
 20
0
  9
$LIMMAX
 10
1782
 20
1260
  9
$LTSCALE
 40
6
  0
ENDSEC
  0
SECTION
  2
TABLES
  0
TABLE
  2
LTYPE
 70
     9
  0
LTYPE
  2
CONTINUOUS
 70
    64
  3
実線
 72
    65
 73
     0
 40
0.0
  0
LTYPE
  2
DASHED1
 70
    64
  3
--  --  --  --  --  --  --  --  
 72
    65
 73
     2
 40
2.5
 49
1.25
 49
-1.25
  0
LTYPE
  2
DASHED2
 70
    64
  3
----    ----    ----    ----    
 72
    65
 73
     2
 40
5.0
 49
2.5
 49
-2.5
  0
LTYPE
  2
DASHED3
 70
    64
  3
------  ------  ------  ------  
 72
    65
 73
     2
 40
5.0
 49
3.75
 49
-1.25
  0
LTYPE
  2
CENTER1
 70
    64
  3
----- - ----- - ----- - ----- - 
 72
    65
 73
     4
 40
10.0
 49
6.25
 49
-1.25
 49
1.25
 49
-1.25
  0
LTYPE
  2
CENTER2
 70
    64
  3
----------  --  ----------  --  
 72
    65
 73
     4
 40
20.0
 49
12.5
 49
-2.5
 49
2.5
 49
-2.5
  0
LTYPE
  2
PHANTOM1
 70
    64
  3
--- - - --- - - --- - - --- - - 
 72
    65
 73
     6
 40
10.0
 49
3.25
 49
-1.25
 49
1.25
 49
-1.25
 49
1.25
 49
-1.25
  0
LTYPE
  2
PHANTOM2
 70
    64
  3
--------  -  -  --------  -  -  
 72
    65
 73
     6
 40
20.0
 49
10.0
 49
-2.5
 49
1.25
 49
-2.5
 49
1.25
 49
-2.5
  0
LTYPE
  2
DOT
 70
    64
  3
-   -   -   -   -   -   -   -   
 72
    65
 73
     2
 40
2.5
 49
0.625
 49
-1.875
  0
LTYPE
  2
DUMMY
 70
    64
  3
ダミー
 72
    65
 73
     0
 40
0.0
  0
LTYPE
  2
RAND1
 70
    64
  3
ランダム線1
 72
    65
 73
     4
 40
10.0
 49
1.0
 49
-2.0
 49
3.0
 49
-4.0
  0
LTYPE
  2
RAND2
 70
    64
  3
ランダム線2
 72
    65
 73
     4
 40
14.0
 49
2.0
 49
-3.0
 49
4.0
 49
-5.0
  0
LTYPE
  2
RAND3
 70
    64
  3
ランダム線3
 72
    65
 73
     4
 40
18.0
 49
3.0
 49
-4.0
 49
5.0
 49
-6.0
  0
LTYPE
  2
RAND4
 70
    64
  3
ランダム線4
 72
    65
 73
     4
 40
22.0
 49
4.0
 49
-5.0
 49
6.0
 49
-7.0
  0
LTYPE
  2
RAND5
 70
    64
  3
ランダム線5
 72
    65
 73
     4
 40
26.0
 49
5.0
 49
-6.0
 49
7.0
 49
-8.0
  0
LTYPE
  2
LONG1
 70
    64
  3
----------  --  ----------  --  
 72
    65
 73
     4
 40
40.0
 49
32.5
 49
-2.5
 49
2.5
 49
-2.5
  0
LTYPE
  2
LONG2
 70
    64
  3
--------  -  -  --------  -  -  
 72
    65
 73
     6
 40
40.0
 49
30.0
 49
-2.5
 49
1.25
 49
-2.5
 49
1.25
 49
-2.5
  0
LTYPE
  2
LONG3
 70
    64
  3
+++++++++++++++..+++++++++++++++
 72
    65
 73
     2
 40
40.0
 49
37.5
 49
-2.5
  0
LTYPE
  2
LONG4
 70
    64
  3
+++++++++++++++..+++++++++++++++
 72
    65
 73
     2
 40
80.0
 49
75.0
 49
-5.0
  0
LTYPE
  2
LONG5
 70
    64
  3
----------  --  ----------  --  
 72
    65
 73
     4
 40
60.0
 49
37.5
 49
-7.5
 49
7.5
 49
-7.5
  0
LTYPE
  2
dashed
 70
   64
  3
-------   -------------   ------
 72
   65
 73
    2
 40
7.5
 49
6
 49
-1.5
  0
LTYPE
  2
dashed_spaced
 70
   64
  3
----        --------        ----
 72
   65
 73
    2
 40
12
 49
6
 49
-6
  0
LTYPE
  2
long_dashed_dotted
 70
   64
  3
------------- --- --------------
 72
   65
 73
    4
 40
15.25
 49
12
 49
-1.5
 49
0.25
 49
-1.5
  0
LTYPE
  2
long_dashed_double-dotted
 70
   64
  3
----------- --- --- ------------
 72
   65
 73
    6
 40
17
 49
12
 49
-1.5
 49
0.25
 49
-1.5
 49
0.25
 49
-1.5
  0
LTYPE
  2
long_dashed_triplicate-dotted
 70
   64
  3
--------- --- --- --- ----------
 72
   65
 73
    8
 40
18.75
 49
12
 49
-1.5
 49
0.25
 49
-1.5
 49
0.25
 49
-1.5
 49
0.25
 49
-1.5
  0
LTYPE
  2
dotted
 70
   64
  3
   -       -       -       -    
 72
   65
 73
    2
 40
1.75
 49
0.25
 49
-1.5
  0
LTYPE
  2
chain
 70
   64
  3
-------------- -- --------------
 72
   65
 73
    4
 40
18.5
 49
12
 49
-1.5
 49
3.5
 49
-1.5
  0
LTYPE
  2
chain_double_dash
 70
   64
  3
------------ -- -- -------------
 72
   65
 73
    6
 40
23.5
 49
12
 49
-1.5
 49
3.5
 49
-1.5
 49
3.5
 49
-1.5
  0
LTYPE
  2
dashed_dotted
 70
   64
  3
-----------     -     ----------
 72
   65
 73
    4
 40
9.25
 49
6
 49
-1.5
 49
0.25
 49
-1.5
  0
LTYPE
  2
double-dashed_dotted
 70
   64
  3
------   -----------   -   -----
 72
   65
 73
    6
 40
16.75
 49
6
 49
-1.5
 49
6
 49
-1.5
 49
0.25
 49
-1.5
  0
LTYPE
  2
dashed_double-dotted
 70
   64
  3
---------    -    -    ---------
 72
   65
 73
    6
 40
11
 49
6
 49
-1.5
 49
0.25
 49
-1.5
 49
0.25
 49
-1.5
  0
LTYPE
  2
double-dashed_double-dotted
 70
   64
  3
-----   ---------   -   -   ----
 72
   65
 73
    8
 40
18.5
 49
6
 49
-1.5
 49
6
 49
-1.5
 49
0.25
 49
-1.5
 49
0.25
 49
-1.5
  0
LTYPE
  2
dashed_triplicate-dotted
 70
   64
  3
-------    -    -    -    ------
 72
   65
 73
    8
 40
12.75
 49
6
 49
-1.5
 49
0.25
 49
-1.5
 49
0.25
 49
-1.5
 49
0.25
 49
-1.5
  0
LTYPE
  2
double-dashed_triplicate-dotted
 70
   64
  3
-----  ---------  -  -  -  -----
 72
   65
 73
   10
 40
20.25
 49
6
 49
-1.5
 49
6
 49
-1.5
 49
0.25
 49
-1.5
 49
0.25
 49
-1.5
 49
0.25
 49
-1.5
  0
LTYPE
  2
undefined
 70
   64
  3
--------------------------------
 72
   65
 73
    0
 40
0
  0
ENDTAB
  0
TABLE
  2
STYLE
  5
3
100
AcDbSymbolTable
 70
     1
  0
STYLE
  5
10
100
AcDbSymbolTableRecord
100
AcDbTextStyleTableRecord
  2
STANDARD
 70
     0
 40
0.0
 41
1.0
 50
0.0
 71
     0
 42
0.2
  3
txt
  4
bigfont.shx
  0
STYLE
  5
26
100
AcDbSymbolTableRecord
100
AcDbTextStyleTableRecord
  2
TATEGAKI
 70
    68
 40
0.0
 41
1.0
 50
0.0
 71
     0
 42
1.0
  3
txt
  4
bigfont.shx
  0
ENDTAB
  0
TABLE
  2
LAYER
 70
    9
  0
LAYER
  2
_0-0_計極細
 70
   64
 62
    7
  6
CONTINUOUS
  0
LAYER
  2
_0-1_計細線
 70
   64
 62
    7
  6
CONTINUOUS
  0
LAYER
  2
_0-5_寸法線
 70
   64
 62
    7
  6
CONTINUOUS
  0
LAYER
  2
_0-7_枠細線
 70
   64
 62
    7
  6
CONTINUOUS
  0
LAYER
  2
_0-8_枠中線
 70
   64
 62
    7
  6
CONTINUOUS
  0
LAYER
  2
_0-9_枠極太
 70
   64
 62
    7
  6
CONTINUOUS
  0
LAYER
  2
_0-a_極細3
 70
   64
 62
    7
  6
CONTINUOUS
  0
LAYER
  2
_0-d_寸法3
 70
   64
 62
    7
  6
CONTINUOUS
  0
LAYER
  2
ADD_LINE
 70
   64
 62
    7
  6
CONTINUOUS
  0
ENDTAB
  0
ENDSEC
  0
SECTION
  2
BLOCKS
  0
ENDSEC
  0
SECTION
  2
ENTITIES
  0
LINE
  8
_0-7_枠細線
  6
CONTINUOUS
 62
    5
 10
1422
 20
216
 11
1422
 21
120
  0
TEXT
  8
_0-7_枠細線
 62
    5
 10
1125
 20
117
 40
21
 41
1
 50
0
  1
備考
  7
TATEGAKI
  0
TEXT
  8
_0-7_枠細線
 62
    5
 10
1125
 20
165
 40
21
 41
1
 50
0
  1
品番
  7
TATEGAKI
  0
TEXT
  8
_0-7_枠細線
 62
    5
 10
1125
 20
213
 40
21
 41
1
 50
0
  1
品名
  7
TATEGAKI
  0
LINE
  8
_0-7_枠細線
  6
CONTINUOUS
 62
    5
 10
1422
 20
168
 11
1110
 21
168
  0
LINE
  8
_0-7_枠細線
  6
CONTINUOUS
 62
    5
 10
1140
 20
216
 11
1140
 21
72
  0
LINE
  8
_0-8_枠中線
  6
CONTINUOUS
 62
    5
 10
1710
 20
216
 11
1110
 21
216
  0
LINE
  8
_0-8_枠中線
  6
CONTINUOUS
 62
    5
 10
1110
 20
216
 11
1110
 21
72
  0
LINE
  8
_0-7_枠細線
  6
CONTINUOUS
 62
    5
 10
1494
 20
216
 11
1494
 21
72
  0
TEXT
  8
_0-7_枠細線
 62
    5
 10
1431
 20
192
 40
18
 41
1
 50
0
  1
縮　尺
  0
LINE
  8
_0-7_枠細線
  6
CONTINUOUS
 62
    5
 10
1422
 20
186
 11
1494
 21
186
  0
LINE
  8
_0-7_枠細線
  6
CONTINUOUS
 62
    5
 10
1494
 20
120
 11
1110
 21
120
  0
LINE
  8
_0-7_枠細線
  6
CONTINUOUS
 62
    5
 10
1710
 20
108
 11
1494
 21
108
  0
LINE
  8
_0-7_枠細線
  6
CONTINUOUS
 62
    5
 10
1494
 20
144
 11
1710
 21
144
  0
LINE
  8
_0-7_枠細線
  6
CONTINUOUS
 62
    5
 10
1710
 20
168
 11
1494
 21
168
  0
TEXT
  8
_0-7_枠細線
 62
    5
 10
1506
 20
177
 40
30
 41
0.8
 50
0
  1
株式会社シマブン
  0
TEXT
  8
_0-7_枠細線
 62
    5
 10
1503
 20
72
 40
18
 41
1
 50
0
  1
年月日
  0
TEXT
  8
_0-7_枠細線
 62
    5
 10
1503
 20
90
 40
18
 41
1
 50
0
  1
作　成
  0
TEXT
  8
_0-7_枠細線
 62
    5
 10
1507.5
 20
147
 40
18
 41
1
 50
0
  1
承 認
  0
LINE
  8
_0-7_枠細線
  6
CONTINUOUS
 62
    5
 10
1566
 20
168
 11
1566
 21
72
  0
TEXT
  8
_0-7_枠細線
 62
    5
 10
1579.5
 20
147
 40
18
 41
1
 50
0
  1
検 図
  0
LINE
  8
_0-7_枠細線
  6
CONTINUOUS
 62
    5
 10
1638
 20
168
 11
1638
 21
108
  0
TEXT
  8
_0-7_枠細線
 62
    5
 10
1650
 20
114
 40
24
 41
1
 50
0
  1
藤戸
  0
TEXT
  8
_0-7_枠細線
 62
    5
 10
1651.5
 20
147
 40
18
 41
1
 50
0
  1
設 計
  0
LINE
  8
_0-7_枠細線
  6
CONTINUOUS
 62
    5
 10
1710
 20
1131
 11
1068
 21
1131
  0
TEXT
  8
_0-7_枠細線
 62
    5
 10
1074
 20
1133.9999999999995
 40
15
 41
1
 50
0
  1
記号
  0
TEXT
  8
_0-7_枠細線
 62
    5
 10
1196.25
 20
1134
 40
15
 41
1
 50
0
  1
訂　 正　 記　 事
  0
TEXT
  8
_0-7_枠細線
 62
    5
 10
1417.5
 20
1134
 40
15
 41
1
 50
0
  1
訂 正 年 月 日
  0
TEXT
  8
_0-7_枠細線
 62
    5
 10
1567.5
 20
1134
 40
15
 41
1
 50
0
  1
備　　　　　考
  0
LINE
  8
_0-7_枠細線
  6
CONTINUOUS
 62
    5
 10
1068
 20
1131
 11
1068
 21
1151.9999999999993
  0
LINE
  8
_0-7_枠細線
  6
CONTINUOUS
 62
    5
 10
1110
 20
1131
 11
1110
 21
1151.9999999999993
  0
LINE
  8
_0-7_枠細線
  6
CONTINUOUS
 62
    5
 10
1410
 20
1131
 11
1410
 21
1151.9999999999993
  0
LINE
  8
_0-7_枠細線
  6
CONTINUOUS
 62
    5
 10
1530
 20
1131
 11
1530
 21
1151.9999999999993
  0
LINE
  8
_0-0_計極細
  6
CONTINUOUS
 62
    2
 10
449.40810217545027
 20
240.92003249467189
 11
448.82765397545012
 21
239.42003249467189
  0
LINE
  8
_0-0_計極細
  6
CONTINUOUS
 62
    2
 10
496.86524819545025
 20
240.92003249467163
 11
425.86524819545019
 21
240.92003249467189
  0
LINE
  8
_0-0_計極細
  6
CONTINUOUS
 62
    2
 10
449.40810217545027
 20
240.92003249467189
 11
449.40810217545044
 21
293.42003249467189
  0
LINE
  8
_0-0_計極細
  6
CONTINUOUS
 62
    2
 10
451.65575317545023
 20
276.92003249467189
 11
456.86524819545031
 21
276.92003249467189
  0
LINE
  8
_0-0_計極細
  6
CONTINUOUS
 62
    2
 10
451.65575317545023
 20
276.92003249467189
 11
449.40810217545027
 21
274.92003249467189
  0
LINE
  8
_0-0_計極細
  6
CONTINUOUS
 62
    2
 10
449.40810217545027
 20
274.92003249467189
 11
496.86524819545036
 21
274.92003249467166
  0
LINE
  8
_0-1_計細線
  6
CONTINUOUS
 62
    3
 10
456.86524819545048
 20
293.42003249467189
 11
456.86524819545031
 21
276.92003249467189
  0
LINE
  8
_0-1_計細線
  6
CONTINUOUS
 62
    3
 10
496.86524819545036
 20
276.92003249467166
 11
496.86524819545025
 21
241.4200324946716
  0
LINE
  8
_0-1_計細線
  6
CONTINUOUS
 62
    3
 10
456.86524819545031
 20
276.92003249467189
 11
496.86524819545036
 21
276.92003249467166
  0
ARC
  8
_0-1_計細線
  6
CONTINUOUS
 62
    3
 10
457.06524819545047
 20
293.72003249467184
 40
0.2999999999999999
 50
269.99999999999977
 51
359.99999999999966
  0
ARC
  8
_0-1_計細線
  6
CONTINUOUS
 62
    3
 10
457.06524819545047
 20
316.6200324946717
 40
0.2999999999999999
 50
0
 51
89.999999999999915
  0
LINE
  8
_0-1_計細線
  6
CONTINUOUS
 62
    3
 10
457.36524819545048
 20
316.6200324946717
 11
457.36524819545048
 21
293.72003249467184
  0
ARC
  8
_0-1_計細線
  6
CONTINUOUS
 62
    3
 10
425.66524819545037
 20
293.72003249467184
 40
0.2999999999999999
 50
179.99999999999983
 51
269.99999999999977
  0
ARC
  8
_0-1_計細線
  6
CONTINUOUS
 62
    3
 10
425.66524819545054
 20
316.62003249467193
 40
0.2999999999999999
 50
89.999999999999915
 51
179.99999999999983
  0
LINE
  8
_0-1_計細線
  6
CONTINUOUS
 62
    3
 10
425.36524819545048
 20
293.72003249467184
 11
425.36524819545048
 21
316.62003249467193
  0
LINE
  8
_0-1_計細線
  6
CONTINUOUS
 62
    3
 10
457.06524819545047
 20
316.92003249467189
 11
425.66524819545054
 21
316.92003249467189
  0
LINE
  8
_0-1_計細線
  6
CONTINUOUS
 62
    3
 10
457.06524819545047
 20
293.42003249467189
 11
456.86524819545048
 21
293.42003249467189
  0
LINE
  8
_0-1_計細線
  6
CONTINUOUS
 62
    3
 10
425.86524819545019
 20
240.92003249467189
 11
425.86524819545048
 21
293.42003249467189
  0
LINE
  8
_0-1_計細線
  6
CONTINUOUS
 62
    3
 10
496.86524819545025
 20
239.42003249467163
 11
496.86524819545025
 21
241.4200324946716
  0
LINE
  8
_0-1_計細線
  6
CONTINUOUS
 62
    3
 10
425.86524819545019
 20
240.92003249467189
 11
427.86524819545025
 21
239.42003249467189
  0
LINE
  8
_0-1_計細線
  6
CONTINUOUS
 62
    3
 10
456.86524819545048
 20
293.42003249467189
 11
425.86524819545048
 21
293.42003249467189
  0
LINE
  8
_0-1_計細線
  6
CONTINUOUS
 62
    3
 10
496.86524819545025
 20
239.42003249467163
 11
427.86524819545025
 21
239.42003249467189
  0
LINE
  8
_0-0_計極細
  6
CONTINUOUS
 62
    2
 10
589.32239452160388
 20
240.92003249467189
 11
589.90284272160386
 21
239.42003249467189
  0
LINE
  8
_0-0_計極細
  6
CONTINUOUS
 62
    2
 10
541.8652485016039
 20
240.92003249467163
 11
612.8652485016039
 21
240.92003249467189
  0
LINE
  8
_0-0_計極細
  6
CONTINUOUS
 62
    2
 10
589.32239452160388
 20
240.92003249467189
 11
589.32239452160366
 21
293.42003249467189
  0
LINE
  8
_0-0_計極細
  6
CONTINUOUS
 62
    2
 10
587.07474352160375
 20
276.92003249467189
 11
581.86524850160379
 21
276.92003249467189
  0
LINE
  8
_0-0_計極細
  6
CONTINUOUS
 62
    2
 10
587.07474352160375
 20
276.92003249467189
 11
589.32239452160388
 21
274.92003249467189
  0
LINE
  8
_0-0_計極細
  6
CONTINUOUS
 62
    2
 10
589.32239452160388
 20
274.92003249467189
 11
541.86524850160367
 21
274.92003249467166
  0
LINE
  8
_0-1_計細線
  6
CONTINUOUS
 62
    3
 10
581.86524850160367
 20
293.42003249467189
 11
581.86524850160379
 21
276.92003249467189
  0
LINE
  8
_0-1_計細線
  6
CONTINUOUS
 62
    3
 10
541.86524850160367
 20
276.92003249467166
 11
541.8652485016039
 21
241.4200324946716
  0
LINE
  8
_0-1_計細線
  6
CONTINUOUS
 62
    3
 10
581.86524850160379
 20
276.92003249467189
 11
541.86524850160367
 21
276.92003249467166
  0
ARC
  8
_0-1_計細線
  6
CONTINUOUS
 62
    3
 10
581.66524850160363
 20
293.72003249467184
 40
0.2999999999999999
 50
179.99999999999983
 51
269.99999999999977
  0
ARC
  8
_0-1_計細線
  6
CONTINUOUS
 62
    3
 10
581.66524850160363
 20
316.6200324946717
 40
0.2999999999999999
 50
89.999999999999915
 51
179.99999999999983
  0
LINE
  8
_0-1_計細線
  6
CONTINUOUS
 62
    3
 10
581.36524850160367
 20
316.6200324946717
 11
581.36524850160367
 21
293.72003249467184
  0
ARC
  8
_0-1_計細線
  6
CONTINUOUS
 62
    3
 10
613.06524850160372
 20
293.72003249467184
 40
0.2999999999999999
 50
269.99999999999977
 51
359.99999999999966
  0
ARC
  8
_0-1_計細線
  6
CONTINUOUS
 62
    3
 10
613.06524850160349
 20
316.62003249467193
 40
0.2999999999999999
 50
0
 51
89.999999999999915
  0
LINE
  8
_0-1_計細線
  6
CONTINUOUS
 62
    3
 10
613.36524850160367
 20
293.72003249467184
 11
613.36524850160367
 21
316.62003249467193
  0
LINE
  8
_0-1_計細線
  6
CONTINUOUS
 62
    3
 10
581.66524850160363
 20
316.92003249467189
 11
613.06524850160349
 21
316.92003249467189
  0
LINE
  8
_0-1_計細線
  6
CONTINUOUS
 62
    3
 10
581.66524850160363
 20
293.42003249467189
 11
581.86524850160367
 21
293.42003249467189
  0
LINE
  8
_0-1_計細線
  6
CONTINUOUS
 62
    3
 10
612.8652485016039
 20
240.92003249467189
 11
612.86524850160367
 21
293.42003249467189
  0
LINE
  8
_0-1_計細線
  6
CONTINUOUS
 62
    3
 10
541.8652485016039
 20
239.42003249467163
 11
541.8652485016039
 21
241.4200324946716
  0
LINE
  8
_0-1_計細線
  6
CONTINUOUS
 62
    3
 10
612.8652485016039
 20
240.92003249467189
 11
610.8652485016039
 21
239.42003249467189
  0
LINE
  8
_0-1_計細線
  6
CONTINUOUS
 62
    3
 10
581.86524850160367
 20
293.42003249467189
 11
612.86524850160367
 21
293.42003249467189
  0
LINE
  8
_0-1_計細線
  6
CONTINUOUS
 62
    3
 10
541.8652485016039
 20
239.42003249467163
 11
610.8652485016039
 21
239.42003249467189
  0
LINE
  8
_0-1_計細線
  6
CONTINUOUS
 62
    3
 10
496.86524819545127
 20
262.42003218851346
 11
541.86524850160276
 21
262.42003218851346
  0
LINE
  8
_0-1_計細線
  6
CONTINUOUS
 62
    3
 10
496.86524819545127
 20
254.42003218851346
 11
541.86524850160276
 21
254.42003218851346
  0
LINE
  8
_0-0_計極細
  6
CENTER1
 62
    2
 10
416.90519243210963
 20
258.42003218851346
 11
619.57114130667856
 21
258.42003218851346
  0
LINE
  8
_0-0_計極細
  6
CONTINUOUS
 62
    2
 10
449.40810217545129
 20
961.92003218851153
 11
448.82765397545131
 21
963.42003218851153
  0
LINE
  8
_0-0_計極細
  6
CONTINUOUS
 62
    2
 10
496.86524819545127
 20
961.92003218851119
 11
425.86524819545122
 21
961.92003218851153
  0
LINE
  8
_0-0_計極細
  6
CONTINUOUS
 62
    2
 10
449.40810217545129
 20
961.92003218851153
 11
449.40810217545129
 21
909.42003218851153
  0
LINE
  8
_0-0_計極細
  6
CONTINUOUS
 62
    2
 10
451.6557531754512
 20
925.92003218851153
 11
456.86524819545127
 21
925.92003218851153
  0
LINE
  8
_0-0_計極細
  6
CONTINUOUS
 62
    2
 10
451.6557531754512
 20
925.92003218851153
 11
449.40810217545112
 21
927.92003218851164
  0
LINE
  8
_0-0_計極細
  6
CONTINUOUS
 62
    2
 10
449.40810217545112
 20
927.92003218851164
 11
496.86524819545127
 21
927.92003218851107
  0
LINE
  8
_0-1_計細線
  6
CONTINUOUS
 62
    3
 10
456.86524819545127
 20
909.42003218851153
 11
456.86524819545127
 21
925.92003218851153
  0
LINE
  8
_0-1_計細線
  6
CONTINUOUS
 62
    3
 10
496.86524819545127
 20
925.92003218851119
 11
496.86524819545127
 21
961.42003218851119
  0
LINE
  8
_0-1_計細線
  6
CONTINUOUS
 62
    3
 10
456.86524819545127
 20
925.92003218851153
 11
496.86524819545127
 21
925.92003218851119
  0
ARC
  8
_0-1_計細線
  6
CONTINUOUS
 62
    3
 10
457.06524819545132
 20
909.12003218851146
 40
0.2999999999999999
 50
0
 51
89.999999999999915
  0
ARC
  8
_0-1_計細線
  6
CONTINUOUS
 62
    3
 10
457.06524819545115
 20
886.22003218851148
 40
0.2999999999999999
 50
269.99999999999977
 51
359.99999999999966
  0
LINE
  8
_0-1_計細線
  6
CONTINUOUS
 62
    3
 10
457.36524819545116
 20
886.22003218851148
 11
457.36524819545122
 21
909.12003218851146
  0
ARC
  8
_0-1_計細線
  6
CONTINUOUS
 62
    3
 10
425.66524819545123
 20
909.12003218851146
 40
0.2999999999999999
 50
89.999999999999915
 51
179.99999999999983
  0
ARC
  8
_0-1_計細線
  6
CONTINUOUS
 62
    3
 10
425.66524819545134
 20
886.22003218851137
 40
0.2999999999999999
 50
179.99999999999983
 51
269.99999999999977
  0
LINE
  8
_0-1_計細線
  6
CONTINUOUS
 62
    3
 10
425.36524819545127
 20
909.12003218851146
 11
425.36524819545127
 21
886.22003218851137
  0
LINE
  8
_0-1_計細線
  6
CONTINUOUS
 62
    3
 10
457.06524819545115
 20
885.92003218851141
 11
425.66524819545134
 21
885.92003218851141
  0
LINE
  8
_0-1_計細線
  6
CONTINUOUS
 62
    3
 10
457.06524819545132
 20
909.42003218851153
 11
456.86524819545127
 21
909.42003218851153
  0
LINE
  8
_0-1_計細線
  6
CONTINUOUS
 62
    3
 10
425.86524819545122
 20
961.92003218851153
 11
425.86524819545122
 21
909.42003218851153
  0
LINE
  8
_0-1_計細線
  6
CONTINUOUS
 62
    3
 10
496.86524819545127
 20
963.42003218851119
 11
496.86524819545127
 21
961.42003218851119
  0
LINE
  8
_0-1_計細線
  6
CONTINUOUS
 62
    3
 10
425.86524819545122
 20
961.92003218851153
 11
427.86524819545127
 21
963.42003218851153
  0
LINE
  8
_0-1_計細線
  6
CONTINUOUS
 62
    3
 10
456.86524819545127
 20
909.42003218851153
 11
425.86524819545122
 21
909.42003218851153
  0
LINE
  8
_0-1_計細線
  6
CONTINUOUS
 62
    3
 10
496.86524819545127
 20
963.42003218851119
 11
427.86524819545127
 21
963.42003218851153
  0
LINE
  8
_0-0_計極細
  6
CONTINUOUS
 62
    2
 10
589.32239452160275
 20
961.92003218851153
 11
589.90284272160261
 21
963.42003218851153
  0
LINE
  8
_0-0_計極細
  6
CONTINUOUS
 62
    2
 10
541.86524850160276
 20
961.92003218851119
 11
612.86524850160276
 21
961.92003218851153
  0
LINE
  8
_0-0_計極細
  6
CONTINUOUS
 62
    2
 10
589.32239452160275
 20
961.92003218851153
 11
589.32239452160275
 21
909.42003218851153
  0
LINE
  8
_0-0_計極細
  6
CONTINUOUS
 62
    2
 10
587.07474352160284
 20
925.92003218851153
 11
581.86524850160276
 21
925.92003218851153
  0
LINE
  8
_0-0_計極細
  6
CONTINUOUS
 62
    2
 10
587.07474352160284
 20
925.92003218851153
 11
589.32239452160286
 21
927.92003218851164
  0
LINE
  8
_0-0_計極細
  6
CONTINUOUS
 62
    2
 10
589.32239452160286
 20
927.92003218851164
 11
541.86524850160276
 21
927.92003218851107
  0
LINE
  8
_0-1_計細線
  6
CONTINUOUS
 62
    3
 10
581.86524850160276
 20
909.42003218851153
 11
581.86524850160276
 21
925.92003218851153
  0
LINE
  8
_0-1_計細線
  6
CONTINUOUS
 62
    3
 10
541.86524850160276
 20
925.92003218851119
 11
541.86524850160276
 21
961.42003218851119
  0
LINE
  8
_0-1_計細線
  6
CONTINUOUS
 62
    3
 10
581.86524850160276
 20
925.92003218851153
 11
541.86524850160276
 21
925.92003218851119
  0
ARC
  8
_0-1_計細線
  6
CONTINUOUS
 62
    3
 10
581.66524850160272
 20
909.12003218851146
 40
0.2999999999999999
 50
89.999999999999915
 51
179.99999999999983
  0
ARC
  8
_0-1_計細線
  6
CONTINUOUS
 62
    3
 10
581.66524850160272
 20
886.22003218851148
 40
0.2999999999999999
 50
179.99999999999983
 51
269.99999999999977
  0
LINE
  8
_0-1_計細線
  6
CONTINUOUS
 62
    3
 10
581.36524850160276
 20
886.22003218851148
 11
581.36524850160276
 21
909.12003218851146
  0
ARC
  8
_0-1_計細線
  6
CONTINUOUS
 62
    3
 10
613.06524850160281
 20
909.12003218851146
 40
0.2999999999999999
 50
0
 51
89.999999999999915
  0
ARC
  8
_0-1_計細線
  6
CONTINUOUS
 62
    3
 10
613.0652485016027
 20
886.22003218851137
 40
0.2999999999999999
 50
269.99999999999977
 51
359.99999999999966
  0
LINE
  8
_0-1_計細線
  6
CONTINUOUS
 62
    3
 10
613.36524850160276
 20
909.12003218851146
 11
613.36524850160276
 21
886.22003218851137
  0
LINE
  8
_0-1_計細線
  6
CONTINUOUS
 62
    3
 10
581.66524850160272
 20
885.92003218851141
 11
613.0652485016027
 21
885.92003218851141
  0
LINE
  8
_0-1_計細線
  6
CONTINUOUS
 62
    3
 10
612.86524850160276
 20
961.92003218851153
 11
612.86524850160276
 21
909.42003218851153
  0
LINE
  8
_0-1_計細線
  6
CONTINUOUS
 62
    3
 10
541.86524850160276
 20
963.42003218851119
 11
541.86524850160276
 21
961.42003218851119
  0
LINE
  8
_0-1_計細線
  6
CONTINUOUS
 62
    3
 10
612.86524850160276
 20
961.92003218851153
 11
610.86524850160276
 21
963.42003218851153
  0
LINE
  8
_0-1_計細線
  6
CONTINUOUS
 62
    3
 10
541.86524850160276
 20
963.42003218851119
 11
610.86524850160276
 21
963.42003218851153
  0
LINE
  8
_0-1_計細線
  6
CONTINUOUS
 62
    3
 10
496.86524819545127
 20
948.42003218851346
 11
541.86524850160276
 21
948.42003218851346
  0
LINE
  8
_0-1_計細線
  6
CONTINUOUS
 62
    3
 10
496.86524819545127
 20
940.42003218851335
 11
541.86524850160276
 21
940.42003218851335
  0
LINE
  8
_0-0_計極細
  6
CENTER1
 62
    2
 10
416.90519243210963
 20
944.42003218851346
 11
619.57114130667856
 21
944.42003218851346
  0
LINE
  8
_0-0_計極細
  6
DASHED2
 62
    2
 10
496.86524819545025
 20
195.26284584723652
 11
496.86524819545025
 21
1130.044805377499
  0
LINE
  8
_0-0_計極細
  6
DASHED2
 62
    2
 10
541.86524850160276
 20
195.26284584723652
 11
541.86524850160276
 21
1130.044805377499
  0
LINE
  8
_0-1_計細線
  6
CONTINUOUS
 62
    3
 10
457.36524819545389
 20
595.42003216352384
 11
457.36524819545389
 21
580.92003216352282
  0
LINE
  8
_0-1_計細線
  6
CONTINUOUS
 62
    3
 10
457.36524819545355
 20
357.42003216352475
 11
457.36524819545343
 21
342.92003216352293
  0
ARC
  8
_0-1_計細線
  6
CONTINUOUS
 62
    3
 10
474.86524819545025
 20
336.92003216352111
 40
18.49999999999784
 50
161.0753555839465
 51
198.92464441605316
  0
LINE
  8
_0-1_計細線
  6
CONTINUOUS
 62
    3
 10
457.36524819545355
 20
383.92003216352566
 11
457.36524819545355
 21
369.42003216352111
  0
ARC
  8
_0-1_計細線
  6
CONTINUOUS
 62
    3
 10
474.86524819545031
 20
363.42003216352111
 40
18.49999999999784
 50
161.0753555839465
 51
198.92464441605316
  0
LINE
  8
_0-1_計細線
  6
CONTINUOUS
 62
    3
 10
457.36524819545355
 20
410.42003216352475
 11
457.36524819545355
 21
395.92003216352293
  0
LINE
  8
_0-1_計細線
  6
CONTINUOUS
 62
    3
 10
457.3652481954536
 20
436.82003216352433
 11
457.36524819545355
 21
422.42003216352106
  0
ARC
  8
_0-1_計細線
  6
CONTINUOUS
 62
    3
 10
474.8652481954515
 20
416.42003216352475
 40
18.49999999999784
 50
161.0753555839465
 51
198.92464441605316
  0
ARC
  8
_0-1_計細線
  6
CONTINUOUS
 62
    3
 10
474.8652481954515
 20
389.92003216352384
 40
18.49999999999784
 50
161.0753555839465
 51
198.92464441605316
  0
LINE
  8
_0-1_計細線
  6
CONTINUOUS
 62
    3
 10
457.3652481954536
 20
463.22003216352584
 11
457.3652481954536
 21
448.8200321635216
  0
LINE
  8
_0-1_計細線
  6
CONTINUOUS
 62
    3
 10
457.3652481954536
 20
489.62003216352457
 11
457.3652481954536
 21
475.22003216352215
  0
ARC
  8
_0-1_計細線
  6
CONTINUOUS
 62
    3
 10
474.86524819545161
 20
469.22003216352215
 40
18.49999999999784
 50
161.0753555839465
 51
198.92464441605316
  0
LINE
  8
_0-1_計細線
  6
CONTINUOUS
 62
    3
 10
457.36524819545377
 20
516.02003216352318
 11
457.36524819545377
 21
501.62003216352269
  0
LINE
  8
_0-1_計細線
  6
CONTINUOUS
 62
    3
 10
457.36524819545377
 20
542.42003216352373
 11
457.36524819545377
 21
528.02003216352318
  0
ARC
  8
_0-1_計細線
  6
CONTINUOUS
 62
    3
 10
474.86524819545167
 20
522.02003216352318
 40
18.49999999999784
 50
161.0753555839465
 51
198.92464441605316
  0
ARC
  8
_0-1_計細線
  6
CONTINUOUS
 62
    3
 10
474.86524819545167
 20
495.62003216352366
 40
18.49999999999784
 50
161.0753555839465
 51
198.92464441605304
  0
ARC
  8
_0-1_計細線
  6
CONTINUOUS
 62
    3
 10
474.86524819545161
 20
442.82003216352348
 40
18.49999999999784
 50
161.0753555839465
 51
198.92464441605316
  0
LINE
  8
_0-1_計細線
  6
CONTINUOUS
 62
    3
 10
457.36524819545389
 20
568.92003216352384
 11
457.36524819545377
 21
554.42003216352373
  0
ARC
  8
_0-1_計細線
  6
CONTINUOUS
 62
    3
 10
474.86524819545184
 20
574.92003216352475
 40
18.49999999999784
 50
161.0753555839465
 51
198.92464441605316
  0
ARC
  8
_0-1_計細線
  6
CONTINUOUS
 62
    3
 10
474.86524819545167
 20
548.42003216352373
 40
18.49999999999784
 50
161.0753555839465
 51
198.92464441605316
  0
LINE
  8
_0-1_計細線
  6
CONTINUOUS
 62
    3
 10
457.36524819545428
 20
845.420032163521
 11
457.36524819545428
 21
859.92003216352555
  0
ARC
  8
_0-1_計細線
  6
CONTINUOUS
 62
    3
 10
474.86524819545116
 20
865.92003216352555
 40
18.49999999999784
 50
161.0753555839465
 51
198.92464441605316
  0
LINE
  8
_0-1_計細線
  6
CONTINUOUS
 62
    3
 10
457.36524819545423
 20
818.92003216352111
 11
457.36524819545423
 21
833.42003216352464
  0
ARC
  8
_0-1_計細線
  6
CONTINUOUS
 62
    3
 10
474.86524819545099
 20
839.42003216352566
 40
18.49999999999784
 50
161.07535558394636
 51
198.92464441605316
  0
LINE
  8
_0-1_計細線
  6
CONTINUOUS
 62
    3
 10
457.36524819545423
 20
792.42003216352282
 11
457.36524819545423
 21
806.92003216352464
  0
LINE
  8
_0-1_計細線
  6
CONTINUOUS
 62
    3
 10
457.36524819545411
 20
766.02003216352148
 11
457.36524819545423
 21
780.42003216352475
  0
ARC
  8
_0-1_計細線
  6
CONTINUOUS
 62
    3
 10
474.86524819545218
 20
786.42003216352373
 40
18.49999999999784
 50
161.0753555839465
 51
198.92464441605316
  0
ARC
  8
_0-1_計細線
  6
CONTINUOUS
 62
    3
 10
474.86524819545218
 20
812.92003216352384
 40
18.49999999999784
 50
161.0753555839465
 51
198.92464441605316
  0
LINE
  8
_0-1_計細線
  6
CONTINUOUS
 62
    3
 10
457.36524819545411
 20
739.62003216352275
 11
457.36524819545411
 21
754.02003216352421
  0
LINE
  8
_0-1_計細線
  6
CONTINUOUS
 62
    3
 10
457.36524819545411
 20
713.22003216352221
 11
457.36524819545411
 21
727.62003216352446
  0
ARC
  8
_0-1_計細線
  6
CONTINUOUS
 62
    3
 10
474.86524819545201
 20
733.62003216352366
 40
18.49999999999784
 50
161.0753555839465
 51
198.92464441605316
  0
LINE
  8
_0-1_計細線
  6
CONTINUOUS
 62
    3
 10
457.36524819545394
 20
686.82003216352336
 11
457.36524819545394
 21
701.22003216352311
  0
LINE
  8
_0-1_計細線
  6
CONTINUOUS
 62
    3
 10
457.36524819545394
 20
660.42003216352282
 11
457.36524819545394
 21
674.82003216352336
  0
ARC
  8
_0-1_計細線
  6
CONTINUOUS
 62
    3
 10
474.86524819545195
 20
680.82003216352336
 40
18.49999999999784
 50
161.0753555839465
 51
198.92464441605316
  0
ARC
  8
_0-1_計細線
  6
CONTINUOUS
 62
    3
 10
474.86524819545201
 20
707.22003216352311
 40
18.49999999999784
 50
161.0753555839465
 51
198.92464441605304
  0
ARC
  8
_0-1_計細線
  6
CONTINUOUS
 62
    3
 10
474.86524819545201
 20
760.0200321635233
 40
18.49999999999784
 50
161.0753555839465
 51
198.92464441605316
  0
LINE
  8
_0-1_計細線
  6
CONTINUOUS
 62
    3
 10
457.36524819545394
 20
633.92003216352293
 11
457.36524819545394
 21
648.42003216352475
  0
LINE
  8
_0-1_計細線
  6
CONTINUOUS
 62
    3
 10
457.36524819545389
 20
607.42003216352384
 11
457.36524819545389
 21
621.92003216352373
  0
ARC
  8
_0-1_計細線
  6
CONTINUOUS
 62
    3
 10
474.86524819545184
 20
627.92003216352475
 40
18.49999999999784
 50
161.07535558394636
 51
198.92464441605316
  0
ARC
  8
_0-1_計細線
  6
CONTINUOUS
 62
    3
 10
474.86524819545184
 20
601.42003216352384
 40
18.49999999999784
 50
161.0753555839465
 51
198.92464441605316
  0
ARC
  8
_0-1_計細線
  6
CONTINUOUS
 62
    3
 10
474.86524819545195
 20
654.42003216352384
 40
18.49999999999784
 50
161.0753555839465
 51
198.92464441605316
  0
LINE
  8
_0-1_計細線
  6
CONTINUOUS
 62
    3
 10
456.36376647939915
 20
885.92003213852627
 11
457.36524819545428
 21
884.92003213852718
  0
LINE
  8
_0-1_計細線
  6
CONTINUOUS
 62
    3
 10
425.36524819544928
 20
884.92003213852354
 11
426.36376647940028
 21
885.92003213852729
  0
LINE
  8
_0-1_計細線
  6
CONTINUOUS
 62
    3
 10
457.36524819545428
 20
871.92003216352475
 11
457.36524819545428
 21
884.92003213851899
  0
LINE
  8
_0-0_計極細
  6
CONTINUOUS
 62
    2
 10
457.36524819544934
 20
884.92003213852547
 11
425.36524819545434
 21
884.9200321385282
  0
LINE
  8
_0-1_計細線
  6
CONTINUOUS
 62
    3
 10
456.36376647939824
 20
316.9200321885213
 11
457.36524819545343
 21
317.92003218852039
  0
LINE
  8
_0-1_計細線
  6
CONTINUOUS
 62
    3
 10
425.36524819544843
 20
317.92003218852506
 11
426.36376647939932
 21
316.9200321885196
  0
LINE
  8
_0-1_計細線
  6
CONTINUOUS
 62
    3
 10
457.36524819544843
 20
330.92003216353567
 11
457.36524819544843
 21
317.9200321885213
  0
LINE
  8
_0-0_計極細
  6
CONTINUOUS
 62
    2
 10
457.36524819544843
 20
317.9200321885213
 11
425.36524819545338
 21
317.9200321885196
  0
LINE
  8
_0-1_計細線
  6
CONTINUOUS
 62
    3
 10
425.36524819545434
 20
884.92003213852274
 11
425.36524819544843
 21
317.92003218852506
  0
LINE
  8
_0-1_計細線
  6
CONTINUOUS
 62
    3
 10
581.36524850160026
 20
595.42003216352384
 11
581.36524850160026
 21
580.92003216352282
  0
LINE
  8
_0-1_計細線
  6
CONTINUOUS
 62
    3
 10
581.36524850160049
 20
357.42003216352475
 11
581.36524850160072
 21
342.92003216352293
  0
ARC
  8
_0-1_計細線
  6
CONTINUOUS
 62
    3
 10
563.8652485016039
 20
336.92003216352111
 40
18.49999999999784
 50
341.07535558394613
 51
18.924644416053177
  0
LINE
  8
_0-1_計細線
  6
CONTINUOUS
 62
    3
 10
581.36524850160049
 20
383.92003216352566
 11
581.36524850160049
 21
369.42003216352111
  0
ARC
  8
_0-1_計細線
  6
CONTINUOUS
 62
    3
 10
563.86524850160379
 20
363.42003216352111
 40
18.49999999999784
 50
341.07535558394613
 51
18.924644416053177
  0
LINE
  8
_0-1_計細線
  6
CONTINUOUS
 62
    3
 10
581.36524850160049
 20
410.42003216352475
 11
581.36524850160049
 21
395.92003216352293
  0
LINE
  8
_0-1_計細線
  6
CONTINUOUS
 62
    3
 10
581.36524850160049
 20
436.82003216352433
 11
581.36524850160049
 21
422.42003216352106
  0
ARC
  8
_0-1_計細線
  6
CONTINUOUS
 62
    3
 10
563.86524850160265
 20
416.42003216352475
 40
18.49999999999784
 50
341.07535558394613
 51
18.924644416053177
  0
ARC
  8
_0-1_計細線
  6
CONTINUOUS
 62
    3
 10
563.86524850160265
 20
389.92003216352384
 40
18.49999999999784
 50
341.07535558394613
 51
18.924644416053177
  0
LINE
  8
_0-1_計細線
  6
CONTINUOUS
 62
    3
 10
581.36524850160049
 20
463.22003216352584
 11
581.36524850160049
 21
448.8200321635216
  0
LINE
  8
_0-1_計細線
  6
CONTINUOUS
 62
    3
 10
581.36524850160049
 20
489.62003216352457
 11
581.36524850160049
 21
475.22003216352215
  0
ARC
  8
_0-1_計細線
  6
CONTINUOUS
 62
    3
 10
563.86524850160254
 20
469.22003216352215
 40
18.49999999999784
 50
341.07535558394613
 51
18.924644416053177
  0
LINE
  8
_0-1_計細線
  6
CONTINUOUS
 62
    3
 10
581.36524850160038
 20
516.02003216352318
 11
581.36524850160038
 21
501.62003216352269
  0
LINE
  8
_0-1_計細線
  6
CONTINUOUS
 62
    3
 10
581.36524850160038
 20
542.42003216352373
 11
581.36524850160038
 21
528.02003216352318
  0
ARC
  8
_0-1_計細線
  6
CONTINUOUS
 62
    3
 10
563.86524850160242
 20
522.02003216352318
 40
18.49999999999784
 50
341.07535558394613
 51
18.924644416053177
  0
ARC
  8
_0-1_計細線
  6
CONTINUOUS
 62
    3
 10
563.86524850160242
 20
495.62003216352366
 40
18.49999999999784
 50
341.07535558394619
 51
18.924644416053177
  0
ARC
  8
_0-1_計細線
  6
CONTINUOUS
 62
    3
 10
563.86524850160254
 20
442.82003216352348
 40
18.49999999999784
 50
341.07535558394613
 51
18.924644416053177
  0
LINE
  8
_0-1_計細線
  6
CONTINUOUS
 62
    3
 10
581.36524850160026
 20
568.92003216352384
 11
581.36524850160038
 21
554.42003216352373
  0
ARC
  8
_0-1_計細線
  6
CONTINUOUS
 62
    3
 10
563.86524850160231
 20
574.92003216352475
 40
18.49999999999784
 50
341.07535558394613
 51
18.924644416053177
  0
ARC
  8
_0-1_計細線
  6
CONTINUOUS
 62
    3
 10
563.86524850160242
 20
548.42003216352373
 40
18.49999999999784
 50
341.07535558394613
 51
18.924644416053177
  0
LINE
  8
_0-1_計細線
  6
CONTINUOUS
 62
    3
 10
581.36524850159981
 20
845.420032163521
 11
581.36524850159981
 21
859.92003216352555
  0
ARC
  8
_0-1_計細線
  6
CONTINUOUS
 62
    3
 10
563.86524850160299
 20
865.92003216352555
 40
18.49999999999784
 50
341.07535558394613
 51
18.924644416053177
  0
LINE
  8
_0-1_計細線
  6
CONTINUOUS
 62
    3
 10
581.36524850159981
 20
818.92003216352111
 11
581.36524850159981
 21
833.42003216352464
  0
ARC
  8
_0-1_計細線
  6
CONTINUOUS
 62
    3
 10
563.86524850160311
 20
839.42003216352566
 40
18.49999999999784
 50
341.07535558394613
 51
18.92464441605328
  0
LINE
  8
_0-1_計細線
  6
CONTINUOUS
 62
    3
 10
581.36524850159981
 20
792.42003216352282
 11
581.36524850159981
 21
806.92003216352464
  0
LINE
  8
_0-1_計細線
  6
CONTINUOUS
 62
    3
 10
581.36524850160004
 20
766.02003216352148
 11
581.36524850159981
 21
780.42003216352475
  0
ARC
  8
_0-1_計細線
  6
CONTINUOUS
 62
    3
 10
563.86524850160197
 20
786.42003216352373
 40
18.49999999999784
 50
341.07535558394613
 51
18.924644416053177
  0
ARC
  8
_0-1_計細線
  6
CONTINUOUS
 62
    3
 10
563.86524850160197
 20
812.92003216352384
 40
18.49999999999784
 50
341.07535558394613
 51
18.924644416053177
  0
LINE
  8
_0-1_計細線
  6
CONTINUOUS
 62
    3
 10
581.36524850160004
 20
739.62003216352275
 11
581.36524850160004
 21
754.02003216352421
  0
LINE
  8
_0-1_計細線
  6
CONTINUOUS
 62
    3
 10
581.36524850160004
 20
713.22003216352221
 11
581.36524850160004
 21
727.62003216352446
  0
ARC
  8
_0-1_計細線
  6
CONTINUOUS
 62
    3
 10
563.86524850160208
 20
733.62003216352366
 40
18.49999999999784
 50
341.07535558394613
 51
18.924644416053177
  0
LINE
  8
_0-1_計細線
  6
CONTINUOUS
 62
    3
 10
581.36524850160015
 20
686.82003216352336
 11
581.36524850160015
 21
701.22003216352311
  0
LINE
  8
_0-1_計細線
  6
CONTINUOUS
 62
    3
 10
581.36524850160015
 20
660.42003216352282
 11
581.36524850160015
 21
674.82003216352336
  0
ARC
  8
_0-1_計細線
  6
CONTINUOUS
 62
    3
 10
563.86524850160208
 20
680.82003216352336
 40
18.49999999999784
 50
341.07535558394613
 51
18.924644416053177
  0
ARC
  8
_0-1_計細線
  6
CONTINUOUS
 62
    3
 10
563.86524850160208
 20
707.22003216352311
 40
18.49999999999784
 50
341.07535558394619
 51
18.924644416053177
  0
ARC
  8
_0-1_計細線
  6
CONTINUOUS
 62
    3
 10
563.86524850160208
 20
760.0200321635233
 40
18.49999999999784
 50
341.07535558394613
 51
18.924644416053177
  0
LINE
  8
_0-1_計細線
  6
CONTINUOUS
 62
    3
 10
581.36524850160015
 20
633.92003216352293
 11
581.36524850160015
 21
648.42003216352475
  0
LINE
  8
_0-1_計細線
  6
CONTINUOUS
 62
    3
 10
581.36524850160026
 20
607.42003216352384
 11
581.36524850160026
 21
621.92003216352373
  0
ARC
  8
_0-1_計細線
  6
CONTINUOUS
 62
    3
 10
563.86524850160231
 20
627.92003216352475
 40
18.49999999999784
 50
341.07535558394613
 51
18.92464441605328
  0
ARC
  8
_0-1_計細線
  6
CONTINUOUS
 62
    3
 10
563.86524850160231
 20
601.42003216352384
 40
18.49999999999784
 50
341.07535558394613
 51
18.924644416053177
  0
ARC
  8
_0-1_計細線
  6
CONTINUOUS
 62
    3
 10
563.86524850160208
 20
654.42003216352384
 40
18.49999999999784
 50
341.07535558394613
 51
18.924644416053177
  0
LINE
  8
_0-1_計細線
  6
CONTINUOUS
 62
    3
 10
582.366730217655
 20
885.92003213852627
 11
581.36524850159981
 21
884.92003213852718
  0
LINE
  8
_0-1_計細線
  6
CONTINUOUS
 62
    3
 10
613.36524850160481
 20
884.92003213852354
 11
612.36673021765387
 21
885.92003213852729
  0
LINE
  8
_0-1_計細線
  6
CONTINUOUS
 62
    3
 10
581.36524850159981
 20
871.92003216352475
 11
581.36524850159981
 21
884.92003213851899
  0
LINE
  8
_0-0_計極細
  6
CONTINUOUS
 62
    2
 10
581.36524850160481
 20
884.92003213852547
 11
613.36524850159981
 21
884.9200321385282
  0
LINE
  8
_0-1_計細線
  6
CONTINUOUS
 62
    3
 10
582.36673021765591
 20
316.9200321885213
 11
581.36524850160072
 21
317.92003218852039
  0
LINE
  8
_0-1_計細線
  6
CONTINUOUS
 62
    3
 10
613.36524850160572
 20
317.92003218852506
 11
612.36673021765478
 21
316.9200321885196
  0
LINE
  8
_0-1_計細線
  6
CONTINUOUS
 62
    3
 10
581.36524850160572
 20
330.92003216353567
 11
581.36524850160572
 21
317.9200321885213
  0
LINE
  8
_0-0_計極細
  6
CONTINUOUS
 62
    2
 10
581.36524850160572
 20
317.9200321885213
 11
613.36524850160072
 21
317.9200321885196
  0
LINE
  8
_0-1_計細線
  6
CONTINUOUS
 62
    3
 10
613.36524850159981
 20
884.92003213852274
 11
613.36524850160572
 21
317.92003218852506
  0
LINE
  8
_0-5_寸法線
  6
CONTINUOUS
 62
    7
 10
581.36524850160788
 20
667.99994587122114
 11
569.77413858613909
 21
664.89411732999099
  0
LINE
  8
_0-5_寸法線
  6
CONTINUOUS
 62
    7
 10
581.36524850160788
 20
667.99994587122114
 11
569.77413858613909
 21
671.10577441245141
  0
LINE
  8
_0-5_寸法線
  6
CONTINUOUS
 62
    7
 10
613.36524850159867
 20
667.99994587122114
 11
624.95635841706746
 21
671.1057744124513
  0
LINE
  8
_0-5_寸法線
  6
CONTINUOUS
 62
    7
 10
613.36524850159867
 20
667.99994587122114
 11
624.95635841706746
 21
664.89411732999088
  0
LINE
  8
_0-5_寸法線
  6
CONTINUOUS
 62
    7
 10
551.36524850160788
 20
667.99994587122114
 11
649.85714545872429
 21
667.99994587122114
  0
TEXT
  8
_0-5_寸法線
 62
    7
 10
613.85714545872418
 20
667.99994587122114
 40
18
 41
1
 50
0
  1
φ32
  0
LINE
  8
_0-5_寸法線
  6
CONTINUOUS
 62
    7
 10
457.3652481954461
 20
667.99994587122114
 11
468.95635811091495
 21
671.10577441245141
  0
LINE
  8
_0-5_寸法線
  6
CONTINUOUS
 62
    7
 10
457.3652481954461
 20
667.99994587122114
 11
468.95635811091489
 21
664.89411732999088
  0
LINE
  8
_0-5_寸法線
  6
CONTINUOUS
 62
    7
 10
425.36524819545537
 20
667.99994587122114
 11
413.77413827998646
 21
664.89411732999099
  0
LINE
  8
_0-5_寸法線
  6
CONTINUOUS
 62
    7
 10
425.36524819545537
 20
667.99994587122114
 11
413.77413827998657
 21
671.10577441245141
  0
LINE
  8
_0-5_寸法線
  6
CONTINUOUS
 62
    7
 10
487.3652481954461
 20
667.99994587122114
 11
376.87335123832986
 21
667.99994587122114
  0
TEXT
  8
_0-5_寸法線
 62
    7
 10
376.87335123832986
 20
667.99994587122137
 40
18
 41
1
 50
-0.0000000000002714
  1
φ32
  0
LINE
  8
_0-5_寸法線
  6
CONTINUOUS
 62
    7
 10
404.90519243210963
 20
901.42003218851346
 11
359.36524819545298
 21
901.42003218851369
  0
LINE
  8
_0-5_寸法線
  6
CONTINUOUS
 62
    7
 10
365.36524819545298
 20
901.42003218851369
 11
368.47107673668319
 21
889.8289222730449
  0
LINE
  8
_0-5_寸法線
  6
CONTINUOUS
 62
    7
 10
365.36524819545298
 20
901.42003218851369
 11
362.25941965422271
 21
889.8289222730449
  0
LINE
  8
_0-5_寸法線
  6
CONTINUOUS
 62
    7
 10
404.90519243210963
 20
301.42003218851352
 11
359.36524819545298
 21
301.42003218851386
  0
LINE
  8
_0-5_寸法線
  6
CONTINUOUS
 62
    7
 10
365.36524819545298
 20
301.4200321885138
 11
362.25941965422271
 21
313.01114210398265
  0
LINE
  8
_0-5_寸法線
  6
CONTINUOUS
 62
    7
 10
365.36524819545298
 20
301.4200321885138
 11
368.47107673668319
 21
313.01114210398259
  0
LINE
  8
_0-5_寸法線
  6
CONTINUOUS
 62
    7
 10
365.36524819545298
 20
901.42003218851369
 11
365.36524819545298
 21
301.4200321885138
  0
LINE
  8
_0-5_寸法線
  6
CONTINUOUS
 62
    7
 10
413.36524819545571
 20
963.42003218851119
 11
311.36524819545298
 21
963.42003218851119
  0
LINE
  8
_0-5_寸法線
  6
CONTINUOUS
 62
    7
 10
317.36524819545298
 20
963.42003218851119
 11
320.47107673668319
 21
951.82892227304239
  0
LINE
  8
_0-5_寸法線
  6
CONTINUOUS
 62
    7
 10
317.36524819545298
 20
963.42003218851119
 11
314.25941965422271
 21
951.82892227304239
  0
LINE
  8
_0-5_寸法線
  6
CONTINUOUS
 62
    7
 10
413.36524819545571
 20
239.42003249467163
 11
311.36524819545298
 21
239.42003249467163
  0
LINE
  8
_0-5_寸法線
  6
CONTINUOUS
 62
    7
 10
317.36524819545298
 20
239.42003249467163
 11
314.25941965422271
 21
251.01114241014042
  0
LINE
  8
_0-5_寸法線
  6
CONTINUOUS
 62
    7
 10
317.36524819545298
 20
239.42003249467163
 11
320.47107673668319
 21
251.01114241014042
  0
LINE
  8
_0-5_寸法線
  6
CONTINUOUS
 62
    7
 10
317.36524819545298
 20
963.42003218851119
 11
317.36524819545298
 21
239.42003249467163
  0
LINE
  8
_0-1_計細線
  6
CONTINUOUS
 62
    3
 10
581.66524850160272
 20
909.42003218851153
 11
613.06524850160281
 21
909.42003218851153
  0
LINE
  8
_0-5_寸法線
  6
CONTINUOUS
 62
    7
 10
622.86524850160276
 20
963.42003218851153
 11
679.06524850160258
 21
963.42003218851096
  0
LINE
  8
_0-5_寸法線
  6
CONTINUOUS
 62
    7
 10
673.06524850160258
 20
963.42003218851096
 11
676.17107704283285
 21
951.82892227304228
  0
LINE
  8
_0-5_寸法線
  6
CONTINUOUS
 62
    7
 10
673.06524850160258
 20
963.42003218851096
 11
669.95941996037232
 21
951.82892227304228
  0
LINE
  8
_0-5_寸法線
  6
CONTINUOUS
 62
    7
 10
625.0652485016027
 20
885.92003218851119
 11
679.06524850160281
 21
885.92003218851073
  0
LINE
  8
_0-5_寸法線
  6
CONTINUOUS
 62
    7
 10
673.06524850160281
 20
885.92003218851073
 11
669.95941996037254
 21
897.51114210397952
  0
LINE
  8
_0-5_寸法線
  6
CONTINUOUS
 62
    7
 10
673.06524850160281
 20
885.92003218851073
 11
676.17107704283308
 21
897.51114210397952
  0
LINE
  8
_0-5_寸法線
  6
CONTINUOUS
 62
    7
 10
673.06524850160258
 20
963.42003218851096
 11
673.06524850160281
 21
885.92003218851073
  0
TEXT
  8
_0-5_寸法線
 62
    7
 10
673.0652485016027
 20
906.67003218851096
 40
18
 41
1
 50
90
  1
77.5
  0
LINE
  8
_0-5_寸法線
  6
CONTINUOUS
 62
    7
 10
622.86524850160276
 20
239.42003249467197
 11
679.06524850160258
 21
239.42003249467248
  0
LINE
  8
_0-5_寸法線
  6
CONTINUOUS
 62
    7
 10
673.06524850160258
 20
239.4200324946724
 11
669.95941996037232
 21
251.01114241014128
  0
LINE
  8
_0-5_寸法線
  6
CONTINUOUS
 62
    7
 10
673.06524850160258
 20
239.4200324946724
 11
676.17107704283285
 21
251.01114241014128
  0
LINE
  8
_0-5_寸法線
  6
CONTINUOUS
 62
    7
 10
625.0652485016027
 20
316.92003249467223
 11
679.06524850160281
 21
316.92003249467274
  0
LINE
  8
_0-5_寸法線
  6
CONTINUOUS
 62
    7
 10
673.06524850160281
 20
316.92003249467268
 11
676.17107704283308
 21
305.32892257920378
  0
LINE
  8
_0-5_寸法線
  6
CONTINUOUS
 62
    7
 10
673.06524850160281
 20
316.92003249467268
 11
669.95941996037254
 21
305.32892257920389
  0
LINE
  8
_0-5_寸法線
  6
CONTINUOUS
 62
    7
 10
673.06524850160258
 20
239.4200324946724
 11
673.06524850160281
 21
316.92003249467268
  0
TEXT
  8
_0-5_寸法線
 62
    7
 10
673.0652485016027
 20
260.17003249467257
 40
18
 41
1
 50
90
  1
77.5
  0
CIRCLE
  8
_0-1_計細線
  6
CONTINUOUS
 62
    3
 10
890.05431839473476
 20
336.92003246968056
 40
6
  0
CIRCLE
  8
_0-1_計細線
  6
CONTINUOUS
 62
    3
 10
890.05431839473772
 20
865.92003246968045
 40
6
  0
CIRCLE
  8
_0-1_計細線
  6
CONTINUOUS
 62
    3
 10
890.05431839473579
 20
389.92003246968056
 40
6
  0
CIRCLE
  8
_0-1_計細線
  6
CONTINUOUS
 62
    3
 10
890.05431839473579
 20
363.42003246967965
 40
6
  0
CIRCLE
  8
_0-1_計細線
  6
CONTINUOUS
 62
    3
 10
890.05431839473579
 20
442.72003246967893
 40
6
  0
CIRCLE
  8
_0-1_計細線
  6
CONTINUOUS
 62
    3
 10
890.0543183947359
 20
495.52003246968087
 40
6
  0
CIRCLE
  8
_0-1_計細線
  6
CONTINUOUS
 62
    3
 10
890.05431839473579
 20
469.12003246968032
 40
6
  0
CIRCLE
  8
_0-1_計細線
  6
CONTINUOUS
 62
    3
 10
890.05431839473579
 20
416.32003246968111
 40
6
  0
CIRCLE
  8
_0-1_計細線
  6
CONTINUOUS
 62
    3
 10
890.05431839473715
 20
548.42003246968056
 40
6
  0
CIRCLE
  8
_0-1_計細線
  6
CONTINUOUS
 62
    3
 10
890.05431839473715
 20
574.92003246967965
 40
6
  0
CIRCLE
  8
_0-1_計細線
  6
CONTINUOUS
 62
    3
 10
890.05431839473715
 20
521.92003246968056
 40
6
  0
CIRCLE
  8
_0-1_計細線
  6
CONTINUOUS
 62
    3
 10
890.05431839473772
 20
839.42003246968056
 40
6
  0
CIRCLE
  8
_0-1_計細線
  6
CONTINUOUS
 62
    3
 10
890.05431839473749
 20
786.42003246968045
 40
6
  0
CIRCLE
  8
_0-1_計細線
  6
CONTINUOUS
 62
    3
 10
890.05431839473749
 20
812.92003246968056
 40
6
  0
CIRCLE
  8
_0-1_計細線
  6
CONTINUOUS
 62
    3
 10
890.05431839473749
 20
733.62003246967947
 40
6
  0
CIRCLE
  8
_0-1_計細線
  6
CONTINUOUS
 62
    3
 10
890.05431839473727
 20
680.82003246968111
 40
6
  0
CIRCLE
  8
_0-1_計細線
  6
CONTINUOUS
 62
    3
 10
890.05431839473749
 20
707.22003246967984
 40
6
  0
CIRCLE
  8
_0-1_計細線
  6
CONTINUOUS
 62
    3
 10
890.05431839473749
 20
760.02003246968002
 40
6
  0
CIRCLE
  8
_0-1_計細線
  6
CONTINUOUS
 62
    3
 10
890.05431839473727
 20
627.92003246968056
 40
6
  0
CIRCLE
  8
_0-1_計細線
  6
CONTINUOUS
 62
    3
 10
890.05431839473715
 20
601.42003246968056
 40
6
  0
CIRCLE
  8
_0-1_計細線
  6
CONTINUOUS
 62
    3
 10
890.05431839473727
 20
654.42003246968056
 40
6
  0
LINE
  8
_0-1_計細線
  6
CONTINUOUS
 62
    3
 10
905.05876354290547
 20
885.92003244468845
 11
906.06024525895964
 21
884.92003244468935
  0
LINE
  8
_0-1_計細線
  6
CONTINUOUS
 62
    3
 10
874.06024525895543
 20
884.92003244468583
 11
875.05876354290672
 21
885.92003244468947
  0
LINE
  8
_0-1_計細線
  6
CONTINUOUS
 62
    3
 10
905.56024525895555
 20
961.42003244468765
 11
905.56024525895475
 21
909.42003244468583
  0
LINE
  8
_0-1_計細線
  6
CONTINUOUS
 62
    3
 10
874.56024525895975
 20
961.42003244468765
 11
874.56024525895975
 21
909.42003244468754
  0
LINE
  8
_0-1_計細線
  6
CONTINUOUS
 62
    3
 10
876.56024525895964
 20
963.42003244468754
 11
874.56024525895975
 21
961.42003244468765
  0
LINE
  8
_0-1_計細線
  6
CONTINUOUS
 62
    3
 10
903.56024525895555
 20
963.42003244468754
 11
905.56024525895555
 21
961.42003244468765
  0
LINE
  8
_0-1_計細線
  6
CONTINUOUS
 62
    3
 10
903.56024525895555
 20
963.42003244468754
 11
876.56024525895964
 21
963.42003244468754
  0
CIRCLE
  8
_0-1_計細線
  6
CONTINUOUS
 62
    3
 10
898.06024525895884
 20
935.67003244468754
 40
2.5
  0
CIRCLE
  8
_0-1_計細線
  6
CONTINUOUS
 62
    3
 10
882.06024525895873
 20
935.67003244468754
 40
2.5
  0
CIRCLE
  8
_0-1_計細線
  6
CONTINUOUS
 62
    3
 10
890.06024525895555
 20
955.67003244468765
 40
2.5
  0
ARC
  8
_0-1_計細線
  6
CONTINUOUS
 62
    3
 10
874.36024525896539
 20
886.22003244469693
 40
0.2999999999999999
 50
179.99999999999983
 51
269.99999999999977
  0
ARC
  8
_0-1_計細線
  6
CONTINUOUS
 62
    3
 10
874.36024525895846
 20
886.22003244469147
 40
0.2999999999999999
 50
179.99999999999983
 51
269.99999999999977
  0
LINE
  8
_0-1_計細線
  6
CONTINUOUS
 62
    3
 10
874.06024525895953
 20
909.12003244469111
 11
874.0602452589585
 21
886.22003244469147
  0
ARC
  8
_0-1_計細線
  6
CONTINUOUS
 62
    3
 10
905.76024525896344
 20
886.22003244469227
 40
0.2999999999999999
 50
269.99999999999977
 51
359.99999999999966
  0
ARC
  8
_0-1_計細線
  6
CONTINUOUS
 62
    3
 10
905.76024525895662
 20
909.12003244468917
 40
0.2999999999999999
 50
0
 51
89.999999999999915
  0
ARC
  8
_0-1_計細線
  6
CONTINUOUS
 62
    3
 10
905.7602452589565
 20
886.22003244468874
 40
0.2999999999999999
 50
269.99999999999977
 51
359.99999999999966
  0
LINE
  8
_0-1_計細線
  6
CONTINUOUS
 62
    3
 10
906.06024525895759
 20
886.22003244468874
 11
906.06024525895771
 21
909.12003244468917
  0
LINE
  8
_0-1_計細線
  6
CONTINUOUS
 62
    3
 10
905.76024525896344
 20
885.92003244468845
 11
874.36024525896539
 21
885.92003244468845
  0
LINE
  8
_0-1_計細線
  6
CONTINUOUS
 62
    3
 10
905.76024525895662
 20
909.42003244468947
 11
874.36024525895937
 21
909.42003244468947
  0
ARC
  8
_0-1_計細線
  6
CONTINUOUS
 62
    3
 10
874.36024525895868
 20
909.12003244468917
 40
0.2999999999999999
 50
89.999999999999915
 51
179.99999999999983
  0
LINE
  8
_0-0_計極細
  6
CONTINUOUS
 62
    2
 10
902.81024525895759
 20
909.42003244468754
 11
902.81024525895759
 21
961.42003244468765
  0
LINE
  8
_0-0_計極細
  6
CONTINUOUS
 62
    2
 10
877.31024525895759
 20
909.42003244468947
 11
877.31024525895759
 21
961.42003244468765
  0
LINE
  8
_0-0_計極細
  6
CONTINUOUS
 62
    2
 10
902.81024525895759
 20
927.92003244468674
 11
900.81024525895771
 21
925.92003244468856
  0
LINE
  8
_0-0_計極細
  6
CONTINUOUS
 62
    2
 10
879.31024525895759
 20
925.92003244468856
 11
877.31024525895759
 21
927.92003244468674
  0
LINE
  8
_0-0_計極細
  6
CONTINUOUS
 62
    2
 10
900.81024525895771
 20
925.92003244468856
 11
879.31024525895759
 21
925.92003244468856
  0
LINE
  8
_0-0_計極細
  6
CONTINUOUS
 62
    2
 10
874.56024525895975
 20
961.42003244468765
 11
905.56024525895555
 21
961.42003244468765
  0
LINE
  8
_0-0_計極細
  6
CONTINUOUS
 62
    2
 10
902.81024525895668
 20
961.42003244468765
 11
900.81024525895668
 21
963.42003244468754
  0
LINE
  8
_0-0_計極細
  6
CONTINUOUS
 62
    2
 10
879.31024525895759
 20
963.42003244468754
 11
877.31024525895668
 21
961.42003244468765
  0
LINE
  8
_0-0_計極細
  6
CONTINUOUS
 62
    2
 10
906.06024525895464
 20
884.92003244467764
 11
874.06024525895464
 21
884.92003244468037
  0
LINE
  8
_0-1_計細線
  6
CONTINUOUS
 62
    3
 10
905.05876354290467
 20
316.92003249467166
 11
906.06024525895873
 21
317.92003249467166
  0
LINE
  8
_0-1_計細線
  6
CONTINUOUS
 62
    3
 10
874.06024525895464
 20
317.92003249467439
 11
875.05876354290581
 21
316.92003249466984
  0
LINE
  8
_0-1_計細線
  6
CONTINUOUS
 62
    3
 10
905.56024525895441
 20
241.4200324946716
 11
905.56024525895373
 21
293.42003249467348
  0
LINE
  8
_0-1_計細線
  6
CONTINUOUS
 62
    3
 10
874.5602452589585
 20
241.4200324946716
 11
874.56024525895873
 21
293.42003249467348
  0
LINE
  8
_0-1_計細線
  6
CONTINUOUS
 62
    3
 10
876.56024525895862
 20
239.42003249467163
 11
874.5602452589585
 21
241.4200324946716
  0
LINE
  8
_0-1_計細線
  6
CONTINUOUS
 62
    3
 10
903.56024525895452
 20
239.42003249467163
 11
905.56024525895441
 21
241.4200324946716
  0
LINE
  8
_0-1_計細線
  6
CONTINUOUS
 62
    3
 10
903.56024525895452
 20
239.42003249467163
 11
876.56024525895862
 21
239.42003249467163
  0
CIRCLE
  8
_0-1_計細線
  6
CONTINUOUS
 62
    3
 10
898.06024525895759
 20
267.17003249467348
 40
2.5
  0
CIRCLE
  8
_0-1_計細線
  6
CONTINUOUS
 62
    3
 10
882.06024525895771
 20
267.17003249467348
 40
2.5
  0
CIRCLE
  8
_0-1_計細線
  6
CONTINUOUS
 62
    3
 10
890.06024525895452
 20
247.17003249467257
 40
2.5
  0
ARC
  8
_0-1_計細線
  6
CONTINUOUS
 62
    3
 10
874.3602452589646
 20
316.62003280082558
 40
0.2999999999999999
 50
89.999999999999915
 51
179.99999999999983
  0
ARC
  8
_0-1_計細線
  6
CONTINUOUS
 62
    3
 10
874.36024525895846
 20
293.7200328008314
 40
0.2999999999999999
 50
179.99999999999983
 51
269.99999999999977
  0
ARC
  8
_0-1_計細線
  6
CONTINUOUS
 62
    3
 10
874.36024525895755
 20
316.62003280083104
 40
0.2999999999999999
 50
89.999999999999915
 51
179.99999999999983
  0
LINE
  8
_0-1_計細線
  6
CONTINUOUS
 62
    3
 10
874.0602452589585
 20
293.7200328008314
 11
874.06024525895748
 21
316.62003280083104
  0
ARC
  8
_0-1_計細線
  6
CONTINUOUS
 62
    3
 10
905.76024525896264
 20
316.62003280083024
 40
0.2999999999999999
 50
0
 51
89.999999999999915
  0
ARC
  8
_0-1_計細線
  6
CONTINUOUS
 62
    3
 10
905.76024525895559
 20
293.72003280083334
 40
0.2999999999999999
 50
269.99999999999977
 51
359.99999999999966
  0
ARC
  8
_0-1_計細線
  6
CONTINUOUS
 62
    3
 10
905.76024525895559
 20
316.62003280083388
 40
0.2999999999999999
 50
0
 51
89.999999999999915
  0
LINE
  8
_0-1_計細線
  6
CONTINUOUS
 62
    3
 10
906.06024525895668
 20
316.62003280083388
 11
906.06024525895668
 21
293.72003280083334
  0
LINE
  8
_0-1_計細線
  6
CONTINUOUS
 62
    3
 10
905.76024525896264
 20
316.92003280083406
 11
874.3602452589646
 21
316.92003280083395
  0
LINE
  8
_0-1_計細線
  6
CONTINUOUS
 62
    3
 10
905.76024525895559
 20
293.42003280083316
 11
874.36024525895846
 21
293.42003280083304
  0
LINE
  8
_0-0_計極細
  6
CONTINUOUS
 62
    2
 10
902.81024525895657
 20
293.42003249467257
 11
902.81024525895657
 21
241.42003249467254
  0
LINE
  8
_0-0_計極細
  6
CONTINUOUS
 62
    2
 10
877.31024525895657
 20
293.42003249467166
 11
877.31024525895657
 21
241.42003249467254
  0
LINE
  8
_0-0_計極細
  6
CONTINUOUS
 62
    2
 10
902.81024525895657
 20
274.92003249467166
 11
900.81024525895668
 21
276.92003249467166
  0
LINE
  8
_0-0_計極細
  6
CONTINUOUS
 62
    2
 10
879.31024525895668
 20
276.92003249467166
 11
877.31024525895657
 21
274.92003249467166
  0
LINE
  8
_0-0_計極細
  6
CONTINUOUS
 62
    2
 10
900.81024525895668
 20
276.92003249467166
 11
879.31024525895668
 21
276.92003249467166
  0
LINE
  8
_0-0_計極細
  6
CONTINUOUS
 62
    2
 10
874.5602452589585
 20
241.42003249467348
 11
905.56024525895441
 21
241.4200324946716
  0
LINE
  8
_0-0_計極細
  6
CONTINUOUS
 62
    2
 10
902.81024525895555
 20
241.4200324946716
 11
900.81024525895566
 21
239.42003249467163
  0
LINE
  8
_0-0_計極細
  6
CONTINUOUS
 62
    2
 10
879.31024525895646
 20
239.42003249467163
 11
877.31024525895555
 21
241.4200324946716
  0
LINE
  8
_0-0_計極細
  6
CONTINUOUS
 62
    2
 10
906.06024525895464
 20
317.92003249467712
 11
874.06024525895464
 21
317.92003249467439
  0
LINE
  8
_0-1_計細線
  6
CONTINUOUS
 62
    3
 10
906.06024525896078
 20
317.92003249468712
 11
906.06024525896169
 21
884.92003244468492
  0
LINE
  8
_0-1_計細線
  6
CONTINUOUS
 62
    3
 10
874.06024525895464
 20
884.92003244468037
 11
874.06024525894964
 21
317.92003249468075
  0
LINE
  8
_0-0_計極細
  6
CENTER1
 62
    2
 10
906.83092255745999
 20
944.42003244468765
 11
862.1577750492047
 21
944.42003244468765
  0
LINE
  8
_0-0_計極細
  6
CENTER1
 62
    2
 10
906.83092255745873
 20
258.42003249467166
 11
862.15777504920356
 21
258.42003249467172
  0
ARC
  8
_0-1_計細線
  6
CONTINUOUS
 62
    3
 10
890.06024525895759
 20
943.67003244468765
 40
4.25
 50
179.99999999999983
 51
359.99999999999966
  0
LINE
  8
_0-1_計細線
  6
CONTINUOUS
 62
    3
 10
894.31024525895759
 20
945.17003244468765
 11
894.31024525895759
 21
943.67003244468765
  0
LINE
  8
_0-1_計細線
  6
CONTINUOUS
 62
    3
 10
885.81024525895771
 20
945.17003244468765
 11
885.81024525895771
 21
943.67003244468765
  0
ARC
  8
_0-1_計細線
  6
CONTINUOUS
 62
    3
 10
890.06024525895759
 20
945.17003244468765
 40
4.25
 50
0
 51
179.99999999999983
  0
ARC
  8
_0-1_計細線
  6
CONTINUOUS
 62
    3
 10
890.06024525895657
 20
257.67003249467166
 40
4.25
 50
179.99999999999983
 51
359.99999999999966
  0
LINE
  8
_0-1_計細線
  6
CONTINUOUS
 62
    3
 10
894.31024525895646
 20
259.17003249467166
 11
894.31024525895646
 21
257.67003249467166
  0
LINE
  8
_0-1_計細線
  6
CONTINUOUS
 62
    3
 10
885.81024525895646
 20
259.17003249467166
 11
885.81024525895646
 21
257.67003249467166
  0
ARC
  8
_0-1_計細線
  6
CONTINUOUS
 62
    3
 10
890.06024525895657
 20
259.17003249467166
 40
4.25
 50
0
 51
179.99999999999983
  0
LINE
  8
_0-0_計極細
  6
CENTER1
 62
    2
 10
890.06024525895782
 20
978.88405912328494
 11
890.06024525895657
 21
230.00602838284658
  0
LINE
  8
_0-5_寸法線
  6
CONTINUOUS
 62
    7
 10
864.56024525895964
 20
963.42003244468754
 11
816.56024525895964
 21
963.42003244468788
  0
LINE
  8
_0-5_寸法線
  6
CONTINUOUS
 62
    7
 10
822.56024525895964
 20
963.42003244468788
 11
825.66607380018979
 21
951.82892252921908
  0
LINE
  8
_0-5_寸法線
  6
CONTINUOUS
 62
    7
 10
822.56024525895964
 20
963.42003244468788
 11
819.45441671772949
 21
951.82892252921908
  0
LINE
  8
_0-5_寸法線
  6
CONTINUOUS
 62
    7
 10
862.56024525895975
 20
925.92003244468856
 11
816.56024525895964
 21
925.92003244468879
  0
LINE
  8
_0-5_寸法線
  6
CONTINUOUS
 62
    7
 10
822.56024525895964
 20
925.92003244468879
 11
819.45441671772949
 21
937.51114236015746
  0
LINE
  8
_0-5_寸法線
  6
CONTINUOUS
 62
    7
 10
822.56024525895964
 20
925.92003244468879
 11
825.66607380018991
 21
937.51114236015746
  0
LINE
  8
_0-5_寸法線
  6
CONTINUOUS
 62
    7
 10
822.56024525895964
 20
963.42003244468788
 11
822.56024525895964
 21
925.92003244468879
  0
TEXT
  8
_0-5_寸法線
 62
    7
 10
822.56024525895964
 20
926.67003244468822
 40
18
 41
1
 50
90
  1
37.5
  0
LINE
  8
_0-5_寸法線
  6
CONTINUOUS
 62
    7
 10
918.83092255745873
 20
258.42003249467149
 11
972.06024525896146
 21
258.42003249467069
  0
LINE
  8
_0-5_寸法線
  6
CONTINUOUS
 62
    7
 10
966.06024525896146
 20
258.42003249467081
 11
962.95441671773119
 21
270.01114241013966
  0
LINE
  8
_0-5_寸法線
  6
CONTINUOUS
 62
    7
 10
966.06024525896146
 20
258.42003249467081
 11
969.16607380019161
 21
270.0111424101396
  0
LINE
  8
_0-5_寸法線
  6
CONTINUOUS
 62
    7
 10
918.83092255745999
 20
944.42003244468742
 11
972.06024525896146
 21
944.42003244468674
  0
LINE
  8
_0-5_寸法線
  6
CONTINUOUS
 62
    7
 10
966.06024525896146
 20
944.42003244468697
 11
969.16607380019161
 21
932.82892252921806
  0
LINE
  8
_0-5_寸法線
  6
CONTINUOUS
 62
    7
 10
966.06024525896146
 20
944.42003244468697
 11
962.95441671773119
 21
932.82892252921806
  0
LINE
  8
_0-5_寸法線
  6
CONTINUOUS
 62
    7
 10
966.06024525896146
 20
258.42003249467081
 11
966.06024525896146
 21
944.42003244468697
  0
LINE
  8
_0-5_寸法線
  6
CONTINUOUS
 62
    7
 10
864.56024525895964
 20
239.42003249467342
 11
816.56024525895964
 21
239.42003249467325
  0
LINE
  8
_0-5_寸法線
  6
CONTINUOUS
 62
    7
 10
822.56024525895964
 20
239.42003249467325
 11
819.45441671772949
 21
251.01114241014204
  0
LINE
  8
_0-5_寸法線
  6
CONTINUOUS
 62
    7
 10
822.56024525895964
 20
239.42003249467325
 11
825.66607380018991
 21
251.01114241014204
  0
LINE
  8
_0-5_寸法線
  6
CONTINUOUS
 62
    7
 10
862.56024525895975
 20
276.92003249467245
 11
816.56024525895964
 21
276.92003249467234
  0
LINE
  8
_0-5_寸法線
  6
CONTINUOUS
 62
    7
 10
822.56024525895964
 20
276.92003249467234
 11
825.66607380018991
 21
265.32892257920355
  0
LINE
  8
_0-5_寸法線
  6
CONTINUOUS
 62
    7
 10
822.56024525895964
 20
276.92003249467234
 11
819.45441671772949
 21
265.32892257920349
  0
LINE
  8
_0-5_寸法線
  6
CONTINUOUS
 62
    7
 10
822.56024525895964
 20
239.42003249467325
 11
822.56024525895964
 21
276.92003249467234
  0
TEXT
  8
_0-5_寸法線
 62
    7
 10
822.56024525895964
 20
240.17003249467274
 40
18
 41
1
 50
90
  1
37.5
  0
CIRCLE
  8
_0-5_寸法線
  6
CONTINUOUS
 62
    7
 10
519.36524834852651
 20
258.42003218851346
 40
55.654448740222506
  0
TEXT
  8
_0-5_寸法線
 62
    7
 10
548.0954629629623
 20
186.4750925925913
 40
24
 41
1
 50
0
  1
Ａ　部
  0
LINE
  8
_0-a_極細3
  6
CONTINUOUS
 62
    7
 10
1312.7427542661662
 20
921.45535920755344
 11
1312.7427542661662
 21
949.16817212865567
  0
LINE
  8
_0-a_極細3
  6
CONTINUOUS
 62
    7
 10
1299.7427542661662
 20
949.16817212865567
 11
1299.7427542661662
 21
921.45535920755344
  0
LINE
  8
_0-a_極細3
  6
CONTINUOUS
 62
    7
 10
1299.7427542661662
 20
949.16817212865567
 11
1312.7427542661662
 21
949.16817212865567
  0
LINE
  8
_0-a_極細3
  6
CONTINUOUS
 62
    7
 10
1299.7427542661662
 20
921.45535920755344
 11
1312.7427542661662
 21
921.45535920755344
  0
LINE
  8
_0-a_極細3
  6
CONTINUOUS
 62
    7
 10
1312.7427542661662
 20
950.71176566810459
 11
1316.7427542661662
 21
950.71176566810459
  0
LINE
  8
_0-a_極細3
  6
CONTINUOUS
 62
    7
 10
1312.7427542661662
 20
919.91176566810464
 11
1316.7427542661662
 21
919.91176566810464
  0
LINE
  8
_0-a_極細3
  6
CONTINUOUS
 62
    7
 10
1316.7427542661662
 20
925.3117656681045
 11
1316.7427542661662
 21
920.31176566810439
  0
LINE
  8
_0-a_極細3
  6
CONTINUOUS
 62
    7
 10
1316.7427542661662
 20
961.3117656681045
 11
1316.7427542661662
 21
945.3117656681045
  0
LINE
  8
_0-a_極細3
  6
CONTINUOUS
 62
    7
 10
1331.7427542661662
 20
925.3117656681045
 11
1331.7427542661662
 21
917.8117656681045
  0
LINE
  8
_0-a_極細3
  6
CONTINUOUS
 62
    7
 10
1331.7427542661662
 20
972.3117656681045
 11
1331.7427542661662
 21
945.3117656681045
  0
LINE
  8
_0-a_極細3
  6
CONTINUOUS
 62
    7
 10
1331.7427542661662
 20
945.3117656681045
 11
1316.7427542661662
 21
945.3117656681045
  0
LINE
  8
_0-a_極細3
  6
CONTINUOUS
 62
    7
 10
1331.7427542661662
 20
925.3117656681045
 11
1316.7427542661662
 21
925.3117656681045
  0
LINE
  8
_0-a_極細3
  6
CONTINUOUS
 62
    7
 10
1316.7427542661662
 20
905.31176566810439
 11
1316.7427542661662
 21
901.3117656681045
  0
LINE
  8
_0-a_極細3
  6
CONTINUOUS
 62
    7
 10
1331.7427542661662
 20
907.8117656681045
 11
1331.7427542661662
 21
901.3117656681045
  0
LINE
  8
_0-a_極細3
  6
CONTINUOUS
 62
    7
 10
1323.7427542661662
 20
920.31176566810439
 11
1323.7427542661662
 21
917.8117656681045
  0
LINE
  8
_0-a_極細3
  6
CONTINUOUS
 62
    7
 10
1323.7427542661662
 20
920.31176566810439
 11
1316.7427542661662
 21
920.31176566810439
  0
LINE
  8
_0-a_極細3
  6
CONTINUOUS
 62
    7
 10
1331.7427542661662
 20
917.8117656681045
 11
1323.7427542661662
 21
917.8117656681045
  0
LINE
  8
_0-a_極細3
  6
CONTINUOUS
 62
    7
 10
1323.7427542661662
 20
905.31176566810439
 11
1323.7427542661662
 21
907.8117656681045
  0
LINE
  8
_0-a_極細3
  6
CONTINUOUS
 62
    7
 10
1323.7427542661662
 20
905.31176566810439
 11
1316.7427542661662
 21
905.31176566810439
  0
LINE
  8
_0-a_極細3
  6
CONTINUOUS
 62
    7
 10
1331.7427542661662
 20
907.8117656681045
 11
1323.7427542661662
 21
907.8117656681045
  0
LINE
  8
_0-a_極細3
  6
CONTINUOUS
 62
    7
 10
1331.7427542661662
 20
901.3117656681045
 11
1316.7427542661662
 21
901.3117656681045
  0
LINE
  8
_0-a_極細3
  6
CONTINUOUS
 62
    7
 10
1331.7427542661662
 20
897.3117656681045
 11
1331.7427542661662
 21
901.3117656681045
  0
LINE
  8
_0-a_極細3
  6
CONTINUOUS
 62
    7
 10
1331.7427542661662
 20
901.3117656681045
 11
1316.3427542661661
 21
901.3117656681045
  0
LINE
  8
_0-a_極細3
  6
CONTINUOUS
 62
    7
 10
1316.3427542661661
 20
901.3117656681045
 11
1316.3427542661661
 21
915.3117656681045
  0
LINE
  8
_0-a_極細3
  6
CONTINUOUS
 62
    7
 10
1301.0859000261662
 20
915.3117656681045
 11
1316.3427542661661
 21
915.3117656681045
  0
LINE
  8
_0-a_極細3
  6
CONTINUOUS
 62
    7
 10
1297.7427542661662
 20
908.31176566810439
 11
1297.7427542661662
 21
905.31176566810439
  0
ARC
  8
_0-a_極細3
  6
CONTINUOUS
 62
    7
 10
1306.7427542661662
 20
908.31176566810439
 40
9
 50
128.94244126999959
 51
179.99999999999983
  0
LINE
  8
_0-a_極細3
  6
CONTINUOUS
 62
    7
 10
1312.7427542661662
 20
950.71176566810459
 11
1312.7427542661662
 21
943.3117656681045
  0
LINE
  8
_0-a_極細3
  6
CONTINUOUS
 62
    7
 10
1312.7427542661662
 20
927.3117656681045
 11
1312.7427542661662
 21
919.91176566810464
  0
LINE
  8
_0-a_極細3
  6
CONTINUOUS
 62
    7
 10
1316.7427542661662
 20
950.71176566810459
 11
1316.7427542661662
 21
919.91176566810464
  0
LINE
  8
_0-a_極細3
  6
CONTINUOUS
 62
    7
 10
1312.7427542661662
 20
942.21817212865585
 11
1299.7427542661662
 21
942.21817212865585
  0
LINE
  8
_0-a_極細3
  6
CONTINUOUS
 62
    7
 10
1312.7427542661662
 20
928.4053592075536
 11
1299.7427542661662
 21
928.4053592075536
  0
LINE
  8
_0-a_極細3
  6
CONTINUOUS
 62
    7
 10
1411.742754266168
 20
897.3117656681045
 11
1411.742754266168
 21
901.3117656681045
  0
LINE
  8
_0-a_極細3
  6
CONTINUOUS
 62
    7
 10
1411.742754266168
 20
901.3117656681045
 11
1427.1427542661679
 21
901.3117656681045
  0
LINE
  8
_0-a_極細3
  6
CONTINUOUS
 62
    7
 10
1427.1427542661679
 20
901.3117656681045
 11
1427.1427542661679
 21
915.3117656681045
  0
LINE
  8
_0-a_極細3
  6
CONTINUOUS
 62
    7
 10
1442.3996085061681
 20
915.3117656681045
 11
1427.1427542661679
 21
915.3117656681045
  0
LINE
  8
_0-a_極細3
  6
CONTINUOUS
 62
    7
 10
1445.742754266168
 20
908.31176566810439
 11
1445.742754266168
 21
905.31176566810439
  0
ARC
  8
_0-a_極細3
  6
CONTINUOUS
 62
    7
 10
1436.742754266168
 20
908.31176566810439
 40
9
 50
0
 51
51.057558730001546
  0
LINE
  8
_0-a_極細3
  6
CONTINUOUS
 62
    7
 10
1430.742754266168
 20
921.45535920755344
 11
1430.742754266168
 21
949.16817212865567
  0
LINE
  8
_0-a_極細3
  6
CONTINUOUS
 62
    7
 10
1443.742754266168
 20
949.16817212865567
 11
1443.742754266168
 21
921.45535920755344
  0
LINE
  8
_0-a_極細3
  6
CONTINUOUS
 62
    7
 10
1443.742754266168
 20
942.21817212865585
 11
1430.742754266168
 21
942.21817212865585
  0
LINE
  8
_0-a_極細3
  6
CONTINUOUS
 62
    7
 10
1443.742754266168
 20
949.16817212865567
 11
1430.742754266168
 21
949.16817212865567
  0
LINE
  8
_0-a_極細3
  6
CONTINUOUS
 62
    7
 10
1443.742754266168
 20
928.4053592075536
 11
1430.742754266168
 21
928.4053592075536
  0
LINE
  8
_0-a_極細3
  6
CONTINUOUS
 62
    7
 10
1443.742754266168
 20
921.45535920755344
 11
1430.742754266168
 21
921.45535920755344
  0
LINE
  8
_0-a_極細3
  6
CONTINUOUS
 62
    7
 10
1430.742754266168
 20
950.71176566810459
 11
1430.742754266168
 21
919.91176566810464
  0
LINE
  8
_0-a_極細3
  6
CONTINUOUS
 62
    7
 10
1430.742754266168
 20
950.71176566810459
 11
1426.742754266168
 21
950.71176566810459
  0
LINE
  8
_0-a_極細3
  6
CONTINUOUS
 62
    7
 10
1430.742754266168
 20
919.91176566810464
 11
1426.742754266168
 21
919.91176566810464
  0
LINE
  8
_0-a_極細3
  6
CONTINUOUS
 62
    7
 10
1426.742754266168
 20
925.3117656681045
 11
1426.742754266168
 21
920.31176566810439
  0
LINE
  8
_0-a_極細3
  6
CONTINUOUS
 62
    7
 10
1426.742754266168
 20
961.3117656681045
 11
1426.742754266168
 21
945.3117656681045
  0
LINE
  8
_0-a_極細3
  6
CONTINUOUS
 62
    7
 10
1411.742754266168
 20
925.3117656681045
 11
1411.742754266168
 21
917.8117656681045
  0
LINE
  8
_0-a_極細3
  6
CONTINUOUS
 62
    7
 10
1411.742754266168
 20
972.3117656681045
 11
1411.742754266168
 21
945.3117656681045
  0
LINE
  8
_0-a_極細3
  6
CONTINUOUS
 62
    7
 10
1411.742754266168
 20
945.3117656681045
 11
1426.742754266168
 21
945.3117656681045
  0
LINE
  8
_0-a_極細3
  6
CONTINUOUS
 62
    7
 10
1411.742754266168
 20
925.3117656681045
 11
1426.742754266168
 21
925.3117656681045
  0
LINE
  8
_0-a_極細3
  6
CONTINUOUS
 62
    7
 10
1426.742754266168
 20
905.31176566810439
 11
1426.742754266168
 21
901.3117656681045
  0
LINE
  8
_0-a_極細3
  6
CONTINUOUS
 62
    7
 10
1411.742754266168
 20
907.8117656681045
 11
1411.742754266168
 21
901.3117656681045
  0
LINE
  8
_0-a_極細3
  6
CONTINUOUS
 62
    7
 10
1419.742754266168
 20
920.31176566810439
 11
1419.742754266168
 21
917.8117656681045
  0
LINE
  8
_0-a_極細3
  6
CONTINUOUS
 62
    7
 10
1419.742754266168
 20
920.31176566810439
 11
1426.742754266168
 21
920.31176566810439
  0
LINE
  8
_0-a_極細3
  6
CONTINUOUS
 62
    7
 10
1411.742754266168
 20
917.8117656681045
 11
1419.742754266168
 21
917.8117656681045
  0
LINE
  8
_0-a_極細3
  6
CONTINUOUS
 62
    7
 10
1419.742754266168
 20
905.31176566810439
 11
1419.742754266168
 21
907.8117656681045
  0
LINE
  8
_0-a_極細3
  6
CONTINUOUS
 62
    7
 10
1419.742754266168
 20
905.31176566810439
 11
1426.742754266168
 21
905.31176566810439
  0
LINE
  8
_0-a_極細3
  6
CONTINUOUS
 62
    7
 10
1411.742754266168
 20
907.8117656681045
 11
1419.742754266168
 21
907.8117656681045
  0
LINE
  8
_0-a_極細3
  6
CONTINUOUS
 62
    7
 10
1411.742754266168
 20
901.3117656681045
 11
1426.742754266168
 21
901.3117656681045
  0
LINE
  8
_0-a_極細3
  6
CONTINUOUS
 62
    7
 10
1426.742754266168
 20
950.71176566810459
 11
1426.742754266168
 21
919.91176566810464
  0
CIRCLE
  8
_0-a_極細3
  6
CONTINUOUS
 62
    7
 10
1371.7427539600153
 20
935.31176566810473
 40
111.30889748044501
  0
LINE
  8
_0-a_極細3
  6
DASHED2
 62
    7
 10
1331.7427542661662
 20
945.3117656681045
 11
1411.742754266168
 21
945.3117656681045
  0
LINE
  8
_0-a_極細3
  6
DASHED2
 62
    7
 10
1331.7427542661662
 20
925.3117656681045
 11
1411.742754266168
 21
925.3117656681045
  0
LINE
  8
_0-a_極細3
  6
DASHED2
 62
    7
 10
1331.7427542661662
 20
945.3117656681045
 11
1331.7427542661662
 21
1039.1851052832544
  0
LINE
  8
_0-a_極細3
  6
DASHED2
 62
    7
 10
1331.7427542661662
 20
925.3117656681045
 11
1331.7427542661662
 21
831.43842605295481
  0
LINE
  8
_0-a_極細3
  6
DASHED2
 62
    7
 10
1411.742754266168
 20
945.3117656681045
 11
1411.742754266168
 21
1039.1851050474661
  0
LINE
  8
_0-a_極細3
  6
DASHED2
 62
    7
 10
1411.742754266168
 20
925.3117656681045
 11
1411.742754266168
 21
831.43842628874313
  0
LINE
  8
_0-a_極細3
  6
CONTINUOUS
 62
    7
 10
1476.7221360229339
 20
972.3117656681045
 11
1411.742754266168
 21
972.3117656681045
  0
LINE
  8
_0-a_極細3
  6
CONTINUOUS
 62
    7
 10
1479.3016692323374
 20
963.96050741628198
 11
1426.742754266168
 21
961.3117656681045
  0
LINE
  8
_0-a_極細3
  6
CONTINUOUS
 62
    7
 10
1445.742754266168
 20
905.31176566810439
 11
1478.9326352842904
 21
905.31176566810439
  0
LINE
  8
_0-a_極細3
  6
CONTINUOUS
 62
    7
 10
1411.742754266168
 20
897.3117656681045
 11
1476.364313202421
 21
897.3117656681045
  0
LINE
  8
_0-a_極細3
  6
CONTINUOUS
 62
    7
 10
1266.7633718970969
 20
972.3117656681045
 11
1331.7427542661662
 21
972.3117656681045
  0
LINE
  8
_0-a_極細3
  6
CONTINUOUS
 62
    7
 10
1264.1838386958034
 20
963.9605074467305
 11
1316.7427542661662
 21
961.3117656681045
  0
LINE
  8
_0-a_極細3
  6
CONTINUOUS
 62
    7
 10
1297.7427542661662
 20
905.31176566810439
 11
1264.5528726357402
 21
905.31176566810439
  0
LINE
  8
_0-a_極細3
  6
CONTINUOUS
 62
    7
 10
1331.7427542661662
 20
897.3117656681045
 11
1267.1211947176093
 21
897.3117656681045
  0
LINE
  8
_0-a_極細3
  6
CONTINUOUS
 62
    7
 10
1329.8549605467892
 20
945.3117656681045
 11
1331.7427542661662
 21
947.19955938748137
  0
LINE
  8
_0-a_極細3
  6
CONTINUOUS
 62
    7
 10
1326.4608479970939
 20
945.3117656681045
 11
1331.7427542661662
 21
950.59367193717685
  0
LINE
  8
_0-a_極細3
  6
CONTINUOUS
 62
    7
 10
1323.0667354473985
 20
945.3117656681045
 11
1331.7427542661662
 21
953.98778448687221
  0
LINE
  8
_0-a_極細3
  6
CONTINUOUS
 62
    7
 10
1319.6726228977027
 20
945.3117656681045
 11
1331.7427542661662
 21
957.38189703656781
  0
LINE
  8
_0-a_極細3
  6
CONTINUOUS
 62
    7
 10
1316.7427542661662
 20
945.77600958626306
 11
1331.7427542661662
 21
960.77600958626306
  0
LINE
  8
_0-a_極細3
  6
CONTINUOUS
 62
    7
 10
1316.7427542661662
 20
949.17012213595865
 11
1331.7427542661662
 21
964.17012213595854
  0
LINE
  8
_0-a_極細3
  6
CONTINUOUS
 62
    7
 10
1316.7427542661662
 20
952.56423468565413
 11
1331.7427542661662
 21
967.5642346856539
  0
LINE
  8
_0-a_極細3
  6
CONTINUOUS
 62
    7
 10
1316.7427542661662
 20
955.95834723534949
 11
1331.7427542661662
 21
970.95834723534949
  0
LINE
  8
_0-a_極細3
  6
CONTINUOUS
 62
    7
 10
1316.7427542661662
 20
959.35245978504474
 11
1329.7020601492259
 21
972.3117656681045
  0
LINE
  8
_0-a_極細3
  6
CONTINUOUS
 62
    7
 10
1315.3767864625552
 20
961.38060453112917
 11
1326.3079475995305
 21
972.3117656681045
  0
LINE
  8
_0-a_極細3
  6
CONTINUOUS
 62
    7
 10
1312.1455159558559
 20
961.54344657412537
 11
1322.9138350498349
 21
972.3117656681045
  0
LINE
  8
_0-a_極細3
  6
CONTINUOUS
 62
    7
 10
1308.9142454491566
 20
961.70628861712157
 11
1319.5197225001393
 21
972.3117656681045
  0
LINE
  8
_0-a_極細3
  6
CONTINUOUS
 62
    7
 10
1305.6829749424573
 20
961.86913066011766
 11
1316.125609950444
 21
972.3117656681045
  0
LINE
  8
_0-a_極細3
  6
CONTINUOUS
 62
    7
 10
1302.4517044357576
 20
962.03197270311364
 11
1312.7314974007486
 21
972.3117656681045
  0
LINE
  8
_0-a_極細3
  6
CONTINUOUS
 62
    7
 10
1299.2204339290583
 20
962.19481474610984
 11
1309.3373848510532
 21
972.3117656681045
  0
LINE
  8
_0-a_極細3
  6
CONTINUOUS
 62
    7
 10
1295.9891634223591
 20
962.35765678910593
 11
1305.9432723013579
 21
972.3117656681045
  0
LINE
  8
_0-a_極細3
  6
CONTINUOUS
 62
    7
 10
1292.7578929156598
 20
962.52049883210191
 11
1302.5491597516625
 21
972.3117656681045
  0
LINE
  8
_0-a_極細3
  6
CONTINUOUS
 62
    7
 10
1289.5266224089605
 20
962.68334087509811
 11
1299.1550472019671
 21
972.3117656681045
  0
LINE
  8
_0-a_極細3
  6
CONTINUOUS
 62
    7
 10
1286.2953519022612
 20
962.8461829180942
 11
1295.7609346522718
 21
972.3117656681045
  0
LINE
  8
_0-a_極細3
  6
CONTINUOUS
 62
    7
 10
1283.064081395562
 20
963.00902496109018
 11
1292.366822102576
 21
972.3117656681045
  0
LINE
  8
_0-a_極細3
  6
CONTINUOUS
 62
    7
 10
1279.8328108888627
 20
963.17186700408638
 11
1288.9727095528808
 21
972.3117656681045
  0
LINE
  8
_0-a_極細3
  6
CONTINUOUS
 62
    7
 10
1276.6015403821634
 20
963.33470904708247
 11
1285.5785970031852
 21
972.3117656681045
  0
LINE
  8
_0-a_極細3
  6
CONTINUOUS
 62
    7
 10
1273.3702698754641
 20
963.49755109007856
 11
1282.1844844534899
 21
972.3117656681045
  0
LINE
  8
_0-a_極細3
  6
CONTINUOUS
 62
    7
 10
1270.1389993687646
 20
963.66039313307476
 11
1278.7903719037945
 21
972.3117656681045
  0
LINE
  8
_0-a_極細3
  6
CONTINUOUS
 62
    7
 10
1266.9077288620654
 20
963.82323517607074
 11
1275.3962593540991
 21
972.3117656681045
  0
LINE
  8
_0-a_極細3
  6
CONTINUOUS
 62
    7
 10
1264.3809523623236
 20
964.69057122602453
 11
1272.0021468044038
 21
972.31176566810473
  0
LINE
  8
_0-a_極細3
  6
CONTINUOUS
 62
    7
 10
1265.8229128482515
 20
969.52664426164779
 11
1268.6080342547084
 21
972.31176566810473
  0
LINE
  8
_0-a_極細3
  6
CONTINUOUS
 62
    7
 10
1330.2373159917051
 20
897.3117656681045
 11
1331.7427542661662
 21
898.81720394256536
  0
LINE
  8
_0-a_極細3
  6
CONTINUOUS
 62
    7
 10
1326.8432034420098
 20
897.3117656681045
 11
1331.7427542661662
 21
902.21131649226061
  0
LINE
  8
_0-a_極細3
  6
CONTINUOUS
 62
    7
 10
1323.4490908923144
 20
897.3117656681045
 11
1331.7427542661662
 21
905.6054290419562
  0
LINE
  8
_0-a_極細3
  6
CONTINUOUS
 62
    7
 10
1320.0549783426191
 20
897.3117656681045
 11
1330.5549783426191
 21
907.8117656681045
  0
LINE
  8
_0-a_極細3
  6
CONTINUOUS
 62
    7
 10
1316.6608657929237
 20
897.3117656681045
 11
1327.1608657929237
 21
907.8117656681045
  0
LINE
  8
_0-a_極細3
  6
CONTINUOUS
 62
    7
 10
1313.2667532432283
 20
897.3117656681045
 11
1321.2667532432283
 21
905.31176566810439
  0
LINE
  8
_0-a_極細3
  6
CONTINUOUS
 62
    7
 10
1323.7427542661662
 20
907.78776669104241
 11
1323.7667532432283
 21
907.8117656681045
  0
LINE
  8
_0-a_極細3
  6
CONTINUOUS
 62
    7
 10
1309.8726406935327
 20
897.3117656681045
 11
1316.3427542661661
 21
903.78187924073791
  0
LINE
  8
_0-a_極細3
  6
CONTINUOUS
 62
    7
 10
1316.7427542661662
 20
904.18187924073789
 11
1317.8726406935325
 21
905.31176566810439
  0
LINE
  8
_0-a_極細3
  6
CONTINUOUS
 62
    7
 10
1306.4785281438371
 20
897.3117656681045
 11
1316.3427542661661
 21
907.17599179043327
  0
LINE
  8
_0-a_極細3
  6
CONTINUOUS
 62
    7
 10
1303.0844155941418
 20
897.3117656681045
 11
1316.3427542661661
 21
910.57010434012875
  0
LINE
  8
_0-a_極細3
  6
CONTINUOUS
 62
    7
 10
1299.6903030444464
 20
897.3117656681045
 11
1316.3427542661661
 21
913.96421688982423
  0
LINE
  8
_0-a_極細3
  6
CONTINUOUS
 62
    7
 10
1296.296190494751
 20
897.3117656681045
 11
1314.296190494751
 21
915.3117656681045
  0
LINE
  8
_0-a_極細3
  6
CONTINUOUS
 62
    7
 10
1292.9020779450557
 20
897.3117656681045
 11
1310.9020779450557
 21
915.3117656681045
  0
LINE
  8
_0-a_極細3
  6
CONTINUOUS
 62
    7
 10
1289.5079653953601
 20
897.3117656681045
 11
1297.5079653953603
 21
905.31176566810439
  0
LINE
  8
_0-a_極細3
  6
CONTINUOUS
 62
    7
 10
1297.7427542661662
 20
905.54655453891041
 11
1307.5079653953603
 21
915.3117656681045
  0
LINE
  8
_0-a_極細3
  6
CONTINUOUS
 62
    7
 10
1286.1138528456645
 20
897.3117656681045
 11
1294.1138528456647
 21
905.31176566810439
  0
LINE
  8
_0-a_極細3
  6
CONTINUOUS
 62
    7
 10
1297.7664452740219
 20
908.96435809646164
 11
1304.1138528456645
 21
915.3117656681045
  0
LINE
  8
_0-a_極細3
  6
CONTINUOUS
 62
    7
 10
1290.7197402959691
 20
905.31176566810439
 11
1282.7197402959691
 21
897.3117656681045
  0
LINE
  8
_0-a_極細3
  6
CONTINUOUS
 62
    7
 10
1287.3256277462738
 20
905.31176566810439
 11
1279.3256277462738
 21
897.3117656681045
  0
LINE
  8
_0-a_極細3
  6
CONTINUOUS
 62
    7
 10
1283.9315151965784
 20
905.31176566810439
 11
1275.9315151965784
 21
897.3117656681045
  0
LINE
  8
_0-a_極細3
  6
CONTINUOUS
 62
    7
 10
1280.537402646883
 20
905.31176566810439
 11
1272.537402646883
 21
897.3117656681045
  0
LINE
  8
_0-a_極細3
  6
CONTINUOUS
 62
    7
 10
1277.1432900971877
 20
905.31176566810439
 11
1269.1432900971877
 21
897.3117656681045
  0
LINE
  8
_0-a_極細3
  6
CONTINUOUS
 62
    7
 10
1273.7491775474919
 20
905.31176566810439
 11
1266.7596732684106
 21
898.32226138902297
  0
LINE
  8
_0-a_極細3
  6
CONTINUOUS
 62
    7
 10
1270.3550649977967
 20
905.31176566810439
 11
1265.9006037594199
 21
900.85730442972761
  0
LINE
  8
_0-a_極細3
  6
CONTINUOUS
 62
    7
 10
1266.9609524481011
 20
905.31176566810439
 11
1265.0932373514854
 21
903.44405057148845
  0
LINE
  8
_0-a_極細3
  6
CONTINUOUS
 62
    7
 10
1330.3661774457496
 20
917.8117656681045
 11
1331.7427542661662
 21
919.1883424885209
  0
LINE
  8
_0-a_極細3
  6
CONTINUOUS
 62
    7
 10
1326.9720648960542
 20
917.8117656681045
 11
1331.7427542661662
 21
922.58245503821638
  0
LINE
  8
_0-a_極細3
  6
CONTINUOUS
 62
    7
 10
1331.0779523463589
 20
925.3117656681045
 11
1323.7427542661662
 21
917.97656758791175
  0
LINE
  8
_0-a_極細3
  6
CONTINUOUS
 62
    7
 10
1327.6838397966635
 20
925.3117656681045
 11
1322.6838397966635
 21
920.31176566810439
  0
LINE
  8
_0-a_極細3
  6
CONTINUOUS
 62
    7
 10
1324.2897272469681
 20
925.3117656681045
 11
1319.2897272469679
 21
920.31176566810439
  0
LINE
  8
_0-a_極細3
  6
CONTINUOUS
 62
    7
 10
1320.8956146972725
 20
925.3117656681045
 11
1316.7427542661662
 21
921.15890523699807
  0
LINE
  8
_0-a_極細3
  6
CONTINUOUS
 62
    7
 10
1317.501502147577
 20
925.3117656681045
 11
1316.7427542661662
 21
924.55301778669354
  0
LINE
  8
_0-a_極細3
  6
CONTINUOUS
 62
    7
 10
1476.2116930015181
 20
963.80478599302319
 11
1478.6636537238121
 21
966.25674671531726
  0
LINE
  8
_0-a_極細3
  6
CONTINUOUS
 62
    7
 10
1472.6374542965973
 20
963.62465983779794
 11
1477.8749462823057
 21
968.86215182350645
  0
LINE
  8
_0-a_極細3
  6
CONTINUOUS
 62
    7
 10
1469.0632155916765
 20
963.44453368257234
 11
1477.0338503059133
 21
971.41516839680935
  0
LINE
  8
_0-a_極細3
  6
CONTINUOUS
 62
    7
 10
1465.4889768867556
 20
963.26440752734698
 11
1474.5363350275127
 21
972.31176566810416
  0
LINE
  8
_0-a_極細3
  6
CONTINUOUS
 62
    7
 10
1461.9147381818348
 20
963.08428137212161
 11
1471.1422224778173
 21
972.31176566810416
  0
LINE
  8
_0-a_極細3
  6
CONTINUOUS
 62
    7
 10
1458.3404994769139
 20
962.90415521689624
 11
1467.7481099281217
 21
972.31176566810416
  0
LINE
  8
_0-a_極細3
  6
CONTINUOUS
 62
    7
 10
1454.7662607719931
 20
962.72402906167088
 11
1464.3539973784264
 21
972.31176566810416
  0
LINE
  8
_0-a_極細3
  6
CONTINUOUS
 62
    7
 10
1451.1920220670722
 20
962.54390290644551
 11
1460.959884828731
 21
972.31176566810416
  0
LINE
  8
_0-a_極細3
  6
CONTINUOUS
 62
    7
 10
1447.6177833621514
 20
962.36377675122014
 11
1457.5657722790356
 21
972.31176566810416
  0
LINE
  8
_0-a_極細3
  6
CONTINUOUS
 62
    7
 10
1444.0435446572305
 20
962.18365059599478
 11
1454.1716597293403
 21
972.31176566810416
  0
LINE
  8
_0-a_極細3
  6
CONTINUOUS
 62
    7
 10
1423.7775471796449
 20
945.3117656681045
 11
1426.742754266168
 21
948.27697275462765
  0
LINE
  8
_0-a_極細3
  6
CONTINUOUS
 62
    7
 10
1440.4693059523097
 20
962.0035244407693
 11
1450.7775471796444
 21
972.31176566810416
  0
LINE
  8
_0-a_極細3
  6
CONTINUOUS
 62
    7
 10
1420.3834346299495
 20
945.3117656681045
 11
1426.742754266168
 21
951.6710853043229
  0
LINE
  8
_0-a_極細3
  6
CONTINUOUS
 62
    7
 10
1436.8950672473889
 20
961.82339828554382
 11
1447.3834346299493
 21
972.31176566810416
  0
LINE
  8
_0-a_極細3
  6
CONTINUOUS
 62
    7
 10
1416.9893220802542
 20
945.3117656681045
 11
1426.742754266168
 21
955.06519785401838
  0
LINE
  8
_0-a_極細3
  6
CONTINUOUS
 62
    7
 10
1433.320828542468
 20
961.64327213031856
 11
1443.9893220802539
 21
972.31176566810416
  0
LINE
  8
_0-a_極細3
  6
CONTINUOUS
 62
    7
 10
1413.5952095305588
 20
945.3117656681045
 11
1426.742754266168
 21
958.45931040371374
  0
LINE
  8
_0-a_極細3
  6
CONTINUOUS
 62
    7
 10
1429.7465898375472
 20
961.46314597509297
 11
1440.5952095305583
 21
972.31176566810416
  0
LINE
  8
_0-a_極細3
  6
CONTINUOUS
 62
    7
 10
1411.742754266168
 20
946.85342295340934
 11
1437.201096980863
 21
972.31176566810416
  0
LINE
  8
_0-a_極細3
  6
CONTINUOUS
 62
    7
 10
1411.742754266168
 20
950.24753550310459
 11
1433.8069844311676
 21
972.31176566810416
  0
LINE
  8
_0-a_極細3
  6
CONTINUOUS
 62
    7
 10
1411.742754266168
 20
953.64164805280018
 11
1430.4128718814723
 21
972.31176566810427
  0
LINE
  8
_0-a_極細3
  6
CONTINUOUS
 62
    7
 10
1411.742754266168
 20
957.03576060249566
 11
1427.0187593317769
 21
972.31176566810427
  0
LINE
  8
_0-a_極細3
  6
CONTINUOUS
 62
    7
 10
1411.742754266168
 20
960.42987315219102
 11
1423.6246467820815
 21
972.31176566810427
  0
LINE
  8
_0-a_極細3
  6
CONTINUOUS
 62
    7
 10
1411.742754266168
 20
963.82398570188627
 11
1420.2305342323862
 21
972.31176566810427
  0
LINE
  8
_0-a_極細3
  6
CONTINUOUS
 62
    7
 10
1411.742754266168
 20
967.21809825158186
 11
1416.8364216826906
 21
972.3117656681045
  0
LINE
  8
_0-a_極細3
  6
CONTINUOUS
 62
    7
 10
1411.742754266168
 20
970.61221080127734
 11
1413.442309132995
 21
972.3117656681045
  0
LINE
  8
_0-a_極細3
  6
CONTINUOUS
 62
    7
 10
1425.8676866962924
 20
920.31176566810439
 11
1426.742754266168
 21
921.18683323798007
  0
LINE
  8
_0-a_極細3
  6
CONTINUOUS
 62
    7
 10
1422.473574146597
 20
920.31176566810439
 11
1426.742754266168
 21
924.58094578767555
  0
LINE
  8
_0-a_極細3
  6
CONTINUOUS
 62
    7
 10
1416.5794615969016
 20
917.8117656681045
 11
1424.0794615969016
 21
925.3117656681045
  0
LINE
  8
_0-a_極細3
  6
CONTINUOUS
 62
    7
 10
1413.1853490472063
 20
917.8117656681045
 11
1420.6853490472063
 21
925.3117656681045
  0
LINE
  8
_0-a_極細3
  6
CONTINUOUS
 62
    7
 10
1411.742754266168
 20
919.76328343676175
 11
1417.2912364975109
 21
925.3117656681045
  0
LINE
  8
_0-a_極細3
  6
CONTINUOUS
 62
    7
 10
1411.742754266168
 20
923.15739598645723
 11
1413.8971239478153
 21
925.3117656681045
  0
LINE
  8
_0-a_極細3
  6
CONTINUOUS
 62
    7
 10
1474.7047012291639
 20
897.3117656681045
 11
1477.2561081114566
 21
899.86317255039728
  0
LINE
  8
_0-a_極細3
  6
CONTINUOUS
 62
    7
 10
1471.3105886794685
 20
897.3117656681045
 11
1478.7838019205387
 21
904.78497890917492
  0
LINE
  8
_0-a_極細3
  6
CONTINUOUS
 62
    7
 10
1467.9164761297729
 20
897.3117656681045
 11
1475.9164761297729
 21
905.3117656681045
  0
LINE
  8
_0-a_極細3
  6
CONTINUOUS
 62
    7
 10
1464.5223635800776
 20
897.3117656681045
 11
1472.5223635800776
 21
905.31176566810439
  0
LINE
  8
_0-a_極細3
  6
CONTINUOUS
 62
    7
 10
1461.1282510303822
 20
897.3117656681045
 11
1469.1282510303822
 21
905.31176566810439
  0
LINE
  8
_0-a_極細3
  6
CONTINUOUS
 62
    7
 10
1457.7341384806866
 20
897.3117656681045
 11
1465.7341384806864
 21
905.31176566810439
  0
LINE
  8
_0-a_極細3
  6
CONTINUOUS
 62
    7
 10
1454.3400259309913
 20
897.3117656681045
 11
1462.3400259309913
 21
905.31176566810439
  0
LINE
  8
_0-a_極細3
  6
CONTINUOUS
 62
    7
 10
1450.9459133812957
 20
897.3117656681045
 11
1458.9459133812959
 21
905.31176566810439
  0
LINE
  8
_0-a_極細3
  6
CONTINUOUS
 62
    7
 10
1447.5518008316003
 20
897.3117656681045
 11
1455.5518008316003
 21
905.31176566810439
  0
LINE
  8
_0-a_極細3
  6
CONTINUOUS
 62
    7
 10
1444.1576882819049
 20
897.3117656681045
 11
1452.1576882819049
 21
905.31176566810439
  0
LINE
  8
_0-a_極細3
  6
CONTINUOUS
 62
    7
 10
1440.7635757322096
 20
897.3117656681045
 11
1448.7635757322091
 21
905.31176566810439
  0
LINE
  8
_0-a_極細3
  6
CONTINUOUS
 62
    7
 10
1437.3694631825142
 20
897.3117656681045
 11
1445.742754266168
 21
905.68505675175857
  0
LINE
  8
_0-a_極細3
  6
CONTINUOUS
 62
    7
 10
1433.9753506328184
 20
897.3117656681045
 11
1445.7125140251064
 21
909.0489290603922
  0
LINE
  8
_0-a_極細3
  6
CONTINUOUS
 62
    7
 10
1430.581238083123
 20
897.3117656681045
 11
1445.0481892217913
 21
911.77871680677254
  0
LINE
  8
_0-a_極細3
  6
CONTINUOUS
 62
    7
 10
1427.1871255334277
 20
897.3117656681045
 11
1443.7877911482917
 21
913.91243128296833
  0
LINE
  8
_0-a_極細3
  6
CONTINUOUS
 62
    7
 10
1423.7930129837323
 20
897.3117656681045
 11
1441.7930129837323
 21
915.31176566810427
  0
LINE
  8
_0-a_極細3
  6
CONTINUOUS
 62
    7
 10
1420.3989004340369
 20
897.3117656681045
 11
1426.742754266168
 21
903.65561950023562
  0
LINE
  8
_0-a_極細3
  6
CONTINUOUS
 62
    7
 10
1427.1427542661679
 20
904.05561950023537
 11
1438.3989004340369
 21
915.31176566810427
  0
LINE
  8
_0-a_極細3
  6
CONTINUOUS
 62
    7
 10
1417.0047878843416
 20
897.3117656681045
 11
1425.0047878843416
 21
905.31176566810439
  0
LINE
  8
_0-a_極細3
  6
CONTINUOUS
 62
    7
 10
1427.1427542661679
 20
907.44973204993096
 11
1435.0047878843416
 21
915.31176566810427
  0
LINE
  8
_0-a_極細3
  6
CONTINUOUS
 62
    7
 10
1413.610675334646
 20
897.3117656681045
 11
1421.6106753346457
 21
905.31176566810439
  0
LINE
  8
_0-a_極細3
  6
CONTINUOUS
 62
    7
 10
1427.1427542661679
 20
910.84384459962644
 11
1431.610675334646
 21
915.3117656681045
  0
LINE
  8
_0-a_極細3
  6
CONTINUOUS
 62
    7
 10
1411.742754266168
 20
898.83795714932182
 11
1419.742754266168
 21
906.83795714932194
  0
LINE
  8
_0-a_極細3
  6
CONTINUOUS
 62
    7
 10
1427.1427542661679
 20
914.2379571493218
 11
1428.2165627849506
 21
915.3117656681045
  0
LINE
  8
_0-a_極細3
  6
CONTINUOUS
 62
    7
 10
1411.742754266168
 20
902.2320696990173
 11
1417.322450235255
 21
907.8117656681045
  0
LINE
  8
_0-a_極細3
  6
CONTINUOUS
 62
    7
 10
1411.742754266168
 20
905.62618224871267
 11
1413.9283376855597
 21
907.8117656681045
  0
LINE
  8
_0-a_極細3
  6
CONTINUOUS
 62
    7
 10
1290.742754266168
 20
943.3117656681045
 11
1299.7427542661662
 21
943.3117656681045
  0
LINE
  8
_0-a_極細3
  6
CONTINUOUS
 62
    7
 10
1316.7427542661662
 20
943.3117656681045
 11
1426.742754266168
 21
943.3117656681045
  0
LINE
  8
_0-a_極細3
  6
CONTINUOUS
 62
    7
 10
1290.742754266168
 20
927.3117656681045
 11
1299.7427542661662
 21
927.3117656681045
  0
LINE
  8
_0-a_極細3
  6
CONTINUOUS
 62
    7
 10
1316.7427542661662
 20
927.3117656681045
 11
1426.742754266168
 21
927.3117656681045
  0
LINE
  8
_0-a_極細3
  6
CONTINUOUS
 62
    7
 10
1290.742754266168
 20
943.3117656681045
 11
1290.742754266168
 21
927.3117656681045
  0
LINE
  8
_0-a_極細3
  6
CENTER1
 62
    7
 10
1446.2902579488325
 20
935.31176566810439
 11
1289.1211980861131
 21
935.31176566810439
  0
LINE
  8
_0-a_極細3
  6
CONTINUOUS
 62
    7
 10
1426.742754266168
 20
932.1922316652923
 11
1423.7632841099039
 21
943.3117656681045
  0
LINE
  8
_0-a_極細3
  6
CONTINUOUS
 62
    7
 10
1423.7023112310799
 20
927.3117656681045
 11
1419.4151241521818
 21
943.3117656681045
  0
LINE
  8
_0-a_極細3
  6
CONTINUOUS
 62
    7
 10
1419.3541512733573
 20
927.3117656681045
 11
1415.0669641944596
 21
943.3117656681045
  0
LINE
  8
_0-a_極細3
  6
CONTINUOUS
 62
    7
 10
1415.0059913156351
 20
927.3117656681045
 11
1410.718804236737
 21
943.3117656681045
  0
LINE
  8
_0-a_極細3
  6
CONTINUOUS
 62
    7
 10
1410.6578313579128
 20
927.3117656681045
 11
1406.3706442790149
 21
943.3117656681045
  0
LINE
  8
_0-a_極細3
  6
CONTINUOUS
 62
    7
 10
1406.3096714001904
 20
927.3117656681045
 11
1402.0224843212925
 21
943.3117656681045
  0
LINE
  8
_0-a_極細3
  6
CONTINUOUS
 62
    7
 10
1401.961511442468
 20
927.3117656681045
 11
1397.6743243635701
 21
943.3117656681045
  0
LINE
  8
_0-a_極細3
  6
CONTINUOUS
 62
    7
 10
1397.6133514847456
 20
927.3117656681045
 11
1393.3261644058475
 21
943.3117656681045
  0
LINE
  8
_0-a_極細3
  6
CONTINUOUS
 62
    7
 10
1393.265191527023
 20
927.3117656681045
 11
1388.9780044481254
 21
943.3117656681045
  0
LINE
  8
_0-a_極細3
  6
CONTINUOUS
 62
    7
 10
1388.9170315693009
 20
927.3117656681045
 11
1384.629844490403
 21
943.3117656681045
  0
LINE
  8
_0-a_極細3
  6
CONTINUOUS
 62
    7
 10
1384.5688716115787
 20
927.3117656681045
 11
1380.2816845326806
 21
943.3117656681045
  0
LINE
  8
_0-a_極細3
  6
CONTINUOUS
 62
    7
 10
1380.2207116538561
 20
927.3117656681045
 11
1375.9335245749585
 21
943.3117656681045
  0
LINE
  8
_0-a_極細3
  6
CONTINUOUS
 62
    7
 10
1375.872551696134
 20
927.3117656681045
 11
1371.5853646172359
 21
943.3117656681045
  0
LINE
  8
_0-a_極細3
  6
CONTINUOUS
 62
    7
 10
1371.5243917384116
 20
927.3117656681045
 11
1367.2372046595137
 21
943.3117656681045
  0
LINE
  8
_0-a_極細3
  6
CONTINUOUS
 62
    7
 10
1367.1762317806892
 20
927.3117656681045
 11
1362.8890447017911
 21
943.3117656681045
  0
LINE
  8
_0-a_極細3
  6
CONTINUOUS
 62
    7
 10
1362.8280718229666
 20
927.3117656681045
 11
1358.540884744069
 21
943.3117656681045
  0
LINE
  8
_0-a_極細3
  6
CONTINUOUS
 62
    7
 10
1358.4799118652445
 20
927.3117656681045
 11
1354.1927247863466
 21
943.3117656681045
  0
LINE
  8
_0-a_極細3
  6
CONTINUOUS
 62
    7
 10
1354.1317519075221
 20
927.3117656681045
 11
1349.8445648286242
 21
943.3117656681045
  0
LINE
  8
_0-a_極細3
  6
CONTINUOUS
 62
    7
 10
1349.7835919497998
 20
927.3117656681045
 11
1345.4964048709019
 21
943.3117656681045
  0
LINE
  8
_0-a_極細3
  6
CONTINUOUS
 62
    7
 10
1345.4354319920776
 20
927.3117656681045
 11
1341.1482449131795
 21
943.3117656681045
  0
LINE
  8
_0-a_極細3
  6
CONTINUOUS
 62
    7
 10
1341.087272034355
 20
927.3117656681045
 11
1336.8000849554574
 21
943.3117656681045
  0
LINE
  8
_0-a_極細3
  6
CONTINUOUS
 62
    7
 10
1336.7391120766329
 20
927.3117656681045
 11
1332.4519249977347
 21
943.3117656681045
  0
LINE
  8
_0-a_極細3
  6
CONTINUOUS
 62
    7
 10
1332.3909521189103
 20
927.3117656681045
 11
1328.1037650400126
 21
943.3117656681045
  0
LINE
  8
_0-a_極細3
  6
CONTINUOUS
 62
    7
 10
1328.0427921611881
 20
927.3117656681045
 11
1323.75560508229
 21
943.3117656681045
  0
LINE
  8
_0-a_極細3
  6
CONTINUOUS
 62
    7
 10
1323.6946322034657
 20
927.3117656681045
 11
1319.4074451245679
 21
943.3117656681045
  0
LINE
  8
_0-a_極細3
  6
CONTINUOUS
 62
    7
 10
1316.7427542661662
 20
937.02897345646716
 11
1319.3464722457434
 21
927.3117656681045
  0
LINE
  8
_0-a_極細3
  6
CONTINUOUS
 62
    7
 10
1299.7427542661662
 20
935.56362165851237
 11
1297.6666453359562
 21
943.3117656681045
  0
LINE
  8
_0-a_極細3
  6
CONTINUOUS
 62
    7
 10
1297.6056724571317
 20
927.3117656681045
 11
1293.3184853782336
 21
943.3117656681045
  0
LINE
  8
_0-a_極細3
  6
CONTINUOUS
 62
    7
 10
1290.742754266168
 20
936.69697116331304
 11
1293.2575124994094
 21
927.3117656681045
  0
LINE
  8
_0-d_寸法3
  6
CONTINUOUS
 62
    7
 10
1270.2664245897245
 20
798.97568510897236
 11
1428.583177869227
 21
923.17568510897399
  0
LINE
  8
_0-d_寸法3
  6
CONTINUOUS
 62
    7
 10
1428.583177869227
 20
923.17568510897399
 11
1421.3805300610829
 21
913.57767153574775
  0
LINE
  8
_0-d_寸法3
  6
CONTINUOUS
 62
    7
 10
1428.583177869227
 20
923.17568510897399
 11
1417.5464951062488
 21
918.46488543276439
  0
TEXT
  8
_0-7_枠細線
 62
    5
 10
1294.4755209888224
 20
735.15694704619295
 40
24.000000000000007
 41
1
 50
0
  1
Ａ　部　詳　細
  0
TEXT
  8
_0-7_枠細線
 62
    5
 10
1158.5999999999999
 20
180
 40
24
 41
0.5999999999999998
 50
0
  1
陶磁器製ドアハンドル
  0
TEXT
  8
_0-7_枠細線
 62
    5
 10
1158.5999999999999
 20
132
 40
24
 41
0.5999999999999998
 50
0
  1
ＤＣ－
  0
TEXT
  8
_0-7_枠細線
 62
    5
 10
1201.8000000000002
 20
132
 40
24
 41
1
 50
0
  1
●●●/○○○
  0
TEXT
  8
_0-7_枠細線
 62
    5
 10
1158.5999999999999
 20
84
 40
24
 41
0.5999999999999998
 50
0
  1
柄については上記品番表から２種選択
  0
TEXT
  8
_0-7_枠細線
 62
    5
 10
1506
 20
114
 40
24
 41
1
 50
0
  1
大野
  0
TEXT
  8
_0-7_枠細線
 62
    5
 10
1578
 20
114
 40
24
 41
1
 50
0
  1
深川
  0
TEXT
  8
_0-7_枠細線
 62
    5
 10
1572
 20
81
 40
18
 41
0.6666666666666666
 50
0
  1
２０１３年０３月０１日
  0
TEXT
  8
_0-7_枠細線
 62
    5
 10
1401.1800000000007
 20
343.2824999999998
 40
18
 41
0.5999999999999999
 50
0
  1
野　　苺
  0
TEXT
  8
_0-7_枠細線
 62
    5
 10
1401.1800000000007
 20
313.28249999999969
 40
18
 41
0.5999999999999999
 50
0
  1
コバルト葡萄
  0
TEXT
  8
_0-7_枠細線
 62
    5
 10
1401.1800000000007
 20
283.28249999999969
 40
18
 41
0.5999999999999999
 50
0
  1
ルビー葡萄
  0
LINE
  8
_0-7_枠細線
  6
CONTINUOUS
 62
    5
 10
1273.98
 20
367.28249999999991
 11
1483.98
 21
367.28249999999991
  0
LINE
  8
_0-7_枠細線
  6
CONTINUOUS
 62
    5
 10
1273.98
 20
337.2824999999998
 11
1483.98
 21
337.2824999999998
  0
LINE
  8
_0-7_枠細線
  6
CONTINUOUS
 62
    5
 10
1273.98
 20
307.2824999999998
 11
1483.98
 21
307.2824999999998
  0
LINE
  8
_0-7_枠細線
  6
CONTINUOUS
 62
    5
 10
1273.98
 20
277.2824999999998
 11
1483.98
 21
277.2824999999998
  0
TEXT
  8
_0-7_枠細線
 62
    5
 10
1312.3800000000001
 20
343.10930772117081
 40
18
 41
0.7999999999999998
 50
0
  1
ＩＷ
  0
TEXT
  8
_0-7_枠細線
 62
    5
 10
1312.3800000000001
 20
313.10930772117069
 40
18
 41
0.7999999999999998
 50
0
  1
ＢＢ
  0
TEXT
  8
_0-7_枠細線
 62
    5
 10
1312.3800000000001
 20
283.10930772117069
 40
18
 41
0.7999999999999998
 50
0
  1
ＢＲ
  0
TEXT
  8
_0-7_枠細線
 62
    5
 10
1432.7999999999997
 20
141
 40
24
 41
0.6999999999999998
 50
0
  1
１：６
  0
LINE
  8
_0-5_寸法線
  6
CONTINUOUS
 62
    7
 10
425.36524819545571
 20
975.42003218851119
 11
425.36524819545571
 21
1044.2402863931063
  0
LINE
  8
_0-5_寸法線
  6
CONTINUOUS
 62
    7
 10
425.36524819545571
 20
1038.2402863931063
 11
436.9563581109245
 21
1041.3461149343366
  0
LINE
  8
_0-5_寸法線
  6
CONTINUOUS
 62
    7
 10
425.36524819545571
 20
1038.2402863931063
 11
436.9563581109245
 21
1035.134457851876
  0
LINE
  8
_0-5_寸法線
  6
CONTINUOUS
 62
    7
 10
496.86524819545025
 20
1029.3637231486994
 11
496.86524819545025
 21
1032.2402863931063
  0
LINE
  8
_0-5_寸法線
  6
CONTINUOUS
 62
    7
 10
496.86524819545025
 20
1038.2402863931063
 11
485.27413827998134
 21
1035.134457851876
  0
LINE
  8
_0-5_寸法線
  6
CONTINUOUS
 62
    7
 10
496.86524819545025
 20
1038.2402863931063
 11
485.27413827998146
 21
1041.3461149343366
  0
LINE
  8
_0-5_寸法線
  6
CONTINUOUS
 62
    7
 10
425.36524819545571
 20
1038.2402863931063
 11
496.86524819545025
 21
1038.2402863931063
  0
TEXT
  8
_0-5_寸法線
 62
    7
 10
452.1152481954532
 20
1038.2402863931063
 40
18
 41
1
 50
0
  1
72
  0
LINE
  8
_0-5_寸法線
  6
CONTINUOUS
 62
    7
 10
496.86524819545025
 20
1038.2402863931063
 11
508.45635811091904
 21
1041.3461149343366
  0
LINE
  8
_0-5_寸法線
  6
CONTINUOUS
 62
    7
 10
496.86524819545025
 20
1038.2402863931063
 11
508.45635811091904
 21
1035.134457851876
  0
LINE
  8
_0-5_寸法線
  6
CONTINUOUS
 62
    7
 10
541.86524850160276
 20
1029.3637231486994
 11
541.86524850160276
 21
1032.2402863931063
  0
LINE
  8
_0-5_寸法線
  6
CONTINUOUS
 62
    7
 10
541.86524850160276
 20
1038.2402863931063
 11
530.27413858613386
 21
1035.134457851876
  0
LINE
  8
_0-5_寸法線
  6
CONTINUOUS
 62
    7
 10
541.86524850160276
 20
1038.2402863931063
 11
530.27413858613386
 21
1041.3461149343366
  0
LINE
  8
_0-5_寸法線
  6
CONTINUOUS
 62
    7
 10
496.86524819545025
 20
1038.2402863931063
 11
541.86524850160276
 21
1038.2402863931063
  0
TEXT
  8
_0-5_寸法線
 62
    7
 10
492.36524834852651
 20
1038.2402863931063
 40
18
 41
1
 50
0
  1
20～45
  0
LINE
  8
_0-5_寸法線
  6
CONTINUOUS
 62
    7
 10
541.86524850160276
 20
1038.2402863931063
 11
553.45635841707144
 21
1041.3461149343366
  0
LINE
  8
_0-5_寸法線
  6
CONTINUOUS
 62
    7
 10
541.86524850160276
 20
1038.2402863931063
 11
553.45635841707144
 21
1035.134457851876
  0
LINE
  8
_0-5_寸法線
  6
CONTINUOUS
 62
    7
 10
613.36524850159901
 20
975.42003218851119
 11
613.36524850159901
 21
1044.2402863931063
  0
LINE
  8
_0-5_寸法線
  6
CONTINUOUS
 62
    7
 10
613.36524850159901
 20
1038.2402863931063
 11
601.77413858613022
 21
1035.134457851876
  0
LINE
  8
_0-5_寸法線
  6
CONTINUOUS
 62
    7
 10
613.36524850159901
 20
1038.2402863931063
 11
601.77413858613022
 21
1041.3461149343366
  0
LINE
  8
_0-5_寸法線
  6
CONTINUOUS
 62
    7
 10
541.86524850160276
 20
1038.2402863931063
 11
613.36524850159901
 21
1038.2402863931063
  0
TEXT
  8
_0-5_寸法線
 62
    7
 10
568.61524850160095
 20
1038.2402863931063
 40
18
 41
1
 50
0
  1
72
  0
LINE
  8
_0-5_寸法線
  6
CONTINUOUS
 62
    7
 10
457.36524819545394
 20
667.99994587122319
 11
468.95635811092274
 21
671.10577441245346
  0
LINE
  8
_0-5_寸法線
  6
CONTINUOUS
 62
    7
 10
457.36524819545394
 20
667.99994587122319
 11
468.95635811092274
 21
664.89411732999292
  0
LINE
  8
_0-5_寸法線
  6
CONTINUOUS
 62
    7
 10
496.86524819545025
 20
667.99994587122319
 11
485.27413827998134
 21
664.89411732999304
  0
LINE
  8
_0-5_寸法線
  6
CONTINUOUS
 62
    7
 10
496.86524819545025
 20
667.99994587122319
 11
485.27413827998146
 21
671.10577441245346
  0
LINE
  8
_0-5_寸法線
  6
CONTINUOUS
 62
    7
 10
457.36524819545394
 20
667.99994587122319
 11
496.86524819545025
 21
667.99994587122319
  0
TEXT
  8
_0-5_寸法線
 62
    7
 10
459.11524819545207
 20
667.99994587122319
 40
18
 41
1
 50
0
  1
(40)
  0
LINE
  8
_0-d_寸法3
  6
CONTINUOUS
 62
    7
 10
1390.310091449473
 20
929.28778387440695
 11
1398.0235427657115
 21
920.09525055697929
  0
LINE
  8
_0-d_寸法3
  6
CONTINUOUS
 62
    7
 10
1390.310091449473
 20
929.28778387440695
 11
1392.3938695814761
 21
917.47009083826049
  0
LINE
  8
_0-d_寸法3
  6
CONTINUOUS
 62
    7
 10
1390.310091449473
 20
929.28778387440695
 11
1445.8193550762444
 21
810.24778387440506
  0
LINE
  8
_0-d_寸法3
  6
CONTINUOUS
 62
    7
 10
1445.8193550762444
 20
810.24778387440506
 11
1589.8193550762442
 21
810.24778387440506
  0
TEXT
  8
_0-d_寸法3
 62
    7
 10
1445.8193550762444
 20
810.24778387440506
 40
18
 41
1
 50
0
  1
小形ボルトM8×70
  0
LINE
  8
_0-d_寸法3
  6
CONTINUOUS
 62
    7
 10
1315.6187334247802
 20
923.58012955341906
 11
1314.5728645118083
 21
911.6257931763181
  0
LINE
  8
_0-d_寸法3
  6
CONTINUOUS
 62
    7
 10
1315.6187334247802
 20
923.58012955341906
 11
1308.7358161885677
 21
913.75030502195102
  0
LINE
  8
_0-d_寸法3
  6
CONTINUOUS
 62
    7
 10
1315.6187334247802
 20
923.58012955341906
 11
1270.2664245897245
 21
798.97568510897236
  0
LINE
  8
_0-d_寸法3
  6
CONTINUOUS
 62
    7
 10
1270.2664245897245
 20
798.97568510897236
 11
1180.2664245897245
 21
798.97568510897236
  0
TEXT
  8
_0-d_寸法3
 62
    7
 10
1180.2664245897245
 20
798.97568510897236
 40
18
 41
1
 50
0
  1
ワッシャM8
  0
LINE
  8
_0-d_寸法3
  6
CONTINUOUS
 62
    7
 10
1301.7105852766322
 20
925.86556165218462
 11
1300.6647163636603
 21
913.91122527508367
  0
LINE
  8
_0-d_寸法3
  6
CONTINUOUS
 62
    7
 10
1301.7105852766322
 20
925.86556165218462
 11
1294.8276680404197
 21
916.03573712071659
  0
LINE
  8
_0-d_寸法3
  6
CONTINUOUS
 62
    7
 10
1301.7105852766322
 20
925.86556165218462
 11
1267.3762395825734
 21
831.53272214601043
  0
LINE
  8
_0-d_寸法3
  6
CONTINUOUS
 62
    7
 10
1267.3762395825734
 20
831.53272214601043
 11
1159.3762395825734
 21
831.53272214601043
  0
TEXT
  8
_0-d_寸法3
 62
    7
 10
1159.3762395825734
 20
831.53272214601043
 40
18
 41
1
 50
0
  1
小形ナットM8
  0
TEXT
  8
_0-7_枠細線
 62
    5
 10
1431.7800000000002
 20
523.2824999999998
 40
18
 41
0.8000000000000001
 50
0
  1
柄
  0
TEXT
  8
_0-7_枠細線
 62
    5
 10
1401.1800000000007
 20
403.28249999999986
 40
18
 41
0.5999999999999999
 50
0
  1
古伊万里木甲
  0
TEXT
  8
_0-7_枠細線
 62
    5
 10
1401.1800000000007
 20
373.28249999999991
 40
18
 41
0.5999999999999999
 50
0
  1
古伊万里花
  0
TEXT
  8
_0-7_枠細線
 62
    5
 10
1401.1800000000007
 20
493.28249999999986
 40
18
 41
0.5999999999999999
 50
0
  1
花　　鳥
  0
TEXT
  8
_0-7_枠細線
 62
    5
 10
1401.1800000000007
 20
433.28250000000014
 40
18
 41
0.5999999999999999
 50
0
  1
古伊万里花唐草
  0
TEXT
  8
_0-7_枠細線
 62
    5
 10
1401.1800000000007
 20
463.28249999999986
 40
18
 41
0.5999999999999999
 50
0
  1
モダンスクエア
  0
LINE
  8
_0-7_枠細線
  6
CONTINUOUS
 62
    5
 10
1393.9800000000005
 20
547.2824999999998
 11
1393.9800000000005
 21
277.2824999999998
  0
LINE
  8
_0-7_枠細線
  6
CONTINUOUS
 62
    5
 10
1483.98
 20
547.2824999999998
 11
1483.98
 21
277.2824999999998
  0
TEXT
  8
_0-7_枠細線
 62
    5
 10
1308.1800000000003
 20
523.2824999999998
 40
18
 41
0.8000000000000001
 50
0
  1
品　　番
  0
LINE
  8
_0-7_枠細線
  6
CONTINUOUS
 62
    5
 10
1273.98
 20
547.2824999999998
 11
1483.98
 21
547.2824999999998
  0
LINE
  8
_0-7_枠細線
  6
CONTINUOUS
 62
    5
 10
1273.98
 20
517.2824999999998
 11
1483.98
 21
517.2824999999998
  0
LINE
  8
_0-7_枠細線
  6
CONTINUOUS
 62
    5
 10
1273.98
 20
487.28250000000003
 11
1483.98
 21
487.28250000000003
  0
LINE
  8
_0-7_枠細線
  6
CONTINUOUS
 62
    5
 10
1273.98
 20
457.28250000000003
 11
1483.98
 21
457.28250000000003
  0
LINE
  8
_0-7_枠細線
  6
CONTINUOUS
 62
    5
 10
1273.98
 20
427.28249999999986
 11
1483.98
 21
427.28249999999986
  0
LINE
  8
_0-7_枠細線
  6
CONTINUOUS
 62
    5
 10
1273.98
 20
397.28249999999986
 11
1483.98
 21
397.28249999999986
  0
LINE
  8
_0-7_枠細線
  6
CONTINUOUS
 62
    5
 10
1273.98
 20
547.2824999999998
 11
1273.98
 21
277.2824999999998
  0
TEXT
  8
_0-7_枠細線
 62
    5
 10
1312.3800000000001
 20
493.10930772117081
 40
18
 41
0.7999999999999998
 50
0
  1
ＣＷ
  0
TEXT
  8
_0-7_枠細線
 62
    5
 10
1312.3800000000001
 20
463.10930772117092
 40
18
 41
0.7999999999999998
 50
0
  1
ＩＥ
  0
TEXT
  8
_0-7_枠細線
 62
    5
 10
1312.3800000000001
 20
433.10930772117092
 40
18
 41
0.7999999999999998
 50
0
  1
ＫＩＣ
  0
TEXT
  8
_0-7_枠細線
 62
    5
 10
1312.3800000000001
 20
403.10930772117081
 40
18
 41
0.7999999999999998
 50
0
  1
ＫＩＫ
  0
TEXT
  8
_0-7_枠細線
 62
    5
 10
1312.3800000000001
 20
373.10930772117081
 40
18
 41
0.7999999999999998
 50
0
  1
ＫＩＨ
  0
TEXT
  8
_0-7_枠細線
 62
    5
 10
1305.48
 20
553.2824999999998
 40
21
 41
1
 50
0
  1
品番表
  0
LINE
  8
_0-9_枠極太
  6
CONTINUOUS
 62
    5
 10
72
 20
72
 11
72
 21
1152
  0
LINE
  8
_0-9_枠極太
  6
CONTINUOUS
 62
    5
 10
72
 20
1152
 11
1710
 21
1152
  0
LINE
  8
_0-9_枠極太
  6
CONTINUOUS
 62
    5
 10
1710
 20
1152
 11
1710
 21
72
  0
LINE
  8
_0-9_枠極太
  6
CONTINUOUS
 62
    5
 10
1710
 20
72
 11
72
 21
72
  0
TEXT
  8
_0-5_寸法線
 62
    7
 10
317.36524819545286
 20
572.17003234159142
 40
18
 41
1
 50
90
  1
724±2
  0
TEXT
  8
_0-5_寸法線
 62
    7
 10
365.36524819545286
 20
572.1700321885138
 40
18
 41
1
 50
90
  1
600±2
  0
TEXT
  8
_0-5_寸法線
 62
    7
 10
966.06024525896146
 20
572.17003246967886
 40
18
 41
1
 50
90
  1
686±2
  0
ENDSEC
  0
EOF
