  0
SECTION
  2
HEADER
  9
$ACADVER
  1
AC1015
  9
$ACADMAINTVER
 70
    20
  9
$DWGCODEPAGE
  3
ANSI_932
  9
$INSBASE
 10
0.0
 20
0.0
 30
0.0
  9
$EXTMIN
 10
72.0
 20
72.0
 30
0.0
  9
$EXTMAX
 10
1710.0
 20
1152.0
 30
0.0
  9
$LIMMIN
 10
0.0
 20
0.0
  9
$LIMMAX
 10
1782.0
 20
1260.0
  9
$ORTHOMODE
 70
     0
  9
$REGENMODE
 70
     1
  9
$FILLMODE
 70
     1
  9
$QTEXTMODE
 70
     0
  9
$MIRRTEXT
 70
     0
  9
$LTSCALE
 40
6.0
  9
$ATTMODE
 70
     1
  9
$TEXTSIZE
 40
0.2
  9
$TRACEWID
 40
0.05
  9
$TEXTSTYLE
  7
STANDARD
  9
$CLAYER
  8
0
  9
$CELTYPE
  6
CONTINUOUS
  9
$CECOLOR
 62
   256
  9
$CELTSCALE
 40
1.0
  9
$DISPSILH
 70
     0
  9
$DIMSCALE
 40
1.0
  9
$DIMASZ
 40
0.18
  9
$DIMEXO
 40
0.0625
  9
$DIMDLI
 40
0.38
  9
$DIMRND
 40
0.0
  9
$DIMDLE
 40
0.0
  9
$DIMEXE
 40
0.18
  9
$DIMTP
 40
0.0
  9
$DIMTM
 40
0.0
  9
$DIMTXT
 40
0.18
  9
$DIMCEN
 40
0.09
  9
$DIMTSZ
 40
0.0
  9
$DIMTOL
 70
     0
  9
$DIMLIM
 70
     0
  9
$DIMTIH
 70
     1
  9
$DIMTOH
 70
     1
  9
$DIMSE1
 70
     0
  9
$DIMSE2
 70
     0
  9
$DIMTAD
 70
     0
  9
$DIMZIN
 70
     0
  9
$DIMBLK
  1

  9
$DIMASO
 70
     1
  9
$DIMSHO
 70
     1
  9
$DIMPOST
  1

  9
$DIMAPOST
  1

  9
$DIMALT
 70
     0
  9
$DIMALTD
 70
     2
  9
$DIMALTF
 40
25.4
  9
$DIMLFAC
 40
1.0
  9
$DIMTOFL
 70
     0
  9
$DIMTVP
 40
0.0
  9
$DIMTIX
 70
     0
  9
$DIMSOXD
 70
     0
  9
$DIMSAH
 70
     0
  9
$DIMBLK1
  1

  9
$DIMBLK2
  1

  9
$DIMSTYLE
  2
Standard
  9
$DIMCLRD
 70
     0
  9
$DIMCLRE
 70
     0
  9
$DIMCLRT
 70
     0
  9
$DIMTFAC
 40
1.0
  9
$DIMGAP
 40
0.09
  9
$DIMJUST
 70
     0
  9
$DIMSD1
 70
     0
  9
$DIMSD2
 70
     0
  9
$DIMTOLJ
 70
     1
  9
$DIMTZIN
 70
     0
  9
$DIMALTZ
 70
     0
  9
$DIMALTTZ
 70
     0
  9
$DIMUPT
 70
     0
  9
$DIMDEC
 70
     4
  9
$DIMTDEC
 70
     4
  9
$DIMALTU
 70
     2
  9
$DIMALTTD
 70
     2
  9
$DIMTXSTY
  7
STANDARD
  9
$DIMAUNIT
 70
     0
  9
$DIMADEC
 70
     0
  9
$DIMALTRND
 40
0.0
  9
$DIMAZIN
 70
     0
  9
$DIMDSEP
 70
    46
  9
$DIMATFIT
 70
     3
  9
$DIMFRAC
 70
     0
  9
$DIMLDRBLK
  1

  9
$DIMLUNIT
 70
     2
  9
$DIMLWD
 70
    -2
  9
$DIMLWE
 70
    -2
  9
$DIMTMOVE
 70
     0
  9
$LUNITS
 70
     2
  9
$LUPREC
 70
     4
  9
$SKETCHINC
 40
0.1
  9
$FILLETRAD
 40
0.0
  9
$AUNITS
 70
     0
  9
$AUPREC
 70
     0
  9
$MENU
  1
.
  9
$ELEVATION
 40
0.0
  9
$PELEVATION
 40
0.0
  9
$THICKNESS
 40
0.0
  9
$LIMCHECK
 70
     0
  9
$CHAMFERA
 40
0.0
  9
$CHAMFERB
 40
0.0
  9
$CHAMFERC
 40
0.0
  9
$CHAMFERD
 40
0.0
  9
$SKPOLY
 70
     0
  9
$TDCREATE
 40
2459299.702407859
  9
$TDUCREATE
 40
2459299.327407859
  9
$TDUPDATE
 40
2459303.448097164
  9
$TDUUPDATE
 40
2459303.073097164
  9
$TDINDWG
 40
0.0060355208
  9
$TDUSRTIMER
 40
0.0060355208
  9
$USRTIMER
 70
     1
  9
$ANGBASE
 50
0.0
  9
$ANGDIR
 70
     0
  9
$PDMODE
 70
     0
  9
$PDSIZE
 40
0.0
  9
$PLINEWID
 40
0.0
  9
$SPLFRAME
 70
     0
  9
$SPLINETYPE
 70
     6
  9
$SPLINESEGS
 70
     8
  9
$HANDSEED
  5
4A7
  9
$SURFTAB1
 70
     6
  9
$SURFTAB2
 70
     6
  9
$SURFTYPE
 70
     6
  9
$SURFU
 70
     6
  9
$SURFV
 70
     6
  9
$UCSBASE
  2

  9
$UCSNAME
  2

  9
$UCSORG
 10
0.0
 20
0.0
 30
0.0
  9
$UCSXDIR
 10
1.0
 20
0.0
 30
0.0
  9
$UCSYDIR
 10
0.0
 20
1.0
 30
0.0
  9
$UCSORTHOREF
  2

  9
$UCSORTHOVIEW
 70
     0
  9
$UCSORGTOP
 10
0.0
 20
0.0
 30
0.0
  9
$UCSORGBOTTOM
 10
0.0
 20
0.0
 30
0.0
  9
$UCSORGLEFT
 10
0.0
 20
0.0
 30
0.0
  9
$UCSORGRIGHT
 10
0.0
 20
0.0
 30
0.0
  9
$UCSORGFRONT
 10
0.0
 20
0.0
 30
0.0
  9
$UCSORGBACK
 10
0.0
 20
0.0
 30
0.0
  9
$PUCSBASE
  2

  9
$PUCSNAME
  2

  9
$PUCSORG
 10
0.0
 20
0.0
 30
0.0
  9
$PUCSXDIR
 10
1.0
 20
0.0
 30
0.0
  9
$PUCSYDIR
 10
0.0
 20
1.0
 30
0.0
  9
$PUCSORTHOREF
  2

  9
$PUCSORTHOVIEW
 70
     0
  9
$PUCSORGTOP
 10
0.0
 20
0.0
 30
0.0
  9
$PUCSORGBOTTOM
 10
0.0
 20
0.0
 30
0.0
  9
$PUCSORGLEFT
 10
0.0
 20
0.0
 30
0.0
  9
$PUCSORGRIGHT
 10
0.0
 20
0.0
 30
0.0
  9
$PUCSORGFRONT
 10
0.0
 20
0.0
 30
0.0
  9
$PUCSORGBACK
 10
0.0
 20
0.0
 30
0.0
  9
$USERI1
 70
     0
  9
$USERI2
 70
     0
  9
$USERI3
 70
     0
  9
$USERI4
 70
     0
  9
$USERI5
 70
     0
  9
$USERR1
 40
0.0
  9
$USERR2
 40
0.0
  9
$USERR3
 40
0.0
  9
$USERR4
 40
0.0
  9
$USERR5
 40
0.0
  9
$WORLDVIEW
 70
     1
  9
$SHADEDGE
 70
     3
  9
$SHADEDIF
 70
    70
  9
$TILEMODE
 70
     1
  9
$MAXACTVP
 70
    64
  9
$PINSBASE
 10
0.0
 20
0.0
 30
0.0
  9
$PLIMCHECK
 70
     0
  9
$PEXTMIN
 10
1.000000000000000E+20
 20
1.000000000000000E+20
 30
1.000000000000000E+20
  9
$PEXTMAX
 10
-1.000000000000000E+20
 20
-1.000000000000000E+20
 30
-1.000000000000000E+20
  9
$PLIMMIN
 10
0.0
 20
0.0
  9
$PLIMMAX
 10
12.0
 20
9.0
  9
$UNITMODE
 70
     0
  9
$VISRETAIN
 70
     1
  9
$PLINEGEN
 70
     0
  9
$PSLTSCALE
 70
     1
  9
$TREEDEPTH
 70
  3020
  9
$CMLSTYLE
  2
Standard
  9
$CMLJUST
 70
     0
  9
$CMLSCALE
 40
1.0
  9
$PROXYGRAPHICS
 70
     1
  9
$MEASUREMENT
 70
     0
  9
$CELWEIGHT
370
    -1
  9
$ENDCAPS
280
     0
  9
$JOINSTYLE
280
     0
  9
$LWDISPLAY
290
     0
  9
$INSUNITS
 70
     0
  9
$HYPERLINKBASE
  1

  9
$STYLESHEET
  1

  9
$XEDIT
290
     1
  9
$CEPSNTYPE
380
     0
  9
$PSTYLEMODE
290
     1
  9
$FINGERPRINTGUID
  2
{96C04E6A-1C49-4191-9F77-F93349854E72}
  9
$VERSIONGUID
  2
{53B8A9E9-588B-4A99-AB82-998681E84675}
  9
$EXTNAMES
290
     1
  9
$PSVPSCALE
 40
0.0
  9
$OLESTARTUP
290
     0
  0
ENDSEC
  0
SECTION
  2
CLASSES
  0
CLASS
  1
ACDBDICTIONARYWDFLT
  2
AcDbDictionaryWithDefault
  3
ObjectDBX Classes
 90
        0
280
     0
281
     0
  0
CLASS
  1
MATERIAL
  2
AcDbMaterial
  3
ObjectDBX Classes
 90
     1153
280
     0
281
     0
  0
CLASS
  1
VISUALSTYLE
  2
AcDbVisualStyle
  3
ObjectDBX Classes
 90
     4095
280
     0
281
     0
  0
CLASS
  1
SCALE
  2
AcDbScale
  3
ObjectDBX Classes
 90
     1153
280
     0
281
     0
  0
CLASS
  1
TABLESTYLE
  2
AcDbTableStyle
  3
ObjectDBX Classes
 90
     4095
280
     0
281
     0
  0
CLASS
  1
MLEADERSTYLE
  2
AcDbMLeaderStyle
  3
ACDB_MLEADERSTYLE_CLASS
 90
     4095
280
     0
281
     0
  0
CLASS
  1
ACDBSECTIONVIEWSTYLE
  2
AcDbSectionViewStyle
  3
ObjectDBX Classes
 90
     1025
280
     0
281
     0
  0
CLASS
  1
ACDBDETAILVIEWSTYLE
  2
AcDbDetailViewStyle
  3
ObjectDBX Classes
 90
     1025
280
     0
281
     0
  0
CLASS
  1
CELLSTYLEMAP
  2
AcDbCellStyleMap
  3
ObjectDBX Classes
 90
     1152
280
     0
281
     0
  0
CLASS
  1
DICTIONARYVAR
  2
AcDbDictionaryVar
  3
ObjectDBX Classes
 90
        0
280
     0
281
     0
  0
CLASS
  1
ACDBPLACEHOLDER
  2
AcDbPlaceHolder
  3
ObjectDBX Classes
 90
        0
280
     0
281
     0
  0
CLASS
  1
LAYOUT
  2
AcDbLayout
  3
ObjectDBX Classes
 90
        0
280
     0
281
     0
  0
ENDSEC
  0
SECTION
  2
TABLES
  0
TABLE
  2
VPORT
  5
8
102
{ACAD_XDICTIONARY
360
3F7
102
}
330
0
100
AcDbSymbolTable
 70
     1
  0
VPORT
  5
A3
330
8
100
AcDbSymbolTableRecord
100
AcDbViewportTableRecord
  2
*Active
 70
     0
 10
0.0
 20
0.0
 11
1.0
 21
1.0
 12
891.0000041490421
 22
612.0236235182074
 13
0.0
 23
0.0
 14
1.0
 24
1.0
 15
0.0
 25
0.0
 16
0.0
 26
0.0
 36
1.0
 17
0.0
 27
0.0
 37
0.0
 40
1088.000378878274
 41
1.867788461538461
 42
50.0
 43
0.0
 44
0.0
 50
0.0
 51
0.0
 71
     0
 72
   100
 73
     1
 74
     1
 75
     0
 76
     0
 77
     0
 78
     0
281
     0
 65
     1
110
0.0
120
0.0
130
0.0
111
1.0
121
0.0
131
0.0
112
0.0
122
1.0
132
0.0
 79
     0
146
0.0
1001
ACAD_NAV_VCDISPLAY
1070
     3
  0
ENDTAB
  0
TABLE
  2
LTYPE
  5
5
330
0
100
AcDbSymbolTable
 70
    35
  0
LTYPE
  5
5A
330
5
100
AcDbSymbolTableRecord
100
AcDbLinetypeTableRecord
  2
ByBlock
 70
     0
  3

 72
    65
 73
     0
 40
0.0
  0
LTYPE
  5
5B
330
5
100
AcDbSymbolTableRecord
100
AcDbLinetypeTableRecord
  2
ByLayer
 70
     0
  3

 72
    65
 73
     0
 40
0.0
  0
LTYPE
  5
5C
330
5
100
AcDbSymbolTableRecord
100
AcDbLinetypeTableRecord
  2
CONTINUOUS
 70
     0
  3
実線
 72
    65
 73
     0
 40
0.0
  0
LTYPE
  5
73
330
5
100
AcDbSymbolTableRecord
100
AcDbLinetypeTableRecord
  2
DASHED1
 70
     0
  3
--  --  --  --  --  --  --  --  
 72
    65
 73
     2
 40
2.5
 49
1.25
 74
     0
 49
-1.25
 74
     0
  0
LTYPE
  5
74
330
5
100
AcDbSymbolTableRecord
100
AcDbLinetypeTableRecord
  2
DASHED2
 70
     0
  3
----    ----    ----    ----    
 72
    65
 73
     2
 40
5.0
 49
2.5
 74
     0
 49
-2.5
 74
     0
  0
LTYPE
  5
75
330
5
100
AcDbSymbolTableRecord
100
AcDbLinetypeTableRecord
  2
DASHED3
 70
     0
  3
------  ------  ------  ------  
 72
    65
 73
     2
 40
5.0
 49
3.75
 74
     0
 49
-1.25
 74
     0
  0
LTYPE
  5
76
330
5
100
AcDbSymbolTableRecord
100
AcDbLinetypeTableRecord
  2
CENTER1
 70
     0
  3
----- - ----- - ----- - ----- - 
 72
    65
 73
     4
 40
10.0
 49
6.25
 74
     0
 49
-1.25
 74
     0
 49
1.25
 74
     0
 49
-1.25
 74
     0
  0
LTYPE
  5
77
330
5
100
AcDbSymbolTableRecord
100
AcDbLinetypeTableRecord
  2
CENTER2
 70
     0
  3
----------  --  ----------  --  
 72
    65
 73
     4
 40
20.0
 49
12.5
 74
     0
 49
-2.5
 74
     0
 49
2.5
 74
     0
 49
-2.5
 74
     0
  0
LTYPE
  5
78
330
5
100
AcDbSymbolTableRecord
100
AcDbLinetypeTableRecord
  2
PHANTOM1
 70
     0
  3
--- - - --- - - --- - - --- - - 
 72
    65
 73
     6
 40
10.0
 49
3.25
 74
     0
 49
-1.25
 74
     0
 49
1.25
 74
     0
 49
-1.25
 74
     0
 49
1.25
 74
     0
 49
-1.25
 74
     0
  0
LTYPE
  5
79
330
5
100
AcDbSymbolTableRecord
100
AcDbLinetypeTableRecord
  2
PHANTOM2
 70
     0
  3
--------  -  -  --------  -  -  
 72
    65
 73
     6
 40
20.0
 49
10.0
 74
     0
 49
-2.5
 74
     0
 49
1.25
 74
     0
 49
-2.5
 74
     0
 49
1.25
 74
     0
 49
-2.5
 74
     0
  0
LTYPE
  5
7A
330
5
100
AcDbSymbolTableRecord
100
AcDbLinetypeTableRecord
  2
DOT
 70
     0
  3
-   -   -   -   -   -   -   -   
 72
    65
 73
     2
 40
2.5
 49
0.625
 74
     0
 49
-1.875
 74
     0
  0
LTYPE
  5
7B
330
5
100
AcDbSymbolTableRecord
100
AcDbLinetypeTableRecord
  2
DUMMY
 70
     0
  3
ダミー
 72
    65
 73
     0
 40
0.0
  0
LTYPE
  5
7C
330
5
100
AcDbSymbolTableRecord
100
AcDbLinetypeTableRecord
  2
RAND1
 70
     0
  3
ランダム線1
 72
    65
 73
     4
 40
10.0
 49
1.0
 74
     0
 49
-2.0
 74
     0
 49
3.0
 74
     0
 49
-4.0
 74
     0
  0
LTYPE
  5
7D
330
5
100
AcDbSymbolTableRecord
100
AcDbLinetypeTableRecord
  2
RAND2
 70
     0
  3
ランダム線2
 72
    65
 73
     4
 40
14.0
 49
2.0
 74
     0
 49
-3.0
 74
     0
 49
4.0
 74
     0
 49
-5.0
 74
     0
  0
LTYPE
  5
7E
330
5
100
AcDbSymbolTableRecord
100
AcDbLinetypeTableRecord
  2
RAND3
 70
     0
  3
ランダム線3
 72
    65
 73
     4
 40
18.0
 49
3.0
 74
     0
 49
-4.0
 74
     0
 49
5.0
 74
     0
 49
-6.0
 74
     0
  0
LTYPE
  5
7F
330
5
100
AcDbSymbolTableRecord
100
AcDbLinetypeTableRecord
  2
RAND4
 70
     0
  3
ランダム線4
 72
    65
 73
     4
 40
22.0
 49
4.0
 74
     0
 49
-5.0
 74
     0
 49
6.0
 74
     0
 49
-7.0
 74
     0
  0
LTYPE
  5
80
330
5
100
AcDbSymbolTableRecord
100
AcDbLinetypeTableRecord
  2
RAND5
 70
     0
  3
ランダム線5
 72
    65
 73
     4
 40
26.0
 49
5.0
 74
     0
 49
-6.0
 74
     0
 49
7.0
 74
     0
 49
-8.0
 74
     0
  0
LTYPE
  5
81
330
5
100
AcDbSymbolTableRecord
100
AcDbLinetypeTableRecord
  2
LONG1
 70
     0
  3
----------  --  ----------  --  
 72
    65
 73
     4
 40
40.0
 49
32.5
 74
     0
 49
-2.5
 74
     0
 49
2.5
 74
     0
 49
-2.5
 74
     0
  0
LTYPE
  5
82
330
5
100
AcDbSymbolTableRecord
100
AcDbLinetypeTableRecord
  2
LONG2
 70
     0
  3
--------  -  -  --------  -  -  
 72
    65
 73
     6
 40
40.0
 49
30.0
 74
     0
 49
-2.5
 74
     0
 49
1.25
 74
     0
 49
-2.5
 74
     0
 49
1.25
 74
     0
 49
-2.5
 74
     0
  0
LTYPE
  5
83
330
5
100
AcDbSymbolTableRecord
100
AcDbLinetypeTableRecord
  2
LONG3
 70
     0
  3
+++++++++++++++..+++++++++++++++
 72
    65
 73
     2
 40
40.0
 49
37.5
 74
     0
 49
-2.5
 74
     0
  0
LTYPE
  5
84
330
5
100
AcDbSymbolTableRecord
100
AcDbLinetypeTableRecord
  2
LONG4
 70
     0
  3
+++++++++++++++..+++++++++++++++
 72
    65
 73
     2
 40
80.0
 49
75.0
 74
     0
 49
-5.0
 74
     0
  0
LTYPE
  5
85
330
5
100
AcDbSymbolTableRecord
100
AcDbLinetypeTableRecord
  2
LONG5
 70
     0
  3
----------  --  ----------  --  
 72
    65
 73
     4
 40
60.0
 49
37.5
 74
     0
 49
-7.5
 74
     0
 49
7.5
 74
     0
 49
-7.5
 74
     0
  0
LTYPE
  5
86
330
5
100
AcDbSymbolTableRecord
100
AcDbLinetypeTableRecord
  2
DASHED
 70
     0
  3
-------   -------------   ------
 72
    65
 73
     2
 40
7.5
 49
6.0
 74
     0
 49
-1.5
 74
     0
  0
LTYPE
  5
87
330
5
100
AcDbSymbolTableRecord
100
AcDbLinetypeTableRecord
  2
DASHED_SPACED
 70
     0
  3
----        --------        ----
 72
    65
 73
     2
 40
12.0
 49
6.0
 74
     0
 49
-6.0
 74
     0
  0
LTYPE
  5
88
330
5
100
AcDbSymbolTableRecord
100
AcDbLinetypeTableRecord
  2
LONG_DASHED_DOTTED
 70
     0
  3
------------- --- --------------
 72
    65
 73
     4
 40
15.25
 49
12.0
 74
     0
 49
-1.5
 74
     0
 49
0.25
 74
     0
 49
-1.5
 74
     0
  0
LTYPE
  5
89
330
5
100
AcDbSymbolTableRecord
100
AcDbLinetypeTableRecord
  2
LONG_DASHED_DOUBLE-DOTTED
 70
     0
  3
----------- --- --- ------------
 72
    65
 73
     6
 40
17.0
 49
12.0
 74
     0
 49
-1.5
 74
     0
 49
0.25
 74
     0
 49
-1.5
 74
     0
 49
0.25
 74
     0
 49
-1.5
 74
     0
  0
LTYPE
  5
8A
330
5
100
AcDbSymbolTableRecord
100
AcDbLinetypeTableRecord
  2
LONG_DASHED_TRIPLICATE-DOTTED
 70
     0
  3
--------- --- --- --- ----------
 72
    65
 73
     8
 40
18.75
 49
12.0
 74
     0
 49
-1.5
 74
     0
 49
0.25
 74
     0
 49
-1.5
 74
     0
 49
0.25
 74
     0
 49
-1.5
 74
     0
 49
0.25
 74
     0
 49
-1.5
 74
     0
  0
LTYPE
  5
8B
330
5
100
AcDbSymbolTableRecord
100
AcDbLinetypeTableRecord
  2
DOTTED
 70
     0
  3
   -       -       -       -    
 72
    65
 73
     2
 40
1.75
 49
0.25
 74
     0
 49
-1.5
 74
     0
  0
LTYPE
  5
8C
330
5
100
AcDbSymbolTableRecord
100
AcDbLinetypeTableRecord
  2
CHAIN
 70
     0
  3
-------------- -- --------------
 72
    65
 73
     4
 40
18.5
 49
12.0
 74
     0
 49
-1.5
 74
     0
 49
3.5
 74
     0
 49
-1.5
 74
     0
  0
LTYPE
  5
8D
330
5
100
AcDbSymbolTableRecord
100
AcDbLinetypeTableRecord
  2
CHAIN_DOUBLE_DASH
 70
     0
  3
------------ -- -- -------------
 72
    65
 73
     6
 40
23.5
 49
12.0
 74
     0
 49
-1.5
 74
     0
 49
3.5
 74
     0
 49
-1.5
 74
     0
 49
3.5
 74
     0
 49
-1.5
 74
     0
  0
LTYPE
  5
8E
330
5
100
AcDbSymbolTableRecord
100
AcDbLinetypeTableRecord
  2
DASHED_DOTTED
 70
     0
  3
-----------     -     ----------
 72
    65
 73
     4
 40
9.25
 49
6.0
 74
     0
 49
-1.5
 74
     0
 49
0.25
 74
     0
 49
-1.5
 74
     0
  0
LTYPE
  5
8F
330
5
100
AcDbSymbolTableRecord
100
AcDbLinetypeTableRecord
  2
DOUBLE-DASHED_DOTTED
 70
     0
  3
------   -----------   -   -----
 72
    65
 73
     6
 40
16.75
 49
6.0
 74
     0
 49
-1.5
 74
     0
 49
6.0
 74
     0
 49
-1.5
 74
     0
 49
0.25
 74
     0
 49
-1.5
 74
     0
  0
LTYPE
  5
90
330
5
100
AcDbSymbolTableRecord
100
AcDbLinetypeTableRecord
  2
DASHED_DOUBLE-DOTTED
 70
     0
  3
---------    -    -    ---------
 72
    65
 73
     6
 40
11.0
 49
6.0
 74
     0
 49
-1.5
 74
     0
 49
0.25
 74
     0
 49
-1.5
 74
     0
 49
0.25
 74
     0
 49
-1.5
 74
     0
  0
LTYPE
  5
91
330
5
100
AcDbSymbolTableRecord
100
AcDbLinetypeTableRecord
  2
DOUBLE-DASHED_DOUBLE-DOTTED
 70
     0
  3
-----   ---------   -   -   ----
 72
    65
 73
     8
 40
18.5
 49
6.0
 74
     0
 49
-1.5
 74
     0
 49
6.0
 74
     0
 49
-1.5
 74
     0
 49
0.25
 74
     0
 49
-1.5
 74
     0
 49
0.25
 74
     0
 49
-1.5
 74
     0
  0
LTYPE
  5
92
330
5
100
AcDbSymbolTableRecord
100
AcDbLinetypeTableRecord
  2
DASHED_TRIPLICATE-DOTTED
 70
     0
  3
-------    -    -    -    ------
 72
    65
 73
     8
 40
12.75
 49
6.0
 74
     0
 49
-1.5
 74
     0
 49
0.25
 74
     0
 49
-1.5
 74
     0
 49
0.25
 74
     0
 49
-1.5
 74
     0
 49
0.25
 74
     0
 49
-1.5
 74
     0
  0
LTYPE
  5
93
330
5
100
AcDbSymbolTableRecord
100
AcDbLinetypeTableRecord
  2
DOUBLE-DASHED_TRIPLICATE-DOTTED
 70
     0
  3
-----  ---------  -  -  -  -----
 72
    65
 73
    10
 40
20.25
 49
6.0
 74
     0
 49
-1.5
 74
     0
 49
6.0
 74
     0
 49
-1.5
 74
     0
 49
0.25
 74
     0
 49
-1.5
 74
     0
 49
0.25
 74
     0
 49
-1.5
 74
     0
 49
0.25
 74
     0
 49
-1.5
 74
     0
  0
LTYPE
  5
94
330
5
100
AcDbSymbolTableRecord
100
AcDbLinetypeTableRecord
  2
UNDEFINED
 70
     0
  3
--------------------------------
 72
    65
 73
     0
 40
0.0
  0
ENDTAB
  0
TABLE
  2
LAYER
  5
2
102
{ACAD_XDICTIONARY
360
44D
102
}
330
0
100
AcDbSymbolTable
 70
    12
  0
LAYER
  5
54
102
{ACAD_XDICTIONARY
360
3DA
102
}
330
2
100
AcDbSymbolTableRecord
100
AcDbLayerTableRecord
  2
0
 70
     0
 62
     7
  6
CONTINUOUS
370
    -3
390
F
  0
LAYER
  5
96
102
{ACAD_XDICTIONARY
360
3DC
102
}
330
2
100
AcDbSymbolTableRecord
100
AcDbLayerTableRecord
  2
_0-0_計極細
 70
     0
 62
     7
  6
CONTINUOUS
370
    -3
390
F
  0
LAYER
  5
97
102
{ACAD_XDICTIONARY
360
3DE
102
}
330
2
100
AcDbSymbolTableRecord
100
AcDbLayerTableRecord
  2
_0-1_計細線
 70
     0
 62
     7
  6
CONTINUOUS
370
    -3
390
F
  0
LAYER
  5
98
102
{ACAD_XDICTIONARY
360
3E0
102
}
330
2
100
AcDbSymbolTableRecord
100
AcDbLayerTableRecord
  2
_0-2_計中線
 70
     0
 62
     7
  6
CONTINUOUS
370
    -3
390
F
  0
LAYER
  5
99
102
{ACAD_XDICTIONARY
360
3E2
102
}
330
2
100
AcDbSymbolTableRecord
100
AcDbLayerTableRecord
  2
_0-5_寸法線
 70
     0
 62
     7
  6
CONTINUOUS
370
    -3
390
F
  0
LAYER
  5
9A
102
{ACAD_XDICTIONARY
360
3E4
102
}
330
2
100
AcDbSymbolTableRecord
100
AcDbLayerTableRecord
  2
_0-7_枠細線
 70
     0
 62
     7
  6
CONTINUOUS
370
    -3
390
F
  0
LAYER
  5
9B
102
{ACAD_XDICTIONARY
360
3E6
102
}
330
2
100
AcDbSymbolTableRecord
100
AcDbLayerTableRecord
  2
_0-8_枠中線
 70
     0
 62
     7
  6
CONTINUOUS
370
    -3
390
F
  0
LAYER
  5
9C
102
{ACAD_XDICTIONARY
360
3E8
102
}
330
2
100
AcDbSymbolTableRecord
100
AcDbLayerTableRecord
  2
_0-9_枠極太
 70
     0
 62
     7
  6
CONTINUOUS
370
    -3
390
F
  0
LAYER
  5
9D
102
{ACAD_XDICTIONARY
360
3EA
102
}
330
2
100
AcDbSymbolTableRecord
100
AcDbLayerTableRecord
  2
_0-A_極細3
 70
     0
 62
     7
  6
CONTINUOUS
370
    -3
390
F
  0
LAYER
  5
9E
102
{ACAD_XDICTIONARY
360
3EC
102
}
330
2
100
AcDbSymbolTableRecord
100
AcDbLayerTableRecord
  2
_0-B_細線3
 70
     0
 62
     7
  6
CONTINUOUS
370
    -3
390
F
  0
LAYER
  5
9F
102
{ACAD_XDICTIONARY
360
3EE
102
}
330
2
100
AcDbSymbolTableRecord
100
AcDbLayerTableRecord
  2
_0-D_寸法3
 70
     0
 62
     7
  6
CONTINUOUS
370
    -3
390
F
  0
LAYER
  5
A0
102
{ACAD_XDICTIONARY
360
3F0
102
}
330
2
100
AcDbSymbolTableRecord
100
AcDbLayerTableRecord
  2
ADD_LINE
 70
     0
 62
     7
  6
CONTINUOUS
370
    -3
390
F
  0
ENDTAB
  0
TABLE
  2
STYLE
  5
3
330
0
100
AcDbSymbolTable
 70
     3
  0
STYLE
  5
55
330
3
100
AcDbSymbolTableRecord
100
AcDbTextStyleTableRecord
  2
STANDARD
 70
     0
 40
0.0
 41
1.0
 50
0.0
 71
     0
 42
0.2
  3
txt
  4
bigfont.shx
  0
STYLE
  5
59
330
3
100
AcDbSymbolTableRecord
100
AcDbTextStyleTableRecord
  2
Annotative
 70
     0
 40
0.0
 41
1.0
 50
0.0
 71
     0
 42
0.2
  3
txt
  4

1001
AcadAnnotative
1000
AnnotativeData
1002
{
1070
     1
1070
     1
1002
}
  0
STYLE
  5
95
330
3
100
AcDbSymbolTableRecord
100
AcDbTextStyleTableRecord
  2
TATEGAKI
 70
     4
 40
0.0
 41
1.0
 50
0.0
 71
     0
 42
1.0
  3
txt
  4
bigfont.shx
  0
ENDTAB
  0
TABLE
  2
VIEW
  5
6
330
0
100
AcDbSymbolTable
 70
     0
  0
ENDTAB
  0
TABLE
  2
UCS
  5
7
330
0
100
AcDbSymbolTable
 70
     0
  0
ENDTAB
  0
TABLE
  2
APPID
  5
9
330
0
100
AcDbSymbolTable
 70
     5
  0
APPID
  5
56
330
9
100
AcDbSymbolTableRecord
100
AcDbRegAppTableRecord
  2
ACAD
 70
     0
  0
APPID
  5
5D
330
9
100
AcDbSymbolTableRecord
100
AcDbRegAppTableRecord
  2
AcadAnnotative
 70
     0
  0
APPID
  5
3D3
330
9
100
AcDbSymbolTableRecord
100
AcDbRegAppTableRecord
  2
ACAD_EXEMPT_FROM_CAD_STANDARDS
 70
     0
  0
APPID
  5
3F2
330
9
100
AcDbSymbolTableRecord
100
AcDbRegAppTableRecord
  2
ACAD_NAV_VCDISPLAY
 70
     0
  0
APPID
  5
42D
330
9
100
AcDbSymbolTableRecord
100
AcDbRegAppTableRecord
  2
ACAD_MLEADERVER
 70
     0
  0
ENDTAB
  0
TABLE
  2
DIMSTYLE
  5
A
330
0
100
AcDbSymbolTable
 70
     2
100
AcDbDimStyleTable
 71
     1
340
57
  0
DIMSTYLE
105
57
330
A
100
AcDbSymbolTableRecord
100
AcDbDimStyleTableRecord
  2
Standard
 70
     0
340
55
  0
DIMSTYLE
105
58
330
A
100
AcDbSymbolTableRecord
100
AcDbDimStyleTableRecord
  2
Annotative
 70
     0
340
55
1001
AcadAnnotative
1000
AnnotativeData
1002
{
1070
     1
1070
     1
1002
}
  0
ENDTAB
  0
TABLE
  2
BLOCK_RECORD
  5
1
330
0
100
AcDbSymbolTable
 70
     0
  0
BLOCK_RECORD
  5
6F
330
1
100
AcDbSymbolTableRecord
100
AcDbBlockTableRecord
  2
*Model_Space
340
72
  0
BLOCK_RECORD
  5
6B
330
1
100
AcDbSymbolTableRecord
100
AcDbBlockTableRecord
  2
*Paper_Space
340
6E
  0
ENDTAB
  0
ENDSEC
  0
SECTION
  2
BLOCKS
  0
BLOCK
  5
70
330
6F
100
AcDbEntity
  8
0
100
AcDbBlockBegin
  2
*Model_Space
 70
     0
 10
0.0
 20
0.0
 30
0.0
  3
*Model_Space
  1

  0
ENDBLK
  5
71
330
6F
100
AcDbEntity
  8
0
100
AcDbBlockEnd
  0
BLOCK
  5
6C
330
6B
100
AcDbEntity
 67
     1
  8
0
100
AcDbBlockBegin
  2
*Paper_Space
 70
     0
 10
0.0
 20
0.0
 30
0.0
  3
*Paper_Space
  1

  0
ENDBLK
  5
6D
330
6B
100
AcDbEntity
 67
     1
  8
0
100
AcDbBlockEnd
  0
ENDSEC
  0
SECTION
  2
ENTITIES
  0
LINE
  5
A4
330
6F
100
AcDbEntity
  8
_0-7_枠細線
  6
Continuous
 62
     5
100
AcDbLine
 10
1422.0
 20
216.0
 30
0.0
 11
1422.0
 21
120.0
 31
0.0
  0
TEXT
  5
A5
330
6F
100
AcDbEntity
  8
_0-7_枠細線
 62
     5
100
AcDbText
 10
1125.0
 20
117.0
 30
0.0
 40
19.5
  1
備考
  7
TATEGAKI
100
AcDbText
  0
TEXT
  5
A6
330
6F
100
AcDbEntity
  8
_0-7_枠細線
 62
     5
100
AcDbText
 10
1125.0
 20
165.0
 30
0.0
 40
19.5
  1
品番
  7
TATEGAKI
100
AcDbText
  0
TEXT
  5
A7
330
6F
100
AcDbEntity
  8
_0-7_枠細線
 62
     5
100
AcDbText
 10
1125.0
 20
213.0
 30
0.0
 40
19.5
  1
品名
  7
TATEGAKI
100
AcDbText
  0
LINE
  5
A8
330
6F
100
AcDbEntity
  8
_0-7_枠細線
  6
Continuous
 62
     5
100
AcDbLine
 10
1422.0
 20
168.0
 30
0.0
 11
1110.0
 21
168.0
 31
0.0
  0
LINE
  5
A9
330
6F
100
AcDbEntity
  8
_0-7_枠細線
  6
Continuous
 62
     5
100
AcDbLine
 10
1140.0
 20
216.0
 30
0.0
 11
1140.0
 21
72.0
 31
0.0
  0
LINE
  5
AA
330
6F
100
AcDbEntity
  8
_0-8_枠中線
  6
Continuous
 62
     5
100
AcDbLine
 10
1710.0
 20
216.0
 30
0.0
 11
1110.0
 21
216.0
 31
0.0
  0
LINE
  5
AB
330
6F
100
AcDbEntity
  8
_0-8_枠中線
  6
Continuous
 62
     5
100
AcDbLine
 10
1110.0
 20
216.0
 30
0.0
 11
1110.0
 21
72.0
 31
0.0
  0
LINE
  5
AC
330
6F
100
AcDbEntity
  8
_0-7_枠細線
  6
Continuous
 62
     5
100
AcDbLine
 10
1494.0
 20
216.0
 30
0.0
 11
1494.0
 21
72.0
 31
0.0
  0
TEXT
  5
AD
330
6F
100
AcDbEntity
  8
_0-7_枠細線
 62
     5
100
AcDbText
 10
1428.754190841618
 20
192.0
 30
0.0
 40
18.0
  1
縮　尺
100
AcDbText
  0
LINE
  5
AE
330
6F
100
AcDbEntity
  8
_0-7_枠細線
  6
Continuous
 62
     5
100
AcDbLine
 10
1422.0
 20
186.0
 30
0.0
 11
1494.0
 21
186.0
 31
0.0
  0
LINE
  5
AF
330
6F
100
AcDbEntity
  8
_0-7_枠細線
  6
Continuous
 62
     5
100
AcDbLine
 10
1494.0
 20
120.0
 30
0.0
 11
1110.0
 21
120.0
 31
0.0
  0
LINE
  5
B0
330
6F
100
AcDbEntity
  8
_0-7_枠細線
  6
Continuous
 62
     5
100
AcDbLine
 10
1710.0
 20
108.0
 30
0.0
 11
1494.0
 21
108.0
 31
0.0
  0
LINE
  5
B1
330
6F
100
AcDbEntity
  8
_0-7_枠細線
  6
Continuous
 62
     5
100
AcDbLine
 10
1494.0
 20
144.0
 30
0.0
 11
1710.0
 21
144.0
 31
0.0
  0
LINE
  5
B2
330
6F
100
AcDbEntity
  8
_0-7_枠細線
  6
Continuous
 62
     5
100
AcDbLine
 10
1710.0
 20
168.0
 30
0.0
 11
1494.0
 21
168.0
 31
0.0
  0
TEXT
  5
B3
330
6F
100
AcDbEntity
  8
_0-7_枠細線
 62
     5
100
AcDbText
 10
1506.0
 20
177.0
 30
0.0
 40
30.0
  1
株式会社シマブン
 41
0.7
100
AcDbText
  0
TEXT
  5
B4
330
6F
100
AcDbEntity
  8
_0-7_枠細線
 62
     5
100
AcDbText
 10
1501.356132288029
 20
72.0
 30
0.0
 40
18.0
  1
年月日
100
AcDbText
  0
TEXT
  5
B5
330
6F
100
AcDbEntity
  8
_0-7_枠細線
 62
     5
100
AcDbText
 10
1501.356132288029
 20
90.0
 30
0.0
 40
18.0
  1
作　成
100
AcDbText
  0
TEXT
  5
B6
330
6F
100
AcDbEntity
  8
_0-7_枠細線
 62
     5
100
AcDbText
 10
1507.5
 20
147.0
 30
0.0
 40
18.0
  1
承 認
100
AcDbText
  0
LINE
  5
B7
330
6F
100
AcDbEntity
  8
_0-7_枠細線
  6
Continuous
 62
     5
100
AcDbLine
 10
1566.0
 20
168.0
 30
0.0
 11
1566.0
 21
72.0
 31
0.0
  0
TEXT
  5
B8
330
6F
100
AcDbEntity
  8
_0-7_枠細線
 62
     5
100
AcDbText
 10
1579.5
 20
147.0
 30
0.0
 40
18.0
  1
検 図
100
AcDbText
  0
LINE
  5
B9
330
6F
100
AcDbEntity
  8
_0-7_枠細線
  6
Continuous
 62
     5
100
AcDbLine
 10
1638.0
 20
168.0
 30
0.0
 11
1638.0
 21
108.0
 31
0.0
  0
TEXT
  5
BA
330
6F
100
AcDbEntity
  8
_0-7_枠細線
 62
     5
100
AcDbText
 10
1651.5
 20
147.0
 30
0.0
 40
18.0
  1
設 計
100
AcDbText
  0
TEXT
  5
BB
330
6F
100
AcDbEntity
  8
_0-7_枠細線
 62
     5
100
AcDbText
 10
1429.805585962333
 20
141.0
 30
0.0
 40
24.0
  1
１：６
 41
0.6999999999999999
100
AcDbText
  0
TEXT
  5
BC
330
6F
100
AcDbEntity
  8
_0-7_枠細線
 62
     5
100
AcDbText
 10
1158.6
 20
180.0
 30
0.0
 40
24.0
  1
Ｕ字溝用樹脂グレーチング（歩道用）
 41
0.5
100
AcDbText
  0
LINE
  5
BD
330
6F
100
AcDbEntity
  8
_0-2_計中線
  6
Continuous
 62
     6
100
AcDbLine
 10
392.0235484936839
 20
661.3667310990709
 30
0.0
 11
1391.023548493684
 21
661.3667310990709
 31
0.0
  0
LINE
  5
BE
330
6F
100
AcDbEntity
  8
_0-0_計極細
  6
CENTER1
 62
     2
100
AcDbLine
 10
441.5235484936839
 20
664.1234119075522
 30
0.0
 11
441.5235484936839
 21
633.4271156112545
 31
0.0
  0
LINE
  5
BF
330
6F
100
AcDbEntity
  8
_0-0_計極細
  6
CENTER1
 62
     2
100
AcDbLine
 10
1341.523548493684
 20
664.1234119075522
 30
0.0
 11
1341.523548493684
 21
633.4271156112545
 31
0.0
  0
LINE
  5
C0
330
6F
100
AcDbEntity
  8
_0-0_計極細
  6
CENTER1
 62
     2
100
AcDbLine
 10
541.523548493684
 20
664.1234119075522
 30
0.0
 11
541.523548493684
 21
633.4271156112545
 31
0.0
  0
LINE
  5
C1
330
6F
100
AcDbEntity
  8
_0-0_計極細
  6
CENTER1
 62
     2
100
AcDbLine
 10
641.5235484936841
 20
664.1234119075522
 30
0.0
 11
641.5235484936841
 21
633.4271156112545
 31
0.0
  0
LINE
  5
C2
330
6F
100
AcDbEntity
  8
_0-0_計極細
  6
CENTER1
 62
     2
100
AcDbLine
 10
741.523548493684
 20
664.1234119075522
 30
0.0
 11
741.523548493684
 21
633.4271156112545
 31
0.0
  0
LINE
  5
C3
330
6F
100
AcDbEntity
  8
_0-0_計極細
  6
CENTER1
 62
     2
100
AcDbLine
 10
841.523548493684
 20
664.1234119075522
 30
0.0
 11
841.523548493684
 21
633.4271156112545
 31
0.0
  0
LINE
  5
C4
330
6F
100
AcDbEntity
  8
_0-0_計極細
  6
CENTER1
 62
     2
100
AcDbLine
 10
941.523548493684
 20
664.1234119075522
 30
0.0
 11
941.523548493684
 21
633.4271156112545
 31
0.0
  0
LINE
  5
C5
330
6F
100
AcDbEntity
  8
_0-0_計極細
  6
CENTER1
 62
     2
100
AcDbLine
 10
1041.523548493684
 20
664.1234119075522
 30
0.0
 11
1041.523548493684
 21
633.4271156112545
 31
0.0
  0
LINE
  5
C6
330
6F
100
AcDbEntity
  8
_0-0_計極細
  6
CENTER1
 62
     2
100
AcDbLine
 10
1141.523548493684
 20
664.1234119075522
 30
0.0
 11
1141.523548493684
 21
633.4271156112545
 31
0.0
  0
LINE
  5
C7
330
6F
100
AcDbEntity
  8
_0-0_計極細
  6
CENTER1
 62
     2
100
AcDbLine
 10
1241.523548493684
 20
664.1234119075522
 30
0.0
 11
1241.523548493684
 21
633.4271156112545
 31
0.0
  0
LINE
  5
C8
330
6F
100
AcDbEntity
  8
_0-1_計細線
  6
Continuous
 62
     3
100
AcDbLine
 10
392.0235484936839
 20
659.3667310990708
 30
0.0
 11
1391.023548493684
 21
659.3667310990708
 31
0.0
  0
LINE
  5
C9
330
6F
100
AcDbEntity
  8
_0-5_寸法線
  6
Continuous
 62
     7
100
AcDbLine
 10
380.0235484936839
 20
661.3667310990709
 30
0.0
 11
326.0235484936838
 21
661.366731099071
 31
0.0
  0
LINE
  5
CA
330
6F
100
AcDbEntity
  8
_0-5_寸法線
  6
Continuous
 62
     7
100
AcDbLine
 10
332.0235484936838
 20
661.366731099071
 30
0.0
 11
335.129377034914
 21
649.7756211836024
 31
0.0
  0
LINE
  5
CB
330
6F
100
AcDbEntity
  8
_0-5_寸法線
  6
Continuous
 62
     7
100
AcDbLine
 10
332.0235484936838
 20
661.366731099071
 30
0.0
 11
328.9177199524536
 21
649.7756211836024
 31
0.0
  0
LINE
  5
CC
330
6F
100
AcDbEntity
  8
_0-5_寸法線
  6
Continuous
 62
     7
100
AcDbLine
 10
380.0235484936839
 20
631.3667310990709
 30
0.0
 11
326.0235484936838
 21
631.3667310990711
 31
0.0
  0
LINE
  5
CD
330
6F
100
AcDbEntity
  8
_0-5_寸法線
  6
Continuous
 62
     7
100
AcDbLine
 10
332.0235484936838
 20
631.3667310990711
 30
0.0
 11
328.9177199524536
 21
642.9578410145398
 31
0.0
  0
LINE
  5
CE
330
6F
100
AcDbEntity
  8
_0-5_寸法線
  6
Continuous
 62
     7
100
AcDbLine
 10
332.0235484936838
 20
631.3667310990711
 30
0.0
 11
335.129377034914
 21
642.9578410145398
 31
0.0
  0
LINE
  5
CF
330
6F
100
AcDbEntity
  8
_0-5_寸法線
  6
Continuous
 62
     7
100
AcDbLine
 10
332.0235484936838
 20
661.366731099071
 30
0.0
 11
332.0235484936838
 21
631.3667310990711
 31
0.0
  0
TEXT
  5
D0
330
6F
100
AcDbEntity
  8
_0-5_寸法線
 62
     7
100
AcDbText
 10
332.0235484936838
 20
637.3667310990711
 30
0.0
 40
18.0
  1
30
 50
90.0
 41
0.7
100
AcDbText
  0
LINE
  5
D1
330
6F
100
AcDbEntity
  8
_0-7_枠細線
  6
Continuous
 62
     5
100
AcDbLine
 10
1289.999999999999
 20
342.0000000000001
 30
0.0
 11
1289.999999999999
 21
438.0
 31
0.0
  0
TEXT
  5
D2
330
6F
100
AcDbEntity
  8
_0-7_枠細線
 62
     5
100
AcDbText
 10
1314.187076892005
 20
411.0
 30
0.0
 40
18.0
  1
耐荷重
100
AcDbText
  0
TEXT
  5
D3
330
6F
100
AcDbEntity
  8
_0-7_枠細線
 62
     5
100
AcDbText
 10
1294.25276451431
 20
351.0000000000001
 30
0.0
 40
18.0
  1
（歩道用）
100
AcDbText
  0
LINE
  5
D4
330
6F
100
AcDbEntity
  8
_0-7_枠細線
  6
Continuous
 62
     5
100
AcDbLine
 10
1397.999999999999
 20
342.0000000000001
 30
0.0
 11
1397.999999999999
 21
438.0
 31
0.0
  0
LINE
  5
D5
330
6F
100
AcDbEntity
  8
_0-7_枠細線
  6
Continuous
 62
     5
100
AcDbLine
 10
1505.999999999999
 20
342.0000000000001
 30
0.0
 11
1505.999999999999
 21
438.0
 31
0.0
  0
LINE
  5
D6
330
6F
100
AcDbEntity
  8
_0-7_枠細線
  6
Continuous
 62
     5
100
AcDbLine
 10
1289.999999999999
 20
342.0000000000001
 30
0.0
 11
1505.999999999999
 21
342.0000000000001
 31
0.0
  0
LINE
  5
D7
330
6F
100
AcDbEntity
  8
_0-7_枠細線
  6
Continuous
 62
     5
100
AcDbLine
 10
1289.999999999999
 20
438.0
 30
0.0
 11
1505.999999999999
 21
438.0
 31
0.0
  0
LINE
  5
D8
330
6F
100
AcDbEntity
  8
_0-7_枠細線
  6
Continuous
 62
     5
100
AcDbLine
 10
1289.999999999999
 20
402.0
 30
0.0
 11
1505.999999999999
 21
402.0
 31
0.0
  0
TEXT
  5
D9
330
6F
100
AcDbEntity
  8
_0-7_枠細線
 62
     5
100
AcDbText
 10
1421.835464928172
 20
411.0
 30
0.0
 40
18.0
  1
重　量
100
AcDbText
  0
TEXT
  5
DA
330
6F
100
AcDbEntity
  8
_0-7_枠細線
 62
     5
100
AcDbText
 10
1305.890306299136
 20
375.0
 30
0.0
 40
18.0
  1
5.0kN/m2
 41
0.65
100
AcDbText
  0
LINE
  5
DB
330
6F
100
AcDbEntity
  8
_0-2_計中線
  6
Continuous
 62
     6
100
AcDbLine
 10
392.0235484936839
 20
925.2749159667592
 30
0.0
 11
1391.023548493684
 21
925.2749159667592
 31
0.0
  0
LINE
  5
DC
330
6F
100
AcDbEntity
  8
_0-0_計極細
  6
Continuous
 62
     2
100
AcDbLine
 10
1389.523548493684
 20
922.2749159667593
 30
0.0
 11
1359.523548493684
 21
922.2749159667593
 31
0.0
  0
LINE
  5
DD
330
6F
100
AcDbEntity
  8
_0-0_計極細
  6
Continuous
 62
     2
100
AcDbLine
 10
423.5235484936839
 20
922.2749159667593
 30
0.0
 11
393.5235484936839
 21
922.2749159667593
 31
0.0
  0
LINE
  5
DE
330
6F
100
AcDbEntity
  8
_0-2_計中線
  6
Continuous
 62
     6
100
AcDbLine
 10
392.0235484936839
 20
832.2749159667591
 30
0.0
 11
1391.023548493684
 21
832.2749159667591
 31
0.0
  0
LINE
  5
DF
330
6F
100
AcDbEntity
  8
_0-0_計極細
  6
Continuous
 62
     2
100
AcDbLine
 10
1389.523548493684
 20
835.274915966759
 30
0.0
 11
1359.523548493684
 21
835.274915966759
 31
0.0
  0
LINE
  5
E0
330
6F
100
AcDbEntity
  8
_0-0_計極細
  6
Continuous
 62
     2
100
AcDbLine
 10
423.5235484936839
 20
835.274915966759
 30
0.0
 11
393.5235484936839
 21
835.274915966759
 31
0.0
  0
LINE
  5
E1
330
6F
100
AcDbEntity
  8
_0-0_計極細
  6
Continuous
 62
     2
100
AcDbLine
 10
1359.523548493684
 20
925.2749159667592
 30
0.0
 11
1359.523548493684
 21
832.2749159667591
 31
0.0
  0
LINE
  5
E2
330
6F
100
AcDbEntity
  8
_0-0_計極細
  6
Continuous
 62
     2
100
AcDbLine
 10
1389.523548493684
 20
832.2749159667591
 30
0.0
 11
1389.523548493684
 21
925.2749159667592
 31
0.0
  0
LINE
  5
E3
330
6F
100
AcDbEntity
  8
_0-0_計極細
  6
Continuous
 62
     2
100
AcDbLine
 10
393.5235484936839
 20
925.2749159667592
 30
0.0
 11
393.5235484936839
 21
832.2749159667591
 31
0.0
  0
LINE
  5
E4
330
6F
100
AcDbEntity
  8
_0-0_計極細
  6
Continuous
 62
     2
100
AcDbLine
 10
423.5235484936839
 20
832.2749159667591
 30
0.0
 11
423.5235484936839
 21
925.2749159667592
 31
0.0
  0
LINE
  5
E5
330
6F
100
AcDbEntity
  8
_0-0_計極細
  6
CENTER1
 62
     2
100
AcDbLine
 10
408.5235484936839
 20
959.0378489952994
 30
0.0
 11
408.5235484936839
 21
798.6912559429717
 31
0.0
  0
LINE
  5
E6
330
6F
100
AcDbEntity
  8
_0-0_計極細
  6
CENTER1
 62
     2
100
AcDbLine
 10
1374.523548493684
 20
959.0378489952994
 30
0.0
 11
1374.523548493684
 21
798.6912559429717
 31
0.0
  0
LINE
  5
E7
330
6F
100
AcDbEntity
  8
_0-0_計極細
  6
CENTER1
 62
     2
100
AcDbLine
 10
441.5235484936839
 20
959.0378489952994
 30
0.0
 11
441.5235484936839
 21
798.6912559429717
 31
0.0
  0
LINE
  5
E8
330
6F
100
AcDbEntity
  8
_0-0_計極細
  6
CENTER1
 62
     2
100
AcDbLine
 10
1341.523548493684
 20
959.0378489952994
 30
0.0
 11
1341.523548493684
 21
798.6912559429717
 31
0.0
  0
LINE
  5
E9
330
6F
100
AcDbEntity
  8
_0-0_計極細
  6
Continuous
 62
     2
100
AcDbLine
 10
706.5235484936839
 20
922.2749159667593
 30
0.0
 11
676.5235484936839
 21
922.2749159667593
 31
0.0
  0
LINE
  5
EA
330
6F
100
AcDbEntity
  8
_0-0_計極細
  6
Continuous
 62
     2
100
AcDbLine
 10
706.5235484936839
 20
835.274915966759
 30
0.0
 11
676.5235484936839
 21
835.274915966759
 31
0.0
  0
LINE
  5
EB
330
6F
100
AcDbEntity
  8
_0-0_計極細
  6
Continuous
 62
     2
100
AcDbLine
 10
676.5235484936839
 20
925.2749159667592
 30
0.0
 11
676.5235484936839
 21
832.2749159667591
 31
0.0
  0
LINE
  5
EC
330
6F
100
AcDbEntity
  8
_0-0_計極細
  6
Continuous
 62
     2
100
AcDbLine
 10
706.5235484936839
 20
832.2749159667591
 30
0.0
 11
706.5235484936839
 21
925.2749159667592
 31
0.0
  0
LINE
  5
ED
330
6F
100
AcDbEntity
  8
_0-0_計極細
  6
CENTER1
 62
     2
100
AcDbLine
 10
691.523548493684
 20
959.0378489952994
 30
0.0
 11
691.523548493684
 21
798.6912559429717
 31
0.0
  0
LINE
  5
EE
330
6F
100
AcDbEntity
  8
_0-0_計極細
  6
Continuous
 62
     2
100
AcDbLine
 10
1106.523548493684
 20
922.2749159667593
 30
0.0
 11
1076.523548493684
 21
922.2749159667593
 31
0.0
  0
LINE
  5
EF
330
6F
100
AcDbEntity
  8
_0-0_計極細
  6
Continuous
 62
     2
100
AcDbLine
 10
1106.523548493684
 20
835.274915966759
 30
0.0
 11
1076.523548493684
 21
835.274915966759
 31
0.0
  0
LINE
  5
F0
330
6F
100
AcDbEntity
  8
_0-0_計極細
  6
Continuous
 62
     2
100
AcDbLine
 10
1076.523548493684
 20
925.2749159667592
 30
0.0
 11
1076.523548493684
 21
832.2749159667591
 31
0.0
  0
LINE
  5
F1
330
6F
100
AcDbEntity
  8
_0-0_計極細
  6
Continuous
 62
     2
100
AcDbLine
 10
1106.523548493684
 20
832.2749159667591
 30
0.0
 11
1106.523548493684
 21
925.2749159667592
 31
0.0
  0
LINE
  5
F2
330
6F
100
AcDbEntity
  8
_0-0_計極細
  6
CENTER1
 62
     2
100
AcDbLine
 10
1091.523548493684
 20
959.0378489952994
 30
0.0
 11
1091.523548493684
 21
798.6912559429717
 31
0.0
  0
LINE
  5
F3
330
6F
100
AcDbEntity
  8
_0-0_計極細
  6
CENTER1
 62
     2
100
AcDbLine
 10
541.523548493684
 20
959.0378489952994
 30
0.0
 11
541.523548493684
 21
798.6912559429717
 31
0.0
  0
LINE
  5
F4
330
6F
100
AcDbEntity
  8
_0-0_計極細
  6
CENTER1
 62
     2
100
AcDbLine
 10
641.5235484936841
 20
959.0378489952994
 30
0.0
 11
641.5235484936841
 21
798.6912559429717
 31
0.0
  0
LINE
  5
F5
330
6F
100
AcDbEntity
  8
_0-0_計極細
  6
CENTER1
 62
     2
100
AcDbLine
 10
741.523548493684
 20
959.0378489952994
 30
0.0
 11
741.523548493684
 21
798.6912559429717
 31
0.0
  0
LINE
  5
F6
330
6F
100
AcDbEntity
  8
_0-0_計極細
  6
CENTER1
 62
     2
100
AcDbLine
 10
841.523548493684
 20
959.0378489952994
 30
0.0
 11
841.523548493684
 21
798.6912559429717
 31
0.0
  0
LINE
  5
F7
330
6F
100
AcDbEntity
  8
_0-0_計極細
  6
CENTER1
 62
     2
100
AcDbLine
 10
941.523548493684
 20
959.0378489952994
 30
0.0
 11
941.523548493684
 21
798.6912559429717
 31
0.0
  0
LINE
  5
F8
330
6F
100
AcDbEntity
  8
_0-0_計極細
  6
CENTER1
 62
     2
100
AcDbLine
 10
1041.523548493684
 20
959.0378489952994
 30
0.0
 11
1041.523548493684
 21
798.6912559429717
 31
0.0
  0
LINE
  5
F9
330
6F
100
AcDbEntity
  8
_0-0_計極細
  6
CENTER1
 62
     2
100
AcDbLine
 10
1141.523548493684
 20
959.0378489952994
 30
0.0
 11
1141.523548493684
 21
798.6912559429717
 31
0.0
  0
LINE
  5
FA
330
6F
100
AcDbEntity
  8
_0-0_計極細
  6
CENTER1
 62
     2
100
AcDbLine
 10
1241.523548493684
 20
959.0378489952994
 30
0.0
 11
1241.523548493684
 21
798.6912559429717
 31
0.0
  0
LINE
  5
FB
330
6F
100
AcDbEntity
  8
_0-2_計中線
  6
Continuous
 62
     6
100
AcDbLine
 10
392.0235484936839
 20
925.2749159667592
 30
0.0
 11
392.0235484936839
 21
953.274915966759
 31
0.0
  0
LINE
  5
FC
330
6F
100
AcDbEntity
  8
_0-2_計中線
  6
Continuous
 62
     6
100
AcDbLine
 10
392.0235484936839
 20
953.274915966759
 30
0.0
 11
394.0235484936839
 21
955.2749159667593
 31
0.0
  0
LINE
  5
FD
330
6F
100
AcDbEntity
  8
_0-2_計中線
  6
Continuous
 62
     6
100
AcDbLine
 10
392.0235484936839
 20
832.2749159667591
 30
0.0
 11
392.0235484936839
 21
804.2749159667589
 31
0.0
  0
LINE
  5
FE
330
6F
100
AcDbEntity
  8
_0-2_計中線
  6
Continuous
 62
     6
100
AcDbLine
 10
392.0235484936839
 20
804.2749159667589
 30
0.0
 11
394.0235484936839
 21
802.274915966759
 31
0.0
  0
LINE
  5
FF
330
6F
100
AcDbEntity
  8
_0-2_計中線
  6
Continuous
 62
     6
100
AcDbLine
 10
394.0235484936839
 20
802.274915966759
 30
0.0
 11
1389.023548493684
 21
802.274915966759
 31
0.0
  0
LINE
  5
100
330
6F
100
AcDbEntity
  8
_0-2_計中線
  6
Continuous
 62
     6
100
AcDbLine
 10
1391.023548493684
 20
832.2749159667591
 30
0.0
 11
1391.023548493684
 21
804.2749159667589
 31
0.0
  0
LINE
  5
101
330
6F
100
AcDbEntity
  8
_0-2_計中線
  6
Continuous
 62
     6
100
AcDbLine
 10
1389.023548493684
 20
802.274915966759
 30
0.0
 11
1391.023548493684
 21
804.2749159667589
 31
0.0
  0
LINE
  5
102
330
6F
100
AcDbEntity
  8
_0-2_計中線
  6
Continuous
 62
     6
100
AcDbLine
 10
394.0235484936839
 20
955.2749159667593
 30
0.0
 11
1389.023548493684
 21
955.2749159667593
 31
0.0
  0
LINE
  5
103
330
6F
100
AcDbEntity
  8
_0-2_計中線
  6
Continuous
 62
     6
100
AcDbLine
 10
1391.023548493684
 20
925.2749159667592
 30
0.0
 11
1391.023548493684
 21
953.274915966759
 31
0.0
  0
LINE
  5
104
330
6F
100
AcDbEntity
  8
_0-2_計中線
  6
Continuous
 62
     6
100
AcDbLine
 10
1389.023548493684
 20
955.2749159667593
 30
0.0
 11
1391.023548493684
 21
953.274915966759
 31
0.0
  0
LINE
  5
105
330
6F
100
AcDbEntity
  8
_0-0_計極細
  6
Continuous
 62
     2
100
AcDbLine
 10
393.5235484936839
 20
911.0748607567284
 30
0.0
 11
1389.523548493684
 21
911.0748607567284
 31
0.0
  0
LINE
  5
106
330
6F
100
AcDbEntity
  8
_0-0_計極細
  6
Continuous
 62
     2
100
AcDbLine
 10
393.5235484936839
 20
916.0748607567283
 30
0.0
 11
1389.523548493684
 21
916.0748607567283
 31
0.0
  0
LINE
  5
107
330
6F
100
AcDbEntity
  8
_0-0_計極細
  6
Continuous
 62
     2
100
AcDbLine
 10
393.5235484936839
 20
841.4749343710704
 30
0.0
 11
1389.523548493684
 21
841.4749343710704
 31
0.0
  0
LINE
  5
108
330
6F
100
AcDbEntity
  8
_0-0_計極細
  6
Continuous
 62
     2
100
AcDbLine
 10
393.5235484936839
 20
846.4749343710705
 30
0.0
 11
1389.523548493684
 21
846.4749343710705
 31
0.0
  0
LINE
  5
109
330
6F
100
AcDbEntity
  8
_0-1_計細線
  6
Continuous
 62
     3
100
AcDbLine
 10
393.5235484936839
 20
838.2749343710701
 30
0.0
 11
393.5235484936839
 21
849.6749343710705
 31
0.0
  0
LINE
  5
10A
330
6F
100
AcDbEntity
  8
_0-1_計細線
  6
Continuous
 62
     3
100
AcDbLine
 10
1389.523548493684
 20
838.2749343710701
 30
0.0
 11
1389.523548493684
 21
849.6749343710705
 31
0.0
  0
LINE
  5
10B
330
6F
100
AcDbEntity
  8
_0-1_計細線
  6
Continuous
 62
     3
100
AcDbLine
 10
393.5235484936839
 20
838.2749343710701
 30
0.0
 11
1389.523548493684
 21
838.2749343710701
 31
0.0
  0
LINE
  5
10C
330
6F
100
AcDbEntity
  8
_0-1_計細線
  6
Continuous
 62
     3
100
AcDbLine
 10
393.5235484936839
 20
849.6749343710705
 30
0.0
 11
1389.523548493684
 21
849.6749343710705
 31
0.0
  0
LINE
  5
10D
330
6F
100
AcDbEntity
  8
_0-1_計細線
  6
Continuous
 62
     3
100
AcDbLine
 10
393.5235484936839
 20
919.2748607567283
 30
0.0
 11
393.5235484936839
 21
907.874860756728
 31
0.0
  0
LINE
  5
10E
330
6F
100
AcDbEntity
  8
_0-1_計細線
  6
Continuous
 62
     3
100
AcDbLine
 10
1389.523548493684
 20
919.2748607567283
 30
0.0
 11
1389.523548493684
 21
907.874860756728
 31
0.0
  0
LINE
  5
10F
330
6F
100
AcDbEntity
  8
_0-1_計細線
  6
Continuous
 62
     3
100
AcDbLine
 10
393.5235484936839
 20
919.2748607567283
 30
0.0
 11
1389.523548493684
 21
919.2748607567283
 31
0.0
  0
LINE
  5
110
330
6F
100
AcDbEntity
  8
_0-1_計細線
  6
Continuous
 62
     3
100
AcDbLine
 10
393.5235484936839
 20
907.874860756728
 30
0.0
 11
1389.523548493684
 21
907.874860756728
 31
0.0
  0
LINE
  5
111
330
6F
100
AcDbEntity
  8
_0-0_計極細
  6
Continuous
 62
     2
100
AcDbLine
 10
393.5235484936839
 20
881.2749159667591
 30
0.0
 11
1389.523548493684
 21
881.2749159667591
 31
0.0
  0
LINE
  5
112
330
6F
100
AcDbEntity
  8
_0-0_計極細
  6
Continuous
 62
     2
100
AcDbLine
 10
393.5235484936839
 20
876.274915966759
 30
0.0
 11
1389.523548493684
 21
876.274915966759
 31
0.0
  0
LINE
  5
113
330
6F
100
AcDbEntity
  8
_0-1_計細線
  6
Continuous
 62
     3
100
AcDbLine
 10
393.5235484936839
 20
884.4749159667593
 30
0.0
 11
393.5235484936839
 21
873.0749159667588
 31
0.0
  0
LINE
  5
114
330
6F
100
AcDbEntity
  8
_0-1_計細線
  6
Continuous
 62
     3
100
AcDbLine
 10
1389.523548493684
 20
884.4749159667593
 30
0.0
 11
1389.523548493684
 21
873.0749159667588
 31
0.0
  0
LINE
  5
115
330
6F
100
AcDbEntity
  8
_0-1_計細線
  6
Continuous
 62
     3
100
AcDbLine
 10
393.5235484936839
 20
873.0749159667588
 30
0.0
 11
1389.523548493684
 21
873.0749159667588
 31
0.0
  0
LINE
  5
116
330
6F
100
AcDbEntity
  8
_0-1_計細線
  6
Continuous
 62
     3
100
AcDbLine
 10
393.5235484936839
 20
884.4749159667593
 30
0.0
 11
1389.523548493684
 21
884.4749159667593
 31
0.0
  0
LINE
  5
117
330
6F
100
AcDbEntity
  8
_0-0_計極細
  6
Continuous
 62
     2
100
AcDbLine
 10
393.5235484936839
 20
893.6749343710676
 30
0.0
 11
1389.523548493684
 21
893.6749343710676
 31
0.0
  0
LINE
  5
118
330
6F
100
AcDbEntity
  8
_0-0_計極細
  6
Continuous
 62
     2
100
AcDbLine
 10
393.5235484936839
 20
898.6749343710677
 30
0.0
 11
1389.523548493684
 21
898.6749343710677
 31
0.0
  0
LINE
  5
119
330
6F
100
AcDbEntity
  8
_0-1_計細線
  6
Continuous
 62
     3
100
AcDbLine
 10
393.5235484936839
 20
901.8749343710679
 30
0.0
 11
393.5235484936839
 21
890.4749343710673
 31
0.0
  0
LINE
  5
11A
330
6F
100
AcDbEntity
  8
_0-1_計細線
  6
Continuous
 62
     3
100
AcDbLine
 10
1389.523548493684
 20
901.8749343710679
 30
0.0
 11
1389.523548493684
 21
890.4749343710673
 31
0.0
  0
LINE
  5
11B
330
6F
100
AcDbEntity
  8
_0-1_計細線
  6
Continuous
 62
     3
100
AcDbLine
 10
393.5235484936839
 20
890.4749343710673
 30
0.0
 11
1389.523548493684
 21
890.4749343710673
 31
0.0
  0
LINE
  5
11C
330
6F
100
AcDbEntity
  8
_0-1_計細線
  6
Continuous
 62
     3
100
AcDbLine
 10
393.5235484936839
 20
901.8749343710679
 30
0.0
 11
1389.523548493684
 21
901.8749343710679
 31
0.0
  0
LINE
  5
11D
330
6F
100
AcDbEntity
  8
_0-1_計細線
  6
Continuous
 62
     3
100
AcDbLine
 10
393.5235484936839
 20
890.4749343710673
 30
0.0
 11
393.5235484936839
 21
901.8749343710679
 31
0.0
  0
LINE
  5
11E
330
6F
100
AcDbEntity
  8
_0-1_計細線
  6
Continuous
 62
     3
100
AcDbLine
 10
393.5235484936839
 20
873.0749159667588
 30
0.0
 11
393.5235484936839
 21
884.4749159667593
 31
0.0
  0
LINE
  5
11F
330
6F
100
AcDbEntity
  8
_0-1_計細線
  6
Continuous
 62
     3
100
AcDbLine
 10
1389.523548493684
 20
890.4749343710673
 30
0.0
 11
1389.523548493684
 21
901.8749343710679
 31
0.0
  0
LINE
  5
120
330
6F
100
AcDbEntity
  8
_0-1_計細線
  6
Continuous
 62
     3
100
AcDbLine
 10
1389.523548493684
 20
873.0749159667588
 30
0.0
 11
1389.523548493684
 21
884.4749159667593
 31
0.0
  0
LINE
  5
121
330
6F
100
AcDbEntity
  8
_0-0_計極細
  6
Continuous
 62
     2
100
AcDbLine
 10
393.5235484936839
 20
858.8749895810984
 30
0.0
 11
1389.523548493684
 21
858.8749895810984
 31
0.0
  0
LINE
  5
122
330
6F
100
AcDbEntity
  8
_0-0_計極細
  6
Continuous
 62
     2
100
AcDbLine
 10
393.5235484936839
 20
863.8749895810981
 30
0.0
 11
1389.523548493684
 21
863.8749895810981
 31
0.0
  0
LINE
  5
123
330
6F
100
AcDbEntity
  8
_0-1_計細線
  6
Continuous
 62
     3
100
AcDbLine
 10
393.5235484936839
 20
867.0749895810985
 30
0.0
 11
393.5235484936839
 21
855.6749895810982
 31
0.0
  0
LINE
  5
124
330
6F
100
AcDbEntity
  8
_0-1_計細線
  6
Continuous
 62
     3
100
AcDbLine
 10
1389.523548493684
 20
867.0749895810985
 30
0.0
 11
1389.523548493684
 21
855.6749895810982
 31
0.0
  0
LINE
  5
125
330
6F
100
AcDbEntity
  8
_0-1_計細線
  6
Continuous
 62
     3
100
AcDbLine
 10
393.5235484936839
 20
855.6749895810982
 30
0.0
 11
1389.523548493684
 21
855.6749895810982
 31
0.0
  0
LINE
  5
126
330
6F
100
AcDbEntity
  8
_0-1_計細線
  6
Continuous
 62
     3
100
AcDbLine
 10
393.5235484936839
 20
867.0749895810985
 30
0.0
 11
1389.523548493684
 21
867.0749895810985
 31
0.0
  0
LINE
  5
127
330
6F
100
AcDbEntity
  8
_0-1_計細線
  6
Continuous
 62
     3
100
AcDbLine
 10
393.5235484936839
 20
855.6749895810982
 30
0.0
 11
393.5235484936839
 21
867.0749895810985
 31
0.0
  0
LINE
  5
128
330
6F
100
AcDbEntity
  8
_0-1_計細線
  6
Continuous
 62
     3
100
AcDbLine
 10
1389.523548493684
 20
855.6749895810982
 30
0.0
 11
1389.523548493684
 21
867.0749895810985
 31
0.0
  0
LINE
  5
129
330
6F
100
AcDbEntity
  8
_0-A_極細3
  6
CENTER1
 62
     7
100
AcDbLine
 10
591.0
 20
240.1929368816745
 30
0.0
 11
591.0
 21
337.6329368816744
 31
0.0
  0
ARC
  5
12A
330
6F
100
AcDbEntity
  8
_0-B_細線3
  6
Continuous
 62
     7
100
AcDbCircle
 10
493.9999999999999
 20
309.7589434213513
 30
0.0
 40
4.0
100
AcDbArc
 50
0.0
 51
89.99999999999991
  0
LINE
  5
12B
330
6F
100
AcDbEntity
  8
_0-B_細線3
  6
Continuous
 62
     7
100
AcDbLine
 10
493.9999999999999
 20
313.7589434213514
 30
0.0
 11
438.6
 21
313.7589434213514
 31
0.0
  0
LINE
  5
12C
330
6F
100
AcDbEntity
  8
_0-B_細線3
  6
Continuous
 62
     7
100
AcDbLine
 10
438.6
 20
313.7589434213514
 30
0.0
 11
437.9999999999998
 21
313.1589434213515
 31
0.0
  0
LINE
  5
12D
330
6F
100
AcDbEntity
  8
_0-B_細線3
  6
Continuous
 62
     7
100
AcDbLine
 10
437.9999999999998
 20
313.1589434213515
 30
0.0
 11
437.9999999999998
 21
310.3589434213513
 31
0.0
  0
LINE
  5
12E
330
6F
100
AcDbEntity
  8
_0-B_細線3
  6
Continuous
 62
     7
100
AcDbLine
 10
494.0000000000003
 20
309.7589434213513
 30
0.0
 11
438.6
 21
309.7589434213513
 31
0.0
  0
LINE
  5
12F
330
6F
100
AcDbEntity
  8
_0-B_細線3
  6
Continuous
 62
     7
100
AcDbLine
 10
437.9999999999998
 20
310.3589434213513
 30
0.0
 11
438.6
 21
309.7589434213513
 31
0.0
  0
LINE
  5
130
330
6F
100
AcDbEntity
  8
_0-B_細線3
  6
Continuous
 62
     7
100
AcDbLine
 10
494.0000000000003
 20
309.7589434213513
 30
0.0
 11
494.0000000000003
 21
254.3589434213514
 31
0.0
  0
LINE
  5
131
330
6F
100
AcDbEntity
  8
_0-B_細線3
  6
Continuous
 62
     7
100
AcDbLine
 10
494.0000000000003
 20
254.3589434213514
 30
0.0
 11
494.6000000000001
 21
253.7589434213514
 31
0.0
  0
LINE
  5
132
330
6F
100
AcDbEntity
  8
_0-B_細線3
  6
Continuous
 62
     7
100
AcDbLine
 10
494.6000000000001
 20
253.7589434213514
 30
0.0
 11
497.4
 21
253.7589434213514
 31
0.0
  0
LINE
  5
133
330
6F
100
AcDbEntity
  8
_0-B_細線3
  6
Continuous
 62
     7
100
AcDbLine
 10
497.9999999999998
 20
309.7589434213513
 30
0.0
 11
497.9999999999998
 21
254.3589434213514
 31
0.0
  0
LINE
  5
134
330
6F
100
AcDbEntity
  8
_0-B_細線3
  6
Continuous
 62
     7
100
AcDbLine
 10
497.4
 20
253.7589434213514
 30
0.0
 11
497.9999999999998
 21
254.3589434213514
 31
0.0
  0
ARC
  5
135
330
6F
100
AcDbEntity
  8
_0-B_細線3
  6
Continuous
 62
     7
100
AcDbCircle
 10
688.0000000000001
 20
309.7589434213513
 30
0.0
 40
4.0
100
AcDbArc
 50
89.99999999999991
 51
179.9999999999998
  0
LINE
  5
136
330
6F
100
AcDbEntity
  8
_0-B_細線3
  6
Continuous
 62
     7
100
AcDbLine
 10
688.0000000000001
 20
313.7589434213514
 30
0.0
 11
743.4
 21
313.7589434213514
 31
0.0
  0
LINE
  5
137
330
6F
100
AcDbEntity
  8
_0-B_細線3
  6
Continuous
 62
     7
100
AcDbLine
 10
743.4
 20
313.7589434213514
 30
0.0
 11
743.9999999999996
 21
313.1589434213515
 31
0.0
  0
LINE
  5
138
330
6F
100
AcDbEntity
  8
_0-B_細線3
  6
Continuous
 62
     7
100
AcDbLine
 10
687.9999999999996
 20
309.7589434213513
 30
0.0
 11
743.4
 21
309.7589434213513
 31
0.0
  0
LINE
  5
139
330
6F
100
AcDbEntity
  8
_0-B_細線3
  6
Continuous
 62
     7
100
AcDbLine
 10
743.9999999999996
 20
313.1589434213515
 30
0.0
 11
743.9999999999996
 21
310.3589434213513
 31
0.0
  0
LINE
  5
13A
330
6F
100
AcDbEntity
  8
_0-B_細線3
  6
Continuous
 62
     7
100
AcDbLine
 10
743.4
 20
309.7589434213513
 30
0.0
 11
743.9999999999996
 21
310.3589434213513
 31
0.0
  0
LINE
  5
13B
330
6F
100
AcDbEntity
  8
_0-B_細線3
  6
Continuous
 62
     7
100
AcDbLine
 10
683.9999999999998
 20
309.7589434213513
 30
0.0
 11
683.9999999999998
 21
254.3589434213514
 31
0.0
  0
LINE
  5
13C
330
6F
100
AcDbEntity
  8
_0-B_細線3
  6
Continuous
 62
     7
100
AcDbLine
 10
683.9999999999998
 20
254.3589434213514
 30
0.0
 11
684.5999999999998
 21
253.7589434213514
 31
0.0
  0
LINE
  5
13D
330
6F
100
AcDbEntity
  8
_0-B_細線3
  6
Continuous
 62
     7
100
AcDbLine
 10
684.5999999999998
 20
253.7589434213514
 30
0.0
 11
687.3999999999994
 21
253.7589434213514
 31
0.0
  0
LINE
  5
13E
330
6F
100
AcDbEntity
  8
_0-B_細線3
  6
Continuous
 62
     7
100
AcDbLine
 10
687.9999999999996
 20
309.7589434213513
 30
0.0
 11
687.9999999999996
 21
254.3589434213514
 31
0.0
  0
LINE
  5
13F
330
6F
100
AcDbEntity
  8
_0-B_細線3
  6
Continuous
 62
     7
100
AcDbLine
 10
687.3999999999994
 20
253.7589434213514
 30
0.0
 11
687.9999999999996
 21
254.3589434213514
 31
0.0
  0
LINE
  5
140
330
6F
100
AcDbEntity
  8
_0-A_極細3
  6
CENTER1
 62
     7
100
AcDbLine
 10
591.0
 20
240.1929368816745
 30
0.0
 11
591.0
 21
337.6329368816744
 31
0.0
  0
LINE
  5
141
330
6F
100
AcDbEntity
  8
_0-A_極細3
  6
Continuous
 62
     7
100
AcDbLine
 10
427.0000858332918
 20
309.7589434213519
 30
0.0
 11
477.0000682499216
 21
309.7589434213519
 31
0.0
  0
LINE
  5
142
330
6F
100
AcDbEntity
  8
_0-A_極細3
  6
Continuous
 62
     7
100
AcDbLine
 10
704.9999317500783
 20
309.7589434213519
 30
0.0
 11
754.9999141667081
 21
309.7589434213519
 31
0.0
  0
LINE
  5
143
330
6F
100
AcDbEntity
  8
_0-A_極細3
  6
Continuous
 62
     7
100
AcDbLine
 10
754.9999141667081
 20
309.7589434213519
 30
0.0
 11
754.9999141667081
 21
181.1447585123344
 31
0.0
  0
LINE
  5
144
330
6F
100
AcDbEntity
  8
_0-A_極細3
  6
Continuous
 62
     7
100
AcDbLine
 10
427.0000858332917
 20
309.7589434213519
 30
0.0
 11
427.0000858332917
 21
181.1447585123344
 31
0.0
  0
LINE
  5
145
330
6F
100
AcDbEntity
  8
_0-2_計中線
  6
Continuous
 62
     6
100
AcDbLine
 10
392.0235484936839
 20
661.3667310990709
 30
0.0
 11
392.0235484936839
 21
633.3667310990708
 31
0.0
  0
LINE
  5
146
330
6F
100
AcDbEntity
  8
_0-2_計中線
  6
Continuous
 62
     6
100
AcDbLine
 10
392.0235484936839
 20
633.3667310990708
 30
0.0
 11
394.0235484936839
 21
631.3667310990709
 31
0.0
  0
LINE
  5
147
330
6F
100
AcDbEntity
  8
_0-2_計中線
  6
Continuous
 62
     6
100
AcDbLine
 10
394.0235484936839
 20
631.3667310990709
 30
0.0
 11
1389.023548493684
 21
631.3667310990709
 31
0.0
  0
LINE
  5
148
330
6F
100
AcDbEntity
  8
_0-2_計中線
  6
Continuous
 62
     6
100
AcDbLine
 10
1391.023548493684
 20
661.3667310990709
 30
0.0
 11
1391.023548493684
 21
633.3667310990708
 31
0.0
  0
LINE
  5
149
330
6F
100
AcDbEntity
  8
_0-2_計中線
  6
Continuous
 62
     6
100
AcDbLine
 10
1389.023548493684
 20
631.3667310990709
 30
0.0
 11
1391.023548493684
 21
633.3667310990708
 31
0.0
  0
LINE
  5
14A
330
6F
100
AcDbEntity
  8
_0-0_計極細
  6
CENTER1
 62
     2
100
AcDbLine
 10
408.5235484936839
 20
661.6978975042593
 30
0.0
 11
408.5235484936839
 21
631.4493378334767
 31
0.0
  0
CIRCLE
  5
14B
330
6F
100
AcDbEntity
  8
_0-1_計細線
  6
Continuous
 62
     3
100
AcDbCircle
 10
408.5235484936839
 20
649.3667310990709
 30
0.0
 40
9.0
  0
CIRCLE
  5
14C
330
6F
100
AcDbEntity
  8
_0-1_計細線
  6
Continuous
 62
     3
100
AcDbCircle
 10
408.5235484936839
 20
649.3667310990709
 30
0.0
 40
6.999999999999999
  0
LINE
  5
14D
330
6F
100
AcDbEntity
  8
_0-0_計極細
  6
Continuous
 62
     2
100
AcDbLine
 10
405.5235484936836
 20
649.3667310990709
 30
0.0
 11
407.023548493684
 21
651.964807310424
 31
0.0
  0
LINE
  5
14E
330
6F
100
AcDbEntity
  8
_0-0_計極細
  6
Continuous
 62
     2
100
AcDbLine
 10
407.023548493684
 20
651.964807310424
 30
0.0
 11
410.0235484936836
 21
651.964807310424
 31
0.0
  0
LINE
  5
14F
330
6F
100
AcDbEntity
  8
_0-0_計極細
  6
Continuous
 62
     2
100
AcDbLine
 10
410.0235484936836
 20
651.964807310424
 30
0.0
 11
411.523548493684
 21
649.3667310990709
 31
0.0
  0
LINE
  5
150
330
6F
100
AcDbEntity
  8
_0-0_計極細
  6
Continuous
 62
     2
100
AcDbLine
 10
411.523548493684
 20
649.3667310990709
 30
0.0
 11
410.0235484936836
 21
646.7686548877172
 31
0.0
  0
LINE
  5
151
330
6F
100
AcDbEntity
  8
_0-0_計極細
  6
Continuous
 62
     2
100
AcDbLine
 10
410.0235484936836
 20
646.7686548877172
 30
0.0
 11
407.023548493684
 21
646.7686548877172
 31
0.0
  0
LINE
  5
152
330
6F
100
AcDbEntity
  8
_0-0_計極細
  6
Continuous
 62
     2
100
AcDbLine
 10
407.023548493684
 20
646.7686548877172
 30
0.0
 11
405.5235484936836
 21
649.3667310990709
 31
0.0
  0
LINE
  5
153
330
6F
100
AcDbEntity
  8
_0-0_計極細
  6
CENTER1
 62
     2
100
AcDbLine
 10
691.523548493684
 20
661.6978975042593
 30
0.0
 11
691.523548493684
 21
631.4493378334767
 31
0.0
  0
CIRCLE
  5
154
330
6F
100
AcDbEntity
  8
_0-1_計細線
  6
Continuous
 62
     3
100
AcDbCircle
 10
691.523548493684
 20
649.3667310990709
 30
0.0
 40
9.0
  0
CIRCLE
  5
155
330
6F
100
AcDbEntity
  8
_0-1_計細線
  6
Continuous
 62
     3
100
AcDbCircle
 10
691.523548493684
 20
649.3667310990709
 30
0.0
 40
6.999999999999999
  0
LINE
  5
156
330
6F
100
AcDbEntity
  8
_0-0_計極細
  6
Continuous
 62
     2
100
AcDbLine
 10
688.5235484936836
 20
649.3667310990709
 30
0.0
 11
690.0235484936839
 21
651.964807310424
 31
0.0
  0
LINE
  5
157
330
6F
100
AcDbEntity
  8
_0-0_計極細
  6
Continuous
 62
     2
100
AcDbLine
 10
690.0235484936839
 20
651.964807310424
 30
0.0
 11
693.0235484936836
 21
651.964807310424
 31
0.0
  0
LINE
  5
158
330
6F
100
AcDbEntity
  8
_0-0_計極細
  6
Continuous
 62
     2
100
AcDbLine
 10
693.0235484936836
 20
651.964807310424
 30
0.0
 11
694.5235484936839
 21
649.3667310990709
 31
0.0
  0
LINE
  5
159
330
6F
100
AcDbEntity
  8
_0-0_計極細
  6
Continuous
 62
     2
100
AcDbLine
 10
694.5235484936839
 20
649.3667310990709
 30
0.0
 11
693.0235484936836
 21
646.7686548877172
 31
0.0
  0
LINE
  5
15A
330
6F
100
AcDbEntity
  8
_0-0_計極細
  6
Continuous
 62
     2
100
AcDbLine
 10
693.0235484936836
 20
646.7686548877172
 30
0.0
 11
690.0235484936839
 21
646.7686548877172
 31
0.0
  0
LINE
  5
15B
330
6F
100
AcDbEntity
  8
_0-0_計極細
  6
Continuous
 62
     2
100
AcDbLine
 10
690.0235484936839
 20
646.7686548877172
 30
0.0
 11
688.5235484936836
 21
649.3667310990709
 31
0.0
  0
LINE
  5
15C
330
6F
100
AcDbEntity
  8
_0-0_計極細
  6
CENTER1
 62
     2
100
AcDbLine
 10
1091.523548493684
 20
661.6978975042593
 30
0.0
 11
1091.523548493684
 21
631.4493378334767
 31
0.0
  0
CIRCLE
  5
15D
330
6F
100
AcDbEntity
  8
_0-1_計細線
  6
Continuous
 62
     3
100
AcDbCircle
 10
1091.523548493684
 20
649.3667310990709
 30
0.0
 40
9.0
  0
CIRCLE
  5
15E
330
6F
100
AcDbEntity
  8
_0-1_計細線
  6
Continuous
 62
     3
100
AcDbCircle
 10
1091.523548493684
 20
649.3667310990709
 30
0.0
 40
6.999999999999999
  0
LINE
  5
15F
330
6F
100
AcDbEntity
  8
_0-0_計極細
  6
Continuous
 62
     2
100
AcDbLine
 10
1088.523548493684
 20
649.3667310990709
 30
0.0
 11
1090.023548493684
 21
651.964807310424
 31
0.0
  0
LINE
  5
160
330
6F
100
AcDbEntity
  8
_0-0_計極細
  6
Continuous
 62
     2
100
AcDbLine
 10
1090.023548493684
 20
651.964807310424
 30
0.0
 11
1093.023548493684
 21
651.964807310424
 31
0.0
  0
LINE
  5
161
330
6F
100
AcDbEntity
  8
_0-0_計極細
  6
Continuous
 62
     2
100
AcDbLine
 10
1093.023548493684
 20
651.964807310424
 30
0.0
 11
1094.523548493684
 21
649.3667310990709
 31
0.0
  0
LINE
  5
162
330
6F
100
AcDbEntity
  8
_0-0_計極細
  6
Continuous
 62
     2
100
AcDbLine
 10
1094.523548493684
 20
649.3667310990709
 30
0.0
 11
1093.023548493684
 21
646.7686548877172
 31
0.0
  0
LINE
  5
163
330
6F
100
AcDbEntity
  8
_0-0_計極細
  6
Continuous
 62
     2
100
AcDbLine
 10
1093.023548493684
 20
646.7686548877172
 30
0.0
 11
1090.023548493684
 21
646.7686548877172
 31
0.0
  0
LINE
  5
164
330
6F
100
AcDbEntity
  8
_0-0_計極細
  6
Continuous
 62
     2
100
AcDbLine
 10
1090.023548493684
 20
646.7686548877172
 30
0.0
 11
1088.523548493684
 21
649.3667310990709
 31
0.0
  0
LINE
  5
165
330
6F
100
AcDbEntity
  8
_0-0_計極細
  6
CENTER1
 62
     2
100
AcDbLine
 10
1374.523548493684
 20
661.6978975042593
 30
0.0
 11
1374.523548493684
 21
631.4493378334767
 31
0.0
  0
CIRCLE
  5
166
330
6F
100
AcDbEntity
  8
_0-1_計細線
  6
Continuous
 62
     3
100
AcDbCircle
 10
1374.523548493684
 20
649.3667310990709
 30
0.0
 40
9.0
  0
CIRCLE
  5
167
330
6F
100
AcDbEntity
  8
_0-1_計細線
  6
Continuous
 62
     3
100
AcDbCircle
 10
1374.523548493684
 20
649.3667310990709
 30
0.0
 40
6.999999999999999
  0
LINE
  5
168
330
6F
100
AcDbEntity
  8
_0-0_計極細
  6
Continuous
 62
     2
100
AcDbLine
 10
1371.523548493684
 20
649.3667310990709
 30
0.0
 11
1373.023548493684
 21
651.964807310424
 31
0.0
  0
LINE
  5
169
330
6F
100
AcDbEntity
  8
_0-0_計極細
  6
Continuous
 62
     2
100
AcDbLine
 10
1373.023548493684
 20
651.964807310424
 30
0.0
 11
1376.023548493684
 21
651.964807310424
 31
0.0
  0
LINE
  5
16A
330
6F
100
AcDbEntity
  8
_0-0_計極細
  6
Continuous
 62
     2
100
AcDbLine
 10
1376.023548493684
 20
651.964807310424
 30
0.0
 11
1377.523548493684
 21
649.3667310990709
 31
0.0
  0
LINE
  5
16B
330
6F
100
AcDbEntity
  8
_0-0_計極細
  6
Continuous
 62
     2
100
AcDbLine
 10
1377.523548493684
 20
649.3667310990709
 30
0.0
 11
1376.023548493684
 21
646.7686548877172
 31
0.0
  0
LINE
  5
16C
330
6F
100
AcDbEntity
  8
_0-0_計極細
  6
Continuous
 62
     2
100
AcDbLine
 10
1376.023548493684
 20
646.7686548877172
 30
0.0
 11
1373.023548493684
 21
646.7686548877172
 31
0.0
  0
LINE
  5
16D
330
6F
100
AcDbEntity
  8
_0-0_計極細
  6
Continuous
 62
     2
100
AcDbLine
 10
1373.023548493684
 20
646.7686548877172
 30
0.0
 11
1371.523548493684
 21
649.3667310990709
 31
0.0
  0
ARC
  5
16E
330
6F
100
AcDbEntity
  8
_0-B_細線3
  6
Continuous
 62
     7
100
AcDbCircle
 10
511.0000736125468
 20
306.9589879389521
 30
0.0
 40
1.0
100
AcDbArc
 50
179.9999999999998
 51
269.9999999999997
  0
LINE
  5
16F
330
6F
100
AcDbEntity
  8
_0-B_細線3
  6
Continuous
 62
     7
100
AcDbLine
 10
510.0000736125463
 20
309.7589879389516
 30
0.0
 11
510.0000736125463
 21
306.9589879389521
 31
0.0
  0
ARC
  5
170
330
6F
100
AcDbEntity
  8
_0-B_細線3
  6
Continuous
 62
     7
100
AcDbCircle
 10
531.8000736081317
 20
306.9589879389521
 30
0.0
 40
1.0
100
AcDbArc
 50
269.9999999999997
 51
359.9999999999997
  0
LINE
  5
171
330
6F
100
AcDbEntity
  8
_0-B_細線3
  6
Continuous
 62
     7
100
AcDbLine
 10
532.8000736081313
 20
309.7589879389516
 30
0.0
 11
532.8000736081313
 21
306.9589879389521
 31
0.0
  0
ARC
  5
172
330
6F
100
AcDbEntity
  8
_0-B_細線3
  6
Continuous
 62
     7
100
AcDbCircle
 10
516.0000736125462
 20
303.9589879389521
 30
0.0
 40
2.0
100
AcDbArc
 50
0.0
 51
89.99999999999991
  0
LINE
  5
173
330
6F
100
AcDbEntity
  8
_0-B_細線3
  6
Continuous
 62
     7
100
AcDbLine
 10
516.0000736125462
 20
305.958987938952
 30
0.0
 11
511.0000736125468
 21
305.958987938952
 31
0.0
  0
ARC
  5
174
330
6F
100
AcDbEntity
  8
_0-B_細線3
  6
Continuous
 62
     7
100
AcDbCircle
 10
526.8000736125461
 20
303.9589879389521
 30
0.0
 40
2.0
100
AcDbArc
 50
89.99999999999991
 51
179.9999999999998
  0
LINE
  5
175
330
6F
100
AcDbEntity
  8
_0-B_細線3
  6
Continuous
 62
     7
100
AcDbLine
 10
526.8000736081313
 20
305.958987938952
 30
0.0
 11
531.8000736081317
 21
305.958987938952
 31
0.0
  0
LINE
  5
176
330
6F
100
AcDbEntity
  8
_0-B_細線3
  6
Continuous
 62
     7
100
AcDbLine
 10
526.4000736103384
 20
313.7589879389516
 30
0.0
 11
516.4000736103389
 21
313.7589879389516
 31
0.0
  0
LINE
  5
177
330
6F
100
AcDbEntity
  8
_0-B_細線3
  6
Continuous
 62
     7
100
AcDbLine
 10
518.0000736103386
 20
273.7589879389517
 30
0.0
 11
518.0000736125462
 21
303.9589879389521
 31
0.0
  0
LINE
  5
178
330
6F
100
AcDbEntity
  8
_0-B_細線3
  6
Continuous
 62
     7
100
AcDbLine
 10
524.8000736103391
 20
273.7589879389517
 30
0.0
 11
524.8000736125468
 21
303.9589879389521
 31
0.0
  0
LINE
  5
179
330
6F
100
AcDbEntity
  8
_0-B_細線3
  6
Continuous
 62
     7
100
AcDbLine
 10
524.8000736103391
 20
273.7589879389517
 30
0.0
 11
518.0000736103386
 21
273.7589879389517
 31
0.0
  0
LINE
  5
17A
330
6F
100
AcDbEntity
  8
_0-B_細線3
  6
Continuous
 62
     7
100
AcDbLine
 10
526.4000736103391
 20
313.7589879389516
 30
0.0
 11
532.0983486013611
 21
311.9782770036432
 31
0.0
  0
LINE
  5
17B
330
6F
100
AcDbEntity
  8
_0-B_細線3
  6
Continuous
 62
     7
100
AcDbLine
 10
532.8000736081313
 20
309.7589879389516
 30
0.0
 11
532.8000736081313
 21
311.0237970256376
 31
0.0
  0
ARC
  5
17C
330
6F
100
AcDbEntity
  8
_0-B_細線3
  6
Continuous
 62
     7
100
AcDbCircle
 10
531.8000736081315
 20
311.0237970256373
 30
0.0
 40
1.0
100
AcDbArc
 50
0.0000000000162844
 51
72.64597535811748
  0
LINE
  5
17D
330
6F
100
AcDbEntity
  8
_0-B_細線3
  6
Continuous
 62
     7
100
AcDbLine
 10
516.4000736103385
 20
313.7589879389516
 30
0.0
 11
510.7017986193167
 21
311.9782770036434
 31
0.0
  0
LINE
  5
17E
330
6F
100
AcDbEntity
  8
_0-B_細線3
  6
Continuous
 62
     7
100
AcDbLine
 10
510.0000736125463
 20
309.7589879389516
 30
0.0
 11
510.0000736125463
 21
311.0237970256372
 31
0.0
  0
ARC
  5
17F
330
6F
100
AcDbEntity
  8
_0-B_細線3
  6
Continuous
 62
     7
100
AcDbCircle
 10
511.0000736125461
 20
311.0237970256373
 30
0.0
 40
1.0
100
AcDbArc
 50
107.3540246418652
 51
180.0000000000094
  0
ARC
  5
180
330
6F
100
AcDbEntity
  8
_0-B_細線3
  6
Continuous
 62
     7
100
AcDbCircle
 10
545.8000000061288
 20
306.9589879389521
 30
0.0
 40
1.0
100
AcDbArc
 50
179.9999999999998
 51
269.9999999999997
  0
LINE
  5
181
330
6F
100
AcDbEntity
  8
_0-B_細線3
  6
Continuous
 62
     7
100
AcDbLine
 10
544.8000000061283
 20
309.7589879389516
 30
0.0
 11
544.8000000061283
 21
306.9589879389521
 31
0.0
  0
ARC
  5
182
330
6F
100
AcDbEntity
  8
_0-B_細線3
  6
Continuous
 62
     7
100
AcDbCircle
 10
566.6000000017135
 20
306.9589879389521
 30
0.0
 40
1.0
100
AcDbArc
 50
269.9999999999997
 51
359.9999999999997
  0
LINE
  5
183
330
6F
100
AcDbEntity
  8
_0-B_細線3
  6
Continuous
 62
     7
100
AcDbLine
 10
567.6000000017134
 20
309.7589879389516
 30
0.0
 11
567.6000000017134
 21
306.9589879389521
 31
0.0
  0
ARC
  5
184
330
6F
100
AcDbEntity
  8
_0-B_細線3
  6
Continuous
 62
     7
100
AcDbCircle
 10
550.8000000061283
 20
303.9589879389521
 30
0.0
 40
2.0
100
AcDbArc
 50
0.0
 51
89.99999999999991
  0
LINE
  5
185
330
6F
100
AcDbEntity
  8
_0-B_細線3
  6
Continuous
 62
     7
100
AcDbLine
 10
550.8000000061283
 20
305.958987938952
 30
0.0
 11
545.8000000061288
 21
305.958987938952
 31
0.0
  0
ARC
  5
186
330
6F
100
AcDbEntity
  8
_0-B_細線3
  6
Continuous
 62
     7
100
AcDbCircle
 10
561.6000000061281
 20
303.9589879389521
 30
0.0
 40
2.0
100
AcDbArc
 50
89.99999999999991
 51
179.9999999999998
  0
LINE
  5
187
330
6F
100
AcDbEntity
  8
_0-B_細線3
  6
Continuous
 62
     7
100
AcDbLine
 10
561.6000000017134
 20
305.958987938952
 30
0.0
 11
566.6000000017135
 21
305.958987938952
 31
0.0
  0
LINE
  5
188
330
6F
100
AcDbEntity
  8
_0-B_細線3
  6
Continuous
 62
     7
100
AcDbLine
 10
561.2000000039203
 20
313.7589879389516
 30
0.0
 11
551.2000000039209
 21
313.7589879389516
 31
0.0
  0
LINE
  5
189
330
6F
100
AcDbEntity
  8
_0-B_細線3
  6
Continuous
 62
     7
100
AcDbLine
 10
552.8000000039205
 20
273.7589879389517
 30
0.0
 11
552.8000000061281
 21
303.9589879389521
 31
0.0
  0
LINE
  5
18A
330
6F
100
AcDbEntity
  8
_0-B_細線3
  6
Continuous
 62
     7
100
AcDbLine
 10
559.6000000039212
 20
273.7589879389517
 30
0.0
 11
559.6000000061288
 21
303.9589879389521
 31
0.0
  0
LINE
  5
18B
330
6F
100
AcDbEntity
  8
_0-B_細線3
  6
Continuous
 62
     7
100
AcDbLine
 10
559.6000000039212
 20
273.7589879389517
 30
0.0
 11
552.8000000039205
 21
273.7589879389517
 31
0.0
  0
LINE
  5
18C
330
6F
100
AcDbEntity
  8
_0-B_細線3
  6
Continuous
 62
     7
100
AcDbLine
 10
561.2000000039211
 20
313.7589879389516
 30
0.0
 11
566.8982749949432
 21
311.9782770036432
 31
0.0
  0
LINE
  5
18D
330
6F
100
AcDbEntity
  8
_0-B_細線3
  6
Continuous
 62
     7
100
AcDbLine
 10
567.6000000017134
 20
309.7589879389516
 30
0.0
 11
567.6000000017134
 21
311.0237970256376
 31
0.0
  0
ARC
  5
18E
330
6F
100
AcDbEntity
  8
_0-B_細線3
  6
Continuous
 62
     7
100
AcDbCircle
 10
566.6000000017135
 20
311.0237970256373
 30
0.0
 40
1.0
100
AcDbArc
 50
0.0000000000162844
 51
72.64597535811748
  0
LINE
  5
18F
330
6F
100
AcDbEntity
  8
_0-B_細線3
  6
Continuous
 62
     7
100
AcDbLine
 10
551.2000000039207
 20
313.7589879389516
 30
0.0
 11
545.5017250128988
 21
311.9782770036434
 31
0.0
  0
LINE
  5
190
330
6F
100
AcDbEntity
  8
_0-B_細線3
  6
Continuous
 62
     7
100
AcDbLine
 10
544.8000000061283
 20
309.7589879389516
 30
0.0
 11
544.8000000061283
 21
311.0237970256372
 31
0.0
  0
ARC
  5
191
330
6F
100
AcDbEntity
  8
_0-B_細線3
  6
Continuous
 62
     7
100
AcDbCircle
 10
545.8000000061281
 20
311.0237970256373
 30
0.0
 40
1.0
100
AcDbArc
 50
107.3540246418652
 51
180.0000000000094
  0
ARC
  5
192
330
6F
100
AcDbEntity
  8
_0-B_細線3
  6
Continuous
 62
     7
100
AcDbCircle
 10
580.6000000005528
 20
306.9589879389521
 30
0.0
 40
1.0
100
AcDbArc
 50
179.9999999999998
 51
269.9999999999997
  0
LINE
  5
193
330
6F
100
AcDbEntity
  8
_0-B_細線3
  6
Continuous
 62
     7
100
AcDbLine
 10
579.6000000005522
 20
309.7589879389516
 30
0.0
 11
579.6000000005522
 21
306.9589879389521
 31
0.0
  0
ARC
  5
194
330
6F
100
AcDbEntity
  8
_0-B_細線3
  6
Continuous
 62
     7
100
AcDbCircle
 10
601.3999999961376
 20
306.9589879389521
 30
0.0
 40
1.0
100
AcDbArc
 50
269.9999999999997
 51
359.9999999999997
  0
LINE
  5
195
330
6F
100
AcDbEntity
  8
_0-B_細線3
  6
Continuous
 62
     7
100
AcDbLine
 10
602.3999999961374
 20
309.7589879389516
 30
0.0
 11
602.3999999961374
 21
306.9589879389521
 31
0.0
  0
ARC
  5
196
330
6F
100
AcDbEntity
  8
_0-B_細線3
  6
Continuous
 62
     7
100
AcDbCircle
 10
585.6000000005521
 20
303.9589879389521
 30
0.0
 40
2.0
100
AcDbArc
 50
0.0
 51
89.99999999999991
  0
LINE
  5
197
330
6F
100
AcDbEntity
  8
_0-B_細線3
  6
Continuous
 62
     7
100
AcDbLine
 10
585.6000000005521
 20
305.958987938952
 30
0.0
 11
580.6000000005528
 21
305.958987938952
 31
0.0
  0
ARC
  5
198
330
6F
100
AcDbEntity
  8
_0-B_細線3
  6
Continuous
 62
     7
100
AcDbCircle
 10
596.400000000552
 20
303.9589879389521
 30
0.0
 40
2.0
100
AcDbArc
 50
89.99999999999991
 51
179.9999999999998
  0
LINE
  5
199
330
6F
100
AcDbEntity
  8
_0-B_細線3
  6
Continuous
 62
     7
100
AcDbLine
 10
596.3999999961373
 20
305.958987938952
 30
0.0
 11
601.3999999961376
 21
305.958987938952
 31
0.0
  0
LINE
  5
19A
330
6F
100
AcDbEntity
  8
_0-B_細線3
  6
Continuous
 62
     7
100
AcDbLine
 10
595.9999999983444
 20
313.7589879389516
 30
0.0
 11
585.9999999983447
 21
313.7589879389516
 31
0.0
  0
LINE
  5
19B
330
6F
100
AcDbEntity
  8
_0-B_細線3
  6
Continuous
 62
     7
100
AcDbLine
 10
587.5999999983445
 20
273.7589879389517
 30
0.0
 11
587.6000000005519
 21
303.9589879389521
 31
0.0
  0
LINE
  5
19C
330
6F
100
AcDbEntity
  8
_0-B_細線3
  6
Continuous
 62
     7
100
AcDbLine
 10
594.399999998345
 20
273.7589879389517
 30
0.0
 11
594.4000000005526
 21
303.9589879389521
 31
0.0
  0
LINE
  5
19D
330
6F
100
AcDbEntity
  8
_0-B_細線3
  6
Continuous
 62
     7
100
AcDbLine
 10
594.399999998345
 20
273.7589879389517
 30
0.0
 11
587.5999999983445
 21
273.7589879389517
 31
0.0
  0
LINE
  5
19E
330
6F
100
AcDbEntity
  8
_0-B_細線3
  6
Continuous
 62
     7
100
AcDbLine
 10
595.999999998345
 20
313.7589879389516
 30
0.0
 11
601.6982749893672
 21
311.9782770036432
 31
0.0
  0
LINE
  5
19F
330
6F
100
AcDbEntity
  8
_0-B_細線3
  6
Continuous
 62
     7
100
AcDbLine
 10
602.3999999961374
 20
309.7589879389516
 30
0.0
 11
602.3999999961374
 21
311.0237970256376
 31
0.0
  0
ARC
  5
1A0
330
6F
100
AcDbEntity
  8
_0-B_細線3
  6
Continuous
 62
     7
100
AcDbCircle
 10
601.3999999961375
 20
311.0237970256373
 30
0.0
 40
1.0
100
AcDbArc
 50
0.0000000000162844
 51
72.64597535811748
  0
LINE
  5
1A1
330
6F
100
AcDbEntity
  8
_0-B_細線3
  6
Continuous
 62
     7
100
AcDbLine
 10
585.9999999983444
 20
313.7589879389516
 30
0.0
 11
580.3017250073225
 21
311.9782770036434
 31
0.0
  0
LINE
  5
1A2
330
6F
100
AcDbEntity
  8
_0-B_細線3
  6
Continuous
 62
     7
100
AcDbLine
 10
579.6000000005522
 20
309.7589879389516
 30
0.0
 11
579.6000000005522
 21
311.0237970256372
 31
0.0
  0
ARC
  5
1A3
330
6F
100
AcDbEntity
  8
_0-B_細線3
  6
Continuous
 62
     7
100
AcDbCircle
 10
580.600000000552
 20
311.0237970256373
 30
0.0
 40
1.0
100
AcDbArc
 50
107.3540246418652
 51
180.0000000000094
  0
ARC
  5
1A4
330
6F
100
AcDbEntity
  8
_0-B_細線3
  6
Continuous
 62
     7
100
AcDbCircle
 10
615.4000000020532
 20
306.9589879389521
 30
0.0
 40
1.0
100
AcDbArc
 50
179.9999999999998
 51
269.9999999999997
  0
LINE
  5
1A5
330
6F
100
AcDbEntity
  8
_0-B_細線3
  6
Continuous
 62
     7
100
AcDbLine
 10
614.4000000020525
 20
309.7589879389516
 30
0.0
 11
614.4000000020525
 21
306.9589879389521
 31
0.0
  0
ARC
  5
1A6
330
6F
100
AcDbEntity
  8
_0-B_細線3
  6
Continuous
 62
     7
100
AcDbCircle
 10
636.1999999976379
 20
306.9589879389521
 30
0.0
 40
1.0
100
AcDbArc
 50
269.9999999999997
 51
359.9999999999997
  0
LINE
  5
1A7
330
6F
100
AcDbEntity
  8
_0-B_細線3
  6
Continuous
 62
     7
100
AcDbLine
 10
637.1999999976377
 20
309.7589879389516
 30
0.0
 11
637.1999999976377
 21
306.9589879389521
 31
0.0
  0
ARC
  5
1A8
330
6F
100
AcDbEntity
  8
_0-B_細線3
  6
Continuous
 62
     7
100
AcDbCircle
 10
620.4000000020524
 20
303.9589879389521
 30
0.0
 40
2.0
100
AcDbArc
 50
0.0
 51
89.99999999999991
  0
LINE
  5
1A9
330
6F
100
AcDbEntity
  8
_0-B_細線3
  6
Continuous
 62
     7
100
AcDbLine
 10
620.4000000020524
 20
305.958987938952
 30
0.0
 11
615.4000000020532
 21
305.958987938952
 31
0.0
  0
ARC
  5
1AA
330
6F
100
AcDbEntity
  8
_0-B_細線3
  6
Continuous
 62
     7
100
AcDbCircle
 10
631.2000000020524
 20
303.9589879389521
 30
0.0
 40
2.0
100
AcDbArc
 50
89.99999999999991
 51
179.9999999999998
  0
LINE
  5
1AB
330
6F
100
AcDbEntity
  8
_0-B_細線3
  6
Continuous
 62
     7
100
AcDbLine
 10
631.1999999976377
 20
305.958987938952
 30
0.0
 11
636.1999999976379
 21
305.958987938952
 31
0.0
  0
LINE
  5
1AC
330
6F
100
AcDbEntity
  8
_0-B_細線3
  6
Continuous
 62
     7
100
AcDbLine
 10
630.7999999998448
 20
313.7589879389516
 30
0.0
 11
620.7999999998451
 21
313.7589879389516
 31
0.0
  0
LINE
  5
1AD
330
6F
100
AcDbEntity
  8
_0-B_細線3
  6
Continuous
 62
     7
100
AcDbLine
 10
622.3999999998449
 20
273.7589879389517
 30
0.0
 11
622.4000000020524
 21
303.9589879389521
 31
0.0
  0
LINE
  5
1AE
330
6F
100
AcDbEntity
  8
_0-B_細線3
  6
Continuous
 62
     7
100
AcDbLine
 10
629.1999999998455
 20
273.7589879389517
 30
0.0
 11
629.200000002053
 21
303.9589879389521
 31
0.0
  0
LINE
  5
1AF
330
6F
100
AcDbEntity
  8
_0-B_細線3
  6
Continuous
 62
     7
100
AcDbLine
 10
629.1999999998455
 20
273.7589879389517
 30
0.0
 11
622.3999999998449
 21
273.7589879389517
 31
0.0
  0
LINE
  5
1B0
330
6F
100
AcDbEntity
  8
_0-B_細線3
  6
Continuous
 62
     7
100
AcDbLine
 10
630.7999999998452
 20
313.7589879389516
 30
0.0
 11
636.4982749908675
 21
311.9782770036432
 31
0.0
  0
LINE
  5
1B1
330
6F
100
AcDbEntity
  8
_0-B_細線3
  6
Continuous
 62
     7
100
AcDbLine
 10
637.1999999976377
 20
309.7589879389516
 30
0.0
 11
637.1999999976377
 21
311.0237970256376
 31
0.0
  0
ARC
  5
1B2
330
6F
100
AcDbEntity
  8
_0-B_細線3
  6
Continuous
 62
     7
100
AcDbCircle
 10
636.1999999976378
 20
311.0237970256373
 30
0.0
 40
1.0
100
AcDbArc
 50
0.0000000000162844
 51
72.64597535811748
  0
LINE
  5
1B3
330
6F
100
AcDbEntity
  8
_0-B_細線3
  6
Continuous
 62
     7
100
AcDbLine
 10
620.7999999998449
 20
313.7589879389516
 30
0.0
 11
615.101725008823
 21
311.9782770036434
 31
0.0
  0
LINE
  5
1B4
330
6F
100
AcDbEntity
  8
_0-B_細線3
  6
Continuous
 62
     7
100
AcDbLine
 10
614.4000000020525
 20
309.7589879389516
 30
0.0
 11
614.4000000020525
 21
311.0237970256372
 31
0.0
  0
ARC
  5
1B5
330
6F
100
AcDbEntity
  8
_0-B_細線3
  6
Continuous
 62
     7
100
AcDbCircle
 10
615.4000000020524
 20
311.0237970256373
 30
0.0
 40
1.0
100
AcDbArc
 50
107.3540246418652
 51
180.0000000000094
  0
ARC
  5
1B6
330
6F
100
AcDbEntity
  8
_0-B_細線3
  6
Continuous
 62
     7
100
AcDbCircle
 10
650.1999263896597
 20
306.9589879389521
 30
0.0
 40
1.0
100
AcDbArc
 50
179.9999999999998
 51
269.9999999999997
  0
LINE
  5
1B7
330
6F
100
AcDbEntity
  8
_0-B_細線3
  6
Continuous
 62
     7
100
AcDbLine
 10
649.1999263896588
 20
309.7589879389516
 30
0.0
 11
649.1999263896588
 21
306.9589879389521
 31
0.0
  0
ARC
  5
1B8
330
6F
100
AcDbEntity
  8
_0-B_細線3
  6
Continuous
 62
     7
100
AcDbCircle
 10
670.9999263852444
 20
306.9589879389521
 30
0.0
 40
1.0
100
AcDbArc
 50
269.9999999999997
 51
359.9999999999997
  0
LINE
  5
1B9
330
6F
100
AcDbEntity
  8
_0-B_細線3
  6
Continuous
 62
     7
100
AcDbLine
 10
671.9999263852441
 20
309.7589879389516
 30
0.0
 11
671.9999263852441
 21
306.9589879389521
 31
0.0
  0
ARC
  5
1BA
330
6F
100
AcDbEntity
  8
_0-B_細線3
  6
Continuous
 62
     7
100
AcDbCircle
 10
655.1999263896589
 20
303.9589879389521
 30
0.0
 40
2.0
100
AcDbArc
 50
0.0
 51
89.99999999999991
  0
LINE
  5
1BB
330
6F
100
AcDbEntity
  8
_0-B_細線3
  6
Continuous
 62
     7
100
AcDbLine
 10
655.1999263896589
 20
305.958987938952
 30
0.0
 11
650.1999263896597
 21
305.958987938952
 31
0.0
  0
ARC
  5
1BC
330
6F
100
AcDbEntity
  8
_0-B_細線3
  6
Continuous
 62
     7
100
AcDbCircle
 10
665.9999263896589
 20
303.9589879389521
 30
0.0
 40
2.0
100
AcDbArc
 50
89.99999999999991
 51
179.9999999999998
  0
LINE
  5
1BD
330
6F
100
AcDbEntity
  8
_0-B_細線3
  6
Continuous
 62
     7
100
AcDbLine
 10
665.9999263852442
 20
305.958987938952
 30
0.0
 11
670.9999263852444
 21
305.958987938952
 31
0.0
  0
LINE
  5
1BE
330
6F
100
AcDbEntity
  8
_0-B_細線3
  6
Continuous
 62
     7
100
AcDbLine
 10
665.5999263874512
 20
313.7589879389516
 30
0.0
 11
655.5999263874516
 21
313.7589879389516
 31
0.0
  0
LINE
  5
1BF
330
6F
100
AcDbEntity
  8
_0-B_細線3
  6
Continuous
 62
     7
100
AcDbLine
 10
657.1999263874515
 20
273.7589879389517
 30
0.0
 11
657.1999263896588
 21
303.9589879389521
 31
0.0
  0
LINE
  5
1C0
330
6F
100
AcDbEntity
  8
_0-B_細線3
  6
Continuous
 62
     7
100
AcDbLine
 10
663.9999263874519
 20
273.7589879389517
 30
0.0
 11
663.9999263896596
 21
303.9589879389521
 31
0.0
  0
LINE
  5
1C1
330
6F
100
AcDbEntity
  8
_0-B_細線3
  6
Continuous
 62
     7
100
AcDbLine
 10
663.9999263874519
 20
273.7589879389517
 30
0.0
 11
657.1999263874515
 21
273.7589879389517
 31
0.0
  0
LINE
  5
1C2
330
6F
100
AcDbEntity
  8
_0-B_細線3
  6
Continuous
 62
     7
100
AcDbLine
 10
665.5999263874518
 20
313.7589879389516
 30
0.0
 11
671.2982013784738
 21
311.9782770036432
 31
0.0
  0
LINE
  5
1C3
330
6F
100
AcDbEntity
  8
_0-B_細線3
  6
Continuous
 62
     7
100
AcDbLine
 10
671.9999263852441
 20
309.7589879389516
 30
0.0
 11
671.9999263852441
 21
311.0237970256376
 31
0.0
  0
ARC
  5
1C4
330
6F
100
AcDbEntity
  8
_0-B_細線3
  6
Continuous
 62
     7
100
AcDbCircle
 10
670.9999263852441
 20
311.0237970256373
 30
0.0
 40
1.0
100
AcDbArc
 50
0.0000000000162844
 51
72.64597535811748
  0
LINE
  5
1C5
330
6F
100
AcDbEntity
  8
_0-B_細線3
  6
Continuous
 62
     7
100
AcDbLine
 10
655.5999263874512
 20
313.7589879389516
 30
0.0
 11
649.9016513964295
 21
311.9782770036434
 31
0.0
  0
LINE
  5
1C6
330
6F
100
AcDbEntity
  8
_0-B_細線3
  6
Continuous
 62
     7
100
AcDbLine
 10
649.1999263896588
 20
309.7589879389516
 30
0.0
 11
649.1999263896588
 21
311.0237970256372
 31
0.0
  0
ARC
  5
1C7
330
6F
100
AcDbEntity
  8
_0-B_細線3
  6
Continuous
 62
     7
100
AcDbCircle
 10
650.1999263896589
 20
311.0237970256373
 30
0.0
 40
1.0
100
AcDbArc
 50
107.3540246418652
 51
180.0000000000094
  0
LINE
  5
1C8
330
6F
100
AcDbEntity
  8
_0-A_極細3
  6
DASHED2
 62
     7
100
AcDbLine
 10
498.000073611442
 20
303.7589879389513
 30
0.0
 11
504.000073611442
 21
303.7589879389513
 31
0.0
  0
LINE
  5
1C9
330
6F
100
AcDbEntity
  8
_0-A_極細3
  6
DASHED2
 62
     7
100
AcDbLine
 10
683.9999999999998
 20
303.7589879389535
 30
0.0
 11
677.9999999999997
 21
303.7589879389535
 31
0.0
  0
LINE
  5
1CA
330
6F
100
AcDbEntity
  8
_0-A_極細3
  6
DASHED2
 62
     7
100
AcDbLine
 10
491.9999999891155
 20
307.7589434213497
 30
0.0
 11
491.9999999891155
 21
271.7589434213497
 31
0.0
  0
LINE
  5
1CB
330
6F
100
AcDbEntity
  8
_0-A_極細3
  6
DASHED2
 62
     7
100
AcDbLine
 10
482.9999999891155
 20
297.2589434213476
 30
0.0
 11
482.9999999891155
 21
282.2589434213512
 31
0.0
  0
ARC
  5
1CC
330
6F
100
AcDbEntity
  8
_0-A_極細3
  6
DASHED2
 62
     7
100
AcDbCircle
 10
494.3314219605197
 20
292.0751043752245
 30
0.0
 40
12.46087120349592
100
AcDbArc
 50
110.3407039499493
 51
155.4171032567533
  0
ARC
  5
1CD
330
6F
100
AcDbEntity
  8
_0-A_極細3
  6
DASHED2
 62
     7
100
AcDbCircle
 10
494.3314219605197
 20
287.442782467475
 30
0.0
 40
12.46087120349592
100
AcDbArc
 50
204.5828967432488
 51
249.6592960500512
  0
LINE
  5
1CE
330
6F
100
AcDbEntity
  8
_0-A_極細3
  6
DASHED2
 62
     7
100
AcDbLine
 10
491.9999999891155
 20
303.7589434213495
 30
0.0
 11
489.9999999891149
 21
303.7589434213495
 31
0.0
  0
LINE
  5
1CF
330
6F
100
AcDbEntity
  8
_0-A_極細3
  6
DASHED2
 62
     7
100
AcDbLine
 10
491.9999999891155
 20
275.7589434213494
 30
0.0
 11
489.9999999891149
 21
275.7589434213494
 31
0.0
  0
LINE
  5
1D0
330
6F
100
AcDbEntity
  8
_0-A_極細3
  6
DASHED2
 62
     7
100
AcDbLine
 10
489.9999999891149
 20
303.7589434213495
 30
0.0
 11
489.9999999891149
 21
275.7589434213494
 31
0.0
  0
LINE
  5
1D1
330
6F
100
AcDbEntity
  8
_0-A_極細3
  6
DASHED2
 62
     7
100
AcDbLine
 10
494.0000000000003
 20
307.7589434213497
 30
0.0
 11
491.9999999891155
 21
307.7589434213497
 31
0.0
  0
LINE
  5
1D2
330
6F
100
AcDbEntity
  8
_0-A_極細3
  6
DASHED2
 62
     7
100
AcDbLine
 10
494.0000000000003
 20
271.7589434213497
 30
0.0
 11
491.9999999891155
 21
271.7589434213497
 31
0.0
  0
LINE
  5
1D3
330
6F
100
AcDbEntity
  8
_0-A_極細3
  6
DASHED2
 62
     7
100
AcDbLine
 10
689.9999999999996
 20
307.7589434213513
 30
0.0
 11
689.9999999999996
 21
271.7589434213512
 31
0.0
  0
LINE
  5
1D4
330
6F
100
AcDbEntity
  8
_0-A_極細3
  6
DASHED2
 62
     7
100
AcDbLine
 10
698.9999999999996
 20
297.2589434213497
 30
0.0
 11
698.9999999999996
 21
282.2589434213531
 31
0.0
  0
ARC
  5
1D5
330
6F
100
AcDbEntity
  8
_0-A_極細3
  6
DASHED2
 62
     7
100
AcDbCircle
 10
687.6685780285945
 20
292.0751043752261
 30
0.0
 40
12.46087120349592
100
AcDbArc
 50
24.58289674324716
 51
69.65929605005086
  0
ARC
  5
1D6
330
6F
100
AcDbEntity
  8
_0-A_極細3
  6
DASHED2
 62
     7
100
AcDbCircle
 10
687.6685780285945
 20
287.4427824674766
 30
0.0
 40
12.46087120349592
100
AcDbArc
 50
290.3407039499489
 51
335.4171032567529
  0
LINE
  5
1D7
330
6F
100
AcDbEntity
  8
_0-A_極細3
  6
DASHED2
 62
     7
100
AcDbLine
 10
689.9999999999996
 20
303.7589434213512
 30
0.0
 11
691.9999999999991
 21
303.7589434213512
 31
0.0
  0
LINE
  5
1D8
330
6F
100
AcDbEntity
  8
_0-A_極細3
  6
DASHED2
 62
     7
100
AcDbLine
 10
689.9999999999996
 20
275.7589434213516
 30
0.0
 11
691.9999999999991
 21
275.7589434213516
 31
0.0
  0
LINE
  5
1D9
330
6F
100
AcDbEntity
  8
_0-A_極細3
  6
DASHED2
 62
     7
100
AcDbLine
 10
691.9999999999991
 20
303.7589434213512
 30
0.0
 11
691.9999999999991
 21
275.7589434213516
 31
0.0
  0
LINE
  5
1DA
330
6F
100
AcDbEntity
  8
_0-A_極細3
  6
DASHED2
 62
     7
100
AcDbLine
 10
687.9999999999996
 20
307.7589434213513
 30
0.0
 11
689.9999999999996
 21
307.7589434213513
 31
0.0
  0
LINE
  5
1DB
330
6F
100
AcDbEntity
  8
_0-A_極細3
  6
DASHED2
 62
     7
100
AcDbLine
 10
687.9999999999996
 20
271.7589434213512
 30
0.0
 11
689.9999999999996
 21
271.7589434213512
 31
0.0
  0
LINE
  5
1DC
330
6F
100
AcDbEntity
  8
_0-A_極細3
  6
DASHED2
 62
     7
100
AcDbLine
 10
504.000073611442
 20
303.7589879389513
 30
0.0
 11
504.000073611442
 21
273.7589879389535
 31
0.0
  0
ARC
  5
1DD
330
6F
100
AcDbEntity
  8
_0-A_極細3
  6
DASHED2
 62
     7
100
AcDbCircle
 10
504.000073611442
 20
273.7589879389535
 30
0.0
 40
6.0
100
AcDbArc
 50
179.9999999999998
 51
269.9999999999997
  0
LINE
  5
1DE
330
6F
100
AcDbEntity
  8
_0-A_極細3
  6
DASHED2
 62
     7
100
AcDbLine
 10
677.9999999999997
 20
303.7589879389535
 30
0.0
 11
677.9999999999997
 21
273.7589879389535
 31
0.0
  0
ARC
  5
1DF
330
6F
100
AcDbEntity
  8
_0-A_極細3
  6
DASHED2
 62
     7
100
AcDbCircle
 10
677.9999999999997
 20
273.7589879389551
 30
0.0
 40
6.0
100
AcDbArc
 50
269.9999999999997
 51
359.9999999999997
  0
LINE
  5
1E0
330
6F
100
AcDbEntity
  8
_0-A_極細3
  6
DASHED2
 62
     7
100
AcDbLine
 10
677.9999999999997
 20
273.7589879389535
 30
0.0
 11
504.000073611442
 21
273.7589879389535
 31
0.0
  0
LINE
  5
1E1
330
6F
100
AcDbEntity
  8
_0-A_極細3
  6
DASHED2
 62
     7
100
AcDbLine
 10
677.9999999999997
 20
267.7589879389535
 30
0.0
 11
504.000073611442
 21
267.7589879389535
 31
0.0
  0
TEXT
  5
1E2
330
6F
100
AcDbEntity
  8
_0-7_枠細線
 62
     5
100
AcDbText
 10
1650.0
 20
114.0
 30
0.0
 40
24.0
  1
久野
100
AcDbText
  0
TEXT
  5
1E3
330
6F
100
AcDbEntity
  8
_0-7_枠細線
 62
     5
100
AcDbText
 10
1578.0
 20
114.0
 30
0.0
 40
24.0
  1
中村
100
AcDbText
  0
TEXT
  5
1E4
330
6F
100
AcDbEntity
  8
_0-7_枠細線
 62
     5
100
AcDbText
 10
1506.0
 20
114.0
 30
0.0
 40
24.0
  1
大野
100
AcDbText
  0
TEXT
  5
1E5
330
6F
100
AcDbEntity
  8
_0-7_枠細線
 62
     5
100
AcDbText
 10
1158.6
 20
132.0
 30
0.0
 40
24.0
  1
ＧＮＵ－１２０
 41
0.5999999999999998
100
AcDbText
  0
LINE
  5
1E6
330
6F
100
AcDbEntity
  8
_0-D_寸法3
  6
Continuous
 62
     7
100
AcDbLine
 10
625.8000000017281
 20
325.7589879389517
 30
0.0
 11
625.8000000017283
 21
379.7589879389516
 31
0.0
  0
LINE
  5
1E7
330
6F
100
AcDbEntity
  8
_0-D_寸法3
  6
Continuous
 62
     7
100
AcDbLine
 10
625.8000000017283
 20
373.7589879389517
 30
0.0
 11
637.3911099171971
 21
376.8648164801817
 31
0.0
  0
LINE
  5
1E8
330
6F
100
AcDbEntity
  8
_0-D_寸法3
  6
Continuous
 62
     7
100
AcDbLine
 10
625.8000000017283
 20
373.7589879389517
 30
0.0
 11
637.3911099171971
 21
370.6531593977214
 31
0.0
  0
LINE
  5
1E9
330
6F
100
AcDbEntity
  8
_0-D_寸法3
  6
Continuous
 62
     7
100
AcDbLine
 10
660.6000000034564
 20
325.7589879389517
 30
0.0
 11
660.6000000034564
 21
379.7589879389516
 31
0.0
  0
LINE
  5
1EA
330
6F
100
AcDbEntity
  8
_0-D_寸法3
  6
Continuous
 62
     7
100
AcDbLine
 10
660.6000000034564
 20
373.7589879389517
 30
0.0
 11
649.0088900879877
 21
370.6531593977214
 31
0.0
  0
LINE
  5
1EB
330
6F
100
AcDbEntity
  8
_0-D_寸法3
  6
Continuous
 62
     7
100
AcDbLine
 10
660.6000000034564
 20
373.7589879389517
 30
0.0
 11
649.0088900879877
 21
376.8648164801817
 31
0.0
  0
LINE
  5
1EC
330
6F
100
AcDbEntity
  8
_0-D_寸法3
  6
Continuous
 62
     7
100
AcDbLine
 10
625.8000000017283
 20
373.7589879389517
 30
0.0
 11
660.6000000034565
 21
373.7589879389517
 31
0.0
  0
TEXT
  5
1ED
330
6F
100
AcDbEntity
  8
_0-D_寸法3
 62
     7
100
AcDbText
 10
616.0867606985773
 20
373.7589879389517
 30
0.0
 40
18.0
  1
(17.4)
 41
0.7
100
AcDbText
  0
LINE
  5
1EE
330
6F
100
AcDbEntity
  8
_0-9_枠極太
  6
Continuous
 62
     5
100
AcDbLine
 10
72.0
 20
72.0
 30
0.0
 11
72.0
 21
1152.0
 31
0.0
  0
LINE
  5
1EF
330
6F
100
AcDbEntity
  8
_0-9_枠極太
  6
Continuous
 62
     5
100
AcDbLine
 10
72.0
 20
1152.0
 30
0.0
 11
1710.0
 21
1152.0
 31
0.0
  0
LINE
  5
1F0
330
6F
100
AcDbEntity
  8
_0-9_枠極太
  6
Continuous
 62
     5
100
AcDbLine
 10
1710.0
 20
1152.0
 30
0.0
 11
1710.0
 21
72.0
 31
0.0
  0
LINE
  5
1F1
330
6F
100
AcDbEntity
  8
_0-9_枠極太
  6
Continuous
 62
     5
100
AcDbLine
 10
1710.0
 20
72.0
 30
0.0
 11
72.0
 21
72.0
 31
0.0
  0
TEXT
  5
1F2
330
6F
100
AcDbEntity
  8
_0-7_枠細線
 62
     5
100
AcDbText
 10
1572.0
 20
81.0
 30
0.0
 40
18.0
  1
２０２０年０１月０６日
 41
0.5600000000000001
100
AcDbText
  0
TEXT
  5
1F3
330
6F
100
AcDbEntity
  8
_0-7_枠細線
 62
     5
100
AcDbText
 10
1410.37415378401
 20
364.5
 30
0.0
 40
18.0
  1
3.7kg/枚
 41
0.75
100
AcDbText
  0
LINE
  5
1F4
330
6F
100
AcDbEntity
  8
_0-A_極細3
  6
Continuous
 62
     7
100
AcDbLine
 10
711.0
 20
309.7589434213519
 30
0.0
 11
707.80743055787
 21
181.1447585123344
 31
0.0
  0
LINE
  5
1F5
330
6F
100
AcDbEntity
  8
_0-A_極細3
  6
Continuous
 62
     7
100
AcDbLine
 10
471.0
 20
309.7589434213525
 30
0.0
 11
474.19256944213
 21
181.144758512335
 31
0.0
  0
LINE
  5
1F6
330
6F
100
AcDbEntity
  8
_0-A_極細3
  6
Continuous
 62
     7
100
AcDbLine
 10
428.8957170929385
 20
181.1447585123344
 30
0.0
 11
473.0954075603537
 21
225.3444489797498
 31
0.0
  0
LINE
  5
1F7
330
6F
100
AcDbEntity
  8
_0-A_極細3
  6
Continuous
 62
     7
100
AcDbLine
 10
437.3809984671771
 20
181.1447585123344
 30
0.0
 11
473.3009345847968
 21
217.064694629954
 31
0.0
  0
LINE
  5
1F8
330
6F
100
AcDbEntity
  8
_0-A_極細3
  6
Continuous
 62
     7
100
AcDbLine
 10
427.0000858332917
 20
306.5283478662661
 30
0.0
 11
430.2306813883776
 21
309.7589434213519
 31
0.0
  0
LINE
  5
1F9
330
6F
100
AcDbEntity
  8
_0-A_極細3
  6
Continuous
 62
     7
100
AcDbLine
 10
427.0000858332917
 20
298.0430664920275
 30
0.0
 11
438.7159627626162
 21
309.7589434213519
 31
0.0
  0
LINE
  5
1FA
330
6F
100
AcDbEntity
  8
_0-A_極細3
  6
Continuous
 62
     7
100
AcDbLine
 10
427.0000858332917
 20
187.7344086269262
 30
0.0
 11
472.8898805359111
 21
233.6242033295456
 31
0.0
  0
LINE
  5
1FB
330
6F
100
AcDbEntity
  8
_0-A_極細3
  6
Continuous
 62
     7
100
AcDbLine
 10
708.7634958133604
 20
219.6603039949383
 30
0.0
 11
754.9999141667081
 21
265.8967223482861
 31
0.0
  0
LINE
  5
1FC
330
6F
100
AcDbEntity
  8
_0-A_極細3
  6
Continuous
 62
     7
100
AcDbLine
 10
708.5475055319209
 20
210.9590323392604
 30
0.0
 11
754.9999141667081
 21
257.4114409740474
 31
0.0
  0
LINE
  5
1FD
330
6F
100
AcDbEntity
  8
_0-A_極細3
  6
Continuous
 62
     7
100
AcDbLine
 10
708.3315152504817
 20
202.2577606835822
 30
0.0
 11
754.9999141667081
 21
248.9261595998087
 31
0.0
  0
TEXT
  5
1FE
330
6F
100
AcDbEntity
  8
_0-7_枠細線
 62
     5
100
AcDbText
 10
530.5814849115086
 20
142.1319232742622
 30
0.0
 40
30.0
  1
断面詳細図
 41
0.8
100
AcDbText
  0
TEXT
  5
1FF
330
6F
100
AcDbEntity
  8
_0-7_枠細線
 62
     5
100
AcDbText
 10
688.7300433576101
 20
144.615168424174
 30
0.0
 40
24.0
  1
Ｓ＝１：３
 41
0.6
100
AcDbText
  0
LINE
  5
200
330
6F
100
AcDbEntity
  8
_0-7_枠細線
  6
Continuous
 62
     5
100
AcDbLine
 10
1710.0
 20
1131.0
 30
0.0
 11
1068.0
 21
1131.0
 31
0.0
  0
TEXT
  5
201
330
6F
100
AcDbEntity
  8
_0-7_枠細線
 62
     5
100
AcDbText
 10
1074.0
 20
1134.0
 30
0.0
 40
15.0
  1
記号
100
AcDbText
  0
TEXT
  5
202
330
6F
100
AcDbEntity
  8
_0-7_枠細線
 62
     5
100
AcDbText
 10
1183.753558804974
 20
1134.0
 30
0.0
 40
15.0
  1
訂　 正　 記　 事
100
AcDbText
  0
TEXT
  5
203
330
6F
100
AcDbEntity
  8
_0-7_枠細線
 62
     5
100
AcDbText
 10
1417.5
 20
1134.0
 30
0.0
 40
15.0
  1
訂 正 年 月 日
 41
0.9
100
AcDbText
  0
TEXT
  5
204
330
6F
100
AcDbEntity
  8
_0-7_枠細線
 62
     5
100
AcDbText
 10
1561.946444401579
 20
1134.0
 30
0.0
 40
15.0
  1
備　　　　　考
100
AcDbText
  0
LINE
  5
205
330
6F
100
AcDbEntity
  8
_0-7_枠細線
  6
Continuous
 62
     5
100
AcDbLine
 10
1098.0
 20
1111.730800766096
 30
0.0
 11
1089.0
 21
1129.730800766096
 31
0.0
  0
LINE
  5
206
330
6F
100
AcDbEntity
  8
_0-7_枠細線
  6
Continuous
 62
     5
100
AcDbLine
 10
1080.0
 20
1111.730800766096
 30
0.0
 11
1098.0
 21
1111.730800766096
 31
0.0
  0
LINE
  5
207
330
6F
100
AcDbEntity
  8
_0-7_枠細線
  6
Continuous
 62
     5
100
AcDbLine
 10
1089.0
 20
1129.730800766096
 30
0.0
 11
1080.0
 21
1111.730800766096
 31
0.0
  0
TEXT
  5
208
330
6F
100
AcDbEntity
  8
_0-7_枠細線
 62
     5
100
AcDbText
 10
1083.474090188558
 20
1112.125063250977
 30
0.0
 40
15.0
  1
１
 41
0.8
100
AcDbText
  0
TEXT
  5
209
330
6F
100
AcDbEntity
  8
_0-7_枠細線
 62
     5
100
AcDbText
 10
1416.0
 20
1113.0
 30
0.0
 40
15.0
  1
２０２１．０４．０１
 41
0.63
100
AcDbText
  0
LINE
  5
20A
330
6F
100
AcDbEntity
  8
_0-7_枠細線
  6
Continuous
 62
     5
100
AcDbLine
 10
1710.0
 20
1110.0
 30
0.0
 11
1068.0
 21
1110.0
 31
0.0
  0
TEXT
  5
20B
330
6F
100
AcDbEntity
  8
_0-7_枠細線
 62
     5
100
AcDbText
 10
1122.162897274633
 20
1113.0
 30
0.0
 40
15.0
  1
スペーサー変更(丸形状から四角形状へ変更)
 41
0.75
100
AcDbText
  0
LINE
  5
20C
330
6F
100
AcDbEntity
  8
_0-7_枠細線
  6
Continuous
 62
     5
100
AcDbLine
 10
1530.0
 20
1110.0
 30
0.0
 11
1530.0
 21
1151.999999999999
 31
0.0
  0
LINE
  5
20D
330
6F
100
AcDbEntity
  8
_0-7_枠細線
  6
Continuous
 62
     5
100
AcDbLine
 10
1410.0
 20
1110.0
 30
0.0
 11
1410.0
 21
1151.999999999999
 31
0.0
  0
LINE
  5
20E
330
6F
100
AcDbEntity
  8
_0-7_枠細線
  6
Continuous
 62
     5
100
AcDbLine
 10
1110.0
 20
1110.0
 30
0.0
 11
1110.0
 21
1151.999999999999
 31
0.0
  0
LINE
  5
20F
330
6F
100
AcDbEntity
  8
_0-7_枠細線
  6
Continuous
 62
     5
100
AcDbLine
 10
1068.0
 20
1110.0
 30
0.0
 11
1068.0
 21
1151.999999999999
 31
0.0
  0
LINE
  5
210
330
6F
100
AcDbEntity
  8
_0-0_計極細
  6
Continuous
 62
     2
100
AcDbLine
 10
434.7735484936839
 20
925.2749159667592
 30
0.0
 11
434.7735484936839
 21
919.2748607560394
 31
0.0
  0
LINE
  5
211
330
6F
100
AcDbEntity
  8
_0-0_計極細
  6
Continuous
 62
     2
100
AcDbLine
 10
434.7735484936839
 20
832.2749159667591
 30
0.0
 11
434.7735484936839
 21
838.2749343710706
 31
0.0
  0
LINE
  5
212
330
6F
100
AcDbEntity
  8
_0-0_計極細
  6
Continuous
 62
     2
100
AcDbLine
 10
434.7735484936839
 20
907.874860756728
 30
0.0
 11
434.7735484936839
 21
901.8749343710679
 31
0.0
  0
LINE
  5
213
330
6F
100
AcDbEntity
  8
_0-0_計極細
  6
Continuous
 62
     2
100
AcDbLine
 10
434.7735484936839
 20
890.4749343710673
 30
0.0
 11
434.7735484936839
 21
884.4750079854069
 31
0.0
  0
LINE
  5
214
330
6F
100
AcDbEntity
  8
_0-0_計極細
  6
Continuous
 62
     2
100
AcDbLine
 10
434.7735484936839
 20
873.0749159667588
 30
0.0
 11
434.7735484936839
 21
867.0749895810985
 31
0.0
  0
LINE
  5
215
330
6F
100
AcDbEntity
  8
_0-0_計極細
  6
Continuous
 62
     2
100
AcDbLine
 10
434.7735484936839
 20
855.6749895810982
 30
0.0
 11
434.7735484936839
 21
849.675063195438
 31
0.0
  0
LINE
  5
216
330
6F
100
AcDbEntity
  8
_0-0_計極細
  6
Continuous
 62
     2
100
AcDbLine
 10
448.2735484936839
 20
925.2749159667592
 30
0.0
 11
448.2735484936839
 21
919.2748607560394
 31
0.0
  0
LINE
  5
217
330
6F
100
AcDbEntity
  8
_0-0_計極細
  6
Continuous
 62
     2
100
AcDbLine
 10
448.2735484936839
 20
832.2749159667591
 30
0.0
 11
448.2735484936839
 21
838.2749343710706
 31
0.0
  0
LINE
  5
218
330
6F
100
AcDbEntity
  8
_0-0_計極細
  6
Continuous
 62
     2
100
AcDbLine
 10
448.2735484936839
 20
907.874860756728
 30
0.0
 11
448.2735484936839
 21
901.8749343710679
 31
0.0
  0
LINE
  5
219
330
6F
100
AcDbEntity
  8
_0-0_計極細
  6
Continuous
 62
     2
100
AcDbLine
 10
448.2735484936839
 20
890.4749343710673
 30
0.0
 11
448.2735484936839
 21
884.4750079854069
 31
0.0
  0
LINE
  5
21A
330
6F
100
AcDbEntity
  8
_0-0_計極細
  6
Continuous
 62
     2
100
AcDbLine
 10
448.2735484936839
 20
873.0749159667588
 30
0.0
 11
448.2735484936839
 21
867.0749895810985
 31
0.0
  0
LINE
  5
21B
330
6F
100
AcDbEntity
  8
_0-0_計極細
  6
Continuous
 62
     2
100
AcDbLine
 10
448.2735484936839
 20
855.6749895810982
 30
0.0
 11
448.2735484936839
 21
849.675063195438
 31
0.0
  0
LINE
  5
21C
330
6F
100
AcDbEntity
  8
_0-0_計極細
  6
Continuous
 62
     2
100
AcDbLine
 10
534.7735484936841
 20
925.2749159667592
 30
0.0
 11
534.7735484936841
 21
919.2748607560394
 31
0.0
  0
LINE
  5
21D
330
6F
100
AcDbEntity
  8
_0-0_計極細
  6
Continuous
 62
     2
100
AcDbLine
 10
534.7735484936841
 20
832.2749159667591
 30
0.0
 11
534.7735484936841
 21
838.2749343710706
 31
0.0
  0
LINE
  5
21E
330
6F
100
AcDbEntity
  8
_0-0_計極細
  6
Continuous
 62
     2
100
AcDbLine
 10
534.7735484936841
 20
907.874860756728
 30
0.0
 11
534.7735484936841
 21
901.8749343710679
 31
0.0
  0
LINE
  5
21F
330
6F
100
AcDbEntity
  8
_0-0_計極細
  6
Continuous
 62
     2
100
AcDbLine
 10
534.7735484936841
 20
890.4749343710673
 30
0.0
 11
534.7735484936841
 21
884.4750079854069
 31
0.0
  0
LINE
  5
220
330
6F
100
AcDbEntity
  8
_0-0_計極細
  6
Continuous
 62
     2
100
AcDbLine
 10
534.7735484936841
 20
873.0749159667588
 30
0.0
 11
534.7735484936841
 21
867.0749895810985
 31
0.0
  0
LINE
  5
221
330
6F
100
AcDbEntity
  8
_0-0_計極細
  6
Continuous
 62
     2
100
AcDbLine
 10
534.7735484936841
 20
855.6749895810982
 30
0.0
 11
534.7735484936841
 21
849.675063195438
 31
0.0
  0
LINE
  5
222
330
6F
100
AcDbEntity
  8
_0-0_計極細
  6
Continuous
 62
     2
100
AcDbLine
 10
548.273548493684
 20
925.2749159667592
 30
0.0
 11
548.273548493684
 21
919.2748607560394
 31
0.0
  0
LINE
  5
223
330
6F
100
AcDbEntity
  8
_0-0_計極細
  6
Continuous
 62
     2
100
AcDbLine
 10
548.273548493684
 20
832.2749159667591
 30
0.0
 11
548.273548493684
 21
838.2749343710706
 31
0.0
  0
LINE
  5
224
330
6F
100
AcDbEntity
  8
_0-0_計極細
  6
Continuous
 62
     2
100
AcDbLine
 10
548.273548493684
 20
907.874860756728
 30
0.0
 11
548.273548493684
 21
901.8749343710679
 31
0.0
  0
LINE
  5
225
330
6F
100
AcDbEntity
  8
_0-0_計極細
  6
Continuous
 62
     2
100
AcDbLine
 10
548.273548493684
 20
890.4749343710673
 30
0.0
 11
548.273548493684
 21
884.4750079854069
 31
0.0
  0
LINE
  5
226
330
6F
100
AcDbEntity
  8
_0-0_計極細
  6
Continuous
 62
     2
100
AcDbLine
 10
548.273548493684
 20
873.0749159667588
 30
0.0
 11
548.273548493684
 21
867.0749895810985
 31
0.0
  0
LINE
  5
227
330
6F
100
AcDbEntity
  8
_0-0_計極細
  6
Continuous
 62
     2
100
AcDbLine
 10
548.273548493684
 20
855.6749895810982
 30
0.0
 11
548.273548493684
 21
849.675063195438
 31
0.0
  0
LINE
  5
228
330
6F
100
AcDbEntity
  8
_0-0_計極細
  6
Continuous
 62
     2
100
AcDbLine
 10
634.7735484936841
 20
925.2749159667592
 30
0.0
 11
634.7735484936841
 21
919.2748607560394
 31
0.0
  0
LINE
  5
229
330
6F
100
AcDbEntity
  8
_0-0_計極細
  6
Continuous
 62
     2
100
AcDbLine
 10
634.7735484936841
 20
832.2749159667591
 30
0.0
 11
634.7735484936841
 21
838.2749343710706
 31
0.0
  0
LINE
  5
22A
330
6F
100
AcDbEntity
  8
_0-0_計極細
  6
Continuous
 62
     2
100
AcDbLine
 10
634.7735484936841
 20
907.874860756728
 30
0.0
 11
634.7735484936841
 21
901.8749343710679
 31
0.0
  0
LINE
  5
22B
330
6F
100
AcDbEntity
  8
_0-0_計極細
  6
Continuous
 62
     2
100
AcDbLine
 10
634.7735484936841
 20
890.4749343710673
 30
0.0
 11
634.7735484936841
 21
884.4750079854069
 31
0.0
  0
LINE
  5
22C
330
6F
100
AcDbEntity
  8
_0-0_計極細
  6
Continuous
 62
     2
100
AcDbLine
 10
634.7735484936841
 20
873.0749159667588
 30
0.0
 11
634.7735484936841
 21
867.0749895810985
 31
0.0
  0
LINE
  5
22D
330
6F
100
AcDbEntity
  8
_0-0_計極細
  6
Continuous
 62
     2
100
AcDbLine
 10
634.7735484936841
 20
855.6749895810982
 30
0.0
 11
634.7735484936841
 21
849.675063195438
 31
0.0
  0
LINE
  5
22E
330
6F
100
AcDbEntity
  8
_0-0_計極細
  6
Continuous
 62
     2
100
AcDbLine
 10
648.2735484936841
 20
925.2749159667592
 30
0.0
 11
648.2735484936841
 21
919.2748607560394
 31
0.0
  0
LINE
  5
22F
330
6F
100
AcDbEntity
  8
_0-0_計極細
  6
Continuous
 62
     2
100
AcDbLine
 10
648.2735484936841
 20
832.2749159667591
 30
0.0
 11
648.2735484936841
 21
838.2749343710706
 31
0.0
  0
LINE
  5
230
330
6F
100
AcDbEntity
  8
_0-0_計極細
  6
Continuous
 62
     2
100
AcDbLine
 10
648.2735484936841
 20
907.874860756728
 30
0.0
 11
648.2735484936841
 21
901.8749343710679
 31
0.0
  0
LINE
  5
231
330
6F
100
AcDbEntity
  8
_0-0_計極細
  6
Continuous
 62
     2
100
AcDbLine
 10
648.2735484936841
 20
890.4749343710673
 30
0.0
 11
648.2735484936841
 21
884.4750079854069
 31
0.0
  0
LINE
  5
232
330
6F
100
AcDbEntity
  8
_0-0_計極細
  6
Continuous
 62
     2
100
AcDbLine
 10
648.2735484936841
 20
873.0749159667588
 30
0.0
 11
648.2735484936841
 21
867.0749895810985
 31
0.0
  0
LINE
  5
233
330
6F
100
AcDbEntity
  8
_0-0_計極細
  6
Continuous
 62
     2
100
AcDbLine
 10
648.2735484936841
 20
855.6749895810982
 30
0.0
 11
648.2735484936841
 21
849.675063195438
 31
0.0
  0
LINE
  5
234
330
6F
100
AcDbEntity
  8
_0-0_計極細
  6
Continuous
 62
     2
100
AcDbLine
 10
734.773548493684
 20
925.2749159667592
 30
0.0
 11
734.773548493684
 21
919.2748607560394
 31
0.0
  0
LINE
  5
235
330
6F
100
AcDbEntity
  8
_0-0_計極細
  6
Continuous
 62
     2
100
AcDbLine
 10
734.773548493684
 20
832.2749159667591
 30
0.0
 11
734.773548493684
 21
838.2749343710706
 31
0.0
  0
LINE
  5
236
330
6F
100
AcDbEntity
  8
_0-0_計極細
  6
Continuous
 62
     2
100
AcDbLine
 10
734.773548493684
 20
907.874860756728
 30
0.0
 11
734.773548493684
 21
901.8749343710679
 31
0.0
  0
LINE
  5
237
330
6F
100
AcDbEntity
  8
_0-0_計極細
  6
Continuous
 62
     2
100
AcDbLine
 10
734.773548493684
 20
890.4749343710673
 30
0.0
 11
734.773548493684
 21
884.4750079854069
 31
0.0
  0
LINE
  5
238
330
6F
100
AcDbEntity
  8
_0-0_計極細
  6
Continuous
 62
     2
100
AcDbLine
 10
734.773548493684
 20
873.0749159667588
 30
0.0
 11
734.773548493684
 21
867.0749895810985
 31
0.0
  0
LINE
  5
239
330
6F
100
AcDbEntity
  8
_0-0_計極細
  6
Continuous
 62
     2
100
AcDbLine
 10
734.773548493684
 20
855.6749895810982
 30
0.0
 11
734.773548493684
 21
849.675063195438
 31
0.0
  0
LINE
  5
23A
330
6F
100
AcDbEntity
  8
_0-0_計極細
  6
Continuous
 62
     2
100
AcDbLine
 10
748.2735484936839
 20
925.2749159667592
 30
0.0
 11
748.2735484936839
 21
919.2748607560394
 31
0.0
  0
LINE
  5
23B
330
6F
100
AcDbEntity
  8
_0-0_計極細
  6
Continuous
 62
     2
100
AcDbLine
 10
748.2735484936839
 20
832.2749159667591
 30
0.0
 11
748.2735484936839
 21
838.2749343710706
 31
0.0
  0
LINE
  5
23C
330
6F
100
AcDbEntity
  8
_0-0_計極細
  6
Continuous
 62
     2
100
AcDbLine
 10
748.2735484936839
 20
907.874860756728
 30
0.0
 11
748.2735484936839
 21
901.8749343710679
 31
0.0
  0
LINE
  5
23D
330
6F
100
AcDbEntity
  8
_0-0_計極細
  6
Continuous
 62
     2
100
AcDbLine
 10
748.2735484936839
 20
890.4749343710673
 30
0.0
 11
748.2735484936839
 21
884.4750079854069
 31
0.0
  0
LINE
  5
23E
330
6F
100
AcDbEntity
  8
_0-0_計極細
  6
Continuous
 62
     2
100
AcDbLine
 10
748.2735484936839
 20
873.0749159667588
 30
0.0
 11
748.2735484936839
 21
867.0749895810985
 31
0.0
  0
LINE
  5
23F
330
6F
100
AcDbEntity
  8
_0-0_計極細
  6
Continuous
 62
     2
100
AcDbLine
 10
748.2735484936839
 20
855.6749895810982
 30
0.0
 11
748.2735484936839
 21
849.675063195438
 31
0.0
  0
LINE
  5
240
330
6F
100
AcDbEntity
  8
_0-0_計極細
  6
Continuous
 62
     2
100
AcDbLine
 10
834.7735484936839
 20
925.2749159667592
 30
0.0
 11
834.7735484936839
 21
919.2748607560394
 31
0.0
  0
LINE
  5
241
330
6F
100
AcDbEntity
  8
_0-0_計極細
  6
Continuous
 62
     2
100
AcDbLine
 10
834.7735484936839
 20
832.2749159667591
 30
0.0
 11
834.7735484936839
 21
838.2749343710706
 31
0.0
  0
LINE
  5
242
330
6F
100
AcDbEntity
  8
_0-0_計極細
  6
Continuous
 62
     2
100
AcDbLine
 10
834.7735484936839
 20
907.874860756728
 30
0.0
 11
834.7735484936839
 21
901.8749343710679
 31
0.0
  0
LINE
  5
243
330
6F
100
AcDbEntity
  8
_0-0_計極細
  6
Continuous
 62
     2
100
AcDbLine
 10
834.7735484936839
 20
890.4749343710673
 30
0.0
 11
834.7735484936839
 21
884.4750079854069
 31
0.0
  0
LINE
  5
244
330
6F
100
AcDbEntity
  8
_0-0_計極細
  6
Continuous
 62
     2
100
AcDbLine
 10
834.7735484936839
 20
873.0749159667588
 30
0.0
 11
834.7735484936839
 21
867.0749895810985
 31
0.0
  0
LINE
  5
245
330
6F
100
AcDbEntity
  8
_0-0_計極細
  6
Continuous
 62
     2
100
AcDbLine
 10
834.7735484936839
 20
855.6749895810982
 30
0.0
 11
834.7735484936839
 21
849.675063195438
 31
0.0
  0
LINE
  5
246
330
6F
100
AcDbEntity
  8
_0-0_計極細
  6
Continuous
 62
     2
100
AcDbLine
 10
848.2735484936839
 20
925.2749159667592
 30
0.0
 11
848.2735484936839
 21
919.2748607560394
 31
0.0
  0
LINE
  5
247
330
6F
100
AcDbEntity
  8
_0-0_計極細
  6
Continuous
 62
     2
100
AcDbLine
 10
848.2735484936839
 20
832.2749159667591
 30
0.0
 11
848.2735484936839
 21
838.2749343710706
 31
0.0
  0
LINE
  5
248
330
6F
100
AcDbEntity
  8
_0-0_計極細
  6
Continuous
 62
     2
100
AcDbLine
 10
848.2735484936839
 20
907.874860756728
 30
0.0
 11
848.2735484936839
 21
901.8749343710679
 31
0.0
  0
LINE
  5
249
330
6F
100
AcDbEntity
  8
_0-0_計極細
  6
Continuous
 62
     2
100
AcDbLine
 10
848.2735484936839
 20
890.4749343710673
 30
0.0
 11
848.2735484936839
 21
884.4750079854069
 31
0.0
  0
LINE
  5
24A
330
6F
100
AcDbEntity
  8
_0-0_計極細
  6
Continuous
 62
     2
100
AcDbLine
 10
848.2735484936839
 20
873.0749159667588
 30
0.0
 11
848.2735484936839
 21
867.0749895810985
 31
0.0
  0
LINE
  5
24B
330
6F
100
AcDbEntity
  8
_0-0_計極細
  6
Continuous
 62
     2
100
AcDbLine
 10
848.2735484936839
 20
855.6749895810982
 30
0.0
 11
848.2735484936839
 21
849.675063195438
 31
0.0
  0
LINE
  5
24C
330
6F
100
AcDbEntity
  8
_0-0_計極細
  6
Continuous
 62
     2
100
AcDbLine
 10
934.7735484936839
 20
925.2749159667592
 30
0.0
 11
934.7735484936839
 21
919.2748607560394
 31
0.0
  0
LINE
  5
24D
330
6F
100
AcDbEntity
  8
_0-0_計極細
  6
Continuous
 62
     2
100
AcDbLine
 10
934.7735484936839
 20
832.2749159667592
 30
0.0
 11
934.7735484936839
 21
838.2749343710706
 31
0.0
  0
LINE
  5
24E
330
6F
100
AcDbEntity
  8
_0-0_計極細
  6
Continuous
 62
     2
100
AcDbLine
 10
934.7735484936839
 20
907.874860756728
 30
0.0
 11
934.7735484936839
 21
901.874934371068
 31
0.0
  0
LINE
  5
24F
330
6F
100
AcDbEntity
  8
_0-0_計極細
  6
Continuous
 62
     2
100
AcDbLine
 10
934.7735484936839
 20
890.4749343710674
 30
0.0
 11
934.7735484936839
 21
884.4750079854073
 31
0.0
  0
LINE
  5
250
330
6F
100
AcDbEntity
  8
_0-0_計極細
  6
Continuous
 62
     2
100
AcDbLine
 10
934.7735484936839
 20
873.074915966759
 30
0.0
 11
934.7735484936839
 21
867.074989581099
 31
0.0
  0
LINE
  5
251
330
6F
100
AcDbEntity
  8
_0-0_計極細
  6
Continuous
 62
     2
100
AcDbLine
 10
934.7735484936839
 20
855.6749895810982
 30
0.0
 11
934.7735484936839
 21
849.675063195438
 31
0.0
  0
LINE
  5
252
330
6F
100
AcDbEntity
  8
_0-0_計極細
  6
Continuous
 62
     2
100
AcDbLine
 10
948.2735484936839
 20
925.2749159667592
 30
0.0
 11
948.2735484936839
 21
919.2748607560394
 31
0.0
  0
LINE
  5
253
330
6F
100
AcDbEntity
  8
_0-0_計極細
  6
Continuous
 62
     2
100
AcDbLine
 10
948.2735484936839
 20
832.2749159667592
 30
0.0
 11
948.2735484936839
 21
838.2749343710706
 31
0.0
  0
LINE
  5
254
330
6F
100
AcDbEntity
  8
_0-0_計極細
  6
Continuous
 62
     2
100
AcDbLine
 10
948.2735484936839
 20
907.874860756728
 30
0.0
 11
948.2735484936839
 21
901.874934371068
 31
0.0
  0
LINE
  5
255
330
6F
100
AcDbEntity
  8
_0-0_計極細
  6
Continuous
 62
     2
100
AcDbLine
 10
948.2735484936839
 20
890.4749343710674
 30
0.0
 11
948.2735484936839
 21
884.4750079854073
 31
0.0
  0
LINE
  5
256
330
6F
100
AcDbEntity
  8
_0-0_計極細
  6
Continuous
 62
     2
100
AcDbLine
 10
948.2735484936839
 20
873.074915966759
 30
0.0
 11
948.2735484936839
 21
867.074989581099
 31
0.0
  0
LINE
  5
257
330
6F
100
AcDbEntity
  8
_0-0_計極細
  6
Continuous
 62
     2
100
AcDbLine
 10
948.2735484936839
 20
855.6749895810982
 30
0.0
 11
948.2735484936839
 21
849.675063195438
 31
0.0
  0
LINE
  5
258
330
6F
100
AcDbEntity
  8
_0-0_計極細
  6
Continuous
 62
     2
100
AcDbLine
 10
1034.773548493684
 20
925.2749159667592
 30
0.0
 11
1034.773548493684
 21
919.2748607560394
 31
0.0
  0
LINE
  5
259
330
6F
100
AcDbEntity
  8
_0-0_計極細
  6
Continuous
 62
     2
100
AcDbLine
 10
1034.773548493684
 20
832.2749159667591
 30
0.0
 11
1034.773548493684
 21
838.2749343710706
 31
0.0
  0
LINE
  5
25A
330
6F
100
AcDbEntity
  8
_0-0_計極細
  6
Continuous
 62
     2
100
AcDbLine
 10
1034.773548493684
 20
907.874860756728
 30
0.0
 11
1034.773548493684
 21
901.8749343710679
 31
0.0
  0
LINE
  5
25B
330
6F
100
AcDbEntity
  8
_0-0_計極細
  6
Continuous
 62
     2
100
AcDbLine
 10
1034.773548493684
 20
890.4749343710673
 30
0.0
 11
1034.773548493684
 21
884.4750079854069
 31
0.0
  0
LINE
  5
25C
330
6F
100
AcDbEntity
  8
_0-0_計極細
  6
Continuous
 62
     2
100
AcDbLine
 10
1034.773548493684
 20
873.0749159667588
 30
0.0
 11
1034.773548493684
 21
867.0749895810985
 31
0.0
  0
LINE
  5
25D
330
6F
100
AcDbEntity
  8
_0-0_計極細
  6
Continuous
 62
     2
100
AcDbLine
 10
1034.773548493684
 20
855.6749895810982
 30
0.0
 11
1034.773548493684
 21
849.675063195438
 31
0.0
  0
LINE
  5
25E
330
6F
100
AcDbEntity
  8
_0-0_計極細
  6
Continuous
 62
     2
100
AcDbLine
 10
1048.273548493684
 20
925.2749159667592
 30
0.0
 11
1048.273548493684
 21
919.2748607560394
 31
0.0
  0
LINE
  5
25F
330
6F
100
AcDbEntity
  8
_0-0_計極細
  6
Continuous
 62
     2
100
AcDbLine
 10
1048.273548493684
 20
832.2749159667591
 30
0.0
 11
1048.273548493684
 21
838.2749343710706
 31
0.0
  0
LINE
  5
260
330
6F
100
AcDbEntity
  8
_0-0_計極細
  6
Continuous
 62
     2
100
AcDbLine
 10
1048.273548493684
 20
907.874860756728
 30
0.0
 11
1048.273548493684
 21
901.8749343710679
 31
0.0
  0
LINE
  5
261
330
6F
100
AcDbEntity
  8
_0-0_計極細
  6
Continuous
 62
     2
100
AcDbLine
 10
1048.273548493684
 20
890.4749343710673
 30
0.0
 11
1048.273548493684
 21
884.4750079854069
 31
0.0
  0
LINE
  5
262
330
6F
100
AcDbEntity
  8
_0-0_計極細
  6
Continuous
 62
     2
100
AcDbLine
 10
1048.273548493684
 20
873.0749159667588
 30
0.0
 11
1048.273548493684
 21
867.0749895810985
 31
0.0
  0
LINE
  5
263
330
6F
100
AcDbEntity
  8
_0-0_計極細
  6
Continuous
 62
     2
100
AcDbLine
 10
1048.273548493684
 20
855.6749895810982
 30
0.0
 11
1048.273548493684
 21
849.675063195438
 31
0.0
  0
LINE
  5
264
330
6F
100
AcDbEntity
  8
_0-0_計極細
  6
Continuous
 62
     2
100
AcDbLine
 10
1134.773548493684
 20
925.2749159667592
 30
0.0
 11
1134.773548493684
 21
919.2748607560394
 31
0.0
  0
LINE
  5
265
330
6F
100
AcDbEntity
  8
_0-0_計極細
  6
Continuous
 62
     2
100
AcDbLine
 10
1134.773548493684
 20
832.2749159667591
 30
0.0
 11
1134.773548493684
 21
838.2749343710706
 31
0.0
  0
LINE
  5
266
330
6F
100
AcDbEntity
  8
_0-0_計極細
  6
Continuous
 62
     2
100
AcDbLine
 10
1134.773548493684
 20
907.874860756728
 30
0.0
 11
1134.773548493684
 21
901.8749343710679
 31
0.0
  0
LINE
  5
267
330
6F
100
AcDbEntity
  8
_0-0_計極細
  6
Continuous
 62
     2
100
AcDbLine
 10
1134.773548493684
 20
890.4749343710673
 30
0.0
 11
1134.773548493684
 21
884.4750079854069
 31
0.0
  0
LINE
  5
268
330
6F
100
AcDbEntity
  8
_0-0_計極細
  6
Continuous
 62
     2
100
AcDbLine
 10
1134.773548493684
 20
873.0749159667588
 30
0.0
 11
1134.773548493684
 21
867.0749895810985
 31
0.0
  0
LINE
  5
269
330
6F
100
AcDbEntity
  8
_0-0_計極細
  6
Continuous
 62
     2
100
AcDbLine
 10
1134.773548493684
 20
855.6749895810982
 30
0.0
 11
1134.773548493684
 21
849.675063195438
 31
0.0
  0
LINE
  5
26A
330
6F
100
AcDbEntity
  8
_0-0_計極細
  6
Continuous
 62
     2
100
AcDbLine
 10
1148.273548493684
 20
925.2749159667592
 30
0.0
 11
1148.273548493684
 21
919.2748607560394
 31
0.0
  0
LINE
  5
26B
330
6F
100
AcDbEntity
  8
_0-0_計極細
  6
Continuous
 62
     2
100
AcDbLine
 10
1148.273548493684
 20
832.2749159667591
 30
0.0
 11
1148.273548493684
 21
838.2749343710706
 31
0.0
  0
LINE
  5
26C
330
6F
100
AcDbEntity
  8
_0-0_計極細
  6
Continuous
 62
     2
100
AcDbLine
 10
1148.273548493684
 20
907.874860756728
 30
0.0
 11
1148.273548493684
 21
901.8749343710679
 31
0.0
  0
LINE
  5
26D
330
6F
100
AcDbEntity
  8
_0-0_計極細
  6
Continuous
 62
     2
100
AcDbLine
 10
1148.273548493684
 20
890.4749343710673
 30
0.0
 11
1148.273548493684
 21
884.4750079854069
 31
0.0
  0
LINE
  5
26E
330
6F
100
AcDbEntity
  8
_0-0_計極細
  6
Continuous
 62
     2
100
AcDbLine
 10
1148.273548493684
 20
873.0749159667588
 30
0.0
 11
1148.273548493684
 21
867.0749895810985
 31
0.0
  0
LINE
  5
26F
330
6F
100
AcDbEntity
  8
_0-0_計極細
  6
Continuous
 62
     2
100
AcDbLine
 10
1148.273548493684
 20
855.6749895810982
 30
0.0
 11
1148.273548493684
 21
849.675063195438
 31
0.0
  0
LINE
  5
270
330
6F
100
AcDbEntity
  8
_0-0_計極細
  6
Continuous
 62
     2
100
AcDbLine
 10
1234.773548493684
 20
925.2749159667592
 30
0.0
 11
1234.773548493684
 21
919.2748607560394
 31
0.0
  0
LINE
  5
271
330
6F
100
AcDbEntity
  8
_0-0_計極細
  6
Continuous
 62
     2
100
AcDbLine
 10
1234.773548493684
 20
832.2749159667591
 30
0.0
 11
1234.773548493684
 21
838.2749343710706
 31
0.0
  0
LINE
  5
272
330
6F
100
AcDbEntity
  8
_0-0_計極細
  6
Continuous
 62
     2
100
AcDbLine
 10
1234.773548493684
 20
907.874860756728
 30
0.0
 11
1234.773548493684
 21
901.8749343710679
 31
0.0
  0
LINE
  5
273
330
6F
100
AcDbEntity
  8
_0-0_計極細
  6
Continuous
 62
     2
100
AcDbLine
 10
1234.773548493684
 20
890.4749343710673
 30
0.0
 11
1234.773548493684
 21
884.4750079854069
 31
0.0
  0
LINE
  5
274
330
6F
100
AcDbEntity
  8
_0-0_計極細
  6
Continuous
 62
     2
100
AcDbLine
 10
1234.773548493684
 20
873.0749159667588
 30
0.0
 11
1234.773548493684
 21
867.0749895810985
 31
0.0
  0
LINE
  5
275
330
6F
100
AcDbEntity
  8
_0-0_計極細
  6
Continuous
 62
     2
100
AcDbLine
 10
1234.773548493684
 20
855.6749895810982
 30
0.0
 11
1234.773548493684
 21
849.675063195438
 31
0.0
  0
LINE
  5
276
330
6F
100
AcDbEntity
  8
_0-0_計極細
  6
Continuous
 62
     2
100
AcDbLine
 10
1248.273548493684
 20
925.2749159667592
 30
0.0
 11
1248.273548493684
 21
919.2748607560394
 31
0.0
  0
LINE
  5
277
330
6F
100
AcDbEntity
  8
_0-0_計極細
  6
Continuous
 62
     2
100
AcDbLine
 10
1248.273548493684
 20
832.2749159667591
 30
0.0
 11
1248.273548493684
 21
838.2749343710706
 31
0.0
  0
LINE
  5
278
330
6F
100
AcDbEntity
  8
_0-0_計極細
  6
Continuous
 62
     2
100
AcDbLine
 10
1248.273548493684
 20
907.874860756728
 30
0.0
 11
1248.273548493684
 21
901.8749343710679
 31
0.0
  0
LINE
  5
279
330
6F
100
AcDbEntity
  8
_0-0_計極細
  6
Continuous
 62
     2
100
AcDbLine
 10
1248.273548493684
 20
890.4749343710673
 30
0.0
 11
1248.273548493684
 21
884.4750079854069
 31
0.0
  0
LINE
  5
27A
330
6F
100
AcDbEntity
  8
_0-0_計極細
  6
Continuous
 62
     2
100
AcDbLine
 10
1248.273548493684
 20
873.0749159667588
 30
0.0
 11
1248.273548493684
 21
867.0749895810985
 31
0.0
  0
LINE
  5
27B
330
6F
100
AcDbEntity
  8
_0-0_計極細
  6
Continuous
 62
     2
100
AcDbLine
 10
1248.273548493684
 20
855.6749895810982
 30
0.0
 11
1248.273548493684
 21
849.675063195438
 31
0.0
  0
LINE
  5
27C
330
6F
100
AcDbEntity
  8
_0-0_計極細
  6
Continuous
 62
     2
100
AcDbLine
 10
1334.773548493684
 20
925.2749159667592
 30
0.0
 11
1334.773548493684
 21
919.2748607560394
 31
0.0
  0
LINE
  5
27D
330
6F
100
AcDbEntity
  8
_0-0_計極細
  6
Continuous
 62
     2
100
AcDbLine
 10
1334.773548493684
 20
832.2749159667591
 30
0.0
 11
1334.773548493684
 21
838.2749343710706
 31
0.0
  0
LINE
  5
27E
330
6F
100
AcDbEntity
  8
_0-0_計極細
  6
Continuous
 62
     2
100
AcDbLine
 10
1334.773548493684
 20
907.874860756728
 30
0.0
 11
1334.773548493684
 21
901.8749343710679
 31
0.0
  0
LINE
  5
27F
330
6F
100
AcDbEntity
  8
_0-0_計極細
  6
Continuous
 62
     2
100
AcDbLine
 10
1334.773548493684
 20
890.4749343710673
 30
0.0
 11
1334.773548493684
 21
884.4750079854069
 31
0.0
  0
LINE
  5
280
330
6F
100
AcDbEntity
  8
_0-0_計極細
  6
Continuous
 62
     2
100
AcDbLine
 10
1334.773548493684
 20
873.0749159667588
 30
0.0
 11
1334.773548493684
 21
867.0749895810985
 31
0.0
  0
LINE
  5
281
330
6F
100
AcDbEntity
  8
_0-0_計極細
  6
Continuous
 62
     2
100
AcDbLine
 10
1334.773548493684
 20
855.6749895810982
 30
0.0
 11
1334.773548493684
 21
849.675063195438
 31
0.0
  0
LINE
  5
282
330
6F
100
AcDbEntity
  8
_0-0_計極細
  6
Continuous
 62
     2
100
AcDbLine
 10
1348.273548493684
 20
925.2749159667592
 30
0.0
 11
1348.273548493684
 21
919.2748607560394
 31
0.0
  0
LINE
  5
283
330
6F
100
AcDbEntity
  8
_0-0_計極細
  6
Continuous
 62
     2
100
AcDbLine
 10
1348.273548493684
 20
832.2749159667591
 30
0.0
 11
1348.273548493684
 21
838.2749343710706
 31
0.0
  0
LINE
  5
284
330
6F
100
AcDbEntity
  8
_0-0_計極細
  6
Continuous
 62
     2
100
AcDbLine
 10
1348.273548493684
 20
907.874860756728
 30
0.0
 11
1348.273548493684
 21
901.8749343710679
 31
0.0
  0
LINE
  5
285
330
6F
100
AcDbEntity
  8
_0-0_計極細
  6
Continuous
 62
     2
100
AcDbLine
 10
1348.273548493684
 20
890.4749343710673
 30
0.0
 11
1348.273548493684
 21
884.4750079854069
 31
0.0
  0
LINE
  5
286
330
6F
100
AcDbEntity
  8
_0-0_計極細
  6
Continuous
 62
     2
100
AcDbLine
 10
1348.273548493684
 20
873.0749159667588
 30
0.0
 11
1348.273548493684
 21
867.0749895810985
 31
0.0
  0
LINE
  5
287
330
6F
100
AcDbEntity
  8
_0-0_計極細
  6
Continuous
 62
     2
100
AcDbLine
 10
1348.273548493684
 20
855.6749895810982
 30
0.0
 11
1348.273548493684
 21
849.675063195438
 31
0.0
  0
ARC
  5
288
330
6F
100
AcDbEntity
  8
_0-B_細線3
  6
Continuous
 62
     7
100
AcDbCircle
 10
665.9999263896601
 20
303.8589879389553
 30
0.0
 40
2.0
100
AcDbArc
 50
89.99999999999991
 51
179.9999999999998
  0
LINE
  5
289
330
6F
100
AcDbEntity
  8
_0-B_細線3
  6
Continuous
 62
     7
100
AcDbLine
 10
681.9999999999999
 20
305.8589879389551
 30
0.0
 11
665.9999263896601
 21
305.8589879389551
 31
0.0
  0
ARC
  5
28A
330
6F
100
AcDbEntity
  8
_0-B_細線3
  6
Continuous
 62
     7
100
AcDbCircle
 10
681.9999999999999
 20
303.8589879389553
 30
0.0
 40
2.0
100
AcDbArc
 50
0.0
 51
89.99999999999991
  0
LINE
  5
28B
330
6F
100
AcDbEntity
  8
_0-B_細線3
  6
Continuous
 62
     7
100
AcDbLine
 10
663.9999263896593
 20
303.8589879389553
 30
0.0
 11
663.9999263896593
 21
278.8589879389551
 31
0.0
  0
ARC
  5
28C
330
6F
100
AcDbEntity
  8
_0-B_細線3
  6
Continuous
 62
     7
100
AcDbCircle
 10
665.9999263896601
 20
278.8589879389551
 30
0.0
 40
2.0
100
AcDbArc
 50
179.9999999999998
 51
269.9999999999997
  0
LINE
  5
28D
330
6F
100
AcDbEntity
  8
_0-B_細線3
  6
Continuous
 62
     7
100
AcDbLine
 10
683.9999999999998
 20
278.8589879389551
 30
0.0
 11
683.9999999999998
 21
303.8589879389553
 31
0.0
  0
LINE
  5
28E
330
6F
100
AcDbEntity
  8
_0-B_細線3
  6
Continuous
 62
     7
100
AcDbLine
 10
665.9999263896601
 20
276.8589879389553
 30
0.0
 11
681.9999999999999
 21
276.8589879389553
 31
0.0
  0
ARC
  5
28F
330
6F
100
AcDbEntity
  8
_0-B_細線3
  6
Continuous
 62
     7
100
AcDbCircle
 10
681.9999999999999
 20
278.8589879389551
 30
0.0
 40
2.0
100
AcDbArc
 50
269.9999999999997
 51
359.9999999999997
  0
LINE
  5
290
330
6F
100
AcDbEntity
  8
_0-B_細線3
  6
Continuous
 62
     7
100
AcDbLine
 10
690.9999999999999
 20
291.3589879389553
 30
0.0
 11
697.0090320000016
 21
291.3589879389553
 31
0.0
  0
LINE
  5
291
330
6F
100
AcDbEntity
  8
_0-B_細線3
  6
Continuous
 62
     7
100
AcDbLine
 10
690.9999999999999
 20
284.3589879389568
 30
0.0
 11
697.0090559999989
 21
284.3589879389568
 31
0.0
  0
ARC
  5
292
330
6F
100
AcDbEntity
  8
_0-B_細線3
  6
Continuous
 62
     7
100
AcDbCircle
 10
697.0090559999989
 20
284.7589879389563
 30
0.0
 40
0.4000000000000001
100
AcDbArc
 50
269.9999999999997
 51
359.9999999999997
  0
ARC
  5
293
330
6F
100
AcDbEntity
  8
_0-B_細線3
  6
Continuous
 62
     7
100
AcDbCircle
 10
681.8930959999996
 20
287.8586959389565
 30
0.0
 40
15.515912
100
AcDbArc
 50
346.96433
 51
13.03802199999233
  0
ARC
  5
294
330
6F
100
AcDbEntity
  8
_0-B_細線3
  6
Continuous
 62
     7
100
AcDbCircle
 10
697.0090559999989
 20
297.9589879389574
 30
0.0
 40
0.4000000000000001
100
AcDbArc
 50
0.0
 51
89.99999999999991
  0
ARC
  5
295
330
6F
100
AcDbEntity
  8
_0-B_細線3
  6
Continuous
 62
     7
100
AcDbCircle
 10
681.8930959999996
 20
294.859275938956
 30
0.0
 40
15.515912
100
AcDbArc
 50
346.9619780000008
 51
13.03566999999927
  0
LINE
  5
296
330
6F
100
AcDbEntity
  8
_0-B_細線3
  6
Continuous
 62
     7
100
AcDbLine
 10
690.9999999999999
 20
298.3589879389571
 30
0.0
 11
697.0090559999989
 21
298.3589879389571
 31
0.0
  0
LINE
  5
297
330
6F
100
AcDbEntity
  8
_0-B_細線3
  6
Continuous
 62
     7
100
AcDbLine
 10
697.4090559999998
 20
284.7589879389563
 30
0.0
 11
697.4090559999998
 21
297.9589879389574
 31
0.0
  0
LINE
  5
298
330
6F
100
AcDbEntity
  8
_0-B_細線3
  6
Continuous
 62
     7
100
AcDbLine
 10
690.9999999999999
 20
303.9589879389553
 30
0.0
 11
690.9999999999999
 21
290.3589879389567
 31
0.0
  0
LINE
  5
299
330
6F
100
AcDbEntity
  8
_0-B_細線3
  6
Continuous
 62
     7
100
AcDbLine
 10
690.9999999999999
 20
290.3589879389567
 30
0.0
 11
690.9999999999999
 21
278.7589879389563
 31
0.0
  0
ARC
  5
29A
330
6F
100
AcDbEntity
  8
_0-B_細線3
  6
Continuous
 62
     7
100
AcDbCircle
 10
690.6000000000017
 20
303.9589879389553
 30
0.0
 40
0.4000000000000001
100
AcDbArc
 50
0.0
 51
89.99999999999991
  0
ARC
  5
29B
330
6F
100
AcDbEntity
  8
_0-B_細線3
  6
Continuous
 62
     7
100
AcDbCircle
 10
690.6000000000017
 20
278.7589879389563
 30
0.0
 40
0.4000000000000001
100
AcDbArc
 50
269.9999999999997
 51
359.9999999999997
  0
LINE
  5
29C
330
6F
100
AcDbEntity
  8
_0-B_細線3
  6
Continuous
 62
     7
100
AcDbLine
 10
687.9999999999999
 20
304.3589879389571
 30
0.0
 11
690.6000000000017
 21
304.3589879389571
 31
0.0
  0
LINE
  5
29D
330
6F
100
AcDbEntity
  8
_0-B_細線3
  6
Continuous
 62
     7
100
AcDbLine
 10
687.9999999999999
 20
278.3589879389567
 30
0.0
 11
690.6000000000017
 21
278.3589879389567
 31
0.0
  0
LINE
  5
29E
330
6F
100
AcDbEntity
  8
_0-A_極細3
  6
CENTER1
 62
     7
100
AcDbLine
 10
481.7865566037998
 20
291.3589879389553
 30
0.0
 11
699.7072846045483
 21
291.3589879389553
 31
0.0
  0
LINE
  5
29F
330
6F
100
AcDbEntity
  8
_0-B_細線3
  6
Continuous
 62
     7
100
AcDbLine
 10
491.0000000000002
 20
291.3589879389553
 30
0.0
 11
484.9909679999985
 21
291.3589879389553
 31
0.0
  0
LINE
  5
2A0
330
6F
100
AcDbEntity
  8
_0-B_細線3
  6
Continuous
 62
     7
100
AcDbLine
 10
491.0000000000002
 20
284.3589879389568
 30
0.0
 11
484.9909440000013
 21
284.3589879389568
 31
0.0
  0
ARC
  5
2A1
330
6F
100
AcDbEntity
  8
_0-B_細線3
  6
Continuous
 62
     7
100
AcDbCircle
 10
484.9909440000013
 20
284.7589879389563
 30
0.0
 40
0.4000000000000001
100
AcDbArc
 50
179.9999999999998
 51
269.9999999999997
  0
ARC
  5
2A2
330
6F
100
AcDbEntity
  8
_0-B_細線3
  6
Continuous
 62
     7
100
AcDbCircle
 10
500.1069040000005
 20
287.8586959389565
 30
0.0
 40
15.515912
100
AcDbArc
 50
166.9619780000073
 51
193.0356699999992
  0
ARC
  5
2A3
330
6F
100
AcDbEntity
  8
_0-B_細線3
  6
Continuous
 62
     7
100
AcDbCircle
 10
484.9909440000013
 20
297.9589879389552
 30
0.0
 40
0.4000000000000001
100
AcDbArc
 50
89.99999999999991
 51
179.9999999999998
  0
ARC
  5
2A4
330
6F
100
AcDbEntity
  8
_0-B_細線3
  6
Continuous
 62
     7
100
AcDbCircle
 10
500.1069040000005
 20
294.859275938956
 30
0.0
 40
15.515912
100
AcDbArc
 50
166.9643300000004
 51
193.0380219999984
  0
LINE
  5
2A5
330
6F
100
AcDbEntity
  8
_0-B_細線3
  6
Continuous
 62
     7
100
AcDbLine
 10
491.0000000000002
 20
298.3589879389549
 30
0.0
 11
484.9909440000013
 21
298.3589879389549
 31
0.0
  0
LINE
  5
2A6
330
6F
100
AcDbEntity
  8
_0-B_細線3
  6
Continuous
 62
     7
100
AcDbLine
 10
484.5909440000008
 20
284.7589879389563
 30
0.0
 11
484.5909440000008
 21
297.9589879389552
 31
0.0
  0
ARC
  5
2A7
330
6F
100
AcDbEntity
  8
_0-B_細線3
  6
Continuous
 62
     7
100
AcDbCircle
 10
491.399999999999
 20
278.7589879389563
 30
0.0
 40
0.4000000000000001
100
AcDbArc
 50
179.9999999999998
 51
269.9999999999997
  0
LINE
  5
2A8
330
6F
100
AcDbEntity
  8
_0-B_細線3
  6
Continuous
 62
     7
100
AcDbLine
 10
494.0000000000003
 20
278.358987938955
 30
0.0
 11
491.399999999999
 21
278.358987938955
 31
0.0
  0
ARC
  5
2A9
330
6F
100
AcDbEntity
  8
_0-B_細線3
  6
Continuous
 62
     7
100
AcDbCircle
 10
491.399999999999
 20
303.9589879389553
 30
0.0
 40
0.4000000000000001
100
AcDbArc
 50
89.99999999999991
 51
179.9999999999998
  0
LINE
  5
2AA
330
6F
100
AcDbEntity
  8
_0-B_細線3
  6
Continuous
 62
     7
100
AcDbLine
 10
494.0000000000003
 20
304.3589879389549
 30
0.0
 11
491.399999999999
 21
304.3589879389549
 31
0.0
  0
LINE
  5
2AB
330
6F
100
AcDbEntity
  8
_0-B_細線3
  6
Continuous
 62
     7
100
AcDbLine
 10
491.0000000000002
 20
290.358987938955
 30
0.0
 11
491.0000000000002
 21
278.7589879389563
 31
0.0
  0
LINE
  5
2AC
330
6F
100
AcDbEntity
  8
_0-B_細線3
  6
Continuous
 62
     7
100
AcDbLine
 10
491.0000000000002
 20
303.9589879389553
 30
0.0
 11
491.0000000000002
 21
290.358987938955
 31
0.0
  0
ARC
  5
2AD
330
6F
100
AcDbEntity
  8
_0-B_細線3
  6
Continuous
 62
     7
100
AcDbCircle
 10
500.0000000011025
 20
303.8589879389552
 30
0.0
 40
2.0
100
AcDbArc
 50
89.99999999999991
 51
179.9999999999998
  0
LINE
  5
2AE
330
6F
100
AcDbEntity
  8
_0-B_細線3
  6
Continuous
 62
     7
100
AcDbLine
 10
516.0000736114422
 20
305.8589879389551
 30
0.0
 11
500.0000000011025
 21
305.8589879389551
 31
0.0
  0
ARC
  5
2AF
330
6F
100
AcDbEntity
  8
_0-B_細線3
  6
Continuous
 62
     7
100
AcDbCircle
 10
516.0000736114422
 20
303.8589879389552
 30
0.0
 40
2.0
100
AcDbArc
 50
0.0
 51
89.99999999999991
  0
LINE
  5
2B0
330
6F
100
AcDbEntity
  8
_0-B_細線3
  6
Continuous
 62
     7
100
AcDbLine
 10
498.0000000011017
 20
303.8589879389552
 30
0.0
 11
498.0000000011017
 21
278.8589879389551
 31
0.0
  0
ARC
  5
2B1
330
6F
100
AcDbEntity
  8
_0-B_細線3
  6
Continuous
 62
     7
100
AcDbCircle
 10
500.0000000011025
 20
278.8589879389551
 30
0.0
 40
2.0
100
AcDbArc
 50
179.9999999999998
 51
269.9999999999997
  0
LINE
  5
2B2
330
6F
100
AcDbEntity
  8
_0-B_細線3
  6
Continuous
 62
     7
100
AcDbLine
 10
518.0000736114423
 20
278.8589879389551
 30
0.0
 11
518.0000736114423
 21
303.8589879389552
 31
0.0
  0
LINE
  5
2B3
330
6F
100
AcDbEntity
  8
_0-B_細線3
  6
Continuous
 62
     7
100
AcDbLine
 10
500.0000000011025
 20
276.8589879389552
 30
0.0
 11
516.0000736114422
 21
276.8589879389552
 31
0.0
  0
ARC
  5
2B4
330
6F
100
AcDbEntity
  8
_0-B_細線3
  6
Continuous
 62
     7
100
AcDbCircle
 10
516.0000736114422
 20
278.8589879389551
 30
0.0
 40
2.0
100
AcDbArc
 50
269.9999999999997
 51
359.9999999999997
  0
ARC
  5
2B5
330
6F
100
AcDbEntity
  8
_0-B_細線3
  6
Continuous
 62
     7
100
AcDbCircle
 10
561.5999999987256
 20
303.8589879389553
 30
0.0
 40
2.0
100
AcDbArc
 50
89.99999999999991
 51
179.9999999999998
  0
LINE
  5
2B6
330
6F
100
AcDbEntity
  8
_0-B_細線3
  6
Continuous
 62
     7
100
AcDbLine
 10
585.5999999994481
 20
305.8589879389551
 30
0.0
 11
561.5999999987256
 21
305.8589879389551
 31
0.0
  0
ARC
  5
2B7
330
6F
100
AcDbEntity
  8
_0-B_細線3
  6
Continuous
 62
     7
100
AcDbCircle
 10
585.5999999994481
 20
303.8589879389553
 30
0.0
 40
2.0
100
AcDbArc
 50
0.0
 51
89.99999999999991
  0
LINE
  5
2B8
330
6F
100
AcDbEntity
  8
_0-B_細線3
  6
Continuous
 62
     7
100
AcDbLine
 10
559.5999999987252
 20
303.8589879389553
 30
0.0
 11
559.5999999987252
 21
278.8589879389551
 31
0.0
  0
ARC
  5
2B9
330
6F
100
AcDbEntity
  8
_0-B_細線3
  6
Continuous
 62
     7
100
AcDbCircle
 10
561.5999999987256
 20
278.8589879389551
 30
0.0
 40
2.0
100
AcDbArc
 50
179.9999999999998
 51
269.9999999999997
  0
LINE
  5
2BA
330
6F
100
AcDbEntity
  8
_0-B_細線3
  6
Continuous
 62
     7
100
AcDbLine
 10
587.5999999994482
 20
278.8589879389551
 30
0.0
 11
587.5999999994482
 21
303.8589879389553
 31
0.0
  0
LINE
  5
2BB
330
6F
100
AcDbEntity
  8
_0-B_細線3
  6
Continuous
 62
     7
100
AcDbLine
 10
561.5999999987256
 20
276.8589879389553
 30
0.0
 11
585.5999999994481
 21
276.8589879389553
 31
0.0
  0
ARC
  5
2BC
330
6F
100
AcDbEntity
  8
_0-B_細線3
  6
Continuous
 62
     7
100
AcDbCircle
 10
585.5999999994481
 20
278.8589879389551
 30
0.0
 40
2.0
100
AcDbArc
 50
269.9999999999997
 51
359.9999999999997
  0
ARC
  5
2BD
330
6F
100
AcDbEntity
  8
_0-B_細線3
  6
Continuous
 62
     7
100
AcDbCircle
 10
596.400000000226
 20
303.8589879389553
 30
0.0
 40
2.0
100
AcDbArc
 50
89.99999999999991
 51
179.9999999999998
  0
LINE
  5
2BE
330
6F
100
AcDbEntity
  8
_0-B_細線3
  6
Continuous
 62
     7
100
AcDbLine
 10
620.4000000009487
 20
305.8589879389551
 30
0.0
 11
596.400000000226
 21
305.8589879389551
 31
0.0
  0
ARC
  5
2BF
330
6F
100
AcDbEntity
  8
_0-B_細線3
  6
Continuous
 62
     7
100
AcDbCircle
 10
620.4000000009487
 20
303.8589879389553
 30
0.0
 40
2.0
100
AcDbArc
 50
0.0
 51
89.99999999999991
  0
LINE
  5
2C0
330
6F
100
AcDbEntity
  8
_0-B_細線3
  6
Continuous
 62
     7
100
AcDbLine
 10
594.4000000002256
 20
303.8589879389553
 30
0.0
 11
594.4000000002256
 21
278.8589879389551
 31
0.0
  0
ARC
  5
2C1
330
6F
100
AcDbEntity
  8
_0-B_細線3
  6
Continuous
 62
     7
100
AcDbCircle
 10
596.400000000226
 20
278.8589879389551
 30
0.0
 40
2.0
100
AcDbArc
 50
179.9999999999998
 51
269.9999999999997
  0
LINE
  5
2C2
330
6F
100
AcDbEntity
  8
_0-B_細線3
  6
Continuous
 62
     7
100
AcDbLine
 10
622.4000000009486
 20
278.8589879389551
 30
0.0
 11
622.4000000009486
 21
303.8589879389553
 31
0.0
  0
LINE
  5
2C3
330
6F
100
AcDbEntity
  8
_0-B_細線3
  6
Continuous
 62
     7
100
AcDbLine
 10
596.400000000226
 20
276.8589879389553
 30
0.0
 11
620.4000000009487
 21
276.8589879389553
 31
0.0
  0
ARC
  5
2C4
330
6F
100
AcDbEntity
  8
_0-B_細線3
  6
Continuous
 62
     7
100
AcDbCircle
 10
620.4000000009487
 20
278.8589879389551
 30
0.0
 40
2.0
100
AcDbArc
 50
269.9999999999997
 51
359.9999999999997
  0
ARC
  5
2C5
330
6F
100
AcDbEntity
  8
_0-B_細線3
  6
Continuous
 62
     7
100
AcDbCircle
 10
631.2000000009496
 20
303.8589879389553
 30
0.0
 40
2.0
100
AcDbArc
 50
89.99999999999991
 51
179.9999999999998
  0
LINE
  5
2C6
330
6F
100
AcDbEntity
  8
_0-B_細線3
  6
Continuous
 62
     7
100
AcDbLine
 10
655.1999263885551
 20
305.8589879389551
 30
0.0
 11
631.2000000009496
 21
305.8589879389551
 31
0.0
  0
ARC
  5
2C7
330
6F
100
AcDbEntity
  8
_0-B_細線3
  6
Continuous
 62
     7
100
AcDbCircle
 10
655.1999263885551
 20
303.8589879389553
 30
0.0
 40
2.0
100
AcDbArc
 50
0.0
 51
89.99999999999991
  0
LINE
  5
2C8
330
6F
100
AcDbEntity
  8
_0-B_細線3
  6
Continuous
 62
     7
100
AcDbLine
 10
629.2000000009492
 20
303.8589879389553
 30
0.0
 11
629.2000000009492
 21
278.8589879389551
 31
0.0
  0
ARC
  5
2C9
330
6F
100
AcDbEntity
  8
_0-B_細線3
  6
Continuous
 62
     7
100
AcDbCircle
 10
631.2000000009496
 20
278.8589879389551
 30
0.0
 40
2.0
100
AcDbArc
 50
179.9999999999998
 51
269.9999999999997
  0
LINE
  5
2CA
330
6F
100
AcDbEntity
  8
_0-B_細線3
  6
Continuous
 62
     7
100
AcDbLine
 10
657.199926388555
 20
278.8589879389551
 30
0.0
 11
657.199926388555
 21
303.8589879389553
 31
0.0
  0
LINE
  5
2CB
330
6F
100
AcDbEntity
  8
_0-B_細線3
  6
Continuous
 62
     7
100
AcDbLine
 10
631.2000000009496
 20
276.8589879389553
 30
0.0
 11
655.1999263885551
 21
276.8589879389553
 31
0.0
  0
ARC
  5
2CC
330
6F
100
AcDbEntity
  8
_0-B_細線3
  6
Continuous
 62
     7
100
AcDbCircle
 10
655.1999263885551
 20
278.8589879389551
 30
0.0
 40
2.0
100
AcDbArc
 50
269.9999999999997
 51
359.9999999999997
  0
ARC
  5
2CD
330
6F
100
AcDbEntity
  8
_0-B_細線3
  6
Continuous
 62
     7
100
AcDbCircle
 10
526.8000736174189
 20
303.8589879389553
 30
0.0
 40
2.0
100
AcDbArc
 50
89.99999999999991
 51
179.9999999999998
  0
LINE
  5
2CE
330
6F
100
AcDbEntity
  8
_0-B_細線3
  6
Continuous
 62
     7
100
AcDbLine
 10
550.8000000050244
 20
305.8589879389551
 30
0.0
 11
526.8000736174189
 21
305.8589879389551
 31
0.0
  0
ARC
  5
2CF
330
6F
100
AcDbEntity
  8
_0-B_細線3
  6
Continuous
 62
     7
100
AcDbCircle
 10
550.8000000050244
 20
303.8589879389553
 30
0.0
 40
2.0
100
AcDbArc
 50
0.0
 51
89.99999999999991
  0
LINE
  5
2D0
330
6F
100
AcDbEntity
  8
_0-B_細線3
  6
Continuous
 62
     7
100
AcDbLine
 10
524.8000736174185
 20
303.8589879389553
 30
0.0
 11
524.8000736174185
 21
278.8589879389551
 31
0.0
  0
ARC
  5
2D1
330
6F
100
AcDbEntity
  8
_0-B_細線3
  6
Continuous
 62
     7
100
AcDbCircle
 10
526.8000736174189
 20
278.8589879389551
 30
0.0
 40
2.0
100
AcDbArc
 50
179.9999999999998
 51
269.9999999999997
  0
LINE
  5
2D2
330
6F
100
AcDbEntity
  8
_0-B_細線3
  6
Continuous
 62
     7
100
AcDbLine
 10
552.8000000050244
 20
278.8589879389551
 30
0.0
 11
552.8000000050244
 21
303.8589879389553
 31
0.0
  0
LINE
  5
2D3
330
6F
100
AcDbEntity
  8
_0-B_細線3
  6
Continuous
 62
     7
100
AcDbLine
 10
526.8000736174189
 20
276.8589879389553
 30
0.0
 11
550.8000000050244
 21
276.8589879389553
 31
0.0
  0
ARC
  5
2D4
330
6F
100
AcDbEntity
  8
_0-B_細線3
  6
Continuous
 62
     7
100
AcDbCircle
 10
550.8000000050244
 20
278.8589879389551
 30
0.0
 40
2.0
100
AcDbArc
 50
269.9999999999997
 51
359.9999999999997
  0
LINE
  5
2D5
330
6F
100
AcDbEntity
  8
_0-D_寸法3
  6
Continuous
 62
     7
100
AcDbLine
 10
437.9999999999999
 20
325.1589434213515
 30
0.0
 11
438.0000000000002
 21
463.7589879389516
 31
0.0
  0
LINE
  5
2D6
330
6F
100
AcDbEntity
  8
_0-D_寸法3
  6
Continuous
 62
     7
100
AcDbLine
 10
438.0000000000002
 20
457.7589879389516
 30
0.0
 11
449.5911099154692
 21
460.8648164801819
 31
0.0
  0
LINE
  5
2D7
330
6F
100
AcDbEntity
  8
_0-D_寸法3
  6
Continuous
 62
     7
100
AcDbLine
 10
438.0000000000002
 20
457.7589879389516
 30
0.0
 11
449.5911099154692
 21
454.6531593977213
 31
0.0
  0
LINE
  5
2D8
330
6F
100
AcDbEntity
  8
_0-D_寸法3
  6
Continuous
 62
     7
100
AcDbLine
 10
743.9999999999996
 20
325.7589434213515
 30
0.0
 11
744.0000000000003
 21
463.7589879389516
 31
0.0
  0
LINE
  5
2D9
330
6F
100
AcDbEntity
  8
_0-D_寸法3
  6
Continuous
 62
     7
100
AcDbLine
 10
744.0000000000003
 20
457.7589879389516
 30
0.0
 11
732.4088900845315
 21
454.6531593977214
 31
0.0
  0
LINE
  5
2DA
330
6F
100
AcDbEntity
  8
_0-D_寸法3
  6
Continuous
 62
     7
100
AcDbLine
 10
744.0000000000003
 20
457.7589879389516
 30
0.0
 11
732.4088900845315
 21
460.8648164801819
 31
0.0
  0
LINE
  5
2DB
330
6F
100
AcDbEntity
  8
_0-D_寸法3
  6
Continuous
 62
     7
100
AcDbLine
 10
438.0000000000002
 20
457.7589879389516
 30
0.0
 11
744.0000000000003
 21
457.7589879389516
 31
0.0
  0
TEXT
  5
2DC
330
6F
100
AcDbEntity
  8
_0-D_寸法3
 62
     7
100
AcDbText
 10
577.5000000000003
 20
457.7589879389516
 30
0.0
 40
18.0
  1
153
 41
0.7
100
AcDbText
  0
LINE
  5
2DD
330
6F
100
AcDbEntity
  8
_0-D_寸法3
  6
Continuous
 62
     7
100
AcDbLine
 10
532.8000736081313
 20
325.7589434213515
 30
0.0
 11
532.8000736081316
 21
377.88057149625
 31
0.0
  0
LINE
  5
2DE
330
6F
100
AcDbEntity
  8
_0-D_寸法3
  6
Continuous
 62
     7
100
AcDbLine
 10
532.8000736081316
 20
371.88057149625
 30
0.0
 11
521.2089636926627
 21
368.7747429550199
 31
0.0
  0
LINE
  5
2DF
330
6F
100
AcDbEntity
  8
_0-D_寸法3
  6
Continuous
 62
     7
100
AcDbLine
 10
532.8000736081316
 20
371.88057149625
 30
0.0
 11
521.2089636926627
 21
374.9864000374802
 31
0.0
  0
LINE
  5
2E0
330
6F
100
AcDbEntity
  8
_0-D_寸法3
  6
Continuous
 62
     7
100
AcDbLine
 10
544.8000000061283
 20
325.7589434213514
 30
0.0
 11
544.8000000061283
 21
377.88057149625
 31
0.0
  0
LINE
  5
2E1
330
6F
100
AcDbEntity
  8
_0-D_寸法3
  6
Continuous
 62
     7
100
AcDbLine
 10
500.7169539160258
 20
371.88057149625
 30
0.0
 11
544.8000000061283
 21
371.88057149625
 31
0.0
  0
TEXT
  5
2E2
330
6F
100
AcDbEntity
  8
_0-D_寸法3
 62
     7
100
AcDbText
 10
503.8751461795008
 20
351.722185139106
 30
0.0
 40
18.0
  1
(6)
 41
0.7
100
AcDbText
  0
LINE
  5
2E3
330
6F
100
AcDbEntity
  8
_0-D_寸法3
  6
Continuous
 62
     7
100
AcDbLine
 10
544.8000000061283
 20
371.88057149625
 30
0.0
 11
556.3911099215972
 21
374.9864000374802
 31
0.0
  0
LINE
  5
2E4
330
6F
100
AcDbEntity
  8
_0-D_寸法3
  6
Continuous
 62
     7
100
AcDbLine
 10
544.8000000061283
 20
371.88057149625
 30
0.0
 11
556.3911099215972
 21
368.7747429550197
 31
0.0
  0
LINE
  5
2E5
330
6F
100
AcDbEntity
  8
_0-D_寸法3
  6
Continuous
 62
     7
100
AcDbLine
 10
567.6000000017134
 20
325.7589434213514
 30
0.0
 11
567.6000000017136
 21
377.88057149625
 31
0.0
  0
LINE
  5
2E6
330
6F
100
AcDbEntity
  8
_0-D_寸法3
  6
Continuous
 62
     7
100
AcDbLine
 10
567.6000000017136
 20
371.88057149625
 30
0.0
 11
556.0088900862448
 21
368.7747429550199
 31
0.0
  0
LINE
  5
2E7
330
6F
100
AcDbEntity
  8
_0-D_寸法3
  6
Continuous
 62
     7
100
AcDbLine
 10
567.6000000017136
 20
371.88057149625
 30
0.0
 11
556.0088900862448
 21
374.9864000374802
 31
0.0
  0
LINE
  5
2E8
330
6F
100
AcDbEntity
  8
_0-D_寸法3
  6
Continuous
 62
     7
100
AcDbLine
 10
544.8000000061283
 20
371.88057149625
 30
0.0
 11
567.6000000017136
 21
371.88057149625
 31
0.0
  0
TEXT
  5
2E9
330
6F
100
AcDbEntity
  8
_0-D_寸法3
 62
     7
100
AcDbText
 10
538.2000000050261
 20
371.88057149625
 30
0.0
 40
18.0
  1
11.4
 41
0.7
100
AcDbText
  0
LINE
  5
2EA
330
6F
100
AcDbEntity
  8
_0-D_寸法3
  6
Continuous
 62
     7
100
AcDbLine
 10
438.0000000000001
 20
415.7589879389516
 30
0.0
 11
449.5911099154689
 21
418.8648164801819
 31
0.0
  0
LINE
  5
2EB
330
6F
100
AcDbEntity
  8
_0-D_寸法3
  6
Continuous
 62
     7
100
AcDbLine
 10
438.0000000000001
 20
415.7589879389516
 30
0.0
 11
449.5911099154689
 21
412.6531593977214
 31
0.0
  0
LINE
  5
2EC
330
6F
100
AcDbEntity
  8
_0-D_寸法3
  6
Continuous
 62
     7
100
AcDbLine
 10
498.0000000011018
 20
325.7589434213514
 30
0.0
 11
498.000000001102
 21
421.7589879389516
 31
0.0
  0
LINE
  5
2ED
330
6F
100
AcDbEntity
  8
_0-D_寸法3
  6
Continuous
 62
     7
100
AcDbLine
 10
498.000000001102
 20
415.7589879389516
 30
0.0
 11
486.4088900856331
 21
412.6531593977214
 31
0.0
  0
LINE
  5
2EE
330
6F
100
AcDbEntity
  8
_0-D_寸法3
  6
Continuous
 62
     7
100
AcDbLine
 10
498.000000001102
 20
415.7589879389516
 30
0.0
 11
486.4088900856331
 21
418.8648164801819
 31
0.0
  0
LINE
  5
2EF
330
6F
100
AcDbEntity
  8
_0-D_寸法3
  6
Continuous
 62
     7
100
AcDbLine
 10
438.0000000000001
 20
415.7589879389516
 30
0.0
 11
498.000000001102
 21
415.7589879389516
 31
0.0
  0
TEXT
  5
2F0
330
6F
100
AcDbEntity
  8
_0-D_寸法3
 62
     7
100
AcDbText
 10
459.0000000000001
 20
415.7589879389516
 30
0.0
 40
18.0
  1
30
 41
0.7
100
AcDbText
  0
LINE
  5
2F1
330
6F
100
AcDbEntity
  8
_0-D_寸法3
  6
Continuous
 62
     7
100
AcDbLine
 10
498.000000001102
 20
415.7589879389516
 30
0.0
 11
509.5911099165708
 21
418.8648164801817
 31
0.0
  0
LINE
  5
2F2
330
6F
100
AcDbEntity
  8
_0-D_寸法3
  6
Continuous
 62
     7
100
AcDbLine
 10
498.000000001102
 20
415.7589879389516
 30
0.0
 11
509.5911099165708
 21
412.6531593977212
 31
0.0
  0
LINE
  5
2F3
330
6F
100
AcDbEntity
  8
_0-D_寸法3
  6
Continuous
 62
     7
100
AcDbLine
 10
683.9999999999998
 20
325.7589434213514
 30
0.0
 11
684.0000000000001
 21
421.7589879389516
 31
0.0
  0
LINE
  5
2F4
330
6F
100
AcDbEntity
  8
_0-D_寸法3
  6
Continuous
 62
     7
100
AcDbLine
 10
684.0000000000001
 20
415.7589879389516
 30
0.0
 11
672.4088900845312
 21
412.6531593977214
 31
0.0
  0
LINE
  5
2F5
330
6F
100
AcDbEntity
  8
_0-D_寸法3
  6
Continuous
 62
     7
100
AcDbLine
 10
684.0000000000001
 20
415.7589879389516
 30
0.0
 11
672.4088900845312
 21
418.8648164801819
 31
0.0
  0
LINE
  5
2F6
330
6F
100
AcDbEntity
  8
_0-D_寸法3
  6
Continuous
 62
     7
100
AcDbLine
 10
498.000000001102
 20
415.7589879389516
 30
0.0
 11
684.0000000000001
 21
415.7589879389516
 31
0.0
  0
TEXT
  5
2F7
330
6F
100
AcDbEntity
  8
_0-D_寸法3
 62
     7
100
AcDbText
 10
582.0000000000001
 20
415.7589879389516
 30
0.0
 40
18.0
  1
93
 41
0.7
100
AcDbText
  0
LINE
  5
2F8
330
6F
100
AcDbEntity
  8
_0-D_寸法3
  6
Continuous
 62
     7
100
AcDbLine
 10
684.0000000000001
 20
415.7589879389516
 30
0.0
 11
695.5911099154689
 21
418.8648164801817
 31
0.0
  0
LINE
  5
2F9
330
6F
100
AcDbEntity
  8
_0-D_寸法3
  6
Continuous
 62
     7
100
AcDbLine
 10
684.0000000000001
 20
415.7589879389516
 30
0.0
 11
695.5911099154689
 21
412.6531593977212
 31
0.0
  0
LINE
  5
2FA
330
6F
100
AcDbEntity
  8
_0-D_寸法3
  6
Continuous
 62
     7
100
AcDbLine
 10
744.0
 20
415.7589879389516
 30
0.0
 11
732.4088900845311
 21
412.6531593977214
 31
0.0
  0
LINE
  5
2FB
330
6F
100
AcDbEntity
  8
_0-D_寸法3
  6
Continuous
 62
     7
100
AcDbLine
 10
744.0
 20
415.7589879389516
 30
0.0
 11
732.4088900845311
 21
418.8648164801819
 31
0.0
  0
LINE
  5
2FC
330
6F
100
AcDbEntity
  8
_0-D_寸法3
  6
Continuous
 62
     7
100
AcDbLine
 10
684.0000000000001
 20
415.7589879389516
 30
0.0
 11
744.0
 21
415.7589879389516
 31
0.0
  0
TEXT
  5
2FD
330
6F
100
AcDbEntity
  8
_0-D_寸法3
 62
     7
100
AcDbText
 10
705.0
 20
415.7589879389516
 30
0.0
 40
18.0
  1
30
 41
0.7
100
AcDbText
  0
LINE
  5
2FE
330
6F
100
AcDbEntity
  8
_0-1_計細線
  6
Continuous
 62
     3
100
AcDbLine
 10
437.5235484936836
 20
650.1667310990707
 30
0.0
 11
439.523548493684
 21
653.6308327142081
 31
0.0
  0
LINE
  5
2FF
330
6F
100
AcDbEntity
  8
_0-1_計細線
  6
Continuous
 62
     3
100
AcDbLine
 10
439.523548493684
 20
653.6308327142081
 30
0.0
 11
443.5235484936836
 21
653.6308327142081
 31
0.0
  0
LINE
  5
300
330
6F
100
AcDbEntity
  8
_0-1_計細線
  6
Continuous
 62
     3
100
AcDbLine
 10
443.5235484936836
 20
653.6308327142081
 30
0.0
 11
445.523548493684
 21
650.1667310990707
 31
0.0
  0
LINE
  5
301
330
6F
100
AcDbEntity
  8
_0-1_計細線
  6
Continuous
 62
     3
100
AcDbLine
 10
445.523548493684
 20
650.1667310990707
 30
0.0
 11
443.5235484936836
 21
646.7026294839326
 31
0.0
  0
LINE
  5
302
330
6F
100
AcDbEntity
  8
_0-1_計細線
  6
Continuous
 62
     3
100
AcDbLine
 10
443.5235484936836
 20
646.7026294839326
 30
0.0
 11
439.523548493684
 21
646.7026294839326
 31
0.0
  0
LINE
  5
303
330
6F
100
AcDbEntity
  8
_0-1_計細線
  6
Continuous
 62
     3
100
AcDbLine
 10
439.523548493684
 20
646.7026294839326
 30
0.0
 11
437.5235484936836
 21
650.1667310990707
 31
0.0
  0
CIRCLE
  5
304
330
6F
100
AcDbEntity
  8
_0-1_計細線
  6
Continuous
 62
     3
100
AcDbCircle
 10
441.5235484936839
 20
650.1667310990707
 30
0.0
 40
6.499999999999998
  0
CIRCLE
  5
305
330
6F
100
AcDbEntity
  8
_0-0_計極細
  6
Continuous
 62
     2
100
AcDbCircle
 10
441.5235484936839
 20
650.1667310990707
 30
0.0
 40
2.0
  0
LINE
  5
306
330
6F
100
AcDbEntity
  8
_0-1_計細線
  6
Continuous
 62
     3
100
AcDbLine
 10
537.5235484936836
 20
650.1667310990707
 30
0.0
 11
539.5235484936839
 21
653.6308327142081
 31
0.0
  0
LINE
  5
307
330
6F
100
AcDbEntity
  8
_0-1_計細線
  6
Continuous
 62
     3
100
AcDbLine
 10
539.5235484936839
 20
653.6308327142081
 30
0.0
 11
543.5235484936836
 21
653.6308327142081
 31
0.0
  0
LINE
  5
308
330
6F
100
AcDbEntity
  8
_0-1_計細線
  6
Continuous
 62
     3
100
AcDbLine
 10
543.5235484936836
 20
653.6308327142081
 30
0.0
 11
545.523548493684
 21
650.1667310990707
 31
0.0
  0
LINE
  5
309
330
6F
100
AcDbEntity
  8
_0-1_計細線
  6
Continuous
 62
     3
100
AcDbLine
 10
545.523548493684
 20
650.1667310990707
 30
0.0
 11
543.5235484936836
 21
646.7026294839326
 31
0.0
  0
LINE
  5
30A
330
6F
100
AcDbEntity
  8
_0-1_計細線
  6
Continuous
 62
     3
100
AcDbLine
 10
543.5235484936836
 20
646.7026294839326
 30
0.0
 11
539.5235484936839
 21
646.7026294839326
 31
0.0
  0
LINE
  5
30B
330
6F
100
AcDbEntity
  8
_0-1_計細線
  6
Continuous
 62
     3
100
AcDbLine
 10
539.5235484936839
 20
646.7026294839326
 30
0.0
 11
537.5235484936836
 21
650.1667310990707
 31
0.0
  0
CIRCLE
  5
30C
330
6F
100
AcDbEntity
  8
_0-1_計細線
  6
Continuous
 62
     3
100
AcDbCircle
 10
541.523548493684
 20
650.1667310990707
 30
0.0
 40
6.499999999999998
  0
CIRCLE
  5
30D
330
6F
100
AcDbEntity
  8
_0-0_計極細
  6
Continuous
 62
     2
100
AcDbCircle
 10
541.523548493684
 20
650.1667310990707
 30
0.0
 40
2.0
  0
LINE
  5
30E
330
6F
100
AcDbEntity
  8
_0-1_計細線
  6
Continuous
 62
     3
100
AcDbLine
 10
637.5235484936836
 20
650.1667310990707
 30
0.0
 11
639.5235484936839
 21
653.6308327142081
 31
0.0
  0
LINE
  5
30F
330
6F
100
AcDbEntity
  8
_0-1_計細線
  6
Continuous
 62
     3
100
AcDbLine
 10
639.5235484936839
 20
653.6308327142081
 30
0.0
 11
643.5235484936836
 21
653.6308327142081
 31
0.0
  0
LINE
  5
310
330
6F
100
AcDbEntity
  8
_0-1_計細線
  6
Continuous
 62
     3
100
AcDbLine
 10
643.5235484936836
 20
653.6308327142081
 30
0.0
 11
645.523548493684
 21
650.1667310990707
 31
0.0
  0
LINE
  5
311
330
6F
100
AcDbEntity
  8
_0-1_計細線
  6
Continuous
 62
     3
100
AcDbLine
 10
645.523548493684
 20
650.1667310990707
 30
0.0
 11
643.5235484936836
 21
646.7026294839326
 31
0.0
  0
LINE
  5
312
330
6F
100
AcDbEntity
  8
_0-1_計細線
  6
Continuous
 62
     3
100
AcDbLine
 10
643.5235484936836
 20
646.7026294839326
 30
0.0
 11
639.5235484936839
 21
646.7026294839326
 31
0.0
  0
LINE
  5
313
330
6F
100
AcDbEntity
  8
_0-1_計細線
  6
Continuous
 62
     3
100
AcDbLine
 10
639.5235484936839
 20
646.7026294839326
 30
0.0
 11
637.5235484936836
 21
650.1667310990707
 31
0.0
  0
CIRCLE
  5
314
330
6F
100
AcDbEntity
  8
_0-1_計細線
  6
Continuous
 62
     3
100
AcDbCircle
 10
641.5235484936838
 20
650.1667310990707
 30
0.0
 40
6.499999999999998
  0
CIRCLE
  5
315
330
6F
100
AcDbEntity
  8
_0-0_計極細
  6
Continuous
 62
     2
100
AcDbCircle
 10
641.5235484936838
 20
650.1667310990707
 30
0.0
 40
2.0
  0
LINE
  5
316
330
6F
100
AcDbEntity
  8
_0-1_計細線
  6
Continuous
 62
     3
100
AcDbLine
 10
737.5235484936835
 20
650.1667310990707
 30
0.0
 11
739.5235484936839
 21
653.6308327142081
 31
0.0
  0
LINE
  5
317
330
6F
100
AcDbEntity
  8
_0-1_計細線
  6
Continuous
 62
     3
100
AcDbLine
 10
739.5235484936839
 20
653.6308327142081
 30
0.0
 11
743.5235484936835
 21
653.6308327142081
 31
0.0
  0
LINE
  5
318
330
6F
100
AcDbEntity
  8
_0-1_計細線
  6
Continuous
 62
     3
100
AcDbLine
 10
743.5235484936835
 20
653.6308327142081
 30
0.0
 11
745.523548493684
 21
650.1667310990707
 31
0.0
  0
LINE
  5
319
330
6F
100
AcDbEntity
  8
_0-1_計細線
  6
Continuous
 62
     3
100
AcDbLine
 10
745.523548493684
 20
650.1667310990707
 30
0.0
 11
743.5235484936835
 21
646.7026294839326
 31
0.0
  0
LINE
  5
31A
330
6F
100
AcDbEntity
  8
_0-1_計細線
  6
Continuous
 62
     3
100
AcDbLine
 10
743.5235484936835
 20
646.7026294839326
 30
0.0
 11
739.5235484936839
 21
646.7026294839326
 31
0.0
  0
LINE
  5
31B
330
6F
100
AcDbEntity
  8
_0-1_計細線
  6
Continuous
 62
     3
100
AcDbLine
 10
739.5235484936839
 20
646.7026294839326
 30
0.0
 11
737.5235484936835
 21
650.1667310990707
 31
0.0
  0
CIRCLE
  5
31C
330
6F
100
AcDbEntity
  8
_0-1_計細線
  6
Continuous
 62
     3
100
AcDbCircle
 10
741.523548493684
 20
650.1667310990707
 30
0.0
 40
6.499999999999998
  0
CIRCLE
  5
31D
330
6F
100
AcDbEntity
  8
_0-0_計極細
  6
Continuous
 62
     2
100
AcDbCircle
 10
741.523548493684
 20
650.1667310990707
 30
0.0
 40
2.0
  0
LINE
  5
31E
330
6F
100
AcDbEntity
  8
_0-1_計細線
  6
Continuous
 62
     3
100
AcDbLine
 10
837.5235484936835
 20
650.1667310990707
 30
0.0
 11
839.523548493684
 21
653.6308327142081
 31
0.0
  0
LINE
  5
31F
330
6F
100
AcDbEntity
  8
_0-1_計細線
  6
Continuous
 62
     3
100
AcDbLine
 10
839.523548493684
 20
653.6308327142081
 30
0.0
 11
843.5235484936836
 21
653.6308327142081
 31
0.0
  0
LINE
  5
320
330
6F
100
AcDbEntity
  8
_0-1_計細線
  6
Continuous
 62
     3
100
AcDbLine
 10
843.5235484936836
 20
653.6308327142081
 30
0.0
 11
845.5235484936839
 21
650.1667310990707
 31
0.0
  0
LINE
  5
321
330
6F
100
AcDbEntity
  8
_0-1_計細線
  6
Continuous
 62
     3
100
AcDbLine
 10
845.5235484936839
 20
650.1667310990707
 30
0.0
 11
843.5235484936836
 21
646.7026294839326
 31
0.0
  0
LINE
  5
322
330
6F
100
AcDbEntity
  8
_0-1_計細線
  6
Continuous
 62
     3
100
AcDbLine
 10
843.5235484936836
 20
646.7026294839326
 30
0.0
 11
839.523548493684
 21
646.7026294839326
 31
0.0
  0
LINE
  5
323
330
6F
100
AcDbEntity
  8
_0-1_計細線
  6
Continuous
 62
     3
100
AcDbLine
 10
839.523548493684
 20
646.7026294839326
 30
0.0
 11
837.5235484936835
 21
650.1667310990707
 31
0.0
  0
CIRCLE
  5
324
330
6F
100
AcDbEntity
  8
_0-1_計細線
  6
Continuous
 62
     3
100
AcDbCircle
 10
841.523548493684
 20
650.1667310990707
 30
0.0
 40
6.499999999999998
  0
CIRCLE
  5
325
330
6F
100
AcDbEntity
  8
_0-0_計極細
  6
Continuous
 62
     2
100
AcDbCircle
 10
841.523548493684
 20
650.1667310990707
 30
0.0
 40
2.0
  0
LINE
  5
326
330
6F
100
AcDbEntity
  8
_0-1_計細線
  6
Continuous
 62
     3
100
AcDbLine
 10
937.5235484936835
 20
650.1667310990707
 30
0.0
 11
939.523548493684
 21
653.6308327142081
 31
0.0
  0
LINE
  5
327
330
6F
100
AcDbEntity
  8
_0-1_計細線
  6
Continuous
 62
     3
100
AcDbLine
 10
939.523548493684
 20
653.6308327142081
 30
0.0
 11
943.5235484936836
 21
653.6308327142081
 31
0.0
  0
LINE
  5
328
330
6F
100
AcDbEntity
  8
_0-1_計細線
  6
Continuous
 62
     3
100
AcDbLine
 10
943.5235484936836
 20
653.6308327142081
 30
0.0
 11
945.5235484936839
 21
650.1667310990707
 31
0.0
  0
LINE
  5
329
330
6F
100
AcDbEntity
  8
_0-1_計細線
  6
Continuous
 62
     3
100
AcDbLine
 10
945.5235484936839
 20
650.1667310990707
 30
0.0
 11
943.5235484936836
 21
646.7026294839326
 31
0.0
  0
LINE
  5
32A
330
6F
100
AcDbEntity
  8
_0-1_計細線
  6
Continuous
 62
     3
100
AcDbLine
 10
943.5235484936836
 20
646.7026294839326
 30
0.0
 11
939.523548493684
 21
646.7026294839326
 31
0.0
  0
LINE
  5
32B
330
6F
100
AcDbEntity
  8
_0-1_計細線
  6
Continuous
 62
     3
100
AcDbLine
 10
939.523548493684
 20
646.7026294839326
 30
0.0
 11
937.5235484936835
 21
650.1667310990707
 31
0.0
  0
CIRCLE
  5
32C
330
6F
100
AcDbEntity
  8
_0-1_計細線
  6
Continuous
 62
     3
100
AcDbCircle
 10
941.5235484936834
 20
650.1667310990707
 30
0.0
 40
6.499999999999998
  0
CIRCLE
  5
32D
330
6F
100
AcDbEntity
  8
_0-0_計極細
  6
Continuous
 62
     2
100
AcDbCircle
 10
941.5235484936834
 20
650.1667310990707
 30
0.0
 40
2.0
  0
LINE
  5
32E
330
6F
100
AcDbEntity
  8
_0-1_計細線
  6
Continuous
 62
     3
100
AcDbLine
 10
1037.523548493683
 20
650.1667310990707
 30
0.0
 11
1039.523548493684
 21
653.6308327142081
 31
0.0
  0
LINE
  5
32F
330
6F
100
AcDbEntity
  8
_0-1_計細線
  6
Continuous
 62
     3
100
AcDbLine
 10
1039.523548493684
 20
653.6308327142081
 30
0.0
 11
1043.523548493683
 21
653.6308327142081
 31
0.0
  0
LINE
  5
330
330
6F
100
AcDbEntity
  8
_0-1_計細線
  6
Continuous
 62
     3
100
AcDbLine
 10
1043.523548493683
 20
653.6308327142081
 30
0.0
 11
1045.523548493684
 21
650.1667310990707
 31
0.0
  0
LINE
  5
331
330
6F
100
AcDbEntity
  8
_0-1_計細線
  6
Continuous
 62
     3
100
AcDbLine
 10
1045.523548493684
 20
650.1667310990707
 30
0.0
 11
1043.523548493683
 21
646.7026294839326
 31
0.0
  0
LINE
  5
332
330
6F
100
AcDbEntity
  8
_0-1_計細線
  6
Continuous
 62
     3
100
AcDbLine
 10
1043.523548493683
 20
646.7026294839326
 30
0.0
 11
1039.523548493684
 21
646.7026294839326
 31
0.0
  0
LINE
  5
333
330
6F
100
AcDbEntity
  8
_0-1_計細線
  6
Continuous
 62
     3
100
AcDbLine
 10
1039.523548493684
 20
646.7026294839326
 30
0.0
 11
1037.523548493683
 21
650.1667310990707
 31
0.0
  0
CIRCLE
  5
334
330
6F
100
AcDbEntity
  8
_0-1_計細線
  6
Continuous
 62
     3
100
AcDbCircle
 10
1041.523548493684
 20
650.1667310990707
 30
0.0
 40
6.499999999999998
  0
CIRCLE
  5
335
330
6F
100
AcDbEntity
  8
_0-0_計極細
  6
Continuous
 62
     2
100
AcDbCircle
 10
1041.523548493684
 20
650.1667310990707
 30
0.0
 40
2.0
  0
LINE
  5
336
330
6F
100
AcDbEntity
  8
_0-1_計細線
  6
Continuous
 62
     3
100
AcDbLine
 10
1137.523548493683
 20
650.1667310990707
 30
0.0
 11
1139.523548493684
 21
653.6308327142081
 31
0.0
  0
LINE
  5
337
330
6F
100
AcDbEntity
  8
_0-1_計細線
  6
Continuous
 62
     3
100
AcDbLine
 10
1139.523548493684
 20
653.6308327142081
 30
0.0
 11
1143.523548493683
 21
653.6308327142081
 31
0.0
  0
LINE
  5
338
330
6F
100
AcDbEntity
  8
_0-1_計細線
  6
Continuous
 62
     3
100
AcDbLine
 10
1143.523548493683
 20
653.6308327142081
 30
0.0
 11
1145.523548493684
 21
650.1667310990707
 31
0.0
  0
LINE
  5
339
330
6F
100
AcDbEntity
  8
_0-1_計細線
  6
Continuous
 62
     3
100
AcDbLine
 10
1145.523548493684
 20
650.1667310990707
 30
0.0
 11
1143.523548493683
 21
646.7026294839326
 31
0.0
  0
LINE
  5
33A
330
6F
100
AcDbEntity
  8
_0-1_計細線
  6
Continuous
 62
     3
100
AcDbLine
 10
1143.523548493683
 20
646.7026294839326
 30
0.0
 11
1139.523548493684
 21
646.7026294839326
 31
0.0
  0
LINE
  5
33B
330
6F
100
AcDbEntity
  8
_0-1_計細線
  6
Continuous
 62
     3
100
AcDbLine
 10
1139.523548493684
 20
646.7026294839326
 30
0.0
 11
1137.523548493683
 21
650.1667310990707
 31
0.0
  0
CIRCLE
  5
33C
330
6F
100
AcDbEntity
  8
_0-1_計細線
  6
Continuous
 62
     3
100
AcDbCircle
 10
1141.523548493684
 20
650.1667310990707
 30
0.0
 40
6.499999999999998
  0
CIRCLE
  5
33D
330
6F
100
AcDbEntity
  8
_0-0_計極細
  6
Continuous
 62
     2
100
AcDbCircle
 10
1141.523548493684
 20
650.1667310990707
 30
0.0
 40
2.0
  0
LINE
  5
33E
330
6F
100
AcDbEntity
  8
_0-1_計細線
  6
Continuous
 62
     3
100
AcDbLine
 10
1237.523548493683
 20
650.1667310990707
 30
0.0
 11
1239.523548493684
 21
653.6308327142081
 31
0.0
  0
LINE
  5
33F
330
6F
100
AcDbEntity
  8
_0-1_計細線
  6
Continuous
 62
     3
100
AcDbLine
 10
1239.523548493684
 20
653.6308327142081
 30
0.0
 11
1243.523548493683
 21
653.6308327142081
 31
0.0
  0
LINE
  5
340
330
6F
100
AcDbEntity
  8
_0-1_計細線
  6
Continuous
 62
     3
100
AcDbLine
 10
1243.523548493683
 20
653.6308327142081
 30
0.0
 11
1245.523548493684
 21
650.1667310990707
 31
0.0
  0
LINE
  5
341
330
6F
100
AcDbEntity
  8
_0-1_計細線
  6
Continuous
 62
     3
100
AcDbLine
 10
1245.523548493684
 20
650.1667310990707
 30
0.0
 11
1243.523548493683
 21
646.7026294839326
 31
0.0
  0
LINE
  5
342
330
6F
100
AcDbEntity
  8
_0-1_計細線
  6
Continuous
 62
     3
100
AcDbLine
 10
1243.523548493683
 20
646.7026294839326
 30
0.0
 11
1239.523548493684
 21
646.7026294839326
 31
0.0
  0
LINE
  5
343
330
6F
100
AcDbEntity
  8
_0-1_計細線
  6
Continuous
 62
     3
100
AcDbLine
 10
1239.523548493684
 20
646.7026294839326
 30
0.0
 11
1237.523548493683
 21
650.1667310990707
 31
0.0
  0
CIRCLE
  5
344
330
6F
100
AcDbEntity
  8
_0-1_計細線
  6
Continuous
 62
     3
100
AcDbCircle
 10
1241.523548493684
 20
650.1667310990707
 30
0.0
 40
6.499999999999998
  0
CIRCLE
  5
345
330
6F
100
AcDbEntity
  8
_0-0_計極細
  6
Continuous
 62
     2
100
AcDbCircle
 10
1241.523548493684
 20
650.1667310990707
 30
0.0
 40
2.0
  0
LINE
  5
346
330
6F
100
AcDbEntity
  8
_0-1_計細線
  6
Continuous
 62
     3
100
AcDbLine
 10
1337.523548493683
 20
650.1667310990707
 30
0.0
 11
1339.523548493684
 21
653.6308327142081
 31
0.0
  0
LINE
  5
347
330
6F
100
AcDbEntity
  8
_0-1_計細線
  6
Continuous
 62
     3
100
AcDbLine
 10
1339.523548493684
 20
653.6308327142081
 30
0.0
 11
1343.523548493683
 21
653.6308327142081
 31
0.0
  0
LINE
  5
348
330
6F
100
AcDbEntity
  8
_0-1_計細線
  6
Continuous
 62
     3
100
AcDbLine
 10
1343.523548493683
 20
653.6308327142081
 30
0.0
 11
1345.523548493684
 21
650.1667310990707
 31
0.0
  0
LINE
  5
349
330
6F
100
AcDbEntity
  8
_0-1_計細線
  6
Continuous
 62
     3
100
AcDbLine
 10
1345.523548493684
 20
650.1667310990707
 30
0.0
 11
1343.523548493683
 21
646.7026294839326
 31
0.0
  0
LINE
  5
34A
330
6F
100
AcDbEntity
  8
_0-1_計細線
  6
Continuous
 62
     3
100
AcDbLine
 10
1343.523548493683
 20
646.7026294839326
 30
0.0
 11
1339.523548493684
 21
646.7026294839326
 31
0.0
  0
LINE
  5
34B
330
6F
100
AcDbEntity
  8
_0-1_計細線
  6
Continuous
 62
     3
100
AcDbLine
 10
1339.523548493684
 20
646.7026294839326
 30
0.0
 11
1337.523548493683
 21
650.1667310990707
 31
0.0
  0
CIRCLE
  5
34C
330
6F
100
AcDbEntity
  8
_0-1_計細線
  6
Continuous
 62
     3
100
AcDbCircle
 10
1341.523548493684
 20
650.1667310990707
 30
0.0
 40
6.499999999999998
  0
CIRCLE
  5
34D
330
6F
100
AcDbEntity
  8
_0-0_計極細
  6
Continuous
 62
     2
100
AcDbCircle
 10
1341.523548493684
 20
650.1667310990707
 30
0.0
 40
2.0
  0
LINE
  5
34E
330
6F
100
AcDbEntity
  8
_0-5_寸法線
  6
Continuous
 62
     7
100
AcDbLine
 10
392.0235484936839
 20
967.2749159667592
 30
0.0
 11
392.0235484936841
 21
1063.274915966759
 31
0.0
  0
LINE
  5
34F
330
6F
100
AcDbEntity
  8
_0-5_寸法線
  6
Continuous
 62
     7
100
AcDbLine
 10
392.0235484936841
 20
1057.274915966759
 30
0.0
 11
403.6146584091529
 21
1060.380744507989
 31
0.0
  0
LINE
  5
350
330
6F
100
AcDbEntity
  8
_0-5_寸法線
  6
Continuous
 62
     7
100
AcDbLine
 10
392.0235484936841
 20
1057.274915966759
 30
0.0
 11
403.6146584091529
 21
1054.169087425529
 31
0.0
  0
LINE
  5
351
330
6F
100
AcDbEntity
  8
_0-5_寸法線
  6
Continuous
 62
     7
100
AcDbLine
 10
1391.023548493684
 20
967.2749159667592
 30
0.0
 11
1391.023548493684
 21
1063.274915966759
 31
0.0
  0
LINE
  5
352
330
6F
100
AcDbEntity
  8
_0-5_寸法線
  6
Continuous
 62
     7
100
AcDbLine
 10
1391.023548493684
 20
1057.274915966759
 30
0.0
 11
1379.432438578215
 21
1054.169087425529
 31
0.0
  0
LINE
  5
353
330
6F
100
AcDbEntity
  8
_0-5_寸法線
  6
Continuous
 62
     7
100
AcDbLine
 10
1391.023548493684
 20
1057.274915966759
 30
0.0
 11
1379.432438578215
 21
1060.380744507989
 31
0.0
  0
LINE
  5
354
330
6F
100
AcDbEntity
  8
_0-5_寸法線
  6
Continuous
 62
     7
100
AcDbLine
 10
392.0235484936841
 20
1057.274915966759
 30
0.0
 11
1391.023548493684
 21
1057.274915966759
 31
0.0
  0
TEXT
  5
355
330
6F
100
AcDbEntity
  8
_0-5_寸法線
 62
     7
100
AcDbText
 10
878.0235484936843
 20
1057.274915966759
 30
0.0
 40
18.0
  1
999
 41
0.7
100
AcDbText
  0
LINE
  5
356
330
6F
100
AcDbEntity
  8
_0-5_寸法線
  6
Continuous
 62
     7
100
AcDbLine
 10
392.0235484936839
 20
967.2749159667592
 30
0.0
 11
392.023548493684
 21
1021.274915966759
 31
0.0
  0
LINE
  5
357
330
6F
100
AcDbEntity
  8
_0-5_寸法線
  6
Continuous
 62
     7
100
AcDbLine
 10
392.023548493684
 20
1015.274915966759
 30
0.0
 11
380.4324385782151
 21
1012.169087425529
 31
0.0
  0
LINE
  5
358
330
6F
100
AcDbEntity
  8
_0-5_寸法線
  6
Continuous
 62
     7
100
AcDbLine
 10
392.023548493684
 20
1015.274915966759
 30
0.0
 11
380.4324385782152
 21
1018.380744507989
 31
0.0
  0
LINE
  5
359
330
6F
100
AcDbEntity
  8
_0-5_寸法線
  6
Continuous
 62
     7
100
AcDbLine
 10
393.523548493684
 20
967.2749159667592
 30
0.0
 11
393.523548493684
 21
1021.274915966759
 31
0.0
  0
LINE
  5
35A
330
6F
100
AcDbEntity
  8
_0-5_寸法線
  6
Continuous
 62
     7
100
AcDbLine
 10
352.0827130011614
 20
1015.274915966759
 30
0.0
 11
393.523548493684
 21
1015.274915966759
 31
0.0
  0
TEXT
  5
35B
330
6F
100
AcDbEntity
  8
_0-5_寸法線
 62
     7
100
AcDbText
 10
352.0827130011614
 20
1015.084481869102
 30
0.0
 40
18.0
  1
1.5
 41
0.7
100
AcDbText
  0
LINE
  5
35C
330
6F
100
AcDbEntity
  8
_0-5_寸法線
  6
Continuous
 62
     7
100
AcDbLine
 10
393.523548493684
 20
1015.274915966759
 30
0.0
 11
405.1146584091528
 21
1018.380744507989
 31
0.0
  0
LINE
  5
35D
330
6F
100
AcDbEntity
  8
_0-5_寸法線
  6
Continuous
 62
     7
100
AcDbLine
 10
393.523548493684
 20
1015.274915966759
 30
0.0
 11
405.1146584091528
 21
1012.169087425529
 31
0.0
  0
LINE
  5
35E
330
6F
100
AcDbEntity
  8
_0-5_寸法線
  6
Continuous
 62
     7
100
AcDbLine
 10
1389.523548493684
 20
967.2749159667592
 30
0.0
 11
1389.523548493684
 21
1021.274915966759
 31
0.0
  0
LINE
  5
35F
330
6F
100
AcDbEntity
  8
_0-5_寸法線
  6
Continuous
 62
     7
100
AcDbLine
 10
1389.523548493684
 20
1015.274915966759
 30
0.0
 11
1377.932438578215
 21
1012.169087425529
 31
0.0
  0
LINE
  5
360
330
6F
100
AcDbEntity
  8
_0-5_寸法線
  6
Continuous
 62
     7
100
AcDbLine
 10
1389.523548493684
 20
1015.274915966759
 30
0.0
 11
1377.932438578215
 21
1018.380744507989
 31
0.0
  0
LINE
  5
361
330
6F
100
AcDbEntity
  8
_0-5_寸法線
  6
Continuous
 62
     7
100
AcDbLine
 10
393.523548493684
 20
1015.274915966759
 30
0.0
 11
1389.523548493684
 21
1015.274915966759
 31
0.0
  0
TEXT
  5
362
330
6F
100
AcDbEntity
  8
_0-5_寸法線
 62
     7
100
AcDbText
 10
878.023548493684
 20
1015.274915966759
 30
0.0
 40
18.0
  1
996
 41
0.7
100
AcDbText
  0
LINE
  5
363
330
6F
100
AcDbEntity
  8
_0-5_寸法線
  6
Continuous
 62
     7
100
AcDbLine
 10
1391.023548493684
 20
967.2749159667592
 30
0.0
 11
1391.023548493684
 21
1021.274915966759
 31
0.0
  0
LINE
  5
364
330
6F
100
AcDbEntity
  8
_0-5_寸法線
  6
Continuous
 62
     7
100
AcDbLine
 10
1391.023548493684
 20
1015.274915966759
 30
0.0
 11
1402.614658409153
 21
1018.380744507989
 31
0.0
  0
LINE
  5
365
330
6F
100
AcDbEntity
  8
_0-5_寸法線
  6
Continuous
 62
     7
100
AcDbLine
 10
1391.023548493684
 20
1015.274915966759
 30
0.0
 11
1402.614658409153
 21
1012.169087425529
 31
0.0
  0
LINE
  5
366
330
6F
100
AcDbEntity
  8
_0-5_寸法線
  6
Continuous
 62
     7
100
AcDbLine
 10
1389.523548493684
 20
1015.274915966759
 30
0.0
 11
1428.393960053069
 21
1015.274915966759
 31
0.0
  0
TEXT
  5
367
330
6F
100
AcDbEntity
  8
_0-5_寸法線
 62
     7
100
AcDbText
 10
1401.393960053069
 20
1015.583634286555
 30
0.0
 40
18.0
  1
1.5
 41
0.7
100
AcDbText
  0
LINE
  5
368
330
6F
100
AcDbEntity
  8
_0-5_寸法線
  6
Continuous
 62
     7
100
AcDbLine
 10
332.0235484936834
 20
955.2749159667593
 30
0.0
 11
335.1293770349136
 21
943.6838060512904
 31
0.0
  0
LINE
  5
369
330
6F
100
AcDbEntity
  8
_0-5_寸法線
  6
Continuous
 62
     7
100
AcDbLine
 10
332.0235484936834
 20
955.2749159667593
 30
0.0
 11
328.917719952453
 21
943.6838060512904
 31
0.0
  0
LINE
  5
36A
330
6F
100
AcDbEntity
  8
_0-5_寸法線
  6
Continuous
 62
     7
100
AcDbLine
 10
380.0235484936839
 20
925.2749159667592
 30
0.0
 11
326.0235484936834
 21
925.2749159667592
 31
0.0
  0
LINE
  5
36B
330
6F
100
AcDbEntity
  8
_0-5_寸法線
  6
Continuous
 62
     7
100
AcDbLine
 10
332.0235484936834
 20
925.2749159667592
 30
0.0
 11
328.9177199524532
 21
936.8660258822279
 31
0.0
  0
LINE
  5
36C
330
6F
100
AcDbEntity
  8
_0-5_寸法線
  6
Continuous
 62
     7
100
AcDbLine
 10
332.0235484936834
 20
925.2749159667592
 30
0.0
 11
335.1293770349137
 21
936.8660258822279
 31
0.0
  0
LINE
  5
36D
330
6F
100
AcDbEntity
  8
_0-5_寸法線
  6
Continuous
 62
     7
100
AcDbLine
 10
332.0235484936834
 20
955.2749159667593
 30
0.0
 11
332.0235484936834
 21
925.2749159667592
 31
0.0
  0
TEXT
  5
36E
330
6F
100
AcDbEntity
  8
_0-5_寸法線
 62
     7
100
AcDbText
 10
332.0235484936834
 20
931.2749159667593
 30
0.0
 40
18.0
  1
30
 50
90.0
 41
0.7
100
AcDbText
  0
LINE
  5
36F
330
6F
100
AcDbEntity
  8
_0-5_寸法線
  6
Continuous
 62
     7
100
AcDbLine
 10
332.0235484936834
 20
925.2749159667592
 30
0.0
 11
335.1293770349136
 21
913.6838060512902
 31
0.0
  0
LINE
  5
370
330
6F
100
AcDbEntity
  8
_0-5_寸法線
  6
Continuous
 62
     7
100
AcDbLine
 10
332.0235484936834
 20
925.2749159667592
 30
0.0
 11
328.917719952453
 21
913.6838060512902
 31
0.0
  0
LINE
  5
371
330
6F
100
AcDbEntity
  8
_0-5_寸法線
  6
Continuous
 62
     7
100
AcDbLine
 10
380.0235484936839
 20
832.2749159667591
 30
0.0
 11
326.0235484936834
 21
832.2749159667591
 31
0.0
  0
LINE
  5
372
330
6F
100
AcDbEntity
  8
_0-5_寸法線
  6
Continuous
 62
     7
100
AcDbLine
 10
332.0235484936834
 20
832.2749159667591
 30
0.0
 11
328.9177199524532
 21
843.8660258822279
 31
0.0
  0
LINE
  5
373
330
6F
100
AcDbEntity
  8
_0-5_寸法線
  6
Continuous
 62
     7
100
AcDbLine
 10
332.0235484936834
 20
832.2749159667591
 30
0.0
 11
335.1293770349137
 21
843.8660258822279
 31
0.0
  0
LINE
  5
374
330
6F
100
AcDbEntity
  8
_0-5_寸法線
  6
Continuous
 62
     7
100
AcDbLine
 10
332.0235484936834
 20
925.2749159667592
 30
0.0
 11
332.0235484936834
 21
832.2749159667591
 31
0.0
  0
TEXT
  5
375
330
6F
100
AcDbEntity
  8
_0-5_寸法線
 62
     7
100
AcDbText
 10
332.0235484936834
 20
869.7749159667591
 30
0.0
 40
18.0
  1
93
 50
90.0
 41
0.7
100
AcDbText
  0
LINE
  5
376
330
6F
100
AcDbEntity
  8
_0-5_寸法線
  6
Continuous
 62
     7
100
AcDbLine
 10
332.0235484936834
 20
832.2749159667591
 30
0.0
 11
335.1293770349136
 21
820.6838060512902
 31
0.0
  0
LINE
  5
377
330
6F
100
AcDbEntity
  8
_0-5_寸法線
  6
Continuous
 62
     7
100
AcDbLine
 10
332.0235484936834
 20
832.2749159667591
 30
0.0
 11
328.917719952453
 21
820.6838060512902
 31
0.0
  0
LINE
  5
378
330
6F
100
AcDbEntity
  8
_0-5_寸法線
  6
Continuous
 62
     7
100
AcDbLine
 10
332.0235484936834
 20
802.274915966759
 30
0.0
 11
328.9177199524532
 21
813.866025882228
 31
0.0
  0
LINE
  5
379
330
6F
100
AcDbEntity
  8
_0-5_寸法線
  6
Continuous
 62
     7
100
AcDbLine
 10
332.0235484936834
 20
802.274915966759
 30
0.0
 11
335.1293770349137
 21
813.866025882228
 31
0.0
  0
LINE
  5
37A
330
6F
100
AcDbEntity
  8
_0-5_寸法線
  6
Continuous
 62
     7
100
AcDbLine
 10
332.0235484936834
 20
832.2749159667591
 30
0.0
 11
332.0235484936834
 21
802.274915966759
 31
0.0
  0
TEXT
  5
37B
330
6F
100
AcDbEntity
  8
_0-5_寸法線
 62
     7
100
AcDbText
 10
332.0235484936834
 20
808.274915966759
 30
0.0
 40
18.0
  1
30
 50
90.0
 41
0.7
100
AcDbText
  0
LINE
  5
37C
330
6F
100
AcDbEntity
  8
_0-5_寸法線
  6
Continuous
 62
     7
100
AcDbLine
 10
392.023548493684
 20
673.3667310990709
 30
0.0
 11
392.0235484936844
 21
727.3667310990707
 31
0.0
  0
LINE
  5
37D
330
6F
100
AcDbEntity
  8
_0-5_寸法線
  6
Continuous
 62
     7
100
AcDbLine
 10
392.0235484936843
 20
721.3667310990707
 30
0.0
 11
403.614658409153
 21
724.472559640301
 31
0.0
  0
LINE
  5
37E
330
6F
100
AcDbEntity
  8
_0-5_寸法線
  6
Continuous
 62
     7
100
AcDbLine
 10
392.0235484936843
 20
721.3667310990707
 30
0.0
 11
403.614658409153
 21
718.2609025578406
 31
0.0
  0
LINE
  5
37F
330
6F
100
AcDbEntity
  8
_0-5_寸法線
  6
Continuous
 62
     7
100
AcDbLine
 10
441.523548493684
 20
673.3667310990709
 30
0.0
 11
441.5235484936843
 21
727.3667310990707
 31
0.0
  0
LINE
  5
380
330
6F
100
AcDbEntity
  8
_0-5_寸法線
  6
Continuous
 62
     7
100
AcDbLine
 10
441.5235484936842
 20
721.3667310990707
 30
0.0
 11
429.9324385782154
 21
718.2609025578407
 31
0.0
  0
LINE
  5
381
330
6F
100
AcDbEntity
  8
_0-5_寸法線
  6
Continuous
 62
     7
100
AcDbLine
 10
441.5235484936842
 20
721.3667310990707
 30
0.0
 11
429.9324385782155
 21
724.472559640301
 31
0.0
  0
LINE
  5
382
330
6F
100
AcDbEntity
  8
_0-5_寸法線
  6
Continuous
 62
     7
100
AcDbLine
 10
392.0235484936843
 20
721.3667310990707
 30
0.0
 11
441.5235484936842
 21
721.3667310990707
 31
0.0
  0
TEXT
  5
383
330
6F
100
AcDbEntity
  8
_0-5_寸法線
 62
     7
100
AcDbText
 10
398.7735484936843
 20
721.3667310990707
 30
0.0
 40
18.0
  1
49.5
 41
0.7
100
AcDbText
  0
LINE
  5
384
330
6F
100
AcDbEntity
  8
_0-5_寸法線
  6
Continuous
 62
     7
100
AcDbLine
 10
441.5235484936842
 20
721.3667310990707
 30
0.0
 11
453.1146584091532
 21
724.472559640301
 31
0.0
  0
LINE
  5
385
330
6F
100
AcDbEntity
  8
_0-5_寸法線
  6
Continuous
 62
     7
100
AcDbLine
 10
441.5235484936842
 20
721.3667310990707
 30
0.0
 11
453.114658409153
 21
718.2609025578406
 31
0.0
  0
LINE
  5
386
330
6F
100
AcDbEntity
  8
_0-5_寸法線
  6
Continuous
 62
     7
100
AcDbLine
 10
1341.523548493684
 20
673.3667310990709
 30
0.0
 11
1341.523548493684
 21
727.3667310990707
 31
0.0
  0
LINE
  5
387
330
6F
100
AcDbEntity
  8
_0-5_寸法線
  6
Continuous
 62
     7
100
AcDbLine
 10
1341.523548493684
 20
721.3667310990707
 30
0.0
 11
1329.932438578215
 21
718.2609025578407
 31
0.0
  0
LINE
  5
388
330
6F
100
AcDbEntity
  8
_0-5_寸法線
  6
Continuous
 62
     7
100
AcDbLine
 10
1341.523548493684
 20
721.3667310990707
 30
0.0
 11
1329.932438578215
 21
724.472559640301
 31
0.0
  0
LINE
  5
389
330
6F
100
AcDbEntity
  8
_0-5_寸法線
  6
Continuous
 62
     7
100
AcDbLine
 10
441.5235484936842
 20
721.3667310990707
 30
0.0
 11
1341.523548493684
 21
721.3667310990707
 31
0.0
  0
TEXT
  5
38A
330
6F
100
AcDbEntity
  8
_0-5_寸法線
 62
     7
100
AcDbText
 10
851.0235484936838
 20
721.3667310990707
 30
0.0
 40
18.0
  1
9@100=900
 41
0.7
100
AcDbText
  0
LINE
  5
38B
330
6F
100
AcDbEntity
  8
_0-5_寸法線
  6
Continuous
 62
     7
100
AcDbLine
 10
1341.523548493684
 20
721.3667310990707
 30
0.0
 11
1353.114658409153
 21
724.472559640301
 31
0.0
  0
LINE
  5
38C
330
6F
100
AcDbEntity
  8
_0-5_寸法線
  6
Continuous
 62
     7
100
AcDbLine
 10
1341.523548493684
 20
721.3667310990707
 30
0.0
 11
1353.114658409153
 21
718.2609025578406
 31
0.0
  0
LINE
  5
38D
330
6F
100
AcDbEntity
  8
_0-5_寸法線
  6
Continuous
 62
     7
100
AcDbLine
 10
1391.023548493684
 20
673.3667310990709
 30
0.0
 11
1391.023548493684
 21
727.3667310990707
 31
0.0
  0
LINE
  5
38E
330
6F
100
AcDbEntity
  8
_0-5_寸法線
  6
Continuous
 62
     7
100
AcDbLine
 10
1391.023548493684
 20
721.3667310990707
 30
0.0
 11
1379.432438578215
 21
718.2609025578407
 31
0.0
  0
LINE
  5
38F
330
6F
100
AcDbEntity
  8
_0-5_寸法線
  6
Continuous
 62
     7
100
AcDbLine
 10
1391.023548493684
 20
721.3667310990707
 30
0.0
 11
1379.432438578215
 21
724.472559640301
 31
0.0
  0
LINE
  5
390
330
6F
100
AcDbEntity
  8
_0-5_寸法線
  6
Continuous
 62
     7
100
AcDbLine
 10
1341.523548493684
 20
721.3667310990707
 30
0.0
 11
1391.023548493684
 21
721.3667310990707
 31
0.0
  0
TEXT
  5
391
330
6F
100
AcDbEntity
  8
_0-5_寸法線
 62
     7
100
AcDbText
 10
1348.273548493684
 20
721.3667310990707
 30
0.0
 40
18.0
  1
49.5
 41
0.7
100
AcDbText
  0
LINE
  5
392
330
6F
100
AcDbEntity
  8
_0-5_寸法線
  6
Continuous
 62
     7
100
AcDbLine
 10
392.0235484936837
 20
571.3667310990708
 30
0.0
 11
380.4324385782149
 21
568.2609025578407
 31
0.0
  0
LINE
  5
393
330
6F
100
AcDbEntity
  8
_0-5_寸法線
  6
Continuous
 62
     7
100
AcDbLine
 10
392.0235484936837
 20
571.3667310990708
 30
0.0
 11
380.4324385782149
 21
574.4725596403011
 31
0.0
  0
LINE
  5
394
330
6F
100
AcDbEntity
  8
_0-5_寸法線
  6
Continuous
 62
     7
100
AcDbLine
 10
408.5235484936839
 20
619.3667310990709
 30
0.0
 11
408.5235484936836
 21
565.3667310990709
 31
0.0
  0
LINE
  5
395
330
6F
100
AcDbEntity
  8
_0-5_寸法線
  6
Continuous
 62
     7
100
AcDbLine
 10
342.9031176297
 20
571.3667310990708
 30
0.0
 11
408.5235484936836
 21
571.3667310990708
 31
0.0
  0
TEXT
  5
396
330
6F
100
AcDbEntity
  8
_0-5_寸法線
 62
     7
100
AcDbText
 10
342.9031176297
 20
571.3667310990708
 30
0.0
 40
18.0
  1
16.5
 41
0.7
100
AcDbText
  0
LINE
  5
397
330
6F
100
AcDbEntity
  8
_0-5_寸法線
  6
Continuous
 62
     7
100
AcDbLine
 10
408.5235484936836
 20
571.3667310990708
 30
0.0
 11
420.1146584091524
 21
574.4725596403011
 31
0.0
  0
LINE
  5
398
330
6F
100
AcDbEntity
  8
_0-5_寸法線
  6
Continuous
 62
     7
100
AcDbLine
 10
408.5235484936836
 20
571.3667310990708
 30
0.0
 11
420.1146584091524
 21
568.2609025578406
 31
0.0
  0
LINE
  5
399
330
6F
100
AcDbEntity
  8
_0-5_寸法線
  6
Continuous
 62
     7
100
AcDbLine
 10
691.523548493684
 20
619.3667310990709
 30
0.0
 11
691.523548493684
 21
565.3667310990709
 31
0.0
  0
LINE
  5
39A
330
6F
100
AcDbEntity
  8
_0-5_寸法線
  6
Continuous
 62
     7
100
AcDbLine
 10
691.523548493684
 20
571.3667310990708
 30
0.0
 11
679.9324385782148
 21
568.2609025578407
 31
0.0
  0
LINE
  5
39B
330
6F
100
AcDbEntity
  8
_0-5_寸法線
  6
Continuous
 62
     7
100
AcDbLine
 10
691.523548493684
 20
571.3667310990708
 30
0.0
 11
679.9324385782148
 21
574.4725596403011
 31
0.0
  0
LINE
  5
39C
330
6F
100
AcDbEntity
  8
_0-5_寸法線
  6
Continuous
 62
     7
100
AcDbLine
 10
408.5235484936836
 20
571.3667310990708
 30
0.0
 11
691.523548493684
 21
571.3667310990708
 31
0.0
  0
TEXT
  5
39D
330
6F
100
AcDbEntity
  8
_0-5_寸法線
 62
     7
100
AcDbText
 10
536.5235484936841
 20
571.3667310990708
 30
0.0
 40
18.0
  1
283
 41
0.7
100
AcDbText
  0
LINE
  5
39E
330
6F
100
AcDbEntity
  8
_0-5_寸法線
  6
Continuous
 62
     7
100
AcDbLine
 10
691.523548493684
 20
571.3667310990708
 30
0.0
 11
703.1146584091525
 21
574.472559640301
 31
0.0
  0
LINE
  5
39F
330
6F
100
AcDbEntity
  8
_0-5_寸法線
  6
Continuous
 62
     7
100
AcDbLine
 10
691.523548493684
 20
571.3667310990708
 30
0.0
 11
703.1146584091525
 21
568.2609025578406
 31
0.0
  0
LINE
  5
3A0
330
6F
100
AcDbEntity
  8
_0-5_寸法線
  6
Continuous
 62
     7
100
AcDbLine
 10
1091.523548493684
 20
619.3667310990709
 30
0.0
 11
1091.523548493683
 21
565.3667310990709
 31
0.0
  0
LINE
  5
3A1
330
6F
100
AcDbEntity
  8
_0-5_寸法線
  6
Continuous
 62
     7
100
AcDbLine
 10
1091.523548493683
 20
571.3667310990708
 30
0.0
 11
1079.932438578214
 21
568.2609025578407
 31
0.0
  0
LINE
  5
3A2
330
6F
100
AcDbEntity
  8
_0-5_寸法線
  6
Continuous
 62
     7
100
AcDbLine
 10
1091.523548493683
 20
571.3667310990708
 30
0.0
 11
1079.932438578214
 21
574.4725596403011
 31
0.0
  0
LINE
  5
3A3
330
6F
100
AcDbEntity
  8
_0-5_寸法線
  6
Continuous
 62
     7
100
AcDbLine
 10
691.523548493684
 20
571.3667310990708
 30
0.0
 11
1091.523548493683
 21
571.3667310990708
 31
0.0
  0
TEXT
  5
3A4
330
6F
100
AcDbEntity
  8
_0-5_寸法線
 62
     7
100
AcDbText
 10
878.023548493684
 20
571.3667310990708
 30
0.0
 40
18.0
  1
400
 41
0.7
100
AcDbText
  0
LINE
  5
3A5
330
6F
100
AcDbEntity
  8
_0-5_寸法線
  6
Continuous
 62
     7
100
AcDbLine
 10
1091.523548493683
 20
571.3667310990708
 30
0.0
 11
1103.114658409152
 21
574.472559640301
 31
0.0
  0
LINE
  5
3A6
330
6F
100
AcDbEntity
  8
_0-5_寸法線
  6
Continuous
 62
     7
100
AcDbLine
 10
1091.523548493683
 20
571.3667310990708
 30
0.0
 11
1103.114658409152
 21
568.2609025578406
 31
0.0
  0
LINE
  5
3A7
330
6F
100
AcDbEntity
  8
_0-5_寸法線
  6
Continuous
 62
     7
100
AcDbLine
 10
1374.523548493684
 20
619.3667310990709
 30
0.0
 11
1374.523548493683
 21
565.3667310990709
 31
0.0
  0
LINE
  5
3A8
330
6F
100
AcDbEntity
  8
_0-5_寸法線
  6
Continuous
 62
     7
100
AcDbLine
 10
1374.523548493683
 20
571.3667310990708
 30
0.0
 11
1362.932438578215
 21
568.2609025578407
 31
0.0
  0
LINE
  5
3A9
330
6F
100
AcDbEntity
  8
_0-5_寸法線
  6
Continuous
 62
     7
100
AcDbLine
 10
1374.523548493683
 20
571.3667310990708
 30
0.0
 11
1362.932438578215
 21
574.4725596403011
 31
0.0
  0
LINE
  5
3AA
330
6F
100
AcDbEntity
  8
_0-5_寸法線
  6
Continuous
 62
     7
100
AcDbLine
 10
1091.523548493683
 20
571.3667310990708
 30
0.0
 11
1374.523548493683
 21
571.3667310990708
 31
0.0
  0
TEXT
  5
3AB
330
6F
100
AcDbEntity
  8
_0-5_寸法線
 62
     7
100
AcDbText
 10
1219.523548493684
 20
571.3667310990708
 30
0.0
 40
18.0
  1
283
 41
0.7
100
AcDbText
  0
LINE
  5
3AC
330
6F
100
AcDbEntity
  8
_0-5_寸法線
  6
Continuous
 62
     7
100
AcDbLine
 10
1391.023548493683
 20
571.3667310990708
 30
0.0
 11
1402.614658409152
 21
574.472559640301
 31
0.0
  0
LINE
  5
3AD
330
6F
100
AcDbEntity
  8
_0-5_寸法線
  6
Continuous
 62
     7
100
AcDbLine
 10
1391.023548493683
 20
571.3667310990708
 30
0.0
 11
1402.614658409152
 21
568.2609025578406
 31
0.0
  0
LINE
  5
3AE
330
6F
100
AcDbEntity
  8
_0-5_寸法線
  6
Continuous
 62
     7
100
AcDbLine
 10
1374.523548493683
 20
571.3667310990708
 30
0.0
 11
1438.614658409152
 21
571.3667310990708
 31
0.0
  0
TEXT
  5
3AF
330
6F
100
AcDbEntity
  8
_0-5_寸法線
 62
     7
100
AcDbText
 10
1402.614658409152
 20
571.3667310990708
 30
0.0
 40
18.0
  1
16.5
 41
0.7
100
AcDbText
  0
LINE
  5
3B0
330
6F
100
AcDbEntity
  8
_0-5_寸法線
  6
Continuous
 62
     7
100
AcDbLine
 10
392.0235484936837
 20
619.3667310990709
 30
0.0
 11
392.0235484936826
 21
523.3667310990709
 31
0.0
  0
LINE
  5
3B1
330
6F
100
AcDbEntity
  8
_0-5_寸法線
  6
Continuous
 62
     7
100
AcDbLine
 10
392.0235484936826
 20
529.3667310990708
 30
0.0
 11
403.6146584091514
 21
532.4725596403011
 31
0.0
  0
LINE
  5
3B2
330
6F
100
AcDbEntity
  8
_0-5_寸法線
  6
Continuous
 62
     7
100
AcDbLine
 10
392.0235484936826
 20
529.3667310990708
 30
0.0
 11
403.6146584091514
 21
526.2609025578406
 31
0.0
  0
LINE
  5
3B3
330
6F
100
AcDbEntity
  8
_0-5_寸法線
  6
Continuous
 62
     7
100
AcDbLine
 10
1391.023548493683
 20
619.3667310990709
 30
0.0
 11
1391.023548493683
 21
523.3667310990709
 31
0.0
  0
LINE
  5
3B4
330
6F
100
AcDbEntity
  8
_0-5_寸法線
  6
Continuous
 62
     7
100
AcDbLine
 10
1391.023548493683
 20
529.3667310990708
 30
0.0
 11
1379.432438578214
 21
526.2609025578407
 31
0.0
  0
LINE
  5
3B5
330
6F
100
AcDbEntity
  8
_0-5_寸法線
  6
Continuous
 62
     7
100
AcDbLine
 10
1391.023548493683
 20
529.3667310990708
 30
0.0
 11
1379.432438578214
 21
532.4725596403011
 31
0.0
  0
LINE
  5
3B6
330
6F
100
AcDbEntity
  8
_0-5_寸法線
  6
Continuous
 62
     7
100
AcDbLine
 10
392.0235484936826
 20
529.3667310990708
 30
0.0
 11
1391.023548493683
 21
529.3667310990708
 31
0.0
  0
TEXT
  5
3B7
330
6F
100
AcDbEntity
  8
_0-5_寸法線
 62
     7
100
AcDbText
 10
878.0235484936827
 20
529.3667310990708
 30
0.0
 40
18.0
  1
999
 41
0.7
100
AcDbText
  0
LINE
  5
3B8
330
6F
100
AcDbEntity
  8
_0-D_寸法3
  6
Continuous
 62
     7
100
AcDbLine
 10
482.9999999891152
 20
263.7589434213494
 30
0.0
 11
482.9999999891138
 21
194.1052272623301
 31
0.0
  0
LINE
  5
3B9
330
6F
100
AcDbEntity
  8
_0-D_寸法3
  6
Continuous
 62
     7
100
AcDbLine
 10
482.9999999891138
 20
200.1052272623301
 30
0.0
 11
494.5911099045826
 21
203.2110558035604
 31
0.0
  0
LINE
  5
3BA
330
6F
100
AcDbEntity
  8
_0-D_寸法3
  6
Continuous
 62
     7
100
AcDbLine
 10
482.9999999891138
 20
200.1052272623301
 30
0.0
 11
494.5911099045826
 21
196.9993987210998
 31
0.0
  0
LINE
  5
3BB
330
6F
100
AcDbEntity
  8
_0-D_寸法3
  6
Continuous
 62
     7
100
AcDbLine
 10
698.9999999999996
 20
263.7589434213494
 30
0.0
 11
698.9999999999983
 21
194.1052272623301
 31
0.0
  0
LINE
  5
3BC
330
6F
100
AcDbEntity
  8
_0-D_寸法3
  6
Continuous
 62
     7
100
AcDbLine
 10
698.9999999999983
 20
200.1052272623301
 30
0.0
 11
687.4088900845296
 21
196.9993987210998
 31
0.0
  0
LINE
  5
3BD
330
6F
100
AcDbEntity
  8
_0-D_寸法3
  6
Continuous
 62
     7
100
AcDbLine
 10
698.9999999999983
 20
200.1052272623301
 30
0.0
 11
687.4088900845296
 21
203.2110558035604
 31
0.0
  0
LINE
  5
3BE
330
6F
100
AcDbEntity
  8
_0-D_寸法3
  6
Continuous
 62
     7
100
AcDbLine
 10
482.9999999891138
 20
200.1052272623301
 30
0.0
 11
698.9999999999983
 21
200.1052272623301
 31
0.0
  0
TEXT
  5
3BF
330
6F
100
AcDbEntity
  8
_0-D_寸法3
 62
     7
100
AcDbText
 10
577.4999999945564
 20
200.1052272623301
 30
0.0
 40
18.0
  1
108
 41
0.7
100
AcDbText
  0
LINE
  5
3C0
330
6F
100
AcDbEntity
  8
_0-5_寸法線
  6
Continuous
 62
     7
100
AcDbLine
 10
380.0235484936839
 20
955.2749159667593
 30
0.0
 11
284.0235484936832
 21
955.2749159667593
 31
0.0
  0
LINE
  5
3C1
330
6F
100
AcDbEntity
  8
_0-5_寸法線
  6
Continuous
 62
     7
100
AcDbLine
 10
290.0235484936832
 20
955.2749159667593
 30
0.0
 11
293.1293770349135
 21
943.6838060512904
 31
0.0
  0
LINE
  5
3C2
330
6F
100
AcDbEntity
  8
_0-5_寸法線
  6
Continuous
 62
     7
100
AcDbLine
 10
290.0235484936832
 20
955.2749159667593
 30
0.0
 11
286.917719952453
 21
943.6838060512904
 31
0.0
  0
LINE
  5
3C3
330
6F
100
AcDbEntity
  8
_0-5_寸法線
  6
Continuous
 62
     7
100
AcDbLine
 10
380.0235484936839
 20
802.274915966759
 30
0.0
 11
284.0235484936833
 21
802.2749159667593
 31
0.0
  0
LINE
  5
3C4
330
6F
100
AcDbEntity
  8
_0-5_寸法線
  6
Continuous
 62
     7
100
AcDbLine
 10
290.0235484936833
 20
802.2749159667593
 30
0.0
 11
286.9177199524532
 21
813.866025882228
 31
0.0
  0
LINE
  5
3C5
330
6F
100
AcDbEntity
  8
_0-5_寸法線
  6
Continuous
 62
     7
100
AcDbLine
 10
290.0235484936833
 20
802.2749159667593
 30
0.0
 11
293.1293770349137
 21
813.866025882228
 31
0.0
  0
LINE
  5
3C6
330
6F
100
AcDbEntity
  8
_0-5_寸法線
  6
Continuous
 62
     7
100
AcDbLine
 10
290.0235484936832
 20
955.2749159667593
 30
0.0
 11
290.0235484936833
 21
802.2749159667593
 31
0.0
  0
TEXT
  5
3C7
330
6F
100
AcDbEntity
  8
_0-5_寸法線
 62
     7
100
AcDbText
 10
290.0235484936833
 20
865.2749159667592
 30
0.0
 40
18.0
  1
153
 50
90.0
 41
0.7
100
AcDbText
  0
LINE
  5
3C8
330
6F
100
AcDbEntity
  8
_0-5_寸法線
  6
Continuous
 62
     7
100
AcDbLine
 10
437.7682783018868
 20
835.5256891428577
 30
0.0
 11
433.472446922814
 21
824.3209654620807
 31
0.0
  0
LINE
  5
3C9
330
6F
100
AcDbEntity
  8
_0-5_寸法線
  6
Continuous
 62
     7
100
AcDbLine
 10
437.7682783018868
 20
835.5256891428577
 30
0.0
 11
428.4456173568468
 21
827.9700294824563
 31
0.0
  0
LINE
  5
3CA
330
6F
100
AcDbEntity
  8
_0-5_寸法線
  6
Continuous
 62
     7
100
AcDbLine
 10
437.7682783018868
 20
835.5256891428577
 30
0.0
 11
377.4017276187388
 21
752.3667310990707
 31
0.0
  0
LINE
  5
3CB
330
6F
100
AcDbEntity
  8
_0-5_寸法線
  6
Continuous
 62
     7
100
AcDbLine
 10
377.4017276187388
 20
752.3667310990707
 30
0.0
 11
256.6064361804365
 21
752.3667310990713
 31
0.0
  0
TEXT
  5
3CC
330
6F
100
AcDbEntity
  8
_0-5_寸法線
 62
     7
100
AcDbText
 10
259.0702611345741
 20
753.921320970495
 30
0.0
 40
18.0
  1
スペーサー(角型)
 41
0.7
100
AcDbText
  0
LINE
  5
3CD
330
6F
100
AcDbEntity
  8
_0-7_枠細線
  6
Continuous
 62
     5
100
AcDbLine
 10
261.3191793186656
 20
775.3439251910817
 30
0.0
 11
270.3191793186656
 21
793.3439251910818
 31
0.0
  0
LINE
  5
3CE
330
6F
100
AcDbEntity
  8
_0-7_枠細線
  6
Continuous
 62
     5
100
AcDbLine
 10
279.3191793186656
 20
775.3439251910817
 30
0.0
 11
261.3191793186656
 21
775.3439251910817
 31
0.0
  0
LINE
  5
3CF
330
6F
100
AcDbEntity
  8
_0-7_枠細線
  6
Continuous
 62
     5
100
AcDbLine
 10
270.3191793186656
 20
793.3439251910818
 30
0.0
 11
279.3191793186656
 21
775.3439251910817
 31
0.0
  0
TEXT
  5
3D0
330
6F
100
AcDbEntity
  8
_0-7_枠細線
 62
     5
100
AcDbText
 10
268.4592504740262
 20
775.937486227759
 30
0.0
 40
14.99999999999999
  1
1
 41
0.7
100
AcDbText
  0
ENDSEC
  0
SECTION
  2
OBJECTS
  0
DICTIONARY
  5
C
330
0
100
AcDbDictionary
281
     1
  3
ACAD_CIP_PREVIOUS_PRODUCT_INFO
350
3D2
  3
ACAD_COLOR
350
62
  3
ACAD_DETAILVIEWSTYLE
350
69
  3
ACAD_GROUP
350
D
  3
ACAD_LAYOUT
350
61
  3
ACAD_MATERIAL
350
10
  3
ACAD_MLEADERSTYLE
350
65
  3
ACAD_MLINESTYLE
350
5E
  3
ACAD_PLOTSETTINGS
350
60
  3
ACAD_PLOTSTYLENAME
350
E
  3
ACAD_SCALELIST
350
42
  3
ACAD_SECTIONVIEWSTYLE
350
67
  3
ACAD_TABLESTYLE
350
63
  3
ACAD_VISUALSTYLE
350
29
  3
ACDB_RECOMPOSE_DATA
350
463
  3
AcDbVariableDictionary
350
436
  3
AcDsDecomposeData
350
46A
  3
DWGPROPS
350
464
  0
DICTIONARY
  5
3F7
330
8
100
AcDbDictionary
280
     1
281
     1
  0
DICTIONARY
  5
44D
330
2
100
AcDbDictionary
280
     1
281
     1
  3
ACAD_LAYERSTATES
360
44E
  0
DICTIONARY
  5
3DA
330
54
100
AcDbDictionary
280
     1
281
     1
  3
ADSK_XREC_LAYER_RECONCILED
360
3DB
  0
DICTIONARY
  5
3DC
330
96
100
AcDbDictionary
280
     1
281
     1
  3
ADSK_XREC_LAYER_RECONCILED
360
3DD
  0
DICTIONARY
  5
3DE
330
97
100
AcDbDictionary
280
     1
281
     1
  3
ADSK_XREC_LAYER_RECONCILED
360
3DF
  0
DICTIONARY
  5
3E0
330
98
100
AcDbDictionary
280
     1
281
     1
  3
ADSK_XREC_LAYER_RECONCILED
360
3E1
  0
DICTIONARY
  5
3E2
330
99
100
AcDbDictionary
280
     1
281
     1
  3
ADSK_XREC_LAYER_RECONCILED
360
3E3
  0
DICTIONARY
  5
3E4
330
9A
100
AcDbDictionary
280
     1
281
     1
  3
ADSK_XREC_LAYER_RECONCILED
360
3E5
  0
DICTIONARY
  5
3E6
330
9B
100
AcDbDictionary
280
     1
281
     1
  3
ADSK_XREC_LAYER_RECONCILED
360
3E7
  0
DICTIONARY
  5
3E8
330
9C
100
AcDbDictionary
280
     1
281
     1
  3
ADSK_XREC_LAYER_RECONCILED
360
3E9
  0
DICTIONARY
  5
3EA
330
9D
100
AcDbDictionary
280
     1
281
     1
  3
ADSK_XREC_LAYER_RECONCILED
360
3EB
  0
DICTIONARY
  5
3EC
330
9E
100
AcDbDictionary
280
     1
281
     1
  3
ADSK_XREC_LAYER_RECONCILED
360
3ED
  0
DICTIONARY
  5
3EE
330
9F
100
AcDbDictionary
280
     1
281
     1
  3
ADSK_XREC_LAYER_RECONCILED
360
3EF
  0
DICTIONARY
  5
3F0
330
A0
100
AcDbDictionary
280
     1
281
     1
  3
ADSK_XREC_LAYER_RECONCILED
360
3F1
  0
XRECORD
  5
3D2
102
{ACAD_REACTORS
330
C
102
}
330
C
100
AcDbXrecord
280
     1
300
ACDLT
300
2014
300
ACDLT_F_S
  0
DICTIONARY
  5
62
102
{ACAD_REACTORS
330
C
102
}
330
C
100
AcDbDictionary
281
     1
  0
DICTIONARY
  5
69
102
{ACAD_REACTORS
330
C
102
}
330
C
100
AcDbDictionary
281
     1
  3
Imperial24
350
6A
  0
DICTIONARY
  5
D
102
{ACAD_REACTORS
330
C
102
}
330
C
100
AcDbDictionary
281
     1
  0
DICTIONARY
  5
61
102
{ACAD_REACTORS
330
C
102
}
330
C
100
AcDbDictionary
281
     1
  3
Model
350
72
  3
レイアウト1
350
6E
  0
DICTIONARY
  5
10
102
{ACAD_REACTORS
330
C
102
}
330
C
100
AcDbDictionary
281
     1
  3
ByBlock
350
19
  3
ByLayer
350
11
  3
Global
350
21
  0
DICTIONARY
  5
65
102
{ACAD_REACTORS
330
C
102
}
330
C
100
AcDbDictionary
281
     1
  3
Standard
350
66
  0
DICTIONARY
  5
5E
102
{ACAD_REACTORS
330
C
102
}
330
C
100
AcDbDictionary
281
     1
  3
Standard
350
5F
  0
DICTIONARY
  5
60
102
{ACAD_REACTORS
330
C
102
}
330
C
100
AcDbDictionary
281
     1
  0
ACDBDICTIONARYWDFLT
  5
E
102
{ACAD_REACTORS
330
C
102
}
330
C
100
AcDbDictionary
281
     1
  3
Normal
350
F
100
AcDbDictionaryWithDefault
340
F
  0
DICTIONARY
  5
42
102
{ACAD_REACTORS
330
C
102
}
330
C
100
AcDbDictionary
281
     1
  3
A0
350
43
  3
A1
350
44
  3
A2
350
45
  3
A3
350
46
  3
A4
350
47
  3
A5
350
48
  3
A6
350
49
  3
A7
350
4A
  3
A8
350
4B
  3
A9
350
4C
  3
B0
350
4D
  3
B1
350
4E
  3
B2
350
4F
  3
B3
350
50
  3
B4
350
51
  3
B5
350
52
  3
B6
350
53
  0
DICTIONARY
  5
67
102
{ACAD_REACTORS
330
C
102
}
330
C
100
AcDbDictionary
281
     1
  3
Imperial24
350
68
  0
DICTIONARY
  5
63
102
{ACAD_REACTORS
330
C
102
}
330
C
100
AcDbDictionary
281
     1
  3
Standard
350
64
  0
DICTIONARY
  5
29
102
{ACAD_REACTORS
330
C
102
}
330
C
100
AcDbDictionary
281
     1
  3
2dWireframe
350
2F
  3
Basic
350
2E
  3
Brighten
350
35
  3
ColorChange
350
39
  3
Conceptual
350
32
  3
Dim
350
34
  3
EdgeColorOff
350
41
  3
Facepattern
350
38
  3
Flat
350
2A
  3
FlatWithEdges
350
2B
  3
Gouraud
350
2C
  3
GouraudWithEdges
350
2D
  3
Hidden
350
31
  3
JitterOff
350
3F
  3
Linepattern
350
37
  3
OverhangOff
350
40
  3
Realistic
350
33
  3
Shaded
350
3E
  3
Shaded with edges
350
3D
  3
Shades of Gray
350
3A
  3
Sketchy
350
3B
  3
Thicken
350
36
  3
Wireframe
350
30
  3
X-Ray
350
3C
  0
XRECORD
  5
463
102
{ACAD_REACTORS
330
C
102
}
330
C
100
AcDbXrecord
280
     1
 90
        1
330
64
  0
DICTIONARY
  5
436
102
{ACAD_REACTORS
330
C
102
}
330
C
100
AcDbDictionary
281
     1
  3
CANNOSCALE
350
43B
  3
CMLEADERSTYLE
350
438
  3
CTABLESTYLE
350
437
  3
CVIEWDETAILSTYLE
350
439
  3
CVIEWSECTIONSTYLE
350
43A
  3
DIMASSOC
350
43E
  3
INDEXCTL
350
43D
  3
LAYEREVAL
350
45A
  3
LAYERNOTIFY
350
45B
  3
LIGHTINGUNITS
350
459
  3
MSLTSCALE
350
458
  3
SORTENTS
350
43C
  3
XCLIPFRAME
350
461
  0
DICTIONARY
  5
46A
102
{ACAD_REACTORS
330
C
102
}
330
C
100
AcDbDictionary
281
     1
  3
AcDsRecords
350
46C
  3
AcDsSchemas
350
46B
1001
ACAD
1070
     2
  0
XRECORD
  5
464
102
{ACAD_REACTORS
330
C
102
}
330
C
100
AcDbXrecord
280
     1
  1
DWGPROPS COOKIE
  2

  3

  4

  6

  7

  8
shima011
  9

300
=
301
=
302
=
303
=
304
=
305
=
306
=
307
=
308
=
309
=
 40
0.0060343402777778
 41
2459299.702407859
 42
2459303.448097164
  1

 90
        0
  0
DICTIONARY
  5
44E
102
{ACAD_REACTORS
330
44D
102
}
330
44D
100
AcDbDictionary
281
     1
  0
XRECORD
  5
3DB
102
{ACAD_REACTORS
330
3DA
102
}
330
3DA
100
AcDbXrecord
280
     1
290
     1
  0
XRECORD
  5
3DD
102
{ACAD_REACTORS
330
3DC
102
}
330
3DC
100
AcDbXrecord
280
     1
290
     1
  0
XRECORD
  5
3DF
102
{ACAD_REACTORS
330
3DE
102
}
330
3DE
100
AcDbXrecord
280
     1
290
     1
  0
XRECORD
  5
3E1
102
{ACAD_REACTORS
330
3E0
102
}
330
3E0
100
AcDbXrecord
280
     1
290
     1
  0
XRECORD
  5
3E3
102
{ACAD_REACTORS
330
3E2
102
}
330
3E2
100
AcDbXrecord
280
     1
290
     1
  0
XRECORD
  5
3E5
102
{ACAD_REACTORS
330
3E4
102
}
330
3E4
100
AcDbXrecord
280
     1
290
     1
  0
XRECORD
  5
3E7
102
{ACAD_REACTORS
330
3E6
102
}
330
3E6
100
AcDbXrecord
280
     1
290
     1
  0
XRECORD
  5
3E9
102
{ACAD_REACTORS
330
3E8
102
}
330
3E8
100
AcDbXrecord
280
     1
290
     1
  0
XRECORD
  5
3EB
102
{ACAD_REACTORS
330
3EA
102
}
330
3EA
100
AcDbXrecord
280
     1
290
     1
  0
XRECORD
  5
3ED
102
{ACAD_REACTORS
330
3EC
102
}
330
3EC
100
AcDbXrecord
280
     1
290
     1
  0
XRECORD
  5
3EF
102
{ACAD_REACTORS
330
3EE
102
}
330
3EE
100
AcDbXrecord
280
     1
290
     1
  0
XRECORD
  5
3F1
102
{ACAD_REACTORS
330
3F0
102
}
330
3F0
100
AcDbXrecord
280
     1
290
     1
  0
ACDBDETAILVIEWSTYLE
  5
6A
102
{ACAD_XDICTIONARY
360
455
102
}
102
{ACAD_REACTORS
330
69
102
}
330
69
100
AcDbModelDocViewStyle
 70
     0
  3
Imperial24
290
     0
100
AcDbDetailViewStyle
 70
     0
 71
     0
 90
        3
 71
     1
340
55
 40
0.24
340
0
 40
0.24
300

 40
0.36
280
     3
 71
     2
340
5C
 90
       25
 71
     3
340
55
 40
0.24
 90
        1
 40
0.75
 90
        1
300
%<\AcVar ViewType \f "%tc1">% %<\AcVar ViewDetailId>%\PSCALE %<\AcVar ViewScale \f "%sn">%
 71
     4
340
5C
 90
       25
340
5C
 90
       25
280
     0
  0
LAYOUT
  5
72
102
{ACAD_XDICTIONARY
360
4A5
102
}
102
{ACAD_REACTORS
330
61
102
}
330
61
100
AcDbPlotSettings
  1

  2
RICOH MP C3503 JPN
  4

  6

 40
0.0
 41
0.0
 42
0.0
 43
0.0
 44
0.0
 45
0.0
 46
0.0
 47
0.0
 48
0.0
 49
0.0
140
0.0
141
0.0
142
1.0
143
1.0
 70
  1712
 72
     0
 73
     0
 74
     0
  7

 75
     0
147
1.0
148
0.0
149
0.0
100
AcDbLayout
  1
Model
 70
     1
 71
     0
 10
0.0
 20
0.0
 11
12.0
 21
9.0
 12
0.0
 22
0.0
 32
0.0
 14
0.0
 24
0.0
 34
0.0
 15
0.0
 25
0.0
 35
0.0
146
0.0
 13
0.0
 23
0.0
 33
0.0
 16
1.0
 26
0.0
 36
0.0
 17
0.0
 27
1.0
 37
0.0
 76
     0
330
6F
331
A3
  0
LAYOUT
  5
6E
102
{ACAD_XDICTIONARY
360
4A3
102
}
102
{ACAD_REACTORS
330
61
102
}
330
61
100
AcDbPlotSettings
  1

  2
RICOH MP C3503 JPN
  4

  6

 40
0.0
 41
0.0
 42
0.0
 43
0.0
 44
0.0
 45
0.0
 46
0.0
 47
0.0
 48
0.0
 49
0.0
140
0.0
141
0.0
142
1.0
143
1.0
 70
   688
 72
     0
 73
     0
 74
     5
  7

 75
    16
147
1.0
148
0.0
149
0.0
100
AcDbLayout
  1
レイアウト1
 70
     1
 71
     1
 10
0.0
 20
0.0
 11
12.0
 21
9.0
 12
0.0
 22
0.0
 32
0.0
 14
1.000000000000000E+20
 24
1.000000000000000E+20
 34
1.000000000000000E+20
 15
-1.000000000000000E+20
 25
-1.000000000000000E+20
 35
-1.000000000000000E+20
146
0.0
 13
0.0
 23
0.0
 33
0.0
 16
1.0
 26
0.0
 36
0.0
 17
0.0
 27
1.0
 37
0.0
 76
     0
330
6B
  0
MATERIAL
  5
19
102
{ACAD_XDICTIONARY
360
1A
102
}
102
{ACAD_REACTORS
330
10
102
}
330
10
100
AcDbMaterial
  1
ByBlock
 72
     0
 43
0.0208333333333333
 43
0.0
 43
0.0
 43
0.0
 43
0.0
 43
0.0208333333333333
 43
0.0
 43
0.0
 43
0.0
 43
0.0
 43
1.0
 43
0.0
 43
0.0
 43
0.0
 43
0.0
 43
1.0
 77
     0
 47
0.0208333333333333
 47
0.0
 47
0.0
 47
0.0
 47
0.0
 47
0.0208333333333333
 47
0.0
 47
0.0
 47
0.0
 47
0.0
 47
1.0
 47
0.0
 47
0.0
 47
0.0
 47
0.0
 47
1.0
171
     0
 49
0.0208333333333333
 49
0.0
 49
0.0
 49
0.0
 49
0.0
 49
0.0208333333333333
 49
0.0
 49
0.0
 49
0.0
 49
0.0
 49
1.0
 49
0.0
 49
0.0
 49
0.0
 49
0.0
 49
1.0
175
     0
142
0.0208333333333333
142
0.0
142
0.0
142
0.0
142
0.0
142
0.0208333333333333
142
0.0
142
0.0
142
0.0
142
0.0
142
1.0
142
0.0
142
0.0
142
0.0
142
0.0
142
1.0
179
     0
144
0.0208333333333333
144
0.0
144
0.0
144
0.0
144
0.0
144
0.0208333333333333
144
0.0
144
0.0
144
0.0
144
0.0
144
1.0
144
0.0
144
0.0
144
0.0
144
0.0
144
1.0
147
0.0208333333333333
147
0.0
147
0.0
147
0.0
147
0.0
147
0.0208333333333333
147
0.0
147
0.0
147
0.0
147
0.0
147
1.0
147
0.0
147
0.0
147
0.0
147
0.0
147
1.0
  0
MATERIAL
  5
11
102
{ACAD_XDICTIONARY
360
12
102
}
102
{ACAD_REACTORS
330
10
102
}
330
10
100
AcDbMaterial
  1
ByLayer
 72
     0
 43
0.0208333333333333
 43
0.0
 43
0.0
 43
0.0
 43
0.0
 43
0.0208333333333333
 43
0.0
 43
0.0
 43
0.0
 43
0.0
 43
1.0
 43
0.0
 43
0.0
 43
0.0
 43
0.0
 43
1.0
 77
     0
 47
0.0208333333333333
 47
0.0
 47
0.0
 47
0.0
 47
0.0
 47
0.0208333333333333
 47
0.0
 47
0.0
 47
0.0
 47
0.0
 47
1.0
 47
0.0
 47
0.0
 47
0.0
 47
0.0
 47
1.0
171
     0
 49
0.0208333333333333
 49
0.0
 49
0.0
 49
0.0
 49
0.0
 49
0.0208333333333333
 49
0.0
 49
0.0
 49
0.0
 49
0.0
 49
1.0
 49
0.0
 49
0.0
 49
0.0
 49
0.0
 49
1.0
175
     0
142
0.0208333333333333
142
0.0
142
0.0
142
0.0
142
0.0
142
0.0208333333333333
142
0.0
142
0.0
142
0.0
142
0.0
142
1.0
142
0.0
142
0.0
142
0.0
142
0.0
142
1.0
179
     0
144
0.0208333333333333
144
0.0
144
0.0
144
0.0
144
0.0
144
0.0208333333333333
144
0.0
144
0.0
144
0.0
144
0.0
144
1.0
144
0.0
144
0.0
144
0.0
144
0.0
144
1.0
147
0.0208333333333333
147
0.0
147
0.0
147
0.0
147
0.0
147
0.0208333333333333
147
0.0
147
0.0
147
0.0
147
0.0
147
1.0
147
0.0
147
0.0
147
0.0
147
0.0
147
1.0
  0
MATERIAL
  5
21
102
{ACAD_XDICTIONARY
360
22
102
}
102
{ACAD_REACTORS
330
10
102
}
330
10
100
AcDbMaterial
  1
Global
 72
     0
 43
0.0208333333333333
 43
0.0
 43
0.0
 43
0.0
 43
0.0
 43
0.0208333333333333
 43
0.0
 43
0.0
 43
0.0
 43
0.0
 43
1.0
 43
0.0
 43
0.0
 43
0.0
 43
0.0
 43
1.0
 77
     0
 47
0.0208333333333333
 47
0.0
 47
0.0
 47
0.0
 47
0.0
 47
0.0208333333333333
 47
0.0
 47
0.0
 47
0.0
 47
0.0
 47
1.0
 47
0.0
 47
0.0
 47
0.0
 47
0.0
 47
1.0
171
     0
 49
0.0208333333333333
 49
0.0
 49
0.0
 49
0.0
 49
0.0
 49
0.0208333333333333
 49
0.0
 49
0.0
 49
0.0
 49
0.0
 49
1.0
 49
0.0
 49
0.0
 49
0.0
 49
0.0
 49
1.0
175
     0
142
0.0208333333333333
142
0.0
142
0.0
142
0.0
142
0.0
142
0.0208333333333333
142
0.0
142
0.0
142
0.0
142
0.0
142
1.0
142
0.0
142
0.0
142
0.0
142
0.0
142
1.0
179
     0
144
0.0208333333333333
144
0.0
144
0.0
144
0.0
144
0.0
144
0.0208333333333333
144
0.0
144
0.0
144
0.0
144
0.0
144
1.0
144
0.0
144
0.0
144
0.0
144
0.0
144
1.0
147
0.0208333333333333
147
0.0
147
0.0
147
0.0
147
0.0
147
0.0208333333333333
147
0.0
147
0.0
147
0.0
147
0.0
147
1.0
147
0.0
147
0.0
147
0.0
147
0.0
147
1.0
  0
MLEADERSTYLE
  5
66
102
{ACAD_REACTORS
330
65
102
}
330
65
100
AcDbMLeaderStyle
170
     2
171
     1
172
     0
 90
        2
 40
0.0
 41
0.0
173
     1
 91
-1056964608
340
5A
 92
       -2
290
     1
 42
0.09
291
     1
 43
0.36
  3
Standard
 44
0.18
300

342
55
174
     1
178
     6
175
     1
176
     0
 93
-1056964608
 45
0.18
292
     0
297
     0
 46
0.18
 94
-1056964608
 47
1.0
 49
1.0
140
1.0
293
     1
141
0.0
294
     1
177
     0
142
1.0
295
     0
296
     0
143
0.125
1001
ACAD_MLEADERVER
1070
     2
  0
MLINESTYLE
  5
5F
102
{ACAD_REACTORS
330
5E
102
}
330
5E
100
AcDbMlineStyle
  2
STANDARD
 70
     0
  3

 62
   256
 51
90.0
 52
90.0
 71
     2
 49
0.5
 62
   256
  6
BYLAYER
 49
-0.5
 62
   256
  6
BYLAYER
  0
ACDBPLACEHOLDER
  5
F
102
{ACAD_REACTORS
330
E
102
}
330
E
  0
SCALE
  5
43
102
{ACAD_REACTORS
330
42
102
}
330
42
100
AcDbScale
 70
     0
300
1:1
140
1.0
141
1.0
290
     1
  0
SCALE
  5
44
102
{ACAD_REACTORS
330
42
102
}
330
42
100
AcDbScale
 70
     0
300
1/128" = 1'-0"
140
0.0078125
141
12.0
290
     0
  0
SCALE
  5
45
102
{ACAD_REACTORS
330
42
102
}
330
42
100
AcDbScale
 70
     0
300
1/64" = 1'-0"
140
0.015625
141
12.0
290
     0
  0
SCALE
  5
46
102
{ACAD_REACTORS
330
42
102
}
330
42
100
AcDbScale
 70
     0
300
1/32" = 1'-0"
140
0.03125
141
12.0
290
     0
  0
SCALE
  5
47
102
{ACAD_REACTORS
330
42
102
}
330
42
100
AcDbScale
 70
     0
300
1/16" = 1'-0"
140
0.0625
141
12.0
290
     0
  0
SCALE
  5
48
102
{ACAD_REACTORS
330
42
102
}
330
42
100
AcDbScale
 70
     0
300
3/32" = 1'-0"
140
0.09375
141
12.0
290
     0
  0
SCALE
  5
49
102
{ACAD_REACTORS
330
42
102
}
330
42
100
AcDbScale
 70
     0
300
1/8" = 1'-0"
140
0.125
141
12.0
290
     0
  0
SCALE
  5
4A
102
{ACAD_REACTORS
330
42
102
}
330
42
100
AcDbScale
 70
     0
300
3/16" = 1'-0"
140
0.1875
141
12.0
290
     0
  0
SCALE
  5
4B
102
{ACAD_REACTORS
330
42
102
}
330
42
100
AcDbScale
 70
     0
300
1/4" = 1'-0"
140
0.25
141
12.0
290
     0
  0
SCALE
  5
4C
102
{ACAD_REACTORS
330
42
102
}
330
42
100
AcDbScale
 70
     0
300
3/8" = 1'-0"
140
0.375
141
12.0
290
     0
  0
SCALE
  5
4D
102
{ACAD_REACTORS
330
42
102
}
330
42
100
AcDbScale
 70
     0
300
1/2" = 1'-0"
140
0.5
141
12.0
290
     0
  0
SCALE
  5
4E
102
{ACAD_REACTORS
330
42
102
}
330
42
100
AcDbScale
 70
     0
300
3/4" = 1'-0"
140
0.75
141
12.0
290
     0
  0
SCALE
  5
4F
102
{ACAD_REACTORS
330
42
102
}
330
42
100
AcDbScale
 70
     0
300
1" = 1'-0"
140
1.0
141
12.0
290
     0
  0
SCALE
  5
50
102
{ACAD_REACTORS
330
42
102
}
330
42
100
AcDbScale
 70
     0
300
1-1/2" = 1'-0"
140
1.5
141
12.0
290
     0
  0
SCALE
  5
51
102
{ACAD_REACTORS
330
42
102
}
330
42
100
AcDbScale
 70
     0
300
3" = 1'-0"
140
3.0
141
12.0
290
     0
  0
SCALE
  5
52
102
{ACAD_REACTORS
330
42
102
}
330
42
100
AcDbScale
 70
     0
300
6" = 1'-0"
140
6.0
141
12.0
290
     0
  0
SCALE
  5
53
102
{ACAD_REACTORS
330
42
102
}
330
42
100
AcDbScale
 70
     0
300
1'-0" = 1'-0"
140
12.0
141
12.0
290
     0
  0
ACDBSECTIONVIEWSTYLE
  5
68
102
{ACAD_XDICTIONARY
360
453
102
}
102
{ACAD_REACTORS
330
67
102
}
330
67
100
AcDbModelDocViewStyle
 70
     0
  3
Imperial24
290
     0
100
AcDbSectionViewStyle
 70
     0
 71
     0
 90
       78
 71
     1
340
55
 40
0.24
340
0
340
0
 40
0.24
300
I, O, Q, S, X, Z
 40
0.48
 90
        3
 40
0.18
 90
        1
 71
     2
340
5C
 90
       25
340
5C
 90
       50
 40
0.24
 40
0.0
 40
0.24
 71
     3
340
55
 40
0.24
 90
        1
 40
0.75
 90
        1
300
%<\AcVar ViewType \f "%tc1">% %<\AcVar ViewSectionStartId>%-%<\AcVar ViewSectionEndId>%\PSCALE %<\AcVar ViewScale \f "%sn">%
 71
     4
300
ANSI31
 40
1.0
 90
        0
290
     0
290
     0
 90
        6
 40
0.0
 40
1.570796326794896
 40
0.2617993877991494
 40
1.308996938995747
 40
-0.2617993877991494
 40
1.832595714594046
  0
TABLESTYLE
  5
64
102
{ACAD_XDICTIONARY
360
3F3
102
}
102
{ACAD_REACTORS
330
63
102
}
330
63
100
AcDbTableStyle
  3
Standard
 70
     0
 71
     0
 40
0.06
 41
0.06
280
     0
281
     0
  7
STANDARD
140
0.18
170
     2
 62
     0
 63
     7
283
     0
274
    -2
284
     1
 64
     0
275
    -2
285
     1
 65
     0
276
    -2
286
     1
 66
     0
277
    -2
287
     1
 67
     0
278
    -2
288
     1
 68
     0
279
    -2
289
     1
 69
     0
  7
STANDARD
140
0.25
170
     5
 62
     0
 63
     7
283
     0
274
    -2
284
     1
 64
     0
275
    -2
285
     1
 65
     0
276
    -2
286
     1
 66
     0
277
    -2
287
     1
 67
     0
278
    -2
288
     1
 68
     0
279
    -2
289
     1
 69
     0
  7
STANDARD
140
0.18
170
     5
 62
     0
 63
     7
283
     0
274
    -2
284
     1
 64
     0
275
    -2
285
     1
 65
     0
276
    -2
286
     1
 66
     0
277
    -2
287
     1
 67
     0
278
    -2
288
     1
 68
     0
279
    -2
289
     1
 69
     0
  0
VISUALSTYLE
  5
2F
102
{ACAD_XDICTIONARY
360
47A
102
}
102
{ACAD_REACTORS
330
29
102
}
330
29
100
AcDbVisualStyle
  2
2dWireframe
 70
     4
 71
     0
 72
     2
 73
     0
 90
        0
 40
-0.6
 41
-30.0
 62
     5
 63
     7
 74
     1
 91
        4
 64
     7
 65
   257
 75
     1
175
     1
 42
1.0
 92
        0
 66
   257
 43
1.0
 76
     1
 77
     6
 78
     2
 67
     7
 79
     5
170
     0
171
     0
290
     0
174
     0
 93
        1
 44
0.0
173
     0
291
     0
 45
0.0
1001
ACAD
1000
AcDbSavedByObjectVersion
1070
     0
  0
VISUALSTYLE
  5
2E
102
{ACAD_XDICTIONARY
360
478
102
}
102
{ACAD_REACTORS
330
29
102
}
330
29
100
AcDbVisualStyle
  2
Basic
 70
     7
 71
     1
 72
     0
 73
     1
 90
        0
 40
-0.6
 41
-30.0
 62
     5
 63
     7
 74
     0
 91
        4
 64
     7
 65
   257
 75
     1
175
     1
 42
1.0
 92
        8
 66
     7
 43
1.0
 76
     1
 77
     6
 78
     2
 67
     7
 79
     5
170
     0
171
     0
290
     0
174
     0
 93
        1
 44
0.0
173
     0
291
     1
 45
0.0
1001
ACAD
1000
AcDbSavedByObjectVersion
1070
     0
  0
VISUALSTYLE
  5
35
102
{ACAD_XDICTIONARY
360
486
102
}
102
{ACAD_REACTORS
330
29
102
}
330
29
100
AcDbVisualStyle
  2
Brighten
 70
    12
 71
     2
 72
     2
 73
     0
 90
        0
 40
-0.6
 41
-30.0
 62
     5
 63
     7
 74
     1
 91
        4
 64
     7
 65
   257
 75
     1
175
     1
 42
1.0
 92
        8
 66
     7
 43
1.0
 76
     1
 77
     6
 78
     2
 67
     7
 79
     5
170
     0
171
     0
290
     0
174
     0
 93
        1
 44
50.0
173
     0
291
     1
 45
0.0
1001
ACAD
1000
AcDbSavedByObjectVersion
1070
     0
  0
VISUALSTYLE
  5
39
102
{ACAD_XDICTIONARY
360
48E
102
}
102
{ACAD_REACTORS
330
29
102
}
330
29
100
AcDbVisualStyle
  2
ColorChange
 70
    16
 71
     2
 72
     2
 73
     3
 90
        0
 40
-0.6
 41
-30.0
 62
     5
 63
     8
 74
     1
 91
        4
 64
     7
 65
   257
 75
     1
175
     1
 42
1.0
 92
        8
 66
     8
 43
1.0
 76
     1
 77
     6
 78
     2
 67
     7
 79
     5
170
     0
171
     0
290
     0
174
     0
 93
        1
 44
0.0
173
     0
291
     1
 45
0.0
1001
ACAD
1000
AcDbSavedByObjectVersion
1070
     0
  0
VISUALSTYLE
  5
32
102
{ACAD_XDICTIONARY
360
480
102
}
102
{ACAD_REACTORS
330
29
102
}
330
29
100
AcDbVisualStyle
  2
Conceptual
 70
     9
 71
     3
 72
     2
 73
     0
 90
        0
 40
-0.6
 41
-30.0
 62
     5
 63
     7
 74
     2
 91
        2
 64
     7
 65
   257
 75
     1
175
     1
 42
179.0
 92
        8
 66
     7
 43
1.0
 76
     1
 77
     6
 78
     2
 67
     7
 79
     3
170
     0
171
     0
290
     0
174
     0
 93
        1
 44
0.0
173
     0
291
     0
 45
0.0
1001
ACAD
1000
AcDbSavedByObjectVersion
1070
     0
  0
VISUALSTYLE
  5
34
102
{ACAD_XDICTIONARY
360
484
102
}
102
{ACAD_REACTORS
330
29
102
}
330
29
100
AcDbVisualStyle
  2
Dim
 70
    11
 71
     2
 72
     2
 73
     0
 90
        0
 40
-0.6
 41
-30.0
 62
     5
 63
     7
 74
     1
 91
        4
 64
     7
 65
   257
 75
     1
175
     1
 42
1.0
 92
        8
 66
     7
 43
1.0
 76
     1
 77
     6
 78
     2
 67
     7
 79
     5
170
     0
171
     0
290
     0
174
     0
 93
        1
 44
-50.0
173
     0
291
     1
 45
0.0
1001
ACAD
1000
AcDbSavedByObjectVersion
1070
     0
  0
VISUALSTYLE
  5
41
102
{ACAD_XDICTIONARY
360
49E
102
}
102
{ACAD_REACTORS
330
29
102
}
330
29
100
AcDbVisualStyle
  2
EdgeColorOff
 70
    22
 71
     2
 72
     2
 73
     0
 90
        0
 40
-0.6
 41
-30.0
 62
     5
 63
     7
 74
     1
 91
        4
 64
     7
 65
   257
 75
     1
175
     1
 42
1.0
 92
        8
 66
     7
 43
1.0
 76
     1
 77
     6
 78
     2
 67
     7
 79
     5
170
     0
171
     0
290
     0
174
     0
 93
        1
 44
0.0
173
     0
291
     1
 45
0.0
1001
ACAD
1000
AcDbSavedByObjectVersion
1070
     0
  0
VISUALSTYLE
  5
38
102
{ACAD_XDICTIONARY
360
48C
102
}
102
{ACAD_REACTORS
330
29
102
}
330
29
100
AcDbVisualStyle
  2
Facepattern
 70
    15
 71
     2
 72
     2
 73
     0
 90
        0
 40
-0.6
 41
-30.0
 62
     5
 63
     7
 74
     1
 91
        4
 64
     7
 65
   257
 75
     1
175
     1
 42
1.0
 92
        8
 66
     7
 43
1.0
 76
     1
 77
     6
 78
     2
 67
     7
 79
     5
170
     0
171
     0
290
     0
174
     0
 93
        1
 44
0.0
173
     0
291
     1
 45
0.0
1001
ACAD
1000
AcDbSavedByObjectVersion
1070
     0
  0
VISUALSTYLE
  5
2A
102
{ACAD_XDICTIONARY
360
470
102
}
102
{ACAD_REACTORS
330
29
102
}
330
29
100
AcDbVisualStyle
  2
Flat
 70
     0
 71
     2
 72
     1
 73
     1
 90
        2
 40
-0.6
 41
30.0
 62
     5
 63
     7
 74
     0
 91
        0
 64
     7
 65
   257
 75
     1
175
     1
 42
1.0
 92
        8
 66
     7
 43
1.0
 76
     1
 77
     6
 78
     2
 67
     7
 79
     5
170
     0
171
     0
290
     0
174
     0
 93
       13
 44
0.0
173
     0
291
     1
 45
0.0
1001
ACAD
1000
AcDbSavedByObjectVersion
1070
     0
  0
VISUALSTYLE
  5
2B
102
{ACAD_XDICTIONARY
360
472
102
}
102
{ACAD_REACTORS
330
29
102
}
330
29
100
AcDbVisualStyle
  2
FlatWithEdges
 70
     1
 71
     2
 72
     1
 73
     1
 90
        2
 40
-0.6
 41
30.0
 62
     5
 63
     7
 74
     1
 91
        0
 64
     7
 65
   257
 75
     1
175
     1
 42
1.0
 92
        0
 66
   257
 43
1.0
 76
     1
 77
     6
 78
     2
 67
     7
 79
     5
170
     0
171
     0
290
     0
174
     0
 93
       13
 44
0.0
173
     0
291
     1
 45
0.0
1001
ACAD
1000
AcDbSavedByObjectVersion
1070
     0
  0
VISUALSTYLE
  5
2C
102
{ACAD_XDICTIONARY
360
474
102
}
102
{ACAD_REACTORS
330
29
102
}
330
29
100
AcDbVisualStyle
  2
Gouraud
 70
     2
 71
     2
 72
     2
 73
     1
 90
        2
 40
-0.6
 41
30.0
 62
     5
 63
     7
 74
     0
 91
        0
 64
     7
 65
   257
 75
     1
175
     1
 42
1.0
 92
        0
 66
     7
 43
1.0
 76
     1
 77
     6
 78
     2
 67
     7
 79
     5
170
     0
171
     0
290
     0
174
     0
 93
       13
 44
0.0
173
     0
291
     1
 45
0.0
1001
ACAD
1000
AcDbSavedByObjectVersion
1070
     0
  0
VISUALSTYLE
  5
2D
102
{ACAD_XDICTIONARY
360
476
102
}
102
{ACAD_REACTORS
330
29
102
}
330
29
100
AcDbVisualStyle
  2
GouraudWithEdges
 70
     3
 71
     2
 72
     2
 73
     1
 90
        2
 40
-0.6
 41
30.0
 62
     5
 63
     7
 74
     1
 91
        0
 64
     7
 65
   257
 75
     1
175
     1
 42
1.0
 92
        0
 66
   257
 43
1.0
 76
     1
 77
     6
 78
     2
 67
     7
 79
     5
170
     0
171
     0
290
     0
174
     0
 93
       13
 44
0.0
173
     0
291
     1
 45
0.0
1001
ACAD
1000
AcDbSavedByObjectVersion
1070
     0
  0
VISUALSTYLE
  5
31
102
{ACAD_XDICTIONARY
360
47E
102
}
102
{ACAD_REACTORS
330
29
102
}
330
29
100
AcDbVisualStyle
  2
Hidden
 70
     6
 71
     1
 72
     2
 73
     2
 90
        0
 40
-0.6
 41
-30.0
 62
     5
 63
     7
 74
     2
 91
        2
 64
     7
 65
   257
 75
     2
175
     1
 42
40.0
 92
        0
 66
   257
 43
1.0
 76
     1
 77
     6
 78
     2
 67
     7
 79
     3
170
     0
171
     0
290
     0
174
     0
 93
        1
 44
0.0
173
     0
291
     0
 45
0.0
1001
ACAD
1000
AcDbSavedByObjectVersion
1070
     0
  0
VISUALSTYLE
  5
3F
102
{ACAD_XDICTIONARY
360
49A
102
}
102
{ACAD_REACTORS
330
29
102
}
330
29
100
AcDbVisualStyle
  2
JitterOff
 70
    20
 71
     2
 72
     2
 73
     0
 90
        0
 40
-0.6
 41
-30.0
 62
     5
 63
     7
 74
     1
 91
        4
 64
     7
 65
   257
 75
     1
175
     1
 42
1.0
 92
       10
 66
     7
 43
1.0
 76
     1
 77
     6
 78
     2
 67
     7
 79
     5
170
     0
171
     0
290
     0
174
     0
 93
        1
 44
0.0
173
     0
291
     1
 45
0.0
1001
ACAD
1000
AcDbSavedByObjectVersion
1070
     0
  0
VISUALSTYLE
  5
37
102
{ACAD_XDICTIONARY
360
48A
102
}
102
{ACAD_REACTORS
330
29
102
}
330
29
100
AcDbVisualStyle
  2
Linepattern
 70
    14
 71
     2
 72
     2
 73
     0
 90
        0
 40
-0.6
 41
-30.0
 62
     5
 63
     7
 74
     1
 91
        4
 64
     7
 65
   257
 75
     7
175
     7
 42
1.0
 92
        8
 66
     7
 43
1.0
 76
     1
 77
     6
 78
     2
 67
     7
 79
     5
170
     0
171
     0
290
     0
174
     0
 93
        1
 44
0.0
173
     0
291
     1
 45
0.0
1001
ACAD
1000
AcDbSavedByObjectVersion
1070
     0
  0
VISUALSTYLE
  5
40
102
{ACAD_XDICTIONARY
360
49C
102
}
102
{ACAD_REACTORS
330
29
102
}
330
29
100
AcDbVisualStyle
  2
OverhangOff
 70
    21
 71
     2
 72
     2
 73
     0
 90
        0
 40
-0.6
 41
-30.0
 62
     5
 63
     7
 74
     1
 91
        4
 64
     7
 65
   257
 75
     1
175
     1
 42
1.0
 92
        9
 66
     7
 43
1.0
 76
     1
 77
     6
 78
     2
 67
     7
 79
     5
170
     0
171
     0
290
     0
174
     0
 93
        1
 44
0.0
173
     0
291
     1
 45
0.0
1001
ACAD
1000
AcDbSavedByObjectVersion
1070
     0
  0
VISUALSTYLE
  5
33
102
{ACAD_XDICTIONARY
360
482
102
}
102
{ACAD_REACTORS
330
29
102
}
330
29
100
AcDbVisualStyle
  2
Realistic
 70
     8
 71
     2
 72
     2
 73
     0
 90
        2
 40
-0.6
 41
30.0
 62
     5
 63
     7
 74
     0
 91
        0
 64
     7
 65
   257
 75
     1
175
     1
 42
1.0
 92
        8
 66
   257
 43
1.0
 76
     1
 77
     6
 78
     2
 67
     7
 79
     3
170
     0
171
     0
290
     0
174
     0
 93
       13
 44
0.0
173
     0
291
     0
 45
0.0
1001
ACAD
1000
AcDbSavedByObjectVersion
1070
     0
  0
VISUALSTYLE
  5
3E
102
{ACAD_XDICTIONARY
360
498
102
}
102
{ACAD_REACTORS
330
29
102
}
330
29
100
AcDbVisualStyle
  2
Shaded
 70
    27
 71
     2
 72
     2
 73
     1
 90
        2
 40
-0.6
 41
30.0
 62
     5
 63
     7
 74
     0
 91
        4
 64
     7
 65
   257
 75
     1
175
     1
 42
1.0
 92
        8
 66
   257
 43
1.0
 76
     1
 77
     6
 78
     2
 67
     8
 79
     3
170
     0
171
     0
290
     0
174
     0
 93
        5
 44
0.0
173
     0
291
     0
 45
0.0
1001
ACAD
1000
AcDbSavedByObjectVersion
1070
     0
  0
VISUALSTYLE
  5
3D
102
{ACAD_XDICTIONARY
360
496
102
}
102
{ACAD_REACTORS
330
29
102
}
330
29
100
AcDbVisualStyle
  2
Shaded with edges
 70
    26
 71
     2
 72
     2
 73
     1
 90
        2
 40
-0.6
 41
30.0
 62
     5
 63
     7
 74
     1
 91
       10
 64
     7
 65
   257
 75
     2
175
     1
 42
1.0
 92
        8
 66
   257
 43
1.0
 76
     1
 77
     6
 78
     2
 67
     7
 79
     3
170
     0
171
     0
290
     0
174
     0
 93
        5
 44
0.0
173
     0
291
     0
 45
0.0
1001
ACAD
1000
AcDbSavedByObjectVersion
1070
     0
  0
VISUALSTYLE
  5
3A
102
{ACAD_XDICTIONARY
360
490
102
}
102
{ACAD_REACTORS
330
29
102
}
330
29
100
AcDbVisualStyle
  2
Shades of Gray
 70
    23
 71
     2
 72
     2
 73
     3
 90
        0
 40
-0.6
 41
-30.0
 62
     5
 63
     7
 74
     2
 91
        2
 64
     7
 65
     7
 75
     1
175
     1
 42
40.0
 92
        8
 66
     7
 43
1.0
 76
     1
 77
     6
 78
     2
 67
     7
 79
     3
170
     0
171
     0
290
     0
174
     0
 93
        1
 44
0.0
173
     0
291
     0
 45
0.0
1001
ACAD
1000
AcDbSavedByObjectVersion
1070
     0
  0
VISUALSTYLE
  5
3B
102
{ACAD_XDICTIONARY
360
492
102
}
102
{ACAD_REACTORS
330
29
102
}
330
29
100
AcDbVisualStyle
  2
Sketchy
 70
    24
 71
     1
 72
     2
 73
     2
 90
        0
 40
-0.6
 41
-30.0
 62
     5
 63
     7
 74
     2
 91
        2
 64
     7
 65
     7
 75
     1
175
     1
 42
40.0
 92
       11
 66
     7
 43
1.0
 76
     1
 77
     6
 78
     2
 67
     7
 79
     6
170
     0
171
     0
290
     0
174
     0
 93
        1
 44
0.0
173
     0
291
     0
 45
0.0
1001
ACAD
1000
AcDbSavedByObjectVersion
1070
     0
  0
VISUALSTYLE
  5
36
102
{ACAD_XDICTIONARY
360
488
102
}
102
{ACAD_REACTORS
330
29
102
}
330
29
100
AcDbVisualStyle
  2
Thicken
 70
    13
 71
     2
 72
     2
 73
     0
 90
        0
 40
-0.6
 41
-30.0
 62
     5
 63
     7
 74
     1
 91
        4
 64
     7
 65
   257
 75
     1
175
     1
 42
1.0
 92
       12
 66
     7
 43
1.0
 76
     1
 77
     6
 78
     2
 67
     7
 79
     5
170
     0
171
     0
290
     0
174
     0
 93
        1
 44
0.0
173
     0
291
     1
 45
0.0
1001
ACAD
1000
AcDbSavedByObjectVersion
1070
     0
  0
VISUALSTYLE
  5
30
102
{ACAD_XDICTIONARY
360
47C
102
}
102
{ACAD_REACTORS
330
29
102
}
330
29
100
AcDbVisualStyle
  2
Wireframe
 70
     5
 71
     0
 72
     2
 73
     0
 90
        0
 40
-0.6
 41
-30.0
 62
     5
 63
     7
 74
     1
 91
        4
 64
     7
 65
   257
 75
     1
175
     1
 42
1.0
 92
        0
 66
   257
 43
1.0
 76
     1
 77
     6
 78
     2
 67
     7
 79
     3
170
     0
171
     0
290
     0
174
     0
 93
        1
 44
0.0
173
     0
291
     0
 45
0.0
1001
ACAD
1000
AcDbSavedByObjectVersion
1070
     0
  0
VISUALSTYLE
  5
3C
102
{ACAD_XDICTIONARY
360
494
102
}
102
{ACAD_REACTORS
330
29
102
}
330
29
100
AcDbVisualStyle
  2
X-Ray
 70
    25
 71
     2
 72
     2
 73
     1
 90
        1
 40
0.5
 41
-30.0
 62
     5
 63
     7
 74
     1
 91
        0
 64
     7
 65
   257
 75
     1
175
     1
 42
1.0
 92
        8
 66
     7
 43
1.0
 76
     1
 77
     6
 78
     2
 67
     7
 79
     3
170
     0
171
     0
290
     0
174
     0
 93
       13
 44
0.0
173
     0
291
     0
 45
0.0
1001
ACAD
1000
AcDbSavedByObjectVersion
1070
     0
  0
DICTIONARYVAR
  5
43B
102
{ACAD_REACTORS
330
436
102
}
330
436
100
DictionaryVariables
280
     0
  1
1:1
  0
DICTIONARYVAR
  5
438
102
{ACAD_REACTORS
330
436
102
}
330
436
100
DictionaryVariables
280
     0
  1
STANDARD
  0
DICTIONARYVAR
  5
437
102
{ACAD_REACTORS
330
436
102
}
330
436
100
DictionaryVariables
280
     0
  1
STANDARD
  0
DICTIONARYVAR
  5
439
102
{ACAD_REACTORS
330
436
102
}
330
436
100
DictionaryVariables
280
     0
  1
Imperial24
  0
DICTIONARYVAR
  5
43A
102
{ACAD_REACTORS
330
436
102
}
330
436
100
DictionaryVariables
280
     0
  1
Imperial24
  0
DICTIONARYVAR
  5
43E
102
{ACAD_REACTORS
330
436
102
}
330
436
100
DictionaryVariables
280
     0
  1
1
  0
DICTIONARYVAR
  5
43D
102
{ACAD_REACTORS
330
436
102
}
330
436
100
DictionaryVariables
280
     0
  1
0
  0
DICTIONARYVAR
  5
45A
102
{ACAD_REACTORS
330
436
102
}
330
436
100
DictionaryVariables
280
     0
  1
1
  0
DICTIONARYVAR
  5
45B
102
{ACAD_REACTORS
330
436
102
}
330
436
100
DictionaryVariables
280
     0
  1
15
  0
DICTIONARYVAR
  5
459
102
{ACAD_REACTORS
330
436
102
}
330
436
100
DictionaryVariables
280
     0
  1
0
  0
DICTIONARYVAR
  5
458
102
{ACAD_REACTORS
330
436
102
}
330
436
100
DictionaryVariables
280
     0
  1
0
  0
DICTIONARYVAR
  5
43C
102
{ACAD_REACTORS
330
436
102
}
330
436
100
DictionaryVariables
280
     0
  1
127
  0
DICTIONARYVAR
  5
461
102
{ACAD_REACTORS
330
436
102
}
330
436
100
DictionaryVariables
280
     0
  1
2
  0
DICTIONARY
  5
46C
102
{ACAD_REACTORS
330
46A
102
}
330
46A
100
AcDbDictionary
281
     1
  0
DICTIONARY
  5
46B
102
{ACAD_REACTORS
330
46A
102
}
330
46A
100
AcDbDictionary
281
     1
  3
140687682367184
350
465
  3
140687682367200
350
466
  3
140687682367216
350
467
  3
140687682367232
350
468
  3
140687682367248
350
469
  0
DICTIONARY
  5
455
330
6A
100
AcDbDictionary
280
     1
281
     1
  3
ACAD_XREC_ROUNDTRIP
360
4A2
  0
DICTIONARY
  5
4A5
330
72
100
AcDbDictionary
280
     1
281
     1
  3
ACAD_XREC_ROUNDTRIP
360
4A6
  0
DICTIONARY
  5
4A3
330
6E
100
AcDbDictionary
280
     1
281
     1
  3
ACAD_XREC_ROUNDTRIP
360
4A4
  0
DICTIONARY
  5
1A
330
19
100
AcDbDictionary
280
     1
281
     1
  3
ACAD_XREC_ROUNDTRIP
360
46E
  3
BUMPTILE
360
1C
  3
DIFFUSETILE
360
1B
  3
OPACITYTILE
360
1F
  3
REFLECTIONTILE
360
1E
  3
REFRACTIONTILE
360
20
  3
SPECULARTILE
360
1D
  0
DICTIONARY
  5
12
330
11
100
AcDbDictionary
280
     1
281
     1
  3
ACAD_XREC_ROUNDTRIP
360
46D
  3
BUMPTILE
360
14
  3
DIFFUSETILE
360
13
  3
OPACITYTILE
360
17
  3
REFLECTIONTILE
360
16
  3
REFRACTIONTILE
360
18
  3
SPECULARTILE
360
15
  0
DICTIONARY
  5
22
330
21
100
AcDbDictionary
280
     1
281
     1
  3
ACAD_XREC_ROUNDTRIP
360
46F
  3
BUMPTILE
360
24
  3
DIFFUSETILE
360
23
  3
OPACITYTILE
360
27
  3
REFLECTIONTILE
360
26
  3
REFRACTIONTILE
360
28
  3
SPECULARTILE
360
25
  0
DICTIONARY
  5
453
330
68
100
AcDbDictionary
280
     1
281
     1
  3
ACAD_XREC_ROUNDTRIP
360
4A1
  0
DICTIONARY
  5
3F3
330
64
100
AcDbDictionary
280
     1
281
     1
  3
ACAD_ROUNDTRIP_2008_TABLESTYLE_CELLSTYLEMAP
360
462
  3
ACAD_XREC_ROUNDTRIP
360
4A0
  0
DICTIONARY
  5
47A
330
2F
100
AcDbDictionary
280
     1
281
     1
  3
ACAD_XREC_ROUNDTRIP
360
47B
  0
DICTIONARY
  5
478
330
2E
100
AcDbDictionary
280
     1
281
     1
  3
ACAD_XREC_ROUNDTRIP
360
479
  0
DICTIONARY
  5
486
330
35
100
AcDbDictionary
280
     1
281
     1
  3
ACAD_XREC_ROUNDTRIP
360
487
  0
DICTIONARY
  5
48E
330
39
100
AcDbDictionary
280
     1
281
     1
  3
ACAD_XREC_ROUNDTRIP
360
48F
  0
DICTIONARY
  5
480
330
32
100
AcDbDictionary
280
     1
281
     1
  3
ACAD_XREC_ROUNDTRIP
360
481
  0
DICTIONARY
  5
484
330
34
100
AcDbDictionary
280
     1
281
     1
  3
ACAD_XREC_ROUNDTRIP
360
485
  0
DICTIONARY
  5
49E
330
41
100
AcDbDictionary
280
     1
281
     1
  3
ACAD_XREC_ROUNDTRIP
360
49F
  0
DICTIONARY
  5
48C
330
38
100
AcDbDictionary
280
     1
281
     1
  3
ACAD_XREC_ROUNDTRIP
360
48D
  0
DICTIONARY
  5
470
330
2A
100
AcDbDictionary
280
     1
281
     1
  3
ACAD_XREC_ROUNDTRIP
360
471
  0
DICTIONARY
  5
472
330
2B
100
AcDbDictionary
280
     1
281
     1
  3
ACAD_XREC_ROUNDTRIP
360
473
  0
DICTIONARY
  5
474
330
2C
100
AcDbDictionary
280
     1
281
     1
  3
ACAD_XREC_ROUNDTRIP
360
475
  0
DICTIONARY
  5
476
330
2D
100
AcDbDictionary
280
     1
281
     1
  3
ACAD_XREC_ROUNDTRIP
360
477
  0
DICTIONARY
  5
47E
330
31
100
AcDbDictionary
280
     1
281
     1
  3
ACAD_XREC_ROUNDTRIP
360
47F
  0
DICTIONARY
  5
49A
330
3F
100
AcDbDictionary
280
     1
281
     1
  3
ACAD_XREC_ROUNDTRIP
360
49B
  0
DICTIONARY
  5
48A
330
37
100
AcDbDictionary
280
     1
281
     1
  3
ACAD_XREC_ROUNDTRIP
360
48B
  0
DICTIONARY
  5
49C
330
40
100
AcDbDictionary
280
     1
281
     1
  3
ACAD_XREC_ROUNDTRIP
360
49D
  0
DICTIONARY
  5
482
330
33
100
AcDbDictionary
280
     1
281
     1
  3
ACAD_XREC_ROUNDTRIP
360
483
  0
DICTIONARY
  5
498
330
3E
100
AcDbDictionary
280
     1
281
     1
  3
ACAD_XREC_ROUNDTRIP
360
499
  0
DICTIONARY
  5
496
330
3D
100
AcDbDictionary
280
     1
281
     1
  3
ACAD_XREC_ROUNDTRIP
360
497
  0
DICTIONARY
  5
490
330
3A
100
AcDbDictionary
280
     1
281
     1
  3
ACAD_XREC_ROUNDTRIP
360
491
  0
DICTIONARY
  5
492
330
3B
100
AcDbDictionary
280
     1
281
     1
  3
ACAD_XREC_ROUNDTRIP
360
493
  0
DICTIONARY
  5
488
330
36
100
AcDbDictionary
280
     1
281
     1
  3
ACAD_XREC_ROUNDTRIP
360
489
  0
DICTIONARY
  5
47C
330
30
100
AcDbDictionary
280
     1
281
     1
  3
ACAD_XREC_ROUNDTRIP
360
47D
  0
DICTIONARY
  5
494
330
3C
100
AcDbDictionary
280
     1
281
     1
  3
ACAD_XREC_ROUNDTRIP
360
495
  0
XRECORD
  5
465
102
{ACAD_REACTORS
330
46B
102
}
330
46B
100
AcDbXrecord
280
     1
  1
AcDb_Thumbnail_Schema
102
{ATTRRECORD
341
466
  2
AcDbDs::TreatedAsObjectData
280
     1
291
     1
102
ATTRRECORD}
102
{ATTRRECORD
341
467
  2
AcDbDs::Legacy
280
     1
291
     1
102
ATTRRECORD}
  2
AcDbDs::ID
280
    10
 91
        8
102
{ATTRRECORD
341
468
  2
AcDs:Indexable
280
     1
291
     1
102
ATTRRECORD}
102
{ATTRRECORD
341
469
  2
AcDbDs::HandleAttribute
280
     7
282
     1
102
ATTRRECORD}
  2
Thumbnail_Data
280
    15
 91
        0
  0
XRECORD
  5
466
102
{ACAD_REACTORS
330
46B
102
}
330
46B
100
AcDbXrecord
280
     1
  1
AcDbDs::TreatedAsObjectDataSchema
  2
AcDbDs::TreatedAsObjectData
280
     1
 91
        0
  0
XRECORD
  5
467
102
{ACAD_REACTORS
330
46B
102
}
330
46B
100
AcDbXrecord
280
     1
  1
AcDbDs::LegacySchema
  2
AcDbDs::Legacy
280
     1
 91
        0
  0
XRECORD
  5
468
102
{ACAD_REACTORS
330
46B
102
}
330
46B
100
AcDbXrecord
280
     1
  1
AcDbDs::IndexedPropertySchema
  2
AcDs:Indexable
280
     1
 91
        0
  0
XRECORD
  5
469
102
{ACAD_REACTORS
330
46B
102
}
330
46B
100
AcDbXrecord
280
     1
  1
AcDbDs::HandleAttributeSchema
  2
AcDbDs::HandleAttribute
280
     7
 91
        1
284
     1
  0
XRECORD
  5
4A2
102
{ACAD_REACTORS
330
455
102
}
330
455
100
AcDbXrecord
280
     1
102
DISPLAYNAME
  1
Imperial24
102
FLAGS
 90
        0
  0
XRECORD
  5
4A6
102
{ACAD_REACTORS
330
4A5
102
}
330
4A5
100
AcDbXrecord
280
     1
102
SHADEPLOT
 70
     0
102
SHADEPLOTRESLEVEL
 70
     2
102
SHADEPLOTCUSTOMDPI
 70
   300
  0
XRECORD
  5
4A4
102
{ACAD_REACTORS
330
4A3
102
}
330
4A3
100
AcDbXrecord
280
     1
102
SHADEPLOT
 70
     0
102
SHADEPLOTRESLEVEL
 70
     2
102
SHADEPLOTCUSTOMDPI
 70
   300
  0
XRECORD
  5
46E
102
{ACAD_REACTORS
330
1A
102
}
330
1A
100
AcDbXrecord
280
     1
102
MATERIAL
148
0.0
149
0.0
149
0.0
 93
        0
 94
      127
282
     0
 72
     0
 77
     0
171
     0
175
     0
179
     0
273
     0
  0
XRECORD
  5
1C
102
{ACAD_REACTORS
330
1A
102
}
330
1A
100
AcDbXrecord
280
     1
270
     1
271
     1
  0
XRECORD
  5
1B
102
{ACAD_REACTORS
330
1A
102
}
330
1A
100
AcDbXrecord
280
     1
270
     1
271
     1
  0
XRECORD
  5
1F
102
{ACAD_REACTORS
330
1A
102
}
330
1A
100
AcDbXrecord
280
     1
270
     1
271
     1
  0
XRECORD
  5
1E
102
{ACAD_REACTORS
330
1A
102
}
330
1A
100
AcDbXrecord
280
     1
270
     1
271
     1
  0
XRECORD
  5
20
102
{ACAD_REACTORS
330
1A
102
}
330
1A
100
AcDbXrecord
280
     1
270
     1
271
     1
  0
XRECORD
  5
1D
102
{ACAD_REACTORS
330
1A
102
}
330
1A
100
AcDbXrecord
280
     1
270
     1
271
     1
  0
XRECORD
  5
46D
102
{ACAD_REACTORS
330
12
102
}
330
12
100
AcDbXrecord
280
     1
102
MATERIAL
148
0.0
149
0.0
149
0.0
 93
        0
 94
      127
282
     0
 72
     0
 77
     0
171
     0
175
     0
179
     0
273
     0
  0
XRECORD
  5
14
102
{ACAD_REACTORS
330
12
102
}
330
12
100
AcDbXrecord
280
     1
270
     1
271
     1
  0
XRECORD
  5
13
102
{ACAD_REACTORS
330
12
102
}
330
12
100
AcDbXrecord
280
     1
270
     1
271
     1
  0
XRECORD
  5
17
102
{ACAD_REACTORS
330
12
102
}
330
12
100
AcDbXrecord
280
     1
270
     1
271
     1
  0
XRECORD
  5
16
102
{ACAD_REACTORS
330
12
102
}
330
12
100
AcDbXrecord
280
     1
270
     1
271
     1
  0
XRECORD
  5
18
102
{ACAD_REACTORS
330
12
102
}
330
12
100
AcDbXrecord
280
     1
270
     1
271
     1
  0
XRECORD
  5
15
102
{ACAD_REACTORS
330
12
102
}
330
12
100
AcDbXrecord
280
     1
270
     1
271
     1
  0
XRECORD
  5
46F
102
{ACAD_REACTORS
330
22
102
}
330
22
100
AcDbXrecord
280
     1
102
MATERIAL
148
0.0
149
0.0
149
0.0
 93
        0
 94
      127
282
     0
 72
     0
 77
     0
171
     0
175
     0
179
     0
273
     0
  0
XRECORD
  5
24
102
{ACAD_REACTORS
330
22
102
}
330
22
100
AcDbXrecord
280
     1
270
     1
271
     1
  0
XRECORD
  5
23
102
{ACAD_REACTORS
330
22
102
}
330
22
100
AcDbXrecord
280
     1
270
     1
271
     1
  0
XRECORD
  5
27
102
{ACAD_REACTORS
330
22
102
}
330
22
100
AcDbXrecord
280
     1
270
     1
271
     1
  0
XRECORD
  5
26
102
{ACAD_REACTORS
330
22
102
}
330
22
100
AcDbXrecord
280
     1
270
     1
271
     1
  0
XRECORD
  5
28
102
{ACAD_REACTORS
330
22
102
}
330
22
100
AcDbXrecord
280
     1
270
     1
271
     1
  0
XRECORD
  5
25
102
{ACAD_REACTORS
330
22
102
}
330
22
100
AcDbXrecord
280
     1
270
     1
271
     1
  0
XRECORD
  5
4A1
102
{ACAD_REACTORS
330
453
102
}
330
453
100
AcDbXrecord
280
     1
102
DISPLAYNAME
  1
Imperial24
102
FLAGS
 90
        0
  0
CELLSTYLEMAP
  5
462
102
{ACAD_REACTORS
330
3F3
102
}
330
3F3
100
AcDbCellStyleMap
 90
        3
300
CELLSTYLE
  1
TABLEFORMAT_BEGIN
 90
        5
170
     1
 91
        0
 92
    32768
 62
   257
 93
        1
300
CONTENTFORMAT
  1
CONTENTFORMAT_BEGIN
 90
        0
 91
        0
 92
      512
 93
        0
300

 40
0.0
140
1.0
 94
        5
 62
     0
340
55
144
0.25
309
CONTENTFORMAT_END
171
     0
 94
        0
309
TABLEFORMAT_END
  1
CELLSTYLE_BEGIN
 90
        1
 91
        1
300
_TITLE
309
CELLSTYLE_END
300
CELLSTYLE
  1
TABLEFORMAT_BEGIN
 90
        5
170
     1
 91
        0
 92
        0
 62
   257
 93
        1
300
CONTENTFORMAT
  1
CONTENTFORMAT_BEGIN
 90
        0
 91
        0
 92
      512
 93
        0
300

 40
0.0
140
1.0
 94
        5
 62
     0
340
55
144
0.18
309
CONTENTFORMAT_END
171
     0
 94
        0
309
TABLEFORMAT_END
  1
CELLSTYLE_BEGIN
 90
        2
 91
        1
300
_HEADER
309
CELLSTYLE_END
300
CELLSTYLE
  1
TABLEFORMAT_BEGIN
 90
        5
170
     1
 91
        0
 92
        0
 62
   257
 93
        1
300
CONTENTFORMAT
  1
CONTENTFORMAT_BEGIN
 90
        0
 91
        0
 92
      512
 93
        0
300

 40
0.0
140
1.0
 94
        2
 62
     0
340
55
144
0.18
309
CONTENTFORMAT_END
171
     0
 94
        0
309
TABLEFORMAT_END
  1
CELLSTYLE_BEGIN
 90
        3
 91
        2
300
_DATA
309
CELLSTYLE_END
  0
XRECORD
  5
4A0
102
{ACAD_REACTORS
330
3F3
102
}
330
3F3
100
AcDbXrecord
280
     1
102
ACAD_ROUNDTRIP_PRE2007_TABLESTYLE
 90
      512
 91
        0
  1

 92
      512
 93
        0
  2

 94
      512
 95
        0
  3

  0
XRECORD
  5
47B
102
{ACAD_REACTORS
330
47A
102
}
330
47A
100
AcDbXrecord
280
     1
102
RTVSPost2010Prop28
280
     1
102
RTVSPost2010PropOp28
 70
     1
102
RTVSPost2010Prop29
280
     1
102
RTVSPost2010PropOp29
 70
     1
102
RTVSPost2010Prop30
280
     0
102
RTVSPost2010PropOp30
 70
     1
102
RTVSPost2010Prop31
280
     0
102
RTVSPost2010PropOp31
 70
     1
102
RTVSPost2010Prop32
280
     0
102
RTVSPost2010PropOp32
 70
     1
102
RTVSPost2010Prop33
280
     0
102
RTVSPost2010PropOp33
 70
     1
102
RTVSPost2010Prop34
280
     0
102
RTVSPost2010PropOp34
 70
     1
102
RTVSPost2010Prop35
280
     0
102
RTVSPost2010PropOp35
 70
     1
102
RTVSPost2010Prop36
280
     0
102
RTVSPost2010PropOp36
 70
     1
102
RTVSPost2010Prop37
 90
       50
102
RTVSPost2010PropOp37
 70
     1
102
RTVSPost2010Prop38
140
0.0
102
RTVSPost2010PropOp38
 70
     1
102
RTVSPost2010Prop39
140
1.0
102
RTVSPost2010PropOp39
 70
     1
102
RTVSPost2010Prop40
 90
        0
102
RTVSPost2010PropOp40
 70
     1
102
RTVSPost2010Prop41ColorIndex
 90
       18
102
RTVSPost2010Prop41ColorRGB
 90
        0
102
RTVSPost2010PropOp41
 70
     1
102
RTVSPost2010Prop42
 90
       50
102
RTVSPost2010PropOp42
 70
     1
102
RTVSPost2010Prop43
 90
        3
102
RTVSPost2010PropOp43
 70
     1
102
RTVSPost2010Prop44ColorIndex
 90
        5
102
RTVSPost2010Prop44ColorRGB
 90
      255
102
RTVSPost2010PropOp44
 70
     1
102
RTVSPost2010Prop45
280
     0
102
RTVSPost2010PropOp45
 70
     1
102
RTVSPost2010Prop46
 90
       50
102
RTVSPost2010PropOp46
 70
     1
102
RTVSPost2010Prop47
 90
       50
102
RTVSPost2010PropOp47
 70
     1
102
RTVSPost2010Prop48
 90
       50
102
RTVSPost2010PropOp48
 70
     1
102
RTVSPost2010Prop49
280
     0
102
RTVSPost2010PropOp49
 70
     1
102
RTVSPost2010Prop50
 90
       50
102
RTVSPost2010PropOp50
 70
     1
102
RTVSPost2010Prop51ColorIndex
 90
      256
102
RTVSPost2010Prop51ColorRGB
 90
-16777216
102
RTVSPost2010PropOp51
 70
     0
102
RTVSPost2010Prop52
140
1.0
102
RTVSPost2010PropOp52
 70
     0
102
RTVSPost2010Prop53
 90
        2
102
RTVSPost2010PropOp53
 70
     1
102
RTVSPost2010Prop54
  1
strokes_ogs.tif
102
RTVSPost2010PropOp54
 70
     1
102
RTVSPost2010Prop55
280
     0
102
RTVSPost2010PropOp55
 70
     1
102
RTVSPost2010Prop56
140
1.0
102
RTVSPost2010PropOp56
 70
     1
102
RTVSPost2010Prop57
140
1.0
102
RTVSPost2010PropOp57
 70
     1
102
RTVSPropertyOp0
 70
     1
102
RTVSPropertyOp1
 70
     1
102
RTVSPropertyOp2
 70
     1
102
RTVSPropertyOp3
 70
     1
102
RTVSPropertyOp4
 70
     1
102
RTVSPropertyOp5
 70
     1
102
RTVSPropertyOp6
 70
     1
102
RTVSPropertyOp7
 70
     1
102
RTVSPropertyOp8
 70
     1
102
RTVSPropertyOp9
 70
     1
102
RTVSPropertyOp10
 70
     1
102
RTVSPropertyOp11
 70
     1
102
RTVSPropertyOp12
 70
     1
102
RTVSPropertyOp13
 70
     1
102
RTVSPropertyOp14
 70
     1
102
RTVSPropertyOp15
 70
     1
102
RTVSPropertyOp16
 70
     1
102
RTVSPropertyOp17
 70
     1
102
RTVSPropertyOp18
 70
     1
102
RTVSPropertyOp19
 70
     1
102
RTVSPropertyOp20
 70
     1
102
RTVSPropertyOp21
 70
     1
102
RTVSPropertyOp22
 70
     1
102
RTVSPropertyOp23
 70
     1
102
RTVSPropertyOp24
 70
     1
102
RTVSPropertyOp25
 70
     1
102
RTVSPropertyOp26
 70
     1
102
RTVSPropertyOp27
 70
     1
102
RTVSPropertyOp28
 70
     1
102
RTVSPropertyOp29
 70
     1
102
RTVSPropertyOp30
 70
     1
102
RTVSPropertyOp31
 70
     1
102
RTVSPropertyOp32
 70
     1
102
RTVSPropertyOp33
 70
     1
102
RTVSPropertyOp34
 70
     1
102
RTVSPropertyOp35
 70
     1
102
RTVSPropertyOp36
 70
     1
102
RTVSPropertyOp37
 70
     1
102
RTVSPropertyOp38
 70
     1
102
RTVSPropertyOp39
 70
     1
102
RTVSPropertyOp40
 70
     1
102
RTVSPropertyOp41
 70
     1
102
RTVSPropertyOp42
 70
     1
102
RTVSPropertyOp43
 70
     1
102
RTVSPropertyOp44
 70
     1
102
RTVSPropertyOp45
 70
     1
102
RTVSPropertyOp46
 70
     1
102
RTVSPropertyOp47
 70
     1
102
RTVSPropertyOp48
 70
     1
102
RTVSPropertyOp49
 70
     1
102
RTVSPropertyOp50
 70
     1
102
RTVSPropertyOp51
 70
     0
102
RTVSPropertyOp52
 70
     0
102
RTVSPropertyOp53
 70
     1
102
RTVSPropertyOp54
 70
     1
102
RTVSPropertyOp55
 70
     1
102
RTVSPropertyOp56
 70
     1
102
RTVSPropertyOp57
 70
     1
102
RTVSPropertyOp58
 70
     1
102
RTVSPropertyOp59
 70
     1
102
RTVSPropertyOp60
 70
     1
102
RTVSPropertyOp61
 70
     1
102
RTVSPropertyOp62
 70
     1
  0
XRECORD
  5
479
102
{ACAD_REACTORS
330
478
102
}
330
478
100
AcDbXrecord
280
     1
102
RTVSPost2010Prop28
280
     0
102
RTVSPost2010PropOp28
 70
     1
102
RTVSPost2010Prop29
280
     1
102
RTVSPost2010PropOp29
 70
     1
102
RTVSPost2010Prop30
280
     1
102
RTVSPost2010PropOp30
 70
     1
102
RTVSPost2010Prop31
280
     0
102
RTVSPost2010PropOp31
 70
     1
102
RTVSPost2010Prop32
280
     0
102
RTVSPost2010PropOp32
 70
     1
102
RTVSPost2010Prop33
280
     0
102
RTVSPost2010PropOp33
 70
     1
102
RTVSPost2010Prop34
280
     0
102
RTVSPost2010PropOp34
 70
     1
102
RTVSPost2010Prop35
280
     0
102
RTVSPost2010PropOp35
 70
     1
102
RTVSPost2010Prop36
280
     0
102
RTVSPost2010PropOp36
 70
     1
102
RTVSPost2010Prop37
 90
       50
102
RTVSPost2010PropOp37
 70
     1
102
RTVSPost2010Prop38
140
0.0
102
RTVSPost2010PropOp38
 70
     1
102
RTVSPost2010Prop39
140
1.0
102
RTVSPost2010PropOp39
 70
     1
102
RTVSPost2010Prop40
 90
        0
102
RTVSPost2010PropOp40
 70
     1
102
RTVSPost2010Prop41ColorIndex
 90
       18
102
RTVSPost2010Prop41ColorRGB
 90
        0
102
RTVSPost2010PropOp41
 70
     1
102
RTVSPost2010Prop42
 90
       50
102
RTVSPost2010PropOp42
 70
     1
102
RTVSPost2010Prop43
 90
        3
102
RTVSPost2010PropOp43
 70
     1
102
RTVSPost2010Prop44ColorIndex
 90
        5
102
RTVSPost2010Prop44ColorRGB
 90
      255
102
RTVSPost2010PropOp44
 70
     1
102
RTVSPost2010Prop45
280
     0
102
RTVSPost2010PropOp45
 70
     1
102
RTVSPost2010Prop46
 90
       50
102
RTVSPost2010PropOp46
 70
     1
102
RTVSPost2010Prop47
 90
       50
102
RTVSPost2010PropOp47
 70
     1
102
RTVSPost2010Prop48
 90
       50
102
RTVSPost2010PropOp48
 70
     1
102
RTVSPost2010Prop49
280
     0
102
RTVSPost2010PropOp49
 70
     1
102
RTVSPost2010Prop50
 90
       50
102
RTVSPost2010PropOp50
 70
     1
102
RTVSPost2010Prop51ColorIndex
 90
      256
102
RTVSPost2010Prop51ColorRGB
 90
-16777216
102
RTVSPost2010PropOp51
 70
     0
102
RTVSPost2010Prop52
140
1.0
102
RTVSPost2010PropOp52
 70
     0
102
RTVSPost2010Prop53
 90
        2
102
RTVSPost2010PropOp53
 70
     1
102
RTVSPost2010Prop54
  1
strokes_ogs.tif
102
RTVSPost2010PropOp54
 70
     1
102
RTVSPost2010Prop55
280
     0
102
RTVSPost2010PropOp55
 70
     1
102
RTVSPost2010Prop56
140
1.0
102
RTVSPost2010PropOp56
 70
     1
102
RTVSPost2010Prop57
140
1.0
102
RTVSPost2010PropOp57
 70
     1
102
RTVSPropertyOp0
 70
     1
102
RTVSPropertyOp1
 70
     1
102
RTVSPropertyOp2
 70
     1
102
RTVSPropertyOp3
 70
     1
102
RTVSPropertyOp4
 70
     1
102
RTVSPropertyOp5
 70
     1
102
RTVSPropertyOp6
 70
     1
102
RTVSPropertyOp7
 70
     1
102
RTVSPropertyOp8
 70
     1
102
RTVSPropertyOp9
 70
     1
102
RTVSPropertyOp10
 70
     1
102
RTVSPropertyOp11
 70
     1
102
RTVSPropertyOp12
 70
     1
102
RTVSPropertyOp13
 70
     1
102
RTVSPropertyOp14
 70
     1
102
RTVSPropertyOp15
 70
     1
102
RTVSPropertyOp16
 70
     1
102
RTVSPropertyOp17
 70
     1
102
RTVSPropertyOp18
 70
     1
102
RTVSPropertyOp19
 70
     1
102
RTVSPropertyOp20
 70
     1
102
RTVSPropertyOp21
 70
     1
102
RTVSPropertyOp22
 70
     1
102
RTVSPropertyOp23
 70
     1
102
RTVSPropertyOp24
 70
     1
102
RTVSPropertyOp25
 70
     1
102
RTVSPropertyOp26
 70
     1
102
RTVSPropertyOp27
 70
     1
102
RTVSPropertyOp28
 70
     1
102
RTVSPropertyOp29
 70
     1
102
RTVSPropertyOp30
 70
     1
102
RTVSPropertyOp31
 70
     1
102
RTVSPropertyOp32
 70
     1
102
RTVSPropertyOp33
 70
     1
102
RTVSPropertyOp34
 70
     1
102
RTVSPropertyOp35
 70
     1
102
RTVSPropertyOp36
 70
     1
102
RTVSPropertyOp37
 70
     1
102
RTVSPropertyOp38
 70
     1
102
RTVSPropertyOp39
 70
     1
102
RTVSPropertyOp40
 70
     1
102
RTVSPropertyOp41
 70
     1
102
RTVSPropertyOp42
 70
     1
102
RTVSPropertyOp43
 70
     1
102
RTVSPropertyOp44
 70
     1
102
RTVSPropertyOp45
 70
     1
102
RTVSPropertyOp46
 70
     1
102
RTVSPropertyOp47
 70
     1
102
RTVSPropertyOp48
 70
     1
102
RTVSPropertyOp49
 70
     1
102
RTVSPropertyOp50
 70
     1
102
RTVSPropertyOp51
 70
     0
102
RTVSPropertyOp52
 70
     0
102
RTVSPropertyOp53
 70
     1
102
RTVSPropertyOp54
 70
     1
102
RTVSPropertyOp55
 70
     1
102
RTVSPropertyOp56
 70
     1
102
RTVSPropertyOp57
 70
     1
102
RTVSPropertyOp58
 70
     1
102
RTVSPropertyOp59
 70
     1
102
RTVSPropertyOp60
 70
     1
102
RTVSPropertyOp61
 70
     1
102
RTVSPropertyOp62
 70
     1
  0
XRECORD
  5
487
102
{ACAD_REACTORS
330
486
102
}
330
486
100
AcDbXrecord
280
     1
102
RTVSPost2010Prop28
280
     0
102
RTVSPost2010PropOp28
 70
     1
102
RTVSPost2010Prop29
280
     1
102
RTVSPost2010PropOp29
 70
     1
102
RTVSPost2010Prop30
280
     1
102
RTVSPost2010PropOp30
 70
     1
102
RTVSPost2010Prop31
280
     0
102
RTVSPost2010PropOp31
 70
     1
102
RTVSPost2010Prop32
280
     0
102
RTVSPost2010PropOp32
 70
     1
102
RTVSPost2010Prop33
280
     0
102
RTVSPost2010PropOp33
 70
     1
102
RTVSPost2010Prop34
280
     0
102
RTVSPost2010PropOp34
 70
     1
102
RTVSPost2010Prop35
280
     0
102
RTVSPost2010PropOp35
 70
     1
102
RTVSPost2010Prop36
280
     0
102
RTVSPost2010PropOp36
 70
     1
102
RTVSPost2010Prop37
 90
       50
102
RTVSPost2010PropOp37
 70
     1
102
RTVSPost2010Prop38
140
0.0
102
RTVSPost2010PropOp38
 70
     1
102
RTVSPost2010Prop39
140
1.0
102
RTVSPost2010PropOp39
 70
     1
102
RTVSPost2010Prop40
 90
        0
102
RTVSPost2010PropOp40
 70
     1
102
RTVSPost2010Prop41ColorIndex
 90
       18
102
RTVSPost2010Prop41ColorRGB
 90
        0
102
RTVSPost2010PropOp41
 70
     1
102
RTVSPost2010Prop42
 90
       50
102
RTVSPost2010PropOp42
 70
     1
102
RTVSPost2010Prop43
 90
        3
102
RTVSPost2010PropOp43
 70
     1
102
RTVSPost2010Prop44ColorIndex
 90
        5
102
RTVSPost2010Prop44ColorRGB
 90
      255
102
RTVSPost2010PropOp44
 70
     1
102
RTVSPost2010Prop45
280
     0
102
RTVSPost2010PropOp45
 70
     1
102
RTVSPost2010Prop46
 90
       50
102
RTVSPost2010PropOp46
 70
     1
102
RTVSPost2010Prop47
 90
       50
102
RTVSPost2010PropOp47
 70
     1
102
RTVSPost2010Prop48
 90
       50
102
RTVSPost2010PropOp48
 70
     1
102
RTVSPost2010Prop49
280
     0
102
RTVSPost2010PropOp49
 70
     1
102
RTVSPost2010Prop50
 90
       50
102
RTVSPost2010PropOp50
 70
     1
102
RTVSPost2010Prop51ColorIndex
 90
      256
102
RTVSPost2010Prop51ColorRGB
 90
-16777216
102
RTVSPost2010PropOp51
 70
     0
102
RTVSPost2010Prop52
140
1.0
102
RTVSPost2010PropOp52
 70
     0
102
RTVSPost2010Prop53
 90
        2
102
RTVSPost2010PropOp53
 70
     1
102
RTVSPost2010Prop54
  1
strokes_ogs.tif
102
RTVSPost2010PropOp54
 70
     1
102
RTVSPost2010Prop55
280
     0
102
RTVSPost2010PropOp55
 70
     1
102
RTVSPost2010Prop56
140
1.0
102
RTVSPost2010PropOp56
 70
     1
102
RTVSPost2010Prop57
140
1.0
102
RTVSPost2010PropOp57
 70
     1
102
RTVSPropertyOp0
 70
     1
102
RTVSPropertyOp1
 70
     1
102
RTVSPropertyOp2
 70
     1
102
RTVSPropertyOp3
 70
     1
102
RTVSPropertyOp4
 70
     1
102
RTVSPropertyOp5
 70
     1
102
RTVSPropertyOp6
 70
     1
102
RTVSPropertyOp7
 70
     1
102
RTVSPropertyOp8
 70
     1
102
RTVSPropertyOp9
 70
     1
102
RTVSPropertyOp10
 70
     1
102
RTVSPropertyOp11
 70
     1
102
RTVSPropertyOp12
 70
     1
102
RTVSPropertyOp13
 70
     1
102
RTVSPropertyOp14
 70
     1
102
RTVSPropertyOp15
 70
     1
102
RTVSPropertyOp16
 70
     1
102
RTVSPropertyOp17
 70
     1
102
RTVSPropertyOp18
 70
     1
102
RTVSPropertyOp19
 70
     1
102
RTVSPropertyOp20
 70
     1
102
RTVSPropertyOp21
 70
     1
102
RTVSPropertyOp22
 70
     1
102
RTVSPropertyOp23
 70
     1
102
RTVSPropertyOp24
 70
     1
102
RTVSPropertyOp25
 70
     1
102
RTVSPropertyOp26
 70
     1
102
RTVSPropertyOp27
 70
     1
102
RTVSPropertyOp28
 70
     1
102
RTVSPropertyOp29
 70
     1
102
RTVSPropertyOp30
 70
     1
102
RTVSPropertyOp31
 70
     1
102
RTVSPropertyOp32
 70
     1
102
RTVSPropertyOp33
 70
     1
102
RTVSPropertyOp34
 70
     1
102
RTVSPropertyOp35
 70
     1
102
RTVSPropertyOp36
 70
     1
102
RTVSPropertyOp37
 70
     1
102
RTVSPropertyOp38
 70
     1
102
RTVSPropertyOp39
 70
     1
102
RTVSPropertyOp40
 70
     1
102
RTVSPropertyOp41
 70
     1
102
RTVSPropertyOp42
 70
     1
102
RTVSPropertyOp43
 70
     1
102
RTVSPropertyOp44
 70
     1
102
RTVSPropertyOp45
 70
     1
102
RTVSPropertyOp46
 70
     1
102
RTVSPropertyOp47
 70
     1
102
RTVSPropertyOp48
 70
     1
102
RTVSPropertyOp49
 70
     1
102
RTVSPropertyOp50
 70
     1
102
RTVSPropertyOp51
 70
     0
102
RTVSPropertyOp52
 70
     0
102
RTVSPropertyOp53
 70
     1
102
RTVSPropertyOp54
 70
     1
102
RTVSPropertyOp55
 70
     1
102
RTVSPropertyOp56
 70
     1
102
RTVSPropertyOp57
 70
     1
102
RTVSPropertyOp58
 70
     1
102
RTVSPropertyOp59
 70
     1
102
RTVSPropertyOp60
 70
     1
102
RTVSPropertyOp61
 70
     1
102
RTVSPropertyOp62
 70
     1
  0
XRECORD
  5
48F
102
{ACAD_REACTORS
330
48E
102
}
330
48E
100
AcDbXrecord
280
     1
102
RTVSPost2010Prop28
280
     0
102
RTVSPost2010PropOp28
 70
     1
102
RTVSPost2010Prop29
280
     1
102
RTVSPost2010PropOp29
 70
     1
102
RTVSPost2010Prop30
280
     1
102
RTVSPost2010PropOp30
 70
     1
102
RTVSPost2010Prop31
280
     0
102
RTVSPost2010PropOp31
 70
     1
102
RTVSPost2010Prop32
280
     0
102
RTVSPost2010PropOp32
 70
     1
102
RTVSPost2010Prop33
280
     0
102
RTVSPost2010PropOp33
 70
     1
102
RTVSPost2010Prop34
280
     0
102
RTVSPost2010PropOp34
 70
     1
102
RTVSPost2010Prop35
280
     0
102
RTVSPost2010PropOp35
 70
     1
102
RTVSPost2010Prop36
280
     0
102
RTVSPost2010PropOp36
 70
     1
102
RTVSPost2010Prop37
 90
       50
102
RTVSPost2010PropOp37
 70
     1
102
RTVSPost2010Prop38
140
0.0
102
RTVSPost2010PropOp38
 70
     1
102
RTVSPost2010Prop39
140
1.0
102
RTVSPost2010PropOp39
 70
     1
102
RTVSPost2010Prop40
 90
        0
102
RTVSPost2010PropOp40
 70
     1
102
RTVSPost2010Prop41ColorIndex
 90
       18
102
RTVSPost2010Prop41ColorRGB
 90
        0
102
RTVSPost2010PropOp41
 70
     1
102
RTVSPost2010Prop42
 90
       50
102
RTVSPost2010PropOp42
 70
     1
102
RTVSPost2010Prop43
 90
        3
102
RTVSPost2010PropOp43
 70
     1
102
RTVSPost2010Prop44ColorIndex
 90
        5
102
RTVSPost2010Prop44ColorRGB
 90
      255
102
RTVSPost2010PropOp44
 70
     1
102
RTVSPost2010Prop45
280
     0
102
RTVSPost2010PropOp45
 70
     1
102
RTVSPost2010Prop46
 90
       50
102
RTVSPost2010PropOp46
 70
     1
102
RTVSPost2010Prop47
 90
       50
102
RTVSPost2010PropOp47
 70
     1
102
RTVSPost2010Prop48
 90
       50
102
RTVSPost2010PropOp48
 70
     1
102
RTVSPost2010Prop49
280
     0
102
RTVSPost2010PropOp49
 70
     1
102
RTVSPost2010Prop50
 90
       50
102
RTVSPost2010PropOp50
 70
     1
102
RTVSPost2010Prop51ColorIndex
 90
      256
102
RTVSPost2010Prop51ColorRGB
 90
-16777216
102
RTVSPost2010PropOp51
 70
     0
102
RTVSPost2010Prop52
140
1.0
102
RTVSPost2010PropOp52
 70
     0
102
RTVSPost2010Prop53
 90
        2
102
RTVSPost2010PropOp53
 70
     1
102
RTVSPost2010Prop54
  1
strokes_ogs.tif
102
RTVSPost2010PropOp54
 70
     1
102
RTVSPost2010Prop55
280
     0
102
RTVSPost2010PropOp55
 70
     1
102
RTVSPost2010Prop56
140
1.0
102
RTVSPost2010PropOp56
 70
     1
102
RTVSPost2010Prop57
140
1.0
102
RTVSPost2010PropOp57
 70
     1
102
RTVSPropertyOp0
 70
     1
102
RTVSPropertyOp1
 70
     1
102
RTVSPropertyOp2
 70
     1
102
RTVSPropertyOp3
 70
     1
102
RTVSPropertyOp4
 70
     1
102
RTVSPropertyOp5
 70
     1
102
RTVSPropertyOp6
 70
     1
102
RTVSPropertyOp7
 70
     1
102
RTVSPropertyOp8
 70
     1
102
RTVSPropertyOp9
 70
     1
102
RTVSPropertyOp10
 70
     1
102
RTVSPropertyOp11
 70
     1
102
RTVSPropertyOp12
 70
     1
102
RTVSPropertyOp13
 70
     1
102
RTVSPropertyOp14
 70
     1
102
RTVSPropertyOp15
 70
     1
102
RTVSPropertyOp16
 70
     1
102
RTVSPropertyOp17
 70
     1
102
RTVSPropertyOp18
 70
     1
102
RTVSPropertyOp19
 70
     1
102
RTVSPropertyOp20
 70
     1
102
RTVSPropertyOp21
 70
     1
102
RTVSPropertyOp22
 70
     1
102
RTVSPropertyOp23
 70
     1
102
RTVSPropertyOp24
 70
     1
102
RTVSPropertyOp25
 70
     1
102
RTVSPropertyOp26
 70
     1
102
RTVSPropertyOp27
 70
     1
102
RTVSPropertyOp28
 70
     1
102
RTVSPropertyOp29
 70
     1
102
RTVSPropertyOp30
 70
     1
102
RTVSPropertyOp31
 70
     1
102
RTVSPropertyOp32
 70
     1
102
RTVSPropertyOp33
 70
     1
102
RTVSPropertyOp34
 70
     1
102
RTVSPropertyOp35
 70
     1
102
RTVSPropertyOp36
 70
     1
102
RTVSPropertyOp37
 70
     1
102
RTVSPropertyOp38
 70
     1
102
RTVSPropertyOp39
 70
     1
102
RTVSPropertyOp40
 70
     1
102
RTVSPropertyOp41
 70
     1
102
RTVSPropertyOp42
 70
     1
102
RTVSPropertyOp43
 70
     1
102
RTVSPropertyOp44
 70
     1
102
RTVSPropertyOp45
 70
     1
102
RTVSPropertyOp46
 70
     1
102
RTVSPropertyOp47
 70
     1
102
RTVSPropertyOp48
 70
     1
102
RTVSPropertyOp49
 70
     1
102
RTVSPropertyOp50
 70
     1
102
RTVSPropertyOp51
 70
     0
102
RTVSPropertyOp52
 70
     0
102
RTVSPropertyOp53
 70
     1
102
RTVSPropertyOp54
 70
     1
102
RTVSPropertyOp55
 70
     1
102
RTVSPropertyOp56
 70
     1
102
RTVSPropertyOp57
 70
     1
102
RTVSPropertyOp58
 70
     1
102
RTVSPropertyOp59
 70
     1
102
RTVSPropertyOp60
 70
     1
102
RTVSPropertyOp61
 70
     1
102
RTVSPropertyOp62
 70
     1
  0
XRECORD
  5
481
102
{ACAD_REACTORS
330
480
102
}
330
480
100
AcDbXrecord
280
     1
102
RTVSPost2010Prop28
280
     0
102
RTVSPost2010PropOp28
 70
     1
102
RTVSPost2010Prop29
280
     1
102
RTVSPost2010PropOp29
 70
     1
102
RTVSPost2010Prop30
280
     1
102
RTVSPost2010PropOp30
 70
     1
102
RTVSPost2010Prop31
280
     0
102
RTVSPost2010PropOp31
 70
     1
102
RTVSPost2010Prop32
280
     0
102
RTVSPost2010PropOp32
 70
     1
102
RTVSPost2010Prop33
280
     0
102
RTVSPost2010PropOp33
 70
     1
102
RTVSPost2010Prop34
280
     0
102
RTVSPost2010PropOp34
 70
     1
102
RTVSPost2010Prop35
280
     0
102
RTVSPost2010PropOp35
 70
     1
102
RTVSPost2010Prop36
280
     0
102
RTVSPost2010PropOp36
 70
     1
102
RTVSPost2010Prop37
 90
       50
102
RTVSPost2010PropOp37
 70
     1
102
RTVSPost2010Prop38
140
0.0
102
RTVSPost2010PropOp38
 70
     1
102
RTVSPost2010Prop39
140
1.0
102
RTVSPost2010PropOp39
 70
     1
102
RTVSPost2010Prop40
 90
        0
102
RTVSPost2010PropOp40
 70
     1
102
RTVSPost2010Prop41ColorIndex
 90
       18
102
RTVSPost2010Prop41ColorRGB
 90
        0
102
RTVSPost2010PropOp41
 70
     1
102
RTVSPost2010Prop42
 90
       50
102
RTVSPost2010PropOp42
 70
     1
102
RTVSPost2010Prop43
 90
        3
102
RTVSPost2010PropOp43
 70
     1
102
RTVSPost2010Prop44ColorIndex
 90
        5
102
RTVSPost2010Prop44ColorRGB
 90
      255
102
RTVSPost2010PropOp44
 70
     1
102
RTVSPost2010Prop45
280
     0
102
RTVSPost2010PropOp45
 70
     1
102
RTVSPost2010Prop46
 90
       50
102
RTVSPost2010PropOp46
 70
     1
102
RTVSPost2010Prop47
 90
       50
102
RTVSPost2010PropOp47
 70
     1
102
RTVSPost2010Prop48
 90
       50
102
RTVSPost2010PropOp48
 70
     1
102
RTVSPost2010Prop49
280
     0
102
RTVSPost2010PropOp49
 70
     1
102
RTVSPost2010Prop50
 90
       50
102
RTVSPost2010PropOp50
 70
     1
102
RTVSPost2010Prop51ColorIndex
 90
      256
102
RTVSPost2010Prop51ColorRGB
 90
-16777216
102
RTVSPost2010PropOp51
 70
     0
102
RTVSPost2010Prop52
140
1.0
102
RTVSPost2010PropOp52
 70
     0
102
RTVSPost2010Prop53
 90
        2
102
RTVSPost2010PropOp53
 70
     1
102
RTVSPost2010Prop54
  1
strokes_ogs.tif
102
RTVSPost2010PropOp54
 70
     1
102
RTVSPost2010Prop55
280
     0
102
RTVSPost2010PropOp55
 70
     1
102
RTVSPost2010Prop56
140
1.0
102
RTVSPost2010PropOp56
 70
     1
102
RTVSPost2010Prop57
140
1.0
102
RTVSPost2010PropOp57
 70
     1
102
RTVSPropertyOp0
 70
     1
102
RTVSPropertyOp1
 70
     1
102
RTVSPropertyOp2
 70
     1
102
RTVSPropertyOp3
 70
     1
102
RTVSPropertyOp4
 70
     1
102
RTVSPropertyOp5
 70
     1
102
RTVSPropertyOp6
 70
     1
102
RTVSPropertyOp7
 70
     1
102
RTVSPropertyOp8
 70
     1
102
RTVSPropertyOp9
 70
     1
102
RTVSPropertyOp10
 70
     1
102
RTVSPropertyOp11
 70
     1
102
RTVSPropertyOp12
 70
     1
102
RTVSPropertyOp13
 70
     1
102
RTVSPropertyOp14
 70
     1
102
RTVSPropertyOp15
 70
     1
102
RTVSPropertyOp16
 70
     1
102
RTVSPropertyOp17
 70
     1
102
RTVSPropertyOp18
 70
     1
102
RTVSPropertyOp19
 70
     1
102
RTVSPropertyOp20
 70
     1
102
RTVSPropertyOp21
 70
     1
102
RTVSPropertyOp22
 70
     1
102
RTVSPropertyOp23
 70
     1
102
RTVSPropertyOp24
 70
     1
102
RTVSPropertyOp25
 70
     1
102
RTVSPropertyOp26
 70
     1
102
RTVSPropertyOp27
 70
     1
102
RTVSPropertyOp28
 70
     1
102
RTVSPropertyOp29
 70
     1
102
RTVSPropertyOp30
 70
     1
102
RTVSPropertyOp31
 70
     1
102
RTVSPropertyOp32
 70
     1
102
RTVSPropertyOp33
 70
     1
102
RTVSPropertyOp34
 70
     1
102
RTVSPropertyOp35
 70
     1
102
RTVSPropertyOp36
 70
     1
102
RTVSPropertyOp37
 70
     1
102
RTVSPropertyOp38
 70
     1
102
RTVSPropertyOp39
 70
     1
102
RTVSPropertyOp40
 70
     1
102
RTVSPropertyOp41
 70
     1
102
RTVSPropertyOp42
 70
     1
102
RTVSPropertyOp43
 70
     1
102
RTVSPropertyOp44
 70
     1
102
RTVSPropertyOp45
 70
     1
102
RTVSPropertyOp46
 70
     1
102
RTVSPropertyOp47
 70
     1
102
RTVSPropertyOp48
 70
     1
102
RTVSPropertyOp49
 70
     1
102
RTVSPropertyOp50
 70
     1
102
RTVSPropertyOp51
 70
     0
102
RTVSPropertyOp52
 70
     0
102
RTVSPropertyOp53
 70
     1
102
RTVSPropertyOp54
 70
     1
102
RTVSPropertyOp55
 70
     1
102
RTVSPropertyOp56
 70
     1
102
RTVSPropertyOp57
 70
     1
102
RTVSPropertyOp58
 70
     1
102
RTVSPropertyOp59
 70
     1
102
RTVSPropertyOp60
 70
     1
102
RTVSPropertyOp61
 70
     1
102
RTVSPropertyOp62
 70
     1
  0
XRECORD
  5
485
102
{ACAD_REACTORS
330
484
102
}
330
484
100
AcDbXrecord
280
     1
102
RTVSPost2010Prop28
280
     0
102
RTVSPost2010PropOp28
 70
     1
102
RTVSPost2010Prop29
280
     1
102
RTVSPost2010PropOp29
 70
     1
102
RTVSPost2010Prop30
280
     1
102
RTVSPost2010PropOp30
 70
     1
102
RTVSPost2010Prop31
280
     0
102
RTVSPost2010PropOp31
 70
     1
102
RTVSPost2010Prop32
280
     0
102
RTVSPost2010PropOp32
 70
     1
102
RTVSPost2010Prop33
280
     0
102
RTVSPost2010PropOp33
 70
     1
102
RTVSPost2010Prop34
280
     0
102
RTVSPost2010PropOp34
 70
     1
102
RTVSPost2010Prop35
280
     0
102
RTVSPost2010PropOp35
 70
     1
102
RTVSPost2010Prop36
280
     0
102
RTVSPost2010PropOp36
 70
     1
102
RTVSPost2010Prop37
 90
       50
102
RTVSPost2010PropOp37
 70
     1
102
RTVSPost2010Prop38
140
0.0
102
RTVSPost2010PropOp38
 70
     1
102
RTVSPost2010Prop39
140
1.0
102
RTVSPost2010PropOp39
 70
     1
102
RTVSPost2010Prop40
 90
        0
102
RTVSPost2010PropOp40
 70
     1
102
RTVSPost2010Prop41ColorIndex
 90
       18
102
RTVSPost2010Prop41ColorRGB
 90
        0
102
RTVSPost2010PropOp41
 70
     1
102
RTVSPost2010Prop42
 90
       50
102
RTVSPost2010PropOp42
 70
     1
102
RTVSPost2010Prop43
 90
        3
102
RTVSPost2010PropOp43
 70
     1
102
RTVSPost2010Prop44ColorIndex
 90
        5
102
RTVSPost2010Prop44ColorRGB
 90
      255
102
RTVSPost2010PropOp44
 70
     1
102
RTVSPost2010Prop45
280
     0
102
RTVSPost2010PropOp45
 70
     1
102
RTVSPost2010Prop46
 90
       50
102
RTVSPost2010PropOp46
 70
     1
102
RTVSPost2010Prop47
 90
       50
102
RTVSPost2010PropOp47
 70
     1
102
RTVSPost2010Prop48
 90
       50
102
RTVSPost2010PropOp48
 70
     1
102
RTVSPost2010Prop49
280
     0
102
RTVSPost2010PropOp49
 70
     1
102
RTVSPost2010Prop50
 90
       50
102
RTVSPost2010PropOp50
 70
     1
102
RTVSPost2010Prop51ColorIndex
 90
      256
102
RTVSPost2010Prop51ColorRGB
 90
-16777216
102
RTVSPost2010PropOp51
 70
     0
102
RTVSPost2010Prop52
140
1.0
102
RTVSPost2010PropOp52
 70
     0
102
RTVSPost2010Prop53
 90
        2
102
RTVSPost2010PropOp53
 70
     1
102
RTVSPost2010Prop54
  1
strokes_ogs.tif
102
RTVSPost2010PropOp54
 70
     1
102
RTVSPost2010Prop55
280
     0
102
RTVSPost2010PropOp55
 70
     1
102
RTVSPost2010Prop56
140
1.0
102
RTVSPost2010PropOp56
 70
     1
102
RTVSPost2010Prop57
140
1.0
102
RTVSPost2010PropOp57
 70
     1
102
RTVSPropertyOp0
 70
     1
102
RTVSPropertyOp1
 70
     1
102
RTVSPropertyOp2
 70
     1
102
RTVSPropertyOp3
 70
     1
102
RTVSPropertyOp4
 70
     1
102
RTVSPropertyOp5
 70
     1
102
RTVSPropertyOp6
 70
     1
102
RTVSPropertyOp7
 70
     1
102
RTVSPropertyOp8
 70
     1
102
RTVSPropertyOp9
 70
     1
102
RTVSPropertyOp10
 70
     1
102
RTVSPropertyOp11
 70
     1
102
RTVSPropertyOp12
 70
     1
102
RTVSPropertyOp13
 70
     1
102
RTVSPropertyOp14
 70
     1
102
RTVSPropertyOp15
 70
     1
102
RTVSPropertyOp16
 70
     1
102
RTVSPropertyOp17
 70
     1
102
RTVSPropertyOp18
 70
     1
102
RTVSPropertyOp19
 70
     1
102
RTVSPropertyOp20
 70
     1
102
RTVSPropertyOp21
 70
     1
102
RTVSPropertyOp22
 70
     1
102
RTVSPropertyOp23
 70
     1
102
RTVSPropertyOp24
 70
     1
102
RTVSPropertyOp25
 70
     1
102
RTVSPropertyOp26
 70
     1
102
RTVSPropertyOp27
 70
     1
102
RTVSPropertyOp28
 70
     1
102
RTVSPropertyOp29
 70
     1
102
RTVSPropertyOp30
 70
     1
102
RTVSPropertyOp31
 70
     1
102
RTVSPropertyOp32
 70
     1
102
RTVSPropertyOp33
 70
     1
102
RTVSPropertyOp34
 70
     1
102
RTVSPropertyOp35
 70
     1
102
RTVSPropertyOp36
 70
     1
102
RTVSPropertyOp37
 70
     1
102
RTVSPropertyOp38
 70
     1
102
RTVSPropertyOp39
 70
     1
102
RTVSPropertyOp40
 70
     1
102
RTVSPropertyOp41
 70
     1
102
RTVSPropertyOp42
 70
     1
102
RTVSPropertyOp43
 70
     1
102
RTVSPropertyOp44
 70
     1
102
RTVSPropertyOp45
 70
     1
102
RTVSPropertyOp46
 70
     1
102
RTVSPropertyOp47
 70
     1
102
RTVSPropertyOp48
 70
     1
102
RTVSPropertyOp49
 70
     1
102
RTVSPropertyOp50
 70
     1
102
RTVSPropertyOp51
 70
     0
102
RTVSPropertyOp52
 70
     0
102
RTVSPropertyOp53
 70
     1
102
RTVSPropertyOp54
 70
     1
102
RTVSPropertyOp55
 70
     1
102
RTVSPropertyOp56
 70
     1
102
RTVSPropertyOp57
 70
     1
102
RTVSPropertyOp58
 70
     1
102
RTVSPropertyOp59
 70
     1
102
RTVSPropertyOp60
 70
     1
102
RTVSPropertyOp61
 70
     1
102
RTVSPropertyOp62
 70
     1
  0
XRECORD
  5
49F
102
{ACAD_REACTORS
330
49E
102
}
330
49E
100
AcDbXrecord
280
     1
102
RTVSPost2010Prop28
280
     0
102
RTVSPost2010PropOp28
 70
     1
102
RTVSPost2010Prop29
280
     1
102
RTVSPost2010PropOp29
 70
     1
102
RTVSPost2010Prop30
280
     1
102
RTVSPost2010PropOp30
 70
     1
102
RTVSPost2010Prop31
280
     0
102
RTVSPost2010PropOp31
 70
     1
102
RTVSPost2010Prop32
280
     0
102
RTVSPost2010PropOp32
 70
     1
102
RTVSPost2010Prop33
280
     0
102
RTVSPost2010PropOp33
 70
     1
102
RTVSPost2010Prop34
280
     0
102
RTVSPost2010PropOp34
 70
     1
102
RTVSPost2010Prop35
280
     0
102
RTVSPost2010PropOp35
 70
     1
102
RTVSPost2010Prop36
280
     0
102
RTVSPost2010PropOp36
 70
     1
102
RTVSPost2010Prop37
 90
       50
102
RTVSPost2010PropOp37
 70
     0
102
RTVSPost2010Prop38
140
0.0
102
RTVSPost2010PropOp38
 70
     0
102
RTVSPost2010Prop39
140
1.0
102
RTVSPost2010PropOp39
 70
     0
102
RTVSPost2010Prop40
 90
        0
102
RTVSPost2010PropOp40
 70
     0
102
RTVSPost2010Prop41ColorIndex
 90
       18
102
RTVSPost2010Prop41ColorRGB
 90
        0
102
RTVSPost2010PropOp41
 70
     0
102
RTVSPost2010Prop42
 90
       50
102
RTVSPost2010PropOp42
 70
     0
102
RTVSPost2010Prop43
 90
        3
102
RTVSPost2010PropOp43
 70
     0
102
RTVSPost2010Prop44ColorIndex
 90
        5
102
RTVSPost2010Prop44ColorRGB
 90
      255
102
RTVSPost2010PropOp44
 70
     0
102
RTVSPost2010Prop45
280
     0
102
RTVSPost2010PropOp45
 70
     1
102
RTVSPost2010Prop46
 90
       50
102
RTVSPost2010PropOp46
 70
     0
102
RTVSPost2010Prop47
 90
       50
102
RTVSPost2010PropOp47
 70
     0
102
RTVSPost2010Prop48
 90
       50
102
RTVSPost2010PropOp48
 70
     0
102
RTVSPost2010Prop49
280
     0
102
RTVSPost2010PropOp49
 70
     1
102
RTVSPost2010Prop50
 90
       50
102
RTVSPost2010PropOp50
 70
     0
102
RTVSPost2010Prop51ColorIndex
 90
      256
102
RTVSPost2010Prop51ColorRGB
 90
-16777216
102
RTVSPost2010PropOp51
 70
     0
102
RTVSPost2010Prop52
140
1.0
102
RTVSPost2010PropOp52
 70
     0
102
RTVSPost2010Prop53
 90
        2
102
RTVSPost2010PropOp53
 70
     0
102
RTVSPost2010Prop54
  1
strokes_ogs.tif
102
RTVSPost2010PropOp54
 70
     0
102
RTVSPost2010Prop55
280
     0
102
RTVSPost2010PropOp55
 70
     1
102
RTVSPost2010Prop56
140
1.0
102
RTVSPost2010PropOp56
 70
     0
102
RTVSPost2010Prop57
140
1.0
102
RTVSPost2010PropOp57
 70
     0
102
RTVSPropertyOp0
 70
     0
102
RTVSPropertyOp1
 70
     0
102
RTVSPropertyOp2
 70
     0
102
RTVSPropertyOp3
 70
     0
102
RTVSPropertyOp4
 70
     0
102
RTVSPropertyOp5
 70
     0
102
RTVSPropertyOp6
 70
     0
102
RTVSPropertyOp7
 70
     0
102
RTVSPropertyOp8
 70
     0
102
RTVSPropertyOp9
 70
     0
102
RTVSPropertyOp10
 70
     0
102
RTVSPropertyOp11
 70
     0
102
RTVSPropertyOp12
 70
     0
102
RTVSPropertyOp13
 70
     0
102
RTVSPropertyOp14
 70
     2
102
RTVSPropertyOp15
 70
     0
102
RTVSPropertyOp16
 70
     0
102
RTVSPropertyOp17
 70
     0
102
RTVSPropertyOp18
 70
     0
102
RTVSPropertyOp19
 70
     0
102
RTVSPropertyOp20
 70
     0
102
RTVSPropertyOp21
 70
     0
102
RTVSPropertyOp22
 70
     0
102
RTVSPropertyOp23
 70
     0
102
RTVSPropertyOp24
 70
     0
102
RTVSPropertyOp25
 70
     0
102
RTVSPropertyOp26
 70
     0
102
RTVSPropertyOp27
 70
     0
102
RTVSPropertyOp28
 70
     1
102
RTVSPropertyOp29
 70
     1
102
RTVSPropertyOp30
 70
     1
102
RTVSPropertyOp31
 70
     1
102
RTVSPropertyOp32
 70
     1
102
RTVSPropertyOp33
 70
     1
102
RTVSPropertyOp34
 70
     1
102
RTVSPropertyOp35
 70
     1
102
RTVSPropertyOp36
 70
     1
102
RTVSPropertyOp37
 70
     0
102
RTVSPropertyOp38
 70
     0
102
RTVSPropertyOp39
 70
     0
102
RTVSPropertyOp40
 70
     0
102
RTVSPropertyOp41
 70
     0
102
RTVSPropertyOp42
 70
     0
102
RTVSPropertyOp43
 70
     0
102
RTVSPropertyOp44
 70
     0
102
RTVSPropertyOp45
 70
     1
102
RTVSPropertyOp46
 70
     0
102
RTVSPropertyOp47
 70
     0
102
RTVSPropertyOp48
 70
     0
102
RTVSPropertyOp49
 70
     1
102
RTVSPropertyOp50
 70
     0
102
RTVSPropertyOp51
 70
     0
102
RTVSPropertyOp52
 70
     0
102
RTVSPropertyOp53
 70
     0
102
RTVSPropertyOp54
 70
     0
102
RTVSPropertyOp55
 70
     1
102
RTVSPropertyOp56
 70
     0
102
RTVSPropertyOp57
 70
     0
102
RTVSPropertyOp58
 70
     1
102
RTVSPropertyOp59
 70
     1
102
RTVSPropertyOp60
 70
     1
102
RTVSPropertyOp61
 70
     1
102
RTVSPropertyOp62
 70
     1
  0
XRECORD
  5
48D
102
{ACAD_REACTORS
330
48C
102
}
330
48C
100
AcDbXrecord
280
     1
102
RTVSPost2010Prop28
280
     0
102
RTVSPost2010PropOp28
 70
     1
102
RTVSPost2010Prop29
280
     1
102
RTVSPost2010PropOp29
 70
     1
102
RTVSPost2010Prop30
280
     1
102
RTVSPost2010PropOp30
 70
     1
102
RTVSPost2010Prop31
280
     0
102
RTVSPost2010PropOp31
 70
     1
102
RTVSPost2010Prop32
280
     0
102
RTVSPost2010PropOp32
 70
     1
102
RTVSPost2010Prop33
280
     0
102
RTVSPost2010PropOp33
 70
     1
102
RTVSPost2010Prop34
280
     0
102
RTVSPost2010PropOp34
 70
     1
102
RTVSPost2010Prop35
280
     0
102
RTVSPost2010PropOp35
 70
     1
102
RTVSPost2010Prop36
280
     0
102
RTVSPost2010PropOp36
 70
     1
102
RTVSPost2010Prop37
 90
       50
102
RTVSPost2010PropOp37
 70
     1
102
RTVSPost2010Prop38
140
0.0
102
RTVSPost2010PropOp38
 70
     1
102
RTVSPost2010Prop39
140
1.0
102
RTVSPost2010PropOp39
 70
     1
102
RTVSPost2010Prop40
 90
        0
102
RTVSPost2010PropOp40
 70
     1
102
RTVSPost2010Prop41ColorIndex
 90
       18
102
RTVSPost2010Prop41ColorRGB
 90
        0
102
RTVSPost2010PropOp41
 70
     1
102
RTVSPost2010Prop42
 90
       50
102
RTVSPost2010PropOp42
 70
     1
102
RTVSPost2010Prop43
 90
        3
102
RTVSPost2010PropOp43
 70
     1
102
RTVSPost2010Prop44ColorIndex
 90
        5
102
RTVSPost2010Prop44ColorRGB
 90
      255
102
RTVSPost2010PropOp44
 70
     1
102
RTVSPost2010Prop45
280
     0
102
RTVSPost2010PropOp45
 70
     1
102
RTVSPost2010Prop46
 90
       50
102
RTVSPost2010PropOp46
 70
     1
102
RTVSPost2010Prop47
 90
       50
102
RTVSPost2010PropOp47
 70
     1
102
RTVSPost2010Prop48
 90
       50
102
RTVSPost2010PropOp48
 70
     1
102
RTVSPost2010Prop49
280
     0
102
RTVSPost2010PropOp49
 70
     1
102
RTVSPost2010Prop50
 90
       50
102
RTVSPost2010PropOp50
 70
     1
102
RTVSPost2010Prop51ColorIndex
 90
      256
102
RTVSPost2010Prop51ColorRGB
 90
-16777216
102
RTVSPost2010PropOp51
 70
     0
102
RTVSPost2010Prop52
140
1.0
102
RTVSPost2010PropOp52
 70
     0
102
RTVSPost2010Prop53
 90
        2
102
RTVSPost2010PropOp53
 70
     1
102
RTVSPost2010Prop54
  1
strokes_ogs.tif
102
RTVSPost2010PropOp54
 70
     1
102
RTVSPost2010Prop55
280
     0
102
RTVSPost2010PropOp55
 70
     1
102
RTVSPost2010Prop56
140
1.0
102
RTVSPost2010PropOp56
 70
     1
102
RTVSPost2010Prop57
140
1.0
102
RTVSPost2010PropOp57
 70
     1
102
RTVSPropertyOp0
 70
     1
102
RTVSPropertyOp1
 70
     1
102
RTVSPropertyOp2
 70
     1
102
RTVSPropertyOp3
 70
     1
102
RTVSPropertyOp4
 70
     1
102
RTVSPropertyOp5
 70
     1
102
RTVSPropertyOp6
 70
     1
102
RTVSPropertyOp7
 70
     1
102
RTVSPropertyOp8
 70
     1
102
RTVSPropertyOp9
 70
     1
102
RTVSPropertyOp10
 70
     1
102
RTVSPropertyOp11
 70
     1
102
RTVSPropertyOp12
 70
     1
102
RTVSPropertyOp13
 70
     1
102
RTVSPropertyOp14
 70
     1
102
RTVSPropertyOp15
 70
     1
102
RTVSPropertyOp16
 70
     1
102
RTVSPropertyOp17
 70
     1
102
RTVSPropertyOp18
 70
     1
102
RTVSPropertyOp19
 70
     1
102
RTVSPropertyOp20
 70
     1
102
RTVSPropertyOp21
 70
     1
102
RTVSPropertyOp22
 70
     1
102
RTVSPropertyOp23
 70
     1
102
RTVSPropertyOp24
 70
     1
102
RTVSPropertyOp25
 70
     1
102
RTVSPropertyOp26
 70
     1
102
RTVSPropertyOp27
 70
     1
102
RTVSPropertyOp28
 70
     1
102
RTVSPropertyOp29
 70
     1
102
RTVSPropertyOp30
 70
     1
102
RTVSPropertyOp31
 70
     1
102
RTVSPropertyOp32
 70
     1
102
RTVSPropertyOp33
 70
     1
102
RTVSPropertyOp34
 70
     1
102
RTVSPropertyOp35
 70
     1
102
RTVSPropertyOp36
 70
     1
102
RTVSPropertyOp37
 70
     1
102
RTVSPropertyOp38
 70
     1
102
RTVSPropertyOp39
 70
     1
102
RTVSPropertyOp40
 70
     1
102
RTVSPropertyOp41
 70
     1
102
RTVSPropertyOp42
 70
     1
102
RTVSPropertyOp43
 70
     1
102
RTVSPropertyOp44
 70
     1
102
RTVSPropertyOp45
 70
     1
102
RTVSPropertyOp46
 70
     1
102
RTVSPropertyOp47
 70
     1
102
RTVSPropertyOp48
 70
     1
102
RTVSPropertyOp49
 70
     1
102
RTVSPropertyOp50
 70
     1
102
RTVSPropertyOp51
 70
     0
102
RTVSPropertyOp52
 70
     0
102
RTVSPropertyOp53
 70
     1
102
RTVSPropertyOp54
 70
     1
102
RTVSPropertyOp55
 70
     1
102
RTVSPropertyOp56
 70
     1
102
RTVSPropertyOp57
 70
     1
102
RTVSPropertyOp58
 70
     1
102
RTVSPropertyOp59
 70
     1
102
RTVSPropertyOp60
 70
     1
102
RTVSPropertyOp61
 70
     1
102
RTVSPropertyOp62
 70
     1
  0
XRECORD
  5
471
102
{ACAD_REACTORS
330
470
102
}
330
470
100
AcDbXrecord
280
     1
102
RTVSPost2010Prop28
280
     0
102
RTVSPost2010PropOp28
 70
     1
102
RTVSPost2010Prop29
280
     1
102
RTVSPost2010PropOp29
 70
     1
102
RTVSPost2010Prop30
280
     1
102
RTVSPost2010PropOp30
 70
     1
102
RTVSPost2010Prop31
280
     0
102
RTVSPost2010PropOp31
 70
     1
102
RTVSPost2010Prop32
280
     0
102
RTVSPost2010PropOp32
 70
     1
102
RTVSPost2010Prop33
280
     0
102
RTVSPost2010PropOp33
 70
     1
102
RTVSPost2010Prop34
280
     0
102
RTVSPost2010PropOp34
 70
     1
102
RTVSPost2010Prop35
280
     0
102
RTVSPost2010PropOp35
 70
     1
102
RTVSPost2010Prop36
280
     0
102
RTVSPost2010PropOp36
 70
     1
102
RTVSPost2010Prop37
 90
       50
102
RTVSPost2010PropOp37
 70
     1
102
RTVSPost2010Prop38
140
0.0
102
RTVSPost2010PropOp38
 70
     1
102
RTVSPost2010Prop39
140
1.0
102
RTVSPost2010PropOp39
 70
     1
102
RTVSPost2010Prop40
 90
        0
102
RTVSPost2010PropOp40
 70
     1
102
RTVSPost2010Prop41ColorIndex
 90
       18
102
RTVSPost2010Prop41ColorRGB
 90
        0
102
RTVSPost2010PropOp41
 70
     1
102
RTVSPost2010Prop42
 90
       50
102
RTVSPost2010PropOp42
 70
     1
102
RTVSPost2010Prop43
 90
        3
102
RTVSPost2010PropOp43
 70
     1
102
RTVSPost2010Prop44ColorIndex
 90
        5
102
RTVSPost2010Prop44ColorRGB
 90
      255
102
RTVSPost2010PropOp44
 70
     1
102
RTVSPost2010Prop45
280
     0
102
RTVSPost2010PropOp45
 70
     1
102
RTVSPost2010Prop46
 90
       50
102
RTVSPost2010PropOp46
 70
     1
102
RTVSPost2010Prop47
 90
       50
102
RTVSPost2010PropOp47
 70
     1
102
RTVSPost2010Prop48
 90
       50
102
RTVSPost2010PropOp48
 70
     1
102
RTVSPost2010Prop49
280
     0
102
RTVSPost2010PropOp49
 70
     1
102
RTVSPost2010Prop50
 90
       50
102
RTVSPost2010PropOp50
 70
     1
102
RTVSPost2010Prop51ColorIndex
 90
      256
102
RTVSPost2010Prop51ColorRGB
 90
-16777216
102
RTVSPost2010PropOp51
 70
     0
102
RTVSPost2010Prop52
140
1.0
102
RTVSPost2010PropOp52
 70
     0
102
RTVSPost2010Prop53
 90
        2
102
RTVSPost2010PropOp53
 70
     1
102
RTVSPost2010Prop54
  1
strokes_ogs.tif
102
RTVSPost2010PropOp54
 70
     1
102
RTVSPost2010Prop55
280
     0
102
RTVSPost2010PropOp55
 70
     1
102
RTVSPost2010Prop56
140
1.0
102
RTVSPost2010PropOp56
 70
     1
102
RTVSPost2010Prop57
140
1.0
102
RTVSPost2010PropOp57
 70
     1
102
RTVSPropertyOp0
 70
     1
102
RTVSPropertyOp1
 70
     1
102
RTVSPropertyOp2
 70
     1
102
RTVSPropertyOp3
 70
     1
102
RTVSPropertyOp4
 70
     1
102
RTVSPropertyOp5
 70
     1
102
RTVSPropertyOp6
 70
     1
102
RTVSPropertyOp7
 70
     1
102
RTVSPropertyOp8
 70
     1
102
RTVSPropertyOp9
 70
     1
102
RTVSPropertyOp10
 70
     1
102
RTVSPropertyOp11
 70
     1
102
RTVSPropertyOp12
 70
     1
102
RTVSPropertyOp13
 70
     1
102
RTVSPropertyOp14
 70
     1
102
RTVSPropertyOp15
 70
     1
102
RTVSPropertyOp16
 70
     1
102
RTVSPropertyOp17
 70
     1
102
RTVSPropertyOp18
 70
     1
102
RTVSPropertyOp19
 70
     1
102
RTVSPropertyOp20
 70
     1
102
RTVSPropertyOp21
 70
     1
102
RTVSPropertyOp22
 70
     1
102
RTVSPropertyOp23
 70
     1
102
RTVSPropertyOp24
 70
     1
102
RTVSPropertyOp25
 70
     1
102
RTVSPropertyOp26
 70
     1
102
RTVSPropertyOp27
 70
     1
102
RTVSPropertyOp28
 70
     1
102
RTVSPropertyOp29
 70
     1
102
RTVSPropertyOp30
 70
     1
102
RTVSPropertyOp31
 70
     1
102
RTVSPropertyOp32
 70
     1
102
RTVSPropertyOp33
 70
     1
102
RTVSPropertyOp34
 70
     1
102
RTVSPropertyOp35
 70
     1
102
RTVSPropertyOp36
 70
     1
102
RTVSPropertyOp37
 70
     1
102
RTVSPropertyOp38
 70
     1
102
RTVSPropertyOp39
 70
     1
102
RTVSPropertyOp40
 70
     1
102
RTVSPropertyOp41
 70
     1
102
RTVSPropertyOp42
 70
     1
102
RTVSPropertyOp43
 70
     1
102
RTVSPropertyOp44
 70
     1
102
RTVSPropertyOp45
 70
     1
102
RTVSPropertyOp46
 70
     1
102
RTVSPropertyOp47
 70
     1
102
RTVSPropertyOp48
 70
     1
102
RTVSPropertyOp49
 70
     1
102
RTVSPropertyOp50
 70
     1
102
RTVSPropertyOp51
 70
     0
102
RTVSPropertyOp52
 70
     0
102
RTVSPropertyOp53
 70
     1
102
RTVSPropertyOp54
 70
     1
102
RTVSPropertyOp55
 70
     1
102
RTVSPropertyOp56
 70
     1
102
RTVSPropertyOp57
 70
     1
102
RTVSPropertyOp58
 70
     1
102
RTVSPropertyOp59
 70
     1
102
RTVSPropertyOp60
 70
     1
102
RTVSPropertyOp61
 70
     1
102
RTVSPropertyOp62
 70
     1
  0
XRECORD
  5
473
102
{ACAD_REACTORS
330
472
102
}
330
472
100
AcDbXrecord
280
     1
102
RTVSPost2010Prop28
280
     0
102
RTVSPost2010PropOp28
 70
     1
102
RTVSPost2010Prop29
280
     1
102
RTVSPost2010PropOp29
 70
     1
102
RTVSPost2010Prop30
280
     1
102
RTVSPost2010PropOp30
 70
     1
102
RTVSPost2010Prop31
280
     0
102
RTVSPost2010PropOp31
 70
     1
102
RTVSPost2010Prop32
280
     0
102
RTVSPost2010PropOp32
 70
     1
102
RTVSPost2010Prop33
280
     0
102
RTVSPost2010PropOp33
 70
     1
102
RTVSPost2010Prop34
280
     0
102
RTVSPost2010PropOp34
 70
     1
102
RTVSPost2010Prop35
280
     0
102
RTVSPost2010PropOp35
 70
     1
102
RTVSPost2010Prop36
280
     0
102
RTVSPost2010PropOp36
 70
     1
102
RTVSPost2010Prop37
 90
       50
102
RTVSPost2010PropOp37
 70
     1
102
RTVSPost2010Prop38
140
0.0
102
RTVSPost2010PropOp38
 70
     1
102
RTVSPost2010Prop39
140
1.0
102
RTVSPost2010PropOp39
 70
     1
102
RTVSPost2010Prop40
 90
        0
102
RTVSPost2010PropOp40
 70
     1
102
RTVSPost2010Prop41ColorIndex
 90
       18
102
RTVSPost2010Prop41ColorRGB
 90
        0
102
RTVSPost2010PropOp41
 70
     1
102
RTVSPost2010Prop42
 90
       50
102
RTVSPost2010PropOp42
 70
     1
102
RTVSPost2010Prop43
 90
        3
102
RTVSPost2010PropOp43
 70
     1
102
RTVSPost2010Prop44ColorIndex
 90
        5
102
RTVSPost2010Prop44ColorRGB
 90
      255
102
RTVSPost2010PropOp44
 70
     1
102
RTVSPost2010Prop45
280
     0
102
RTVSPost2010PropOp45
 70
     1
102
RTVSPost2010Prop46
 90
       50
102
RTVSPost2010PropOp46
 70
     1
102
RTVSPost2010Prop47
 90
       50
102
RTVSPost2010PropOp47
 70
     1
102
RTVSPost2010Prop48
 90
       50
102
RTVSPost2010PropOp48
 70
     1
102
RTVSPost2010Prop49
280
     0
102
RTVSPost2010PropOp49
 70
     1
102
RTVSPost2010Prop50
 90
       50
102
RTVSPost2010PropOp50
 70
     1
102
RTVSPost2010Prop51ColorIndex
 90
      256
102
RTVSPost2010Prop51ColorRGB
 90
-16777216
102
RTVSPost2010PropOp51
 70
     0
102
RTVSPost2010Prop52
140
1.0
102
RTVSPost2010PropOp52
 70
     0
102
RTVSPost2010Prop53
 90
        2
102
RTVSPost2010PropOp53
 70
     1
102
RTVSPost2010Prop54
  1
strokes_ogs.tif
102
RTVSPost2010PropOp54
 70
     1
102
RTVSPost2010Prop55
280
     0
102
RTVSPost2010PropOp55
 70
     1
102
RTVSPost2010Prop56
140
1.0
102
RTVSPost2010PropOp56
 70
     1
102
RTVSPost2010Prop57
140
1.0
102
RTVSPost2010PropOp57
 70
     1
102
RTVSPropertyOp0
 70
     1
102
RTVSPropertyOp1
 70
     1
102
RTVSPropertyOp2
 70
     1
102
RTVSPropertyOp3
 70
     1
102
RTVSPropertyOp4
 70
     1
102
RTVSPropertyOp5
 70
     1
102
RTVSPropertyOp6
 70
     1
102
RTVSPropertyOp7
 70
     1
102
RTVSPropertyOp8
 70
     1
102
RTVSPropertyOp9
 70
     1
102
RTVSPropertyOp10
 70
     1
102
RTVSPropertyOp11
 70
     1
102
RTVSPropertyOp12
 70
     1
102
RTVSPropertyOp13
 70
     1
102
RTVSPropertyOp14
 70
     1
102
RTVSPropertyOp15
 70
     1
102
RTVSPropertyOp16
 70
     1
102
RTVSPropertyOp17
 70
     1
102
RTVSPropertyOp18
 70
     1
102
RTVSPropertyOp19
 70
     1
102
RTVSPropertyOp20
 70
     1
102
RTVSPropertyOp21
 70
     1
102
RTVSPropertyOp22
 70
     1
102
RTVSPropertyOp23
 70
     1
102
RTVSPropertyOp24
 70
     1
102
RTVSPropertyOp25
 70
     1
102
RTVSPropertyOp26
 70
     1
102
RTVSPropertyOp27
 70
     1
102
RTVSPropertyOp28
 70
     1
102
RTVSPropertyOp29
 70
     1
102
RTVSPropertyOp30
 70
     1
102
RTVSPropertyOp31
 70
     1
102
RTVSPropertyOp32
 70
     1
102
RTVSPropertyOp33
 70
     1
102
RTVSPropertyOp34
 70
     1
102
RTVSPropertyOp35
 70
     1
102
RTVSPropertyOp36
 70
     1
102
RTVSPropertyOp37
 70
     1
102
RTVSPropertyOp38
 70
     1
102
RTVSPropertyOp39
 70
     1
102
RTVSPropertyOp40
 70
     1
102
RTVSPropertyOp41
 70
     1
102
RTVSPropertyOp42
 70
     1
102
RTVSPropertyOp43
 70
     1
102
RTVSPropertyOp44
 70
     1
102
RTVSPropertyOp45
 70
     1
102
RTVSPropertyOp46
 70
     1
102
RTVSPropertyOp47
 70
     1
102
RTVSPropertyOp48
 70
     1
102
RTVSPropertyOp49
 70
     1
102
RTVSPropertyOp50
 70
     1
102
RTVSPropertyOp51
 70
     0
102
RTVSPropertyOp52
 70
     0
102
RTVSPropertyOp53
 70
     1
102
RTVSPropertyOp54
 70
     1
102
RTVSPropertyOp55
 70
     1
102
RTVSPropertyOp56
 70
     1
102
RTVSPropertyOp57
 70
     1
102
RTVSPropertyOp58
 70
     1
102
RTVSPropertyOp59
 70
     1
102
RTVSPropertyOp60
 70
     1
102
RTVSPropertyOp61
 70
     1
102
RTVSPropertyOp62
 70
     1
  0
XRECORD
  5
475
102
{ACAD_REACTORS
330
474
102
}
330
474
100
AcDbXrecord
280
     1
102
RTVSPost2010Prop28
280
     0
102
RTVSPost2010PropOp28
 70
     1
102
RTVSPost2010Prop29
280
     1
102
RTVSPost2010PropOp29
 70
     1
102
RTVSPost2010Prop30
280
     1
102
RTVSPost2010PropOp30
 70
     1
102
RTVSPost2010Prop31
280
     0
102
RTVSPost2010PropOp31
 70
     1
102
RTVSPost2010Prop32
280
     0
102
RTVSPost2010PropOp32
 70
     1
102
RTVSPost2010Prop33
280
     0
102
RTVSPost2010PropOp33
 70
     1
102
RTVSPost2010Prop34
280
     0
102
RTVSPost2010PropOp34
 70
     1
102
RTVSPost2010Prop35
280
     0
102
RTVSPost2010PropOp35
 70
     1
102
RTVSPost2010Prop36
280
     0
102
RTVSPost2010PropOp36
 70
     1
102
RTVSPost2010Prop37
 90
       50
102
RTVSPost2010PropOp37
 70
     1
102
RTVSPost2010Prop38
140
0.0
102
RTVSPost2010PropOp38
 70
     1
102
RTVSPost2010Prop39
140
1.0
102
RTVSPost2010PropOp39
 70
     1
102
RTVSPost2010Prop40
 90
        0
102
RTVSPost2010PropOp40
 70
     1
102
RTVSPost2010Prop41ColorIndex
 90
       18
102
RTVSPost2010Prop41ColorRGB
 90
        0
102
RTVSPost2010PropOp41
 70
     1
102
RTVSPost2010Prop42
 90
       50
102
RTVSPost2010PropOp42
 70
     1
102
RTVSPost2010Prop43
 90
        3
102
RTVSPost2010PropOp43
 70
     1
102
RTVSPost2010Prop44ColorIndex
 90
        5
102
RTVSPost2010Prop44ColorRGB
 90
      255
102
RTVSPost2010PropOp44
 70
     1
102
RTVSPost2010Prop45
280
     0
102
RTVSPost2010PropOp45
 70
     1
102
RTVSPost2010Prop46
 90
       50
102
RTVSPost2010PropOp46
 70
     1
102
RTVSPost2010Prop47
 90
       50
102
RTVSPost2010PropOp47
 70
     1
102
RTVSPost2010Prop48
 90
       50
102
RTVSPost2010PropOp48
 70
     1
102
RTVSPost2010Prop49
280
     0
102
RTVSPost2010PropOp49
 70
     1
102
RTVSPost2010Prop50
 90
       50
102
RTVSPost2010PropOp50
 70
     1
102
RTVSPost2010Prop51ColorIndex
 90
      256
102
RTVSPost2010Prop51ColorRGB
 90
-16777216
102
RTVSPost2010PropOp51
 70
     0
102
RTVSPost2010Prop52
140
1.0
102
RTVSPost2010PropOp52
 70
     0
102
RTVSPost2010Prop53
 90
        2
102
RTVSPost2010PropOp53
 70
     1
102
RTVSPost2010Prop54
  1
strokes_ogs.tif
102
RTVSPost2010PropOp54
 70
     1
102
RTVSPost2010Prop55
280
     0
102
RTVSPost2010PropOp55
 70
     1
102
RTVSPost2010Prop56
140
1.0
102
RTVSPost2010PropOp56
 70
     1
102
RTVSPost2010Prop57
140
1.0
102
RTVSPost2010PropOp57
 70
     1
102
RTVSPropertyOp0
 70
     1
102
RTVSPropertyOp1
 70
     1
102
RTVSPropertyOp2
 70
     1
102
RTVSPropertyOp3
 70
     1
102
RTVSPropertyOp4
 70
     1
102
RTVSPropertyOp5
 70
     1
102
RTVSPropertyOp6
 70
     1
102
RTVSPropertyOp7
 70
     1
102
RTVSPropertyOp8
 70
     1
102
RTVSPropertyOp9
 70
     1
102
RTVSPropertyOp10
 70
     1
102
RTVSPropertyOp11
 70
     1
102
RTVSPropertyOp12
 70
     1
102
RTVSPropertyOp13
 70
     1
102
RTVSPropertyOp14
 70
     1
102
RTVSPropertyOp15
 70
     1
102
RTVSPropertyOp16
 70
     1
102
RTVSPropertyOp17
 70
     1
102
RTVSPropertyOp18
 70
     1
102
RTVSPropertyOp19
 70
     1
102
RTVSPropertyOp20
 70
     1
102
RTVSPropertyOp21
 70
     1
102
RTVSPropertyOp22
 70
     1
102
RTVSPropertyOp23
 70
     1
102
RTVSPropertyOp24
 70
     1
102
RTVSPropertyOp25
 70
     1
102
RTVSPropertyOp26
 70
     1
102
RTVSPropertyOp27
 70
     1
102
RTVSPropertyOp28
 70
     1
102
RTVSPropertyOp29
 70
     1
102
RTVSPropertyOp30
 70
     1
102
RTVSPropertyOp31
 70
     1
102
RTVSPropertyOp32
 70
     1
102
RTVSPropertyOp33
 70
     1
102
RTVSPropertyOp34
 70
     1
102
RTVSPropertyOp35
 70
     1
102
RTVSPropertyOp36
 70
     1
102
RTVSPropertyOp37
 70
     1
102
RTVSPropertyOp38
 70
     1
102
RTVSPropertyOp39
 70
     1
102
RTVSPropertyOp40
 70
     1
102
RTVSPropertyOp41
 70
     1
102
RTVSPropertyOp42
 70
     1
102
RTVSPropertyOp43
 70
     1
102
RTVSPropertyOp44
 70
     1
102
RTVSPropertyOp45
 70
     1
102
RTVSPropertyOp46
 70
     1
102
RTVSPropertyOp47
 70
     1
102
RTVSPropertyOp48
 70
     1
102
RTVSPropertyOp49
 70
     1
102
RTVSPropertyOp50
 70
     1
102
RTVSPropertyOp51
 70
     0
102
RTVSPropertyOp52
 70
     0
102
RTVSPropertyOp53
 70
     1
102
RTVSPropertyOp54
 70
     1
102
RTVSPropertyOp55
 70
     1
102
RTVSPropertyOp56
 70
     1
102
RTVSPropertyOp57
 70
     1
102
RTVSPropertyOp58
 70
     1
102
RTVSPropertyOp59
 70
     1
102
RTVSPropertyOp60
 70
     1
102
RTVSPropertyOp61
 70
     1
102
RTVSPropertyOp62
 70
     1
  0
XRECORD
  5
477
102
{ACAD_REACTORS
330
476
102
}
330
476
100
AcDbXrecord
280
     1
102
RTVSPost2010Prop28
280
     0
102
RTVSPost2010PropOp28
 70
     1
102
RTVSPost2010Prop29
280
     1
102
RTVSPost2010PropOp29
 70
     1
102
RTVSPost2010Prop30
280
     1
102
RTVSPost2010PropOp30
 70
     1
102
RTVSPost2010Prop31
280
     0
102
RTVSPost2010PropOp31
 70
     1
102
RTVSPost2010Prop32
280
     0
102
RTVSPost2010PropOp32
 70
     1
102
RTVSPost2010Prop33
280
     0
102
RTVSPost2010PropOp33
 70
     1
102
RTVSPost2010Prop34
280
     0
102
RTVSPost2010PropOp34
 70
     1
102
RTVSPost2010Prop35
280
     0
102
RTVSPost2010PropOp35
 70
     1
102
RTVSPost2010Prop36
280
     0
102
RTVSPost2010PropOp36
 70
     1
102
RTVSPost2010Prop37
 90
       50
102
RTVSPost2010PropOp37
 70
     1
102
RTVSPost2010Prop38
140
0.0
102
RTVSPost2010PropOp38
 70
     1
102
RTVSPost2010Prop39
140
1.0
102
RTVSPost2010PropOp39
 70
     1
102
RTVSPost2010Prop40
 90
        0
102
RTVSPost2010PropOp40
 70
     1
102
RTVSPost2010Prop41ColorIndex
 90
       18
102
RTVSPost2010Prop41ColorRGB
 90
        0
102
RTVSPost2010PropOp41
 70
     1
102
RTVSPost2010Prop42
 90
       50
102
RTVSPost2010PropOp42
 70
     1
102
RTVSPost2010Prop43
 90
        3
102
RTVSPost2010PropOp43
 70
     1
102
RTVSPost2010Prop44ColorIndex
 90
        5
102
RTVSPost2010Prop44ColorRGB
 90
      255
102
RTVSPost2010PropOp44
 70
     1
102
RTVSPost2010Prop45
280
     0
102
RTVSPost2010PropOp45
 70
     1
102
RTVSPost2010Prop46
 90
       50
102
RTVSPost2010PropOp46
 70
     1
102
RTVSPost2010Prop47
 90
       50
102
RTVSPost2010PropOp47
 70
     1
102
RTVSPost2010Prop48
 90
       50
102
RTVSPost2010PropOp48
 70
     1
102
RTVSPost2010Prop49
280
     0
102
RTVSPost2010PropOp49
 70
     1
102
RTVSPost2010Prop50
 90
       50
102
RTVSPost2010PropOp50
 70
     1
102
RTVSPost2010Prop51ColorIndex
 90
      256
102
RTVSPost2010Prop51ColorRGB
 90
-16777216
102
RTVSPost2010PropOp51
 70
     0
102
RTVSPost2010Prop52
140
1.0
102
RTVSPost2010PropOp52
 70
     0
102
RTVSPost2010Prop53
 90
        2
102
RTVSPost2010PropOp53
 70
     1
102
RTVSPost2010Prop54
  1
strokes_ogs.tif
102
RTVSPost2010PropOp54
 70
     1
102
RTVSPost2010Prop55
280
     0
102
RTVSPost2010PropOp55
 70
     1
102
RTVSPost2010Prop56
140
1.0
102
RTVSPost2010PropOp56
 70
     1
102
RTVSPost2010Prop57
140
1.0
102
RTVSPost2010PropOp57
 70
     1
102
RTVSPropertyOp0
 70
     1
102
RTVSPropertyOp1
 70
     1
102
RTVSPropertyOp2
 70
     1
102
RTVSPropertyOp3
 70
     1
102
RTVSPropertyOp4
 70
     1
102
RTVSPropertyOp5
 70
     1
102
RTVSPropertyOp6
 70
     1
102
RTVSPropertyOp7
 70
     1
102
RTVSPropertyOp8
 70
     1
102
RTVSPropertyOp9
 70
     1
102
RTVSPropertyOp10
 70
     1
102
RTVSPropertyOp11
 70
     1
102
RTVSPropertyOp12
 70
     1
102
RTVSPropertyOp13
 70
     1
102
RTVSPropertyOp14
 70
     1
102
RTVSPropertyOp15
 70
     1
102
RTVSPropertyOp16
 70
     1
102
RTVSPropertyOp17
 70
     1
102
RTVSPropertyOp18
 70
     1
102
RTVSPropertyOp19
 70
     1
102
RTVSPropertyOp20
 70
     1
102
RTVSPropertyOp21
 70
     1
102
RTVSPropertyOp22
 70
     1
102
RTVSPropertyOp23
 70
     1
102
RTVSPropertyOp24
 70
     1
102
RTVSPropertyOp25
 70
     1
102
RTVSPropertyOp26
 70
     1
102
RTVSPropertyOp27
 70
     1
102
RTVSPropertyOp28
 70
     1
102
RTVSPropertyOp29
 70
     1
102
RTVSPropertyOp30
 70
     1
102
RTVSPropertyOp31
 70
     1
102
RTVSPropertyOp32
 70
     1
102
RTVSPropertyOp33
 70
     1
102
RTVSPropertyOp34
 70
     1
102
RTVSPropertyOp35
 70
     1
102
RTVSPropertyOp36
 70
     1
102
RTVSPropertyOp37
 70
     1
102
RTVSPropertyOp38
 70
     1
102
RTVSPropertyOp39
 70
     1
102
RTVSPropertyOp40
 70
     1
102
RTVSPropertyOp41
 70
     1
102
RTVSPropertyOp42
 70
     1
102
RTVSPropertyOp43
 70
     1
102
RTVSPropertyOp44
 70
     1
102
RTVSPropertyOp45
 70
     1
102
RTVSPropertyOp46
 70
     1
102
RTVSPropertyOp47
 70
     1
102
RTVSPropertyOp48
 70
     1
102
RTVSPropertyOp49
 70
     1
102
RTVSPropertyOp50
 70
     1
102
RTVSPropertyOp51
 70
     0
102
RTVSPropertyOp52
 70
     0
102
RTVSPropertyOp53
 70
     1
102
RTVSPropertyOp54
 70
     1
102
RTVSPropertyOp55
 70
     1
102
RTVSPropertyOp56
 70
     1
102
RTVSPropertyOp57
 70
     1
102
RTVSPropertyOp58
 70
     1
102
RTVSPropertyOp59
 70
     1
102
RTVSPropertyOp60
 70
     1
102
RTVSPropertyOp61
 70
     1
102
RTVSPropertyOp62
 70
     1
  0
XRECORD
  5
47F
102
{ACAD_REACTORS
330
47E
102
}
330
47E
100
AcDbXrecord
280
     1
102
RTVSPost2010Prop28
280
     0
102
RTVSPost2010PropOp28
 70
     1
102
RTVSPost2010Prop29
280
     1
102
RTVSPost2010PropOp29
 70
     1
102
RTVSPost2010Prop30
280
     1
102
RTVSPost2010PropOp30
 70
     1
102
RTVSPost2010Prop31
280
     0
102
RTVSPost2010PropOp31
 70
     1
102
RTVSPost2010Prop32
280
     0
102
RTVSPost2010PropOp32
 70
     1
102
RTVSPost2010Prop33
280
     0
102
RTVSPost2010PropOp33
 70
     1
102
RTVSPost2010Prop34
280
     0
102
RTVSPost2010PropOp34
 70
     1
102
RTVSPost2010Prop35
280
     0
102
RTVSPost2010PropOp35
 70
     1
102
RTVSPost2010Prop36
280
     0
102
RTVSPost2010PropOp36
 70
     1
102
RTVSPost2010Prop37
 90
       50
102
RTVSPost2010PropOp37
 70
     1
102
RTVSPost2010Prop38
140
0.0
102
RTVSPost2010PropOp38
 70
     1
102
RTVSPost2010Prop39
140
1.0
102
RTVSPost2010PropOp39
 70
     1
102
RTVSPost2010Prop40
 90
        0
102
RTVSPost2010PropOp40
 70
     1
102
RTVSPost2010Prop41ColorIndex
 90
       18
102
RTVSPost2010Prop41ColorRGB
 90
        0
102
RTVSPost2010PropOp41
 70
     1
102
RTVSPost2010Prop42
 90
       50
102
RTVSPost2010PropOp42
 70
     1
102
RTVSPost2010Prop43
 90
        3
102
RTVSPost2010PropOp43
 70
     1
102
RTVSPost2010Prop44ColorIndex
 90
        5
102
RTVSPost2010Prop44ColorRGB
 90
      255
102
RTVSPost2010PropOp44
 70
     1
102
RTVSPost2010Prop45
280
     0
102
RTVSPost2010PropOp45
 70
     1
102
RTVSPost2010Prop46
 90
       50
102
RTVSPost2010PropOp46
 70
     1
102
RTVSPost2010Prop47
 90
       50
102
RTVSPost2010PropOp47
 70
     1
102
RTVSPost2010Prop48
 90
       50
102
RTVSPost2010PropOp48
 70
     1
102
RTVSPost2010Prop49
280
     0
102
RTVSPost2010PropOp49
 70
     1
102
RTVSPost2010Prop50
 90
       50
102
RTVSPost2010PropOp50
 70
     1
102
RTVSPost2010Prop51ColorIndex
 90
      256
102
RTVSPost2010Prop51ColorRGB
 90
-16777216
102
RTVSPost2010PropOp51
 70
     0
102
RTVSPost2010Prop52
140
1.0
102
RTVSPost2010PropOp52
 70
     0
102
RTVSPost2010Prop53
 90
        2
102
RTVSPost2010PropOp53
 70
     1
102
RTVSPost2010Prop54
  1
strokes_ogs.tif
102
RTVSPost2010PropOp54
 70
     1
102
RTVSPost2010Prop55
280
     0
102
RTVSPost2010PropOp55
 70
     1
102
RTVSPost2010Prop56
140
1.0
102
RTVSPost2010PropOp56
 70
     1
102
RTVSPost2010Prop57
140
1.0
102
RTVSPost2010PropOp57
 70
     1
102
RTVSPropertyOp0
 70
     1
102
RTVSPropertyOp1
 70
     1
102
RTVSPropertyOp2
 70
     1
102
RTVSPropertyOp3
 70
     1
102
RTVSPropertyOp4
 70
     1
102
RTVSPropertyOp5
 70
     1
102
RTVSPropertyOp6
 70
     1
102
RTVSPropertyOp7
 70
     1
102
RTVSPropertyOp8
 70
     1
102
RTVSPropertyOp9
 70
     1
102
RTVSPropertyOp10
 70
     1
102
RTVSPropertyOp11
 70
     1
102
RTVSPropertyOp12
 70
     1
102
RTVSPropertyOp13
 70
     1
102
RTVSPropertyOp14
 70
     1
102
RTVSPropertyOp15
 70
     1
102
RTVSPropertyOp16
 70
     1
102
RTVSPropertyOp17
 70
     1
102
RTVSPropertyOp18
 70
     1
102
RTVSPropertyOp19
 70
     1
102
RTVSPropertyOp20
 70
     1
102
RTVSPropertyOp21
 70
     1
102
RTVSPropertyOp22
 70
     1
102
RTVSPropertyOp23
 70
     1
102
RTVSPropertyOp24
 70
     1
102
RTVSPropertyOp25
 70
     1
102
RTVSPropertyOp26
 70
     1
102
RTVSPropertyOp27
 70
     1
102
RTVSPropertyOp28
 70
     1
102
RTVSPropertyOp29
 70
     1
102
RTVSPropertyOp30
 70
     1
102
RTVSPropertyOp31
 70
     1
102
RTVSPropertyOp32
 70
     1
102
RTVSPropertyOp33
 70
     1
102
RTVSPropertyOp34
 70
     1
102
RTVSPropertyOp35
 70
     1
102
RTVSPropertyOp36
 70
     1
102
RTVSPropertyOp37
 70
     1
102
RTVSPropertyOp38
 70
     1
102
RTVSPropertyOp39
 70
     1
102
RTVSPropertyOp40
 70
     1
102
RTVSPropertyOp41
 70
     1
102
RTVSPropertyOp42
 70
     1
102
RTVSPropertyOp43
 70
     1
102
RTVSPropertyOp44
 70
     1
102
RTVSPropertyOp45
 70
     1
102
RTVSPropertyOp46
 70
     1
102
RTVSPropertyOp47
 70
     1
102
RTVSPropertyOp48
 70
     1
102
RTVSPropertyOp49
 70
     1
102
RTVSPropertyOp50
 70
     1
102
RTVSPropertyOp51
 70
     0
102
RTVSPropertyOp52
 70
     0
102
RTVSPropertyOp53
 70
     1
102
RTVSPropertyOp54
 70
     1
102
RTVSPropertyOp55
 70
     1
102
RTVSPropertyOp56
 70
     1
102
RTVSPropertyOp57
 70
     1
102
RTVSPropertyOp58
 70
     1
102
RTVSPropertyOp59
 70
     1
102
RTVSPropertyOp60
 70
     1
102
RTVSPropertyOp61
 70
     1
102
RTVSPropertyOp62
 70
     1
  0
XRECORD
  5
49B
102
{ACAD_REACTORS
330
49A
102
}
330
49A
100
AcDbXrecord
280
     1
102
RTVSPost2010Prop28
280
     0
102
RTVSPost2010PropOp28
 70
     1
102
RTVSPost2010Prop29
280
     1
102
RTVSPost2010PropOp29
 70
     1
102
RTVSPost2010Prop30
280
     1
102
RTVSPost2010PropOp30
 70
     1
102
RTVSPost2010Prop31
280
     0
102
RTVSPost2010PropOp31
 70
     1
102
RTVSPost2010Prop32
280
     0
102
RTVSPost2010PropOp32
 70
     1
102
RTVSPost2010Prop33
280
     0
102
RTVSPost2010PropOp33
 70
     1
102
RTVSPost2010Prop34
280
     0
102
RTVSPost2010PropOp34
 70
     1
102
RTVSPost2010Prop35
280
     0
102
RTVSPost2010PropOp35
 70
     1
102
RTVSPost2010Prop36
280
     0
102
RTVSPost2010PropOp36
 70
     1
102
RTVSPost2010Prop37
 90
       50
102
RTVSPost2010PropOp37
 70
     0
102
RTVSPost2010Prop38
140
0.0
102
RTVSPost2010PropOp38
 70
     0
102
RTVSPost2010Prop39
140
1.0
102
RTVSPost2010PropOp39
 70
     0
102
RTVSPost2010Prop40
 90
        0
102
RTVSPost2010PropOp40
 70
     0
102
RTVSPost2010Prop41ColorIndex
 90
       18
102
RTVSPost2010Prop41ColorRGB
 90
        0
102
RTVSPost2010PropOp41
 70
     0
102
RTVSPost2010Prop42
 90
       50
102
RTVSPost2010PropOp42
 70
     0
102
RTVSPost2010Prop43
 90
        3
102
RTVSPost2010PropOp43
 70
     0
102
RTVSPost2010Prop44ColorIndex
 90
        5
102
RTVSPost2010Prop44ColorRGB
 90
      255
102
RTVSPost2010PropOp44
 70
     0
102
RTVSPost2010Prop45
280
     0
102
RTVSPost2010PropOp45
 70
     1
102
RTVSPost2010Prop46
 90
       50
102
RTVSPost2010PropOp46
 70
     0
102
RTVSPost2010Prop47
 90
       50
102
RTVSPost2010PropOp47
 70
     0
102
RTVSPost2010Prop48
 90
       50
102
RTVSPost2010PropOp48
 70
     0
102
RTVSPost2010Prop49
280
     0
102
RTVSPost2010PropOp49
 70
     1
102
RTVSPost2010Prop50
 90
       50
102
RTVSPost2010PropOp50
 70
     0
102
RTVSPost2010Prop51ColorIndex
 90
      256
102
RTVSPost2010Prop51ColorRGB
 90
-16777216
102
RTVSPost2010PropOp51
 70
     0
102
RTVSPost2010Prop52
140
1.0
102
RTVSPost2010PropOp52
 70
     0
102
RTVSPost2010Prop53
 90
        2
102
RTVSPost2010PropOp53
 70
     0
102
RTVSPost2010Prop54
  1
strokes_ogs.tif
102
RTVSPost2010PropOp54
 70
     0
102
RTVSPost2010Prop55
280
     0
102
RTVSPost2010PropOp55
 70
     1
102
RTVSPost2010Prop56
140
1.0
102
RTVSPost2010PropOp56
 70
     0
102
RTVSPost2010Prop57
140
1.0
102
RTVSPost2010PropOp57
 70
     0
102
RTVSPropertyOp0
 70
     0
102
RTVSPropertyOp1
 70
     0
102
RTVSPropertyOp2
 70
     0
102
RTVSPropertyOp3
 70
     0
102
RTVSPropertyOp4
 70
     0
102
RTVSPropertyOp5
 70
     0
102
RTVSPropertyOp6
 70
     0
102
RTVSPropertyOp7
 70
     0
102
RTVSPropertyOp8
 70
     0
102
RTVSPropertyOp9
 70
     0
102
RTVSPropertyOp10
 70
     0
102
RTVSPropertyOp11
 70
     0
102
RTVSPropertyOp12
 70
     0
102
RTVSPropertyOp13
 70
     0
102
RTVSPropertyOp14
 70
     2
102
RTVSPropertyOp15
 70
     0
102
RTVSPropertyOp16
 70
     0
102
RTVSPropertyOp17
 70
     0
102
RTVSPropertyOp18
 70
     0
102
RTVSPropertyOp19
 70
     0
102
RTVSPropertyOp20
 70
     0
102
RTVSPropertyOp21
 70
     0
102
RTVSPropertyOp22
 70
     0
102
RTVSPropertyOp23
 70
     0
102
RTVSPropertyOp24
 70
     0
102
RTVSPropertyOp25
 70
     0
102
RTVSPropertyOp26
 70
     0
102
RTVSPropertyOp27
 70
     0
102
RTVSPropertyOp28
 70
     1
102
RTVSPropertyOp29
 70
     1
102
RTVSPropertyOp30
 70
     1
102
RTVSPropertyOp31
 70
     1
102
RTVSPropertyOp32
 70
     1
102
RTVSPropertyOp33
 70
     1
102
RTVSPropertyOp34
 70
     1
102
RTVSPropertyOp35
 70
     1
102
RTVSPropertyOp36
 70
     1
102
RTVSPropertyOp37
 70
     0
102
RTVSPropertyOp38
 70
     0
102
RTVSPropertyOp39
 70
     0
102
RTVSPropertyOp40
 70
     0
102
RTVSPropertyOp41
 70
     0
102
RTVSPropertyOp42
 70
     0
102
RTVSPropertyOp43
 70
     0
102
RTVSPropertyOp44
 70
     0
102
RTVSPropertyOp45
 70
     1
102
RTVSPropertyOp46
 70
     0
102
RTVSPropertyOp47
 70
     0
102
RTVSPropertyOp48
 70
     0
102
RTVSPropertyOp49
 70
     1
102
RTVSPropertyOp50
 70
     0
102
RTVSPropertyOp51
 70
     0
102
RTVSPropertyOp52
 70
     0
102
RTVSPropertyOp53
 70
     0
102
RTVSPropertyOp54
 70
     0
102
RTVSPropertyOp55
 70
     1
102
RTVSPropertyOp56
 70
     0
102
RTVSPropertyOp57
 70
     0
102
RTVSPropertyOp58
 70
     1
102
RTVSPropertyOp59
 70
     1
102
RTVSPropertyOp60
 70
     1
102
RTVSPropertyOp61
 70
     1
102
RTVSPropertyOp62
 70
     1
  0
XRECORD
  5
48B
102
{ACAD_REACTORS
330
48A
102
}
330
48A
100
AcDbXrecord
280
     1
102
RTVSPost2010Prop28
280
     0
102
RTVSPost2010PropOp28
 70
     1
102
RTVSPost2010Prop29
280
     1
102
RTVSPost2010PropOp29
 70
     1
102
RTVSPost2010Prop30
280
     1
102
RTVSPost2010PropOp30
 70
     1
102
RTVSPost2010Prop31
280
     0
102
RTVSPost2010PropOp31
 70
     1
102
RTVSPost2010Prop32
280
     0
102
RTVSPost2010PropOp32
 70
     1
102
RTVSPost2010Prop33
280
     0
102
RTVSPost2010PropOp33
 70
     1
102
RTVSPost2010Prop34
280
     0
102
RTVSPost2010PropOp34
 70
     1
102
RTVSPost2010Prop35
280
     0
102
RTVSPost2010PropOp35
 70
     1
102
RTVSPost2010Prop36
280
     0
102
RTVSPost2010PropOp36
 70
     1
102
RTVSPost2010Prop37
 90
       50
102
RTVSPost2010PropOp37
 70
     1
102
RTVSPost2010Prop38
140
0.0
102
RTVSPost2010PropOp38
 70
     1
102
RTVSPost2010Prop39
140
1.0
102
RTVSPost2010PropOp39
 70
     1
102
RTVSPost2010Prop40
 90
        0
102
RTVSPost2010PropOp40
 70
     1
102
RTVSPost2010Prop41ColorIndex
 90
       18
102
RTVSPost2010Prop41ColorRGB
 90
        0
102
RTVSPost2010PropOp41
 70
     1
102
RTVSPost2010Prop42
 90
       50
102
RTVSPost2010PropOp42
 70
     1
102
RTVSPost2010Prop43
 90
        3
102
RTVSPost2010PropOp43
 70
     1
102
RTVSPost2010Prop44ColorIndex
 90
        5
102
RTVSPost2010Prop44ColorRGB
 90
      255
102
RTVSPost2010PropOp44
 70
     1
102
RTVSPost2010Prop45
280
     0
102
RTVSPost2010PropOp45
 70
     1
102
RTVSPost2010Prop46
 90
       50
102
RTVSPost2010PropOp46
 70
     1
102
RTVSPost2010Prop47
 90
       50
102
RTVSPost2010PropOp47
 70
     1
102
RTVSPost2010Prop48
 90
       50
102
RTVSPost2010PropOp48
 70
     1
102
RTVSPost2010Prop49
280
     0
102
RTVSPost2010PropOp49
 70
     1
102
RTVSPost2010Prop50
 90
       50
102
RTVSPost2010PropOp50
 70
     1
102
RTVSPost2010Prop51ColorIndex
 90
      256
102
RTVSPost2010Prop51ColorRGB
 90
-16777216
102
RTVSPost2010PropOp51
 70
     0
102
RTVSPost2010Prop52
140
1.0
102
RTVSPost2010PropOp52
 70
     0
102
RTVSPost2010Prop53
 90
        2
102
RTVSPost2010PropOp53
 70
     1
102
RTVSPost2010Prop54
  1
strokes_ogs.tif
102
RTVSPost2010PropOp54
 70
     1
102
RTVSPost2010Prop55
280
     0
102
RTVSPost2010PropOp55
 70
     1
102
RTVSPost2010Prop56
140
1.0
102
RTVSPost2010PropOp56
 70
     1
102
RTVSPost2010Prop57
140
1.0
102
RTVSPost2010PropOp57
 70
     1
102
RTVSPropertyOp0
 70
     1
102
RTVSPropertyOp1
 70
     1
102
RTVSPropertyOp2
 70
     1
102
RTVSPropertyOp3
 70
     1
102
RTVSPropertyOp4
 70
     1
102
RTVSPropertyOp5
 70
     1
102
RTVSPropertyOp6
 70
     1
102
RTVSPropertyOp7
 70
     1
102
RTVSPropertyOp8
 70
     1
102
RTVSPropertyOp9
 70
     1
102
RTVSPropertyOp10
 70
     1
102
RTVSPropertyOp11
 70
     1
102
RTVSPropertyOp12
 70
     1
102
RTVSPropertyOp13
 70
     1
102
RTVSPropertyOp14
 70
     1
102
RTVSPropertyOp15
 70
     1
102
RTVSPropertyOp16
 70
     1
102
RTVSPropertyOp17
 70
     1
102
RTVSPropertyOp18
 70
     1
102
RTVSPropertyOp19
 70
     1
102
RTVSPropertyOp20
 70
     1
102
RTVSPropertyOp21
 70
     1
102
RTVSPropertyOp22
 70
     1
102
RTVSPropertyOp23
 70
     1
102
RTVSPropertyOp24
 70
     1
102
RTVSPropertyOp25
 70
     1
102
RTVSPropertyOp26
 70
     1
102
RTVSPropertyOp27
 70
     1
102
RTVSPropertyOp28
 70
     1
102
RTVSPropertyOp29
 70
     1
102
RTVSPropertyOp30
 70
     1
102
RTVSPropertyOp31
 70
     1
102
RTVSPropertyOp32
 70
     1
102
RTVSPropertyOp33
 70
     1
102
RTVSPropertyOp34
 70
     1
102
RTVSPropertyOp35
 70
     1
102
RTVSPropertyOp36
 70
     1
102
RTVSPropertyOp37
 70
     1
102
RTVSPropertyOp38
 70
     1
102
RTVSPropertyOp39
 70
     1
102
RTVSPropertyOp40
 70
     1
102
RTVSPropertyOp41
 70
     1
102
RTVSPropertyOp42
 70
     1
102
RTVSPropertyOp43
 70
     1
102
RTVSPropertyOp44
 70
     1
102
RTVSPropertyOp45
 70
     1
102
RTVSPropertyOp46
 70
     1
102
RTVSPropertyOp47
 70
     1
102
RTVSPropertyOp48
 70
     1
102
RTVSPropertyOp49
 70
     1
102
RTVSPropertyOp50
 70
     1
102
RTVSPropertyOp51
 70
     0
102
RTVSPropertyOp52
 70
     0
102
RTVSPropertyOp53
 70
     1
102
RTVSPropertyOp54
 70
     1
102
RTVSPropertyOp55
 70
     1
102
RTVSPropertyOp56
 70
     1
102
RTVSPropertyOp57
 70
     1
102
RTVSPropertyOp58
 70
     1
102
RTVSPropertyOp59
 70
     1
102
RTVSPropertyOp60
 70
     1
102
RTVSPropertyOp61
 70
     1
102
RTVSPropertyOp62
 70
     1
  0
XRECORD
  5
49D
102
{ACAD_REACTORS
330
49C
102
}
330
49C
100
AcDbXrecord
280
     1
102
RTVSPost2010Prop28
280
     0
102
RTVSPost2010PropOp28
 70
     1
102
RTVSPost2010Prop29
280
     1
102
RTVSPost2010PropOp29
 70
     1
102
RTVSPost2010Prop30
280
     1
102
RTVSPost2010PropOp30
 70
     1
102
RTVSPost2010Prop31
280
     0
102
RTVSPost2010PropOp31
 70
     1
102
RTVSPost2010Prop32
280
     0
102
RTVSPost2010PropOp32
 70
     1
102
RTVSPost2010Prop33
280
     0
102
RTVSPost2010PropOp33
 70
     1
102
RTVSPost2010Prop34
280
     0
102
RTVSPost2010PropOp34
 70
     1
102
RTVSPost2010Prop35
280
     0
102
RTVSPost2010PropOp35
 70
     1
102
RTVSPost2010Prop36
280
     0
102
RTVSPost2010PropOp36
 70
     1
102
RTVSPost2010Prop37
 90
       50
102
RTVSPost2010PropOp37
 70
     0
102
RTVSPost2010Prop38
140
0.0
102
RTVSPost2010PropOp38
 70
     0
102
RTVSPost2010Prop39
140
1.0
102
RTVSPost2010PropOp39
 70
     0
102
RTVSPost2010Prop40
 90
        0
102
RTVSPost2010PropOp40
 70
     0
102
RTVSPost2010Prop41ColorIndex
 90
       18
102
RTVSPost2010Prop41ColorRGB
 90
        0
102
RTVSPost2010PropOp41
 70
     0
102
RTVSPost2010Prop42
 90
       50
102
RTVSPost2010PropOp42
 70
     0
102
RTVSPost2010Prop43
 90
        3
102
RTVSPost2010PropOp43
 70
     0
102
RTVSPost2010Prop44ColorIndex
 90
        5
102
RTVSPost2010Prop44ColorRGB
 90
      255
102
RTVSPost2010PropOp44
 70
     0
102
RTVSPost2010Prop45
280
     0
102
RTVSPost2010PropOp45
 70
     1
102
RTVSPost2010Prop46
 90
       50
102
RTVSPost2010PropOp46
 70
     0
102
RTVSPost2010Prop47
 90
       50
102
RTVSPost2010PropOp47
 70
     0
102
RTVSPost2010Prop48
 90
       50
102
RTVSPost2010PropOp48
 70
     0
102
RTVSPost2010Prop49
280
     0
102
RTVSPost2010PropOp49
 70
     1
102
RTVSPost2010Prop50
 90
       50
102
RTVSPost2010PropOp50
 70
     0
102
RTVSPost2010Prop51ColorIndex
 90
      256
102
RTVSPost2010Prop51ColorRGB
 90
-16777216
102
RTVSPost2010PropOp51
 70
     0
102
RTVSPost2010Prop52
140
1.0
102
RTVSPost2010PropOp52
 70
     0
102
RTVSPost2010Prop53
 90
        2
102
RTVSPost2010PropOp53
 70
     0
102
RTVSPost2010Prop54
  1
strokes_ogs.tif
102
RTVSPost2010PropOp54
 70
     0
102
RTVSPost2010Prop55
280
     0
102
RTVSPost2010PropOp55
 70
     1
102
RTVSPost2010Prop56
140
1.0
102
RTVSPost2010PropOp56
 70
     0
102
RTVSPost2010Prop57
140
1.0
102
RTVSPost2010PropOp57
 70
     0
102
RTVSPropertyOp0
 70
     0
102
RTVSPropertyOp1
 70
     0
102
RTVSPropertyOp2
 70
     0
102
RTVSPropertyOp3
 70
     0
102
RTVSPropertyOp4
 70
     0
102
RTVSPropertyOp5
 70
     0
102
RTVSPropertyOp6
 70
     0
102
RTVSPropertyOp7
 70
     0
102
RTVSPropertyOp8
 70
     0
102
RTVSPropertyOp9
 70
     0
102
RTVSPropertyOp10
 70
     0
102
RTVSPropertyOp11
 70
     0
102
RTVSPropertyOp12
 70
     0
102
RTVSPropertyOp13
 70
     0
102
RTVSPropertyOp14
 70
     2
102
RTVSPropertyOp15
 70
     0
102
RTVSPropertyOp16
 70
     0
102
RTVSPropertyOp17
 70
     0
102
RTVSPropertyOp18
 70
     0
102
RTVSPropertyOp19
 70
     0
102
RTVSPropertyOp20
 70
     0
102
RTVSPropertyOp21
 70
     0
102
RTVSPropertyOp22
 70
     0
102
RTVSPropertyOp23
 70
     0
102
RTVSPropertyOp24
 70
     0
102
RTVSPropertyOp25
 70
     0
102
RTVSPropertyOp26
 70
     0
102
RTVSPropertyOp27
 70
     0
102
RTVSPropertyOp28
 70
     1
102
RTVSPropertyOp29
 70
     1
102
RTVSPropertyOp30
 70
     1
102
RTVSPropertyOp31
 70
     1
102
RTVSPropertyOp32
 70
     1
102
RTVSPropertyOp33
 70
     1
102
RTVSPropertyOp34
 70
     1
102
RTVSPropertyOp35
 70
     1
102
RTVSPropertyOp36
 70
     1
102
RTVSPropertyOp37
 70
     0
102
RTVSPropertyOp38
 70
     0
102
RTVSPropertyOp39
 70
     0
102
RTVSPropertyOp40
 70
     0
102
RTVSPropertyOp41
 70
     0
102
RTVSPropertyOp42
 70
     0
102
RTVSPropertyOp43
 70
     0
102
RTVSPropertyOp44
 70
     0
102
RTVSPropertyOp45
 70
     1
102
RTVSPropertyOp46
 70
     0
102
RTVSPropertyOp47
 70
     0
102
RTVSPropertyOp48
 70
     0
102
RTVSPropertyOp49
 70
     1
102
RTVSPropertyOp50
 70
     0
102
RTVSPropertyOp51
 70
     0
102
RTVSPropertyOp52
 70
     0
102
RTVSPropertyOp53
 70
     0
102
RTVSPropertyOp54
 70
     0
102
RTVSPropertyOp55
 70
     1
102
RTVSPropertyOp56
 70
     0
102
RTVSPropertyOp57
 70
     0
102
RTVSPropertyOp58
 70
     1
102
RTVSPropertyOp59
 70
     1
102
RTVSPropertyOp60
 70
     1
102
RTVSPropertyOp61
 70
     1
102
RTVSPropertyOp62
 70
     1
  0
XRECORD
  5
483
102
{ACAD_REACTORS
330
482
102
}
330
482
100
AcDbXrecord
280
     1
102
RTVSPost2010Prop28
280
     0
102
RTVSPost2010PropOp28
 70
     1
102
RTVSPost2010Prop29
280
     1
102
RTVSPost2010PropOp29
 70
     1
102
RTVSPost2010Prop30
280
     1
102
RTVSPost2010PropOp30
 70
     1
102
RTVSPost2010Prop31
280
     0
102
RTVSPost2010PropOp31
 70
     1
102
RTVSPost2010Prop32
280
     0
102
RTVSPost2010PropOp32
 70
     1
102
RTVSPost2010Prop33
280
     0
102
RTVSPost2010PropOp33
 70
     1
102
RTVSPost2010Prop34
280
     0
102
RTVSPost2010PropOp34
 70
     1
102
RTVSPost2010Prop35
280
     0
102
RTVSPost2010PropOp35
 70
     1
102
RTVSPost2010Prop36
280
     0
102
RTVSPost2010PropOp36
 70
     1
102
RTVSPost2010Prop37
 90
       50
102
RTVSPost2010PropOp37
 70
     1
102
RTVSPost2010Prop38
140
0.0
102
RTVSPost2010PropOp38
 70
     1
102
RTVSPost2010Prop39
140
1.0
102
RTVSPost2010PropOp39
 70
     1
102
RTVSPost2010Prop40
 90
        0
102
RTVSPost2010PropOp40
 70
     1
102
RTVSPost2010Prop41ColorIndex
 90
       18
102
RTVSPost2010Prop41ColorRGB
 90
        0
102
RTVSPost2010PropOp41
 70
     1
102
RTVSPost2010Prop42
 90
       50
102
RTVSPost2010PropOp42
 70
     1
102
RTVSPost2010Prop43
 90
        3
102
RTVSPost2010PropOp43
 70
     1
102
RTVSPost2010Prop44ColorIndex
 90
        5
102
RTVSPost2010Prop44ColorRGB
 90
      255
102
RTVSPost2010PropOp44
 70
     1
102
RTVSPost2010Prop45
280
     0
102
RTVSPost2010PropOp45
 70
     1
102
RTVSPost2010Prop46
 90
       50
102
RTVSPost2010PropOp46
 70
     1
102
RTVSPost2010Prop47
 90
       50
102
RTVSPost2010PropOp47
 70
     1
102
RTVSPost2010Prop48
 90
       50
102
RTVSPost2010PropOp48
 70
     1
102
RTVSPost2010Prop49
280
     0
102
RTVSPost2010PropOp49
 70
     1
102
RTVSPost2010Prop50
 90
       50
102
RTVSPost2010PropOp50
 70
     1
102
RTVSPost2010Prop51ColorIndex
 90
      256
102
RTVSPost2010Prop51ColorRGB
 90
-16777216
102
RTVSPost2010PropOp51
 70
     0
102
RTVSPost2010Prop52
140
1.0
102
RTVSPost2010PropOp52
 70
     0
102
RTVSPost2010Prop53
 90
        2
102
RTVSPost2010PropOp53
 70
     1
102
RTVSPost2010Prop54
  1
strokes_ogs.tif
102
RTVSPost2010PropOp54
 70
     1
102
RTVSPost2010Prop55
280
     0
102
RTVSPost2010PropOp55
 70
     1
102
RTVSPost2010Prop56
140
1.0
102
RTVSPost2010PropOp56
 70
     1
102
RTVSPost2010Prop57
140
1.0
102
RTVSPost2010PropOp57
 70
     1
102
RTVSPropertyOp0
 70
     1
102
RTVSPropertyOp1
 70
     1
102
RTVSPropertyOp2
 70
     1
102
RTVSPropertyOp3
 70
     1
102
RTVSPropertyOp4
 70
     1
102
RTVSPropertyOp5
 70
     1
102
RTVSPropertyOp6
 70
     1
102
RTVSPropertyOp7
 70
     1
102
RTVSPropertyOp8
 70
     1
102
RTVSPropertyOp9
 70
     1
102
RTVSPropertyOp10
 70
     1
102
RTVSPropertyOp11
 70
     1
102
RTVSPropertyOp12
 70
     1
102
RTVSPropertyOp13
 70
     1
102
RTVSPropertyOp14
 70
     1
102
RTVSPropertyOp15
 70
     1
102
RTVSPropertyOp16
 70
     1
102
RTVSPropertyOp17
 70
     1
102
RTVSPropertyOp18
 70
     1
102
RTVSPropertyOp19
 70
     1
102
RTVSPropertyOp20
 70
     1
102
RTVSPropertyOp21
 70
     1
102
RTVSPropertyOp22
 70
     1
102
RTVSPropertyOp23
 70
     1
102
RTVSPropertyOp24
 70
     1
102
RTVSPropertyOp25
 70
     1
102
RTVSPropertyOp26
 70
     1
102
RTVSPropertyOp27
 70
     1
102
RTVSPropertyOp28
 70
     1
102
RTVSPropertyOp29
 70
     1
102
RTVSPropertyOp30
 70
     1
102
RTVSPropertyOp31
 70
     1
102
RTVSPropertyOp32
 70
     1
102
RTVSPropertyOp33
 70
     1
102
RTVSPropertyOp34
 70
     1
102
RTVSPropertyOp35
 70
     1
102
RTVSPropertyOp36
 70
     1
102
RTVSPropertyOp37
 70
     1
102
RTVSPropertyOp38
 70
     1
102
RTVSPropertyOp39
 70
     1
102
RTVSPropertyOp40
 70
     1
102
RTVSPropertyOp41
 70
     1
102
RTVSPropertyOp42
 70
     1
102
RTVSPropertyOp43
 70
     1
102
RTVSPropertyOp44
 70
     1
102
RTVSPropertyOp45
 70
     1
102
RTVSPropertyOp46
 70
     1
102
RTVSPropertyOp47
 70
     1
102
RTVSPropertyOp48
 70
     1
102
RTVSPropertyOp49
 70
     1
102
RTVSPropertyOp50
 70
     1
102
RTVSPropertyOp51
 70
     0
102
RTVSPropertyOp52
 70
     0
102
RTVSPropertyOp53
 70
     1
102
RTVSPropertyOp54
 70
     1
102
RTVSPropertyOp55
 70
     1
102
RTVSPropertyOp56
 70
     1
102
RTVSPropertyOp57
 70
     1
102
RTVSPropertyOp58
 70
     1
102
RTVSPropertyOp59
 70
     1
102
RTVSPropertyOp60
 70
     1
102
RTVSPropertyOp61
 70
     1
102
RTVSPropertyOp62
 70
     1
  0
XRECORD
  5
499
102
{ACAD_REACTORS
330
498
102
}
330
498
100
AcDbXrecord
280
     1
102
RTVSPost2010Prop28
280
     0
102
RTVSPost2010PropOp28
 70
     1
102
RTVSPost2010Prop29
280
     1
102
RTVSPost2010PropOp29
 70
     1
102
RTVSPost2010Prop30
280
     1
102
RTVSPost2010PropOp30
 70
     1
102
RTVSPost2010Prop31
280
     0
102
RTVSPost2010PropOp31
 70
     1
102
RTVSPost2010Prop32
280
     0
102
RTVSPost2010PropOp32
 70
     1
102
RTVSPost2010Prop33
280
     0
102
RTVSPost2010PropOp33
 70
     1
102
RTVSPost2010Prop34
280
     0
102
RTVSPost2010PropOp34
 70
     1
102
RTVSPost2010Prop35
280
     0
102
RTVSPost2010PropOp35
 70
     1
102
RTVSPost2010Prop36
280
     0
102
RTVSPost2010PropOp36
 70
     1
102
RTVSPost2010Prop37
 90
       50
102
RTVSPost2010PropOp37
 70
     1
102
RTVSPost2010Prop38
140
0.0
102
RTVSPost2010PropOp38
 70
     1
102
RTVSPost2010Prop39
140
1.0
102
RTVSPost2010PropOp39
 70
     1
102
RTVSPost2010Prop40
 90
        0
102
RTVSPost2010PropOp40
 70
     1
102
RTVSPost2010Prop41ColorIndex
 90
       18
102
RTVSPost2010Prop41ColorRGB
 90
        0
102
RTVSPost2010PropOp41
 70
     1
102
RTVSPost2010Prop42
 90
       50
102
RTVSPost2010PropOp42
 70
     1
102
RTVSPost2010Prop43
 90
        3
102
RTVSPost2010PropOp43
 70
     1
102
RTVSPost2010Prop44ColorIndex
 90
        5
102
RTVSPost2010Prop44ColorRGB
 90
      255
102
RTVSPost2010PropOp44
 70
     1
102
RTVSPost2010Prop45
280
     0
102
RTVSPost2010PropOp45
 70
     1
102
RTVSPost2010Prop46
 90
       50
102
RTVSPost2010PropOp46
 70
     1
102
RTVSPost2010Prop47
 90
       50
102
RTVSPost2010PropOp47
 70
     1
102
RTVSPost2010Prop48
 90
       50
102
RTVSPost2010PropOp48
 70
     1
102
RTVSPost2010Prop49
280
     0
102
RTVSPost2010PropOp49
 70
     1
102
RTVSPost2010Prop50
 90
       50
102
RTVSPost2010PropOp50
 70
     1
102
RTVSPost2010Prop51ColorIndex
 90
      256
102
RTVSPost2010Prop51ColorRGB
 90
-16777216
102
RTVSPost2010PropOp51
 70
     0
102
RTVSPost2010Prop52
140
1.0
102
RTVSPost2010PropOp52
 70
     0
102
RTVSPost2010Prop53
 90
        2
102
RTVSPost2010PropOp53
 70
     1
102
RTVSPost2010Prop54
  1
strokes_ogs.tif
102
RTVSPost2010PropOp54
 70
     1
102
RTVSPost2010Prop55
280
     0
102
RTVSPost2010PropOp55
 70
     1
102
RTVSPost2010Prop56
140
1.0
102
RTVSPost2010PropOp56
 70
     1
102
RTVSPost2010Prop57
140
1.0
102
RTVSPost2010PropOp57
 70
     1
102
RTVSPropertyOp0
 70
     1
102
RTVSPropertyOp1
 70
     1
102
RTVSPropertyOp2
 70
     1
102
RTVSPropertyOp3
 70
     1
102
RTVSPropertyOp4
 70
     1
102
RTVSPropertyOp5
 70
     1
102
RTVSPropertyOp6
 70
     1
102
RTVSPropertyOp7
 70
     1
102
RTVSPropertyOp8
 70
     1
102
RTVSPropertyOp9
 70
     1
102
RTVSPropertyOp10
 70
     1
102
RTVSPropertyOp11
 70
     1
102
RTVSPropertyOp12
 70
     1
102
RTVSPropertyOp13
 70
     1
102
RTVSPropertyOp14
 70
     1
102
RTVSPropertyOp15
 70
     1
102
RTVSPropertyOp16
 70
     1
102
RTVSPropertyOp17
 70
     1
102
RTVSPropertyOp18
 70
     1
102
RTVSPropertyOp19
 70
     1
102
RTVSPropertyOp20
 70
     1
102
RTVSPropertyOp21
 70
     1
102
RTVSPropertyOp22
 70
     1
102
RTVSPropertyOp23
 70
     1
102
RTVSPropertyOp24
 70
     1
102
RTVSPropertyOp25
 70
     1
102
RTVSPropertyOp26
 70
     1
102
RTVSPropertyOp27
 70
     1
102
RTVSPropertyOp28
 70
     1
102
RTVSPropertyOp29
 70
     1
102
RTVSPropertyOp30
 70
     1
102
RTVSPropertyOp31
 70
     1
102
RTVSPropertyOp32
 70
     1
102
RTVSPropertyOp33
 70
     1
102
RTVSPropertyOp34
 70
     1
102
RTVSPropertyOp35
 70
     1
102
RTVSPropertyOp36
 70
     1
102
RTVSPropertyOp37
 70
     1
102
RTVSPropertyOp38
 70
     1
102
RTVSPropertyOp39
 70
     1
102
RTVSPropertyOp40
 70
     1
102
RTVSPropertyOp41
 70
     1
102
RTVSPropertyOp42
 70
     1
102
RTVSPropertyOp43
 70
     1
102
RTVSPropertyOp44
 70
     1
102
RTVSPropertyOp45
 70
     1
102
RTVSPropertyOp46
 70
     1
102
RTVSPropertyOp47
 70
     1
102
RTVSPropertyOp48
 70
     1
102
RTVSPropertyOp49
 70
     1
102
RTVSPropertyOp50
 70
     1
102
RTVSPropertyOp51
 70
     0
102
RTVSPropertyOp52
 70
     0
102
RTVSPropertyOp53
 70
     1
102
RTVSPropertyOp54
 70
     1
102
RTVSPropertyOp55
 70
     1
102
RTVSPropertyOp56
 70
     1
102
RTVSPropertyOp57
 70
     1
102
RTVSPropertyOp58
 70
     1
102
RTVSPropertyOp59
 70
     1
102
RTVSPropertyOp60
 70
     1
102
RTVSPropertyOp61
 70
     1
102
RTVSPropertyOp62
 70
     1
  0
XRECORD
  5
497
102
{ACAD_REACTORS
330
496
102
}
330
496
100
AcDbXrecord
280
     1
102
RTVSPost2010Prop28
280
     0
102
RTVSPost2010PropOp28
 70
     1
102
RTVSPost2010Prop29
280
     1
102
RTVSPost2010PropOp29
 70
     1
102
RTVSPost2010Prop30
280
     1
102
RTVSPost2010PropOp30
 70
     1
102
RTVSPost2010Prop31
280
     0
102
RTVSPost2010PropOp31
 70
     1
102
RTVSPost2010Prop32
280
     0
102
RTVSPost2010PropOp32
 70
     1
102
RTVSPost2010Prop33
280
     0
102
RTVSPost2010PropOp33
 70
     1
102
RTVSPost2010Prop34
280
     0
102
RTVSPost2010PropOp34
 70
     1
102
RTVSPost2010Prop35
280
     0
102
RTVSPost2010PropOp35
 70
     1
102
RTVSPost2010Prop36
280
     0
102
RTVSPost2010PropOp36
 70
     1
102
RTVSPost2010Prop37
 90
       50
102
RTVSPost2010PropOp37
 70
     1
102
RTVSPost2010Prop38
140
0.0
102
RTVSPost2010PropOp38
 70
     1
102
RTVSPost2010Prop39
140
1.0
102
RTVSPost2010PropOp39
 70
     1
102
RTVSPost2010Prop40
 90
        0
102
RTVSPost2010PropOp40
 70
     1
102
RTVSPost2010Prop41ColorIndex
 90
       18
102
RTVSPost2010Prop41ColorRGB
 90
        0
102
RTVSPost2010PropOp41
 70
     1
102
RTVSPost2010Prop42
 90
       50
102
RTVSPost2010PropOp42
 70
     1
102
RTVSPost2010Prop43
 90
        3
102
RTVSPost2010PropOp43
 70
     1
102
RTVSPost2010Prop44ColorIndex
 90
        5
102
RTVSPost2010Prop44ColorRGB
 90
      255
102
RTVSPost2010PropOp44
 70
     1
102
RTVSPost2010Prop45
280
     0
102
RTVSPost2010PropOp45
 70
     1
102
RTVSPost2010Prop46
 90
       50
102
RTVSPost2010PropOp46
 70
     1
102
RTVSPost2010Prop47
 90
       50
102
RTVSPost2010PropOp47
 70
     1
102
RTVSPost2010Prop48
 90
       50
102
RTVSPost2010PropOp48
 70
     1
102
RTVSPost2010Prop49
280
     0
102
RTVSPost2010PropOp49
 70
     1
102
RTVSPost2010Prop50
 90
       50
102
RTVSPost2010PropOp50
 70
     1
102
RTVSPost2010Prop51ColorIndex
 90
      256
102
RTVSPost2010Prop51ColorRGB
 90
-16777216
102
RTVSPost2010PropOp51
 70
     0
102
RTVSPost2010Prop52
140
1.0
102
RTVSPost2010PropOp52
 70
     0
102
RTVSPost2010Prop53
 90
        2
102
RTVSPost2010PropOp53
 70
     1
102
RTVSPost2010Prop54
  1
strokes_ogs.tif
102
RTVSPost2010PropOp54
 70
     1
102
RTVSPost2010Prop55
280
     0
102
RTVSPost2010PropOp55
 70
     1
102
RTVSPost2010Prop56
140
1.0
102
RTVSPost2010PropOp56
 70
     1
102
RTVSPost2010Prop57
140
1.0
102
RTVSPost2010PropOp57
 70
     1
102
RTVSPropertyOp0
 70
     1
102
RTVSPropertyOp1
 70
     1
102
RTVSPropertyOp2
 70
     1
102
RTVSPropertyOp3
 70
     1
102
RTVSPropertyOp4
 70
     1
102
RTVSPropertyOp5
 70
     1
102
RTVSPropertyOp6
 70
     1
102
RTVSPropertyOp7
 70
     1
102
RTVSPropertyOp8
 70
     1
102
RTVSPropertyOp9
 70
     1
102
RTVSPropertyOp10
 70
     1
102
RTVSPropertyOp11
 70
     1
102
RTVSPropertyOp12
 70
     1
102
RTVSPropertyOp13
 70
     1
102
RTVSPropertyOp14
 70
     1
102
RTVSPropertyOp15
 70
     1
102
RTVSPropertyOp16
 70
     1
102
RTVSPropertyOp17
 70
     1
102
RTVSPropertyOp18
 70
     1
102
RTVSPropertyOp19
 70
     1
102
RTVSPropertyOp20
 70
     1
102
RTVSPropertyOp21
 70
     1
102
RTVSPropertyOp22
 70
     1
102
RTVSPropertyOp23
 70
     1
102
RTVSPropertyOp24
 70
     1
102
RTVSPropertyOp25
 70
     1
102
RTVSPropertyOp26
 70
     1
102
RTVSPropertyOp27
 70
     1
102
RTVSPropertyOp28
 70
     1
102
RTVSPropertyOp29
 70
     1
102
RTVSPropertyOp30
 70
     1
102
RTVSPropertyOp31
 70
     1
102
RTVSPropertyOp32
 70
     1
102
RTVSPropertyOp33
 70
     1
102
RTVSPropertyOp34
 70
     1
102
RTVSPropertyOp35
 70
     1
102
RTVSPropertyOp36
 70
     1
102
RTVSPropertyOp37
 70
     1
102
RTVSPropertyOp38
 70
     1
102
RTVSPropertyOp39
 70
     1
102
RTVSPropertyOp40
 70
     1
102
RTVSPropertyOp41
 70
     1
102
RTVSPropertyOp42
 70
     1
102
RTVSPropertyOp43
 70
     1
102
RTVSPropertyOp44
 70
     1
102
RTVSPropertyOp45
 70
     1
102
RTVSPropertyOp46
 70
     1
102
RTVSPropertyOp47
 70
     1
102
RTVSPropertyOp48
 70
     1
102
RTVSPropertyOp49
 70
     1
102
RTVSPropertyOp50
 70
     1
102
RTVSPropertyOp51
 70
     0
102
RTVSPropertyOp52
 70
     0
102
RTVSPropertyOp53
 70
     1
102
RTVSPropertyOp54
 70
     1
102
RTVSPropertyOp55
 70
     1
102
RTVSPropertyOp56
 70
     1
102
RTVSPropertyOp57
 70
     1
102
RTVSPropertyOp58
 70
     1
102
RTVSPropertyOp59
 70
     1
102
RTVSPropertyOp60
 70
     1
102
RTVSPropertyOp61
 70
     1
102
RTVSPropertyOp62
 70
     1
  0
XRECORD
  5
491
102
{ACAD_REACTORS
330
490
102
}
330
490
100
AcDbXrecord
280
     1
102
RTVSPost2010Prop28
280
     0
102
RTVSPost2010PropOp28
 70
     1
102
RTVSPost2010Prop29
280
     1
102
RTVSPost2010PropOp29
 70
     1
102
RTVSPost2010Prop30
280
     1
102
RTVSPost2010PropOp30
 70
     1
102
RTVSPost2010Prop31
280
     0
102
RTVSPost2010PropOp31
 70
     1
102
RTVSPost2010Prop32
280
     0
102
RTVSPost2010PropOp32
 70
     1
102
RTVSPost2010Prop33
280
     0
102
RTVSPost2010PropOp33
 70
     1
102
RTVSPost2010Prop34
280
     0
102
RTVSPost2010PropOp34
 70
     1
102
RTVSPost2010Prop35
280
     0
102
RTVSPost2010PropOp35
 70
     1
102
RTVSPost2010Prop36
280
     0
102
RTVSPost2010PropOp36
 70
     1
102
RTVSPost2010Prop37
 90
       50
102
RTVSPost2010PropOp37
 70
     1
102
RTVSPost2010Prop38
140
0.0
102
RTVSPost2010PropOp38
 70
     1
102
RTVSPost2010Prop39
140
1.0
102
RTVSPost2010PropOp39
 70
     1
102
RTVSPost2010Prop40
 90
        0
102
RTVSPost2010PropOp40
 70
     1
102
RTVSPost2010Prop41ColorIndex
 90
       18
102
RTVSPost2010Prop41ColorRGB
 90
        0
102
RTVSPost2010PropOp41
 70
     1
102
RTVSPost2010Prop42
 90
       50
102
RTVSPost2010PropOp42
 70
     1
102
RTVSPost2010Prop43
 90
        3
102
RTVSPost2010PropOp43
 70
     1
102
RTVSPost2010Prop44ColorIndex
 90
        5
102
RTVSPost2010Prop44ColorRGB
 90
      255
102
RTVSPost2010PropOp44
 70
     1
102
RTVSPost2010Prop45
280
     0
102
RTVSPost2010PropOp45
 70
     1
102
RTVSPost2010Prop46
 90
       50
102
RTVSPost2010PropOp46
 70
     1
102
RTVSPost2010Prop47
 90
       50
102
RTVSPost2010PropOp47
 70
     1
102
RTVSPost2010Prop48
 90
       50
102
RTVSPost2010PropOp48
 70
     1
102
RTVSPost2010Prop49
280
     0
102
RTVSPost2010PropOp49
 70
     1
102
RTVSPost2010Prop50
 90
       50
102
RTVSPost2010PropOp50
 70
     1
102
RTVSPost2010Prop51ColorIndex
 90
      256
102
RTVSPost2010Prop51ColorRGB
 90
-16777216
102
RTVSPost2010PropOp51
 70
     0
102
RTVSPost2010Prop52
140
1.0
102
RTVSPost2010PropOp52
 70
     0
102
RTVSPost2010Prop53
 90
        2
102
RTVSPost2010PropOp53
 70
     1
102
RTVSPost2010Prop54
  1
strokes_ogs.tif
102
RTVSPost2010PropOp54
 70
     1
102
RTVSPost2010Prop55
280
     0
102
RTVSPost2010PropOp55
 70
     1
102
RTVSPost2010Prop56
140
1.0
102
RTVSPost2010PropOp56
 70
     1
102
RTVSPost2010Prop57
140
1.0
102
RTVSPost2010PropOp57
 70
     1
102
RTVSPropertyOp0
 70
     1
102
RTVSPropertyOp1
 70
     1
102
RTVSPropertyOp2
 70
     1
102
RTVSPropertyOp3
 70
     1
102
RTVSPropertyOp4
 70
     1
102
RTVSPropertyOp5
 70
     1
102
RTVSPropertyOp6
 70
     1
102
RTVSPropertyOp7
 70
     1
102
RTVSPropertyOp8
 70
     1
102
RTVSPropertyOp9
 70
     1
102
RTVSPropertyOp10
 70
     1
102
RTVSPropertyOp11
 70
     1
102
RTVSPropertyOp12
 70
     1
102
RTVSPropertyOp13
 70
     1
102
RTVSPropertyOp14
 70
     1
102
RTVSPropertyOp15
 70
     1
102
RTVSPropertyOp16
 70
     1
102
RTVSPropertyOp17
 70
     1
102
RTVSPropertyOp18
 70
     1
102
RTVSPropertyOp19
 70
     1
102
RTVSPropertyOp20
 70
     1
102
RTVSPropertyOp21
 70
     1
102
RTVSPropertyOp22
 70
     1
102
RTVSPropertyOp23
 70
     1
102
RTVSPropertyOp24
 70
     1
102
RTVSPropertyOp25
 70
     1
102
RTVSPropertyOp26
 70
     1
102
RTVSPropertyOp27
 70
     1
102
RTVSPropertyOp28
 70
     1
102
RTVSPropertyOp29
 70
     1
102
RTVSPropertyOp30
 70
     1
102
RTVSPropertyOp31
 70
     1
102
RTVSPropertyOp32
 70
     1
102
RTVSPropertyOp33
 70
     1
102
RTVSPropertyOp34
 70
     1
102
RTVSPropertyOp35
 70
     1
102
RTVSPropertyOp36
 70
     1
102
RTVSPropertyOp37
 70
     1
102
RTVSPropertyOp38
 70
     1
102
RTVSPropertyOp39
 70
     1
102
RTVSPropertyOp40
 70
     1
102
RTVSPropertyOp41
 70
     1
102
RTVSPropertyOp42
 70
     1
102
RTVSPropertyOp43
 70
     1
102
RTVSPropertyOp44
 70
     1
102
RTVSPropertyOp45
 70
     1
102
RTVSPropertyOp46
 70
     1
102
RTVSPropertyOp47
 70
     1
102
RTVSPropertyOp48
 70
     1
102
RTVSPropertyOp49
 70
     1
102
RTVSPropertyOp50
 70
     1
102
RTVSPropertyOp51
 70
     0
102
RTVSPropertyOp52
 70
     0
102
RTVSPropertyOp53
 70
     1
102
RTVSPropertyOp54
 70
     1
102
RTVSPropertyOp55
 70
     1
102
RTVSPropertyOp56
 70
     1
102
RTVSPropertyOp57
 70
     1
102
RTVSPropertyOp58
 70
     1
102
RTVSPropertyOp59
 70
     1
102
RTVSPropertyOp60
 70
     1
102
RTVSPropertyOp61
 70
     1
102
RTVSPropertyOp62
 70
     1
  0
XRECORD
  5
493
102
{ACAD_REACTORS
330
492
102
}
330
492
100
AcDbXrecord
280
     1
102
RTVSPost2010Prop28
280
     0
102
RTVSPost2010PropOp28
 70
     1
102
RTVSPost2010Prop29
280
     1
102
RTVSPost2010PropOp29
 70
     1
102
RTVSPost2010Prop30
280
     1
102
RTVSPost2010PropOp30
 70
     1
102
RTVSPost2010Prop31
280
     0
102
RTVSPost2010PropOp31
 70
     1
102
RTVSPost2010Prop32
280
     0
102
RTVSPost2010PropOp32
 70
     1
102
RTVSPost2010Prop33
280
     0
102
RTVSPost2010PropOp33
 70
     1
102
RTVSPost2010Prop34
280
     0
102
RTVSPost2010PropOp34
 70
     1
102
RTVSPost2010Prop35
280
     0
102
RTVSPost2010PropOp35
 70
     1
102
RTVSPost2010Prop36
280
     0
102
RTVSPost2010PropOp36
 70
     1
102
RTVSPost2010Prop37
 90
       50
102
RTVSPost2010PropOp37
 70
     1
102
RTVSPost2010Prop38
140
0.0
102
RTVSPost2010PropOp38
 70
     1
102
RTVSPost2010Prop39
140
1.0
102
RTVSPost2010PropOp39
 70
     1
102
RTVSPost2010Prop40
 90
        0
102
RTVSPost2010PropOp40
 70
     1
102
RTVSPost2010Prop41ColorIndex
 90
       18
102
RTVSPost2010Prop41ColorRGB
 90
        0
102
RTVSPost2010PropOp41
 70
     1
102
RTVSPost2010Prop42
 90
       50
102
RTVSPost2010PropOp42
 70
     1
102
RTVSPost2010Prop43
 90
        3
102
RTVSPost2010PropOp43
 70
     1
102
RTVSPost2010Prop44ColorIndex
 90
        5
102
RTVSPost2010Prop44ColorRGB
 90
      255
102
RTVSPost2010PropOp44
 70
     1
102
RTVSPost2010Prop45
280
     0
102
RTVSPost2010PropOp45
 70
     1
102
RTVSPost2010Prop46
 90
       50
102
RTVSPost2010PropOp46
 70
     1
102
RTVSPost2010Prop47
 90
       50
102
RTVSPost2010PropOp47
 70
     1
102
RTVSPost2010Prop48
 90
       50
102
RTVSPost2010PropOp48
 70
     1
102
RTVSPost2010Prop49
280
     0
102
RTVSPost2010PropOp49
 70
     1
102
RTVSPost2010Prop50
 90
       50
102
RTVSPost2010PropOp50
 70
     1
102
RTVSPost2010Prop51ColorIndex
 90
      256
102
RTVSPost2010Prop51ColorRGB
 90
-16777216
102
RTVSPost2010PropOp51
 70
     0
102
RTVSPost2010Prop52
140
1.0
102
RTVSPost2010PropOp52
 70
     0
102
RTVSPost2010Prop53
 90
        2
102
RTVSPost2010PropOp53
 70
     1
102
RTVSPost2010Prop54
  1
strokes_ogs.tif
102
RTVSPost2010PropOp54
 70
     1
102
RTVSPost2010Prop55
280
     0
102
RTVSPost2010PropOp55
 70
     1
102
RTVSPost2010Prop56
140
1.0
102
RTVSPost2010PropOp56
 70
     1
102
RTVSPost2010Prop57
140
1.0
102
RTVSPost2010PropOp57
 70
     1
102
RTVSPropertyOp0
 70
     1
102
RTVSPropertyOp1
 70
     1
102
RTVSPropertyOp2
 70
     1
102
RTVSPropertyOp3
 70
     1
102
RTVSPropertyOp4
 70
     1
102
RTVSPropertyOp5
 70
     1
102
RTVSPropertyOp6
 70
     1
102
RTVSPropertyOp7
 70
     1
102
RTVSPropertyOp8
 70
     1
102
RTVSPropertyOp9
 70
     1
102
RTVSPropertyOp10
 70
     1
102
RTVSPropertyOp11
 70
     1
102
RTVSPropertyOp12
 70
     1
102
RTVSPropertyOp13
 70
     1
102
RTVSPropertyOp14
 70
     1
102
RTVSPropertyOp15
 70
     1
102
RTVSPropertyOp16
 70
     1
102
RTVSPropertyOp17
 70
     1
102
RTVSPropertyOp18
 70
     1
102
RTVSPropertyOp19
 70
     1
102
RTVSPropertyOp20
 70
     1
102
RTVSPropertyOp21
 70
     1
102
RTVSPropertyOp22
 70
     1
102
RTVSPropertyOp23
 70
     1
102
RTVSPropertyOp24
 70
     1
102
RTVSPropertyOp25
 70
     1
102
RTVSPropertyOp26
 70
     1
102
RTVSPropertyOp27
 70
     1
102
RTVSPropertyOp28
 70
     1
102
RTVSPropertyOp29
 70
     1
102
RTVSPropertyOp30
 70
     1
102
RTVSPropertyOp31
 70
     1
102
RTVSPropertyOp32
 70
     1
102
RTVSPropertyOp33
 70
     1
102
RTVSPropertyOp34
 70
     1
102
RTVSPropertyOp35
 70
     1
102
RTVSPropertyOp36
 70
     1
102
RTVSPropertyOp37
 70
     1
102
RTVSPropertyOp38
 70
     1
102
RTVSPropertyOp39
 70
     1
102
RTVSPropertyOp40
 70
     1
102
RTVSPropertyOp41
 70
     1
102
RTVSPropertyOp42
 70
     1
102
RTVSPropertyOp43
 70
     1
102
RTVSPropertyOp44
 70
     1
102
RTVSPropertyOp45
 70
     1
102
RTVSPropertyOp46
 70
     1
102
RTVSPropertyOp47
 70
     1
102
RTVSPropertyOp48
 70
     1
102
RTVSPropertyOp49
 70
     1
102
RTVSPropertyOp50
 70
     1
102
RTVSPropertyOp51
 70
     0
102
RTVSPropertyOp52
 70
     0
102
RTVSPropertyOp53
 70
     1
102
RTVSPropertyOp54
 70
     1
102
RTVSPropertyOp55
 70
     1
102
RTVSPropertyOp56
 70
     1
102
RTVSPropertyOp57
 70
     1
102
RTVSPropertyOp58
 70
     1
102
RTVSPropertyOp59
 70
     1
102
RTVSPropertyOp60
 70
     1
102
RTVSPropertyOp61
 70
     1
102
RTVSPropertyOp62
 70
     1
  0
XRECORD
  5
489
102
{ACAD_REACTORS
330
488
102
}
330
488
100
AcDbXrecord
280
     1
102
RTVSPost2010Prop28
280
     0
102
RTVSPost2010PropOp28
 70
     1
102
RTVSPost2010Prop29
280
     1
102
RTVSPost2010PropOp29
 70
     1
102
RTVSPost2010Prop30
280
     1
102
RTVSPost2010PropOp30
 70
     1
102
RTVSPost2010Prop31
280
     0
102
RTVSPost2010PropOp31
 70
     1
102
RTVSPost2010Prop32
280
     0
102
RTVSPost2010PropOp32
 70
     1
102
RTVSPost2010Prop33
280
     0
102
RTVSPost2010PropOp33
 70
     1
102
RTVSPost2010Prop34
280
     0
102
RTVSPost2010PropOp34
 70
     1
102
RTVSPost2010Prop35
280
     0
102
RTVSPost2010PropOp35
 70
     1
102
RTVSPost2010Prop36
280
     0
102
RTVSPost2010PropOp36
 70
     1
102
RTVSPost2010Prop37
 90
       50
102
RTVSPost2010PropOp37
 70
     1
102
RTVSPost2010Prop38
140
0.0
102
RTVSPost2010PropOp38
 70
     1
102
RTVSPost2010Prop39
140
1.0
102
RTVSPost2010PropOp39
 70
     1
102
RTVSPost2010Prop40
 90
        0
102
RTVSPost2010PropOp40
 70
     1
102
RTVSPost2010Prop41ColorIndex
 90
       18
102
RTVSPost2010Prop41ColorRGB
 90
        0
102
RTVSPost2010PropOp41
 70
     1
102
RTVSPost2010Prop42
 90
       50
102
RTVSPost2010PropOp42
 70
     1
102
RTVSPost2010Prop43
 90
        3
102
RTVSPost2010PropOp43
 70
     1
102
RTVSPost2010Prop44ColorIndex
 90
        5
102
RTVSPost2010Prop44ColorRGB
 90
      255
102
RTVSPost2010PropOp44
 70
     1
102
RTVSPost2010Prop45
280
     0
102
RTVSPost2010PropOp45
 70
     1
102
RTVSPost2010Prop46
 90
       50
102
RTVSPost2010PropOp46
 70
     1
102
RTVSPost2010Prop47
 90
       50
102
RTVSPost2010PropOp47
 70
     1
102
RTVSPost2010Prop48
 90
       50
102
RTVSPost2010PropOp48
 70
     1
102
RTVSPost2010Prop49
280
     0
102
RTVSPost2010PropOp49
 70
     1
102
RTVSPost2010Prop50
 90
       50
102
RTVSPost2010PropOp50
 70
     1
102
RTVSPost2010Prop51ColorIndex
 90
      256
102
RTVSPost2010Prop51ColorRGB
 90
-16777216
102
RTVSPost2010PropOp51
 70
     0
102
RTVSPost2010Prop52
140
1.0
102
RTVSPost2010PropOp52
 70
     0
102
RTVSPost2010Prop53
 90
        2
102
RTVSPost2010PropOp53
 70
     1
102
RTVSPost2010Prop54
  1
strokes_ogs.tif
102
RTVSPost2010PropOp54
 70
     1
102
RTVSPost2010Prop55
280
     0
102
RTVSPost2010PropOp55
 70
     1
102
RTVSPost2010Prop56
140
1.0
102
RTVSPost2010PropOp56
 70
     1
102
RTVSPost2010Prop57
140
1.0
102
RTVSPost2010PropOp57
 70
     1
102
RTVSPropertyOp0
 70
     1
102
RTVSPropertyOp1
 70
     1
102
RTVSPropertyOp2
 70
     1
102
RTVSPropertyOp3
 70
     1
102
RTVSPropertyOp4
 70
     1
102
RTVSPropertyOp5
 70
     1
102
RTVSPropertyOp6
 70
     1
102
RTVSPropertyOp7
 70
     1
102
RTVSPropertyOp8
 70
     1
102
RTVSPropertyOp9
 70
     1
102
RTVSPropertyOp10
 70
     1
102
RTVSPropertyOp11
 70
     1
102
RTVSPropertyOp12
 70
     1
102
RTVSPropertyOp13
 70
     1
102
RTVSPropertyOp14
 70
     1
102
RTVSPropertyOp15
 70
     1
102
RTVSPropertyOp16
 70
     1
102
RTVSPropertyOp17
 70
     1
102
RTVSPropertyOp18
 70
     1
102
RTVSPropertyOp19
 70
     1
102
RTVSPropertyOp20
 70
     1
102
RTVSPropertyOp21
 70
     1
102
RTVSPropertyOp22
 70
     1
102
RTVSPropertyOp23
 70
     1
102
RTVSPropertyOp24
 70
     1
102
RTVSPropertyOp25
 70
     1
102
RTVSPropertyOp26
 70
     1
102
RTVSPropertyOp27
 70
     1
102
RTVSPropertyOp28
 70
     1
102
RTVSPropertyOp29
 70
     1
102
RTVSPropertyOp30
 70
     1
102
RTVSPropertyOp31
 70
     1
102
RTVSPropertyOp32
 70
     1
102
RTVSPropertyOp33
 70
     1
102
RTVSPropertyOp34
 70
     1
102
RTVSPropertyOp35
 70
     1
102
RTVSPropertyOp36
 70
     1
102
RTVSPropertyOp37
 70
     1
102
RTVSPropertyOp38
 70
     1
102
RTVSPropertyOp39
 70
     1
102
RTVSPropertyOp40
 70
     1
102
RTVSPropertyOp41
 70
     1
102
RTVSPropertyOp42
 70
     1
102
RTVSPropertyOp43
 70
     1
102
RTVSPropertyOp44
 70
     1
102
RTVSPropertyOp45
 70
     1
102
RTVSPropertyOp46
 70
     1
102
RTVSPropertyOp47
 70
     1
102
RTVSPropertyOp48
 70
     1
102
RTVSPropertyOp49
 70
     1
102
RTVSPropertyOp50
 70
     1
102
RTVSPropertyOp51
 70
     0
102
RTVSPropertyOp52
 70
     0
102
RTVSPropertyOp53
 70
     1
102
RTVSPropertyOp54
 70
     1
102
RTVSPropertyOp55
 70
     1
102
RTVSPropertyOp56
 70
     1
102
RTVSPropertyOp57
 70
     1
102
RTVSPropertyOp58
 70
     1
102
RTVSPropertyOp59
 70
     1
102
RTVSPropertyOp60
 70
     1
102
RTVSPropertyOp61
 70
     1
102
RTVSPropertyOp62
 70
     1
  0
XRECORD
  5
47D
102
{ACAD_REACTORS
330
47C
102
}
330
47C
100
AcDbXrecord
280
     1
102
RTVSPost2010Prop28
280
     0
102
RTVSPost2010PropOp28
 70
     1
102
RTVSPost2010Prop29
280
     1
102
RTVSPost2010PropOp29
 70
     1
102
RTVSPost2010Prop30
280
     1
102
RTVSPost2010PropOp30
 70
     1
102
RTVSPost2010Prop31
280
     0
102
RTVSPost2010PropOp31
 70
     1
102
RTVSPost2010Prop32
280
     0
102
RTVSPost2010PropOp32
 70
     1
102
RTVSPost2010Prop33
280
     0
102
RTVSPost2010PropOp33
 70
     1
102
RTVSPost2010Prop34
280
     0
102
RTVSPost2010PropOp34
 70
     1
102
RTVSPost2010Prop35
280
     0
102
RTVSPost2010PropOp35
 70
     1
102
RTVSPost2010Prop36
280
     0
102
RTVSPost2010PropOp36
 70
     1
102
RTVSPost2010Prop37
 90
       50
102
RTVSPost2010PropOp37
 70
     1
102
RTVSPost2010Prop38
140
0.0
102
RTVSPost2010PropOp38
 70
     1
102
RTVSPost2010Prop39
140
1.0
102
RTVSPost2010PropOp39
 70
     1
102
RTVSPost2010Prop40
 90
        0
102
RTVSPost2010PropOp40
 70
     1
102
RTVSPost2010Prop41ColorIndex
 90
       18
102
RTVSPost2010Prop41ColorRGB
 90
        0
102
RTVSPost2010PropOp41
 70
     1
102
RTVSPost2010Prop42
 90
       50
102
RTVSPost2010PropOp42
 70
     1
102
RTVSPost2010Prop43
 90
        3
102
RTVSPost2010PropOp43
 70
     1
102
RTVSPost2010Prop44ColorIndex
 90
        5
102
RTVSPost2010Prop44ColorRGB
 90
      255
102
RTVSPost2010PropOp44
 70
     1
102
RTVSPost2010Prop45
280
     0
102
RTVSPost2010PropOp45
 70
     1
102
RTVSPost2010Prop46
 90
       50
102
RTVSPost2010PropOp46
 70
     1
102
RTVSPost2010Prop47
 90
       50
102
RTVSPost2010PropOp47
 70
     1
102
RTVSPost2010Prop48
 90
       50
102
RTVSPost2010PropOp48
 70
     1
102
RTVSPost2010Prop49
280
     0
102
RTVSPost2010PropOp49
 70
     1
102
RTVSPost2010Prop50
 90
       50
102
RTVSPost2010PropOp50
 70
     1
102
RTVSPost2010Prop51ColorIndex
 90
      256
102
RTVSPost2010Prop51ColorRGB
 90
-16777216
102
RTVSPost2010PropOp51
 70
     0
102
RTVSPost2010Prop52
140
1.0
102
RTVSPost2010PropOp52
 70
     0
102
RTVSPost2010Prop53
 90
        2
102
RTVSPost2010PropOp53
 70
     1
102
RTVSPost2010Prop54
  1
strokes_ogs.tif
102
RTVSPost2010PropOp54
 70
     1
102
RTVSPost2010Prop55
280
     0
102
RTVSPost2010PropOp55
 70
     1
102
RTVSPost2010Prop56
140
1.0
102
RTVSPost2010PropOp56
 70
     1
102
RTVSPost2010Prop57
140
1.0
102
RTVSPost2010PropOp57
 70
     1
102
RTVSPropertyOp0
 70
     1
102
RTVSPropertyOp1
 70
     1
102
RTVSPropertyOp2
 70
     1
102
RTVSPropertyOp3
 70
     1
102
RTVSPropertyOp4
 70
     1
102
RTVSPropertyOp5
 70
     1
102
RTVSPropertyOp6
 70
     1
102
RTVSPropertyOp7
 70
     1
102
RTVSPropertyOp8
 70
     1
102
RTVSPropertyOp9
 70
     1
102
RTVSPropertyOp10
 70
     1
102
RTVSPropertyOp11
 70
     1
102
RTVSPropertyOp12
 70
     1
102
RTVSPropertyOp13
 70
     1
102
RTVSPropertyOp14
 70
     1
102
RTVSPropertyOp15
 70
     1
102
RTVSPropertyOp16
 70
     1
102
RTVSPropertyOp17
 70
     1
102
RTVSPropertyOp18
 70
     1
102
RTVSPropertyOp19
 70
     1
102
RTVSPropertyOp20
 70
     1
102
RTVSPropertyOp21
 70
     1
102
RTVSPropertyOp22
 70
     1
102
RTVSPropertyOp23
 70
     1
102
RTVSPropertyOp24
 70
     1
102
RTVSPropertyOp25
 70
     1
102
RTVSPropertyOp26
 70
     1
102
RTVSPropertyOp27
 70
     1
102
RTVSPropertyOp28
 70
     1
102
RTVSPropertyOp29
 70
     1
102
RTVSPropertyOp30
 70
     1
102
RTVSPropertyOp31
 70
     1
102
RTVSPropertyOp32
 70
     1
102
RTVSPropertyOp33
 70
     1
102
RTVSPropertyOp34
 70
     1
102
RTVSPropertyOp35
 70
     1
102
RTVSPropertyOp36
 70
     1
102
RTVSPropertyOp37
 70
     1
102
RTVSPropertyOp38
 70
     1
102
RTVSPropertyOp39
 70
     1
102
RTVSPropertyOp40
 70
     1
102
RTVSPropertyOp41
 70
     1
102
RTVSPropertyOp42
 70
     1
102
RTVSPropertyOp43
 70
     1
102
RTVSPropertyOp44
 70
     1
102
RTVSPropertyOp45
 70
     1
102
RTVSPropertyOp46
 70
     1
102
RTVSPropertyOp47
 70
     1
102
RTVSPropertyOp48
 70
     1
102
RTVSPropertyOp49
 70
     1
102
RTVSPropertyOp50
 70
     1
102
RTVSPropertyOp51
 70
     0
102
RTVSPropertyOp52
 70
     0
102
RTVSPropertyOp53
 70
     1
102
RTVSPropertyOp54
 70
     1
102
RTVSPropertyOp55
 70
     1
102
RTVSPropertyOp56
 70
     1
102
RTVSPropertyOp57
 70
     1
102
RTVSPropertyOp58
 70
     1
102
RTVSPropertyOp59
 70
     1
102
RTVSPropertyOp60
 70
     1
102
RTVSPropertyOp61
 70
     1
102
RTVSPropertyOp62
 70
     1
  0
XRECORD
  5
495
102
{ACAD_REACTORS
330
494
102
}
330
494
100
AcDbXrecord
280
     1
102
RTVSPost2010Prop28
280
     0
102
RTVSPost2010PropOp28
 70
     1
102
RTVSPost2010Prop29
280
     1
102
RTVSPost2010PropOp29
 70
     1
102
RTVSPost2010Prop30
280
     1
102
RTVSPost2010PropOp30
 70
     1
102
RTVSPost2010Prop31
280
     0
102
RTVSPost2010PropOp31
 70
     1
102
RTVSPost2010Prop32
280
     0
102
RTVSPost2010PropOp32
 70
     1
102
RTVSPost2010Prop33
280
     0
102
RTVSPost2010PropOp33
 70
     1
102
RTVSPost2010Prop34
280
     0
102
RTVSPost2010PropOp34
 70
     1
102
RTVSPost2010Prop35
280
     0
102
RTVSPost2010PropOp35
 70
     1
102
RTVSPost2010Prop36
280
     0
102
RTVSPost2010PropOp36
 70
     1
102
RTVSPost2010Prop37
 90
       50
102
RTVSPost2010PropOp37
 70
     1
102
RTVSPost2010Prop38
140
0.0
102
RTVSPost2010PropOp38
 70
     1
102
RTVSPost2010Prop39
140
1.0
102
RTVSPost2010PropOp39
 70
     1
102
RTVSPost2010Prop40
 90
        0
102
RTVSPost2010PropOp40
 70
     1
102
RTVSPost2010Prop41ColorIndex
 90
       18
102
RTVSPost2010Prop41ColorRGB
 90
        0
102
RTVSPost2010PropOp41
 70
     1
102
RTVSPost2010Prop42
 90
       50
102
RTVSPost2010PropOp42
 70
     1
102
RTVSPost2010Prop43
 90
        3
102
RTVSPost2010PropOp43
 70
     1
102
RTVSPost2010Prop44ColorIndex
 90
        5
102
RTVSPost2010Prop44ColorRGB
 90
      255
102
RTVSPost2010PropOp44
 70
     1
102
RTVSPost2010Prop45
280
     0
102
RTVSPost2010PropOp45
 70
     1
102
RTVSPost2010Prop46
 90
       50
102
RTVSPost2010PropOp46
 70
     1
102
RTVSPost2010Prop47
 90
       50
102
RTVSPost2010PropOp47
 70
     1
102
RTVSPost2010Prop48
 90
       50
102
RTVSPost2010PropOp48
 70
     1
102
RTVSPost2010Prop49
280
     0
102
RTVSPost2010PropOp49
 70
     1
102
RTVSPost2010Prop50
 90
       50
102
RTVSPost2010PropOp50
 70
     1
102
RTVSPost2010Prop51ColorIndex
 90
      256
102
RTVSPost2010Prop51ColorRGB
 90
-16777216
102
RTVSPost2010PropOp51
 70
     0
102
RTVSPost2010Prop52
140
1.0
102
RTVSPost2010PropOp52
 70
     0
102
RTVSPost2010Prop53
 90
        2
102
RTVSPost2010PropOp53
 70
     1
102
RTVSPost2010Prop54
  1
strokes_ogs.tif
102
RTVSPost2010PropOp54
 70
     1
102
RTVSPost2010Prop55
280
     0
102
RTVSPost2010PropOp55
 70
     1
102
RTVSPost2010Prop56
140
1.0
102
RTVSPost2010PropOp56
 70
     1
102
RTVSPost2010Prop57
140
1.0
102
RTVSPost2010PropOp57
 70
     1
102
RTVSPropertyOp0
 70
     1
102
RTVSPropertyOp1
 70
     1
102
RTVSPropertyOp2
 70
     1
102
RTVSPropertyOp3
 70
     1
102
RTVSPropertyOp4
 70
     1
102
RTVSPropertyOp5
 70
     1
102
RTVSPropertyOp6
 70
     1
102
RTVSPropertyOp7
 70
     1
102
RTVSPropertyOp8
 70
     1
102
RTVSPropertyOp9
 70
     1
102
RTVSPropertyOp10
 70
     1
102
RTVSPropertyOp11
 70
     1
102
RTVSPropertyOp12
 70
     1
102
RTVSPropertyOp13
 70
     1
102
RTVSPropertyOp14
 70
     1
102
RTVSPropertyOp15
 70
     1
102
RTVSPropertyOp16
 70
     1
102
RTVSPropertyOp17
 70
     1
102
RTVSPropertyOp18
 70
     1
102
RTVSPropertyOp19
 70
     1
102
RTVSPropertyOp20
 70
     1
102
RTVSPropertyOp21
 70
     1
102
RTVSPropertyOp22
 70
     1
102
RTVSPropertyOp23
 70
     1
102
RTVSPropertyOp24
 70
     1
102
RTVSPropertyOp25
 70
     1
102
RTVSPropertyOp26
 70
     1
102
RTVSPropertyOp27
 70
     1
102
RTVSPropertyOp28
 70
     1
102
RTVSPropertyOp29
 70
     1
102
RTVSPropertyOp30
 70
     1
102
RTVSPropertyOp31
 70
     1
102
RTVSPropertyOp32
 70
     1
102
RTVSPropertyOp33
 70
     1
102
RTVSPropertyOp34
 70
     1
102
RTVSPropertyOp35
 70
     1
102
RTVSPropertyOp36
 70
     1
102
RTVSPropertyOp37
 70
     1
102
RTVSPropertyOp38
 70
     1
102
RTVSPropertyOp39
 70
     1
102
RTVSPropertyOp40
 70
     1
102
RTVSPropertyOp41
 70
     1
102
RTVSPropertyOp42
 70
     1
102
RTVSPropertyOp43
 70
     1
102
RTVSPropertyOp44
 70
     1
102
RTVSPropertyOp45
 70
     1
102
RTVSPropertyOp46
 70
     1
102
RTVSPropertyOp47
 70
     1
102
RTVSPropertyOp48
 70
     1
102
RTVSPropertyOp49
 70
     1
102
RTVSPropertyOp50
 70
     1
102
RTVSPropertyOp51
 70
     0
102
RTVSPropertyOp52
 70
     0
102
RTVSPropertyOp53
 70
     1
102
RTVSPropertyOp54
 70
     1
102
RTVSPropertyOp55
 70
     1
102
RTVSPropertyOp56
 70
     1
102
RTVSPropertyOp57
 70
     1
102
RTVSPropertyOp58
 70
     1
102
RTVSPropertyOp59
 70
     1
102
RTVSPropertyOp60
 70
     1
102
RTVSPropertyOp61
 70
     1
102
RTVSPropertyOp62
 70
     1
  0
ENDSEC
  0
EOF
