  0
SECTION
  2
HEADER
  9
$ACADVER
  1
AC1009
  9
$INSBASE
 10
0
 20
0
 30
0
  9
$EXTMIN
 10
0
 20
0
  9
$EXTMAX
 10
1485
 20
1050
  9
$LIMMIN
 10
0
 20
0
  9
$LIMMAX
 10
1485
 20
1050
  9
$LTSCALE
 40
5
  0
ENDSEC
  0
SECTION
  2
TABLES
  0
TABLE
  2
LTYPE
 70
     9
  0
LTYPE
  2
CONTINUOUS
 70
    64
  3
実線
 72
    65
 73
     0
 40
0.0
  0
LTYPE
  2
DASHED1
 70
    64
  3
--  --  --  --  --  --  --  --  
 72
    65
 73
     2
 40
2.5
 49
1.25
 49
-1.25
  0
LTYPE
  2
DASHED2
 70
    64
  3
----    ----    ----    ----    
 72
    65
 73
     2
 40
5.0
 49
2.5
 49
-2.5
  0
LTYPE
  2
DASHED3
 70
    64
  3
------  ------  ------  ------  
 72
    65
 73
     2
 40
5.0
 49
3.75
 49
-1.25
  0
LTYPE
  2
CENTER1
 70
    64
  3
----- - ----- - ----- - ----- - 
 72
    65
 73
     4
 40
10.0
 49
6.25
 49
-1.25
 49
1.25
 49
-1.25
  0
LTYPE
  2
CENTER2
 70
    64
  3
----------  --  ----------  --  
 72
    65
 73
     4
 40
20.0
 49
12.5
 49
-2.5
 49
2.5
 49
-2.5
  0
LTYPE
  2
PHANTOM1
 70
    64
  3
--- - - --- - - --- - - --- - - 
 72
    65
 73
     6
 40
10.0
 49
3.25
 49
-1.25
 49
1.25
 49
-1.25
 49
1.25
 49
-1.25
  0
LTYPE
  2
PHANTOM2
 70
    64
  3
--------  -  -  --------  -  -  
 72
    65
 73
     6
 40
20.0
 49
10.0
 49
-2.5
 49
1.25
 49
-2.5
 49
1.25
 49
-2.5
  0
LTYPE
  2
DOT
 70
    64
  3
-   -   -   -   -   -   -   -   
 72
    65
 73
     2
 40
2.5
 49
0.625
 49
-1.875
  0
LTYPE
  2
DUMMY
 70
    64
  3
ダミー
 72
    65
 73
     0
 40
0.0
  0
LTYPE
  2
RAND1
 70
    64
  3
ランダム線1
 72
    65
 73
     4
 40
10.0
 49
1.0
 49
-2.0
 49
3.0
 49
-4.0
  0
LTYPE
  2
RAND2
 70
    64
  3
ランダム線2
 72
    65
 73
     4
 40
14.0
 49
2.0
 49
-3.0
 49
4.0
 49
-5.0
  0
LTYPE
  2
RAND3
 70
    64
  3
ランダム線3
 72
    65
 73
     4
 40
18.0
 49
3.0
 49
-4.0
 49
5.0
 49
-6.0
  0
LTYPE
  2
RAND4
 70
    64
  3
ランダム線4
 72
    65
 73
     4
 40
22.0
 49
4.0
 49
-5.0
 49
6.0
 49
-7.0
  0
LTYPE
  2
RAND5
 70
    64
  3
ランダム線5
 72
    65
 73
     4
 40
26.0
 49
5.0
 49
-6.0
 49
7.0
 49
-8.0
  0
LTYPE
  2
LONG1
 70
    64
  3
----------  --  ----------  --  
 72
    65
 73
     4
 40
40.0
 49
32.5
 49
-2.5
 49
2.5
 49
-2.5
  0
LTYPE
  2
LONG2
 70
    64
  3
--------  -  -  --------  -  -  
 72
    65
 73
     6
 40
40.0
 49
30.0
 49
-2.5
 49
1.25
 49
-2.5
 49
1.25
 49
-2.5
  0
LTYPE
  2
LONG3
 70
    64
  3
+++++++++++++++..+++++++++++++++
 72
    65
 73
     2
 40
40.0
 49
37.5
 49
-2.5
  0
LTYPE
  2
LONG4
 70
    64
  3
+++++++++++++++..+++++++++++++++
 72
    65
 73
     2
 40
80.0
 49
75.0
 49
-5.0
  0
LTYPE
  2
LONG5
 70
    64
  3
----------  --  ----------  --  
 72
    65
 73
     4
 40
60.0
 49
37.5
 49
-7.5
 49
7.5
 49
-7.5
  0
LTYPE
  2
dashed
 70
   64
  3
-------   -------------   ------
 72
   65
 73
    2
 40
7.5
 49
6
 49
-1.5
  0
LTYPE
  2
dashed_spaced
 70
   64
  3
----        --------        ----
 72
   65
 73
    2
 40
12
 49
6
 49
-6
  0
LTYPE
  2
long_dashed_dotted
 70
   64
  3
------------- --- --------------
 72
   65
 73
    4
 40
15.25
 49
12
 49
-1.5
 49
0.25
 49
-1.5
  0
LTYPE
  2
long_dashed_double-dotted
 70
   64
  3
----------- --- --- ------------
 72
   65
 73
    6
 40
17
 49
12
 49
-1.5
 49
0.25
 49
-1.5
 49
0.25
 49
-1.5
  0
LTYPE
  2
long_dashed_triplicate-dotted
 70
   64
  3
--------- --- --- --- ----------
 72
   65
 73
    8
 40
18.75
 49
12
 49
-1.5
 49
0.25
 49
-1.5
 49
0.25
 49
-1.5
 49
0.25
 49
-1.5
  0
LTYPE
  2
dotted
 70
   64
  3
   -       -       -       -    
 72
   65
 73
    2
 40
1.75
 49
0.25
 49
-1.5
  0
LTYPE
  2
chain
 70
   64
  3
-------------- -- --------------
 72
   65
 73
    4
 40
18.5
 49
12
 49
-1.5
 49
3.5
 49
-1.5
  0
LTYPE
  2
chain_double_dash
 70
   64
  3
------------ -- -- -------------
 72
   65
 73
    6
 40
23.5
 49
12
 49
-1.5
 49
3.5
 49
-1.5
 49
3.5
 49
-1.5
  0
LTYPE
  2
dashed_dotted
 70
   64
  3
-----------     -     ----------
 72
   65
 73
    4
 40
9.25
 49
6
 49
-1.5
 49
0.25
 49
-1.5
  0
LTYPE
  2
double-dashed_dotted
 70
   64
  3
------   -----------   -   -----
 72
   65
 73
    6
 40
16.75
 49
6
 49
-1.5
 49
6
 49
-1.5
 49
0.25
 49
-1.5
  0
LTYPE
  2
dashed_double-dotted
 70
   64
  3
---------    -    -    ---------
 72
   65
 73
    6
 40
11
 49
6
 49
-1.5
 49
0.25
 49
-1.5
 49
0.25
 49
-1.5
  0
LTYPE
  2
double-dashed_double-dotted
 70
   64
  3
-----   ---------   -   -   ----
 72
   65
 73
    8
 40
18.5
 49
6
 49
-1.5
 49
6
 49
-1.5
 49
0.25
 49
-1.5
 49
0.25
 49
-1.5
  0
LTYPE
  2
dashed_triplicate-dotted
 70
   64
  3
-------    -    -    -    ------
 72
   65
 73
    8
 40
12.75
 49
6
 49
-1.5
 49
0.25
 49
-1.5
 49
0.25
 49
-1.5
 49
0.25
 49
-1.5
  0
LTYPE
  2
double-dashed_triplicate-dotted
 70
   64
  3
-----  ---------  -  -  -  -----
 72
   65
 73
   10
 40
20.25
 49
6
 49
-1.5
 49
6
 49
-1.5
 49
0.25
 49
-1.5
 49
0.25
 49
-1.5
 49
0.25
 49
-1.5
  0
LTYPE
  2
undefined
 70
   64
  3
--------------------------------
 72
   65
 73
    0
 40
0
  0
ENDTAB
  0
TABLE
  2
STYLE
  5
3
100
AcDbSymbolTable
 70
     1
  0
STYLE
  5
10
100
AcDbSymbolTableRecord
100
AcDbTextStyleTableRecord
  2
STANDARD
 70
     0
 40
0.0
 41
1.0
 50
0.0
 71
     0
 42
0.2
  3
txt
  4
bigfont.shx
  0
STYLE
  5
26
100
AcDbSymbolTableRecord
100
AcDbTextStyleTableRecord
  2
TATEGAKI
 70
    68
 40
0.0
 41
1.0
 50
0.0
 71
     0
 42
1.0
  3
txt
  4
bigfont.shx
  0
ENDTAB
  0
TABLE
  2
LAYER
 70
   10
  0
LAYER
  2
_0-0_計極細
 70
   64
 62
    7
  6
CONTINUOUS
  0
LAYER
  2
_0-1_計細線
 70
   64
 62
    7
  6
CONTINUOUS
  0
LAYER
  2
_0-5_寸法線
 70
   64
 62
    7
  6
CONTINUOUS
  0
LAYER
  2
_0-7_枠細線
 70
   64
 62
    7
  6
CONTINUOUS
  0
LAYER
  2
_0-8_枠中線
 70
   64
 62
    7
  6
CONTINUOUS
  0
LAYER
  2
_0-9_枠極太
 70
   64
 62
    7
  6
CONTINUOUS
  0
LAYER
  2
_0-a_極細3
 70
   64
 62
    7
  6
CONTINUOUS
  0
LAYER
  2
_0-b_細線3
 70
   64
 62
    7
  6
CONTINUOUS
  0
LAYER
  2
_0-d_寸法3
 70
   64
 62
    7
  6
CONTINUOUS
  0
LAYER
  2
ADD_LINE
 70
   64
 62
    7
  6
CONTINUOUS
  0
ENDTAB
  0
ENDSEC
  0
SECTION
  2
BLOCKS
  0
ENDSEC
  0
SECTION
  2
ENTITIES
  0
LINE
  8
ADD_LINE
  6
DOT
 62
    7
 10
852.85596010007271
 20
319.86966882860725
 11
844.52262676673865
 21
319.86966882860725
  0
LINE
  8
_0-7_枠細線
  6
CONTINUOUS
 62
    5
 10
1425
 20
942.5
 11
890
 21
942.5
  0
TEXT
  8
_0-7_枠細線
 62
    5
 10
895
 20
945
 40
12.5
 41
1
 50
0
  1
記号
  0
TEXT
  8
_0-7_枠細線
 62
    5
 10
996.875
 20
945
 40
12.5
 41
1
 50
0
  1
訂　 正　 記　 事
  0
TEXT
  8
_0-7_枠細線
 62
    5
 10
1181.25
 20
945
 40
12.5
 41
1
 50
0
  1
訂 正 年 月 日
  0
TEXT
  8
_0-7_枠細線
 62
    5
 10
1306.25
 20
945
 40
12.5
 41
1
 50
0
  1
備　　　　　考
  0
LINE
  8
_0-7_枠細線
  6
CONTINUOUS
 62
    5
 10
1185
 20
180
 11
1185
 21
100
  0
TEXT
  8
_0-7_枠細線
 62
    5
 10
937.5
 20
97.5
 40
17.5
 41
1
 50
0
  1
備考
  7
TATEGAKI
  0
TEXT
  8
_0-7_枠細線
 62
    5
 10
937.5
 20
137.5
 40
17.5
 41
1
 50
0
  1
品番
  7
TATEGAKI
  0
TEXT
  8
_0-7_枠細線
 62
    5
 10
937.5
 20
177.5
 40
17.5
 41
1
 50
0
  1
品名
  7
TATEGAKI
  0
LINE
  8
_0-7_枠細線
  6
CONTINUOUS
 62
    5
 10
1185
 20
140
 11
925
 21
140
  0
LINE
  8
_0-7_枠細線
  6
CONTINUOUS
 62
    5
 10
950
 20
180
 11
950
 21
60
  0
LINE
  8
_0-8_枠中線
  6
CONTINUOUS
 62
    5
 10
1425
 20
180
 11
925
 21
180
  0
LINE
  8
_0-8_枠中線
  6
CONTINUOUS
 62
    5
 10
925
 20
180
 11
925
 21
60
  0
LINE
  8
_0-7_枠細線
  6
CONTINUOUS
 62
    5
 10
1245
 20
180
 11
1245
 21
60
  0
TEXT
  8
_0-7_枠細線
 62
    5
 10
1192.5
 20
160
 40
15
 41
1
 50
0
  1
縮　尺
  0
TEXT
  8
_0-7_枠細線
 62
    5
 10
1194
 20
117.5
 40
20
 41
0.7
 50
0
  1
１：５
  0
LINE
  8
_0-7_枠細線
  6
CONTINUOUS
 62
    5
 10
1185
 20
155
 11
1245
 21
155
  0
LINE
  8
_0-7_枠細線
  6
CONTINUOUS
 62
    5
 10
1245
 20
100
 11
925
 21
100
  0
LINE
  8
_0-7_枠細線
  6
CONTINUOUS
 62
    5
 10
1425
 20
90
 11
1245
 21
90
  0
LINE
  8
_0-7_枠細線
  6
CONTINUOUS
 62
    5
 10
1245
 20
120
 11
1425
 21
120
  0
LINE
  8
_0-7_枠細線
  6
CONTINUOUS
 62
    5
 10
1425
 20
140
 11
1245
 21
140
  0
TEXT
  8
_0-7_枠細線
 62
    5
 10
1255
 20
147.5
 40
25
 41
0.8
 50
0
  1
株式会社シマブン
  0
TEXT
  8
_0-7_枠細線
 62
    5
 10
1252.5
 20
60
 40
15
 41
1
 50
0
  1
年月日
  0
TEXT
  8
_0-7_枠細線
 62
    5
 10
1252.5
 20
75
 40
15
 41
1
 50
0
  1
作　成
  0
TEXT
  8
_0-7_枠細線
 62
    5
 10
1250
 20
95
 40
20
 41
1
 50
0
  1
島 英
  0
TEXT
  8
_0-7_枠細線
 62
    5
 10
1256.25
 20
122.5
 40
15
 41
1
 50
0
  1
承 認
  0
LINE
  8
_0-7_枠細線
  6
CONTINUOUS
 62
    5
 10
1305
 20
140
 11
1305
 21
60
  0
TEXT
  8
_0-7_枠細線
 62
    5
 10
1315
 20
95
 40
20
 41
1
 50
0
  1
隠塚
  0
TEXT
  8
_0-7_枠細線
 62
    5
 10
1316.25
 20
122.5
 40
15
 41
1
 50
0
  1
検 図
  0
LINE
  8
_0-7_枠細線
  6
CONTINUOUS
 62
    5
 10
1365
 20
140
 11
1365
 21
90
  0
TEXT
  8
_0-7_枠細線
 62
    5
 10
1375
 20
95
 40
20
 41
1
 50
0
  1
藤戸
  0
TEXT
  8
_0-7_枠細線
 62
    5
 10
1376.25
 20
122.5
 40
15
 41
1
 50
0
  1
設 計
  0
TEXT
  8
_0-7_枠細線
 62
    5
 10
965.50000000000011
 20
150
 40
20
 41
0.6
 50
0
  1
セーフティグレーチングＨ２０タイプ
  0
TEXT
  8
_0-7_枠細線
 62
    5
 10
965.49999999999977
 20
70
 40
20
 41
0.5999999999999998
 50
0
  1
色については品番表参照のこと
  0
TEXT
  8
_0-7_枠細線
 62
    5
 10
1310
 20
67.5
 40
15
 41
0.6666666666666666
 50
0
  1
２００９年０１月１６日
  0
TEXT
  8
_0-7_枠細線
 62
    5
 10
965.50000000000011
 20
110
 40
20
 41
0.6
 50
0
  1
ＧＲＳＪ－２０Ｗ１５１　ＳＥＴ
  0
LINE
  8
_0-7_枠細線
  6
CONTINUOUS
 62
    5
 10
1425
 20
925
 11
890
 21
925
  0
TEXT
  8
_0-7_枠細線
 62
    5
 10
938.85037037037023
 20
927.5
 40
12.5
 41
1
 50
0
  1
品番・色記号変更
  0
TEXT
  8
_0-7_枠細線
 62
    5
 10
1180
 20
927.5
 40
12.5
 41
0.7199999999999999
 50
0
  1
２０１３．０３．１３
  0
LINE
  8
_0-7_枠細線
  6
CONTINUOUS
 62
    5
 10
915
 20
908.75
 11
907.5
 21
923.75
  0
LINE
  8
_0-7_枠細線
  6
CONTINUOUS
 62
    5
 10
900
 20
908.75
 11
915
 21
908.75
  0
LINE
  8
_0-7_枠細線
  6
CONTINUOUS
 62
    5
 10
907.5
 20
923.75
 11
900
 21
908.75
  0
TEXT
  8
_0-7_枠細線
 62
    5
 10
902.36515126814822
 20
908.44299775461946
 40
12.5
 41
0.8
 50
0
  1
１
  0
LINE
  8
_0-7_枠細線
  6
CONTINUOUS
 62
    5
 10
1424.9999999999998
 20
907.5
 11
890
 21
907.5
  0
TEXT
  8
_0-7_枠細線
 62
    5
 10
938.85037037037011
 20
910
 40
12.500000000000002
 41
1
 50
0
  1
取外具形状変更
  0
TEXT
  8
_0-7_枠細線
 62
    5
 10
1180
 20
910
 40
12.500000000000002
 41
0.7199999999999998
 50
0
  1
２０１５．１１．２０
  0
LINE
  8
_0-7_枠細線
  6
CONTINUOUS
 62
    5
 10
1425
 20
890
 11
890
 21
890
  0
TEXT
  8
_0-7_枠細線
 62
    5
 10
1180
 20
892.5
 40
12.5
 41
0.7199999999999999
 50
0
  1
２０１７．０４．０１
  0
LINE
  8
_0-7_枠細線
  6
CONTINUOUS
 62
    5
 10
915
 20
873.94233397174685
 11
907.5
 21
888.94233397174685
  0
LINE
  8
_0-7_枠細線
  6
CONTINUOUS
 62
    5
 10
900
 20
873.94233397174685
 11
915
 21
873.94233397174685
  0
LINE
  8
_0-7_枠細線
  6
CONTINUOUS
 62
    5
 10
907.5
 20
888.94233397174685
 11
900
 21
873.94233397174685
  0
TEXT
  8
_0-7_枠細線
 62
    5
 10
1180
 20
875
 40
12.5
 41
0.7199999999999999
 50
0
  1
２０１７．０４．０１
  0
TEXT
  8
_0-7_枠細線
 62
    5
 10
938.85037037037023
 20
875
 40
12.5
 41
1
 50
0
  1
ブラウン色（Ｃ）追加
  0
LINE
  8
_0-7_枠細線
  6
CONTINUOUS
 62
    5
 10
1425
 20
872.5
 11
890
 21
872.5
  0
LINE
  8
_0-7_枠細線
  6
CONTINUOUS
 62
    5
 10
907.5
 20
906.44233397174685
 11
900
 21
891.44233397174685
  0
LINE
  8
_0-7_枠細線
  6
CONTINUOUS
 62
    5
 10
900
 20
891.44233397174685
 11
915
 21
891.44233397174685
  0
LINE
  8
_0-7_枠細線
  6
CONTINUOUS
 62
    5
 10
915
 20
891.44233397174685
 11
907.5
 21
906.44233397174685
  0
TEXT
  8
_0-7_枠細線
 62
    5
 10
938.85037037037023
 20
892.5
 40
12.5
 41
1
 50
0
  1
取外具形状変更
  0
TEXT
  8
_0-7_枠細線
 62
    5
 10
902.48549209054841
 20
890.89465008156549
 40
12.5
 41
0.8
 50
0
  1
２
  0
TEXT
  8
_0-7_枠細線
 62
    5
 10
902.36515126814811
 20
872.99351400689704
 40
12.5
 41
0.8
 50
0
  1
３
  0
LINE
  8
_0-9_枠極太
  6
CONTINUOUS
 62
    5
 10
60
 20
60
 11
60
 21
960
  0
LINE
  8
_0-9_枠極太
  6
CONTINUOUS
 62
    5
 10
60
 20
960
 11
1425
 21
960
  0
LINE
  8
_0-9_枠極太
  6
CONTINUOUS
 62
    5
 10
1425
 20
960
 11
1425
 21
60
  0
LINE
  8
_0-9_枠極太
  6
CONTINUOUS
 62
    5
 10
1425
 20
60
 11
60
 21
60
  0
LINE
  8
_0-7_枠細線
  6
CONTINUOUS
 62
    5
 10
915
 20
856.44233397174685
 11
907.5
 21
871.44233397174685
  0
LINE
  8
_0-7_枠細線
  6
CONTINUOUS
 62
    5
 10
900
 20
856.44233397174685
 11
915
 21
856.44233397174685
  0
LINE
  8
_0-7_枠細線
  6
CONTINUOUS
 62
    5
 10
907.5
 20
871.44233397174685
 11
900
 21
856.44233397174685
  0
LINE
  8
_0-7_枠細線
  6
CONTINUOUS
 62
    5
 10
1425
 20
855
 11
890
 21
855
  0
TEXT
  8
_0-7_枠細線
 62
    5
 10
1180
 20
857.5
 40
12.5
 41
0.7199999999999999
 50
0
  1
２０１９．０９．０１
  0
TEXT
  8
_0-7_枠細線
 62
    5
 10
902.36515126814811
 20
855.49351400689704
 40
12.5
 41
0.8
 50
0
  1
４
  0
LINE
  8
_0-7_枠細線
  6
CONTINUOUS
 62
    5
 10
1074.9999999999995
 20
286.80454176804574
 11
1374.9999999999998
 21
286.80454176804574
  0
LINE
  8
_0-7_枠細線
  6
CONTINUOUS
 62
    5
 10
1074.9999999999995
 20
311.80454176804574
 11
1374.9999999999998
 21
311.80454176804574
  0
LINE
  8
_0-7_枠細線
  6
CONTINUOUS
 62
    5
 10
1074.9999999999995
 20
336.80454176804574
 11
1374.9999999999998
 21
336.80454176804574
  0
LINE
  8
_0-7_枠細線
  6
CONTINUOUS
 62
    5
 10
1074.9999999999995
 20
361.80454176804585
 11
1374.9999999999998
 21
361.80454176804585
  0
LINE
  8
_0-7_枠細線
  6
CONTINUOUS
 62
    5
 10
1074.9999999999995
 20
386.80454176804574
 11
1374.9999999999998
 21
386.80454176804574
  0
LINE
  8
_0-7_枠細線
  6
CONTINUOUS
 62
    5
 10
1074.9999999999995
 20
411.80454176804568
 11
1374.9999999999998
 21
411.80454176804568
  0
LINE
  8
_0-7_枠細線
  6
CONTINUOUS
 62
    5
 10
1074.9999999999995
 20
436.80454176804568
 11
1374.9999999999998
 21
436.80454176804568
  0
TEXT
  8
_0-7_枠細線
 62
    5
 10
1163.7499999999995
 20
441.80454176804568
 40
17.5
 41
1
 50
0
  1
品番表
  0
TEXT
  8
_0-7_枠細線
 62
    5
 10
1306
 20
416.80454176804568
 40
15
 41
0.8000000000000001
 50
0
  1
備　　考
  0
TEXT
  8
_0-7_枠細線
 62
    5
 10
1213
 20
366.80454176804585
 40
15
 41
0.5999999999999999
 50
0
  1
ライトグレー
  0
TEXT
  8
_0-7_枠細線
 62
    5
 10
1222
 20
391.80454176804568
 40
15
 41
0.5999999999999999
 50
0
  1
ベージュ
  0
TEXT
  8
_0-7_枠細線
 62
    5
 10
1234
 20
416.80454176804568
 40
15
 41
0.8000000000000001
 50
0
  1
色
  0
TEXT
  8
_0-7_枠細線
 62
    5
 10
1110.9999999999998
 20
416.80454176804568
 40
15
 41
0.8000000000000001
 50
0
  1
品　　番
  0
LINE
  8
_0-7_枠細線
  6
CONTINUOUS
 62
    5
 10
1074.9999999999995
 20
211.80454176804551
 11
1374.9999999999998
 21
211.80454176804551
  0
LINE
  8
_0-7_枠細線
  6
CONTINUOUS
 62
    5
 10
1074.9999999999995
 20
236.80454176804577
 11
1374.9999999999998
 21
236.80454176804577
  0
LINE
  8
_0-7_枠細線
  6
CONTINUOUS
 62
    5
 10
1074.9999999999995
 20
261.80454176804585
 11
1374.9999999999998
 21
261.80454176804585
  0
TEXT
  8
_0-7_枠細線
 62
    5
 10
1222.0000000000005
 20
341.80454176804585
 40
15
 41
0.5999999999999999
 50
0
  1
ホワイト
  0
TEXT
  8
_0-7_枠細線
 62
    5
 10
1226.4999999999998
 20
316.80454176804574
 40
15
 41
0.5999999999999999
 50
0
  1
ピンク
  0
TEXT
  8
_0-7_枠細線
 62
    5
 10
1226.4999999999998
 20
291.80454176804574
 40
15
 41
0.5999999999999999
 50
0
  1
ブルー
  0
TEXT
  8
_0-7_枠細線
 62
    5
 10
1212.9999999999995
 20
266.80454176804574
 40
15
 41
0.5999999999999999
 50
0
  1
ダークグレー
  0
TEXT
  8
_0-7_枠細線
 62
    5
 10
1079.7499999999998
 20
391.80454176804568
 40
15
 41
0.5666666666666667
 50
0
  1
ＧＲＳＪ－２０Ｗ１５１－Ｂ
  0
TEXT
  8
_0-7_枠細線
 62
    5
 10
1079.7499999999998
 20
366.80454176804574
 40
15
 41
0.5666666666666667
 50
0
  1
ＧＲＳＪ－２０Ｗ１５１－Ｇ
  0
TEXT
  8
_0-7_枠細線
 62
    5
 10
1079.7499999999998
 20
341.80454176804585
 40
15
 41
0.5666666666666667
 50
0
  1
ＧＲＳＪ－２０Ｗ１５１－Ｓ
  0
TEXT
  8
_0-7_枠細線
 62
    5
 10
1079.7499999999998
 20
316.80454176804574
 40
15
 41
0.5666666666666667
 50
0
  1
ＧＲＳＪ－２０Ｗ１５１－Ｐ
  0
TEXT
  8
_0-7_枠細線
 62
    5
 10
1079.7499999999998
 20
291.80454176804574
 40
15
 41
0.5666666666666667
 50
0
  1
ＧＲＳＪ－２０Ｗ１５１－Ａ
  0
TEXT
  8
_0-7_枠細線
 62
    5
 10
1079.7499999999998
 20
266.80454176804574
 40
15
 41
0.5666666666666667
 50
0
  1
ＧＲＳＪ－２０Ｗ１５１－Ｄ
  0
TEXT
  8
_0-7_枠細線
 62
    5
 10
1079.7499999999998
 20
241.80454176804568
 40
15
 41
0.5666666666666667
 50
0
  1
ＧＲＳＪ－２０Ｗ１５１－Ｍ
  0
TEXT
  8
_0-7_枠細線
 62
    5
 10
1226.4999999999998
 20
241.80454176804568
 40
15
 41
0.5999999999999999
 50
0
  1
ウッド
  0
LINE
  8
_0-7_枠細線
  6
CONTINUOUS
 62
    5
 10
1074.9999999999995
 20
186.80454176804531
 11
1374.9999999999998
 21
186.80454176804531
  0
TEXT
  8
_0-7_枠細線
 62
    5
 10
1222.0000000000005
 20
191.80454176804545
 40
15
 41
0.5999999999999999
 50
0
  1
ブラック
  0
TEXT
  8
_0-7_枠細線
 62
    5
 10
1079.7499999999998
 20
191.80454176804545
 40
15
 41
0.5666666666666667
 50
0
  1
ＧＲＳＪ－２０Ｗ１５１－Ｋ
  0
LINE
  8
_0-7_枠細線
  6
CONTINUOUS
 62
    5
 10
1195
 20
436.80454176804568
 11
1195
 21
186.80454176804531
  0
LINE
  8
_0-7_枠細線
  6
CONTINUOUS
 62
    5
 10
1284.9999999999998
 20
436.80454176804568
 11
1284.9999999999998
 21
186.80454176804531
  0
LINE
  8
_0-7_枠細線
  6
CONTINUOUS
 62
    5
 10
1374.9999999999998
 20
436.80454176804568
 11
1374.9999999999998
 21
186.80454176804531
  0
LINE
  8
_0-7_枠細線
  6
CONTINUOUS
 62
    5
 10
1074.9999999999995
 20
436.80454176804568
 11
1074.9999999999995
 21
186.80454176804531
  0
TEXT
  8
_0-7_枠細線
 62
    5
 10
1079.7499999999998
 20
216.80454176804574
 40
15
 41
0.5666666666666667
 50
0
  1
ＧＲＳＪ－２０Ｗ１５１－Ｃ
  0
LINE
  8
_0-7_枠細線
  6
CONTINUOUS
 62
    5
 10
1068.6456150812833
 20
217.78173697178087
 11
1061.1456150812833
 21
232.78173697178087
  0
LINE
  8
_0-7_枠細線
  6
CONTINUOUS
 62
    5
 10
1053.6456150812833
 20
217.78173697178087
 11
1068.6456150812833
 21
217.78173697178087
  0
LINE
  8
_0-7_枠細線
  6
CONTINUOUS
 62
    5
 10
1061.1456150812833
 20
232.78173697178087
 11
1053.6456150812833
 21
217.78173697178087
  0
TEXT
  8
_0-7_枠細線
 62
    5
 10
1056.0107663494314
 20
216.83291700693093
 40
12.5
 41
0.8
 50
0
  1
３
  0
TEXT
  8
_0-7_枠細線
 62
    5
 10
1222
 20
216.80454176804574
 40
15
 41
0.5999999999999999
 50
0
  1
ブラウン
  0
LINE
  8
_0-7_枠細線
  6
CONTINUOUS
 62
    5
 10
785.16995454985135
 20
356.80454176804568
 11
785.16995454985135
 21
436.80454176804568
  0
TEXT
  8
_0-7_枠細線
 62
    5
 10
807.66995454985135
 20
414.30454176804568
 40
15
 41
1
 50
0
  1
耐荷重
  0
TEXT
  8
_0-7_枠細線
 62
    5
 10
800.16995454985135
 20
384.30454176804568
 40
15
 41
1
 50
0
  1
3.5kN/㎡
  0
TEXT
  8
_0-7_枠細線
 62
    5
 10
792.66995454985135
 20
364.30454176804568
 40
15
 41
1
 50
0
  1
（歩道用）
  0
LINE
  8
_0-7_枠細線
  6
CONTINUOUS
 62
    5
 10
875.16995454985135
 20
356.80454176804568
 11
875.16995454985135
 21
436.80454176804568
  0
TEXT
  8
_0-7_枠細線
 62
    5
 10
897.66995454985135
 20
414.30454176804568
 40
15
 41
1
 50
0
  1
蓋重量
  0
LINE
  8
_0-7_枠細線
  6
CONTINUOUS
 62
    5
 10
965.16995454985135
 20
356.80454176804568
 11
965.16995454985135
 21
436.80454176804568
  0
TEXT
  8
_0-7_枠細線
 62
    5
 10
987.66995454985135
 20
414.30454176804568
 40
15
 41
1
 50
0
  1
枠重量
  0
LINE
  8
_0-7_枠細線
  6
CONTINUOUS
 62
    5
 10
785.16995454985135
 20
406.80454176804568
 11
1055.1699545498514
 21
406.80454176804568
  0
LINE
  8
_0-7_枠細線
  6
CONTINUOUS
 62
    5
 10
785.16995454985135
 20
436.80454176804568
 11
1055.1699545498514
 21
436.80454176804568
  0
LINE
  8
_0-7_枠細線
  6
CONTINUOUS
 62
    5
 10
785.16995454985135
 20
356.80454176804568
 11
1055.1699545498514
 21
356.80454176804568
  0
LINE
  8
_0-7_枠細線
  6
CONTINUOUS
 62
    5
 10
1055.1699545498514
 20
356.80454176804568
 11
1055.1699545498514
 21
436.80454176804568
  0
TEXT
  8
_0-7_枠細線
 62
    5
 10
938.85037037037023
 20
857.5
 40
12.5
 41
1
 50
0
  1
アンカー材質･厚み変更
  0
LINE
  8
_0-7_枠細線
  6
CONTINUOUS
 62
    5
 10
1275
 20
837.5
 11
1275
 21
959.99999999999943
  0
LINE
  8
_0-7_枠細線
  6
CONTINUOUS
 62
    5
 10
1175
 20
837.5
 11
1175
 21
959.99999999999943
  0
LINE
  8
_0-7_枠細線
  6
CONTINUOUS
 62
    5
 10
925
 20
837.5
 11
925
 21
959.99999999999943
  0
LINE
  8
_0-7_枠細線
  6
CONTINUOUS
 62
    5
 10
890
 20
837.5
 11
890
 21
959.99999999999943
  0
LINE
  8
_0-7_枠細線
  6
CONTINUOUS
 62
    5
 10
1425
 20
837.5
 11
890
 21
837.5
  0
TEXT
  8
_0-7_枠細線
 62
    5
 10
938.85037037037023
 20
840
 40
12.5
 41
1
 50
0
  1
取外具形状変更
  0
LINE
  8
_0-7_枠細線
  6
CONTINUOUS
 62
    5
 10
907.5
 20
853.94233397174685
 11
900
 21
838.94233397174685
  0
LINE
  8
_0-7_枠細線
  6
CONTINUOUS
 62
    5
 10
900
 20
838.94233397174685
 11
915
 21
838.94233397174685
  0
LINE
  8
_0-7_枠細線
  6
CONTINUOUS
 62
    5
 10
915
 20
838.94233397174685
 11
907.5
 21
853.94233397174685
  0
TEXT
  8
_0-7_枠細線
 62
    5
 10
1180
 20
840
 40
12.5
 41
0.7199999999999999
 50
0
  1
２０２１．０５．０６
  0
TEXT
  8
_0-7_枠細線
 62
    5
 10
902.36515126814822
 20
838.63533172636664
 40
12.5
 41
0.8
 50
0
  1
５
  0
LINE
  8
_0-5_寸法線
  6
CONTINUOUS
 62
    7
 10
230.1632812499939
 20
700.49357311320819
 11
230.16328124999382
 21
780.49357311320819
  0
LINE
  8
_0-5_寸法線
  6
CONTINUOUS
 62
    7
 10
230.16328124999382
 20
775.49357311320819
 11
237.40772494716182
 21
777.43471595147707
  0
LINE
  8
_0-5_寸法線
  6
CONTINUOUS
 62
    7
 10
230.16328124999382
 20
775.49357311320819
 11
237.40772494716182
 21
773.55243027493941
  0
LINE
  8
_0-5_寸法線
  6
CONTINUOUS
 62
    7
 10
1229.1632812499938
 20
700.49357311320819
 11
1229.1632812499938
 21
780.49357311320819
  0
LINE
  8
_0-5_寸法線
  6
CONTINUOUS
 62
    7
 10
1229.1632812499938
 20
775.49357311320819
 11
1221.9188375528258
 21
773.55243027493941
  0
LINE
  8
_0-5_寸法線
  6
CONTINUOUS
 62
    7
 10
1229.1632812499938
 20
775.49357311320819
 11
1221.9188375528258
 21
777.43471595147707
  0
LINE
  8
_0-5_寸法線
  6
CONTINUOUS
 62
    7
 10
230.16328124999382
 20
775.49357311320819
 11
1229.1632812499938
 21
775.49357311320819
  0
TEXT
  8
_0-5_寸法線
 62
    7
 10
718.41328124999382
 20
775.49357311320819
 40
15
 41
1
 50
0
  1
999
  0
LINE
  8
_0-0_計極細
  6
CENTER2
 62
    2
 10
214.27468171297463
 20
610.4935731132091
 11
1245.2080150463519
 21
610.4935731132091
  0
ARC
  8
_0-0_計極細
  6
CONTINUOUS
 62
    2
 10
217.10950240667813
 20
682.99357311320921
 40
11.295514677412786
 50
138.39585046827571
 51
221.60414953172395
  0
ARC
  8
_0-0_計極細
  6
CONTINUOUS
 62
    2
 10
200.21706009330771
 20
667.99357311320773
 40
11.295514677412786
 50
318.39585046827381
 51
41.604149531723962
  0
ARC
  8
_0-0_計極細
  6
CONTINUOUS
 62
    2
 10
217.10950240667813
 20
552.99357311320773
 40
11.295514677412786
 50
138.39585046827571
 51
221.60414953172395
  0
ARC
  8
_0-0_計極細
  6
CONTINUOUS
 62
    2
 10
200.21706009330771
 20
537.99357311320637
 40
11.295514677412786
 50
318.39585046827381
 51
41.604149531723962
  0
LINE
  8
_0-1_計細線
  6
CONTINUOUS
 62
    3
 10
208.66328124999242
 20
690.49357311320921
 11
1250.6632812499936
 21
690.49357311320921
  0
LINE
  8
_0-1_計細線
  6
CONTINUOUS
 62
    3
 10
1250.6632812499936
 20
530.4935731132091
 11
208.66328124999242
 21
530.4935731132091
  0
ARC
  8
_0-0_計極細
  6
CONTINUOUS
 62
    2
 10
1259.1095024066792
 20
682.99357311320921
 40
11.295514677412786
 50
138.39585046827494
 51
221.60414953172469
  0
ARC
  8
_0-0_計極細
  6
CONTINUOUS
 62
    2
 10
1242.2170600933086
 20
667.99357311320773
 40
11.295514677412786
 50
318.39585046827455
 51
41.604149531724723
  0
ARC
  8
_0-0_計極細
  6
CONTINUOUS
 62
    2
 10
1259.1095024066792
 20
552.99357311320773
 40
11.295514677412786
 50
138.39585046827494
 51
221.60414953172469
  0
ARC
  8
_0-0_計極細
  6
CONTINUOUS
 62
    2
 10
1242.2170600933086
 20
537.99357311320637
 40
11.295514677412786
 50
318.39585046827455
 51
41.604149531724723
  0
LINE
  8
_0-1_計細線
  6
CONTINUOUS
 62
    3
 10
206.74906555161988
 20
687.4935731132091
 11
1248.7490655516212
 21
687.4935731132091
  0
LINE
  8
_0-1_計細線
  6
CONTINUOUS
 62
    3
 10
1252.5774969483682
 20
533.4935731132091
 11
210.57749694836821
 21
533.4935731132091
  0
LINE
  8
_0-5_寸法線
  6
CONTINUOUS
 62
    7
 10
198.663281249992
 20
690.49357311320921
 11
153.66328124999745
 21
690.49357311320921
  0
LINE
  8
_0-5_寸法線
  6
CONTINUOUS
 62
    7
 10
158.66328124999745
 20
690.49357311320921
 11
161.25147170102267
 21
680.83431485031838
  0
LINE
  8
_0-5_寸法線
  6
CONTINUOUS
 62
    7
 10
158.66328124999745
 20
690.49357311320921
 11
156.07509079897221
 21
680.83431485031838
  0
LINE
  8
_0-5_寸法線
  6
CONTINUOUS
 62
    7
 10
198.6632812499947
 20
660.49357311320921
 11
153.66328124999745
 21
660.49357311320921
  0
LINE
  8
_0-5_寸法線
  6
CONTINUOUS
 62
    7
 10
158.66328124999745
 20
660.49357311320921
 11
156.07509079897227
 21
670.15283137609981
  0
LINE
  8
_0-5_寸法線
  6
CONTINUOUS
 62
    7
 10
158.66328124999745
 20
660.49357311320921
 11
161.25147170102267
 21
670.15283137609981
  0
LINE
  8
_0-5_寸法線
  6
CONTINUOUS
 62
    7
 10
158.66328124999745
 20
690.49357311320921
 11
158.66328124999745
 21
660.49357311320921
  0
TEXT
  8
_0-5_寸法線
 62
    7
 10
158.66328124999745
 20
667.99357311320921
 40
15
 41
1
 50
90
  1
30
  0
LINE
  8
_0-5_寸法線
  6
CONTINUOUS
 62
    7
 10
158.66328124999745
 20
660.49357311320921
 11
161.25147170102267
 21
650.83431485031838
  0
LINE
  8
_0-5_寸法線
  6
CONTINUOUS
 62
    7
 10
158.66328124999745
 20
660.49357311320921
 11
156.07509079897227
 21
650.83431485031838
  0
LINE
  8
_0-5_寸法線
  6
CONTINUOUS
 62
    7
 10
198.66328124999242
 20
560.49357311320773
 11
153.66328124999745
 21
560.49357311320773
  0
LINE
  8
_0-5_寸法線
  6
CONTINUOUS
 62
    7
 10
158.66328124999745
 20
560.49357311320773
 11
156.07509079897227
 21
570.15283137609845
  0
LINE
  8
_0-5_寸法線
  6
CONTINUOUS
 62
    7
 10
158.66328124999745
 20
560.49357311320773
 11
161.25147170102267
 21
570.15283137609845
  0
LINE
  8
_0-5_寸法線
  6
CONTINUOUS
 62
    7
 10
158.66328124999745
 20
660.49357311320921
 11
158.66328124999745
 21
560.49357311320773
  0
TEXT
  8
_0-5_寸法線
 62
    7
 10
158.6632812499974
 20
599.24357311320864
 40
15
 41
1
 50
89.999999999999815
  1
100
  0
LINE
  8
_0-5_寸法線
  6
CONTINUOUS
 62
    7
 10
158.66328124999745
 20
560.49357311320773
 11
161.25147170102267
 21
550.83431485031701
  0
LINE
  8
_0-5_寸法線
  6
CONTINUOUS
 62
    7
 10
158.66328124999745
 20
560.49357311320773
 11
156.07509079897227
 21
550.83431485031701
  0
LINE
  8
_0-5_寸法線
  6
CONTINUOUS
 62
    7
 10
198.66328124999745
 20
530.49357311321091
 11
153.66328124999745
 21
530.49357311321091
  0
LINE
  8
_0-5_寸法線
  6
CONTINUOUS
 62
    7
 10
158.66328124999745
 20
530.49357311321091
 11
156.07509079897227
 21
540.15283137610163
  0
LINE
  8
_0-5_寸法線
  6
CONTINUOUS
 62
    7
 10
158.66328124999745
 20
530.49357311321091
 11
161.25147170102267
 21
540.15283137610163
  0
LINE
  8
_0-5_寸法線
  6
CONTINUOUS
 62
    7
 10
158.66328124999745
 20
560.49357311320773
 11
158.66328124999745
 21
530.49357311321091
  0
TEXT
  8
_0-5_寸法線
 62
    7
 10
158.66328124999745
 20
537.9935731132091
 40
15
 41
1
 50
90
  1
30
  0
LINE
  8
_0-1_計細線
  6
CONTINUOUS
 62
    3
 10
1229.1632812499938
 20
560.4935731132091
 11
1250.6632812499936
 21
560.4935731132091
  0
LINE
  8
_0-1_計細線
  6
CONTINUOUS
 62
    3
 10
1229.1632812499938
 20
660.49357311320921
 11
1250.6632812499936
 21
660.49357311320921
  0
LINE
  8
_0-1_計細線
  6
CONTINUOUS
 62
    3
 10
208.66328124999242
 20
660.49357311320921
 11
230.16328124999382
 21
660.49357311320921
  0
LINE
  8
_0-1_計細線
  6
CONTINUOUS
 62
    3
 10
208.66328124999242
 20
560.4935731132091
 11
230.16328124999382
 21
560.4935731132091
  0
LINE
  8
_0-1_計細線
  6
CONTINUOUS
 62
    3
 10
1229.1632812499943
 20
534.9935731132091
 11
1229.1632812499934
 21
685.9935731132091
  0
LINE
  8
_0-1_計細線
  6
CONTINUOUS
 62
    3
 10
1217.7632812499937
 20
534.9935731132091
 11
1217.7632812499928
 21
685.9935731132091
  0
LINE
  8
_0-1_計細線
  6
CONTINUOUS
 62
    3
 10
1229.1632812499943
 20
534.9935731132091
 11
1217.7632812499937
 21
534.9935731132091
  0
LINE
  8
_0-1_計細線
  6
CONTINUOUS
 62
    3
 10
1229.1632812499934
 20
685.9935731132091
 11
1217.7632812499928
 21
685.9935731132091
  0
LINE
  8
_0-0_計極細
  6
CONTINUOUS
 62
    2
 10
1220.963281249994
 20
534.9935731132091
 11
1220.9632812499931
 21
685.9935731132091
  0
LINE
  8
_0-0_計極細
  6
CONTINUOUS
 62
    2
 10
1225.963281249994
 20
534.9935731132091
 11
1225.9632812499931
 21
685.9935731132091
  0
LINE
  8
_0-0_計極細
  6
CONTINUOUS
 62
    2
 10
1200.7632812499942
 20
549.9935731132091
 11
1195.1632812499936
 21
549.9935731132091
  0
LINE
  8
_0-0_計極細
  6
CONTINUOUS
 62
    2
 10
1200.7632812499942
 20
562.9935731132091
 11
1195.1632812499936
 21
562.9935731132091
  0
LINE
  8
_0-0_計極細
  6
CONTINUOUS
 62
    2
 10
1200.7632812499942
 20
657.99357311320921
 11
1195.1632812499938
 21
657.99357311320921
  0
LINE
  8
_0-0_計極細
  6
CONTINUOUS
 62
    2
 10
1200.7632812499942
 20
670.9935731132091
 11
1195.1632812499938
 21
670.9935731132091
  0
LINE
  8
_0-1_計細線
  6
CONTINUOUS
 62
    3
 10
1195.1632812499934
 20
534.9935731132091
 11
1195.1632812499925
 21
685.9935731132091
  0
LINE
  8
_0-1_計細線
  6
CONTINUOUS
 62
    3
 10
1183.7632812499928
 20
534.99357311320932
 11
1183.7632812499919
 21
685.99357311320932
  0
LINE
  8
_0-1_計細線
  6
CONTINUOUS
 62
    3
 10
1195.1632812499934
 20
534.9935731132091
 11
1183.7632812499928
 21
534.99357311320932
  0
LINE
  8
_0-1_計細線
  6
CONTINUOUS
 62
    3
 10
1195.1632812499925
 20
685.9935731132091
 11
1183.7632812499919
 21
685.99357311320932
  0
LINE
  8
_0-0_計極細
  6
CONTINUOUS
 62
    2
 10
1186.9632812499935
 20
534.99357311320932
 11
1186.9632812499926
 21
685.99357311320932
  0
LINE
  8
_0-0_計極細
  6
CONTINUOUS
 62
    2
 10
1191.9632812499935
 20
534.9935731132091
 11
1191.9632812499926
 21
685.99357311320932
  0
LINE
  8
_0-0_計極細
  6
CONTINUOUS
 62
    2
 10
1183.763281249993
 20
549.99357311320932
 11
1178.1632812499929
 21
549.99357311320932
  0
LINE
  8
_0-0_計極細
  6
CONTINUOUS
 62
    2
 10
1183.763281249993
 20
562.99357311320932
 11
1178.1632812499929
 21
562.99357311320932
  0
LINE
  8
_0-0_計極細
  6
CONTINUOUS
 62
    2
 10
1183.7632812499933
 20
657.99357311320932
 11
1178.1632812499931
 21
657.99357311320932
  0
LINE
  8
_0-0_計極細
  6
CONTINUOUS
 62
    2
 10
1183.7632812499933
 20
670.99357311320932
 11
1178.1632812499931
 21
670.99357311320932
  0
LINE
  8
_0-1_計細線
  6
CONTINUOUS
 62
    3
 10
1178.1632812499929
 20
534.99357311320932
 11
1178.163281249992
 21
685.99357311320932
  0
LINE
  8
_0-1_計細線
  6
CONTINUOUS
 62
    3
 10
1166.7632812499924
 20
534.99357311320932
 11
1166.7632812499912
 21
685.99357311320932
  0
LINE
  8
_0-1_計細線
  6
CONTINUOUS
 62
    3
 10
1178.1632812499929
 20
534.99357311320932
 11
1166.7632812499924
 21
534.99357311320932
  0
LINE
  8
_0-1_計細線
  6
CONTINUOUS
 62
    3
 10
1178.163281249992
 20
685.99357311320932
 11
1166.7632812499912
 21
685.99357311320932
  0
LINE
  8
_0-0_計極細
  6
CONTINUOUS
 62
    2
 10
1169.9632812499926
 20
534.99357311320932
 11
1169.9632812499915
 21
685.99357311320932
  0
LINE
  8
_0-0_計極細
  6
CONTINUOUS
 62
    2
 10
1174.9632812499926
 20
534.99357311320932
 11
1174.9632812499915
 21
685.99357311320932
  0
LINE
  8
_0-0_計極細
  6
CONTINUOUS
 62
    2
 10
1161.163281249997
 20
549.99357311320932
 11
1166.7632812499969
 21
549.99357311320932
  0
LINE
  8
_0-0_計極細
  6
CONTINUOUS
 62
    2
 10
1161.163281249997
 20
562.99357311320932
 11
1166.7632812499969
 21
562.99357311320932
  0
LINE
  8
_0-0_計極細
  6
CONTINUOUS
 62
    2
 10
1161.163281249997
 20
657.99357311320932
 11
1166.7632812499971
 21
657.99357311320932
  0
LINE
  8
_0-0_計極細
  6
CONTINUOUS
 62
    2
 10
1161.163281249997
 20
670.99357311320932
 11
1166.7632812499971
 21
670.99357311320932
  0
LINE
  8
_0-0_計極細
  6
CONTINUOUS
 62
    2
 10
1144.1632812499963
 20
549.9935731132091
 11
1149.7632812499965
 21
549.9935731132091
  0
LINE
  8
_0-0_計極細
  6
CONTINUOUS
 62
    2
 10
1144.1632812499965
 20
562.9935731132091
 11
1149.7632812499965
 21
562.9935731132091
  0
LINE
  8
_0-0_計極細
  6
CONTINUOUS
 62
    2
 10
1127.1632812499959
 20
549.9935731132091
 11
1132.7632812499958
 21
549.9935731132091
  0
LINE
  8
_0-0_計極細
  6
CONTINUOUS
 62
    2
 10
1127.1632812499959
 20
562.9935731132091
 11
1132.763281249996
 21
562.9935731132091
  0
LINE
  8
_0-0_計極細
  6
CONTINUOUS
 62
    2
 10
1127.1632812499961
 20
657.99357311320921
 11
1132.763281249996
 21
657.99357311320921
  0
LINE
  8
_0-0_計極細
  6
CONTINUOUS
 62
    2
 10
1127.1632812499961
 20
670.9935731132091
 11
1132.763281249996
 21
670.9935731132091
  0
LINE
  8
_0-1_計細線
  6
CONTINUOUS
 62
    3
 10
1115.7632812499951
 20
534.99357311320932
 11
1115.7632812499942
 21
685.9935731132091
  0
LINE
  8
_0-1_計細線
  6
CONTINUOUS
 62
    3
 10
1127.1632812499956
 20
534.9935731132091
 11
1127.1632812499947
 21
685.99357311320932
  0
LINE
  8
_0-1_計細線
  6
CONTINUOUS
 62
    3
 10
1115.7632812499951
 20
534.99357311320932
 11
1127.1632812499956
 21
534.9935731132091
  0
LINE
  8
_0-1_計細線
  6
CONTINUOUS
 62
    3
 10
1115.7632812499942
 20
685.9935731132091
 11
1127.1632812499947
 21
685.99357311320932
  0
LINE
  8
_0-0_計極細
  6
CONTINUOUS
 62
    2
 10
1123.9632812499949
 20
534.9935731132091
 11
1123.963281249994
 21
685.9935731132091
  0
LINE
  8
_0-0_計極細
  6
CONTINUOUS
 62
    2
 10
1118.9632812499949
 20
534.99357311320932
 11
1118.963281249994
 21
685.9935731132091
  0
LINE
  8
_0-0_計極細
  6
CONTINUOUS
 62
    2
 10
1110.1632812499947
 20
549.99357311320932
 11
1115.7632812499953
 21
549.99357311320932
  0
LINE
  8
_0-0_計極細
  6
CONTINUOUS
 62
    2
 10
1110.1632812499947
 20
562.99357311320932
 11
1115.7632812499953
 21
562.99357311320932
  0
LINE
  8
_0-0_計極細
  6
CONTINUOUS
 62
    2
 10
1110.163281249995
 20
657.99357311320932
 11
1115.7632812499955
 21
657.99357311320932
  0
LINE
  8
_0-0_計極細
  6
CONTINUOUS
 62
    2
 10
1110.163281249995
 20
670.99357311320932
 11
1115.7632812499955
 21
670.99357311320932
  0
LINE
  8
_0-1_計細線
  6
CONTINUOUS
 62
    3
 10
1098.7632812499942
 20
534.99357311320932
 11
1098.763281249993
 21
685.9935731132091
  0
LINE
  8
_0-1_計細線
  6
CONTINUOUS
 62
    3
 10
1110.1632812499947
 20
534.99357311320932
 11
1110.1632812499936
 21
685.9935731132091
  0
LINE
  8
_0-1_計細線
  6
CONTINUOUS
 62
    3
 10
1098.7632812499942
 20
534.99357311320932
 11
1110.1632812499947
 21
534.99357311320932
  0
LINE
  8
_0-1_計細線
  6
CONTINUOUS
 62
    3
 10
1098.763281249993
 20
685.9935731132091
 11
1110.1632812499936
 21
685.9935731132091
  0
LINE
  8
_0-0_計極細
  6
CONTINUOUS
 62
    2
 10
1106.9632812499945
 20
534.99357311320932
 11
1106.9632812499933
 21
685.9935731132091
  0
LINE
  8
_0-0_計極細
  6
CONTINUOUS
 62
    2
 10
1101.9632812499945
 20
534.99357311320932
 11
1101.9632812499933
 21
685.9935731132091
  0
LINE
  8
_0-0_計極細
  6
CONTINUOUS
 62
    2
 10
1093.163281249995
 20
549.99357311320932
 11
1098.7632812499951
 21
549.99357311320932
  0
LINE
  8
_0-0_計極細
  6
CONTINUOUS
 62
    2
 10
1093.163281249995
 20
562.99357311320932
 11
1098.7632812499951
 21
562.99357311320932
  0
LINE
  8
_0-1_計細線
  6
CONTINUOUS
 62
    3
 10
1081.7632812499942
 20
534.99357311320932
 11
1081.7632812499933
 21
685.9935731132091
  0
LINE
  8
_0-1_計細線
  6
CONTINUOUS
 62
    3
 10
1093.1632812499947
 20
534.99357311320932
 11
1093.1632812499938
 21
685.9935731132091
  0
LINE
  8
_0-1_計細線
  6
CONTINUOUS
 62
    3
 10
1081.7632812499942
 20
534.99357311320932
 11
1093.1632812499947
 21
534.99357311320932
  0
LINE
  8
_0-1_計細線
  6
CONTINUOUS
 62
    3
 10
1081.7632812499933
 20
685.9935731132091
 11
1093.1632812499938
 21
685.9935731132091
  0
LINE
  8
_0-0_計極細
  6
CONTINUOUS
 62
    2
 10
1089.9632812499945
 20
534.99357311320932
 11
1089.9632812499935
 21
685.9935731132091
  0
LINE
  8
_0-0_計極細
  6
CONTINUOUS
 62
    2
 10
1084.9632812499945
 20
534.99357311320932
 11
1084.9632812499935
 21
685.9935731132091
  0
LINE
  8
_0-0_計極細
  6
CONTINUOUS
 62
    2
 10
1144.1632812499975
 20
657.99357311320921
 11
1149.7632812499974
 21
657.99357311320921
  0
LINE
  8
_0-0_計極細
  6
CONTINUOUS
 62
    2
 10
1144.1632812499975
 20
670.9935731132091
 11
1149.7632812499974
 21
670.9935731132091
  0
LINE
  8
_0-0_計極細
  6
CONTINUOUS
 62
    2
 10
1081.7632812499944
 20
549.9935731132091
 11
1076.1632812499943
 21
549.9935731132091
  0
LINE
  8
_0-0_計極細
  6
CONTINUOUS
 62
    2
 10
1081.7632812499944
 20
562.9935731132091
 11
1076.1632812499943
 21
562.9935731132091
  0
LINE
  8
_0-0_計極細
  6
CONTINUOUS
 62
    2
 10
1081.7632812499946
 20
657.99357311320921
 11
1076.1632812499943
 21
657.99357311320921
  0
LINE
  8
_0-0_計極細
  6
CONTINUOUS
 62
    2
 10
1081.7632812499946
 20
670.9935731132091
 11
1076.1632812499943
 21
670.9935731132091
  0
LINE
  8
_0-1_計細線
  6
CONTINUOUS
 62
    3
 10
1076.1632812499952
 20
534.9935731132091
 11
1076.163281249994
 21
685.9935731132091
  0
LINE
  8
_0-1_計細線
  6
CONTINUOUS
 62
    3
 10
1064.7632812499946
 20
534.9935731132091
 11
1064.7632812499935
 21
685.9935731132091
  0
LINE
  8
_0-1_計細線
  6
CONTINUOUS
 62
    3
 10
1076.1632812499952
 20
534.9935731132091
 11
1064.7632812499946
 21
534.9935731132091
  0
LINE
  8
_0-1_計細線
  6
CONTINUOUS
 62
    3
 10
1076.163281249994
 20
685.9935731132091
 11
1064.7632812499935
 21
685.9935731132091
  0
LINE
  8
_0-0_計極細
  6
CONTINUOUS
 62
    2
 10
1067.9632812499949
 20
534.9935731132091
 11
1067.9632812499938
 21
685.9935731132091
  0
LINE
  8
_0-0_計極細
  6
CONTINUOUS
 62
    2
 10
1072.9632812499949
 20
534.9935731132091
 11
1072.9632812499938
 21
685.9935731132091
  0
LINE
  8
_0-0_計極細
  6
CONTINUOUS
 62
    2
 10
1217.763281249996
 20
549.9935731132091
 11
1212.1632812499956
 21
549.9935731132091
  0
LINE
  8
_0-0_計極細
  6
CONTINUOUS
 62
    2
 10
1217.763281249996
 20
562.9935731132091
 11
1212.1632812499956
 21
562.9935731132091
  0
LINE
  8
_0-0_計極細
  6
CONTINUOUS
 62
    2
 10
1217.7632812499962
 20
657.99357311320921
 11
1212.1632812499959
 21
657.99357311320921
  0
LINE
  8
_0-0_計極細
  6
CONTINUOUS
 62
    2
 10
1217.7632812499962
 20
670.9935731132091
 11
1212.1632812499959
 21
670.9935731132091
  0
LINE
  8
_0-1_計細線
  6
CONTINUOUS
 62
    3
 10
1212.1632812499956
 20
534.9935731132091
 11
1212.1632812499945
 21
685.9935731132091
  0
LINE
  8
_0-1_計細線
  6
CONTINUOUS
 62
    3
 10
1200.7632812499951
 20
534.99357311320932
 11
1200.7632812499942
 21
685.99357311320932
  0
LINE
  8
_0-1_計細線
  6
CONTINUOUS
 62
    3
 10
1212.1632812499956
 20
534.9935731132091
 11
1200.7632812499951
 21
534.99357311320932
  0
LINE
  8
_0-1_計細線
  6
CONTINUOUS
 62
    3
 10
1212.1632812499945
 20
685.9935731132091
 11
1200.7632812499942
 21
685.99357311320932
  0
LINE
  8
_0-0_計極細
  6
CONTINUOUS
 62
    2
 10
1203.9632812499958
 20
534.99357311320932
 11
1203.9632812499947
 21
685.99357311320932
  0
LINE
  8
_0-0_計極細
  6
CONTINUOUS
 62
    2
 10
1208.9632812499958
 20
534.9935731132091
 11
1208.9632812499947
 21
685.99357311320932
  0
LINE
  8
_0-0_計極細
  6
CONTINUOUS
 62
    2
 10
1064.7632812499946
 20
549.9935731132091
 11
1059.1632812499945
 21
549.9935731132091
  0
LINE
  8
_0-0_計極細
  6
CONTINUOUS
 62
    2
 10
1064.7632812499946
 20
562.9935731132091
 11
1059.1632812499945
 21
562.9935731132091
  0
LINE
  8
_0-0_計極細
  6
CONTINUOUS
 62
    2
 10
1064.7632812499951
 20
657.99357311320921
 11
1059.1632812499947
 21
657.99357311320921
  0
LINE
  8
_0-0_計極細
  6
CONTINUOUS
 62
    2
 10
1064.7632812499951
 20
670.9935731132091
 11
1059.1632812499947
 21
670.9935731132091
  0
LINE
  8
_0-1_計細線
  6
CONTINUOUS
 62
    3
 10
1059.1632812499952
 20
534.9935731132091
 11
1059.1632812499943
 21
685.9935731132091
  0
LINE
  8
_0-1_計細線
  6
CONTINUOUS
 62
    3
 10
1047.7632812499946
 20
534.9935731132091
 11
1047.7632812499937
 21
685.9935731132091
  0
LINE
  8
_0-1_計細線
  6
CONTINUOUS
 62
    3
 10
1059.1632812499952
 20
534.9935731132091
 11
1047.7632812499946
 21
534.9935731132091
  0
LINE
  8
_0-1_計細線
  6
CONTINUOUS
 62
    3
 10
1059.1632812499943
 20
685.9935731132091
 11
1047.7632812499937
 21
685.9935731132091
  0
LINE
  8
_0-0_計極細
  6
CONTINUOUS
 62
    2
 10
1050.9632812499949
 20
534.9935731132091
 11
1050.963281249994
 21
685.9935731132091
  0
LINE
  8
_0-0_計極細
  6
CONTINUOUS
 62
    2
 10
1055.9632812499949
 20
534.9935731132091
 11
1055.963281249994
 21
685.9935731132091
  0
LINE
  8
_0-0_計極細
  6
CONTINUOUS
 62
    2
 10
1047.7632812499946
 20
549.9935731132091
 11
1042.1632812499945
 21
549.9935731132091
  0
LINE
  8
_0-0_計極細
  6
CONTINUOUS
 62
    2
 10
1047.7632812499946
 20
562.9935731132091
 11
1042.1632812499945
 21
562.9935731132091
  0
LINE
  8
_0-0_計極細
  6
CONTINUOUS
 62
    2
 10
1047.7632812499949
 20
657.99357311320921
 11
1042.1632812499947
 21
657.99357311320921
  0
LINE
  8
_0-0_計極細
  6
CONTINUOUS
 62
    2
 10
1047.7632812499949
 20
670.9935731132091
 11
1042.1632812499947
 21
670.9935731132091
  0
LINE
  8
_0-1_計細線
  6
CONTINUOUS
 62
    3
 10
1042.1632812499952
 20
534.9935731132091
 11
1042.1632812499943
 21
685.9935731132091
  0
LINE
  8
_0-1_計細線
  6
CONTINUOUS
 62
    3
 10
1030.7632812499946
 20
534.9935731132091
 11
1030.7632812499937
 21
685.9935731132091
  0
LINE
  8
_0-1_計細線
  6
CONTINUOUS
 62
    3
 10
1042.1632812499952
 20
534.9935731132091
 11
1030.7632812499946
 21
534.9935731132091
  0
LINE
  8
_0-1_計細線
  6
CONTINUOUS
 62
    3
 10
1042.1632812499943
 20
685.9935731132091
 11
1030.7632812499937
 21
685.9935731132091
  0
LINE
  8
_0-0_計極細
  6
CONTINUOUS
 62
    2
 10
1033.9632812499949
 20
534.9935731132091
 11
1033.963281249994
 21
685.9935731132091
  0
LINE
  8
_0-0_計極細
  6
CONTINUOUS
 62
    2
 10
1038.9632812499949
 20
534.9935731132091
 11
1038.963281249994
 21
685.9935731132091
  0
LINE
  8
_0-0_計極細
  6
CONTINUOUS
 62
    2
 10
1030.7632812499946
 20
549.9935731132091
 11
1025.1632812499947
 21
549.9935731132091
  0
LINE
  8
_0-0_計極細
  6
CONTINUOUS
 62
    2
 10
1030.7632812499946
 20
562.9935731132091
 11
1025.1632812499947
 21
562.9935731132091
  0
LINE
  8
_0-0_計極細
  6
CONTINUOUS
 62
    2
 10
1030.7632812499949
 20
657.99357311320921
 11
1025.1632812499947
 21
657.99357311320921
  0
LINE
  8
_0-0_計極細
  6
CONTINUOUS
 62
    2
 10
1030.7632812499949
 20
670.9935731132091
 11
1025.1632812499947
 21
670.9935731132091
  0
LINE
  8
_0-1_計細線
  6
CONTINUOUS
 62
    3
 10
1025.1632812499952
 20
534.9935731132091
 11
1025.1632812499943
 21
685.9935731132091
  0
LINE
  8
_0-1_計細線
  6
CONTINUOUS
 62
    3
 10
1013.7632812499947
 20
534.9935731132091
 11
1013.7632812499937
 21
685.9935731132091
  0
LINE
  8
_0-1_計細線
  6
CONTINUOUS
 62
    3
 10
1025.1632812499952
 20
534.9935731132091
 11
1013.7632812499947
 21
534.9935731132091
  0
LINE
  8
_0-1_計細線
  6
CONTINUOUS
 62
    3
 10
1025.1632812499943
 20
685.9935731132091
 11
1013.7632812499937
 21
685.9935731132091
  0
LINE
  8
_0-0_計極細
  6
CONTINUOUS
 62
    2
 10
1016.9632812499951
 20
534.9935731132091
 11
1016.9632812499941
 21
685.9935731132091
  0
LINE
  8
_0-0_計極細
  6
CONTINUOUS
 62
    2
 10
1021.9632812499951
 20
534.9935731132091
 11
1021.9632812499941
 21
685.9935731132091
  0
LINE
  8
_0-0_計極細
  6
CONTINUOUS
 62
    2
 10
1013.7632812499947
 20
549.9935731132091
 11
1008.1632812499946
 21
549.9935731132091
  0
LINE
  8
_0-0_計極細
  6
CONTINUOUS
 62
    2
 10
1013.7632812499947
 20
562.9935731132091
 11
1008.1632812499946
 21
562.9935731132091
  0
LINE
  8
_0-0_計極細
  6
CONTINUOUS
 62
    2
 10
1013.7632812499949
 20
657.99357311320921
 11
1008.1632812499947
 21
657.99357311320921
  0
LINE
  8
_0-0_計極細
  6
CONTINUOUS
 62
    2
 10
1013.7632812499949
 20
670.9935731132091
 11
1008.1632812499947
 21
670.9935731132091
  0
LINE
  8
_0-1_計細線
  6
CONTINUOUS
 62
    3
 10
1008.1632812499953
 20
534.9935731132091
 11
1008.1632812499943
 21
685.9935731132091
  0
LINE
  8
_0-1_計細線
  6
CONTINUOUS
 62
    3
 10
996.76328124999486
 20
534.9935731132091
 11
996.76328124999372
 21
685.9935731132091
  0
LINE
  8
_0-1_計細線
  6
CONTINUOUS
 62
    3
 10
1008.1632812499953
 20
534.9935731132091
 11
996.76328124999486
 21
534.9935731132091
  0
LINE
  8
_0-1_計細線
  6
CONTINUOUS
 62
    3
 10
1008.1632812499943
 20
685.9935731132091
 11
996.76328124999372
 21
685.9935731132091
  0
LINE
  8
_0-0_計極細
  6
CONTINUOUS
 62
    2
 10
999.96328124999513
 20
534.9935731132091
 11
999.96328124999411
 21
685.9935731132091
  0
LINE
  8
_0-0_計極細
  6
CONTINUOUS
 62
    2
 10
1004.9632812499951
 20
534.9935731132091
 11
1004.9632812499941
 21
685.9935731132091
  0
LINE
  8
_0-0_計極細
  6
CONTINUOUS
 62
    2
 10
996.76328124999475
 20
549.9935731132091
 11
991.1632812499945
 21
549.9935731132091
  0
LINE
  8
_0-0_計極細
  6
CONTINUOUS
 62
    2
 10
996.76328124999475
 20
562.9935731132091
 11
991.1632812499945
 21
562.9935731132091
  0
LINE
  8
_0-0_計極細
  6
CONTINUOUS
 62
    2
 10
996.76328124999486
 20
657.99357311320921
 11
991.16328124999472
 21
657.99357311320921
  0
LINE
  8
_0-0_計極細
  6
CONTINUOUS
 62
    2
 10
996.76328124999486
 20
670.9935731132091
 11
991.16328124999472
 21
670.9935731132091
  0
LINE
  8
_0-1_計細線
  6
CONTINUOUS
 62
    3
 10
991.16328124999541
 20
534.9935731132091
 11
991.16328124999427
 21
685.9935731132091
  0
LINE
  8
_0-1_計細線
  6
CONTINUOUS
 62
    3
 10
979.76328124999486
 20
534.9935731132091
 11
979.76328124999384
 21
685.9935731132091
  0
LINE
  8
_0-1_計細線
  6
CONTINUOUS
 62
    3
 10
991.16328124999541
 20
534.9935731132091
 11
979.76328124999486
 21
534.9935731132091
  0
LINE
  8
_0-1_計細線
  6
CONTINUOUS
 62
    3
 10
991.16328124999427
 20
685.9935731132091
 11
979.76328124999384
 21
685.9935731132091
  0
LINE
  8
_0-0_計極細
  6
CONTINUOUS
 62
    2
 10
982.96328124999502
 20
534.9935731132091
 11
982.963281249994
 21
685.9935731132091
  0
LINE
  8
_0-0_計極細
  6
CONTINUOUS
 62
    2
 10
987.96328124999502
 20
534.9935731132091
 11
987.963281249994
 21
685.9935731132091
  0
LINE
  8
_0-0_計極細
  6
CONTINUOUS
 62
    2
 10
979.76328124999463
 20
549.9935731132091
 11
974.1632812499945
 21
549.9935731132091
  0
LINE
  8
_0-0_計極細
  6
CONTINUOUS
 62
    2
 10
979.76328124999463
 20
562.9935731132091
 11
974.1632812499945
 21
562.9935731132091
  0
LINE
  8
_0-0_計極細
  6
CONTINUOUS
 62
    2
 10
979.76328124999498
 20
657.99357311320921
 11
974.16328124999472
 21
657.99357311320921
  0
LINE
  8
_0-0_計極細
  6
CONTINUOUS
 62
    2
 10
979.76328124999498
 20
670.9935731132091
 11
974.16328124999472
 21
670.9935731132091
  0
LINE
  8
_0-1_計細線
  6
CONTINUOUS
 62
    3
 10
974.16328124999541
 20
534.9935731132091
 11
974.16328124999438
 21
685.9935731132091
  0
LINE
  8
_0-1_計細線
  6
CONTINUOUS
 62
    3
 10
962.76328124999486
 20
534.9935731132091
 11
962.76328124999384
 21
685.9935731132091
  0
LINE
  8
_0-1_計細線
  6
CONTINUOUS
 62
    3
 10
974.16328124999541
 20
534.9935731132091
 11
962.76328124999486
 21
534.9935731132091
  0
LINE
  8
_0-1_計細線
  6
CONTINUOUS
 62
    3
 10
974.16328124999438
 20
685.9935731132091
 11
962.76328124999384
 21
685.9935731132091
  0
LINE
  8
_0-0_計極細
  6
CONTINUOUS
 62
    2
 10
965.96328124999502
 20
534.9935731132091
 11
965.963281249994
 21
685.9935731132091
  0
LINE
  8
_0-0_計極細
  6
CONTINUOUS
 62
    2
 10
970.96328124999502
 20
534.9935731132091
 11
970.963281249994
 21
685.9935731132091
  0
LINE
  8
_0-0_計極細
  6
CONTINUOUS
 62
    2
 10
962.76328124999463
 20
549.9935731132091
 11
957.1632812499945
 21
549.9935731132091
  0
LINE
  8
_0-0_計極細
  6
CONTINUOUS
 62
    2
 10
962.76328124999463
 20
562.9935731132091
 11
957.1632812499945
 21
562.9935731132091
  0
LINE
  8
_0-0_計極細
  6
CONTINUOUS
 62
    2
 10
962.76328124999498
 20
657.99357311320921
 11
957.16328124999461
 21
657.99357311320921
  0
LINE
  8
_0-0_計極細
  6
CONTINUOUS
 62
    2
 10
962.76328124999498
 20
670.9935731132091
 11
957.16328124999461
 21
670.9935731132091
  0
LINE
  8
_0-1_計細線
  6
CONTINUOUS
 62
    3
 10
957.16328124999541
 20
534.9935731132091
 11
957.16328124999438
 21
685.9935731132091
  0
LINE
  8
_0-1_計細線
  6
CONTINUOUS
 62
    3
 10
945.76328124999475
 20
534.9935731132091
 11
945.76328124999372
 21
685.9935731132091
  0
LINE
  8
_0-1_計細線
  6
CONTINUOUS
 62
    3
 10
957.16328124999541
 20
534.9935731132091
 11
945.76328124999475
 21
534.9935731132091
  0
LINE
  8
_0-1_計細線
  6
CONTINUOUS
 62
    3
 10
957.16328124999438
 20
685.9935731132091
 11
945.76328124999372
 21
685.9935731132091
  0
LINE
  8
_0-0_計極細
  6
CONTINUOUS
 62
    2
 10
948.96328124999513
 20
534.9935731132091
 11
948.963281249994
 21
685.9935731132091
  0
LINE
  8
_0-0_計極細
  6
CONTINUOUS
 62
    2
 10
953.96328124999513
 20
534.9935731132091
 11
953.963281249994
 21
685.9935731132091
  0
LINE
  8
_0-0_計極細
  6
CONTINUOUS
 62
    2
 10
945.76328124999463
 20
549.9935731132091
 11
940.16328124999461
 21
549.9935731132091
  0
LINE
  8
_0-0_計極細
  6
CONTINUOUS
 62
    2
 10
945.76328124999463
 20
562.9935731132091
 11
940.16328124999461
 21
562.9935731132091
  0
LINE
  8
_0-0_計極細
  6
CONTINUOUS
 62
    2
 10
945.76328124999486
 20
657.99357311320921
 11
940.16328124999461
 21
657.99357311320921
  0
LINE
  8
_0-0_計極細
  6
CONTINUOUS
 62
    2
 10
945.76328124999486
 20
670.9935731132091
 11
940.16328124999461
 21
670.9935731132091
  0
LINE
  8
_0-1_計細線
  6
CONTINUOUS
 62
    3
 10
940.16328124999529
 20
534.9935731132091
 11
940.16328124999427
 21
685.9935731132091
  0
LINE
  8
_0-1_計細線
  6
CONTINUOUS
 62
    3
 10
928.76328124999475
 20
534.9935731132091
 11
928.76328124999372
 21
685.9935731132091
  0
LINE
  8
_0-1_計細線
  6
CONTINUOUS
 62
    3
 10
940.16328124999529
 20
534.9935731132091
 11
928.76328124999475
 21
534.9935731132091
  0
LINE
  8
_0-1_計細線
  6
CONTINUOUS
 62
    3
 10
940.16328124999427
 20
685.9935731132091
 11
928.76328124999372
 21
685.9935731132091
  0
LINE
  8
_0-0_計極細
  6
CONTINUOUS
 62
    2
 10
931.96328124999513
 20
534.9935731132091
 11
931.96328124999411
 21
685.9935731132091
  0
LINE
  8
_0-0_計極細
  6
CONTINUOUS
 62
    2
 10
936.96328124999513
 20
534.9935731132091
 11
936.96328124999411
 21
685.9935731132091
  0
LINE
  8
_0-0_計極細
  6
CONTINUOUS
 62
    2
 10
928.76328124999475
 20
549.9935731132091
 11
923.16328124999461
 21
549.9935731132091
  0
LINE
  8
_0-0_計極細
  6
CONTINUOUS
 62
    2
 10
928.76328124999475
 20
562.9935731132091
 11
923.16328124999461
 21
562.9935731132091
  0
LINE
  8
_0-0_計極細
  6
CONTINUOUS
 62
    2
 10
928.76328124999486
 20
657.99357311320921
 11
923.16328124999472
 21
657.99357311320921
  0
LINE
  8
_0-0_計極細
  6
CONTINUOUS
 62
    2
 10
928.76328124999486
 20
670.9935731132091
 11
923.16328124999472
 21
670.9935731132091
  0
LINE
  8
_0-1_計細線
  6
CONTINUOUS
 62
    3
 10
923.16328124999529
 20
534.9935731132091
 11
923.16328124999427
 21
685.9935731132091
  0
LINE
  8
_0-1_計細線
  6
CONTINUOUS
 62
    3
 10
911.76328124999486
 20
534.9935731132091
 11
911.76328124999372
 21
685.9935731132091
  0
LINE
  8
_0-1_計細線
  6
CONTINUOUS
 62
    3
 10
923.16328124999529
 20
534.9935731132091
 11
911.76328124999486
 21
534.9935731132091
  0
LINE
  8
_0-1_計細線
  6
CONTINUOUS
 62
    3
 10
923.16328124999427
 20
685.9935731132091
 11
911.76328124999372
 21
685.9935731132091
  0
LINE
  8
_0-0_計極細
  6
CONTINUOUS
 62
    2
 10
914.96328124999513
 20
534.9935731132091
 11
914.96328124999411
 21
685.9935731132091
  0
LINE
  8
_0-0_計極細
  6
CONTINUOUS
 62
    2
 10
919.96328124999513
 20
534.9935731132091
 11
919.96328124999411
 21
685.9935731132091
  0
LINE
  8
_0-0_計極細
  6
CONTINUOUS
 62
    2
 10
911.76328124999475
 20
549.9935731132091
 11
906.1632812499945
 21
549.9935731132091
  0
LINE
  8
_0-0_計極細
  6
CONTINUOUS
 62
    2
 10
911.76328124999475
 20
562.9935731132091
 11
906.1632812499945
 21
562.9935731132091
  0
LINE
  8
_0-0_計極細
  6
CONTINUOUS
 62
    2
 10
911.76328124999486
 20
657.99357311320921
 11
906.16328124999472
 21
657.99357311320921
  0
LINE
  8
_0-0_計極細
  6
CONTINUOUS
 62
    2
 10
911.76328124999486
 20
670.9935731132091
 11
906.16328124999472
 21
670.9935731132091
  0
LINE
  8
_0-1_計細線
  6
CONTINUOUS
 62
    3
 10
906.16328124999541
 20
534.9935731132091
 11
906.16328124999427
 21
685.9935731132091
  0
LINE
  8
_0-1_計細線
  6
CONTINUOUS
 62
    3
 10
894.76328124999486
 20
534.9935731132091
 11
894.76328124999384
 21
685.9935731132091
  0
LINE
  8
_0-1_計細線
  6
CONTINUOUS
 62
    3
 10
906.16328124999541
 20
534.9935731132091
 11
894.76328124999486
 21
534.9935731132091
  0
LINE
  8
_0-1_計細線
  6
CONTINUOUS
 62
    3
 10
906.16328124999427
 20
685.9935731132091
 11
894.76328124999384
 21
685.9935731132091
  0
LINE
  8
_0-0_計極細
  6
CONTINUOUS
 62
    2
 10
897.96328124999502
 20
534.9935731132091
 11
897.963281249994
 21
685.9935731132091
  0
LINE
  8
_0-0_計極細
  6
CONTINUOUS
 62
    2
 10
902.96328124999502
 20
534.9935731132091
 11
902.963281249994
 21
685.9935731132091
  0
LINE
  8
_0-0_計極細
  6
CONTINUOUS
 62
    2
 10
894.76328124999463
 20
549.9935731132091
 11
889.1632812499945
 21
549.9935731132091
  0
LINE
  8
_0-0_計極細
  6
CONTINUOUS
 62
    2
 10
894.76328124999463
 20
562.9935731132091
 11
889.1632812499945
 21
562.9935731132091
  0
LINE
  8
_0-0_計極細
  6
CONTINUOUS
 62
    2
 10
894.76328124999498
 20
657.99357311320921
 11
889.16328124999472
 21
657.99357311320921
  0
LINE
  8
_0-0_計極細
  6
CONTINUOUS
 62
    2
 10
894.76328124999498
 20
670.9935731132091
 11
889.16328124999472
 21
670.9935731132091
  0
LINE
  8
_0-1_計細線
  6
CONTINUOUS
 62
    3
 10
889.16328124999541
 20
534.9935731132091
 11
889.16328124999438
 21
685.9935731132091
  0
LINE
  8
_0-1_計細線
  6
CONTINUOUS
 62
    3
 10
877.76328124999486
 20
534.9935731132091
 11
877.76328124999384
 21
685.9935731132091
  0
LINE
  8
_0-1_計細線
  6
CONTINUOUS
 62
    3
 10
889.16328124999541
 20
534.9935731132091
 11
877.76328124999486
 21
534.9935731132091
  0
LINE
  8
_0-1_計細線
  6
CONTINUOUS
 62
    3
 10
889.16328124999438
 20
685.9935731132091
 11
877.76328124999384
 21
685.9935731132091
  0
LINE
  8
_0-0_計極細
  6
CONTINUOUS
 62
    2
 10
880.96328124999502
 20
534.9935731132091
 11
880.963281249994
 21
685.9935731132091
  0
LINE
  8
_0-0_計極細
  6
CONTINUOUS
 62
    2
 10
885.96328124999502
 20
534.9935731132091
 11
885.963281249994
 21
685.9935731132091
  0
LINE
  8
_0-0_計極細
  6
CONTINUOUS
 62
    2
 10
877.76328124999463
 20
549.9935731132091
 11
872.1632812499945
 21
549.9935731132091
  0
LINE
  8
_0-0_計極細
  6
CONTINUOUS
 62
    2
 10
877.76328124999463
 20
562.9935731132091
 11
872.1632812499945
 21
562.9935731132091
  0
LINE
  8
_0-0_計極細
  6
CONTINUOUS
 62
    2
 10
877.76328124999498
 20
657.99357311320921
 11
872.16328124999461
 21
657.99357311320921
  0
LINE
  8
_0-0_計極細
  6
CONTINUOUS
 62
    2
 10
877.76328124999498
 20
670.9935731132091
 11
872.16328124999461
 21
670.9935731132091
  0
LINE
  8
_0-1_計細線
  6
CONTINUOUS
 62
    3
 10
872.16328124999541
 20
534.9935731132091
 11
872.16328124999438
 21
685.9935731132091
  0
LINE
  8
_0-1_計細線
  6
CONTINUOUS
 62
    3
 10
860.76328124999475
 20
534.9935731132091
 11
860.76328124999372
 21
685.9935731132091
  0
LINE
  8
_0-1_計細線
  6
CONTINUOUS
 62
    3
 10
872.16328124999541
 20
534.9935731132091
 11
860.76328124999475
 21
534.9935731132091
  0
LINE
  8
_0-1_計細線
  6
CONTINUOUS
 62
    3
 10
872.16328124999438
 20
685.9935731132091
 11
860.76328124999372
 21
685.9935731132091
  0
LINE
  8
_0-0_計極細
  6
CONTINUOUS
 62
    2
 10
863.96328124999513
 20
534.9935731132091
 11
863.963281249994
 21
685.9935731132091
  0
LINE
  8
_0-0_計極細
  6
CONTINUOUS
 62
    2
 10
868.96328124999513
 20
534.9935731132091
 11
868.963281249994
 21
685.9935731132091
  0
LINE
  8
_0-0_計極細
  6
CONTINUOUS
 62
    2
 10
860.76328124999463
 20
549.9935731132091
 11
855.16328124999461
 21
549.9935731132091
  0
LINE
  8
_0-0_計極細
  6
CONTINUOUS
 62
    2
 10
860.76328124999463
 20
562.9935731132091
 11
855.16328124999461
 21
562.9935731132091
  0
LINE
  8
_0-0_計極細
  6
CONTINUOUS
 62
    2
 10
860.76328124999486
 20
657.99357311320921
 11
855.16328124999461
 21
657.99357311320921
  0
LINE
  8
_0-0_計極細
  6
CONTINUOUS
 62
    2
 10
860.76328124999486
 20
670.9935731132091
 11
855.16328124999461
 21
670.9935731132091
  0
LINE
  8
_0-1_計細線
  6
CONTINUOUS
 62
    3
 10
855.16328124999529
 20
534.9935731132091
 11
855.16328124999427
 21
685.9935731132091
  0
LINE
  8
_0-1_計細線
  6
CONTINUOUS
 62
    3
 10
843.76328124999475
 20
534.9935731132091
 11
843.76328124999372
 21
685.9935731132091
  0
LINE
  8
_0-1_計細線
  6
CONTINUOUS
 62
    3
 10
855.16328124999529
 20
534.9935731132091
 11
843.76328124999475
 21
534.9935731132091
  0
LINE
  8
_0-1_計細線
  6
CONTINUOUS
 62
    3
 10
855.16328124999427
 20
685.9935731132091
 11
843.76328124999372
 21
685.9935731132091
  0
LINE
  8
_0-0_計極細
  6
CONTINUOUS
 62
    2
 10
846.96328124999513
 20
534.9935731132091
 11
846.96328124999411
 21
685.9935731132091
  0
LINE
  8
_0-0_計極細
  6
CONTINUOUS
 62
    2
 10
851.96328124999513
 20
534.9935731132091
 11
851.96328124999411
 21
685.9935731132091
  0
LINE
  8
_0-0_計極細
  6
CONTINUOUS
 62
    2
 10
843.76328124999475
 20
549.9935731132091
 11
838.16328124999461
 21
549.9935731132091
  0
LINE
  8
_0-0_計極細
  6
CONTINUOUS
 62
    2
 10
843.76328124999475
 20
562.9935731132091
 11
838.16328124999461
 21
562.9935731132091
  0
LINE
  8
_0-0_計極細
  6
CONTINUOUS
 62
    2
 10
843.76328124999486
 20
657.99357311320921
 11
838.16328124999472
 21
657.99357311320921
  0
LINE
  8
_0-0_計極細
  6
CONTINUOUS
 62
    2
 10
843.76328124999486
 20
670.9935731132091
 11
838.16328124999472
 21
670.9935731132091
  0
LINE
  8
_0-1_計細線
  6
CONTINUOUS
 62
    3
 10
838.16328124999529
 20
534.9935731132091
 11
838.16328124999427
 21
685.9935731132091
  0
LINE
  8
_0-1_計細線
  6
CONTINUOUS
 62
    3
 10
826.76328124999486
 20
534.9935731132091
 11
826.76328124999372
 21
685.9935731132091
  0
LINE
  8
_0-1_計細線
  6
CONTINUOUS
 62
    3
 10
838.16328124999529
 20
534.9935731132091
 11
826.76328124999486
 21
534.9935731132091
  0
LINE
  8
_0-1_計細線
  6
CONTINUOUS
 62
    3
 10
838.16328124999427
 20
685.9935731132091
 11
826.76328124999372
 21
685.9935731132091
  0
LINE
  8
_0-0_計極細
  6
CONTINUOUS
 62
    2
 10
829.96328124999513
 20
534.9935731132091
 11
829.96328124999411
 21
685.9935731132091
  0
LINE
  8
_0-0_計極細
  6
CONTINUOUS
 62
    2
 10
834.96328124999513
 20
534.9935731132091
 11
834.96328124999411
 21
685.9935731132091
  0
LINE
  8
_0-0_計極細
  6
CONTINUOUS
 62
    2
 10
826.76328124999475
 20
549.9935731132091
 11
821.1632812499945
 21
549.9935731132091
  0
LINE
  8
_0-0_計極細
  6
CONTINUOUS
 62
    2
 10
826.76328124999475
 20
562.9935731132091
 11
821.1632812499945
 21
562.9935731132091
  0
LINE
  8
_0-0_計極細
  6
CONTINUOUS
 62
    2
 10
826.76328124999486
 20
657.99357311320921
 11
821.16328124999472
 21
657.99357311320921
  0
LINE
  8
_0-0_計極細
  6
CONTINUOUS
 62
    2
 10
826.76328124999486
 20
670.9935731132091
 11
821.16328124999472
 21
670.9935731132091
  0
LINE
  8
_0-1_計細線
  6
CONTINUOUS
 62
    3
 10
821.16328124999541
 20
534.9935731132091
 11
821.16328124999427
 21
685.9935731132091
  0
LINE
  8
_0-1_計細線
  6
CONTINUOUS
 62
    3
 10
809.76328124999486
 20
534.9935731132091
 11
809.76328124999384
 21
685.9935731132091
  0
LINE
  8
_0-1_計細線
  6
CONTINUOUS
 62
    3
 10
821.16328124999541
 20
534.9935731132091
 11
809.76328124999486
 21
534.9935731132091
  0
LINE
  8
_0-1_計細線
  6
CONTINUOUS
 62
    3
 10
821.16328124999427
 20
685.9935731132091
 11
809.76328124999384
 21
685.9935731132091
  0
LINE
  8
_0-0_計極細
  6
CONTINUOUS
 62
    2
 10
812.96328124999502
 20
534.9935731132091
 11
812.963281249994
 21
685.9935731132091
  0
LINE
  8
_0-0_計極細
  6
CONTINUOUS
 62
    2
 10
817.96328124999502
 20
534.9935731132091
 11
817.963281249994
 21
685.9935731132091
  0
LINE
  8
_0-0_計極細
  6
CONTINUOUS
 62
    2
 10
809.76328124999463
 20
549.9935731132091
 11
804.1632812499945
 21
549.9935731132091
  0
LINE
  8
_0-0_計極細
  6
CONTINUOUS
 62
    2
 10
809.76328124999463
 20
562.9935731132091
 11
804.1632812499945
 21
562.9935731132091
  0
LINE
  8
_0-0_計極細
  6
CONTINUOUS
 62
    2
 10
809.76328124999498
 20
657.99357311320921
 11
804.16328124999472
 21
657.99357311320921
  0
LINE
  8
_0-0_計極細
  6
CONTINUOUS
 62
    2
 10
809.76328124999498
 20
670.9935731132091
 11
804.16328124999472
 21
670.9935731132091
  0
LINE
  8
_0-1_計細線
  6
CONTINUOUS
 62
    3
 10
804.16328124999541
 20
534.9935731132091
 11
804.16328124999438
 21
685.9935731132091
  0
LINE
  8
_0-1_計細線
  6
CONTINUOUS
 62
    3
 10
792.76328124999486
 20
534.9935731132091
 11
792.76328124999384
 21
685.9935731132091
  0
LINE
  8
_0-1_計細線
  6
CONTINUOUS
 62
    3
 10
804.16328124999541
 20
534.9935731132091
 11
792.76328124999486
 21
534.9935731132091
  0
LINE
  8
_0-1_計細線
  6
CONTINUOUS
 62
    3
 10
804.16328124999438
 20
685.9935731132091
 11
792.76328124999384
 21
685.9935731132091
  0
LINE
  8
_0-0_計極細
  6
CONTINUOUS
 62
    2
 10
795.96328124999502
 20
534.9935731132091
 11
795.963281249994
 21
685.9935731132091
  0
LINE
  8
_0-0_計極細
  6
CONTINUOUS
 62
    2
 10
800.96328124999502
 20
534.9935731132091
 11
800.963281249994
 21
685.9935731132091
  0
LINE
  8
_0-0_計極細
  6
CONTINUOUS
 62
    2
 10
792.76328124999463
 20
549.9935731132091
 11
787.1632812499945
 21
549.9935731132091
  0
LINE
  8
_0-0_計極細
  6
CONTINUOUS
 62
    2
 10
792.76328124999463
 20
562.9935731132091
 11
787.1632812499945
 21
562.9935731132091
  0
LINE
  8
_0-0_計極細
  6
CONTINUOUS
 62
    2
 10
792.76328124999498
 20
657.99357311320921
 11
787.16328124999461
 21
657.99357311320921
  0
LINE
  8
_0-0_計極細
  6
CONTINUOUS
 62
    2
 10
792.76328124999498
 20
670.9935731132091
 11
787.16328124999461
 21
670.9935731132091
  0
LINE
  8
_0-1_計細線
  6
CONTINUOUS
 62
    3
 10
787.16328124999541
 20
534.9935731132091
 11
787.16328124999438
 21
685.9935731132091
  0
LINE
  8
_0-1_計細線
  6
CONTINUOUS
 62
    3
 10
775.76328124999475
 20
534.9935731132091
 11
775.76328124999372
 21
685.9935731132091
  0
LINE
  8
_0-1_計細線
  6
CONTINUOUS
 62
    3
 10
787.16328124999541
 20
534.9935731132091
 11
775.76328124999475
 21
534.9935731132091
  0
LINE
  8
_0-1_計細線
  6
CONTINUOUS
 62
    3
 10
787.16328124999438
 20
685.9935731132091
 11
775.76328124999372
 21
685.9935731132091
  0
LINE
  8
_0-0_計極細
  6
CONTINUOUS
 62
    2
 10
778.96328124999513
 20
534.9935731132091
 11
778.963281249994
 21
685.9935731132091
  0
LINE
  8
_0-0_計極細
  6
CONTINUOUS
 62
    2
 10
783.96328124999513
 20
534.9935731132091
 11
783.963281249994
 21
685.9935731132091
  0
LINE
  8
_0-0_計極細
  6
CONTINUOUS
 62
    2
 10
775.76328124999463
 20
549.9935731132091
 11
770.16328124999461
 21
549.9935731132091
  0
LINE
  8
_0-0_計極細
  6
CONTINUOUS
 62
    2
 10
775.76328124999463
 20
562.9935731132091
 11
770.16328124999461
 21
562.9935731132091
  0
LINE
  8
_0-0_計極細
  6
CONTINUOUS
 62
    2
 10
775.76328124999486
 20
657.99357311320921
 11
770.16328124999461
 21
657.99357311320921
  0
LINE
  8
_0-0_計極細
  6
CONTINUOUS
 62
    2
 10
775.76328124999486
 20
670.9935731132091
 11
770.16328124999461
 21
670.9935731132091
  0
LINE
  8
_0-1_計細線
  6
CONTINUOUS
 62
    3
 10
770.16328124999529
 20
534.9935731132091
 11
770.16328124999427
 21
685.9935731132091
  0
LINE
  8
_0-1_計細線
  6
CONTINUOUS
 62
    3
 10
758.76328124999475
 20
534.9935731132091
 11
758.76328124999372
 21
685.9935731132091
  0
LINE
  8
_0-1_計細線
  6
CONTINUOUS
 62
    3
 10
770.16328124999529
 20
534.9935731132091
 11
758.76328124999475
 21
534.9935731132091
  0
LINE
  8
_0-1_計細線
  6
CONTINUOUS
 62
    3
 10
770.16328124999427
 20
685.9935731132091
 11
758.76328124999372
 21
685.9935731132091
  0
LINE
  8
_0-0_計極細
  6
CONTINUOUS
 62
    2
 10
761.96328124999513
 20
534.9935731132091
 11
761.963281249994
 21
685.9935731132091
  0
LINE
  8
_0-0_計極細
  6
CONTINUOUS
 62
    2
 10
766.96328124999513
 20
534.9935731132091
 11
766.963281249994
 21
685.9935731132091
  0
LINE
  8
_0-0_計極細
  6
CONTINUOUS
 62
    2
 10
758.76328124999463
 20
549.9935731132091
 11
753.16328124999461
 21
549.9935731132091
  0
LINE
  8
_0-0_計極細
  6
CONTINUOUS
 62
    2
 10
758.76328124999463
 20
562.9935731132091
 11
753.16328124999461
 21
562.9935731132091
  0
LINE
  8
_0-0_計極細
  6
CONTINUOUS
 62
    2
 10
758.76328124999486
 20
657.99357311320921
 11
753.16328124999461
 21
657.99357311320921
  0
LINE
  8
_0-0_計極細
  6
CONTINUOUS
 62
    2
 10
758.76328124999486
 20
670.9935731132091
 11
753.16328124999461
 21
670.9935731132091
  0
LINE
  8
_0-1_計細線
  6
CONTINUOUS
 62
    3
 10
753.16328124999529
 20
534.9935731132091
 11
753.16328124999427
 21
685.9935731132091
  0
LINE
  8
_0-1_計細線
  6
CONTINUOUS
 62
    3
 10
741.76328124999475
 20
534.9935731132091
 11
741.76328124999372
 21
685.9935731132091
  0
LINE
  8
_0-1_計細線
  6
CONTINUOUS
 62
    3
 10
753.16328124999529
 20
534.9935731132091
 11
741.76328124999475
 21
534.9935731132091
  0
LINE
  8
_0-1_計細線
  6
CONTINUOUS
 62
    3
 10
753.16328124999427
 20
685.9935731132091
 11
741.76328124999372
 21
685.9935731132091
  0
LINE
  8
_0-0_計極細
  6
CONTINUOUS
 62
    2
 10
744.96328124999513
 20
534.9935731132091
 11
744.96328124999411
 21
685.9935731132091
  0
LINE
  8
_0-0_計極細
  6
CONTINUOUS
 62
    2
 10
749.96328124999513
 20
534.9935731132091
 11
749.96328124999411
 21
685.9935731132091
  0
LINE
  8
_0-0_計極細
  6
CONTINUOUS
 62
    2
 10
741.76328124999475
 20
549.9935731132091
 11
736.1632812499945
 21
549.9935731132091
  0
LINE
  8
_0-0_計極細
  6
CONTINUOUS
 62
    2
 10
741.76328124999475
 20
562.9935731132091
 11
736.1632812499945
 21
562.9935731132091
  0
LINE
  8
_0-0_計極細
  6
CONTINUOUS
 62
    2
 10
741.76328124999486
 20
657.99357311320921
 11
736.16328124999472
 21
657.99357311320921
  0
LINE
  8
_0-0_計極細
  6
CONTINUOUS
 62
    2
 10
741.76328124999486
 20
670.9935731132091
 11
736.16328124999472
 21
670.9935731132091
  0
LINE
  8
_0-1_計細線
  6
CONTINUOUS
 62
    3
 10
736.16328124999529
 20
534.9935731132091
 11
736.16328124999427
 21
685.9935731132091
  0
LINE
  8
_0-1_計細線
  6
CONTINUOUS
 62
    3
 10
724.76328124999486
 20
534.9935731132091
 11
724.76328124999372
 21
685.9935731132091
  0
LINE
  8
_0-1_計細線
  6
CONTINUOUS
 62
    3
 10
736.16328124999529
 20
534.9935731132091
 11
724.76328124999486
 21
534.9935731132091
  0
LINE
  8
_0-1_計細線
  6
CONTINUOUS
 62
    3
 10
736.16328124999427
 20
685.9935731132091
 11
724.76328124999372
 21
685.9935731132091
  0
LINE
  8
_0-0_計極細
  6
CONTINUOUS
 62
    2
 10
727.96328124999502
 20
534.9935731132091
 11
727.963281249994
 21
685.9935731132091
  0
LINE
  8
_0-0_計極細
  6
CONTINUOUS
 62
    2
 10
732.96328124999502
 20
534.9935731132091
 11
732.963281249994
 21
685.9935731132091
  0
LINE
  8
_0-0_計極細
  6
CONTINUOUS
 62
    2
 10
724.76328124999463
 20
549.9935731132091
 11
719.1632812499945
 21
549.9935731132091
  0
LINE
  8
_0-0_計極細
  6
CONTINUOUS
 62
    2
 10
724.76328124999463
 20
562.9935731132091
 11
719.1632812499945
 21
562.9935731132091
  0
LINE
  8
_0-0_計極細
  6
CONTINUOUS
 62
    2
 10
724.76328124999486
 20
657.99357311320921
 11
719.16328124999472
 21
657.99357311320921
  0
LINE
  8
_0-0_計極細
  6
CONTINUOUS
 62
    2
 10
724.76328124999486
 20
670.9935731132091
 11
719.16328124999472
 21
670.9935731132091
  0
LINE
  8
_0-1_計細線
  6
CONTINUOUS
 62
    3
 10
719.16328124999541
 20
534.9935731132091
 11
719.16328124999427
 21
685.9935731132091
  0
LINE
  8
_0-1_計細線
  6
CONTINUOUS
 62
    3
 10
707.76328124999486
 20
534.9935731132091
 11
707.76328124999384
 21
685.9935731132091
  0
LINE
  8
_0-1_計細線
  6
CONTINUOUS
 62
    3
 10
719.16328124999541
 20
534.9935731132091
 11
707.76328124999486
 21
534.9935731132091
  0
LINE
  8
_0-1_計細線
  6
CONTINUOUS
 62
    3
 10
719.16328124999427
 20
685.9935731132091
 11
707.76328124999384
 21
685.9935731132091
  0
LINE
  8
_0-0_計極細
  6
CONTINUOUS
 62
    2
 10
710.96328124999502
 20
534.9935731132091
 11
710.963281249994
 21
685.9935731132091
  0
LINE
  8
_0-0_計極細
  6
CONTINUOUS
 62
    2
 10
715.96328124999502
 20
534.9935731132091
 11
715.963281249994
 21
685.9935731132091
  0
LINE
  8
_0-0_計極細
  6
CONTINUOUS
 62
    2
 10
707.76328124999463
 20
549.9935731132091
 11
702.1632812499945
 21
549.9935731132091
  0
LINE
  8
_0-0_計極細
  6
CONTINUOUS
 62
    2
 10
707.76328124999463
 20
562.9935731132091
 11
702.1632812499945
 21
562.9935731132091
  0
LINE
  8
_0-0_計極細
  6
CONTINUOUS
 62
    2
 10
707.76328124999498
 20
657.99357311320921
 11
702.16328124999461
 21
657.99357311320921
  0
LINE
  8
_0-0_計極細
  6
CONTINUOUS
 62
    2
 10
707.76328124999498
 20
670.9935731132091
 11
702.16328124999461
 21
670.9935731132091
  0
LINE
  8
_0-1_計細線
  6
CONTINUOUS
 62
    3
 10
702.16328124999541
 20
534.9935731132091
 11
702.16328124999438
 21
685.9935731132091
  0
LINE
  8
_0-1_計細線
  6
CONTINUOUS
 62
    3
 10
690.76328124999475
 20
534.9935731132091
 11
690.76328124999372
 21
685.9935731132091
  0
LINE
  8
_0-1_計細線
  6
CONTINUOUS
 62
    3
 10
702.16328124999541
 20
534.9935731132091
 11
690.76328124999475
 21
534.9935731132091
  0
LINE
  8
_0-1_計細線
  6
CONTINUOUS
 62
    3
 10
702.16328124999438
 20
685.9935731132091
 11
690.76328124999372
 21
685.9935731132091
  0
LINE
  8
_0-0_計極細
  6
CONTINUOUS
 62
    2
 10
693.96328124999502
 20
534.9935731132091
 11
693.963281249994
 21
685.9935731132091
  0
LINE
  8
_0-0_計極細
  6
CONTINUOUS
 62
    2
 10
698.96328124999502
 20
534.9935731132091
 11
698.963281249994
 21
685.9935731132091
  0
LINE
  8
_0-0_計極細
  6
CONTINUOUS
 62
    2
 10
690.76328124999463
 20
549.9935731132091
 11
685.1632812499945
 21
549.9935731132091
  0
LINE
  8
_0-0_計極細
  6
CONTINUOUS
 62
    2
 10
690.76328124999463
 20
562.9935731132091
 11
685.1632812499945
 21
562.9935731132091
  0
LINE
  8
_0-0_計極細
  6
CONTINUOUS
 62
    2
 10
690.76328124999486
 20
657.99357311320921
 11
685.16328124999461
 21
657.99357311320921
  0
LINE
  8
_0-0_計極細
  6
CONTINUOUS
 62
    2
 10
690.76328124999486
 20
670.9935731132091
 11
685.16328124999461
 21
670.9935731132091
  0
LINE
  8
_0-1_計細線
  6
CONTINUOUS
 62
    3
 10
685.16328124999529
 20
534.9935731132091
 11
685.16328124999427
 21
685.9935731132091
  0
LINE
  8
_0-1_計細線
  6
CONTINUOUS
 62
    3
 10
673.76328124999475
 20
534.9935731132091
 11
673.76328124999372
 21
685.9935731132091
  0
LINE
  8
_0-1_計細線
  6
CONTINUOUS
 62
    3
 10
685.16328124999529
 20
534.9935731132091
 11
673.76328124999475
 21
534.9935731132091
  0
LINE
  8
_0-1_計細線
  6
CONTINUOUS
 62
    3
 10
685.16328124999427
 20
685.9935731132091
 11
673.76328124999372
 21
685.9935731132091
  0
LINE
  8
_0-0_計極細
  6
CONTINUOUS
 62
    2
 10
676.96328124999513
 20
534.9935731132091
 11
676.963281249994
 21
685.9935731132091
  0
LINE
  8
_0-0_計極細
  6
CONTINUOUS
 62
    2
 10
681.96328124999513
 20
534.9935731132091
 11
681.963281249994
 21
685.9935731132091
  0
LINE
  8
_0-0_計極細
  6
CONTINUOUS
 62
    2
 10
673.76328124999463
 20
549.9935731132091
 11
668.16328124999461
 21
549.9935731132091
  0
LINE
  8
_0-0_計極細
  6
CONTINUOUS
 62
    2
 10
673.76328124999463
 20
562.9935731132091
 11
668.16328124999461
 21
562.9935731132091
  0
LINE
  8
_0-0_計極細
  6
CONTINUOUS
 62
    2
 10
673.76328124999486
 20
657.99357311320921
 11
668.16328124999461
 21
657.99357311320921
  0
LINE
  8
_0-0_計極細
  6
CONTINUOUS
 62
    2
 10
673.76328124999486
 20
670.9935731132091
 11
668.16328124999461
 21
670.9935731132091
  0
LINE
  8
_0-1_計細線
  6
CONTINUOUS
 62
    3
 10
668.16328124999529
 20
534.9935731132091
 11
668.16328124999427
 21
685.9935731132091
  0
LINE
  8
_0-1_計細線
  6
CONTINUOUS
 62
    3
 10
656.76328124999475
 20
534.9935731132091
 11
656.76328124999372
 21
685.9935731132091
  0
LINE
  8
_0-1_計細線
  6
CONTINUOUS
 62
    3
 10
668.16328124999529
 20
534.9935731132091
 11
656.76328124999475
 21
534.9935731132091
  0
LINE
  8
_0-1_計細線
  6
CONTINUOUS
 62
    3
 10
668.16328124999427
 20
685.9935731132091
 11
656.76328124999372
 21
685.9935731132091
  0
LINE
  8
_0-0_計極細
  6
CONTINUOUS
 62
    2
 10
659.96328124999513
 20
534.9935731132091
 11
659.96328124999411
 21
685.9935731132091
  0
LINE
  8
_0-0_計極細
  6
CONTINUOUS
 62
    2
 10
664.96328124999513
 20
534.9935731132091
 11
664.96328124999411
 21
685.9935731132091
  0
LINE
  8
_0-0_計極細
  6
CONTINUOUS
 62
    2
 10
656.76328124999475
 20
549.9935731132091
 11
651.1632812499945
 21
549.9935731132091
  0
LINE
  8
_0-0_計極細
  6
CONTINUOUS
 62
    2
 10
656.76328124999475
 20
562.9935731132091
 11
651.1632812499945
 21
562.9935731132091
  0
LINE
  8
_0-0_計極細
  6
CONTINUOUS
 62
    2
 10
656.76328124999486
 20
657.99357311320921
 11
651.16328124999472
 21
657.99357311320921
  0
LINE
  8
_0-0_計極細
  6
CONTINUOUS
 62
    2
 10
656.76328124999486
 20
670.9935731132091
 11
651.16328124999472
 21
670.9935731132091
  0
LINE
  8
_0-1_計細線
  6
CONTINUOUS
 62
    3
 10
651.16328124999529
 20
534.9935731132091
 11
651.16328124999427
 21
685.9935731132091
  0
LINE
  8
_0-1_計細線
  6
CONTINUOUS
 62
    3
 10
639.76328124999475
 20
534.9935731132091
 11
639.76328124999372
 21
685.9935731132091
  0
LINE
  8
_0-1_計細線
  6
CONTINUOUS
 62
    3
 10
651.16328124999529
 20
534.9935731132091
 11
639.76328124999475
 21
534.9935731132091
  0
LINE
  8
_0-1_計細線
  6
CONTINUOUS
 62
    3
 10
651.16328124999427
 20
685.9935731132091
 11
639.76328124999372
 21
685.9935731132091
  0
LINE
  8
_0-0_計極細
  6
CONTINUOUS
 62
    2
 10
642.96328124999502
 20
534.9935731132091
 11
642.963281249994
 21
685.9935731132091
  0
LINE
  8
_0-0_計極細
  6
CONTINUOUS
 62
    2
 10
647.96328124999502
 20
534.9935731132091
 11
647.963281249994
 21
685.9935731132091
  0
LINE
  8
_0-0_計極細
  6
CONTINUOUS
 62
    2
 10
639.76328124999463
 20
549.9935731132091
 11
634.1632812499945
 21
549.9935731132091
  0
LINE
  8
_0-0_計極細
  6
CONTINUOUS
 62
    2
 10
639.76328124999463
 20
562.9935731132091
 11
634.1632812499945
 21
562.9935731132091
  0
LINE
  8
_0-0_計極細
  6
CONTINUOUS
 62
    2
 10
639.76328124999486
 20
657.99357311320921
 11
634.16328124999472
 21
657.99357311320921
  0
LINE
  8
_0-0_計極細
  6
CONTINUOUS
 62
    2
 10
639.76328124999486
 20
670.9935731132091
 11
634.16328124999472
 21
670.9935731132091
  0
LINE
  8
_0-1_計細線
  6
CONTINUOUS
 62
    3
 10
634.16328124999529
 20
534.9935731132091
 11
634.16328124999427
 21
685.9935731132091
  0
LINE
  8
_0-1_計細線
  6
CONTINUOUS
 62
    3
 10
622.76328124999486
 20
534.9935731132091
 11
622.76328124999372
 21
685.9935731132091
  0
LINE
  8
_0-1_計細線
  6
CONTINUOUS
 62
    3
 10
634.16328124999529
 20
534.9935731132091
 11
622.76328124999486
 21
534.9935731132091
  0
LINE
  8
_0-1_計細線
  6
CONTINUOUS
 62
    3
 10
634.16328124999427
 20
685.9935731132091
 11
622.76328124999372
 21
685.9935731132091
  0
LINE
  8
_0-0_計極細
  6
CONTINUOUS
 62
    2
 10
625.96328124999502
 20
534.9935731132091
 11
625.963281249994
 21
685.9935731132091
  0
LINE
  8
_0-0_計極細
  6
CONTINUOUS
 62
    2
 10
630.96328124999502
 20
534.9935731132091
 11
630.963281249994
 21
685.9935731132091
  0
LINE
  8
_0-0_計極細
  6
CONTINUOUS
 62
    2
 10
622.76328124999463
 20
549.9935731132091
 11
617.1632812499945
 21
549.9935731132091
  0
LINE
  8
_0-0_計極細
  6
CONTINUOUS
 62
    2
 10
622.76328124999463
 20
562.9935731132091
 11
617.1632812499945
 21
562.9935731132091
  0
LINE
  8
_0-0_計極細
  6
CONTINUOUS
 62
    2
 10
622.76328124999486
 20
657.99357311320921
 11
617.16328124999461
 21
657.99357311320921
  0
LINE
  8
_0-0_計極細
  6
CONTINUOUS
 62
    2
 10
622.76328124999486
 20
670.9935731132091
 11
617.16328124999461
 21
670.9935731132091
  0
LINE
  8
_0-1_計細線
  6
CONTINUOUS
 62
    3
 10
617.16328124999541
 20
534.9935731132091
 11
617.16328124999427
 21
685.9935731132091
  0
LINE
  8
_0-1_計細線
  6
CONTINUOUS
 62
    3
 10
605.76328124999475
 20
534.9935731132091
 11
605.76328124999372
 21
685.9935731132091
  0
LINE
  8
_0-1_計細線
  6
CONTINUOUS
 62
    3
 10
617.16328124999541
 20
534.9935731132091
 11
605.76328124999475
 21
534.9935731132091
  0
LINE
  8
_0-1_計細線
  6
CONTINUOUS
 62
    3
 10
617.16328124999427
 20
685.9935731132091
 11
605.76328124999372
 21
685.9935731132091
  0
LINE
  8
_0-0_計極細
  6
CONTINUOUS
 62
    2
 10
608.96328124999502
 20
534.9935731132091
 11
608.963281249994
 21
685.9935731132091
  0
LINE
  8
_0-0_計極細
  6
CONTINUOUS
 62
    2
 10
613.96328124999502
 20
534.9935731132091
 11
613.963281249994
 21
685.9935731132091
  0
LINE
  8
_0-0_計極細
  6
CONTINUOUS
 62
    2
 10
605.76328124999463
 20
549.9935731132091
 11
600.1632812499945
 21
549.9935731132091
  0
LINE
  8
_0-0_計極細
  6
CONTINUOUS
 62
    2
 10
605.76328124999463
 20
562.9935731132091
 11
600.1632812499945
 21
562.9935731132091
  0
LINE
  8
_0-0_計極細
  6
CONTINUOUS
 62
    2
 10
605.76328124999486
 20
657.99357311320921
 11
600.16328124999461
 21
657.99357311320921
  0
LINE
  8
_0-0_計極細
  6
CONTINUOUS
 62
    2
 10
605.76328124999486
 20
670.9935731132091
 11
600.16328124999461
 21
670.9935731132091
  0
LINE
  8
_0-1_計細線
  6
CONTINUOUS
 62
    3
 10
600.16328124999529
 20
534.9935731132091
 11
600.16328124999427
 21
685.9935731132091
  0
LINE
  8
_0-1_計細線
  6
CONTINUOUS
 62
    3
 10
588.76328124999475
 20
534.9935731132091
 11
588.76328124999372
 21
685.9935731132091
  0
LINE
  8
_0-1_計細線
  6
CONTINUOUS
 62
    3
 10
600.16328124999529
 20
534.9935731132091
 11
588.76328124999475
 21
534.9935731132091
  0
LINE
  8
_0-1_計細線
  6
CONTINUOUS
 62
    3
 10
600.16328124999427
 20
685.9935731132091
 11
588.76328124999372
 21
685.9935731132091
  0
LINE
  8
_0-0_計極細
  6
CONTINUOUS
 62
    2
 10
591.96328124999502
 20
534.9935731132091
 11
591.963281249994
 21
685.9935731132091
  0
LINE
  8
_0-0_計極細
  6
CONTINUOUS
 62
    2
 10
596.96328124999502
 20
534.9935731132091
 11
596.963281249994
 21
685.9935731132091
  0
LINE
  8
_0-0_計極細
  6
CONTINUOUS
 62
    2
 10
588.76328124999463
 20
549.9935731132091
 11
583.1632812499945
 21
549.9935731132091
  0
LINE
  8
_0-0_計極細
  6
CONTINUOUS
 62
    2
 10
588.76328124999463
 20
562.9935731132091
 11
583.1632812499945
 21
562.9935731132091
  0
LINE
  8
_0-0_計極細
  6
CONTINUOUS
 62
    2
 10
588.76328124999486
 20
657.99357311320921
 11
583.16328124999461
 21
657.99357311320921
  0
LINE
  8
_0-0_計極細
  6
CONTINUOUS
 62
    2
 10
588.76328124999486
 20
670.9935731132091
 11
583.16328124999461
 21
670.9935731132091
  0
LINE
  8
_0-1_計細線
  6
CONTINUOUS
 62
    3
 10
583.16328124999529
 20
534.9935731132091
 11
583.16328124999427
 21
685.9935731132091
  0
LINE
  8
_0-1_計細線
  6
CONTINUOUS
 62
    3
 10
571.76328124999475
 20
534.9935731132091
 11
571.76328124999372
 21
685.9935731132091
  0
LINE
  8
_0-1_計細線
  6
CONTINUOUS
 62
    3
 10
583.16328124999529
 20
534.9935731132091
 11
571.76328124999475
 21
534.9935731132091
  0
LINE
  8
_0-1_計細線
  6
CONTINUOUS
 62
    3
 10
583.16328124999427
 20
685.9935731132091
 11
571.76328124999372
 21
685.9935731132091
  0
LINE
  8
_0-0_計極細
  6
CONTINUOUS
 62
    2
 10
574.96328124999513
 20
534.9935731132091
 11
574.963281249994
 21
685.9935731132091
  0
LINE
  8
_0-0_計極細
  6
CONTINUOUS
 62
    2
 10
579.96328124999513
 20
534.9935731132091
 11
579.963281249994
 21
685.9935731132091
  0
LINE
  8
_0-0_計極細
  6
CONTINUOUS
 62
    2
 10
571.76328124999463
 20
549.9935731132091
 11
566.1632812499945
 21
549.9935731132091
  0
LINE
  8
_0-0_計極細
  6
CONTINUOUS
 62
    2
 10
571.76328124999463
 20
562.9935731132091
 11
566.1632812499945
 21
562.9935731132091
  0
LINE
  8
_0-0_計極細
  6
CONTINUOUS
 62
    2
 10
571.76328124999486
 20
657.99357311320921
 11
566.16328124999461
 21
657.99357311320921
  0
LINE
  8
_0-0_計極細
  6
CONTINUOUS
 62
    2
 10
571.76328124999486
 20
670.9935731132091
 11
566.16328124999461
 21
670.9935731132091
  0
LINE
  8
_0-1_計細線
  6
CONTINUOUS
 62
    3
 10
566.16328124999529
 20
534.9935731132091
 11
566.16328124999427
 21
685.9935731132091
  0
LINE
  8
_0-1_計細線
  6
CONTINUOUS
 62
    3
 10
554.76328124999475
 20
534.9935731132091
 11
554.76328124999372
 21
685.9935731132091
  0
LINE
  8
_0-1_計細線
  6
CONTINUOUS
 62
    3
 10
566.16328124999529
 20
534.9935731132091
 11
554.76328124999475
 21
534.9935731132091
  0
LINE
  8
_0-1_計細線
  6
CONTINUOUS
 62
    3
 10
566.16328124999427
 20
685.9935731132091
 11
554.76328124999372
 21
685.9935731132091
  0
LINE
  8
_0-0_計極細
  6
CONTINUOUS
 62
    2
 10
557.96328124999502
 20
534.9935731132091
 11
557.963281249994
 21
685.9935731132091
  0
LINE
  8
_0-0_計極細
  6
CONTINUOUS
 62
    2
 10
562.96328124999502
 20
534.9935731132091
 11
562.963281249994
 21
685.9935731132091
  0
LINE
  8
_0-0_計極細
  6
CONTINUOUS
 62
    2
 10
554.76328124999463
 20
549.9935731132091
 11
549.1632812499945
 21
549.9935731132091
  0
LINE
  8
_0-0_計極細
  6
CONTINUOUS
 62
    2
 10
554.76328124999463
 20
562.9935731132091
 11
549.1632812499945
 21
562.9935731132091
  0
LINE
  8
_0-0_計極細
  6
CONTINUOUS
 62
    2
 10
554.76328124999486
 20
657.99357311320921
 11
549.16328124999472
 21
657.99357311320921
  0
LINE
  8
_0-0_計極細
  6
CONTINUOUS
 62
    2
 10
554.76328124999486
 20
670.9935731132091
 11
549.16328124999472
 21
670.9935731132091
  0
LINE
  8
_0-1_計細線
  6
CONTINUOUS
 62
    3
 10
549.16328124999529
 20
534.9935731132091
 11
549.16328124999427
 21
685.9935731132091
  0
LINE
  8
_0-1_計細線
  6
CONTINUOUS
 62
    3
 10
537.76328124999486
 20
534.9935731132091
 11
537.76328124999372
 21
685.9935731132091
  0
LINE
  8
_0-1_計細線
  6
CONTINUOUS
 62
    3
 10
549.16328124999529
 20
534.9935731132091
 11
537.76328124999486
 21
534.9935731132091
  0
LINE
  8
_0-1_計細線
  6
CONTINUOUS
 62
    3
 10
549.16328124999427
 20
685.9935731132091
 11
537.76328124999372
 21
685.9935731132091
  0
LINE
  8
_0-0_計極細
  6
CONTINUOUS
 62
    2
 10
540.96328124999502
 20
534.9935731132091
 11
540.963281249994
 21
685.9935731132091
  0
LINE
  8
_0-0_計極細
  6
CONTINUOUS
 62
    2
 10
545.96328124999502
 20
534.9935731132091
 11
545.963281249994
 21
685.9935731132091
  0
LINE
  8
_0-0_計極細
  6
CONTINUOUS
 62
    2
 10
537.76328124999463
 20
549.9935731132091
 11
532.1632812499945
 21
549.9935731132091
  0
LINE
  8
_0-0_計極細
  6
CONTINUOUS
 62
    2
 10
537.76328124999463
 20
562.9935731132091
 11
532.1632812499945
 21
562.9935731132091
  0
LINE
  8
_0-0_計極細
  6
CONTINUOUS
 62
    2
 10
537.76328124999486
 20
657.99357311320921
 11
532.16328124999461
 21
657.99357311320921
  0
LINE
  8
_0-0_計極細
  6
CONTINUOUS
 62
    2
 10
537.76328124999486
 20
670.9935731132091
 11
532.16328124999461
 21
670.9935731132091
  0
LINE
  8
_0-1_計細線
  6
CONTINUOUS
 62
    3
 10
532.16328124999541
 20
534.9935731132091
 11
532.16328124999427
 21
685.9935731132091
  0
LINE
  8
_0-1_計細線
  6
CONTINUOUS
 62
    3
 10
520.76328124999475
 20
534.9935731132091
 11
520.76328124999372
 21
685.9935731132091
  0
LINE
  8
_0-1_計細線
  6
CONTINUOUS
 62
    3
 10
532.16328124999541
 20
534.9935731132091
 11
520.76328124999475
 21
534.9935731132091
  0
LINE
  8
_0-1_計細線
  6
CONTINUOUS
 62
    3
 10
532.16328124999427
 20
685.9935731132091
 11
520.76328124999372
 21
685.9935731132091
  0
LINE
  8
_0-0_計極細
  6
CONTINUOUS
 62
    2
 10
523.96328124999502
 20
534.9935731132091
 11
523.963281249994
 21
685.9935731132091
  0
LINE
  8
_0-0_計極細
  6
CONTINUOUS
 62
    2
 10
528.96328124999502
 20
534.9935731132091
 11
528.963281249994
 21
685.9935731132091
  0
LINE
  8
_0-0_計極細
  6
CONTINUOUS
 62
    2
 10
520.76328124999463
 20
549.9935731132091
 11
515.1632812499945
 21
549.9935731132091
  0
LINE
  8
_0-0_計極細
  6
CONTINUOUS
 62
    2
 10
520.76328124999463
 20
562.9935731132091
 11
515.1632812499945
 21
562.9935731132091
  0
LINE
  8
_0-0_計極細
  6
CONTINUOUS
 62
    2
 10
520.76328124999486
 20
657.99357311320921
 11
515.16328124999461
 21
657.99357311320921
  0
LINE
  8
_0-0_計極細
  6
CONTINUOUS
 62
    2
 10
520.76328124999486
 20
670.9935731132091
 11
515.16328124999461
 21
670.9935731132091
  0
LINE
  8
_0-1_計細線
  6
CONTINUOUS
 62
    3
 10
515.16328124999529
 20
534.9935731132091
 11
515.16328124999427
 21
685.9935731132091
  0
LINE
  8
_0-1_計細線
  6
CONTINUOUS
 62
    3
 10
503.76328124999475
 20
534.9935731132091
 11
503.76328124999372
 21
685.9935731132091
  0
LINE
  8
_0-1_計細線
  6
CONTINUOUS
 62
    3
 10
515.16328124999529
 20
534.9935731132091
 11
503.76328124999475
 21
534.9935731132091
  0
LINE
  8
_0-1_計細線
  6
CONTINUOUS
 62
    3
 10
515.16328124999427
 20
685.9935731132091
 11
503.76328124999372
 21
685.9935731132091
  0
LINE
  8
_0-0_計極細
  6
CONTINUOUS
 62
    2
 10
506.96328124999502
 20
534.9935731132091
 11
506.96328124999405
 21
685.9935731132091
  0
LINE
  8
_0-0_計極細
  6
CONTINUOUS
 62
    2
 10
511.96328124999502
 20
534.9935731132091
 11
511.96328124999405
 21
685.9935731132091
  0
LINE
  8
_0-0_計極細
  6
CONTINUOUS
 62
    2
 10
503.76328124999469
 20
549.9935731132091
 11
498.1632812499945
 21
549.9935731132091
  0
LINE
  8
_0-0_計極細
  6
CONTINUOUS
 62
    2
 10
503.76328124999469
 20
562.9935731132091
 11
498.1632812499945
 21
562.9935731132091
  0
LINE
  8
_0-0_計極細
  6
CONTINUOUS
 62
    2
 10
503.76328124999486
 20
657.99357311320921
 11
498.16328124999467
 21
657.99357311320921
  0
LINE
  8
_0-0_計極細
  6
CONTINUOUS
 62
    2
 10
503.76328124999486
 20
670.9935731132091
 11
498.16328124999467
 21
670.9935731132091
  0
LINE
  8
_0-1_計細線
  6
CONTINUOUS
 62
    3
 10
498.16328124999529
 20
534.9935731132091
 11
498.16328124999427
 21
685.9935731132091
  0
LINE
  8
_0-1_計細線
  6
CONTINUOUS
 62
    3
 10
486.7632812499948
 20
534.9935731132091
 11
486.76328124999372
 21
685.9935731132091
  0
LINE
  8
_0-1_計細線
  6
CONTINUOUS
 62
    3
 10
498.16328124999529
 20
534.9935731132091
 11
486.7632812499948
 21
534.9935731132091
  0
LINE
  8
_0-1_計細線
  6
CONTINUOUS
 62
    3
 10
498.16328124999427
 20
685.9935731132091
 11
486.76328124999372
 21
685.9935731132091
  0
LINE
  8
_0-0_計極細
  6
CONTINUOUS
 62
    2
 10
489.96328124999508
 20
534.9935731132091
 11
489.963281249994
 21
685.9935731132091
  0
LINE
  8
_0-0_計極細
  6
CONTINUOUS
 62
    2
 10
494.96328124999508
 20
534.9935731132091
 11
494.963281249994
 21
685.9935731132091
  0
LINE
  8
_0-0_計極細
  6
CONTINUOUS
 62
    2
 10
486.76328124999463
 20
549.9935731132091
 11
481.16328124999455
 21
549.9935731132091
  0
LINE
  8
_0-0_計極細
  6
CONTINUOUS
 62
    2
 10
486.76328124999463
 20
562.9935731132091
 11
481.16328124999455
 21
562.9935731132091
  0
LINE
  8
_0-0_計極細
  6
CONTINUOUS
 62
    2
 10
486.76328124999486
 20
657.99357311320921
 11
481.16328124999461
 21
657.99357311320921
  0
LINE
  8
_0-0_計極細
  6
CONTINUOUS
 62
    2
 10
486.76328124999486
 20
670.9935731132091
 11
481.16328124999461
 21
670.9935731132091
  0
LINE
  8
_0-1_計細線
  6
CONTINUOUS
 62
    3
 10
481.16328124999535
 20
534.9935731132091
 11
481.16328124999427
 21
685.9935731132091
  0
LINE
  8
_0-1_計細線
  6
CONTINUOUS
 62
    3
 10
469.76328124999475
 20
534.9935731132091
 11
469.76328124999378
 21
685.9935731132091
  0
LINE
  8
_0-1_計細線
  6
CONTINUOUS
 62
    3
 10
481.16328124999535
 20
534.9935731132091
 11
469.76328124999475
 21
534.9935731132091
  0
LINE
  8
_0-1_計細線
  6
CONTINUOUS
 62
    3
 10
481.16328124999427
 20
685.9935731132091
 11
469.76328124999378
 21
685.9935731132091
  0
LINE
  8
_0-0_計極細
  6
CONTINUOUS
 62
    2
 10
472.96328124999502
 20
534.9935731132091
 11
472.96328124999405
 21
685.9935731132091
  0
LINE
  8
_0-0_計極細
  6
CONTINUOUS
 62
    2
 10
477.96328124999502
 20
534.9935731132091
 11
477.96328124999405
 21
685.9935731132091
  0
LINE
  8
_0-0_計極細
  6
CONTINUOUS
 62
    2
 10
469.76328124999469
 20
549.9935731132091
 11
464.1632812499945
 21
549.9935731132091
  0
LINE
  8
_0-0_計極細
  6
CONTINUOUS
 62
    2
 10
469.76328124999469
 20
562.9935731132091
 11
464.1632812499945
 21
562.9935731132091
  0
LINE
  8
_0-0_計極細
  6
CONTINUOUS
 62
    2
 10
469.76328124999492
 20
657.99357311320921
 11
464.16328124999467
 21
657.99357311320921
  0
LINE
  8
_0-0_計極細
  6
CONTINUOUS
 62
    2
 10
469.76328124999492
 20
670.9935731132091
 11
464.16328124999467
 21
670.9935731132091
  0
LINE
  8
_0-1_計細線
  6
CONTINUOUS
 62
    3
 10
464.16328124999529
 20
534.9935731132091
 11
464.16328124999433
 21
685.9935731132091
  0
LINE
  8
_0-1_計細線
  6
CONTINUOUS
 62
    3
 10
452.7632812499948
 20
534.9935731132091
 11
452.76328124999372
 21
685.9935731132091
  0
LINE
  8
_0-1_計細線
  6
CONTINUOUS
 62
    3
 10
464.16328124999529
 20
534.9935731132091
 11
452.7632812499948
 21
534.9935731132091
  0
LINE
  8
_0-1_計細線
  6
CONTINUOUS
 62
    3
 10
464.16328124999433
 20
685.9935731132091
 11
452.76328124999372
 21
685.9935731132091
  0
LINE
  8
_0-0_計極細
  6
CONTINUOUS
 62
    2
 10
455.96328124999502
 20
534.9935731132091
 11
455.963281249994
 21
685.9935731132091
  0
LINE
  8
_0-0_計極細
  6
CONTINUOUS
 62
    2
 10
460.96328124999502
 20
534.9935731132091
 11
460.963281249994
 21
685.9935731132091
  0
LINE
  8
_0-0_計極細
  6
CONTINUOUS
 62
    2
 10
452.76328124999463
 20
549.9935731132091
 11
447.1632812499945
 21
549.9935731132091
  0
LINE
  8
_0-0_計極細
  6
CONTINUOUS
 62
    2
 10
452.76328124999463
 20
562.9935731132091
 11
447.1632812499945
 21
562.9935731132091
  0
LINE
  8
_0-0_計極細
  6
CONTINUOUS
 62
    2
 10
452.76328124999486
 20
657.99357311320921
 11
447.16328124999461
 21
657.99357311320921
  0
LINE
  8
_0-0_計極細
  6
CONTINUOUS
 62
    2
 10
452.76328124999486
 20
670.9935731132091
 11
447.16328124999461
 21
670.9935731132091
  0
LINE
  8
_0-1_計細線
  6
CONTINUOUS
 62
    3
 10
447.16328124999535
 20
534.9935731132091
 11
447.16328124999427
 21
685.9935731132091
  0
LINE
  8
_0-1_計細線
  6
CONTINUOUS
 62
    3
 10
435.76328124999475
 20
534.9935731132091
 11
435.76328124999378
 21
685.9935731132091
  0
LINE
  8
_0-1_計細線
  6
CONTINUOUS
 62
    3
 10
447.16328124999535
 20
534.9935731132091
 11
435.76328124999475
 21
534.9935731132091
  0
LINE
  8
_0-1_計細線
  6
CONTINUOUS
 62
    3
 10
447.16328124999427
 20
685.9935731132091
 11
435.76328124999378
 21
685.9935731132091
  0
LINE
  8
_0-0_計極細
  6
CONTINUOUS
 62
    2
 10
438.96328124999508
 20
534.9935731132091
 11
438.963281249994
 21
685.9935731132091
  0
LINE
  8
_0-0_計極細
  6
CONTINUOUS
 62
    2
 10
443.96328124999508
 20
534.9935731132091
 11
443.963281249994
 21
685.9935731132091
  0
LINE
  8
_0-0_計極細
  6
CONTINUOUS
 62
    2
 10
435.76328124999463
 20
549.9935731132091
 11
430.16328124999455
 21
549.9935731132091
  0
LINE
  8
_0-0_計極細
  6
CONTINUOUS
 62
    2
 10
435.76328124999463
 20
562.9935731132091
 11
430.16328124999455
 21
562.9935731132091
  0
LINE
  8
_0-0_計極細
  6
CONTINUOUS
 62
    2
 10
435.76328124999492
 20
657.99357311320921
 11
430.16328124999461
 21
657.99357311320921
  0
LINE
  8
_0-0_計極細
  6
CONTINUOUS
 62
    2
 10
435.76328124999492
 20
670.9935731132091
 11
430.16328124999461
 21
670.9935731132091
  0
LINE
  8
_0-1_計細線
  6
CONTINUOUS
 62
    3
 10
430.16328124999529
 20
534.9935731132091
 11
430.16328124999433
 21
685.9935731132091
  0
LINE
  8
_0-1_計細線
  6
CONTINUOUS
 62
    3
 10
418.76328124999475
 20
534.9935731132091
 11
418.76328124999372
 21
685.9935731132091
  0
LINE
  8
_0-1_計細線
  6
CONTINUOUS
 62
    3
 10
430.16328124999529
 20
534.9935731132091
 11
418.76328124999475
 21
534.9935731132091
  0
LINE
  8
_0-1_計細線
  6
CONTINUOUS
 62
    3
 10
430.16328124999433
 20
685.9935731132091
 11
418.76328124999372
 21
685.9935731132091
  0
LINE
  8
_0-0_計極細
  6
CONTINUOUS
 62
    2
 10
421.96328124999502
 20
534.9935731132091
 11
421.96328124999405
 21
685.9935731132091
  0
LINE
  8
_0-0_計極細
  6
CONTINUOUS
 62
    2
 10
426.96328124999502
 20
534.9935731132091
 11
426.96328124999405
 21
685.9935731132091
  0
LINE
  8
_0-0_計極細
  6
CONTINUOUS
 62
    2
 10
418.76328124999469
 20
549.9935731132091
 11
413.1632812499945
 21
549.9935731132091
  0
LINE
  8
_0-0_計極細
  6
CONTINUOUS
 62
    2
 10
418.76328124999469
 20
562.9935731132091
 11
413.1632812499945
 21
562.9935731132091
  0
LINE
  8
_0-0_計極細
  6
CONTINUOUS
 62
    2
 10
418.76328124999486
 20
657.99357311320921
 11
413.16328124999467
 21
657.99357311320921
  0
LINE
  8
_0-0_計極細
  6
CONTINUOUS
 62
    2
 10
418.76328124999486
 20
670.9935731132091
 11
413.16328124999467
 21
670.9935731132091
  0
LINE
  8
_0-1_計細線
  6
CONTINUOUS
 62
    3
 10
413.16328124999529
 20
534.9935731132091
 11
413.16328124999427
 21
685.9935731132091
  0
LINE
  8
_0-1_計細線
  6
CONTINUOUS
 62
    3
 10
401.7632812499948
 20
534.9935731132091
 11
401.76328124999372
 21
685.9935731132091
  0
LINE
  8
_0-1_計細線
  6
CONTINUOUS
 62
    3
 10
413.16328124999529
 20
534.9935731132091
 11
401.7632812499948
 21
534.9935731132091
  0
LINE
  8
_0-1_計細線
  6
CONTINUOUS
 62
    3
 10
413.16328124999427
 20
685.9935731132091
 11
401.76328124999372
 21
685.9935731132091
  0
LINE
  8
_0-0_計極細
  6
CONTINUOUS
 62
    2
 10
404.96328124999508
 20
534.9935731132091
 11
404.963281249994
 21
685.9935731132091
  0
LINE
  8
_0-0_計極細
  6
CONTINUOUS
 62
    2
 10
409.96328124999508
 20
534.9935731132091
 11
409.963281249994
 21
685.9935731132091
  0
LINE
  8
_0-0_計極細
  6
CONTINUOUS
 62
    2
 10
401.76328124999463
 20
549.9935731132091
 11
396.16328124999455
 21
549.9935731132091
  0
LINE
  8
_0-0_計極細
  6
CONTINUOUS
 62
    2
 10
401.76328124999463
 20
562.9935731132091
 11
396.16328124999455
 21
562.9935731132091
  0
LINE
  8
_0-0_計極細
  6
CONTINUOUS
 62
    2
 10
401.76328124999486
 20
657.99357311320921
 11
396.16328124999461
 21
657.99357311320921
  0
LINE
  8
_0-0_計極細
  6
CONTINUOUS
 62
    2
 10
401.76328124999486
 20
670.9935731132091
 11
396.16328124999461
 21
670.9935731132091
  0
LINE
  8
_0-1_計細線
  6
CONTINUOUS
 62
    3
 10
396.16328124999535
 20
534.9935731132091
 11
396.16328124999427
 21
685.9935731132091
  0
LINE
  8
_0-1_計細線
  6
CONTINUOUS
 62
    3
 10
384.76328124999475
 20
534.9935731132091
 11
384.76328124999378
 21
685.9935731132091
  0
LINE
  8
_0-1_計細線
  6
CONTINUOUS
 62
    3
 10
396.16328124999535
 20
534.9935731132091
 11
384.76328124999475
 21
534.9935731132091
  0
LINE
  8
_0-1_計細線
  6
CONTINUOUS
 62
    3
 10
396.16328124999427
 20
685.9935731132091
 11
384.76328124999378
 21
685.9935731132091
  0
LINE
  8
_0-0_計極細
  6
CONTINUOUS
 62
    2
 10
387.96328124999502
 20
534.9935731132091
 11
387.96328124999405
 21
685.9935731132091
  0
LINE
  8
_0-0_計極細
  6
CONTINUOUS
 62
    2
 10
392.96328124999502
 20
534.9935731132091
 11
392.96328124999405
 21
685.9935731132091
  0
LINE
  8
_0-0_計極細
  6
CONTINUOUS
 62
    2
 10
384.76328124999469
 20
549.9935731132091
 11
379.1632812499945
 21
549.9935731132091
  0
LINE
  8
_0-0_計極細
  6
CONTINUOUS
 62
    2
 10
384.76328124999469
 20
562.9935731132091
 11
379.1632812499945
 21
562.9935731132091
  0
LINE
  8
_0-0_計極細
  6
CONTINUOUS
 62
    2
 10
384.76328124999492
 20
657.99357311320921
 11
379.16328124999461
 21
657.99357311320921
  0
LINE
  8
_0-0_計極細
  6
CONTINUOUS
 62
    2
 10
384.76328124999492
 20
670.9935731132091
 11
379.16328124999461
 21
670.9935731132091
  0
LINE
  8
_0-1_計細線
  6
CONTINUOUS
 62
    3
 10
379.16328124999529
 20
534.9935731132091
 11
379.16328124999433
 21
685.9935731132091
  0
LINE
  8
_0-1_計細線
  6
CONTINUOUS
 62
    3
 10
367.76328124999475
 20
534.9935731132091
 11
367.76328124999372
 21
685.9935731132091
  0
LINE
  8
_0-1_計細線
  6
CONTINUOUS
 62
    3
 10
379.16328124999529
 20
534.9935731132091
 11
367.76328124999475
 21
534.9935731132091
  0
LINE
  8
_0-1_計細線
  6
CONTINUOUS
 62
    3
 10
379.16328124999433
 20
685.9935731132091
 11
367.76328124999372
 21
685.9935731132091
  0
LINE
  8
_0-0_計極細
  6
CONTINUOUS
 62
    2
 10
370.96328124999502
 20
534.9935731132091
 11
370.963281249994
 21
685.9935731132091
  0
LINE
  8
_0-0_計極細
  6
CONTINUOUS
 62
    2
 10
375.96328124999502
 20
534.9935731132091
 11
375.963281249994
 21
685.9935731132091
  0
LINE
  8
_0-0_計極細
  6
CONTINUOUS
 62
    2
 10
367.76328124999463
 20
549.9935731132091
 11
362.1632812499945
 21
549.9935731132091
  0
LINE
  8
_0-0_計極細
  6
CONTINUOUS
 62
    2
 10
367.76328124999463
 20
562.9935731132091
 11
362.1632812499945
 21
562.9935731132091
  0
LINE
  8
_0-0_計極細
  6
CONTINUOUS
 62
    2
 10
367.76328124999486
 20
657.99357311320921
 11
362.16328124999461
 21
657.99357311320921
  0
LINE
  8
_0-0_計極細
  6
CONTINUOUS
 62
    2
 10
367.76328124999486
 20
670.9935731132091
 11
362.16328124999461
 21
670.9935731132091
  0
LINE
  8
_0-1_計細線
  6
CONTINUOUS
 62
    3
 10
362.16328124999529
 20
534.9935731132091
 11
362.16328124999427
 21
685.9935731132091
  0
LINE
  8
_0-1_計細線
  6
CONTINUOUS
 62
    3
 10
350.76328124999486
 20
534.9935731132091
 11
350.76328124999372
 21
685.9935731132091
  0
LINE
  8
_0-1_計細線
  6
CONTINUOUS
 62
    3
 10
362.16328124999529
 20
534.9935731132091
 11
350.76328124999486
 21
534.9935731132091
  0
LINE
  8
_0-1_計細線
  6
CONTINUOUS
 62
    3
 10
362.16328124999427
 20
685.9935731132091
 11
350.76328124999372
 21
685.9935731132091
  0
LINE
  8
_0-0_計極細
  6
CONTINUOUS
 62
    2
 10
353.96328124999508
 20
534.9935731132091
 11
353.963281249994
 21
685.9935731132091
  0
LINE
  8
_0-0_計極細
  6
CONTINUOUS
 62
    2
 10
358.96328124999508
 20
534.9935731132091
 11
358.963281249994
 21
685.9935731132091
  0
LINE
  8
_0-0_計極細
  6
CONTINUOUS
 62
    2
 10
350.76328124999463
 20
549.9935731132091
 11
345.16328124999455
 21
549.9935731132091
  0
LINE
  8
_0-0_計極細
  6
CONTINUOUS
 62
    2
 10
350.76328124999463
 20
562.9935731132091
 11
345.16328124999455
 21
562.9935731132091
  0
LINE
  8
_0-0_計極細
  6
CONTINUOUS
 62
    2
 10
350.76328124999486
 20
657.99357311320921
 11
345.16328124999455
 21
657.99357311320921
  0
LINE
  8
_0-0_計極細
  6
CONTINUOUS
 62
    2
 10
350.76328124999486
 20
670.9935731132091
 11
345.16328124999455
 21
670.9935731132091
  0
LINE
  8
_0-1_計細線
  6
CONTINUOUS
 62
    3
 10
345.16328124999541
 20
534.9935731132091
 11
345.16328124999427
 21
685.9935731132091
  0
LINE
  8
_0-1_計細線
  6
CONTINUOUS
 62
    3
 10
333.76328124999486
 20
534.9935731132091
 11
333.76328124999372
 21
685.9935731132091
  0
LINE
  8
_0-1_計細線
  6
CONTINUOUS
 62
    3
 10
345.16328124999541
 20
534.9935731132091
 11
333.76328124999486
 21
534.9935731132091
  0
LINE
  8
_0-1_計細線
  6
CONTINUOUS
 62
    3
 10
345.16328124999427
 20
685.9935731132091
 11
333.76328124999372
 21
685.9935731132091
  0
LINE
  8
_0-0_計極細
  6
CONTINUOUS
 62
    2
 10
336.96328124999519
 20
534.9935731132091
 11
336.96328124999405
 21
685.9935731132091
  0
LINE
  8
_0-0_計極細
  6
CONTINUOUS
 62
    2
 10
341.96328124999519
 20
534.9935731132091
 11
341.96328124999405
 21
685.9935731132091
  0
LINE
  8
_0-0_計極細
  6
CONTINUOUS
 62
    2
 10
333.76328124999469
 20
549.9935731132091
 11
328.1632812499945
 21
549.9935731132091
  0
LINE
  8
_0-0_計極細
  6
CONTINUOUS
 62
    2
 10
333.76328124999469
 20
562.9935731132091
 11
328.1632812499945
 21
562.9935731132091
  0
LINE
  8
_0-0_計極細
  6
CONTINUOUS
 62
    2
 10
333.76328124999486
 20
657.99357311320921
 11
328.1632812499945
 21
657.99357311320921
  0
LINE
  8
_0-0_計極細
  6
CONTINUOUS
 62
    2
 10
333.76328124999486
 20
670.9935731132091
 11
328.1632812499945
 21
670.9935731132091
  0
LINE
  8
_0-1_計細線
  6
CONTINUOUS
 62
    3
 10
328.16328124999541
 20
534.9935731132091
 11
328.16328124999427
 21
685.9935731132091
  0
LINE
  8
_0-1_計細線
  6
CONTINUOUS
 62
    3
 10
316.76328124999486
 20
534.9935731132091
 11
316.76328124999372
 21
685.9935731132091
  0
LINE
  8
_0-1_計細線
  6
CONTINUOUS
 62
    3
 10
328.16328124999541
 20
534.9935731132091
 11
316.76328124999486
 21
534.9935731132091
  0
LINE
  8
_0-1_計細線
  6
CONTINUOUS
 62
    3
 10
328.16328124999427
 20
685.9935731132091
 11
316.76328124999372
 21
685.9935731132091
  0
LINE
  8
_0-0_計極細
  6
CONTINUOUS
 62
    2
 10
319.96328124999513
 20
534.9935731132091
 11
319.963281249994
 21
685.9935731132091
  0
LINE
  8
_0-0_計極細
  6
CONTINUOUS
 62
    2
 10
324.96328124999513
 20
534.9935731132091
 11
324.963281249994
 21
685.9935731132091
  0
LINE
  8
_0-0_計極細
  6
CONTINUOUS
 62
    2
 10
316.76328124999463
 20
549.9935731132091
 11
311.16328124999455
 21
549.9935731132091
  0
LINE
  8
_0-0_計極細
  6
CONTINUOUS
 62
    2
 10
316.76328124999463
 20
562.9935731132091
 11
311.16328124999455
 21
562.9935731132091
  0
LINE
  8
_0-0_計極細
  6
CONTINUOUS
 62
    2
 10
316.76328124999486
 20
657.99357311320921
 11
311.16328124999455
 21
657.99357311320921
  0
LINE
  8
_0-0_計極細
  6
CONTINUOUS
 62
    2
 10
316.76328124999486
 20
670.9935731132091
 11
311.16328124999455
 21
670.9935731132091
  0
LINE
  8
_0-1_計細線
  6
CONTINUOUS
 62
    3
 10
311.16328124999541
 20
534.9935731132091
 11
311.16328124999427
 21
685.9935731132091
  0
LINE
  8
_0-1_計細線
  6
CONTINUOUS
 62
    3
 10
299.76328124999486
 20
534.9935731132091
 11
299.76328124999372
 21
685.9935731132091
  0
LINE
  8
_0-1_計細線
  6
CONTINUOUS
 62
    3
 10
311.16328124999541
 20
534.9935731132091
 11
299.76328124999486
 21
534.9935731132091
  0
LINE
  8
_0-1_計細線
  6
CONTINUOUS
 62
    3
 10
311.16328124999427
 20
685.9935731132091
 11
299.76328124999372
 21
685.9935731132091
  0
LINE
  8
_0-0_計極細
  6
CONTINUOUS
 62
    2
 10
302.96328124999519
 20
534.9935731132091
 11
302.96328124999405
 21
685.9935731132091
  0
LINE
  8
_0-0_計極細
  6
CONTINUOUS
 62
    2
 10
307.96328124999519
 20
534.9935731132091
 11
307.96328124999405
 21
685.9935731132091
  0
LINE
  8
_0-0_計極細
  6
CONTINUOUS
 62
    2
 10
299.76328124999469
 20
549.9935731132091
 11
293.76328124999446
 21
549.9935731132091
  0
LINE
  8
_0-0_計極細
  6
CONTINUOUS
 62
    2
 10
299.76328124999469
 20
562.9935731132091
 11
293.76328124999446
 21
562.9935731132091
  0
LINE
  8
_0-0_計極細
  6
CONTINUOUS
 62
    2
 10
299.76328124999486
 20
657.99357311320921
 11
293.76328124999463
 21
657.99357311320921
  0
LINE
  8
_0-0_計極細
  6
CONTINUOUS
 62
    2
 10
299.76328124999486
 20
670.9935731132091
 11
293.76328124999463
 21
670.9935731132091
  0
LINE
  8
_0-1_計細線
  6
CONTINUOUS
 62
    3
 10
293.76328124999532
 20
534.9935731132091
 11
293.76328124999418
 21
685.9935731132091
  0
LINE
  8
_0-1_計細線
  6
CONTINUOUS
 62
    3
 10
282.36328124999477
 20
534.9935731132091
 11
282.36328124999363
 21
685.9935731132091
  0
LINE
  8
_0-1_計細線
  6
CONTINUOUS
 62
    3
 10
293.76328124999532
 20
534.9935731132091
 11
282.36328124999477
 21
534.9935731132091
  0
LINE
  8
_0-1_計細線
  6
CONTINUOUS
 62
    3
 10
293.76328124999418
 20
685.9935731132091
 11
282.36328124999363
 21
685.9935731132091
  0
LINE
  8
_0-0_計極細
  6
CONTINUOUS
 62
    2
 10
285.5632812499951
 20
534.9935731132091
 11
285.56328124999396
 21
685.9935731132091
  0
LINE
  8
_0-0_計極細
  6
CONTINUOUS
 62
    2
 10
290.5632812499951
 20
534.9935731132091
 11
290.56328124999396
 21
685.9935731132091
  0
LINE
  8
_0-0_計極細
  6
CONTINUOUS
 62
    2
 10
282.36328124999477
 20
549.9935731132091
 11
276.36328124999454
 21
549.9935731132091
  0
LINE
  8
_0-0_計極細
  6
CONTINUOUS
 62
    2
 10
282.36328124999477
 20
562.9935731132091
 11
276.36328124999454
 21
562.9935731132091
  0
LINE
  8
_0-0_計極細
  6
CONTINUOUS
 62
    2
 10
282.363281249995
 20
657.99357311320921
 11
276.36328124999477
 21
657.99357311320921
  0
LINE
  8
_0-0_計極細
  6
CONTINUOUS
 62
    2
 10
282.363281249995
 20
670.9935731132091
 11
276.36328124999477
 21
670.9935731132091
  0
LINE
  8
_0-1_計細線
  6
CONTINUOUS
 62
    3
 10
276.36328124999551
 20
534.9935731132091
 11
276.36328124999437
 21
685.9935731132091
  0
LINE
  8
_0-1_計細線
  6
CONTINUOUS
 62
    3
 10
264.96328124999491
 20
534.9935731132091
 11
264.96328124999377
 21
685.9935731132091
  0
LINE
  8
_0-1_計細線
  6
CONTINUOUS
 62
    3
 10
276.36328124999551
 20
534.9935731132091
 11
264.96328124999491
 21
534.9935731132091
  0
LINE
  8
_0-1_計細線
  6
CONTINUOUS
 62
    3
 10
276.36328124999437
 20
685.9935731132091
 11
264.96328124999377
 21
685.9935731132091
  0
LINE
  8
_0-0_計極細
  6
CONTINUOUS
 62
    2
 10
268.16328124999518
 20
534.9935731132091
 11
268.16328124999404
 21
685.9935731132091
  0
LINE
  8
_0-0_計極細
  6
CONTINUOUS
 62
    2
 10
273.16328124999518
 20
534.9935731132091
 11
273.16328124999404
 21
685.9935731132091
  0
LINE
  8
_0-0_計極細
  6
CONTINUOUS
 62
    2
 10
264.96328124999491
 20
549.9935731132091
 11
258.96328124999468
 21
549.9935731132091
  0
LINE
  8
_0-0_計極細
  6
CONTINUOUS
 62
    2
 10
264.96328124999491
 20
562.9935731132091
 11
258.96328124999468
 21
562.9935731132091
  0
LINE
  8
_0-0_計極細
  6
CONTINUOUS
 62
    2
 10
264.96328124999513
 20
657.99357311320921
 11
258.96328124999491
 21
657.99357311320921
  0
LINE
  8
_0-0_計極細
  6
CONTINUOUS
 62
    2
 10
264.96328124999513
 20
670.9935731132091
 11
258.96328124999491
 21
670.9935731132091
  0
LINE
  8
_0-1_計細線
  6
CONTINUOUS
 62
    3
 10
258.96328124999559
 20
534.9935731132091
 11
258.96328124999445
 21
685.9935731132091
  0
LINE
  8
_0-1_計細線
  6
CONTINUOUS
 62
    3
 10
247.56328124999504
 20
534.9935731132091
 11
247.56328124999391
 21
685.9935731132091
  0
LINE
  8
_0-1_計細線
  6
CONTINUOUS
 62
    3
 10
258.96328124999559
 20
534.9935731132091
 11
247.56328124999504
 21
534.9935731132091
  0
LINE
  8
_0-1_計細線
  6
CONTINUOUS
 62
    3
 10
258.96328124999445
 20
685.9935731132091
 11
247.56328124999391
 21
685.9935731132091
  0
LINE
  8
_0-0_計極細
  6
CONTINUOUS
 62
    2
 10
250.76328124999534
 20
534.9935731132091
 11
250.76328124999421
 21
685.9935731132091
  0
LINE
  8
_0-0_計極細
  6
CONTINUOUS
 62
    2
 10
255.76328124999534
 20
534.9935731132091
 11
255.76328124999421
 21
685.9935731132091
  0
LINE
  8
_0-0_計極細
  6
CONTINUOUS
 62
    2
 10
247.56328124999504
 20
549.9935731132091
 11
241.56328124999482
 21
549.9935731132091
  0
LINE
  8
_0-0_計極細
  6
CONTINUOUS
 62
    2
 10
247.56328124999504
 20
562.9935731132091
 11
241.56328124999482
 21
562.9935731132091
  0
LINE
  8
_0-0_計極細
  6
CONTINUOUS
 62
    2
 10
247.56328124999527
 20
657.99357311320921
 11
241.56328124999504
 21
657.99357311320921
  0
LINE
  8
_0-0_計極細
  6
CONTINUOUS
 62
    2
 10
247.56328124999527
 20
670.9935731132091
 11
241.56328124999504
 21
670.9935731132091
  0
LINE
  8
_0-1_計細線
  6
CONTINUOUS
 62
    3
 10
241.56328124999575
 20
534.9935731132091
 11
241.56328124999462
 21
685.9935731132091
  0
LINE
  8
_0-1_計細線
  6
CONTINUOUS
 62
    3
 10
230.16328124999518
 20
534.9935731132091
 11
230.16328124999404
 21
685.9935731132091
  0
LINE
  8
_0-1_計細線
  6
CONTINUOUS
 62
    3
 10
241.56328124999575
 20
534.9935731132091
 11
230.16328124999518
 21
534.9935731132091
  0
LINE
  8
_0-1_計細線
  6
CONTINUOUS
 62
    3
 10
241.56328124999462
 20
685.9935731132091
 11
230.16328124999404
 21
685.9935731132091
  0
LINE
  8
_0-0_計極細
  6
CONTINUOUS
 62
    2
 10
233.36328124999545
 20
534.9935731132091
 11
233.36328124999432
 21
685.9935731132091
  0
LINE
  8
_0-0_計極細
  6
CONTINUOUS
 62
    2
 10
238.36328124999545
 20
534.9935731132091
 11
238.36328124999432
 21
685.9935731132091
  0
LINE
  8
_0-0_計極細
  6
CENTER1
 62
    2
 10
228.23909250678597
 20
664.49357311320932
 11
1236.9211049910073
 21
664.4935731132091
  0
LINE
  8
_0-0_計極細
  6
CENTER1
 62
    2
 10
227.15469607331514
 20
556.49357311320932
 11
1236.921104991007
 21
556.4935731132091
  0
LINE
  8
_0-5_寸法線
  6
CONTINUOUS
 62
    7
 10
1260.6632812499934
 20
690.49357311320921
 11
1340.6632812499922
 21
690.49357311320921
  0
LINE
  8
_0-5_寸法線
  6
CONTINUOUS
 62
    7
 10
1335.6632812499922
 20
690.49357311320921
 11
1338.2514717010176
 21
680.83431485031838
  0
LINE
  8
_0-5_寸法線
  6
CONTINUOUS
 62
    7
 10
1335.6632812499922
 20
690.49357311320921
 11
1333.075090798967
 21
680.83431485031838
  0
LINE
  8
_0-5_寸法線
  6
CONTINUOUS
 62
    7
 10
1260.6632812499954
 20
530.4935731132075
 11
1340.6632812499925
 21
530.4935731132075
  0
LINE
  8
_0-5_寸法線
  6
CONTINUOUS
 62
    7
 10
1335.6632812499925
 20
530.4935731132075
 11
1333.0750907989673
 21
540.15283137609822
  0
LINE
  8
_0-5_寸法線
  6
CONTINUOUS
 62
    7
 10
1335.6632812499925
 20
530.4935731132075
 11
1338.2514717010176
 21
540.15283137609822
  0
LINE
  8
_0-5_寸法線
  6
CONTINUOUS
 62
    7
 10
1335.6632812499922
 20
690.49357311320921
 11
1335.6632812499925
 21
530.4935731132075
  0
TEXT
  8
_0-5_寸法線
 62
    7
 10
1335.6632812499925
 20
599.2435731132083
 40
15
 41
1
 50
90
  1
160
  0
LINE
  8
_0-1_計細線
  6
CONTINUOUS
 62
    3
 10
1132.7632812499958
 20
534.9935731132091
 11
1132.7632812499946
 21
685.99357311320932
  0
LINE
  8
_0-1_計細線
  6
CONTINUOUS
 62
    3
 10
1132.7632812499946
 20
685.99357311320932
 11
1144.1632812499952
 21
685.99357311320932
  0
LINE
  8
_0-0_計極細
  6
CONTINUOUS
 62
    2
 10
1140.9632812499963
 20
534.9935731132091
 11
1140.9632812499949
 21
685.99357311320932
  0
LINE
  8
_0-0_計極細
  6
CONTINUOUS
 62
    2
 10
1135.9632812499963
 20
534.9935731132091
 11
1135.9632812499949
 21
685.99357311320932
  0
LINE
  8
_0-1_計細線
  6
CONTINUOUS
 62
    3
 10
1144.1632812499984
 20
534.9935731132091
 11
1144.1632812499952
 21
685.99357311320932
  0
LINE
  8
_0-1_計細線
  6
CONTINUOUS
 62
    3
 10
1132.7632812499958
 20
534.9935731132091
 11
1144.1632812499984
 21
534.9935731132091
  0
LINE
  8
_0-1_計細線
  6
CONTINUOUS
 62
    3
 10
1161.163281249997
 20
534.99357311320932
 11
1161.1632812499961
 21
685.99357311320932
  0
LINE
  8
_0-1_計細線
  6
CONTINUOUS
 62
    3
 10
1149.7632812499953
 20
685.99357311320932
 11
1161.1632812499961
 21
685.99357311320932
  0
LINE
  8
_0-0_計極細
  6
CONTINUOUS
 62
    2
 10
1157.9632812499967
 20
534.9935731132091
 11
1157.9632812499956
 21
685.99357311320932
  0
LINE
  8
_0-0_計極細
  6
CONTINUOUS
 62
    2
 10
1152.9632812499967
 20
534.9935731132091
 11
1152.9632812499956
 21
685.99357311320932
  0
LINE
  8
_0-1_計細線
  6
CONTINUOUS
 62
    3
 10
1149.7632812499985
 20
534.9935731132091
 11
1149.7632812499953
 21
685.99357311320932
  0
LINE
  8
_0-1_計細線
  6
CONTINUOUS
 62
    3
 10
1149.7632812499985
 20
534.9935731132091
 11
1161.163281249997
 21
534.99357311320932
  0
LINE
  8
_0-0_計極細
  6
CONTINUOUS
 62
    2
 10
1093.1632812499938
 20
670.9935731132091
 11
1093.6132812499936
 21
670.9935731132091
  0
LINE
  8
_0-0_計極細
  6
CONTINUOUS
 62
    2
 10
1098.3132812499935
 20
670.9935731132091
 11
1098.7632812499953
 21
670.9935731132091
  0
LINE
  8
_0-0_計極細
  6
CONTINUOUS
 62
    2
 10
1093.1632812499943
 20
657.99357311320921
 11
1093.6132812499936
 21
657.99357311320921
  0
LINE
  8
_0-0_計極細
  6
CONTINUOUS
 62
    2
 10
1098.3132812499935
 20
657.99357311320921
 11
1098.7632812499953
 21
657.99357311320921
  0
LINE
  8
_0-5_寸法線
  6
CONTINUOUS
 62
    7
 10
1095.5051792517136
 20
644.98720777751328
 11
1090.5051792517136
 21
653.64746181535781
  0
LINE
  8
_0-5_寸法線
  6
CONTINUOUS
 62
    7
 10
1095.5051792517136
 20
644.98720777751328
 11
1095.5051792517136
 21
654.98720777751328
  0
LINE
  8
_0-5_寸法線
  6
CONTINUOUS
 62
    7
 10
1095.5051792517136
 20
644.98720777751328
 11
1069.9143257879825
 21
740.49357311320819
  0
LINE
  8
_0-5_寸法線
  6
CONTINUOUS
 62
    7
 10
1069.9143257879825
 20
740.49357311320819
 11
1009.9143257879825
 21
740.49357311320819
  0
TEXT
  8
_0-5_寸法線
 62
    7
 10
1009.9143257879825
 20
740.49357311320819
 40
15
 41
0.8000000000000001
 50
0
  1
取　外　具
  0
TEXT
  8
_0-5_寸法線
 62
    7
 10
1009.43511016046
 20
723.99855849580103
 40
15
 41
0.8000000000000001
 50
-0.0000000000002714
  1
(標準付属)
  0
LINE
  8
_0-7_枠細線
  6
CONTINUOUS
 62
    5
 10
1026.7379968476748
 20
757.94062900125277
 11
1019.2379968476747
 21
772.94062900125277
  0
LINE
  8
_0-7_枠細線
  6
CONTINUOUS
 62
    5
 10
1011.7379968476747
 20
757.94062900125277
 11
1026.7379968476748
 21
757.94062900125277
  0
LINE
  8
_0-7_枠細線
  6
CONTINUOUS
 62
    5
 10
1019.2379968476747
 20
772.94062900125277
 11
1011.7379968476747
 21
757.94062900125277
  0
TEXT
  8
_0-7_枠細線
 62
    5
 10
1014.1031481158228
 20
757.63362675587234
 40
12.5
 41
0.8
 50
0
  1
１
  0
LINE
  8
_0-7_枠細線
  6
CONTINUOUS
 62
    5
 10
1037.6075398748912
 20
772.94062900125277
 11
1030.1075398748912
 21
757.94062900125277
  0
LINE
  8
_0-7_枠細線
  6
CONTINUOUS
 62
    5
 10
1030.1075398748912
 20
757.94062900125277
 11
1045.1075398748912
 21
757.94062900125277
  0
LINE
  8
_0-7_枠細線
  6
CONTINUOUS
 62
    5
 10
1045.1075398748912
 20
757.94062900125277
 11
1037.6075398748912
 21
772.94062900125277
  0
TEXT
  8
_0-7_枠細線
 62
    5
 10
1032.5930319654399
 20
757.39294511107141
 40
12.5
 41
0.8
 50
0
  1
２
  0
LINE
  8
_0-7_枠細線
  6
CONTINUOUS
 62
    5
 10
1063.8215237895874
 20
757.94062900125277
 11
1056.3215237895874
 21
772.94062900125277
  0
LINE
  8
_0-7_枠細線
  6
CONTINUOUS
 62
    5
 10
1048.8215237895874
 20
757.94062900125277
 11
1063.8215237895874
 21
757.94062900125277
  0
LINE
  8
_0-7_枠細線
  6
CONTINUOUS
 62
    5
 10
1056.3215237895874
 20
772.94062900125277
 11
1048.8215237895874
 21
757.94062900125277
  0
TEXT
  8
_0-7_枠細線
 62
    5
 10
1051.1866750577356
 20
757.39294511107141
 40
12.5
 41
0.8
 50
0
  1
５
  0
LINE
  8
_0-1_計細線
  6
CONTINUOUS
 62
    3
 10
1098.3132812499932
 20
625.49357311320819
 11
1098.3132812499935
 21
678.49357311320819
  0
LINE
  8
_0-1_計細線
  6
CONTINUOUS
 62
    3
 10
1093.6132812499936
 20
678.49357311320819
 11
1093.6132812499934
 21
625.49357311320819
  0
LINE
  8
_0-1_計細線
  6
CONTINUOUS
 62
    3
 10
1093.6132812499934
 20
625.49357311320819
 11
1098.3132812499932
 21
625.49357311320819
  0
LINE
  8
_0-1_計細線
  6
CONTINUOUS
 62
    3
 10
1093.6132812499936
 20
668.49357311320819
 11
1098.3132812499935
 21
668.49357311320819
  0
LINE
  8
_0-1_計細線
  6
CONTINUOUS
 62
    3
 10
1093.6132812499936
 20
676.4935731132083
 11
1098.3132812499935
 21
676.4935731132083
  0
LINE
  8
_0-1_計細線
  6
CONTINUOUS
 62
    3
 10
1093.6132812499936
 20
678.49357311320819
 11
1098.3132812499935
 21
678.49357311320819
  0
LINE
  8
_0-1_計細線
  6
CONTINUOUS
 62
    3
 10
1093.6132812499936
 20
674.49357311320819
 11
1098.3132812499935
 21
674.49357311320819
  0
LINE
  8
_0-1_計細線
  6
CONTINUOUS
 62
    3
 10
1093.6132812499936
 20
672.49357311320819
 11
1098.3132812499935
 21
672.49357311320819
  0
LINE
  8
_0-1_計細線
  6
CONTINUOUS
 62
    3
 10
1093.6132812499936
 20
670.49357311320819
 11
1098.3132812499935
 21
670.49357311320819
  0
TEXT
  8
_0-5_寸法線
 62
    7
 10
344.51035292196758
 20
473.27598052061694
 40
15
 41
0.8000000000000001
 50
0
  1
ＧＳＬ－２０
  0
LINE
  8
_0-5_寸法線
  6
CONTINUOUS
 62
    7
 10
332.66898336450163
 20
532.46857311320946
 11
337.66898337562617
 21
523.80831908178777
  0
LINE
  8
_0-5_寸法線
  6
CONTINUOUS
 62
    7
 10
332.66898336450163
 20
532.46857311320946
 11
332.6689833773471
 21
522.46857311320946
  0
LINE
  8
_0-5_寸法線
  6
CONTINUOUS
 62
    7
 10
332.66898336450163
 20
532.46857311320946
 11
344.51035292196758
 21
488.27598052061694
  0
LINE
  8
_0-5_寸法線
  6
CONTINUOUS
 62
    7
 10
344.51035292196758
 20
488.27598052061694
 11
452.51035292196752
 21
488.27598052061694
  0
TEXT
  8
_0-5_寸法線
 62
    7
 10
344.51035292196758
 20
488.87598052061691
 40
15
 41
0.8000000000000001
 50
0
  1
ＳＵＳアングル受枠
  0
TEXT
  8
_0-5_寸法線
 62
    7
 10
481.79410521272655
 20
473.27598052061694
 40
15
 41
0.8000000000000001
 50
0
  1
ＧＲＳＪ－２０Ｗ１５１
  0
LINE
  8
_0-5_寸法線
  6
CONTINUOUS
 62
    7
 10
458.4366222232328
 20
575.44729426159165
 11
463.43662221113084
 21
566.78704021676015
  0
LINE
  8
_0-5_寸法線
  6
CONTINUOUS
 62
    7
 10
458.4366222232328
 20
575.44729426159165
 11
458.43662220925864
 21
565.44729426159165
  0
LINE
  8
_0-5_寸法線
  6
CONTINUOUS
 62
    7
 10
458.4366222232328
 20
575.44729426159165
 11
481.79410521272655
 21
488.27598052061694
  0
LINE
  8
_0-5_寸法線
  6
CONTINUOUS
 62
    7
 10
481.79410521272655
 20
488.27598052061694
 11
613.79410521272666
 21
488.27598052061694
  0
TEXT
  8
_0-5_寸法線
 62
    7
 10
481.79410521272672
 20
488.27598052061694
 40
15
 41
0.8000000000000001
 50
0
  1
セーフティグレーチング
  0
ARC
  8
_0-b_細線3
  6
CONTINUOUS
 62
    7
 10
869.85596010283177
 20
266.53633549527376
 40
1.666666666666667
 50
89.999999999999915
 51
179.99999999999983
  0
ARC
  8
_0-b_細線3
  6
CONTINUOUS
 62
    7
 10
870.63587542171058
 20
269.86966882860725
 40
1.666666666666667
 50
269.99999999999977
 51
330.00000000000301
  0
ARC
  8
_0-b_細線3
  6
CONTINUOUS
 62
    7
 10
873.52262676765872
 20
268.20300216194073
 40
1.666666666666667
 50
89.999999999999915
 51
150.00000000000134
  0
LINE
  8
_0-b_細線3
  6
CONTINUOUS
 62
    7
 10
869.85596010283177
 20
268.20300216194073
 11
870.63587542171058
 21
268.20300216194073
  0
ARC
  8
_0-b_細線3
  6
CONTINUOUS
 62
    7
 10
885.52262676581972
 20
266.53633549527376
 40
1.666666666666667
 50
0
 51
89.999999999999915
  0
ARC
  8
_0-b_細線3
  6
CONTINUOUS
 62
    7
 10
884.74271144694046
 20
269.86966882860725
 40
1.666666666666667
 50
210.00000000000404
 51
269.99999999999977
  0
ARC
  8
_0-b_細線3
  6
CONTINUOUS
 62
    7
 10
881.85596010099232
 20
268.20300216194073
 40
1.666666666666667
 50
29.999999999990862
 51
89.999999999984354
  0
LINE
  8
_0-b_細線3
  6
CONTINUOUS
 62
    7
 10
885.52262676581972
 20
268.20300216194073
 11
884.74271144694046
 21
268.20300216194073
  0
ARC
  8
_0-b_細線3
  6
CONTINUOUS
 62
    7
 10
869.02262676949817
 20
264.20300216194073
 40
0.8333333333333334
 50
179.99999999999983
 51
269.99999999999977
  0
LINE
  8
_0-b_細線3
  6
CONTINUOUS
 62
    7
 10
868.18929343616469
 20
266.53633549527376
 11
868.18929343616469
 21
264.20300216194073
  0
ARC
  8
_0-b_細線3
  6
CONTINUOUS
 62
    7
 10
886.35596009915275
 20
264.20300216194073
 40
0.8333333333333334
 50
269.99999999999977
 51
359.99999999999966
  0
LINE
  8
_0-b_細線3
  6
CONTINUOUS
 62
    7
 10
887.18929343248635
 20
266.53633549527376
 11
887.18929343248635
 21
264.20300216194073
  0
ARC
  8
_0-b_細線3
  6
CONTINUOUS
 62
    7
 10
873.18929343616469
 20
261.70300216194073
 40
1.666666666666667
 50
0
 51
89.999999999999915
  0
LINE
  8
_0-b_細線3
  6
CONTINUOUS
 62
    7
 10
873.18929343616469
 20
263.36966882860725
 11
869.02262676949817
 21
263.36966882860725
  0
ARC
  8
_0-b_細線3
  6
CONTINUOUS
 62
    7
 10
882.18929343616526
 20
261.70300216194073
 40
1.666666666666667
 50
89.999999999999915
 51
179.99999999999983
  0
LINE
  8
_0-b_細線3
  6
CONTINUOUS
 62
    7
 10
882.18929343248635
 20
263.36966882860725
 11
886.35596009915275
 21
263.36966882860725
  0
LINE
  8
_0-b_細線3
  6
CONTINUOUS
 62
    7
 10
881.85596010099232
 20
269.86966882860725
 11
873.52262676765872
 21
269.86966882860725
  0
LINE
  8
_0-b_細線3
  6
CONTINUOUS
 62
    7
 10
874.85596010099232
 20
236.53633549527376
 11
874.85596010283177
 21
261.70300216194073
  0
LINE
  8
_0-b_細線3
  6
CONTINUOUS
 62
    7
 10
880.52262676765872
 20
236.53633549527376
 11
880.52262676949863
 21
261.70300216194073
  0
LINE
  8
_0-b_細線3
  6
CONTINUOUS
 62
    7
 10
880.52262676765872
 20
236.53633549527376
 11
874.85596010099232
 21
236.53633549527376
  0
ARC
  8
_0-b_細線3
  6
CONTINUOUS
 62
    7
 10
898.85596010343477
 20
266.53633549527376
 40
1.666666666666667
 50
89.999999999999915
 51
179.99999999999983
  0
ARC
  8
_0-b_細線3
  6
CONTINUOUS
 62
    7
 10
899.63587542231369
 20
269.86966882860725
 40
1.666666666666667
 50
269.99999999999977
 51
329.99999999999523
  0
ARC
  8
_0-b_細線3
  6
CONTINUOUS
 62
    7
 10
902.52262676826172
 20
268.20300216194073
 40
1.666666666666667
 50
89.999999999999915
 51
150.00000000000915
  0
LINE
  8
_0-b_細線3
  6
CONTINUOUS
 62
    7
 10
898.85596010343477
 20
268.20300216194073
 11
899.63587542231369
 21
268.20300216194073
  0
ARC
  8
_0-b_細線3
  6
CONTINUOUS
 62
    7
 10
914.52262676642272
 20
266.53633549527376
 40
1.666666666666667
 50
0
 51
89.999999999999915
  0
ARC
  8
_0-b_細線3
  6
CONTINUOUS
 62
    7
 10
913.74271144754346
 20
269.86966882860725
 40
1.666666666666667
 50
209.99999999999622
 51
269.99999999999977
  0
ARC
  8
_0-b_細線3
  6
CONTINUOUS
 62
    7
 10
910.8559601015952
 20
268.20300216194073
 40
1.666666666666667
 50
29.999999999998682
 51
89.999999999999915
  0
LINE
  8
_0-b_細線3
  6
CONTINUOUS
 62
    7
 10
914.52262676642272
 20
268.20300216194073
 11
913.74271144754346
 21
268.20300216194073
  0
ARC
  8
_0-b_細線3
  6
CONTINUOUS
 62
    7
 10
898.02262677010162
 20
264.20300216194073
 40
0.8333333333333334
 50
179.99999999999983
 51
269.99999999999977
  0
LINE
  8
_0-b_細線3
  6
CONTINUOUS
 62
    7
 10
897.1892934367678
 20
266.53633549527376
 11
897.1892934367678
 21
264.20300216194073
  0
ARC
  8
_0-b_細線3
  6
CONTINUOUS
 62
    7
 10
915.35596009975575
 20
264.20300216194073
 40
0.8333333333333334
 50
269.99999999999977
 51
359.99999999999966
  0
LINE
  8
_0-b_細線3
  6
CONTINUOUS
 62
    7
 10
916.18929343308935
 20
266.53633549527376
 11
916.18929343308935
 21
264.20300216194073
  0
ARC
  8
_0-b_細線3
  6
CONTINUOUS
 62
    7
 10
902.1892934367678
 20
261.70300216194073
 40
1.666666666666667
 50
0
 51
89.999999999999915
  0
LINE
  8
_0-b_細線3
  6
CONTINUOUS
 62
    7
 10
902.1892934367678
 20
263.36966882860725
 11
898.02262677010162
 21
263.36966882860725
  0
ARC
  8
_0-b_細線3
  6
CONTINUOUS
 62
    7
 10
911.18929343676825
 20
261.70300216194073
 40
1.666666666666667
 50
89.999999999999915
 51
179.99999999999983
  0
LINE
  8
_0-b_細線3
  6
CONTINUOUS
 62
    7
 10
911.18929343308935
 20
263.36966882860725
 11
915.35596009975575
 21
263.36966882860725
  0
LINE
  8
_0-b_細線3
  6
CONTINUOUS
 62
    7
 10
910.8559601015952
 20
269.86966882860725
 11
902.52262676826172
 21
269.86966882860725
  0
LINE
  8
_0-b_細線3
  6
CONTINUOUS
 62
    7
 10
903.85596010159531
 20
236.53633549527376
 11
903.85596010343477
 21
261.70300216194073
  0
LINE
  8
_0-b_細線3
  6
CONTINUOUS
 62
    7
 10
909.52262676826183
 20
236.53633549527376
 11
909.52262677010162
 21
261.70300216194073
  0
LINE
  8
_0-b_細線3
  6
CONTINUOUS
 62
    7
 10
909.52262676826183
 20
236.53633549527376
 11
903.85596010159531
 21
236.53633549527376
  0
ARC
  8
_0-b_細線3
  6
CONTINUOUS
 62
    7
 10
927.85596010403765
 20
266.53633549527376
 40
1.666666666666667
 50
89.999999999999915
 51
179.99999999999983
  0
ARC
  8
_0-b_細線3
  6
CONTINUOUS
 62
    7
 10
928.63587542291668
 20
269.86966882860725
 40
1.666666666666667
 50
269.99999999999977
 51
329.99999999999523
  0
ARC
  8
_0-b_細線3
  6
CONTINUOUS
 62
    7
 10
931.52262676886482
 20
268.20300216194073
 40
1.666666666666667
 50
89.999999999999915
 51
150.00000000000915
  0
LINE
  8
_0-b_細線3
  6
CONTINUOUS
 62
    7
 10
927.85596010403765
 20
268.20300216194073
 11
928.63587542291668
 21
268.20300216194073
  0
ARC
  8
_0-b_細線3
  6
CONTINUOUS
 62
    7
 10
943.52262676702583
 20
266.53633549527376
 40
1.666666666666667
 50
0
 51
89.999999999999915
  0
ARC
  8
_0-b_細線3
  6
CONTINUOUS
 62
    7
 10
942.74271144814634
 20
269.86966882860725
 40
1.666666666666667
 50
210.00000000000404
 51
269.99999999999977
  0
ARC
  8
_0-b_細線3
  6
CONTINUOUS
 62
    7
 10
939.8559601021982
 20
268.20300216194073
 40
1.666666666666667
 50
29.999999999990862
 51
89.999999999984354
  0
LINE
  8
_0-b_細線3
  6
CONTINUOUS
 62
    7
 10
943.52262676702583
 20
268.20300216194073
 11
942.74271144814634
 21
268.20300216194073
  0
ARC
  8
_0-b_細線3
  6
CONTINUOUS
 62
    7
 10
927.02262677070416
 20
264.20300216194073
 40
0.8333333333333334
 50
179.99999999999983
 51
269.99999999999977
  0
LINE
  8
_0-b_細線3
  6
CONTINUOUS
 62
    7
 10
926.18929343737079
 20
266.53633549527376
 11
926.18929343737079
 21
264.20300216194073
  0
ARC
  8
_0-b_細線3
  6
CONTINUOUS
 62
    7
 10
944.35596010035874
 20
264.20300216194073
 40
0.8333333333333334
 50
269.99999999999977
 51
359.99999999999966
  0
LINE
  8
_0-b_細線3
  6
CONTINUOUS
 62
    7
 10
945.18929343369223
 20
266.53633549527376
 11
945.18929343369223
 21
264.20300216194073
  0
ARC
  8
_0-b_細線3
  6
CONTINUOUS
 62
    7
 10
931.18929343737079
 20
261.70300216194073
 40
1.666666666666667
 50
0
 51
89.999999999999915
  0
LINE
  8
_0-b_細線3
  6
CONTINUOUS
 62
    7
 10
931.18929343737079
 20
263.36966882860725
 11
927.02262677070416
 21
263.36966882860725
  0
ARC
  8
_0-b_細線3
  6
CONTINUOUS
 62
    7
 10
940.18929343737068
 20
261.70300216194073
 40
1.666666666666667
 50
89.999999999999915
 51
179.99999999999983
  0
LINE
  8
_0-b_細線3
  6
CONTINUOUS
 62
    7
 10
940.18929343369177
 20
263.36966882860725
 11
944.35596010035874
 21
263.36966882860725
  0
LINE
  8
_0-b_細線3
  6
CONTINUOUS
 62
    7
 10
939.8559601021982
 20
269.86966882860725
 11
931.52262676886482
 21
269.86966882860725
  0
LINE
  8
_0-b_細線3
  6
CONTINUOUS
 62
    7
 10
932.8559601021982
 20
236.53633549527376
 11
932.85596010403765
 21
261.70300216194073
  0
LINE
  8
_0-b_細線3
  6
CONTINUOUS
 62
    7
 10
938.52262676886482
 20
236.53633549527376
 11
938.52262677070473
 21
261.70300216194073
  0
LINE
  8
_0-b_細線3
  6
CONTINUOUS
 62
    7
 10
938.52262676886482
 20
236.53633549527376
 11
932.8559601021982
 21
236.53633549527376
  0
ARC
  8
_0-b_細線3
  6
CONTINUOUS
 62
    7
 10
811.85596010130882
 20
266.53633549527376
 40
1.666666666666667
 50
89.999999999999915
 51
179.99999999999983
  0
ARC
  8
_0-b_細線3
  6
CONTINUOUS
 62
    7
 10
812.63587542018763
 20
269.86966882860725
 40
1.666666666666667
 50
269.99999999999977
 51
330.00000000000301
  0
ARC
  8
_0-b_細線3
  6
CONTINUOUS
 62
    7
 10
815.52262676613577
 20
268.20300216194073
 40
1.666666666666667
 50
89.999999999999915
 51
150.00000000000134
  0
LINE
  8
_0-b_細線3
  6
CONTINUOUS
 62
    7
 10
811.85596010130882
 20
268.20300216194073
 11
812.63587542018763
 21
268.20300216194073
  0
ARC
  8
_0-b_細線3
  6
CONTINUOUS
 62
    7
 10
827.52262676429677
 20
266.53633549527376
 40
1.666666666666667
 50
0
 51
89.999999999999915
  0
ARC
  8
_0-b_細線3
  6
CONTINUOUS
 62
    7
 10
826.74271144541785
 20
269.86966882860725
 40
1.666666666666667
 50
209.99999999999622
 51
269.99999999999977
  0
ARC
  8
_0-b_細線3
  6
CONTINUOUS
 62
    7
 10
823.85596009946937
 20
268.20300216194073
 40
1.666666666666667
 50
29.999999999990862
 51
89.999999999984354
  0
LINE
  8
_0-b_細線3
  6
CONTINUOUS
 62
    7
 10
827.52262676429677
 20
268.20300216194073
 11
826.74271144541785
 21
268.20300216194073
  0
ARC
  8
_0-b_細線3
  6
CONTINUOUS
 62
    7
 10
811.02262676797579
 20
264.20300216194073
 40
0.8333333333333334
 50
179.99999999999983
 51
269.99999999999977
  0
LINE
  8
_0-b_細線3
  6
CONTINUOUS
 62
    7
 10
810.18929343464174
 20
266.53633549527376
 11
810.18929343464174
 21
264.20300216194073
  0
ARC
  8
_0-b_細線3
  6
CONTINUOUS
 62
    7
 10
828.3559600976298
 20
264.20300216194073
 40
0.8333333333333334
 50
269.99999999999977
 51
359.99999999999966
  0
LINE
  8
_0-b_細線3
  6
CONTINUOUS
 62
    7
 10
829.18929343096374
 20
266.53633549527376
 11
829.18929343096374
 21
264.20300216194073
  0
ARC
  8
_0-b_細線3
  6
CONTINUOUS
 62
    7
 10
815.18929343464174
 20
261.70300216194073
 40
1.666666666666667
 50
0
 51
89.999999999999915
  0
LINE
  8
_0-b_細線3
  6
CONTINUOUS
 62
    7
 10
815.18929343464174
 20
263.36966882860725
 11
811.02262676797579
 21
263.36966882860725
  0
ARC
  8
_0-b_細線3
  6
CONTINUOUS
 62
    7
 10
824.18929343464231
 20
261.70300216194073
 40
1.666666666666667
 50
89.999999999999915
 51
179.99999999999983
  0
LINE
  8
_0-b_細線3
  6
CONTINUOUS
 62
    7
 10
824.1892934309634
 20
263.36966882860725
 11
828.3559600976298
 21
263.36966882860725
  0
LINE
  8
_0-b_細線3
  6
CONTINUOUS
 62
    7
 10
823.85596009946937
 20
269.86966882860725
 11
815.52262676613577
 21
269.86966882860725
  0
LINE
  8
_0-b_細線3
  6
CONTINUOUS
 62
    7
 10
816.85596009946971
 20
236.53633549527376
 11
816.85596010130882
 21
261.70300216194073
  0
LINE
  8
_0-b_細線3
  6
CONTINUOUS
 62
    7
 10
822.52262676613577
 20
236.53633549527376
 11
822.52262676797568
 21
261.70300216194073
  0
LINE
  8
_0-b_細線3
  6
CONTINUOUS
 62
    7
 10
822.52262676613577
 20
236.53633549527376
 11
816.85596009946971
 21
236.53633549527376
  0
ARC
  8
_0-b_細線3
  6
CONTINUOUS
 62
    7
 10
840.85596010191182
 20
266.53633549527376
 40
1.666666666666667
 50
89.999999999999915
 51
179.99999999999983
  0
ARC
  8
_0-b_細線3
  6
CONTINUOUS
 62
    7
 10
841.63587542079108
 20
269.86966882860725
 40
1.666666666666667
 50
269.99999999999977
 51
329.99999999998744
  0
ARC
  8
_0-b_細線3
  6
CONTINUOUS
 62
    7
 10
844.52262676673877
 20
268.20300216194073
 40
1.666666666666667
 50
89.999999999999915
 51
150.00000000000915
  0
LINE
  8
_0-b_細線3
  6
CONTINUOUS
 62
    7
 10
840.85596010191182
 20
268.20300216194073
 11
841.63587542079108
 21
268.20300216194073
  0
ARC
  8
_0-b_細線3
  6
CONTINUOUS
 62
    7
 10
856.52262676489977
 20
266.53633549527376
 40
1.666666666666667
 50
0
 51
89.999999999999915
  0
ARC
  8
_0-b_細線3
  6
CONTINUOUS
 62
    7
 10
855.74271144602051
 20
269.86966882860725
 40
1.666666666666667
 50
210.00000000000404
 51
269.99999999999977
  0
ARC
  8
_0-b_細線3
  6
CONTINUOUS
 62
    7
 10
852.85596010007282
 20
268.20300216194073
 40
1.666666666666667
 50
29.999999999998682
 51
89.999999999999915
  0
LINE
  8
_0-b_細線3
  6
CONTINUOUS
 62
    7
 10
856.52262676489977
 20
268.20300216194073
 11
855.74271144602051
 21
268.20300216194073
  0
ARC
  8
_0-b_細線3
  6
CONTINUOUS
 62
    7
 10
840.02262676857868
 20
264.20300216194073
 40
0.8333333333333334
 50
179.99999999999983
 51
269.99999999999977
  0
LINE
  8
_0-b_細線3
  6
CONTINUOUS
 62
    7
 10
839.18929343524519
 20
266.53633549527376
 11
839.18929343524519
 21
264.20300216194073
  0
ARC
  8
_0-b_細線3
  6
CONTINUOUS
 62
    7
 10
857.3559600982328
 20
264.20300216194073
 40
0.8333333333333334
 50
269.99999999999977
 51
359.99999999999966
  0
LINE
  8
_0-b_細線3
  6
CONTINUOUS
 62
    7
 10
858.1892934315664
 20
266.53633549527376
 11
858.1892934315664
 21
264.20300216194073
  0
ARC
  8
_0-b_細線3
  6
CONTINUOUS
 62
    7
 10
844.18929343524519
 20
261.70300216194073
 40
1.666666666666667
 50
0
 51
89.999999999999915
  0
LINE
  8
_0-b_細線3
  6
CONTINUOUS
 62
    7
 10
844.18929343524519
 20
263.36966882860725
 11
840.02262676857868
 21
263.36966882860725
  0
ARC
  8
_0-b_細線3
  6
CONTINUOUS
 62
    7
 10
853.1892934352453
 20
261.70300216194073
 40
1.666666666666667
 50
89.999999999999915
 51
179.99999999999983
  0
LINE
  8
_0-b_細線3
  6
CONTINUOUS
 62
    7
 10
853.1892934315664
 20
263.36966882860725
 11
857.3559600982328
 21
263.36966882860725
  0
LINE
  8
_0-b_細線3
  6
CONTINUOUS
 62
    7
 10
852.85596010007282
 20
269.86966882860725
 11
844.52262676673877
 21
269.86966882860725
  0
LINE
  8
_0-b_細線3
  6
CONTINUOUS
 62
    7
 10
845.85596010007237
 20
236.53633549527376
 11
845.85596010191182
 21
261.70300216194073
  0
LINE
  8
_0-b_細線3
  6
CONTINUOUS
 62
    7
 10
851.52262676673922
 20
236.53633549527376
 11
851.52262676857868
 21
261.70300216194073
  0
LINE
  8
_0-b_細線3
  6
CONTINUOUS
 62
    7
 10
851.52262676673922
 20
236.53633549527376
 11
845.85596010007237
 21
236.53633549527376
  0
ARC
  8
_0-a_極細3
  6
CONTINUOUS
 62
    7
 10
966.51869676006186
 20
258.35638633692224
 40
17.558839598481345
 50
150.03871396148165
 51
205.23810402387883
  0
ARC
  8
_0-a_極細3
  6
CONTINUOUS
 62
    7
 10
934.75322157016376
 20
243.38287712429155
 40
17.558839598481345
 50
330.03871396148202
 51
25.238104023878222
  0
ARC
  8
_0-a_極細3
  6
CONTINUOUS
 62
    7
 10
821.59888132172796
 20
258.35638633692224
 40
17.558839598481345
 50
150.03871396148165
 51
205.23810402387883
  0
ARC
  8
_0-a_極細3
  6
CONTINUOUS
 62
    7
 10
789.83340613182986
 20
243.38287712429155
 40
17.558839598481345
 50
330.03871396148202
 51
25.238104023878222
  0
LINE
  8
_0-a_極細3
  6
CENTER1
 62
    7
 10
956.48806042462172
 20
250.86963173060713
 11
793.90951779669592
 21
250.86963173060713
  0
LINE
  8
_0-d_寸法3
  6
CONTINUOUS
 62
    7
 10
943.88081387873763
 20
242.27209985878426
 11
979.23315560442325
 21
267.02607602847502
  0
LINE
  8
_0-d_寸法3
  6
CONTINUOUS
 62
    7
 10
975.1373953829783
 20
264.15819384671977
 11
972.549204931953
 21
273.81745210961043
  0
LINE
  8
_0-d_寸法3
  6
CONTINUOUS
 62
    7
 10
975.1373953829783
 20
264.15819384671977
 11
977.72558583400337
 21
273.81745210961043
  0
LINE
  8
_0-d_寸法3
  6
CONTINUOUS
 62
    7
 10
943.88081387873763
 20
275.60543319211774
 11
979.23315560442325
 21
300.3594093618085
  0
LINE
  8
_0-d_寸法3
  6
CONTINUOUS
 62
    7
 10
975.1373953829783
 20
297.49152718005325
 11
977.72558583400337
 21
287.83226891716254
  0
LINE
  8
_0-d_寸法3
  6
CONTINUOUS
 62
    7
 10
975.1373953829783
 20
297.49152718005325
 11
972.549204931953
 21
287.83226891716259
  0
LINE
  8
_0-d_寸法3
  6
CONTINUOUS
 62
    7
 10
975.1373953829783
 20
264.15819384671977
 11
975.1373953829783
 21
297.49152718005325
  0
TEXT
  8
_0-d_寸法3
 62
    7
 10
975.1373953829783
 20
273.32486051338719
 40
15
 41
1
 50
90
  1
20
  0
LINE
  8
_0-b_細線3
  6
CONTINUOUS
 62
    7
 10
880.52262676857879
 20
240.03629839727409
 11
903.85596010191216
 21
240.03629839727409
  0
LINE
  8
_0-b_細線3
  6
CONTINUOUS
 62
    7
 10
909.52262676918167
 20
240.03629839727409
 11
932.85596010251527
 21
240.03629839727409
  0
LINE
  8
_0-b_細線3
  6
CONTINUOUS
 62
    7
 10
822.52262676705584
 20
240.03629839727409
 11
845.85596010038921
 21
240.03629839727409
  0
LINE
  8
_0-b_細線3
  6
CONTINUOUS
 62
    7
 10
851.52262676765929
 20
240.03629839727409
 11
874.85596010099232
 21
240.03629839727409
  0
LINE
  8
_0-b_細線3
  6
CONTINUOUS
 62
    7
 10
880.52262676857879
 20
261.70296506394061
 11
903.85596010191216
 21
261.70296506394061
  0
LINE
  8
_0-b_細線3
  6
CONTINUOUS
 62
    7
 10
909.52262676918167
 20
261.70296506394061
 11
932.85596010251527
 21
261.70296506394061
  0
LINE
  8
_0-b_細線3
  6
CONTINUOUS
 62
    7
 10
822.52262676705584
 20
261.70296506394061
 11
845.85596010038921
 21
261.70296506394061
  0
LINE
  8
_0-b_細線3
  6
CONTINUOUS
 62
    7
 10
851.52262676765929
 20
261.70296506394061
 11
874.85596010099232
 21
261.70296506394061
  0
LINE
  8
_0-b_細線3
  6
CONTINUOUS
 62
    7
 10
938.52262676978467
 20
261.70296506394061
 11
949.28172316058476
 21
261.70296506394061
  0
LINE
  8
_0-b_細線3
  6
CONTINUOUS
 62
    7
 10
938.52262676978467
 20
240.03629839727409
 11
951.99019516964086
 21
240.03629839727409
  0
LINE
  8
_0-b_細線3
  6
CONTINUOUS
 62
    7
 10
804.36190772225086
 20
261.70296506394061
 11
816.85596009978622
 21
261.70296506394061
  0
LINE
  8
_0-b_細線3
  6
CONTINUOUS
 62
    7
 10
807.07037973130696
 20
240.03629839727409
 11
816.85596009978622
 21
240.03629839727409
  0
TEXT
  8
_0-7_枠細線
 62
    5
 10
832.20525292576508
 20
196.2258538605478
 40
25
 41
0.8
 50
0
  1
側面詳細図
  0
LINE
  8
_0-d_寸法3
  6
CONTINUOUS
 62
    7
 10
877.68929343432569
 20
279.86966882860725
 11
877.68929343432569
 21
324.86966882860719
  0
LINE
  8
_0-d_寸法3
  6
CONTINUOUS
 62
    7
 10
877.68929343432569
 20
319.86966882860719
 11
887.34855169721641
 21
322.45785927963243
  0
LINE
  8
_0-d_寸法3
  6
CONTINUOUS
 62
    7
 10
877.68929343432569
 20
319.86966882860719
 11
887.34855169721641
 21
317.281478377582
  0
LINE
  8
_0-d_寸法3
  6
CONTINUOUS
 62
    7
 10
906.6892934349288
 20
279.86966882860725
 11
906.6892934349288
 21
324.86966882860719
  0
LINE
  8
_0-d_寸法3
  6
CONTINUOUS
 62
    7
 10
906.6892934349288
 20
319.86966882860719
 11
897.03003517203797
 21
317.281478377582
  0
LINE
  8
_0-d_寸法3
  6
CONTINUOUS
 62
    7
 10
906.6892934349288
 20
319.86966882860719
 11
897.03003517203797
 21
322.45785927963249
  0
LINE
  8
_0-d_寸法3
  6
CONTINUOUS
 62
    7
 10
877.68929343432569
 20
319.86966882860719
 11
906.6892934349288
 21
319.86966882860719
  0
TEXT
  8
_0-d_寸法3
 62
    7
 10
866.1431155246845
 20
304.86966882860719
 40
15
 41
1
 50
0
  1
(17.4)
  0
LINE
  8
_0-d_寸法3
  6
CONTINUOUS
 62
    7
 10
906.6892934349288
 20
319.86966882860719
 11
916.3485516978194
 21
322.45785927963232
  0
LINE
  8
_0-d_寸法3
  6
CONTINUOUS
 62
    7
 10
906.6892934349288
 20
319.86966882860719
 11
916.3485516978194
 21
317.28147837758195
  0
LINE
  8
_0-d_寸法3
  6
CONTINUOUS
 62
    7
 10
935.68929343553179
 20
279.86966882860725
 11
935.68929343553179
 21
324.86966882860719
  0
LINE
  8
_0-d_寸法3
  6
CONTINUOUS
 62
    7
 10
935.68929343553179
 20
319.86966882860719
 11
926.03003517264096
 21
317.281478377582
  0
LINE
  8
_0-d_寸法3
  6
CONTINUOUS
 62
    7
 10
935.68929343553179
 20
319.86966882860719
 11
926.03003517264096
 21
322.45785927963249
  0
LINE
  8
_0-d_寸法3
  6
CONTINUOUS
 62
    7
 10
906.6892934349288
 20
319.86966882860719
 11
935.68929343553179
 21
319.86966882860719
  0
TEXT
  8
_0-d_寸法3
 62
    7
 10
903.209782191351
 20
319.86966882860719
 40
15
 41
1
 50
0
  1
(17.4)
  0
LINE
  8
_0-d_寸法3
  6
CONTINUOUS
 62
    7
 10
829.18929343096374
 20
279.86966882860725
 11
829.18929343096374
 21
324.86966882860719
  0
LINE
  8
_0-d_寸法3
  6
CONTINUOUS
 62
    7
 10
829.18929343096374
 20
319.86966882860719
 11
819.53003516807314
 21
317.281478377582
  0
LINE
  8
_0-d_寸法3
  6
CONTINUOUS
 62
    7
 10
829.18929343096374
 20
319.86966882860719
 11
819.53003516807314
 21
322.45785927963249
  0
LINE
  8
_0-d_寸法3
  6
CONTINUOUS
 62
    7
 10
839.18929343096374
 20
279.86966882860725
 11
839.18929343096374
 21
324.86966882860719
  0
LINE
  8
_0-d_寸法3
  6
CONTINUOUS
 62
    7
 10
804.81533774779678
 20
319.86966882860719
 11
839.18929343096374
 21
319.86966882860719
  0
TEXT
  8
_0-d_寸法3
 62
    7
 10
804.81533774779678
 20
304.86966882860719
 40
15
 41
1
 50
0
  1
(6)
  0
LINE
  8
_0-d_寸法3
  6
CONTINUOUS
 62
    7
 10
839.18929343096374
 20
319.86966882860719
 11
848.84855169385446
 21
322.45785927963243
  0
LINE
  8
_0-d_寸法3
  6
CONTINUOUS
 62
    7
 10
839.18929343096374
 20
319.86966882860719
 11
848.84855169385446
 21
317.281478377582
  0
LINE
  8
_0-d_寸法3
  6
CONTINUOUS
 62
    7
 10
858.18929343096386
 20
279.86966882860725
 11
858.18929343096386
 21
324.86966882860719
  0
LINE
  8
_0-d_寸法3
  6
CONTINUOUS
 62
    7
 10
858.18929343096386
 20
319.86966882860719
 11
848.53003516807325
 21
317.281478377582
  0
LINE
  8
_0-d_寸法3
  6
CONTINUOUS
 62
    7
 10
858.18929343096386
 20
319.86966882860719
 11
848.53003516807325
 21
322.45785927963249
  0
LINE
  8
_0-d_寸法3
  6
CONTINUOUS
 62
    7
 10
839.18929343096374
 20
319.86966882860719
 11
858.18929343096386
 21
319.86966882860719
  0
TEXT
  8
_0-d_寸法3
 62
    7
 10
829.92459700705581
 20
319.86966882860719
 40
15
 41
1
 50
0
  1
11.4
  0
TEXT
  8
_0-7_枠細線
 62
    5
 10
947.15422267493318
 20
198.86671839474587
 40
20
 41
0.6
 50
0
  1
Ｓ＝１：３
  0
LINE
  8
_0-5_寸法線
  6
CONTINUOUS
 62
    7
 10
1300.6632812499922
 20
690.49357311320921
 11
1298.075090798967
 21
700.15283137609981
  0
LINE
  8
_0-5_寸法線
  6
CONTINUOUS
 62
    7
 10
1300.6632812499922
 20
690.49357311320921
 11
1303.2514717010176
 21
700.15283137609981
  0
LINE
  8
_0-5_寸法線
  6
CONTINUOUS
 62
    7
 10
1260.6632812499956
 20
687.4935731132091
 11
1305.6632812499922
 21
687.4935731132091
  0
CIRCLE
  8
_0-5_寸法線
  6
CONTINUOUS
 62
    1
 10
1300.6632812499922
 20
687.4935731132091
 40
1.5000000000000002
  0
LINE
  8
_0-5_寸法線
  6
CONTINUOUS
 62
    7
 10
1300.6632812499922
 20
715.49357311320921
 11
1300.6632812499922
 21
687.4935731132091
  0
TEXT
  8
_0-5_寸法線
 62
    7
 10
1300.6632812499922
 20
704.01151031319046
 40
15
 41
1
 50
90
  1
3
  0
LINE
  8
_0-5_寸法線
  6
CONTINUOUS
 62
    7
 10
1260.6632812499956
 20
685.9935731132091
 11
1305.6632812499922
 21
685.9935731132091
  0
LINE
  8
_0-5_寸法線
  6
CONTINUOUS
 62
    7
 10
1300.6632812499922
 20
687.4935731132091
 11
1300.6632812499922
 21
685.9935731132091
  0
TEXT
  8
_0-5_寸法線
 62
    7
 10
1317.1300117924545
 20
663.4935731132091
 40
15
 41
1
 50
90
  1
1.5
  0
LINE
  8
_0-5_寸法線
  6
CONTINUOUS
 62
    7
 10
1300.6632812499922
 20
685.9935731132091
 11
1303.2514717010176
 21
676.33431485031838
  0
LINE
  8
_0-5_寸法線
  6
CONTINUOUS
 62
    7
 10
1300.6632812499922
 20
685.9935731132091
 11
1298.075090798967
 21
676.33431485031838
  0
LINE
  8
_0-5_寸法線
  6
CONTINUOUS
 62
    7
 10
1260.6632812499956
 20
534.9935731132075
 11
1305.6632812499927
 21
534.9935731132075
  0
LINE
  8
_0-5_寸法線
  6
CONTINUOUS
 62
    7
 10
1300.6632812499927
 20
534.9935731132075
 11
1298.0750907989677
 21
544.65283137609822
  0
LINE
  8
_0-5_寸法線
  6
CONTINUOUS
 62
    7
 10
1300.6632812499927
 20
534.9935731132075
 11
1303.2514717010179
 21
544.65283137609822
  0
LINE
  8
_0-5_寸法線
  6
CONTINUOUS
 62
    7
 10
1300.6632812499922
 20
685.9935731132091
 11
1300.6632812499927
 21
534.9935731132075
  0
TEXT
  8
_0-5_寸法線
 62
    7
 10
1300.6632812499925
 20
599.2435731132091
 40
15
 41
1
 50
90
  1
151
  0
LINE
  8
_0-5_寸法線
  6
CONTINUOUS
 62
    7
 10
1260.6632812499956
 20
533.4935731132075
 11
1305.6632812499925
 21
533.4935731132075
  0
CIRCLE
  8
_0-5_寸法線
  6
CONTINUOUS
 62
    1
 10
1300.6632812499925
 20
533.4935731132075
 40
1.5000000000000002
  0
LINE
  8
_0-5_寸法線
  6
CONTINUOUS
 62
    7
 10
1300.6632812499927
 20
534.9935731132075
 11
1300.6632812499925
 21
533.4935731132075
  0
TEXT
  8
_0-5_寸法線
 62
    7
 10
1317.1632812499925
 20
534.9935731132075
 40
15
 41
1
 50
90
  1
1.5
  0
LINE
  8
_0-5_寸法線
  6
CONTINUOUS
 62
    7
 10
1300.6632812499925
 20
530.4935731132075
 11
1303.2514717010176
 21
520.83431485031679
  0
LINE
  8
_0-5_寸法線
  6
CONTINUOUS
 62
    7
 10
1300.6632812499925
 20
530.4935731132075
 11
1298.0750907989673
 21
520.83431485031679
  0
LINE
  8
_0-5_寸法線
  6
CONTINUOUS
 62
    7
 10
1300.6632812499925
 20
533.4935731132075
 11
1300.6632812499925
 21
505.49357311320756
  0
TEXT
  8
_0-5_寸法線
 62
    7
 10
1300.6632812499925
 20
508.34046173786129
 40
15
 41
1
 50
90
  1
3
  0
LINE
  8
_0-5_寸法線
  6
CONTINUOUS
 62
    7
 10
860.76328124999418
 20
700.49357311320921
 11
860.76328124999441
 21
745.49357311320819
  0
LINE
  8
_0-5_寸法線
  6
CONTINUOUS
 62
    7
 10
860.76328124999441
 20
740.49357311320819
 11
851.10402298710369
 21
737.905382662183
  0
LINE
  8
_0-5_寸法線
  6
CONTINUOUS
 62
    7
 10
860.76328124999441
 20
740.49357311320819
 11
851.10402298710369
 21
743.08176356423348
  0
LINE
  8
_0-5_寸法線
  6
CONTINUOUS
 62
    7
 10
872.16328124999472
 20
700.49357311320921
 11
872.16328124999495
 21
745.49357311320819
  0
CIRCLE
  8
_0-5_寸法線
  6
CONTINUOUS
 62
    1
 10
872.16328124999495
 20
740.49357311320819
 40
1.5000000000000002
  0
LINE
  8
_0-5_寸法線
  6
CONTINUOUS
 62
    7
 10
835.76328124999441
 20
740.49357311320819
 11
872.16328124999495
 21
740.49357311320819
  0
TEXT
  8
_0-5_寸法線
 62
    7
 10
838.36742571905029
 20
740.49357311320819
 40
15
 41
1
 50
0
  1
11.4
  0
LINE
  8
_0-5_寸法線
  6
CONTINUOUS
 62
    7
 10
877.76328124999418
 20
700.49357311320921
 11
877.76328124999441
 21
745.49357311320819
  0
LINE
  8
_0-5_寸法線
  6
CONTINUOUS
 62
    7
 10
877.76328124999441
 20
740.49357311320819
 11
887.42253951288501
 21
743.08176356423348
  0
LINE
  8
_0-5_寸法線
  6
CONTINUOUS
 62
    7
 10
877.76328124999441
 20
740.49357311320819
 11
887.42253951288501
 21
737.90538266218289
  0
LINE
  8
_0-5_寸法線
  6
CONTINUOUS
 62
    7
 10
872.16328124999495
 20
740.49357311320819
 11
926.20139571905554
 21
740.49357311320819
  0
TEXT
  8
_0-5_寸法線
 62
    7
 10
888.70139571905554
 20
725.49357311320819
 40
15
 41
1
 50
0
  1
6以下
  0
TEXT
  8
_0-7_枠細線
 62
    5
 10
890.16995454985135
 20
375.55454176804568
 40
15
 41
1
 50
0
  1
1.6kg/枚
  0
TEXT
  8
_0-7_枠細線
 62
    5
 10
976.41995454985135
 20
375.55454176804568
 40
15
 41
1
 50
0
  1
2.4kg/m組
  0
LINE
  8
_0-a_極細3
  6
CONTINUOUS
 62
    7
 10
246.80091985316812
 20
224.8696688286077
 11
246.80091985316812
 21
156.53633549527427
  0
LINE
  8
_0-a_極細3
  6
CONTINUOUS
 62
    7
 10
330.13425318650116
 20
156.53633549527427
 11
246.80091985316812
 21
156.53633549527427
  0
LINE
  8
_0-a_極細3
  6
CONTINUOUS
 62
    7
 10
246.80091985316812
 20
224.8696688286077
 11
215.95650604138697
 21
224.8696688286077
  0
LINE
  8
_0-a_極細3
  6
CONTINUOUS
 62
    7
 10
330.13425318650116
 20
156.53633549527427
 11
330.13425318650116
 21
130.29473520049493
  0
LINE
  8
_0-a_極細3
  6
CONTINUOUS
 62
    7
 10
292.71227862151136
 20
130.29473531693208
 11
318.95387879985446
 21
156.53633549527427
  0
LINE
  8
_0-a_極細3
  6
CONTINUOUS
 62
    7
 10
222.00160072287053
 20
130.29473553694515
 11
248.2432006811996
 21
156.53633549527427
  0
LINE
  8
_0-a_極細3
  6
CONTINUOUS
 62
    7
 10
215.95650604138697
 20
194.96031897411655
 11
245.8658558958787
 21
224.8696688286077
  0
LINE
  8
_0-a_極細3
  6
CONTINUOUS
 62
    7
 10
285.64121083164719
 20
130.29473533893315
 11
311.88281098798871
 21
156.53633549527427
  0
LINE
  8
_0-a_極細3
  6
CONTINUOUS
 62
    7
 10
215.95650604138697
 20
131.32070866732738
 11
246.80091985316812
 21
162.16512247910856
  0
LINE
  8
_0-a_極細3
  6
CONTINUOUS
 62
    7
 10
215.95650604138697
 20
202.03138678598179
 11
238.79478808401203
 21
224.8696688286077
  0
LINE
  8
_0-a_極細3
  6
CONTINUOUS
 62
    7
 10
278.57014304178307
 20
130.29473536093434
 11
304.811743176123
 21
156.53633549527427
  0
LINE
  8
_0-a_極細3
  6
CONTINUOUS
 62
    7
 10
215.95650604138697
 20
138.39177647919271
 11
246.80091985316812
 21
169.23619029097381
  0
LINE
  8
_0-a_極細3
  6
CONTINUOUS
 62
    7
 10
215.95650604138697
 20
209.1024545978471
 11
231.7237202721472
 21
224.8696688286077
  0
CIRCLE
  8
_0-a_極細3
  6
CONTINUOUS
 62
    7
 10
223.52152968702376
 20
230.11752368971202
 40
0.5530864197530718
  0
CIRCLE
  8
_0-a_極細3
  6
CONTINUOUS
 62
    7
 10
234.12893709443054
 20
231.18419035637862
 40
0.5530864197530718
  0
CIRCLE
  8
_0-a_極細3
  6
CONTINUOUS
 62
    7
 10
246.75115931665275
 20
233.1397459119344
 40
0.5530864197530718
  0
CIRCLE
  8
_0-a_極細3
  6
CONTINUOUS
 62
    7
 10
253.69560376109803
 20
225.88419035637889
 40
0.5530864197530718
  0
CIRCLE
  8
_0-a_極細3
  6
CONTINUOUS
 62
    7
 10
274.14004820554146
 20
224.63974591193391
 40
0.5530864197530718
  0
CIRCLE
  8
_0-a_極細3
  6
CONTINUOUS
 62
    7
 10
299.20671487220807
 20
220.90641257860082
 40
0.5530864197530718
  0
CIRCLE
  8
_0-a_極細3
  6
CONTINUOUS
 62
    7
 10
286.58449264998495
 20
215.21752368971192
 40
0.5530864197530718
  0
CIRCLE
  8
_0-a_極細3
  6
CONTINUOUS
 62
    7
 10
271.82893709443124
 20
201.70641257860098
 40
0.5530864197530718
  0
CIRCLE
  8
_0-a_極細3
  6
CONTINUOUS
 62
    7
 10
299.20671487220807
 20
208.99530146749021
 40
0.5530864197530718
  0
CIRCLE
  8
_0-a_極細3
  6
CONTINUOUS
 62
    7
 10
253.11782598331959
 20
195.57307924526782
 40
0.5530864197530718
  0
CIRCLE
  8
_0-a_極細3
  6
CONTINUOUS
 62
    7
 10
258.09560376109772
 20
181.88419035637892
 40
0.5530864197530718
  0
CIRCLE
  8
_0-a_極細3
  6
CONTINUOUS
 62
    7
 10
252.40671487220794
 20
163.92863480082369
 40
0.5530864197530718
  0
CIRCLE
  8
_0-a_極細3
  6
CONTINUOUS
 62
    7
 10
261.11782598331956
 20
170.68419035637916
 40
0.5530864197530718
  0
CIRCLE
  8
_0-a_極細3
  6
CONTINUOUS
 62
    7
 10
267.34004820554219
 20
162.15085702304577
 40
0.5530864197530718
  0
CIRCLE
  8
_0-a_極細3
  6
CONTINUOUS
 62
    7
 10
306.64004820554146
 20
180.03974591193497
 40
0.5530864197530718
  0
CIRCLE
  8
_0-a_極細3
  6
CONTINUOUS
 62
    7
 10
295.44004820554079
 20
174.52863480082314
 40
0.5530864197530718
  0
CIRCLE
  8
_0-a_極細3
  6
CONTINUOUS
 62
    7
 10
301.66227042776342
 20
172.039745911935
 40
0.5530864197530718
  0
CIRCLE
  8
_0-a_極細3
  6
CONTINUOUS
 62
    7
 10
298.10671487220861
 20
162.79530146749039
 40
0.5530864197530718
  0
CIRCLE
  8
_0-a_極細3
  6
CONTINUOUS
 62
    7
 10
318.01782598331926
 20
163.86196813415708
 40
0.5530864197530718
  0
CIRCLE
  8
_0-a_極細3
  6
CONTINUOUS
 62
    7
 10
330.9956037610973
 20
167.06196813415687
 40
0.5530864197530718
  0
CIRCLE
  8
_0-a_極細3
  6
CONTINUOUS
 62
    7
 10
344.68449264998526
 20
152.12863480082348
 40
0.5530864197530718
  0
CIRCLE
  8
_0-a_極細3
  6
CONTINUOUS
 62
    7
 10
337.75115931665277
 20
137.19530146749051
 40
0.5530864197530718
  0
CIRCLE
  8
_0-a_極細3
  6
CONTINUOUS
 62
    7
 10
321.0844926499858
 20
180.81011628230499
 40
0.5530864197530718
  0
CIRCLE
  8
_0-a_極細3
  6
CONTINUOUS
 62
    7
 10
335.84004820554037
 20
214.94344961563823
 40
0.5530864197530718
  0
CIRCLE
  8
_0-a_極細3
  6
CONTINUOUS
 62
    7
 10
350.95115931665168
 20
204.98789406008291
 40
0.5530864197530718
  0
CIRCLE
  8
_0-a_極細3
  6
CONTINUOUS
 62
    7
 10
351.48449264998544
 20
187.03233850452719
 40
0.5530864197530718
  0
CIRCLE
  8
_0-a_極細3
  6
CONTINUOUS
 62
    7
 10
316.24004820554183
 20
216.76567183786031
 40
0.5530864197530718
  0
CIRCLE
  8
_0-a_極細3
  6
CONTINUOUS
 62
    7
 10
293.12893709443051
 20
205.81628912181077
 40
1.825531472681392
  0
CIRCLE
  8
_0-a_極細3
  6
CONTINUOUS
 62
    7
 10
270.72893709443093
 20
215.94962245514398
 40
1.825531472681392
  0
CIRCLE
  8
_0-a_極細3
  6
CONTINUOUS
 62
    7
 10
251.12893709443057
 20
177.94962245514498
 40
1.825531472681392
  0
CIRCLE
  8
_0-a_極細3
  6
CONTINUOUS
 62
    7
 10
304.32893709442942
 20
165.14962245514477
 40
1.825531472681392
  0
CIRCLE
  8
_0-a_極細3
  6
CONTINUOUS
 62
    7
 10
340.30671487220752
 20
161.54962245514483
 40
1.825531472681392
  0
CIRCLE
  8
_0-a_極細3
  6
CONTINUOUS
 62
    7
 10
345.10671487220685
 20
142.88295578847828
 40
1.825531472681392
  0
LINE
  8
_0-a_極細3
  6
CONTINUOUS
 62
    7
 10
362.63425318650116
 20
231.53633549527424
 11
363.46758651983515
 21
231.53633549527424
  0
LINE
  8
_0-a_極細3
  6
CONTINUOUS
 62
    7
 10
363.46758651983515
 20
231.53633549527424
 11
363.46758651983515
 21
130.29473520049493
  0
CIRCLE
  8
_0-a_極細3
  6
CONTINUOUS
 62
    7
 10
356.58015237220576
 20
215.54962245514434
 40
1.825531472681392
  0
CIRCLE
  8
_0-a_極細3
  6
CONTINUOUS
 62
    7
 10
355.58819635368855
 20
160.83974591193467
 40
0.5530864197530718
  0
CIRCLE
  8
_0-a_極細3
  6
CONTINUOUS
 62
    7
 10
356.92152968702254
 20
138.18367487876509
 40
0.5530864197530718
  0
CIRCLE
  8
_0-a_極細3
  6
CONTINUOUS
 62
    7
 10
344.55115931664841
 20
196.43851134403391
 40
1.825531472681392
  0
LINE
  8
_0-a_極細3
  6
CONTINUOUS
 62
    7
 10
646.80091985316824
 20
224.8696688286077
 11
646.80091985316824
 21
156.53633549527427
  0
LINE
  8
_0-a_極細3
  6
CONTINUOUS
 62
    7
 10
563.46758651983521
 20
156.53633549527427
 11
646.80091985316824
 21
156.53633549527427
  0
LINE
  8
_0-a_極細3
  6
CONTINUOUS
 62
    7
 10
646.80091985316824
 20
224.8696688286077
 11
677.64533366494993
 21
224.8696688286077
  0
LINE
  8
_0-a_極細3
  6
CONTINUOUS
 62
    7
 10
563.46758651983521
 20
156.53633549527427
 11
563.46758651983521
 21
130.29473520049493
  0
LINE
  8
_0-a_極細3
  6
CONTINUOUS
 62
    7
 10
655.09092226776158
 20
130.29473520049493
 11
677.64533370649008
 21
152.84914663922427
  0
LINE
  8
_0-a_極細3
  6
CONTINUOUS
 62
    7
 10
584.38024414910626
 20
130.29473520049493
 11
610.62184444388561
 21
156.53633549527427
  0
LINE
  8
_0-a_極細3
  6
CONTINUOUS
 62
    7
 10
646.80091985316824
 20
192.71541090455685
 11
677.64533366570515
 21
223.55982471709379
  0
LINE
  8
_0-a_極細3
  6
CONTINUOUS
 62
    7
 10
648.01985445589639
 20
130.29473520049493
 11
677.64533370241202
 21
159.92021444701095
  0
LINE
  8
_0-a_極細3
  6
CONTINUOUS
 62
    7
 10
577.30917633724152
 20
130.29473520049493
 11
603.55077663202087
 21
156.53633549527427
  0
LINE
  8
_0-a_極細3
  6
CONTINUOUS
 62
    7
 10
646.80091985316824
 20
199.78647871642266
 11
671.88410978580328
 21
224.8696686490571
  0
LINE
  8
_0-a_極細3
  6
CONTINUOUS
 62
    7
 10
640.94878664403052
 20
130.29473520049493
 11
677.64533369833327
 21
166.99128225479768
  0
LINE
  8
_0-a_極細3
  6
CONTINUOUS
 62
    7
 10
570.23810852537656
 20
130.29473520049493
 11
596.479708820155
 21
156.53633549527427
  0
LINE
  8
_0-a_極細3
  6
CONTINUOUS
 62
    7
 10
646.80091985316824
 20
206.85754652828791
 11
664.81304202455408
 21
224.86966869967318
  0
CIRCLE
  8
_0-a_極細3
  6
CONTINUOUS
 62
    7
 10
549.87338153887333
 20
215.39067183786031
 40
0.5530864197530718
  0
CIRCLE
  8
_0-a_極細3
  6
CONTINUOUS
 62
    7
 10
559.82893709442783
 20
220.19067183786049
 40
0.5530864197530718
  0
CIRCLE
  8
_0-a_極細3
  6
CONTINUOUS
 62
    7
 10
555.74004820554012
 20
195.21289406008236
 40
0.5530864197530718
  0
CIRCLE
  8
_0-a_極細3
  6
CONTINUOUS
 62
    7
 10
573.27338153887297
 20
178.19067183786046
 40
0.5530864197530718
  0
CIRCLE
  8
_0-a_極細3
  6
CONTINUOUS
 62
    7
 10
555.44004820553914
 20
154.89067183786076
 40
0.5530864197530718
  0
CIRCLE
  8
_0-a_極細3
  6
CONTINUOUS
 62
    7
 10
546.10671487220691
 20
137.02400517119443
 40
0.5530864197530718
  0
CIRCLE
  8
_0-a_極細3
  6
CONTINUOUS
 62
    7
 10
557.57338153887224
 20
166.89067183786037
 40
0.5530864197530718
  0
CIRCLE
  8
_0-a_極細3
  6
CONTINUOUS
 62
    7
 10
571.44004820553903
 20
162.09067183786104
 40
0.5530864197530718
  0
CIRCLE
  8
_0-a_極細3
  6
CONTINUOUS
 62
    7
 10
598.37338153887242
 20
162.35733850452746
 40
0.5530864197530718
  0
CIRCLE
  8
_0-a_極細3
  6
CONTINUOUS
 62
    7
 10
586.37338153887333
 20
171.42400517119412
 40
0.5530864197530718
  0
CIRCLE
  8
_0-a_極細3
  6
CONTINUOUS
 62
    7
 10
597.57338153887224
 20
177.02400517119358
 40
0.5530864197530718
  0
CIRCLE
  8
_0-a_極細3
  6
CONTINUOUS
 62
    7
 10
585.59560376109414
 20
231.31289406008227
 40
0.5530864197530718
  0
CIRCLE
  8
_0-a_極細3
  6
CONTINUOUS
 62
    7
 10
606.12893709442699
 20
230.60178294897105
 40
0.5530864197530718
  0
CIRCLE
  8
_0-a_極細3
  6
CONTINUOUS
 62
    7
 10
594.52893709442753
 20
216.6017829489715
 40
0.5530864197530718
  0
CIRCLE
  8
_0-a_極細3
  6
CONTINUOUS
 62
    7
 10
633.72893709442735
 20
163.40178294897171
 40
0.5530864197530718
  0
CIRCLE
  8
_0-a_極細3
  6
CONTINUOUS
 62
    7
 10
640.92893709442717
 20
177.40178294897177
 40
0.5530864197530718
  0
CIRCLE
  8
_0-a_極細3
  6
CONTINUOUS
 62
    7
 10
639.32893709442772
 20
198.20178294897147
 40
0.5530864197530718
  0
CIRCLE
  8
_0-a_極細3
  6
CONTINUOUS
 62
    7
 10
618.52893709442753
 20
199.80178294897178
 40
0.5530864197530718
  0
CIRCLE
  8
_0-a_極細3
  6
CONTINUOUS
 62
    7
 10
598.92893709442808
 20
205.40178294897123
 40
0.5530864197530718
  0
CIRCLE
  8
_0-a_極細3
  6
CONTINUOUS
 62
    7
 10
621.32893709442772
 20
219.40178294897123
 40
0.5530864197530718
  0
CIRCLE
  8
_0-a_極細3
  6
CONTINUOUS
 62
    7
 10
635.32893709442772
 20
212.20178294897141
 40
0.5530864197530718
  0
CIRCLE
  8
_0-a_極細3
  6
CONTINUOUS
 62
    7
 10
664.92893709442728
 20
233.40178294897126
 40
0.5530864197530718
  0
CIRCLE
  8
_0-a_極細3
  6
CONTINUOUS
 62
    7
 10
644.48449264998294
 20
231.70517801069991
 40
1.825531472681392
  0
CIRCLE
  8
_0-a_極細3
  6
CONTINUOUS
 62
    7
 10
621.06227042776038
 20
206.28295578847795
 40
1.825531472681392
  0
CIRCLE
  8
_0-a_極細3
  6
CONTINUOUS
 62
    7
 10
550.66782598331713
 20
161.73295578847828
 40
1.825531472681392
  0
CIRCLE
  8
_0-a_極細3
  6
CONTINUOUS
 62
    7
 10
560.89004820553885
 20
191.5996224551445
 40
1.825531472681392
  0
CIRCLE
  8
_0-a_極細3
  6
CONTINUOUS
 62
    7
 10
596.09004820553866
 20
169.19962245514498
 40
1.825531472681392
  0
CIRCLE
  8
_0-a_極細3
  6
CONTINUOUS
 62
    7
 10
642.35524084082249
 20
159.01257006317522
 40
1.825531472681392
  0
CIRCLE
  8
_0-a_極細3
  6
CONTINUOUS
 62
    7
 10
591.69004820553914
 20
212.39962245514425
 40
1.825531472681392
  0
CIRCLE
  8
_0-a_極細3
  6
CONTINUOUS
 62
    7
 10
544.22399882282411
 20
206.97641704810806
 40
0.5530864197530718
  0
CIRCLE
  8
_0-a_極細3
  6
CONTINUOUS
 62
    7
 10
544.42399882282393
 20
183.02086149255274
 40
0.5530864197530718
  0
LINE
  8
_0-a_極細3
  6
CONTINUOUS
 62
    7
 10
530.96758651983441
 20
231.53633549527424
 11
530.13425318650127
 21
231.53633549527424
  0
LINE
  8
_0-a_極細3
  6
CONTINUOUS
 62
    7
 10
530.13425318650127
 20
231.53633549527424
 11
530.13425318650127
 21
130.29473520049493
  0
CIRCLE
  8
_0-a_極細3
  6
CONTINUOUS
 62
    7
 10
536.11864902858554
 20
191.4795607267493
 40
0.5530864197530718
  0
CIRCLE
  8
_0-a_極細3
  6
CONTINUOUS
 62
    7
 10
537.42523339072454
 20
152.22400517119425
 40
0.5530864197530718
  0
CIRCLE
  8
_0-a_極細3
  6
CONTINUOUS
 62
    7
 10
536.78634450183483
 20
218.17740023292257
 40
1.825531472681392
  0
CIRCLE
  8
_0-a_極細3
  6
CONTINUOUS
 62
    7
 10
539.73449264998385
 20
145.55517801069982
 40
1.825531472681392
  0
CIRCLE
  8
_0-a_極細3
  6
CONTINUOUS
 62
    7
 10
233.85239388455375
 20
240.07307924526776
 40
0.5530864197530718
  0
CIRCLE
  8
_0-a_極細3
  6
CONTINUOUS
 62
    7
 10
275.19560376109712
 20
244.87307924526704
 40
0.5530864197530718
  0
CIRCLE
  8
_0-a_極細3
  6
CONTINUOUS
 62
    7
 10
300.0844926499858
 20
254.82863480082278
 40
0.5530864197530718
  0
CIRCLE
  8
_0-a_極細3
  6
CONTINUOUS
 62
    7
 10
305.77338153887467
 20
238.65085702304532
 40
0.5530864197530718
  0
CIRCLE
  8
_0-a_極細3
  6
CONTINUOUS
 62
    7
 10
280.88449264998599
 20
238.11752368971156
 40
0.5530864197530718
  0
CIRCLE
  8
_0-a_極細3
  6
CONTINUOUS
 62
    7
 10
269.15115931665241
 20
253.05085702304495
 40
0.5530864197530718
  0
CIRCLE
  8
_0-a_極細3
  6
CONTINUOUS
 62
    7
 10
295.95115931665259
 20
238.74962245514416
 40
1.825531472681392
  0
CIRCLE
  8
_0-a_極細3
  6
CONTINUOUS
 62
    7
 10
244.18903961521755
 20
245.67923672984219
 40
1.825531472681392
  0
CIRCLE
  8
_0-a_極細3
  6
CONTINUOUS
 62
    7
 10
223.99196007413778
 20
246.57184467736627
 40
1.825531472681392
  0
CIRCLE
  8
_0-a_極細3
  6
CONTINUOUS
 62
    7
 10
588.08449264998319
 20
251.04622739341539
 40
0.5530864197530718
  0
CIRCLE
  8
_0-a_極細3
  6
CONTINUOUS
 62
    7
 10
638.1289370944271
 20
239.00178294897117
 40
0.5530864197530718
  0
CIRCLE
  8
_0-a_極細3
  6
CONTINUOUS
 62
    7
 10
660.12893709442653
 20
247.17184467736615
 40
1.825531472681392
  0
CIRCLE
  8
_0-a_極細3
  6
CONTINUOUS
 62
    7
 10
589.06227042776129
 20
238.28295578847701
 40
1.825531472681392
  0
CIRCLE
  8
_0-a_極細3
  6
CONTINUOUS
 62
    7
 10
652.12893709442699
 20
255.1351162823039
 40
0.5530864197530718
  0
CIRCLE
  8
_0-a_極細3
  6
CONTINUOUS
 62
    7
 10
621.32893709442772
 20
250.0684496156382
 40
0.5530864197530718
  0
CIRCLE
  8
_0-a_極細3
  6
CONTINUOUS
 62
    7
 10
621.46227042776093
 20
243.74962245514416
 40
1.825531472681392
  0
CIRCLE
  8
_0-a_極細3
  6
CONTINUOUS
 62
    7
 10
600.12893709442699
 20
256.06844961563729
 40
0.5530864197530718
  0
LINE
  8
_0-a_極細3
  6
CENTER1
 62
    7
 10
446.80091985316812
 20
220.35050600982458
 11
446.80091985316812
 21
283.80050600983031
  0
LINE
  8
_0-a_極細3
  6
CONTINUOUS
 62
    7
 10
305.13425318650121
 20
269.8696688286077
 11
305.13425318650121
 21
258.20300216194028
  0
LINE
  8
_0-a_極細3
  6
CONTINUOUS
 62
    7
 10
305.13425318650121
 20
269.8696688286077
 11
215.95650604138697
 21
269.8696688286077
  0
LINE
  8
_0-a_極細3
  6
CONTINUOUS
 62
    7
 10
313.46758651983509
 20
258.20300216194028
 11
215.95650604138697
 21
258.20300216194028
  0
LINE
  8
_0-a_極細3
  6
CONTINUOUS
 62
    7
 10
313.46758651983509
 20
269.8696688286077
 11
305.13425318650121
 21
269.8696688286077
  0
LINE
  8
_0-a_極細3
  6
CONTINUOUS
 62
    7
 10
313.46758651983509
 20
269.03633549527376
 11
313.46758651983509
 21
269.8696688286077
  0
LINE
  8
_0-a_極細3
  6
CONTINUOUS
 62
    7
 10
313.26949626347505
 20
258.20300216194028
 11
313.46758651983509
 21
258.40109241830032
  0
LINE
  8
_0-a_極細3
  6
CONTINUOUS
 62
    7
 10
309.02685557635596
 20
258.20300216194028
 11
313.46758651983509
 21
262.64373310541941
  0
LINE
  8
_0-a_極細3
  6
CONTINUOUS
 62
    7
 10
305.13425318650121
 20
258.55304045920548
 11
313.46758651983509
 21
266.88637379253851
  0
LINE
  8
_0-a_極細3
  6
CONTINUOUS
 62
    7
 10
305.13425318650121
 20
262.79568114632457
 11
312.20824086878383
 21
269.8696688286077
  0
LINE
  8
_0-a_極細3
  6
CONTINUOUS
 62
    7
 10
305.13425318650121
 20
267.03832183344366
 11
307.96560018166565
 21
269.8696688286077
  0
LINE
  8
_0-a_極細3
  6
CONTINUOUS
 62
    7
 10
313.46758651983509
 20
267.58870195634881
 11
311.18661964757666
 21
269.8696688286077
  0
LINE
  8
_0-a_極細3
  6
CONTINUOUS
 62
    7
 10
313.46758651983509
 20
263.34606126922927
 11
306.94397896045672
 21
269.8696688286077
  0
LINE
  8
_0-a_極細3
  6
CONTINUOUS
 62
    7
 10
305.13425318650121
 20
267.43675391544366
 11
313.46758651983509
 21
259.10342058211063
  0
LINE
  8
_0-a_極細3
  6
CONTINUOUS
 62
    7
 10
305.13425318650121
 20
263.19411322832457
 11
310.12536425288459
 21
258.20300216194028
  0
LINE
  8
_0-a_極細3
  6
CONTINUOUS
 62
    7
 10
305.13425318650121
 20
258.95147254120548
 11
305.88272356576545
 21
258.20300216194028
  0
LINE
  8
_0-a_極細3
  6
CONTINUOUS
 62
    7
 10
296.2989335088705
 20
258.20300215581346
 11
305.13425318650121
 21
267.03832183344366
  0
LINE
  8
_0-a_極細3
  6
CONTINUOUS
 62
    7
 10
275.08573005856306
 20
258.20300214110193
 11
286.75239674606928
 21
269.86966882860725
  0
LINE
  8
_0-a_極細3
  6
CONTINUOUS
 62
    7
 10
253.87252660825567
 20
258.20300212639086
 11
265.539193310472
 21
269.8696688286077
  0
LINE
  8
_0-a_極細3
  6
CONTINUOUS
 62
    7
 10
232.65932315794728
 20
258.20300211167978
 11
244.32598987487566
 21
269.8696688286077
  0
LINE
  8
_0-a_極細3
  6
CONTINUOUS
 62
    7
 10
215.95650604138697
 20
262.71338843071499
 11
223.11278643927926
 21
269.86966882860725
  0
LINE
  8
_0-a_極細3
  6
DASHED2
 62
    7
 10
285.69233178371724
 20
258.20300214845793
 11
297.35899846386747
 21
269.8696688286077
  0
LINE
  8
_0-a_極細3
  6
DASHED2
 62
    7
 10
264.47912833340894
 20
258.20300213374685
 11
276.14579502827019
 21
269.8696688286077
  0
LINE
  8
_0-a_極細3
  6
DASHED2
 62
    7
 10
243.2659248831024
 20
258.20300211903577
 11
254.93259159267296
 21
269.8696688286077
  0
LINE
  8
_0-a_極細3
  6
DASHED2
 62
    7
 10
222.05272143279402
 20
258.20300210432379
 11
233.7193881570775
 21
269.8696688286077
  0
LINE
  8
_0-a_極細3
  6
CONTINUOUS
 62
    7
 10
588.46758651983521
 20
269.8696688286077
 11
588.46758651983521
 21
258.20300216194028
  0
LINE
  8
_0-a_極細3
  6
CONTINUOUS
 62
    7
 10
588.46758651983521
 20
269.8696688286077
 11
677.64533366494993
 21
269.8696688286077
  0
LINE
  8
_0-a_極細3
  6
CONTINUOUS
 62
    7
 10
580.13425318650127
 20
258.20300216194028
 11
677.64533366494993
 21
258.20300216194028
  0
LINE
  8
_0-a_極細3
  6
CONTINUOUS
 62
    7
 10
580.13425318650127
 20
269.8696688286077
 11
588.46758651983521
 21
269.8696688286077
  0
LINE
  8
_0-a_極細3
  6
CONTINUOUS
 62
    7
 10
580.13425318650127
 20
269.03633549527376
 11
580.13425318650127
 21
269.8696688286077
  0
LINE
  8
_0-a_極細3
  6
CONTINUOUS
 62
    7
 10
588.46758651983521
 20
261.8720884426657
 11
584.79850023911069
 21
258.20300216194028
  0
LINE
  8
_0-a_極細3
  6
CONTINUOUS
 62
    7
 10
588.46758651983521
 20
266.11472912978434
 11
580.55585955199069
 21
258.20300216194028
  0
LINE
  8
_0-a_極細3
  6
CONTINUOUS
 62
    7
 10
580.13425318650127
 20
262.02403648357085
 11
587.97988553153857
 21
269.8696688286077
  0
LINE
  8
_0-a_極細3
  6
CONTINUOUS
 62
    7
 10
580.13425318650127
 20
266.26667717068995
 11
583.73724484441857
 21
269.86966882860725
  0
LINE
  8
_0-a_極細3
  6
CONTINUOUS
 62
    7
 10
588.46758651983521
 20
268.36034661910162
 11
586.95826431032958
 21
269.8696688286077
  0
LINE
  8
_0-a_極細3
  6
CONTINUOUS
 62
    7
 10
588.46758651983521
 20
264.11770593198298
 11
582.7156236232114
 21
269.8696688286077
  0
LINE
  8
_0-a_極細3
  6
CONTINUOUS
 62
    7
 10
588.46758651983521
 20
259.87506524486344
 11
580.13425318650127
 21
268.20839857819692
  0
LINE
  8
_0-a_極細3
  6
CONTINUOUS
 62
    7
 10
585.89700891563928
 20
258.20300216194028
 11
580.13425318650127
 21
263.96575789107737
  0
LINE
  8
_0-a_極細3
  6
CONTINUOUS
 62
    7
 10
581.65436822851927
 20
258.20300216194028
 11
580.13425318650127
 21
259.72311720395828
  0
LINE
  8
_0-a_極細3
  6
CONTINUOUS
 62
    7
 10
656.9233919201381
 20
258.20300216194028
 11
668.59005796001588
 21
269.86966820181897
  0
LINE
  8
_0-a_極細3
  6
CONTINUOUS
 62
    7
 10
635.71018848454162
 20
258.20300216194119
 11
647.37685469036865
 21
269.86966836776719
  0
LINE
  8
_0-a_極細3
  6
CONTINUOUS
 62
    7
 10
614.49698504894525
 20
258.20300216194028
 11
626.16365142072038
 21
269.86966853371541
  0
LINE
  8
_0-a_極細3
  6
CONTINUOUS
 62
    7
 10
593.28378161334888
 20
258.20300216194028
 11
604.95044815107224
 21
269.86966869966409
  0
LINE
  8
_0-a_極細3
  6
DASHED2
 62
    7
 10
667.52999363793617
 20
258.20300216194119
 11
677.64533366494993
 21
268.31834218895392
  0
LINE
  8
_0-a_極細3
  6
DASHED2
 62
    7
 10
646.31679020233992
 20
258.20300216194028
 11
657.9834563251917
 21
269.86966828479308
  0
LINE
  8
_0-a_極細3
  6
DASHED2
 62
    7
 10
625.10358676674343
 20
258.20300216194028
 11
636.77025305554457
 21
269.8696684507413
  0
LINE
  8
_0-a_極細3
  6
DASHED2
 62
    7
 10
603.89038333114718
 20
258.20300216194028
 11
615.55704978589631
 21
269.86966861668952
  0
LINE
  8
_0-a_極細3
  6
DASHED2
 62
    7
 10
588.46758651983521
 20
263.99340878622525
 11
594.34384651624816
 21
269.8696687826382
  0
CIRCLE
  8
_0-a_極細3
  6
CONTINUOUS
 62
    7
 10
283.64745561294882
 20
250.26073356625375
 40
1.825531472681392
  0
CIRCLE
  8
_0-a_極細3
  6
CONTINUOUS
 62
    7
 10
356.80091985316812
 20
250.8696688286077
 40
3.333333333333333
  0
CIRCLE
  8
_0-a_極細3
  6
CONTINUOUS
 62
    7
 10
536.80091985316824
 20
250.8696688286077
 40
3.333333333333333
  0
ARC
  8
_0-b_細線3
  6
CONTINUOUS
 62
    7
 10
318.46758651983509
 20
236.53633549527424
 40
4.9999999999999991
 50
179.99999999999983
 51
269.99999999999977
  0
LINE
  8
_0-b_細線3
  6
CONTINUOUS
 62
    7
 10
313.46758651983509
 20
236.53633549527424
 11
313.46758651983509
 21
269.03633549527376
  0
LINE
  8
_0-b_細線3
  6
CONTINUOUS
 62
    7
 10
318.46758651983509
 20
231.53633549527424
 11
362.63425318650116
 21
231.53633549527424
  0
LINE
  8
_0-b_細線3
  6
CONTINUOUS
 62
    7
 10
363.46758651983515
 20
232.3696688286077
 11
362.63425318650116
 21
231.53633549527424
  0
LINE
  8
_0-b_細線3
  6
CONTINUOUS
 62
    7
 10
363.46758651983515
 20
235.70300216194119
 11
363.46758651983515
 21
232.3696688286077
  0
LINE
  8
_0-b_細線3
  6
CONTINUOUS
 62
    7
 10
362.63425318650116
 20
236.53633549527424
 11
363.46758651983515
 21
235.70300216194119
  0
LINE
  8
_0-b_細線3
  6
CONTINUOUS
 62
    7
 10
318.46758651983509
 20
236.53633549527424
 11
362.63425318650116
 21
236.53633549527424
  0
LINE
  8
_0-b_細線3
  6
CONTINUOUS
 62
    7
 10
314.30091985316812
 20
269.8696688286077
 11
313.46758651983509
 21
269.03633549527376
  0
LINE
  8
_0-b_細線3
  6
CONTINUOUS
 62
    7
 10
317.63425318650121
 20
269.8696688286077
 11
314.30091985316812
 21
269.8696688286077
  0
LINE
  8
_0-b_細線3
  6
CONTINUOUS
 62
    7
 10
318.46758651983509
 20
269.03633549527376
 11
317.63425318650121
 21
269.8696688286077
  0
LINE
  8
_0-b_細線3
  6
CONTINUOUS
 62
    7
 10
318.46758651983509
 20
236.53633549527424
 11
318.46758651983509
 21
269.03633549527376
  0
ARC
  8
_0-b_細線3
  6
CONTINUOUS
 62
    7
 10
575.13425318650127
 20
236.53633549527424
 40
4.9999999999999991
 50
269.99999999999977
 51
359.99999999999966
  0
LINE
  8
_0-b_細線3
  6
CONTINUOUS
 62
    7
 10
580.13425318650127
 20
236.53633549527424
 11
580.13425318650127
 21
269.03633549527376
  0
LINE
  8
_0-b_細線3
  6
CONTINUOUS
 62
    7
 10
575.13425318650127
 20
231.53633549527424
 11
530.96758651983441
 21
231.53633549527424
  0
LINE
  8
_0-b_細線3
  6
CONTINUOUS
 62
    7
 10
530.13425318650127
 20
232.3696688286077
 11
530.96758651983441
 21
231.53633549527424
  0
LINE
  8
_0-b_細線3
  6
CONTINUOUS
 62
    7
 10
530.13425318650127
 20
235.70300216194119
 11
530.13425318650127
 21
232.3696688286077
  0
LINE
  8
_0-b_細線3
  6
CONTINUOUS
 62
    7
 10
530.96758651983441
 20
236.53633549527424
 11
530.13425318650127
 21
235.70300216194119
  0
LINE
  8
_0-b_細線3
  6
CONTINUOUS
 62
    7
 10
575.13425318650127
 20
236.53633549527424
 11
530.96758651983441
 21
236.53633549527424
  0
LINE
  8
_0-b_細線3
  6
CONTINUOUS
 62
    7
 10
579.30091985316926
 20
269.8696688286077
 11
580.13425318650127
 21
269.03633549527376
  0
LINE
  8
_0-b_細線3
  6
CONTINUOUS
 62
    7
 10
575.96758651983521
 20
269.8696688286077
 11
579.30091985316926
 21
269.8696688286077
  0
LINE
  8
_0-b_細線3
  6
CONTINUOUS
 62
    7
 10
575.13425318650127
 20
269.03633549527376
 11
575.96758651983521
 21
269.8696688286077
  0
LINE
  8
_0-b_細線3
  6
CONTINUOUS
 62
    7
 10
575.13425318650127
 20
236.53633549527424
 11
575.13425318650127
 21
269.03633549527376
  0
CIRCLE
  8
_0-b_細線3
  6
CONTINUOUS
 62
    7
 10
356.80091985316812
 20
250.8696688286077
 40
10.833333333333332
  0
LINE
  8
_0-b_細線3
  6
CONTINUOUS
 62
    7
 10
363.46758651983515
 20
250.8696688286077
 11
360.13425318650116
 21
256.64317152050353
  0
LINE
  8
_0-b_細線3
  6
CONTINUOUS
 62
    7
 10
360.13425318650116
 20
256.64317152050353
 11
353.46758651983515
 21
256.64317152050353
  0
LINE
  8
_0-b_細線3
  6
CONTINUOUS
 62
    7
 10
353.46758651983515
 20
256.64317152050353
 11
350.13425318650116
 21
250.8696688286077
  0
LINE
  8
_0-b_細線3
  6
CONTINUOUS
 62
    7
 10
350.13425318650116
 20
250.8696688286077
 11
353.46758651983515
 21
245.09616613671099
  0
LINE
  8
_0-b_細線3
  6
CONTINUOUS
 62
    7
 10
353.46758651983515
 20
245.09616613671099
 11
360.13425318650116
 21
245.09616613671099
  0
LINE
  8
_0-b_細線3
  6
CONTINUOUS
 62
    7
 10
360.13425318650116
 20
245.09616613671099
 11
363.46758651983515
 21
250.8696688286077
  0
CIRCLE
  8
_0-b_細線3
  6
CONTINUOUS
 62
    7
 10
536.80091985316824
 20
250.8696688286077
 40
10.833333333333332
  0
LINE
  8
_0-b_細線3
  6
CONTINUOUS
 62
    7
 10
530.13425318650127
 20
250.8696688286077
 11
533.46758651983521
 21
256.64317152050353
  0
LINE
  8
_0-b_細線3
  6
CONTINUOUS
 62
    7
 10
533.46758651983521
 20
256.64317152050353
 11
540.13425318650127
 21
256.64317152050353
  0
LINE
  8
_0-b_細線3
  6
CONTINUOUS
 62
    7
 10
540.13425318650127
 20
256.64317152050353
 11
543.46758651983521
 21
250.8696688286077
  0
LINE
  8
_0-b_細線3
  6
CONTINUOUS
 62
    7
 10
543.46758651983521
 20
250.8696688286077
 11
540.13425318650127
 21
245.09616613671099
  0
LINE
  8
_0-b_細線3
  6
CONTINUOUS
 62
    7
 10
540.13425318650127
 20
245.09616613671099
 11
533.46758651983521
 21
245.09616613671099
  0
LINE
  8
_0-b_細線3
  6
CONTINUOUS
 62
    7
 10
533.46758651983521
 20
245.09616613671099
 11
530.13425318650127
 21
250.8696688286077
  0
LINE
  8
_0-a_極細3
  6
CONTINUOUS
 62
    7
 10
269.82751829934983
 20
181.41803665777758
 11
264.69721614946457
 21
195.51342596956644
  0
LINE
  8
_0-a_極細3
  6
CONTINUOUS
 62
    7
 10
319.82156097314646
 20
215.57704666881227
 11
324.95186312303127
 21
201.48165735702378
  0
LINE
  8
_0-a_極細3
  6
CONTINUOUS
 62
    7
 10
264.69721614946457
 20
195.51342596956644
 11
319.82156097314646
 21
215.57704666881276
  0
LINE
  8
_0-a_極細3
  6
CONTINUOUS
 62
    7
 10
269.82751829934983
 20
181.41803665777758
 11
324.95186312303127
 21
201.48165735702378
  0
LINE
  8
_0-a_極細3
  6
CENTER1
 62
    7
 10
262.30693383241442
 20
186.66210127364238
 11
326.33795431498038
 21
209.96748675867732
  0
LINE
  8
_0-a_極細3
  6
CONTINUOUS
 62
    7
 10
288.46758651983509
 20
156.53633549527427
 11
288.46758651983509
 21
200.62189684359012
  0
LINE
  8
_0-a_極細3
  6
CONTINUOUS
 62
    7
 10
288.46758651983509
 20
200.62189684359012
 11
273.46758651983509
 21
200.62189684359012
  0
LINE
  8
_0-a_極細3
  6
CONTINUOUS
 62
    7
 10
273.46758651983509
 20
200.62189684359012
 11
273.46758651983509
 21
156.53633549527427
  0
LINE
  8
_0-a_極細3
  6
CENTER1
 62
    7
 10
280.96758651983509
 20
148.25959521082132
 11
280.96758651983509
 21
204.89761700819969
  0
LINE
  8
_0-a_極細3
  6
CONTINUOUS
 62
    7
 10
623.77432140698659
 20
181.41803665777758
 11
628.9046235568718
 21
195.51342596956644
  0
LINE
  8
_0-a_極細3
  6
CONTINUOUS
 62
    7
 10
573.78027873319047
 20
215.57704666881227
 11
568.64997658330572
 21
201.48165735702378
  0
LINE
  8
_0-a_極細3
  6
CONTINUOUS
 62
    7
 10
628.9046235568718
 20
195.51342596956644
 11
573.78027873319047
 21
215.57704666881276
  0
LINE
  8
_0-a_極細3
  6
CONTINUOUS
 62
    7
 10
623.77432140698659
 20
181.41803665777758
 11
568.64997658330572
 21
201.48165735702378
  0
LINE
  8
_0-a_極細3
  6
CENTER1
 62
    7
 10
631.29490587392195
 20
186.66210127364238
 11
567.26388539135633
 21
209.96748675867732
  0
LINE
  8
_0-a_極細3
  6
CONTINUOUS
 62
    7
 10
605.13425318650127
 20
156.53633549527427
 11
605.13425318650127
 21
200.62189684359012
  0
LINE
  8
_0-a_極細3
  6
CONTINUOUS
 62
    7
 10
605.13425318650127
 20
200.62189684359012
 11
620.13425318650127
 21
200.62189684359012
  0
LINE
  8
_0-a_極細3
  6
CONTINUOUS
 62
    7
 10
620.13425318650127
 20
200.62189684359012
 11
620.13425318650127
 21
156.53633549527427
  0
LINE
  8
_0-a_極細3
  6
CENTER1
 62
    7
 10
612.63425318650127
 20
148.25959521082132
 11
612.63425318650127
 21
204.89761700819969
  0
LINE
  8
_0-d_寸法3
  6
CONTINUOUS
 62
    7
 10
438.60939941027823
 20
242.27209985878471
 11
403.25705768459272
 21
267.02607602847547
  0
LINE
  8
_0-d_寸法3
  6
CONTINUOUS
 62
    7
 10
407.35281790603773
 20
264.15819384672022
 11
404.76462745501249
 21
273.81745210961088
  0
LINE
  8
_0-d_寸法3
  6
CONTINUOUS
 62
    7
 10
407.35281790603773
 20
264.15819384672022
 11
409.94100835706291
 21
273.81745210961088
  0
LINE
  8
_0-d_寸法3
  6
CONTINUOUS
 62
    7
 10
438.60939941027823
 20
275.6054331921182
 11
403.25705768459272
 21
300.35940936180896
  0
LINE
  8
_0-d_寸法3
  6
CONTINUOUS
 62
    7
 10
407.35281790603773
 20
297.49152718005371
 11
409.94100835706291
 21
287.83226891716299
  0
LINE
  8
_0-d_寸法3
  6
CONTINUOUS
 62
    7
 10
407.35281790603773
 20
297.49152718005371
 11
404.76462745501243
 21
287.83226891716305
  0
LINE
  8
_0-d_寸法3
  6
CONTINUOUS
 62
    7
 10
407.35281790603773
 20
264.15819384672022
 11
407.35281790603773
 21
297.49152718005371
  0
TEXT
  8
_0-d_寸法3
 62
    7
 10
407.35281790603773
 20
273.32486051338674
 40
15
 41
1
 50
90
  1
20
  0
LINE
  8
_0-b_細線3
  6
CONTINUOUS
 62
    7
 10
313.46758651983509
 20
251.53633549527424
 11
313.46758651983509
 21
193.20300216194099
  0
LINE
  8
_0-b_細線3
  6
CONTINUOUS
 62
    7
 10
313.46758651983509
 20
193.20300216194099
 11
309.63425318650184
 21
193.20300216194099
  0
LINE
  8
_0-b_細線3
  6
CONTINUOUS
 62
    7
 10
309.63425318650184
 20
193.20300216194099
 11
309.63425318650184
 21
251.53633549527424
  0
LINE
  8
_0-b_細線3
  6
CONTINUOUS
 62
    7
 10
309.63425318650184
 20
251.53633549527424
 11
313.46758651983509
 21
251.53633549527424
  0
LINE
  8
_0-a_極細3
  6
CONTINUOUS
 62
    7
 10
309.63425318650184
 20
224.86966882860759
 11
313.46758651983509
 21
224.86966882860759
  0
LINE
  8
_0-a_極細3
  6
CONTINUOUS
 62
    7
 10
309.63425318650184
 20
228.20300216194099
 11
313.46758651983509
 21
228.20300216194099
  0
LINE
  8
_0-a_極細3
  6
CONTINUOUS
 62
    7
 10
309.63425318650184
 20
221.53633549527424
 11
313.46758651983509
 21
221.53633549527424
  0
LINE
  8
_0-a_極細3
  6
CONTINUOUS
 62
    7
 10
309.63425318650184
 20
231.53633549527424
 11
313.46758651983509
 21
231.53633549527424
  0
LINE
  8
_0-a_極細3
  6
CONTINUOUS
 62
    7
 10
313.46758651983509
 20
198.20300216194099
 11
309.63425318650184
 21
198.20300216194099
  0
LINE
  8
_0-a_極細3
  6
CONTINUOUS
 62
    7
 10
309.63425318650184
 20
248.20300216194099
 11
313.46758651983509
 21
248.20300216194099
  0
LINE
  8
_0-b_細線3
  6
CONTINUOUS
 62
    7
 10
580.1342531865015
 20
251.53633549527424
 11
580.1342531865015
 21
193.20300216194099
  0
LINE
  8
_0-b_細線3
  6
CONTINUOUS
 62
    7
 10
580.1342531865015
 20
193.20300216194099
 11
583.96758651983487
 21
193.20300216194099
  0
LINE
  8
_0-b_細線3
  6
CONTINUOUS
 62
    7
 10
583.96758651983487
 20
193.20300216194099
 11
583.96758651983487
 21
251.53633549527424
  0
LINE
  8
_0-b_細線3
  6
CONTINUOUS
 62
    7
 10
583.96758651983487
 20
251.53633549527424
 11
580.1342531865015
 21
251.53633549527424
  0
LINE
  8
_0-a_極細3
  6
CONTINUOUS
 62
    7
 10
583.96758651983487
 20
224.86966882860759
 11
580.1342531865015
 21
224.86966882860759
  0
LINE
  8
_0-a_極細3
  6
CONTINUOUS
 62
    7
 10
583.96758651983487
 20
228.20300216194099
 11
580.1342531865015
 21
228.20300216194099
  0
LINE
  8
_0-a_極細3
  6
CONTINUOUS
 62
    7
 10
583.96758651983487
 20
221.53633549527424
 11
580.1342531865015
 21
221.53633549527424
  0
LINE
  8
_0-a_極細3
  6
CONTINUOUS
 62
    7
 10
583.96758651983487
 20
231.53633549527424
 11
580.1342531865015
 21
231.53633549527424
  0
LINE
  8
_0-a_極細3
  6
CONTINUOUS
 62
    7
 10
580.1342531865015
 20
198.20300216194099
 11
583.96758651983487
 21
198.20300216194099
  0
LINE
  8
_0-a_極細3
  6
CONTINUOUS
 62
    7
 10
583.96758651983487
 20
248.20300216194099
 11
580.1342531865015
 21
248.20300216194099
  0
LINE
  8
_0-7_枠細線
  6
CONTINUOUS
 62
    5
 10
601.89830336045713
 20
240.8696572952141
 11
594.39830336045713
 21
255.8696572952141
  0
LINE
  8
_0-7_枠細線
  6
CONTINUOUS
 62
    5
 10
586.89830336045713
 20
240.8696572952141
 11
601.89830336045713
 21
240.8696572952141
  0
LINE
  8
_0-7_枠細線
  6
CONTINUOUS
 62
    5
 10
594.39830336045713
 20
255.8696572952141
 11
586.89830336045713
 21
240.8696572952141
  0
TEXT
  8
_0-7_枠細線
 62
    5
 10
589.26345462860525
 20
239.92083733036421
 40
12.5
 41
0.8
 50
0
  1
４
  0
LINE
  8
_0-d_寸法3
  6
CONTINUOUS
 62
    7
 10
313.46758651983509
 20
274.8696688286077
 11
313.46758651983509
 21
359.86966882860725
  0
LINE
  8
_0-d_寸法3
  6
CONTINUOUS
 62
    7
 10
313.46758651983509
 20
354.86966882860725
 11
323.12684478272581
 21
357.45785927963249
  0
LINE
  8
_0-d_寸法3
  6
CONTINUOUS
 62
    7
 10
313.46758651983509
 20
354.86966882860725
 11
323.12684478272581
 21
352.28147837758206
  0
LINE
  8
_0-d_寸法3
  6
CONTINUOUS
 62
    7
 10
580.13425318650218
 20
274.8696688286077
 11
580.13425318650218
 21
359.86966882860725
  0
LINE
  8
_0-d_寸法3
  6
CONTINUOUS
 62
    7
 10
580.13425318650218
 20
354.86966882860725
 11
570.47499492361146
 21
352.28147837758206
  0
LINE
  8
_0-d_寸法3
  6
CONTINUOUS
 62
    7
 10
580.13425318650218
 20
354.86966882860725
 11
570.47499492361146
 21
357.45785927963249
  0
LINE
  8
_0-d_寸法3
  6
CONTINUOUS
 62
    7
 10
313.46758651983509
 20
354.86966882860725
 11
580.13425318650218
 21
354.86966882860725
  0
TEXT
  8
_0-d_寸法3
 62
    7
 10
435.55091985316903
 20
354.86966882860725
 40
15
 41
1
 50
0
  1
160
  0
LINE
  8
_0-d_寸法3
  6
CONTINUOUS
 62
    7
 10
299.63425318650184
 20
231.53633549527399
 11
254.63425318650172
 21
231.53633549527299
  0
LINE
  8
_0-d_寸法3
  6
CONTINUOUS
 62
    7
 10
259.63425318650172
 20
231.53633549527311
 11
262.22244363752691
 21
221.87707723238242
  0
LINE
  8
_0-d_寸法3
  6
CONTINUOUS
 62
    7
 10
259.63425318650172
 20
231.53633549527311
 11
257.04606273547654
 21
221.87707723238245
  0
LINE
  8
_0-d_寸法3
  6
CONTINUOUS
 62
    7
 10
299.63425318650184
 20
193.2030021619407
 11
254.63425318650266
 21
193.20300216193976
  0
LINE
  8
_0-d_寸法3
  6
CONTINUOUS
 62
    7
 10
259.63425318650263
 20
193.20300216193985
 11
257.04606273547745
 21
202.86226042483059
  0
LINE
  8
_0-d_寸法3
  6
CONTINUOUS
 62
    7
 10
259.63425318650263
 20
193.20300216193985
 11
262.22244363752793
 21
202.86226042483059
  0
LINE
  8
_0-d_寸法3
  6
CONTINUOUS
 62
    7
 10
259.63425318650172
 20
231.53633549527311
 11
259.63425318650263
 21
193.20300216193985
  0
TEXT
  8
_0-d_寸法3
 62
    7
 10
259.63425318650263
 20
204.8696688286077
 40
15
 41
1
 50
90
  1
23
  0
LINE
  8
_0-d_寸法3
  6
CONTINUOUS
 62
    7
 10
303.46758651983509
 20
269.86966882860776
 11
254.63425318650181
 21
269.8696688286077
  0
LINE
  8
_0-d_寸法3
  6
CONTINUOUS
 62
    7
 10
259.63425318650184
 20
269.8696688286077
 11
262.22244363752691
 21
260.21041056571698
  0
LINE
  8
_0-d_寸法3
  6
CONTINUOUS
 62
    7
 10
259.63425318650184
 20
269.8696688286077
 11
257.04606273547654
 21
260.21041056571704
  0
LINE
  8
_0-d_寸法3
  6
CONTINUOUS
 62
    7
 10
299.63425318650184
 20
231.53633549527427
 11
254.63425318650181
 21
231.53633549527427
  0
LINE
  8
_0-d_寸法3
  6
CONTINUOUS
 62
    7
 10
259.63425318650184
 20
231.53633549527424
 11
257.04606273547654
 21
241.19559375816493
  0
LINE
  8
_0-d_寸法3
  6
CONTINUOUS
 62
    7
 10
259.63425318650184
 20
231.53633549527424
 11
262.22244363752691
 21
241.19559375816493
  0
LINE
  8
_0-d_寸法3
  6
CONTINUOUS
 62
    7
 10
259.63425318650184
 20
269.8696688286077
 11
259.63425318650184
 21
231.53633549527424
  0
TEXT
  8
_0-d_寸法3
 62
    7
 10
259.63425318650184
 20
243.20300216194119
 40
15
 41
1
 50
90
  1
23
  0
LINE
  8
_0-d_寸法3
  6
CONTINUOUS
 62
    7
 10
580.1342531865015
 20
183.20300216194099
 11
580.1342531865015
 21
174.39164359436887
  0
LINE
  8
_0-d_寸法3
  6
CONTINUOUS
 62
    7
 10
580.1342531865015
 20
179.39164359436887
 11
570.47499492361089
 21
176.8034531433436
  0
LINE
  8
_0-d_寸法3
  6
CONTINUOUS
 62
    7
 10
580.1342531865015
 20
179.39164359436887
 11
570.47499492361089
 21
181.97983404539406
  0
LINE
  8
_0-d_寸法3
  6
CONTINUOUS
 62
    7
 10
530.13425318650218
 20
221.53633549527424
 11
530.13425318650206
 21
174.39164359436887
  0
LINE
  8
_0-d_寸法3
  6
CONTINUOUS
 62
    7
 10
530.13425318650206
 20
179.39164359436887
 11
539.79351144939278
 21
181.97983404539414
  0
LINE
  8
_0-d_寸法3
  6
CONTINUOUS
 62
    7
 10
530.13425318650206
 20
179.39164359436887
 11
539.79351144939278
 21
176.80345314334369
  0
LINE
  8
_0-d_寸法3
  6
CONTINUOUS
 62
    7
 10
580.1342531865015
 20
179.39164359436887
 11
530.13425318650206
 21
179.39164359436887
  0
TEXT
  8
_0-d_寸法3
 62
    7
 10
547.63425318650241
 20
179.39164359436887
 40
15
 41
1
 50
0
  1
30
  0
LINE
  8
_0-d_寸法3
  6
CONTINUOUS
 62
    7
 10
363.46758651983515
 20
226.53633549527424
 11
363.46758651983509
 21
174.39164359436887
  0
LINE
  8
_0-d_寸法3
  6
CONTINUOUS
 62
    7
 10
363.46758651983509
 20
179.39164359436887
 11
373.1268447827257
 21
181.97983404539406
  0
LINE
  8
_0-d_寸法3
  6
CONTINUOUS
 62
    7
 10
363.46758651983509
 20
179.39164359436887
 11
373.1268447827257
 21
176.8034531433436
  0
LINE
  8
_0-d_寸法3
  6
CONTINUOUS
 62
    7
 10
530.13425318650218
 20
226.53633549527424
 11
530.13425318650206
 21
174.39164359436887
  0
LINE
  8
_0-d_寸法3
  6
CONTINUOUS
 62
    7
 10
530.13425318650206
 20
179.39164359436887
 11
520.47499492361135
 21
176.80345314334369
  0
LINE
  8
_0-d_寸法3
  6
CONTINUOUS
 62
    7
 10
530.13425318650206
 20
179.39164359436887
 11
520.47499492361135
 21
181.97983404539414
  0
LINE
  8
_0-d_寸法3
  6
CONTINUOUS
 62
    7
 10
363.46758651983509
 20
179.39164359436887
 11
530.13425318650206
 21
179.39164359436887
  0
TEXT
  8
_0-d_寸法3
 62
    7
 10
435.55091985316915
 20
179.39164359436887
 40
15
 41
1
 50
0
  1
100
  0
LINE
  8
_0-d_寸法3
  6
CONTINUOUS
 62
    7
 10
313.46758651983509
 20
183.20300216194099
 11
313.46758651983509
 21
174.39164359436887
  0
LINE
  8
_0-d_寸法3
  6
CONTINUOUS
 62
    7
 10
313.46758651983509
 20
179.39164359436887
 11
323.12684478272581
 21
181.97983404539406
  0
LINE
  8
_0-d_寸法3
  6
CONTINUOUS
 62
    7
 10
313.46758651983509
 20
179.39164359436887
 11
323.12684478272581
 21
176.8034531433436
  0
LINE
  8
_0-d_寸法3
  6
CONTINUOUS
 62
    7
 10
363.46758651983515
 20
221.53633549527424
 11
363.46758651983509
 21
174.39164359436887
  0
LINE
  8
_0-d_寸法3
  6
CONTINUOUS
 62
    7
 10
363.46758651983509
 20
179.39164359436887
 11
353.80832825694432
 21
176.80345314334369
  0
LINE
  8
_0-d_寸法3
  6
CONTINUOUS
 62
    7
 10
363.46758651983509
 20
179.39164359436887
 11
353.80832825694438
 21
181.97983404539414
  0
LINE
  8
_0-d_寸法3
  6
CONTINUOUS
 62
    7
 10
313.46758651983509
 20
179.39164359436887
 11
363.46758651983509
 21
179.39164359436887
  0
TEXT
  8
_0-d_寸法3
 62
    7
 10
330.96758651983515
 20
179.39164359436887
 40
15
 41
1
 50
0
  1
30
  0
TEXT
  8
_0-7_枠細線
 62
    5
 10
396.8788722139343
 20
94.869303826929325
 40
25
 41
0.8
 50
0
  1
断面詳細図
  0
TEXT
  8
_0-7_枠細線
 62
    5
 10
511.82784196310223
 20
97.481147871740603
 40
20
 41
0.6
 50
0
  1
Ｓ＝１：３
  0
LINE
  8
_0-d_寸法3
  6
CONTINUOUS
 62
    7
 10
313.46758651983509
 20
274.8696688286077
 11
313.46758651983521
 21
324.8696688286077
  0
LINE
  8
_0-d_寸法3
  6
CONTINUOUS
 62
    7
 10
313.46758651983521
 20
319.8696688286077
 11
303.80832825694438
 21
317.28147837758252
  0
LINE
  8
_0-d_寸法3
  6
CONTINUOUS
 62
    7
 10
313.46758651983521
 20
319.8696688286077
 11
303.80832825694455
 21
322.457859279633
  0
LINE
  8
_0-d_寸法3
  6
CONTINUOUS
 62
    7
 10
318.46758651983509
 20
274.8696688286077
 11
318.46758651983521
 21
324.8696688286077
  0
CIRCLE
  8
_0-d_寸法3
  6
CONTINUOUS
 62
    1
 10
318.46758651983521
 20
319.8696688286077
 40
1.5000000000000002
  0
LINE
  8
_0-d_寸法3
  6
CONTINUOUS
 62
    7
 10
288.46758651983521
 20
319.8696688286077
 11
318.46758651983521
 21
319.8696688286077
  0
TEXT
  8
_0-d_寸法3
 62
    7
 10
292.93613649764018
 20
319.8696688286077
 40
15
 41
1
 50
0
  1
3
  0
LINE
  8
_0-d_寸法3
  6
CONTINUOUS
 62
    7
 10
320.96758651983515
 20
274.86966882860725
 11
320.96758651983515
 21
324.8696688286077
  0
LINE
  8
_0-d_寸法3
  6
CONTINUOUS
 62
    7
 10
318.46758651983521
 20
319.8696688286077
 11
320.96758651983515
 21
319.8696688286077
  0
TEXT
  8
_0-d_寸法3
 62
    7
 10
322.4563310731117
 20
303.59552873101501
 40
15
 41
1
 50
0
  1
1.5
  0
LINE
  8
_0-d_寸法3
  6
CONTINUOUS
 62
    7
 10
320.96758651983515
 20
319.8696688286077
 11
330.62684478272581
 21
322.45785927963288
  0
LINE
  8
_0-d_寸法3
  6
CONTINUOUS
 62
    7
 10
320.96758651983515
 20
319.8696688286077
 11
330.62684478272581
 21
317.28147837758252
  0
LINE
  8
_0-d_寸法3
  6
CONTINUOUS
 62
    7
 10
572.63425318650127
 20
274.86966882860725
 11
572.63425318650138
 21
324.8696688286077
  0
LINE
  8
_0-d_寸法3
  6
CONTINUOUS
 62
    7
 10
572.63425318650138
 20
319.8696688286077
 11
562.97499492361067
 21
317.28147837758252
  0
LINE
  8
_0-d_寸法3
  6
CONTINUOUS
 62
    7
 10
572.63425318650138
 20
319.8696688286077
 11
562.97499492361067
 21
322.457859279633
  0
LINE
  8
_0-d_寸法3
  6
CONTINUOUS
 62
    7
 10
320.96758651983515
 20
319.8696688286077
 11
572.63425318650138
 21
319.8696688286077
  0
TEXT
  8
_0-d_寸法3
 62
    7
 10
435.5509198531683
 20
319.8696688286077
 40
15
 41
1
 50
0
  1
151
  0
LINE
  8
_0-d_寸法3
  6
CONTINUOUS
 62
    7
 10
575.13425318650184
 20
274.8696688286077
 11
575.13425318650195
 21
324.8696688286077
  0
CIRCLE
  8
_0-d_寸法3
  6
CONTINUOUS
 62
    1
 10
575.13425318650195
 20
319.8696688286077
 40
1.5000000000000002
  0
LINE
  8
_0-d_寸法3
  6
CONTINUOUS
 62
    7
 10
572.63425318650138
 20
319.8696688286077
 11
575.13425318650195
 21
319.8696688286077
  0
TEXT
  8
_0-d_寸法3
 62
    7
 10
547.63653449292417
 20
302.40928167912796
 40
15
 41
1
 50
0
  1
1.5
  0
LINE
  8
_0-d_寸法3
  6
CONTINUOUS
 62
    7
 10
580.13425318650127
 20
274.8696688286077
 11
580.13425318650138
 21
324.8696688286077
  0
LINE
  8
_0-d_寸法3
  6
CONTINUOUS
 62
    7
 10
580.13425318650138
 20
319.8696688286077
 11
589.7935114493921
 21
322.45785927963283
  0
LINE
  8
_0-d_寸法3
  6
CONTINUOUS
 62
    7
 10
580.13425318650138
 20
319.8696688286077
 11
589.7935114493921
 21
317.28147837758246
  0
LINE
  8
_0-d_寸法3
  6
CONTINUOUS
 62
    7
 10
575.13425318650195
 20
319.8696688286077
 11
605.13425318650138
 21
319.8696688286077
  0
TEXT
  8
_0-d_寸法3
 62
    7
 10
593.93333579009391
 20
319.8696688286077
 40
15
 41
1
 50
0
  1
3
  0
LINE
  8
_0-a_極細3
  6
CENTER1
 62
    7
 10
577.72139662159054
 20
250.86963173060758
 11
315.81630073284873
 21
250.86963173060758
  0
LINE
  8
_0-a_極細3
  6
CONTINUOUS
 62
    7
 10
572.63425318650127
 20
268.20300216194119
 11
320.96758651983515
 21
268.20300216194119
  0
LINE
  8
_0-b_細線3
  6
CONTINUOUS
 62
    7
 10
320.96758651983515
 20
263.3696688286077
 11
572.63425318650127
 21
263.3696688286077
  0
LINE
  8
_0-b_細線3
  6
CONTINUOUS
 62
    7
 10
320.96758651983515
 20
236.53633549527424
 11
320.96758651983515
 21
269.86966882860725
  0
LINE
  8
_0-b_細線3
  6
CONTINUOUS
 62
    7
 10
320.96758651983515
 20
269.86966882860725
 11
572.63425318650127
 21
269.86966882860725
  0
LINE
  8
_0-b_細線3
  6
CONTINUOUS
 62
    7
 10
572.63425318650127
 20
269.86966882860725
 11
572.63425318650127
 21
236.53633549527424
  0
LINE
  8
_0-b_細線3
  6
CONTINUOUS
 62
    7
 10
572.63425318650127
 20
236.53633549527424
 11
320.96758651983515
 21
236.53633549527424
  0
ENDSEC
  0
EOF
