  0
SECTION
  2
HEADER
  9
$ACADVER
  1
AC1009
  9
$INSBASE
 10
0
 20
0
 30
0
  9
$EXTMIN
 10
0
 20
0
  9
$EXTMAX
 10
1485
 20
1050
  9
$LIMMIN
 10
0
 20
0
  9
$LIMMAX
 10
1485
 20
1050
  9
$LTSCALE
 40
5
  0
ENDSEC
  0
SECTION
  2
TABLES
  0
TABLE
  2
LTYPE
 70
     9
  0
LTYPE
  2
CONTINUOUS
 70
    64
  3
実線
 72
    65
 73
     0
 40
0.0
  0
LTYPE
  2
DASHED1
 70
    64
  3
--  --  --  --  --  --  --  --  
 72
    65
 73
     2
 40
2.5
 49
1.25
 49
-1.25
  0
LTYPE
  2
DASHED2
 70
    64
  3
----    ----    ----    ----    
 72
    65
 73
     2
 40
5.0
 49
2.5
 49
-2.5
  0
LTYPE
  2
DASHED3
 70
    64
  3
------  ------  ------  ------  
 72
    65
 73
     2
 40
5.0
 49
3.75
 49
-1.25
  0
LTYPE
  2
CENTER1
 70
    64
  3
----- - ----- - ----- - ----- - 
 72
    65
 73
     4
 40
10.0
 49
6.25
 49
-1.25
 49
1.25
 49
-1.25
  0
LTYPE
  2
CENTER2
 70
    64
  3
----------  --  ----------  --  
 72
    65
 73
     4
 40
20.0
 49
12.5
 49
-2.5
 49
2.5
 49
-2.5
  0
LTYPE
  2
PHANTOM1
 70
    64
  3
--- - - --- - - --- - - --- - - 
 72
    65
 73
     6
 40
10.0
 49
3.25
 49
-1.25
 49
1.25
 49
-1.25
 49
1.25
 49
-1.25
  0
LTYPE
  2
PHANTOM2
 70
    64
  3
--------  -  -  --------  -  -  
 72
    65
 73
     6
 40
20.0
 49
10.0
 49
-2.5
 49
1.25
 49
-2.5
 49
1.25
 49
-2.5
  0
LTYPE
  2
DOT
 70
    64
  3
-   -   -   -   -   -   -   -   
 72
    65
 73
     2
 40
2.5
 49
0.625
 49
-1.875
  0
LTYPE
  2
DUMMY
 70
    64
  3
ダミー
 72
    65
 73
     0
 40
0.0
  0
LTYPE
  2
RAND1
 70
    64
  3
ランダム線1
 72
    65
 73
     4
 40
10.0
 49
1.0
 49
-2.0
 49
3.0
 49
-4.0
  0
LTYPE
  2
RAND2
 70
    64
  3
ランダム線2
 72
    65
 73
     4
 40
14.0
 49
2.0
 49
-3.0
 49
4.0
 49
-5.0
  0
LTYPE
  2
RAND3
 70
    64
  3
ランダム線3
 72
    65
 73
     4
 40
18.0
 49
3.0
 49
-4.0
 49
5.0
 49
-6.0
  0
LTYPE
  2
RAND4
 70
    64
  3
ランダム線4
 72
    65
 73
     4
 40
22.0
 49
4.0
 49
-5.0
 49
6.0
 49
-7.0
  0
LTYPE
  2
RAND5
 70
    64
  3
ランダム線5
 72
    65
 73
     4
 40
26.0
 49
5.0
 49
-6.0
 49
7.0
 49
-8.0
  0
LTYPE
  2
LONG1
 70
    64
  3
----------  --  ----------  --  
 72
    65
 73
     4
 40
40.0
 49
32.5
 49
-2.5
 49
2.5
 49
-2.5
  0
LTYPE
  2
LONG2
 70
    64
  3
--------  -  -  --------  -  -  
 72
    65
 73
     6
 40
40.0
 49
30.0
 49
-2.5
 49
1.25
 49
-2.5
 49
1.25
 49
-2.5
  0
LTYPE
  2
LONG3
 70
    64
  3
+++++++++++++++..+++++++++++++++
 72
    65
 73
     2
 40
40.0
 49
37.5
 49
-2.5
  0
LTYPE
  2
LONG4
 70
    64
  3
+++++++++++++++..+++++++++++++++
 72
    65
 73
     2
 40
80.0
 49
75.0
 49
-5.0
  0
LTYPE
  2
LONG5
 70
    64
  3
----------  --  ----------  --  
 72
    65
 73
     4
 40
60.0
 49
37.5
 49
-7.5
 49
7.5
 49
-7.5
  0
LTYPE
  2
dashed
 70
   64
  3
-------   -------------   ------
 72
   65
 73
    2
 40
7.5
 49
6
 49
-1.5
  0
LTYPE
  2
dashed_spaced
 70
   64
  3
----        --------        ----
 72
   65
 73
    2
 40
12
 49
6
 49
-6
  0
LTYPE
  2
long_dashed_dotted
 70
   64
  3
------------- --- --------------
 72
   65
 73
    4
 40
15.25
 49
12
 49
-1.5
 49
0.25
 49
-1.5
  0
LTYPE
  2
long_dashed_double-dotted
 70
   64
  3
----------- --- --- ------------
 72
   65
 73
    6
 40
17
 49
12
 49
-1.5
 49
0.25
 49
-1.5
 49
0.25
 49
-1.5
  0
LTYPE
  2
long_dashed_triplicate-dotted
 70
   64
  3
--------- --- --- --- ----------
 72
   65
 73
    8
 40
18.75
 49
12
 49
-1.5
 49
0.25
 49
-1.5
 49
0.25
 49
-1.5
 49
0.25
 49
-1.5
  0
LTYPE
  2
dotted
 70
   64
  3
   -       -       -       -    
 72
   65
 73
    2
 40
1.75
 49
0.25
 49
-1.5
  0
LTYPE
  2
chain
 70
   64
  3
-------------- -- --------------
 72
   65
 73
    4
 40
18.5
 49
12
 49
-1.5
 49
3.5
 49
-1.5
  0
LTYPE
  2
chain_double_dash
 70
   64
  3
------------ -- -- -------------
 72
   65
 73
    6
 40
23.5
 49
12
 49
-1.5
 49
3.5
 49
-1.5
 49
3.5
 49
-1.5
  0
LTYPE
  2
dashed_dotted
 70
   64
  3
-----------     -     ----------
 72
   65
 73
    4
 40
9.25
 49
6
 49
-1.5
 49
0.25
 49
-1.5
  0
LTYPE
  2
double-dashed_dotted
 70
   64
  3
------   -----------   -   -----
 72
   65
 73
    6
 40
16.75
 49
6
 49
-1.5
 49
6
 49
-1.5
 49
0.25
 49
-1.5
  0
LTYPE
  2
dashed_double-dotted
 70
   64
  3
---------    -    -    ---------
 72
   65
 73
    6
 40
11
 49
6
 49
-1.5
 49
0.25
 49
-1.5
 49
0.25
 49
-1.5
  0
LTYPE
  2
double-dashed_double-dotted
 70
   64
  3
-----   ---------   -   -   ----
 72
   65
 73
    8
 40
18.5
 49
6
 49
-1.5
 49
6
 49
-1.5
 49
0.25
 49
-1.5
 49
0.25
 49
-1.5
  0
LTYPE
  2
dashed_triplicate-dotted
 70
   64
  3
-------    -    -    -    ------
 72
   65
 73
    8
 40
12.75
 49
6
 49
-1.5
 49
0.25
 49
-1.5
 49
0.25
 49
-1.5
 49
0.25
 49
-1.5
  0
LTYPE
  2
double-dashed_triplicate-dotted
 70
   64
  3
-----  ---------  -  -  -  -----
 72
   65
 73
   10
 40
20.25
 49
6
 49
-1.5
 49
6
 49
-1.5
 49
0.25
 49
-1.5
 49
0.25
 49
-1.5
 49
0.25
 49
-1.5
  0
LTYPE
  2
undefined
 70
   64
  3
--------------------------------
 72
   65
 73
    0
 40
0
  0
ENDTAB
  0
TABLE
  2
STYLE
  5
3
100
AcDbSymbolTable
 70
     1
  0
STYLE
  5
10
100
AcDbSymbolTableRecord
100
AcDbTextStyleTableRecord
  2
STANDARD
 70
     0
 40
0.0
 41
1.0
 50
0.0
 71
     0
 42
0.2
  3
txt
  4
bigfont.shx
  0
STYLE
  5
26
100
AcDbSymbolTableRecord
100
AcDbTextStyleTableRecord
  2
TATEGAKI
 70
    68
 40
0.0
 41
1.0
 50
0.0
 71
     0
 42
1.0
  3
txt
  4
bigfont.shx
  0
ENDTAB
  0
TABLE
  2
LAYER
 70
   10
  0
LAYER
  2
_0-0_計極細
 70
   64
 62
    7
  6
CONTINUOUS
  0
LAYER
  2
_0-1_計細線
 70
   64
 62
    7
  6
CONTINUOUS
  0
LAYER
  2
_0-5_寸法線
 70
   64
 62
    7
  6
CONTINUOUS
  0
LAYER
  2
_0-7_枠細線
 70
   64
 62
    7
  6
CONTINUOUS
  0
LAYER
  2
_0-8_枠中線
 70
   64
 62
    7
  6
CONTINUOUS
  0
LAYER
  2
_0-9_枠極太
 70
   64
 62
    7
  6
CONTINUOUS
  0
LAYER
  2
_0-a_極細3
 70
   64
 62
    7
  6
CONTINUOUS
  0
LAYER
  2
_0-b_細線3
 70
   64
 62
    7
  6
CONTINUOUS
  0
LAYER
  2
_0-d_寸法3
 70
   64
 62
    7
  6
CONTINUOUS
  0
LAYER
  2
ADD_LINE
 70
   64
 62
    7
  6
CONTINUOUS
  0
ENDTAB
  0
ENDSEC
  0
SECTION
  2
BLOCKS
  0
ENDSEC
  0
SECTION
  2
ENTITIES
  0
LINE
  8
_0-7_枠細線
  6
CONTINUOUS
 62
    5
 10
1185
 20
180
 11
1185
 21
100
  0
TEXT
  8
_0-7_枠細線
 62
    5
 10
937.5
 20
97.5
 40
17.5
 41
1
 50
0
  1
備考
  7
TATEGAKI
  0
TEXT
  8
_0-7_枠細線
 62
    5
 10
937.5
 20
137.5
 40
17.5
 41
1
 50
0
  1
品番
  7
TATEGAKI
  0
TEXT
  8
_0-7_枠細線
 62
    5
 10
937.5
 20
177.5
 40
17.5
 41
1
 50
0
  1
品名
  7
TATEGAKI
  0
LINE
  8
_0-7_枠細線
  6
CONTINUOUS
 62
    5
 10
1185
 20
140
 11
925
 21
140
  0
LINE
  8
_0-7_枠細線
  6
CONTINUOUS
 62
    5
 10
950
 20
180
 11
950
 21
60
  0
LINE
  8
_0-8_枠中線
  6
CONTINUOUS
 62
    5
 10
1425
 20
180
 11
925
 21
180
  0
LINE
  8
_0-8_枠中線
  6
CONTINUOUS
 62
    5
 10
925
 20
180
 11
925
 21
60
  0
LINE
  8
_0-7_枠細線
  6
CONTINUOUS
 62
    5
 10
1245
 20
180
 11
1245
 21
60
  0
TEXT
  8
_0-7_枠細線
 62
    5
 10
1192.5
 20
160
 40
15
 41
1
 50
0
  1
縮　尺
  0
TEXT
  8
_0-7_枠細線
 62
    5
 10
1194
 20
117.5
 40
20
 41
0.7
 50
0
  1
１：５
  0
LINE
  8
_0-7_枠細線
  6
CONTINUOUS
 62
    5
 10
1185
 20
155
 11
1245
 21
155
  0
LINE
  8
_0-7_枠細線
  6
CONTINUOUS
 62
    5
 10
1245
 20
100
 11
925
 21
100
  0
LINE
  8
_0-7_枠細線
  6
CONTINUOUS
 62
    5
 10
1425
 20
90
 11
1245
 21
90
  0
LINE
  8
_0-7_枠細線
  6
CONTINUOUS
 62
    5
 10
1245
 20
120
 11
1425
 21
120
  0
LINE
  8
_0-7_枠細線
  6
CONTINUOUS
 62
    5
 10
1425
 20
140
 11
1245
 21
140
  0
TEXT
  8
_0-7_枠細線
 62
    5
 10
1255
 20
147.5
 40
25
 41
0.8
 50
0
  1
株式会社シマブン
  0
TEXT
  8
_0-7_枠細線
 62
    5
 10
1252.5
 20
60
 40
15
 41
1
 50
0
  1
年月日
  0
TEXT
  8
_0-7_枠細線
 62
    5
 10
1252.5
 20
75
 40
15
 41
1
 50
0
  1
作　成
  0
TEXT
  8
_0-7_枠細線
 62
    5
 10
1250
 20
95
 40
20
 41
1
 50
0
  1
島 英
  0
TEXT
  8
_0-7_枠細線
 62
    5
 10
1256.25
 20
122.5
 40
15
 41
1
 50
0
  1
承 認
  0
LINE
  8
_0-7_枠細線
  6
CONTINUOUS
 62
    5
 10
1305
 20
140
 11
1305
 21
60
  0
TEXT
  8
_0-7_枠細線
 62
    5
 10
1315
 20
95
 40
20
 41
1
 50
0
  1
隠塚
  0
TEXT
  8
_0-7_枠細線
 62
    5
 10
1316.25
 20
122.5
 40
15
 41
1
 50
0
  1
検 図
  0
LINE
  8
_0-7_枠細線
  6
CONTINUOUS
 62
    5
 10
1365
 20
140
 11
1365
 21
90
  0
TEXT
  8
_0-7_枠細線
 62
    5
 10
1375
 20
95
 40
20
 41
1
 50
0
  1
藤戸
  0
TEXT
  8
_0-7_枠細線
 62
    5
 10
1376.25
 20
122.5
 40
15
 41
1
 50
0
  1
設 計
  0
TEXT
  8
_0-7_枠細線
 62
    5
 10
965.50000000000011
 20
150
 40
20
 41
0.6
 50
0
  1
セーフティグレーチングＨ２０タイプ
  0
TEXT
  8
_0-7_枠細線
 62
    5
 10
965.49999999999977
 20
70
 40
20
 41
0.5999999999999998
 50
0
  1
色については品番表参照のこと
  0
TEXT
  8
_0-7_枠細線
 62
    5
 10
1310
 20
67.5
 40
15
 41
0.6666666666666666
 50
0
  1
２００９年０１月１６日
  0
TEXT
  8
_0-7_枠細線
 62
    5
 10
965.50000000000011
 20
110
 40
20
 41
0.6
 50
0
  1
ＧＲＳＪ－２０Ｗ２０１　ＳＥＴ
  0
LINE
  8
_0-7_枠細線
  6
CONTINUOUS
 62
    5
 10
1424.9999999999998
 20
942.5
 11
889.99999999999989
 21
942.5
  0
TEXT
  8
_0-7_枠細線
 62
    5
 10
894.99999999999989
 20
945
 40
12.5
 41
1
 50
0
  1
記号
  0
TEXT
  8
_0-7_枠細線
 62
    5
 10
996.87499999999989
 20
945
 40
12.5
 41
1
 50
0
  1
訂　 正　 記　 事
  0
TEXT
  8
_0-7_枠細線
 62
    5
 10
1181.2499999999998
 20
945
 40
12.5
 41
1
 50
0
  1
訂 正 年 月 日
  0
TEXT
  8
_0-7_枠細線
 62
    5
 10
1306.2499999999998
 20
945
 40
12.5
 41
1
 50
0
  1
備　　　　　考
  0
LINE
  8
_0-7_枠細線
  6
CONTINUOUS
 62
    5
 10
1424.9999999999998
 20
925
 11
889.99999999999989
 21
925
  0
TEXT
  8
_0-7_枠細線
 62
    5
 10
938.85037037037011
 20
927.5
 40
12.5
 41
1
 50
0
  1
品番・色記号変更
  0
TEXT
  8
_0-7_枠細線
 62
    5
 10
1179.9999999999998
 20
927.5
 40
12.5
 41
0.7199999999999999
 50
0
  1
２０１３．０３．１３
  0
LINE
  8
_0-7_枠細線
  6
CONTINUOUS
 62
    5
 10
914.99999999999989
 20
908.75
 11
907.49999999999989
 21
923.75
  0
LINE
  8
_0-7_枠細線
  6
CONTINUOUS
 62
    5
 10
899.99999999999989
 20
908.75
 11
914.99999999999989
 21
908.75
  0
LINE
  8
_0-7_枠細線
  6
CONTINUOUS
 62
    5
 10
907.49999999999989
 20
923.75
 11
899.99999999999989
 21
908.75
  0
TEXT
  8
_0-7_枠細線
 62
    5
 10
902.36515126814788
 20
908.44299775461946
 40
12.5
 41
0.8
 50
0
  1
１
  0
LINE
  8
_0-7_枠細線
  6
CONTINUOUS
 62
    5
 10
1074.9999999999995
 20
286.93549946813744
 11
1374.9999999999998
 21
286.93549946813744
  0
LINE
  8
_0-7_枠細線
  6
CONTINUOUS
 62
    5
 10
1074.9999999999995
 20
311.93549946813744
 11
1374.9999999999998
 21
311.93549946813744
  0
LINE
  8
_0-7_枠細線
  6
CONTINUOUS
 62
    5
 10
1074.9999999999995
 20
336.93549946813744
 11
1374.9999999999998
 21
336.93549946813744
  0
LINE
  8
_0-7_枠細線
  6
CONTINUOUS
 62
    5
 10
1074.9999999999995
 20
361.93549946813755
 11
1374.9999999999998
 21
361.93549946813755
  0
LINE
  8
_0-7_枠細線
  6
CONTINUOUS
 62
    5
 10
1074.9999999999995
 20
386.93549946813744
 11
1374.9999999999998
 21
386.93549946813744
  0
LINE
  8
_0-7_枠細線
  6
CONTINUOUS
 62
    5
 10
1074.9999999999995
 20
411.93549946813732
 11
1374.9999999999998
 21
411.93549946813732
  0
LINE
  8
_0-7_枠細線
  6
CONTINUOUS
 62
    5
 10
1074.9999999999995
 20
436.93549946813732
 11
1374.9999999999998
 21
436.93549946813732
  0
TEXT
  8
_0-7_枠細線
 62
    5
 10
1163.7499999999995
 20
441.93549946813732
 40
17.5
 41
1
 50
0
  1
品番表
  0
TEXT
  8
_0-7_枠細線
 62
    5
 10
1306
 20
416.93549946813732
 40
15
 41
0.8000000000000001
 50
0
  1
備　　考
  0
TEXT
  8
_0-7_枠細線
 62
    5
 10
1213
 20
366.93549946813755
 40
15
 41
0.5999999999999999
 50
0
  1
ライトグレー
  0
TEXT
  8
_0-7_枠細線
 62
    5
 10
1222
 20
391.93549946813732
 40
15
 41
0.5999999999999999
 50
0
  1
ベージュ
  0
TEXT
  8
_0-7_枠細線
 62
    5
 10
1234
 20
416.93549946813732
 40
15
 41
0.8000000000000001
 50
0
  1
色
  0
TEXT
  8
_0-7_枠細線
 62
    5
 10
1110.9999999999998
 20
416.93549946813732
 40
15
 41
0.8000000000000001
 50
0
  1
品　　番
  0
LINE
  8
_0-7_枠細線
  6
CONTINUOUS
 62
    5
 10
1074.9999999999995
 20
211.93549946813721
 11
1374.9999999999998
 21
211.93549946813721
  0
LINE
  8
_0-7_枠細線
  6
CONTINUOUS
 62
    5
 10
1074.9999999999995
 20
236.93549946813746
 11
1374.9999999999998
 21
236.93549946813746
  0
LINE
  8
_0-7_枠細線
  6
CONTINUOUS
 62
    5
 10
1074.9999999999995
 20
261.93549946813755
 11
1374.9999999999998
 21
261.93549946813755
  0
TEXT
  8
_0-7_枠細線
 62
    5
 10
1222.0000000000005
 20
341.93549946813755
 40
15
 41
0.5999999999999999
 50
0
  1
ホワイト
  0
TEXT
  8
_0-7_枠細線
 62
    5
 10
1226.4999999999998
 20
316.93549946813744
 40
15
 41
0.5999999999999999
 50
0
  1
ピンク
  0
TEXT
  8
_0-7_枠細線
 62
    5
 10
1226.4999999999998
 20
291.93549946813744
 40
15
 41
0.5999999999999999
 50
0
  1
ブルー
  0
TEXT
  8
_0-7_枠細線
 62
    5
 10
1212.9999999999995
 20
266.93549946813744
 40
15
 41
0.5999999999999999
 50
0
  1
ダークグレー
  0
TEXT
  8
_0-7_枠細線
 62
    5
 10
1079.7499999999998
 20
391.93549946813732
 40
15
 41
0.5666666666666667
 50
0
  1
ＧＲＳＪ－２０Ｗ２０１－Ｂ
  0
TEXT
  8
_0-7_枠細線
 62
    5
 10
1079.75
 20
366.93549946813744
 40
15
 41
0.5666666666666667
 50
0
  1
ＧＲＳＪ－２０Ｗ２０１－Ｇ
  0
TEXT
  8
_0-7_枠細線
 62
    5
 10
1079.75
 20
341.93549946813755
 40
15
 41
0.5666666666666667
 50
0
  1
ＧＲＳＪ－２０Ｗ２０１－Ｓ
  0
TEXT
  8
_0-7_枠細線
 62
    5
 10
1079.75
 20
316.93549946813744
 40
15
 41
0.5666666666666667
 50
0
  1
ＧＲＳＪ－２０Ｗ２０１－Ｐ
  0
TEXT
  8
_0-7_枠細線
 62
    5
 10
1079.75
 20
291.93549946813744
 40
15
 41
0.5666666666666667
 50
0
  1
ＧＲＳＪ－２０Ｗ２０１－Ａ
  0
TEXT
  8
_0-7_枠細線
 62
    5
 10
1079.75
 20
266.93549946813744
 40
15
 41
0.5666666666666667
 50
0
  1
ＧＲＳＪ－２０Ｗ２０１－Ｄ
  0
TEXT
  8
_0-7_枠細線
 62
    5
 10
1079.75
 20
241.93549946813732
 40
15
 41
0.5666666666666667
 50
0
  1
ＧＲＳＪ－２０Ｗ２０１－Ｍ
  0
TEXT
  8
_0-7_枠細線
 62
    5
 10
1226.4999999999998
 20
241.93549946813732
 40
15
 41
0.5999999999999999
 50
0
  1
ウッド
  0
LINE
  8
_0-7_枠細線
  6
CONTINUOUS
 62
    5
 10
1074.9999999999995
 20
186.93549946813704
 11
1374.9999999999998
 21
186.93549946813704
  0
TEXT
  8
_0-7_枠細線
 62
    5
 10
1222.0000000000005
 20
191.9354994681371
 40
15
 41
0.5999999999999999
 50
0
  1
ブラック
  0
TEXT
  8
_0-7_枠細線
 62
    5
 10
1079.75
 20
191.9354994681371
 40
15
 41
0.5666666666666667
 50
0
  1
ＧＲＳＪ－２０Ｗ２０１－Ｋ
  0
LINE
  8
_0-7_枠細線
  6
CONTINUOUS
 62
    5
 10
1195
 20
436.93549946813732
 11
1195
 21
186.9354994681369
  0
LINE
  8
_0-7_枠細線
  6
CONTINUOUS
 62
    5
 10
1284.9999999999998
 20
436.93549946813732
 11
1284.9999999999998
 21
186.9354994681369
  0
LINE
  8
_0-7_枠細線
  6
CONTINUOUS
 62
    5
 10
1374.9999999999998
 20
436.93549946813732
 11
1374.9999999999998
 21
186.9354994681369
  0
LINE
  8
_0-7_枠細線
  6
CONTINUOUS
 62
    5
 10
1074.9999999999995
 20
436.93549946813732
 11
1074.9999999999995
 21
186.9354994681369
  0
TEXT
  8
_0-7_枠細線
 62
    5
 10
1079.7499999999998
 20
216.93549946813746
 40
15
 41
0.5666666666666667
 50
0
  1
ＧＲＳＪ－２０Ｗ２０１－Ｃ
  0
TEXT
  8
_0-7_枠細線
 62
    5
 10
1222
 20
216.93549946813746
 40
15
 41
0.5999999999999999
 50
0
  1
ブラウン
  0
LINE
  8
_0-7_枠細線
  6
CONTINUOUS
 62
    5
 10
1424.9999999999995
 20
907.5
 11
889.99999999999989
 21
907.5
  0
TEXT
  8
_0-7_枠細線
 62
    5
 10
938.85037037036977
 20
910
 40
12.500000000000002
 41
1
 50
0
  1
取外具形状変更
  0
TEXT
  8
_0-7_枠細線
 62
    5
 10
1179.9999999999998
 20
910
 40
12.500000000000002
 41
0.7199999999999998
 50
0
  1
２０１５．１１．２０
  0
LINE
  8
_0-7_枠細線
  6
CONTINUOUS
 62
    5
 10
1424.9999999999998
 20
890
 11
889.99999999999977
 21
890
  0
TEXT
  8
_0-7_枠細線
 62
    5
 10
1179.9999999999998
 20
892.5
 40
12.5
 41
0.7199999999999999
 50
0
  1
２０１７．０４．０１
  0
LINE
  8
_0-7_枠細線
  6
CONTINUOUS
 62
    5
 10
914.99999999999977
 20
873.94233397174685
 11
907.49999999999977
 21
888.94233397174685
  0
LINE
  8
_0-7_枠細線
  6
CONTINUOUS
 62
    5
 10
899.99999999999977
 20
873.94233397174685
 11
914.99999999999977
 21
873.94233397174685
  0
LINE
  8
_0-7_枠細線
  6
CONTINUOUS
 62
    5
 10
907.49999999999977
 20
888.94233397174685
 11
899.99999999999977
 21
873.94233397174685
  0
TEXT
  8
_0-7_枠細線
 62
    5
 10
1179.9999999999998
 20
875
 40
12.5
 41
0.7199999999999999
 50
0
  1
２０１７．０４．０１
  0
TEXT
  8
_0-7_枠細線
 62
    5
 10
938.85037037037
 20
875
 40
12.5
 41
1
 50
0
  1
ブラウン色（Ｃ）追加
  0
LINE
  8
_0-7_枠細線
  6
CONTINUOUS
 62
    5
 10
1424.9999999999998
 20
872.5
 11
889.99999999999977
 21
872.5
  0
LINE
  8
_0-7_枠細線
  6
CONTINUOUS
 62
    5
 10
907.49999999999977
 20
906.44233397174685
 11
899.99999999999977
 21
891.44233397174685
  0
LINE
  8
_0-7_枠細線
  6
CONTINUOUS
 62
    5
 10
899.99999999999977
 20
891.44233397174685
 11
914.99999999999977
 21
891.44233397174685
  0
LINE
  8
_0-7_枠細線
  6
CONTINUOUS
 62
    5
 10
914.99999999999977
 20
891.44233397174685
 11
907.49999999999977
 21
906.44233397174685
  0
TEXT
  8
_0-7_枠細線
 62
    5
 10
938.85037037037
 20
892.5
 40
12.5
 41
1
 50
0
  1
取外具形状変更
  0
TEXT
  8
_0-7_枠細線
 62
    5
 10
902.48549209054829
 20
890.89465008156549
 40
12.5
 41
0.8
 50
0
  1
２
  0
TEXT
  8
_0-7_枠細線
 62
    5
 10
902.36515126814777
 20
872.99351400689704
 40
12.5
 41
0.8
 50
0
  1
３
  0
LINE
  8
_0-9_枠極太
  6
CONTINUOUS
 62
    5
 10
60
 20
60
 11
60
 21
960
  0
LINE
  8
_0-9_枠極太
  6
CONTINUOUS
 62
    5
 10
60
 20
960
 11
1425
 21
960
  0
LINE
  8
_0-9_枠極太
  6
CONTINUOUS
 62
    5
 10
1425
 20
960
 11
1425
 21
60
  0
LINE
  8
_0-9_枠極太
  6
CONTINUOUS
 62
    5
 10
1425
 20
60
 11
60
 21
60
  0
LINE
  8
_0-7_枠細線
  6
CONTINUOUS
 62
    5
 10
914.99999999999977
 20
856.44233397174685
 11
907.49999999999977
 21
871.44233397174685
  0
LINE
  8
_0-7_枠細線
  6
CONTINUOUS
 62
    5
 10
899.99999999999977
 20
856.44233397174685
 11
914.99999999999977
 21
856.44233397174685
  0
LINE
  8
_0-7_枠細線
  6
CONTINUOUS
 62
    5
 10
907.49999999999977
 20
871.44233397174685
 11
899.99999999999977
 21
856.44233397174685
  0
LINE
  8
_0-7_枠細線
  6
CONTINUOUS
 62
    5
 10
1424.9999999999998
 20
855
 11
889.99999999999977
 21
855
  0
TEXT
  8
_0-7_枠細線
 62
    5
 10
1179.9999999999995
 20
857.5
 40
12.5
 41
0.7199999999999999
 50
0
  1
２０１９．０９．０１
  0
TEXT
  8
_0-7_枠細線
 62
    5
 10
902.36515126814777
 20
855.49351400689704
 40
12.5
 41
0.8
 50
0
  1
４
  0
LINE
  8
_0-7_枠細線
  6
CONTINUOUS
 62
    5
 10
785.16995454985135
 20
356.80454176804568
 11
785.16995454985135
 21
436.80454176804568
  0
TEXT
  8
_0-7_枠細線
 62
    5
 10
807.66995454985135
 20
414.30454176804568
 40
15
 41
1
 50
0
  1
耐荷重
  0
TEXT
  8
_0-7_枠細線
 62
    5
 10
800.16995454985135
 20
384.30454176804568
 40
15
 41
1
 50
0
  1
3.5kN/㎡
  0
TEXT
  8
_0-7_枠細線
 62
    5
 10
792.66995454985135
 20
364.30454176804568
 40
15
 41
1
 50
0
  1
（歩道用）
  0
LINE
  8
_0-7_枠細線
  6
CONTINUOUS
 62
    5
 10
875.16995454985135
 20
356.80454176804568
 11
875.16995454985135
 21
436.80454176804568
  0
TEXT
  8
_0-7_枠細線
 62
    5
 10
897.66995454985135
 20
414.30454176804568
 40
15
 41
1
 50
0
  1
蓋重量
  0
LINE
  8
_0-7_枠細線
  6
CONTINUOUS
 62
    5
 10
965.16995454985135
 20
356.80454176804568
 11
965.16995454985135
 21
436.80454176804568
  0
TEXT
  8
_0-7_枠細線
 62
    5
 10
987.66995454985135
 20
414.30454176804568
 40
15
 41
1
 50
0
  1
枠重量
  0
LINE
  8
_0-7_枠細線
  6
CONTINUOUS
 62
    5
 10
785.16995454985135
 20
406.80454176804568
 11
1055.1699545498514
 21
406.80454176804568
  0
LINE
  8
_0-7_枠細線
  6
CONTINUOUS
 62
    5
 10
785.16995454985135
 20
436.80454176804568
 11
1055.1699545498514
 21
436.80454176804568
  0
LINE
  8
_0-7_枠細線
  6
CONTINUOUS
 62
    5
 10
785.16995454985135
 20
356.80454176804568
 11
1055.1699545498514
 21
356.80454176804568
  0
LINE
  8
_0-7_枠細線
  6
CONTINUOUS
 62
    5
 10
1055.1699545498514
 20
356.80454176804568
 11
1055.1699545498514
 21
436.80454176804568
  0
LINE
  8
_0-7_枠細線
  6
CONTINUOUS
 62
    5
 10
1068.6456150812837
 20
217.91269467187249
 11
1061.1456150812837
 21
232.91269467187249
  0
LINE
  8
_0-7_枠細線
  6
CONTINUOUS
 62
    5
 10
1053.6456150812837
 20
217.91269467187249
 11
1068.6456150812837
 21
217.91269467187249
  0
LINE
  8
_0-7_枠細線
  6
CONTINUOUS
 62
    5
 10
1061.1456150812837
 20
232.91269467187249
 11
1053.6456150812837
 21
217.91269467187249
  0
TEXT
  8
_0-7_枠細線
 62
    5
 10
1056.0107663494316
 20
216.9638747070226
 40
12.5
 41
0.8
 50
0
  1
３
  0
TEXT
  8
_0-7_枠細線
 62
    5
 10
938.85037037037
 20
857.5
 40
12.5
 41
1
 50
0
  1
アンカー材質･厚み変更
  0
LINE
  8
_0-7_枠細線
  6
CONTINUOUS
 62
    5
 10
1274.9999999999998
 20
837.50000000000023
 11
1274.9999999999998
 21
959.99999999999943
  0
LINE
  8
_0-7_枠細線
  6
CONTINUOUS
 62
    5
 10
1174.9999999999998
 20
837.5
 11
1174.9999999999998
 21
959.99999999999943
  0
LINE
  8
_0-7_枠細線
  6
CONTINUOUS
 62
    5
 10
924.99999999999989
 20
837.5
 11
924.99999999999989
 21
959.99999999999943
  0
LINE
  8
_0-7_枠細線
  6
CONTINUOUS
 62
    5
 10
889.99999999999989
 20
837.5
 11
889.99999999999989
 21
959.99999999999943
  0
LINE
  8
_0-7_枠細線
  6
CONTINUOUS
 62
    5
 10
1424.9999999999998
 20
837.5
 11
889.99999999999989
 21
837.5
  0
TEXT
  8
_0-7_枠細線
 62
    5
 10
938.85037037037011
 20
840
 40
12.5
 41
1
 50
0
  1
取外具形状変更
  0
LINE
  8
_0-7_枠細線
  6
CONTINUOUS
 62
    5
 10
907.49999999999989
 20
853.94233397174685
 11
899.99999999999989
 21
838.94233397174685
  0
LINE
  8
_0-7_枠細線
  6
CONTINUOUS
 62
    5
 10
899.99999999999989
 20
838.94233397174685
 11
914.99999999999989
 21
838.94233397174685
  0
LINE
  8
_0-7_枠細線
  6
CONTINUOUS
 62
    5
 10
914.99999999999989
 20
838.94233397174685
 11
907.49999999999989
 21
853.94233397174685
  0
TEXT
  8
_0-7_枠細線
 62
    5
 10
1179.9999999999998
 20
840
 40
12.5
 41
0.7199999999999999
 50
0
  1
２０２１．０５．０６
  0
TEXT
  8
_0-7_枠細線
 62
    5
 10
902.36515126814788
 20
838.63533172636664
 40
12.5
 41
0.8
 50
0
  1
５
  0
LINE
  8
_0-0_計極細
  6
CENTER2
 62
    2
 10
214.27468171297463
 20
610.4935731132091
 11
1245.2080150463519
 21
610.4935731132091
  0
ARC
  8
_0-0_計極細
  6
CONTINUOUS
 62
    2
 10
217.10950240667813
 20
707.99357311320819
 40
11.295514677412786
 50
138.39585046827571
 51
221.60414953172395
  0
ARC
  8
_0-0_計極細
  6
CONTINUOUS
 62
    2
 10
200.21706009330771
 20
692.99357311320693
 40
11.295514677412786
 50
318.39585046827381
 51
41.604149531723962
  0
ARC
  8
_0-0_計極細
  6
CONTINUOUS
 62
    2
 10
217.10950240667813
 20
527.99357311320819
 40
11.295514677412786
 50
138.39585046827571
 51
221.60414953172395
  0
ARC
  8
_0-0_計極細
  6
CONTINUOUS
 62
    2
 10
200.21706009330771
 20
512.99357311320682
 40
11.295514677412786
 50
318.39585046827534
 51
41.604149531723962
  0
LINE
  8
_0-1_計細線
  6
CONTINUOUS
 62
    3
 10
208.663281249992
 20
715.49357311320819
 11
1250.6632812499936
 21
715.49357311320819
  0
LINE
  8
_0-1_計細線
  6
CONTINUOUS
 62
    3
 10
1250.6632812499936
 20
505.49357311320961
 11
208.66328124999242
 21
505.49357311320961
  0
ARC
  8
_0-0_計極細
  6
CONTINUOUS
 62
    2
 10
1259.1095024066792
 20
707.99357311320819
 40
11.295514677412786
 50
138.39585046827494
 51
221.60414953172469
  0
ARC
  8
_0-0_計極細
  6
CONTINUOUS
 62
    2
 10
1242.2170600933086
 20
692.99357311320693
 40
11.295514677412786
 50
318.39585046827455
 51
41.604149531724723
  0
ARC
  8
_0-0_計極細
  6
CONTINUOUS
 62
    2
 10
1259.1095024066792
 20
527.99357311320819
 40
11.295514677412786
 50
138.39585046827494
 51
221.60414953172469
  0
ARC
  8
_0-0_計極細
  6
CONTINUOUS
 62
    2
 10
1242.2170600933086
 20
512.99357311320682
 40
11.295514677412786
 50
318.39585046827455
 51
41.604149531724723
  0
LINE
  8
_0-1_計細線
  6
CONTINUOUS
 62
    3
 10
206.74906555161988
 20
712.49357311320819
 11
1248.7490655516212
 21
712.49357311320819
  0
LINE
  8
_0-1_計細線
  6
CONTINUOUS
 62
    3
 10
1252.5774969483682
 20
508.49357311320955
 11
210.57749694836821
 21
508.49357311320955
  0
LINE
  8
_0-5_寸法線
  6
CONTINUOUS
 62
    7
 10
198.663281249992
 20
715.49357311320819
 11
153.66328124999697
 21
715.49357311320819
  0
LINE
  8
_0-5_寸法線
  6
CONTINUOUS
 62
    7
 10
158.66328124999697
 20
715.49357311320819
 11
161.25147170102218
 21
705.83431485031747
  0
LINE
  8
_0-5_寸法線
  6
CONTINUOUS
 62
    7
 10
158.66328124999697
 20
715.49357311320819
 11
156.07509079897176
 21
705.83431485031747
  0
LINE
  8
_0-5_寸法線
  6
CONTINUOUS
 62
    7
 10
198.6632812499947
 20
685.49357311320819
 11
153.66328124999745
 21
685.49357311320819
  0
LINE
  8
_0-5_寸法線
  6
CONTINUOUS
 62
    7
 10
158.66328124999745
 20
685.49357311320819
 11
156.07509079897227
 21
695.15283137609902
  0
LINE
  8
_0-5_寸法線
  6
CONTINUOUS
 62
    7
 10
158.66328124999745
 20
685.49357311320819
 11
161.25147170102267
 21
695.15283137609902
  0
LINE
  8
_0-5_寸法線
  6
CONTINUOUS
 62
    7
 10
158.66328124999697
 20
715.49357311320819
 11
158.66328124999745
 21
685.49357311320819
  0
TEXT
  8
_0-5_寸法線
 62
    7
 10
158.66328124999697
 20
692.99357311320819
 40
15
 41
1
 50
90
  1
30
  0
LINE
  8
_0-5_寸法線
  6
CONTINUOUS
 62
    7
 10
158.66328124999745
 20
685.49357311320819
 11
161.25147170102267
 21
675.83431485031747
  0
LINE
  8
_0-5_寸法線
  6
CONTINUOUS
 62
    7
 10
158.66328124999745
 20
685.49357311320819
 11
156.07509079897227
 21
675.83431485031747
  0
LINE
  8
_0-5_寸法線
  6
CONTINUOUS
 62
    7
 10
198.66328124999242
 20
535.49357311320864
 11
153.66328124999745
 21
535.49357311320864
  0
LINE
  8
_0-5_寸法線
  6
CONTINUOUS
 62
    7
 10
158.66328124999745
 20
535.49357311320864
 11
156.07509079897227
 21
545.15283137609936
  0
LINE
  8
_0-5_寸法線
  6
CONTINUOUS
 62
    7
 10
158.66328124999745
 20
535.49357311320864
 11
161.25147170102267
 21
545.15283137609936
  0
LINE
  8
_0-5_寸法線
  6
CONTINUOUS
 62
    7
 10
158.66328124999745
 20
685.49357311320819
 11
158.66328124999745
 21
535.49357311320864
  0
TEXT
  8
_0-5_寸法線
 62
    7
 10
158.6632812499974
 20
599.24357311320864
 40
15
 41
1
 50
89.999999999999815
  1
150
  0
LINE
  8
_0-5_寸法線
  6
CONTINUOUS
 62
    7
 10
158.66328124999745
 20
535.49357311320864
 11
161.25147170102267
 21
525.83431485031792
  0
LINE
  8
_0-5_寸法線
  6
CONTINUOUS
 62
    7
 10
158.66328124999745
 20
535.49357311320864
 11
156.07509079897227
 21
525.83431485031792
  0
LINE
  8
_0-5_寸法線
  6
CONTINUOUS
 62
    7
 10
198.66328124999745
 20
505.49357311321148
 11
153.66328124999745
 21
505.49357311321137
  0
LINE
  8
_0-5_寸法線
  6
CONTINUOUS
 62
    7
 10
158.66328124999745
 20
505.49357311321137
 11
156.07509079897227
 21
515.15283137610209
  0
LINE
  8
_0-5_寸法線
  6
CONTINUOUS
 62
    7
 10
158.66328124999745
 20
505.49357311321137
 11
161.25147170102267
 21
515.15283137610209
  0
LINE
  8
_0-5_寸法線
  6
CONTINUOUS
 62
    7
 10
158.66328124999745
 20
535.49357311320864
 11
158.66328124999745
 21
505.49357311321137
  0
TEXT
  8
_0-5_寸法線
 62
    7
 10
158.66328124999745
 20
512.99357311321
 40
15
 41
1
 50
90
  1
30
  0
LINE
  8
_0-5_寸法線
  6
CONTINUOUS
 62
    7
 10
1260.6632812499936
 20
715.49357311320819
 11
1340.6632812499925
 21
715.49357311320819
  0
LINE
  8
_0-5_寸法線
  6
CONTINUOUS
 62
    7
 10
1335.6632812499925
 20
715.49357311320819
 11
1338.2514717010176
 21
705.83431485031747
  0
LINE
  8
_0-5_寸法線
  6
CONTINUOUS
 62
    7
 10
1335.6632812499925
 20
715.49357311320819
 11
1333.0750907989673
 21
705.83431485031747
  0
LINE
  8
_0-5_寸法線
  6
CONTINUOUS
 62
    7
 10
1260.6632812499927
 20
505.49357311320506
 11
1340.6632812499927
 21
505.49357311320506
  0
LINE
  8
_0-5_寸法線
  6
CONTINUOUS
 62
    7
 10
1335.6632812499927
 20
505.49357311320506
 11
1333.0750907989677
 21
515.15283137609572
  0
LINE
  8
_0-5_寸法線
  6
CONTINUOUS
 62
    7
 10
1335.6632812499927
 20
505.49357311320506
 11
1338.2514717010179
 21
515.15283137609572
  0
LINE
  8
_0-5_寸法線
  6
CONTINUOUS
 62
    7
 10
1335.6632812499925
 20
715.49357311320819
 11
1335.6632812499927
 21
505.49357311320506
  0
TEXT
  8
_0-5_寸法線
 62
    7
 10
1335.6632812499927
 20
599.24357311320682
 40
15
 41
1
 50
90
  1
210
  0
LINE
  8
_0-1_計細線
  6
CONTINUOUS
 62
    3
 10
1229.1632812499938
 20
535.49357311320955
 11
1250.6632812499936
 21
535.49357311320955
  0
LINE
  8
_0-1_計細線
  6
CONTINUOUS
 62
    3
 10
1229.1632812499938
 20
685.49357311320819
 11
1250.6632812499936
 21
685.49357311320819
  0
LINE
  8
_0-5_寸法線
  6
CONTINUOUS
 62
    7
 10
230.1632812499939
 20
725.49357311320728
 11
230.16328124999382
 21
805.49357311320728
  0
LINE
  8
_0-5_寸法線
  6
CONTINUOUS
 62
    7
 10
230.16328124999382
 20
800.49357311320728
 11
237.40772494716182
 21
802.43471595147628
  0
LINE
  8
_0-5_寸法線
  6
CONTINUOUS
 62
    7
 10
230.16328124999382
 20
800.49357311320728
 11
237.40772494716182
 21
798.55243027493839
  0
LINE
  8
_0-5_寸法線
  6
CONTINUOUS
 62
    7
 10
1229.1632812499938
 20
725.49357311320728
 11
1229.1632812499938
 21
805.49357311320728
  0
LINE
  8
_0-5_寸法線
  6
CONTINUOUS
 62
    7
 10
1229.1632812499938
 20
800.49357311320728
 11
1221.9188375528258
 21
798.55243027493839
  0
LINE
  8
_0-5_寸法線
  6
CONTINUOUS
 62
    7
 10
1229.1632812499938
 20
800.49357311320728
 11
1221.9188375528258
 21
802.43471595147628
  0
LINE
  8
_0-5_寸法線
  6
CONTINUOUS
 62
    7
 10
230.16328124999382
 20
800.49357311320728
 11
1229.1632812499938
 21
800.49357311320728
  0
TEXT
  8
_0-5_寸法線
 62
    7
 10
718.41328124999382
 20
800.49357311320728
 40
15
 41
1
 50
0
  1
999
  0
LINE
  8
_0-1_計細線
  6
CONTINUOUS
 62
    3
 10
1229.1632812499938
 20
685.49357311320819
 11
1250.6632812499936
 21
685.49357311320819
  0
LINE
  8
_0-1_計細線
  6
CONTINUOUS
 62
    3
 10
1229.1632812499943
 20
509.99357311320955
 11
1229.1632812499934
 21
710.99357311320819
  0
LINE
  8
_0-1_計細線
  6
CONTINUOUS
 62
    3
 10
1217.7632812499937
 20
509.99357311320955
 11
1217.7632812499928
 21
710.99357311320819
  0
LINE
  8
_0-1_計細線
  6
CONTINUOUS
 62
    3
 10
1229.1632812499943
 20
509.99357311320955
 11
1217.7632812499937
 21
509.99357311320955
  0
LINE
  8
_0-1_計細線
  6
CONTINUOUS
 62
    3
 10
1229.1632812499934
 20
710.99357311320819
 11
1217.7632812499928
 21
710.99357311320819
  0
LINE
  8
_0-0_計極細
  6
CONTINUOUS
 62
    2
 10
1220.963281249994
 20
509.99357311320955
 11
1220.9632812499931
 21
710.99357311320819
  0
LINE
  8
_0-0_計極細
  6
CONTINUOUS
 62
    2
 10
1225.963281249994
 20
509.99357311320955
 11
1225.9632812499931
 21
710.99357311320819
  0
LINE
  8
_0-1_計細線
  6
CONTINUOUS
 62
    3
 10
1195.1632812499934
 20
509.99357311320955
 11
1195.1632812499925
 21
710.99357311320819
  0
LINE
  8
_0-1_計細線
  6
CONTINUOUS
 62
    3
 10
1183.7632812499928
 20
509.99357311320978
 11
1183.7632812499919
 21
710.99357311320841
  0
LINE
  8
_0-1_計細線
  6
CONTINUOUS
 62
    3
 10
1195.1632812499934
 20
509.99357311320955
 11
1183.7632812499928
 21
509.99357311320978
  0
LINE
  8
_0-1_計細線
  6
CONTINUOUS
 62
    3
 10
1195.1632812499925
 20
710.99357311320819
 11
1183.7632812499919
 21
710.99357311320841
  0
LINE
  8
_0-0_計極細
  6
CONTINUOUS
 62
    2
 10
1186.9632812499935
 20
509.99357311320978
 11
1186.9632812499926
 21
710.99357311320841
  0
LINE
  8
_0-0_計極細
  6
CONTINUOUS
 62
    2
 10
1191.9632812499935
 20
509.99357311320955
 11
1191.9632812499926
 21
710.99357311320841
  0
LINE
  8
_0-1_計細線
  6
CONTINUOUS
 62
    3
 10
1178.1632812499929
 20
509.99357311320978
 11
1178.163281249992
 21
710.99357311320841
  0
LINE
  8
_0-1_計細線
  6
CONTINUOUS
 62
    3
 10
1166.7632812499924
 20
509.99357311320978
 11
1166.7632812499912
 21
710.99357311320841
  0
LINE
  8
_0-1_計細線
  6
CONTINUOUS
 62
    3
 10
1178.1632812499929
 20
509.99357311320978
 11
1166.7632812499924
 21
509.99357311320978
  0
LINE
  8
_0-1_計細線
  6
CONTINUOUS
 62
    3
 10
1178.163281249992
 20
710.99357311320841
 11
1166.7632812499912
 21
710.99357311320841
  0
LINE
  8
_0-0_計極細
  6
CONTINUOUS
 62
    2
 10
1169.9632812499926
 20
509.99357311320978
 11
1169.9632812499915
 21
710.99357311320841
  0
LINE
  8
_0-0_計極細
  6
CONTINUOUS
 62
    2
 10
1174.9632812499926
 20
509.99357311320978
 11
1174.9632812499915
 21
710.99357311320841
  0
LINE
  8
_0-1_計細線
  6
CONTINUOUS
 62
    3
 10
1115.7632812499951
 20
509.99357311320978
 11
1115.7632812499942
 21
710.99357311320819
  0
LINE
  8
_0-1_計細線
  6
CONTINUOUS
 62
    3
 10
1127.1632812499956
 20
509.99357311320955
 11
1127.1632812499947
 21
710.99357311320841
  0
LINE
  8
_0-1_計細線
  6
CONTINUOUS
 62
    3
 10
1115.7632812499951
 20
509.99357311320978
 11
1127.1632812499956
 21
509.99357311320955
  0
LINE
  8
_0-1_計細線
  6
CONTINUOUS
 62
    3
 10
1115.7632812499942
 20
710.99357311320819
 11
1127.1632812499947
 21
710.99357311320841
  0
LINE
  8
_0-0_計極細
  6
CONTINUOUS
 62
    2
 10
1123.9632812499949
 20
509.99357311320955
 11
1123.963281249994
 21
710.99357311320819
  0
LINE
  8
_0-0_計極細
  6
CONTINUOUS
 62
    2
 10
1118.9632812499949
 20
509.99357311320978
 11
1118.963281249994
 21
710.99357311320819
  0
LINE
  8
_0-1_計細線
  6
CONTINUOUS
 62
    3
 10
1098.7632812499942
 20
509.99357311320978
 11
1098.763281249993
 21
710.99357311320819
  0
LINE
  8
_0-1_計細線
  6
CONTINUOUS
 62
    3
 10
1110.1632812499947
 20
509.99357311320978
 11
1110.1632812499936
 21
710.99357311320819
  0
LINE
  8
_0-1_計細線
  6
CONTINUOUS
 62
    3
 10
1098.7632812499942
 20
509.99357311320978
 11
1110.1632812499947
 21
509.99357311320978
  0
LINE
  8
_0-1_計細線
  6
CONTINUOUS
 62
    3
 10
1098.763281249993
 20
710.99357311320819
 11
1110.1632812499936
 21
710.99357311320819
  0
LINE
  8
_0-0_計極細
  6
CONTINUOUS
 62
    2
 10
1106.9632812499945
 20
509.99357311320978
 11
1106.9632812499933
 21
710.99357311320819
  0
LINE
  8
_0-0_計極細
  6
CONTINUOUS
 62
    2
 10
1101.9632812499945
 20
509.99357311320978
 11
1101.9632812499933
 21
710.99357311320819
  0
LINE
  8
_0-1_計細線
  6
CONTINUOUS
 62
    3
 10
1081.7632812499942
 20
509.99357311320978
 11
1081.7632812499933
 21
710.99357311320819
  0
LINE
  8
_0-1_計細線
  6
CONTINUOUS
 62
    3
 10
1093.1632812499947
 20
509.99357311320978
 11
1093.1632812499938
 21
710.99357311320819
  0
LINE
  8
_0-1_計細線
  6
CONTINUOUS
 62
    3
 10
1081.7632812499942
 20
509.99357311320978
 11
1093.1632812499947
 21
509.99357311320978
  0
LINE
  8
_0-1_計細線
  6
CONTINUOUS
 62
    3
 10
1081.7632812499933
 20
710.99357311320819
 11
1093.1632812499938
 21
710.99357311320819
  0
LINE
  8
_0-0_計極細
  6
CONTINUOUS
 62
    2
 10
1089.9632812499945
 20
509.99357311320978
 11
1089.9632812499935
 21
710.99357311320819
  0
LINE
  8
_0-0_計極細
  6
CONTINUOUS
 62
    2
 10
1084.9632812499945
 20
509.99357311320978
 11
1084.9632812499935
 21
710.99357311320819
  0
LINE
  8
_0-1_計細線
  6
CONTINUOUS
 62
    3
 10
1076.1632812499952
 20
509.99357311320955
 11
1076.163281249994
 21
710.99357311320819
  0
LINE
  8
_0-1_計細線
  6
CONTINUOUS
 62
    3
 10
1064.7632812499946
 20
509.99357311320955
 11
1064.7632812499935
 21
710.99357311320819
  0
LINE
  8
_0-1_計細線
  6
CONTINUOUS
 62
    3
 10
1076.1632812499952
 20
509.99357311320955
 11
1064.7632812499946
 21
509.99357311320955
  0
LINE
  8
_0-1_計細線
  6
CONTINUOUS
 62
    3
 10
1076.163281249994
 20
710.99357311320819
 11
1064.7632812499935
 21
710.99357311320819
  0
LINE
  8
_0-0_計極細
  6
CONTINUOUS
 62
    2
 10
1067.9632812499949
 20
509.99357311320955
 11
1067.9632812499938
 21
710.99357311320819
  0
LINE
  8
_0-0_計極細
  6
CONTINUOUS
 62
    2
 10
1072.9632812499949
 20
509.99357311320955
 11
1072.9632812499938
 21
710.99357311320819
  0
LINE
  8
_0-1_計細線
  6
CONTINUOUS
 62
    3
 10
1212.1632812499956
 20
509.99357311320955
 11
1212.1632812499945
 21
710.99357311320819
  0
LINE
  8
_0-1_計細線
  6
CONTINUOUS
 62
    3
 10
1200.7632812499951
 20
509.99357311320978
 11
1200.7632812499942
 21
710.99357311320841
  0
LINE
  8
_0-1_計細線
  6
CONTINUOUS
 62
    3
 10
1212.1632812499956
 20
509.99357311320955
 11
1200.7632812499951
 21
509.99357311320978
  0
LINE
  8
_0-1_計細線
  6
CONTINUOUS
 62
    3
 10
1212.1632812499945
 20
710.99357311320819
 11
1200.7632812499942
 21
710.99357311320841
  0
LINE
  8
_0-0_計極細
  6
CONTINUOUS
 62
    2
 10
1203.9632812499958
 20
509.99357311320978
 11
1203.9632812499947
 21
710.99357311320841
  0
LINE
  8
_0-0_計極細
  6
CONTINUOUS
 62
    2
 10
1208.9632812499958
 20
509.99357311320955
 11
1208.9632812499947
 21
710.99357311320841
  0
LINE
  8
_0-1_計細線
  6
CONTINUOUS
 62
    3
 10
1059.1632812499952
 20
509.99357311320955
 11
1059.1632812499943
 21
710.99357311320819
  0
LINE
  8
_0-1_計細線
  6
CONTINUOUS
 62
    3
 10
1047.7632812499946
 20
509.99357311320955
 11
1047.7632812499937
 21
710.99357311320819
  0
LINE
  8
_0-1_計細線
  6
CONTINUOUS
 62
    3
 10
1059.1632812499952
 20
509.99357311320955
 11
1047.7632812499946
 21
509.99357311320955
  0
LINE
  8
_0-1_計細線
  6
CONTINUOUS
 62
    3
 10
1059.1632812499943
 20
710.99357311320819
 11
1047.7632812499937
 21
710.99357311320819
  0
LINE
  8
_0-0_計極細
  6
CONTINUOUS
 62
    2
 10
1050.9632812499949
 20
509.99357311320955
 11
1050.963281249994
 21
710.99357311320819
  0
LINE
  8
_0-0_計極細
  6
CONTINUOUS
 62
    2
 10
1055.9632812499949
 20
509.99357311320955
 11
1055.963281249994
 21
710.99357311320819
  0
LINE
  8
_0-1_計細線
  6
CONTINUOUS
 62
    3
 10
1042.1632812499952
 20
509.99357311320955
 11
1042.1632812499943
 21
710.99357311320819
  0
LINE
  8
_0-1_計細線
  6
CONTINUOUS
 62
    3
 10
1030.7632812499946
 20
509.99357311320955
 11
1030.7632812499937
 21
710.99357311320819
  0
LINE
  8
_0-1_計細線
  6
CONTINUOUS
 62
    3
 10
1042.1632812499952
 20
509.99357311320955
 11
1030.7632812499946
 21
509.99357311320955
  0
LINE
  8
_0-1_計細線
  6
CONTINUOUS
 62
    3
 10
1042.1632812499943
 20
710.99357311320819
 11
1030.7632812499937
 21
710.99357311320819
  0
LINE
  8
_0-0_計極細
  6
CONTINUOUS
 62
    2
 10
1033.9632812499949
 20
509.99357311320955
 11
1033.963281249994
 21
710.99357311320819
  0
LINE
  8
_0-0_計極細
  6
CONTINUOUS
 62
    2
 10
1038.9632812499949
 20
509.99357311320955
 11
1038.963281249994
 21
710.99357311320819
  0
LINE
  8
_0-1_計細線
  6
CONTINUOUS
 62
    3
 10
1025.1632812499952
 20
509.99357311320955
 11
1025.1632812499943
 21
710.99357311320819
  0
LINE
  8
_0-1_計細線
  6
CONTINUOUS
 62
    3
 10
1013.7632812499947
 20
509.99357311320955
 11
1013.7632812499937
 21
710.99357311320819
  0
LINE
  8
_0-1_計細線
  6
CONTINUOUS
 62
    3
 10
1025.1632812499952
 20
509.99357311320955
 11
1013.7632812499947
 21
509.99357311320955
  0
LINE
  8
_0-1_計細線
  6
CONTINUOUS
 62
    3
 10
1025.1632812499943
 20
710.99357311320819
 11
1013.7632812499937
 21
710.99357311320819
  0
LINE
  8
_0-0_計極細
  6
CONTINUOUS
 62
    2
 10
1016.9632812499951
 20
509.99357311320955
 11
1016.9632812499941
 21
710.99357311320819
  0
LINE
  8
_0-0_計極細
  6
CONTINUOUS
 62
    2
 10
1021.9632812499951
 20
509.99357311320955
 11
1021.9632812499941
 21
710.99357311320819
  0
LINE
  8
_0-1_計細線
  6
CONTINUOUS
 62
    3
 10
1008.1632812499953
 20
509.99357311320955
 11
1008.1632812499943
 21
710.99357311320819
  0
LINE
  8
_0-1_計細線
  6
CONTINUOUS
 62
    3
 10
996.76328124999486
 20
509.99357311320955
 11
996.76328124999372
 21
710.99357311320819
  0
LINE
  8
_0-1_計細線
  6
CONTINUOUS
 62
    3
 10
1008.1632812499953
 20
509.99357311320955
 11
996.76328124999486
 21
509.99357311320955
  0
LINE
  8
_0-1_計細線
  6
CONTINUOUS
 62
    3
 10
1008.1632812499943
 20
710.99357311320819
 11
996.76328124999372
 21
710.99357311320819
  0
LINE
  8
_0-0_計極細
  6
CONTINUOUS
 62
    2
 10
999.96328124999513
 20
509.99357311320955
 11
999.96328124999411
 21
710.99357311320819
  0
LINE
  8
_0-0_計極細
  6
CONTINUOUS
 62
    2
 10
1004.9632812499951
 20
509.99357311320955
 11
1004.9632812499941
 21
710.99357311320819
  0
LINE
  8
_0-1_計細線
  6
CONTINUOUS
 62
    3
 10
991.16328124999541
 20
509.99357311320955
 11
991.16328124999427
 21
710.99357311320819
  0
LINE
  8
_0-1_計細線
  6
CONTINUOUS
 62
    3
 10
979.76328124999486
 20
509.99357311320955
 11
979.76328124999384
 21
710.99357311320819
  0
LINE
  8
_0-1_計細線
  6
CONTINUOUS
 62
    3
 10
991.16328124999541
 20
509.99357311320955
 11
979.76328124999486
 21
509.99357311320955
  0
LINE
  8
_0-1_計細線
  6
CONTINUOUS
 62
    3
 10
991.16328124999427
 20
710.99357311320819
 11
979.76328124999384
 21
710.99357311320819
  0
LINE
  8
_0-0_計極細
  6
CONTINUOUS
 62
    2
 10
982.96328124999502
 20
509.99357311320955
 11
982.963281249994
 21
710.99357311320819
  0
LINE
  8
_0-0_計極細
  6
CONTINUOUS
 62
    2
 10
987.96328124999502
 20
509.99357311320955
 11
987.963281249994
 21
710.99357311320819
  0
LINE
  8
_0-1_計細線
  6
CONTINUOUS
 62
    3
 10
974.16328124999541
 20
509.99357311320955
 11
974.16328124999438
 21
710.99357311320819
  0
LINE
  8
_0-1_計細線
  6
CONTINUOUS
 62
    3
 10
962.76328124999486
 20
509.99357311320955
 11
962.76328124999384
 21
710.99357311320819
  0
LINE
  8
_0-1_計細線
  6
CONTINUOUS
 62
    3
 10
974.16328124999541
 20
509.99357311320955
 11
962.76328124999486
 21
509.99357311320955
  0
LINE
  8
_0-1_計細線
  6
CONTINUOUS
 62
    3
 10
974.16328124999438
 20
710.99357311320819
 11
962.76328124999384
 21
710.99357311320819
  0
LINE
  8
_0-0_計極細
  6
CONTINUOUS
 62
    2
 10
965.96328124999502
 20
509.99357311320955
 11
965.963281249994
 21
710.99357311320819
  0
LINE
  8
_0-0_計極細
  6
CONTINUOUS
 62
    2
 10
970.96328124999502
 20
509.99357311320955
 11
970.963281249994
 21
710.99357311320819
  0
LINE
  8
_0-1_計細線
  6
CONTINUOUS
 62
    3
 10
957.16328124999541
 20
509.99357311320955
 11
957.16328124999438
 21
710.99357311320819
  0
LINE
  8
_0-1_計細線
  6
CONTINUOUS
 62
    3
 10
945.76328124999475
 20
509.99357311320955
 11
945.76328124999372
 21
710.99357311320819
  0
LINE
  8
_0-1_計細線
  6
CONTINUOUS
 62
    3
 10
957.16328124999541
 20
509.99357311320955
 11
945.76328124999475
 21
509.99357311320955
  0
LINE
  8
_0-1_計細線
  6
CONTINUOUS
 62
    3
 10
957.16328124999438
 20
710.99357311320819
 11
945.76328124999372
 21
710.99357311320819
  0
LINE
  8
_0-0_計極細
  6
CONTINUOUS
 62
    2
 10
948.96328124999513
 20
509.99357311320955
 11
948.963281249994
 21
710.99357311320819
  0
LINE
  8
_0-0_計極細
  6
CONTINUOUS
 62
    2
 10
953.96328124999513
 20
509.99357311320955
 11
953.963281249994
 21
710.99357311320819
  0
LINE
  8
_0-1_計細線
  6
CONTINUOUS
 62
    3
 10
940.16328124999529
 20
509.99357311320955
 11
940.16328124999427
 21
710.99357311320819
  0
LINE
  8
_0-1_計細線
  6
CONTINUOUS
 62
    3
 10
928.76328124999475
 20
509.99357311320955
 11
928.76328124999372
 21
710.99357311320819
  0
LINE
  8
_0-1_計細線
  6
CONTINUOUS
 62
    3
 10
940.16328124999529
 20
509.99357311320955
 11
928.76328124999475
 21
509.99357311320955
  0
LINE
  8
_0-1_計細線
  6
CONTINUOUS
 62
    3
 10
940.16328124999427
 20
710.99357311320819
 11
928.76328124999372
 21
710.99357311320819
  0
LINE
  8
_0-0_計極細
  6
CONTINUOUS
 62
    2
 10
931.96328124999513
 20
509.99357311320955
 11
931.96328124999411
 21
710.99357311320819
  0
LINE
  8
_0-0_計極細
  6
CONTINUOUS
 62
    2
 10
936.96328124999513
 20
509.99357311320955
 11
936.96328124999411
 21
710.99357311320819
  0
LINE
  8
_0-1_計細線
  6
CONTINUOUS
 62
    3
 10
923.16328124999529
 20
509.99357311320955
 11
923.16328124999427
 21
710.99357311320819
  0
LINE
  8
_0-1_計細線
  6
CONTINUOUS
 62
    3
 10
911.76328124999486
 20
509.99357311320955
 11
911.76328124999372
 21
710.99357311320819
  0
LINE
  8
_0-1_計細線
  6
CONTINUOUS
 62
    3
 10
923.16328124999529
 20
509.99357311320955
 11
911.76328124999486
 21
509.99357311320955
  0
LINE
  8
_0-1_計細線
  6
CONTINUOUS
 62
    3
 10
923.16328124999427
 20
710.99357311320819
 11
911.76328124999372
 21
710.99357311320819
  0
LINE
  8
_0-0_計極細
  6
CONTINUOUS
 62
    2
 10
914.96328124999513
 20
509.99357311320955
 11
914.96328124999411
 21
710.99357311320819
  0
LINE
  8
_0-0_計極細
  6
CONTINUOUS
 62
    2
 10
919.96328124999513
 20
509.99357311320955
 11
919.96328124999411
 21
710.99357311320819
  0
LINE
  8
_0-1_計細線
  6
CONTINUOUS
 62
    3
 10
906.16328124999541
 20
509.99357311320955
 11
906.16328124999427
 21
710.99357311320819
  0
LINE
  8
_0-1_計細線
  6
CONTINUOUS
 62
    3
 10
894.76328124999486
 20
509.99357311320955
 11
894.76328124999384
 21
710.99357311320819
  0
LINE
  8
_0-1_計細線
  6
CONTINUOUS
 62
    3
 10
906.16328124999541
 20
509.99357311320955
 11
894.76328124999486
 21
509.99357311320955
  0
LINE
  8
_0-1_計細線
  6
CONTINUOUS
 62
    3
 10
906.16328124999427
 20
710.99357311320819
 11
894.76328124999384
 21
710.99357311320819
  0
LINE
  8
_0-0_計極細
  6
CONTINUOUS
 62
    2
 10
897.96328124999502
 20
509.99357311320955
 11
897.963281249994
 21
710.99357311320819
  0
LINE
  8
_0-0_計極細
  6
CONTINUOUS
 62
    2
 10
902.96328124999502
 20
509.99357311320955
 11
902.963281249994
 21
710.99357311320819
  0
LINE
  8
_0-1_計細線
  6
CONTINUOUS
 62
    3
 10
889.16328124999541
 20
509.99357311320955
 11
889.16328124999438
 21
710.99357311320819
  0
LINE
  8
_0-1_計細線
  6
CONTINUOUS
 62
    3
 10
877.76328124999486
 20
509.99357311320955
 11
877.76328124999384
 21
710.99357311320819
  0
LINE
  8
_0-1_計細線
  6
CONTINUOUS
 62
    3
 10
889.16328124999541
 20
509.99357311320955
 11
877.76328124999486
 21
509.99357311320955
  0
LINE
  8
_0-1_計細線
  6
CONTINUOUS
 62
    3
 10
889.16328124999438
 20
710.99357311320819
 11
877.76328124999384
 21
710.99357311320819
  0
LINE
  8
_0-0_計極細
  6
CONTINUOUS
 62
    2
 10
880.96328124999502
 20
509.99357311320955
 11
880.963281249994
 21
710.99357311320819
  0
LINE
  8
_0-0_計極細
  6
CONTINUOUS
 62
    2
 10
885.96328124999502
 20
509.99357311320955
 11
885.963281249994
 21
710.99357311320819
  0
LINE
  8
_0-1_計細線
  6
CONTINUOUS
 62
    3
 10
872.16328124999541
 20
509.99357311320955
 11
872.16328124999438
 21
710.99357311320819
  0
LINE
  8
_0-1_計細線
  6
CONTINUOUS
 62
    3
 10
860.76328124999475
 20
509.99357311320955
 11
860.76328124999372
 21
710.99357311320819
  0
LINE
  8
_0-1_計細線
  6
CONTINUOUS
 62
    3
 10
872.16328124999541
 20
509.99357311320955
 11
860.76328124999475
 21
509.99357311320955
  0
LINE
  8
_0-1_計細線
  6
CONTINUOUS
 62
    3
 10
872.16328124999438
 20
710.99357311320819
 11
860.76328124999372
 21
710.99357311320819
  0
LINE
  8
_0-0_計極細
  6
CONTINUOUS
 62
    2
 10
863.96328124999513
 20
509.99357311320955
 11
863.963281249994
 21
710.99357311320819
  0
LINE
  8
_0-0_計極細
  6
CONTINUOUS
 62
    2
 10
868.96328124999513
 20
509.99357311320955
 11
868.963281249994
 21
710.99357311320819
  0
LINE
  8
_0-1_計細線
  6
CONTINUOUS
 62
    3
 10
855.16328124999529
 20
509.99357311320955
 11
855.16328124999427
 21
710.99357311320819
  0
LINE
  8
_0-1_計細線
  6
CONTINUOUS
 62
    3
 10
843.76328124999475
 20
509.99357311320955
 11
843.76328124999372
 21
710.99357311320819
  0
LINE
  8
_0-1_計細線
  6
CONTINUOUS
 62
    3
 10
855.16328124999529
 20
509.99357311320955
 11
843.76328124999475
 21
509.99357311320955
  0
LINE
  8
_0-1_計細線
  6
CONTINUOUS
 62
    3
 10
855.16328124999427
 20
710.99357311320819
 11
843.76328124999372
 21
710.99357311320819
  0
LINE
  8
_0-0_計極細
  6
CONTINUOUS
 62
    2
 10
846.96328124999513
 20
509.99357311320955
 11
846.96328124999411
 21
710.99357311320819
  0
LINE
  8
_0-0_計極細
  6
CONTINUOUS
 62
    2
 10
851.96328124999513
 20
509.99357311320955
 11
851.96328124999411
 21
710.99357311320819
  0
LINE
  8
_0-1_計細線
  6
CONTINUOUS
 62
    3
 10
838.16328124999529
 20
509.99357311320955
 11
838.16328124999427
 21
710.99357311320819
  0
LINE
  8
_0-1_計細線
  6
CONTINUOUS
 62
    3
 10
826.76328124999486
 20
509.99357311320955
 11
826.76328124999372
 21
710.99357311320819
  0
LINE
  8
_0-1_計細線
  6
CONTINUOUS
 62
    3
 10
838.16328124999529
 20
509.99357311320955
 11
826.76328124999486
 21
509.99357311320955
  0
LINE
  8
_0-1_計細線
  6
CONTINUOUS
 62
    3
 10
838.16328124999427
 20
710.99357311320819
 11
826.76328124999372
 21
710.99357311320819
  0
LINE
  8
_0-0_計極細
  6
CONTINUOUS
 62
    2
 10
829.96328124999513
 20
509.99357311320955
 11
829.96328124999411
 21
710.99357311320819
  0
LINE
  8
_0-0_計極細
  6
CONTINUOUS
 62
    2
 10
834.96328124999513
 20
509.99357311320955
 11
834.96328124999411
 21
710.99357311320819
  0
LINE
  8
_0-1_計細線
  6
CONTINUOUS
 62
    3
 10
821.16328124999541
 20
509.99357311320955
 11
821.16328124999427
 21
710.99357311320819
  0
LINE
  8
_0-1_計細線
  6
CONTINUOUS
 62
    3
 10
809.76328124999486
 20
509.99357311320955
 11
809.76328124999384
 21
710.99357311320819
  0
LINE
  8
_0-1_計細線
  6
CONTINUOUS
 62
    3
 10
821.16328124999541
 20
509.99357311320955
 11
809.76328124999486
 21
509.99357311320955
  0
LINE
  8
_0-1_計細線
  6
CONTINUOUS
 62
    3
 10
821.16328124999427
 20
710.99357311320819
 11
809.76328124999384
 21
710.99357311320819
  0
LINE
  8
_0-0_計極細
  6
CONTINUOUS
 62
    2
 10
812.96328124999502
 20
509.99357311320955
 11
812.963281249994
 21
710.99357311320819
  0
LINE
  8
_0-0_計極細
  6
CONTINUOUS
 62
    2
 10
817.96328124999502
 20
509.99357311320955
 11
817.963281249994
 21
710.99357311320819
  0
LINE
  8
_0-1_計細線
  6
CONTINUOUS
 62
    3
 10
804.16328124999541
 20
509.99357311320955
 11
804.16328124999438
 21
710.99357311320819
  0
LINE
  8
_0-1_計細線
  6
CONTINUOUS
 62
    3
 10
792.76328124999486
 20
509.99357311320955
 11
792.76328124999384
 21
710.99357311320819
  0
LINE
  8
_0-1_計細線
  6
CONTINUOUS
 62
    3
 10
804.16328124999541
 20
509.99357311320955
 11
792.76328124999486
 21
509.99357311320955
  0
LINE
  8
_0-1_計細線
  6
CONTINUOUS
 62
    3
 10
804.16328124999438
 20
710.99357311320819
 11
792.76328124999384
 21
710.99357311320819
  0
LINE
  8
_0-0_計極細
  6
CONTINUOUS
 62
    2
 10
795.96328124999502
 20
509.99357311320955
 11
795.963281249994
 21
710.99357311320819
  0
LINE
  8
_0-0_計極細
  6
CONTINUOUS
 62
    2
 10
800.96328124999502
 20
509.99357311320955
 11
800.963281249994
 21
710.99357311320819
  0
LINE
  8
_0-1_計細線
  6
CONTINUOUS
 62
    3
 10
787.16328124999541
 20
509.99357311320955
 11
787.16328124999438
 21
710.99357311320819
  0
LINE
  8
_0-1_計細線
  6
CONTINUOUS
 62
    3
 10
775.76328124999475
 20
509.99357311320955
 11
775.76328124999372
 21
710.99357311320819
  0
LINE
  8
_0-1_計細線
  6
CONTINUOUS
 62
    3
 10
787.16328124999541
 20
509.99357311320955
 11
775.76328124999475
 21
509.99357311320955
  0
LINE
  8
_0-1_計細線
  6
CONTINUOUS
 62
    3
 10
787.16328124999438
 20
710.99357311320819
 11
775.76328124999372
 21
710.99357311320819
  0
LINE
  8
_0-0_計極細
  6
CONTINUOUS
 62
    2
 10
778.96328124999513
 20
509.99357311320955
 11
778.963281249994
 21
710.99357311320819
  0
LINE
  8
_0-0_計極細
  6
CONTINUOUS
 62
    2
 10
783.96328124999513
 20
509.99357311320955
 11
783.963281249994
 21
710.99357311320819
  0
LINE
  8
_0-1_計細線
  6
CONTINUOUS
 62
    3
 10
770.16328124999529
 20
509.99357311320955
 11
770.16328124999427
 21
710.99357311320819
  0
LINE
  8
_0-1_計細線
  6
CONTINUOUS
 62
    3
 10
758.76328124999475
 20
509.99357311320955
 11
758.76328124999372
 21
710.99357311320819
  0
LINE
  8
_0-1_計細線
  6
CONTINUOUS
 62
    3
 10
770.16328124999529
 20
509.99357311320955
 11
758.76328124999475
 21
509.99357311320955
  0
LINE
  8
_0-1_計細線
  6
CONTINUOUS
 62
    3
 10
770.16328124999427
 20
710.99357311320819
 11
758.76328124999372
 21
710.99357311320819
  0
LINE
  8
_0-0_計極細
  6
CONTINUOUS
 62
    2
 10
761.96328124999513
 20
509.99357311320955
 11
761.963281249994
 21
710.99357311320819
  0
LINE
  8
_0-0_計極細
  6
CONTINUOUS
 62
    2
 10
766.96328124999513
 20
509.99357311320955
 11
766.963281249994
 21
710.99357311320819
  0
LINE
  8
_0-1_計細線
  6
CONTINUOUS
 62
    3
 10
753.16328124999529
 20
509.99357311320955
 11
753.16328124999427
 21
710.99357311320819
  0
LINE
  8
_0-1_計細線
  6
CONTINUOUS
 62
    3
 10
741.76328124999475
 20
509.99357311320955
 11
741.76328124999372
 21
710.99357311320819
  0
LINE
  8
_0-1_計細線
  6
CONTINUOUS
 62
    3
 10
753.16328124999529
 20
509.99357311320955
 11
741.76328124999475
 21
509.99357311320955
  0
LINE
  8
_0-1_計細線
  6
CONTINUOUS
 62
    3
 10
753.16328124999427
 20
710.99357311320819
 11
741.76328124999372
 21
710.99357311320819
  0
LINE
  8
_0-0_計極細
  6
CONTINUOUS
 62
    2
 10
744.96328124999513
 20
509.99357311320955
 11
744.96328124999411
 21
710.99357311320819
  0
LINE
  8
_0-0_計極細
  6
CONTINUOUS
 62
    2
 10
749.96328124999513
 20
509.99357311320955
 11
749.96328124999411
 21
710.99357311320819
  0
LINE
  8
_0-1_計細線
  6
CONTINUOUS
 62
    3
 10
736.16328124999529
 20
509.99357311320955
 11
736.16328124999427
 21
710.99357311320819
  0
LINE
  8
_0-1_計細線
  6
CONTINUOUS
 62
    3
 10
724.76328124999486
 20
509.99357311320955
 11
724.76328124999372
 21
710.99357311320819
  0
LINE
  8
_0-1_計細線
  6
CONTINUOUS
 62
    3
 10
736.16328124999529
 20
509.99357311320955
 11
724.76328124999486
 21
509.99357311320955
  0
LINE
  8
_0-1_計細線
  6
CONTINUOUS
 62
    3
 10
736.16328124999427
 20
710.99357311320819
 11
724.76328124999372
 21
710.99357311320819
  0
LINE
  8
_0-0_計極細
  6
CONTINUOUS
 62
    2
 10
727.96328124999502
 20
509.99357311320955
 11
727.963281249994
 21
710.99357311320819
  0
LINE
  8
_0-0_計極細
  6
CONTINUOUS
 62
    2
 10
732.96328124999502
 20
509.99357311320955
 11
732.963281249994
 21
710.99357311320819
  0
LINE
  8
_0-1_計細線
  6
CONTINUOUS
 62
    3
 10
719.16328124999541
 20
509.99357311320955
 11
719.16328124999427
 21
710.99357311320819
  0
LINE
  8
_0-1_計細線
  6
CONTINUOUS
 62
    3
 10
707.76328124999486
 20
509.99357311320955
 11
707.76328124999384
 21
710.99357311320819
  0
LINE
  8
_0-1_計細線
  6
CONTINUOUS
 62
    3
 10
719.16328124999541
 20
509.99357311320955
 11
707.76328124999486
 21
509.99357311320955
  0
LINE
  8
_0-1_計細線
  6
CONTINUOUS
 62
    3
 10
719.16328124999427
 20
710.99357311320819
 11
707.76328124999384
 21
710.99357311320819
  0
LINE
  8
_0-0_計極細
  6
CONTINUOUS
 62
    2
 10
710.96328124999502
 20
509.99357311320955
 11
710.963281249994
 21
710.99357311320819
  0
LINE
  8
_0-0_計極細
  6
CONTINUOUS
 62
    2
 10
715.96328124999502
 20
509.99357311320955
 11
715.963281249994
 21
710.99357311320819
  0
LINE
  8
_0-1_計細線
  6
CONTINUOUS
 62
    3
 10
702.16328124999541
 20
509.99357311320955
 11
702.16328124999438
 21
710.99357311320819
  0
LINE
  8
_0-1_計細線
  6
CONTINUOUS
 62
    3
 10
690.76328124999475
 20
509.99357311320955
 11
690.76328124999372
 21
710.99357311320819
  0
LINE
  8
_0-1_計細線
  6
CONTINUOUS
 62
    3
 10
702.16328124999541
 20
509.99357311320955
 11
690.76328124999475
 21
509.99357311320955
  0
LINE
  8
_0-1_計細線
  6
CONTINUOUS
 62
    3
 10
702.16328124999438
 20
710.99357311320819
 11
690.76328124999372
 21
710.99357311320819
  0
LINE
  8
_0-0_計極細
  6
CONTINUOUS
 62
    2
 10
693.96328124999502
 20
509.99357311320955
 11
693.963281249994
 21
710.99357311320819
  0
LINE
  8
_0-0_計極細
  6
CONTINUOUS
 62
    2
 10
698.96328124999502
 20
509.99357311320955
 11
698.963281249994
 21
710.99357311320819
  0
LINE
  8
_0-1_計細線
  6
CONTINUOUS
 62
    3
 10
685.16328124999529
 20
509.99357311320955
 11
685.16328124999427
 21
710.99357311320819
  0
LINE
  8
_0-1_計細線
  6
CONTINUOUS
 62
    3
 10
673.76328124999475
 20
509.99357311320955
 11
673.76328124999372
 21
710.99357311320819
  0
LINE
  8
_0-1_計細線
  6
CONTINUOUS
 62
    3
 10
685.16328124999529
 20
509.99357311320955
 11
673.76328124999475
 21
509.99357311320955
  0
LINE
  8
_0-1_計細線
  6
CONTINUOUS
 62
    3
 10
685.16328124999427
 20
710.99357311320819
 11
673.76328124999372
 21
710.99357311320819
  0
LINE
  8
_0-0_計極細
  6
CONTINUOUS
 62
    2
 10
676.96328124999513
 20
509.99357311320955
 11
676.963281249994
 21
710.99357311320819
  0
LINE
  8
_0-0_計極細
  6
CONTINUOUS
 62
    2
 10
681.96328124999513
 20
509.99357311320955
 11
681.963281249994
 21
710.99357311320819
  0
LINE
  8
_0-1_計細線
  6
CONTINUOUS
 62
    3
 10
668.16328124999529
 20
509.99357311320955
 11
668.16328124999427
 21
710.99357311320819
  0
LINE
  8
_0-1_計細線
  6
CONTINUOUS
 62
    3
 10
656.76328124999475
 20
509.99357311320955
 11
656.76328124999372
 21
710.99357311320819
  0
LINE
  8
_0-1_計細線
  6
CONTINUOUS
 62
    3
 10
668.16328124999529
 20
509.99357311320955
 11
656.76328124999475
 21
509.99357311320955
  0
LINE
  8
_0-1_計細線
  6
CONTINUOUS
 62
    3
 10
668.16328124999427
 20
710.99357311320819
 11
656.76328124999372
 21
710.99357311320819
  0
LINE
  8
_0-0_計極細
  6
CONTINUOUS
 62
    2
 10
659.96328124999513
 20
509.99357311320955
 11
659.96328124999411
 21
710.99357311320819
  0
LINE
  8
_0-0_計極細
  6
CONTINUOUS
 62
    2
 10
664.96328124999513
 20
509.99357311320955
 11
664.96328124999411
 21
710.99357311320819
  0
LINE
  8
_0-1_計細線
  6
CONTINUOUS
 62
    3
 10
651.16328124999529
 20
509.99357311320955
 11
651.16328124999427
 21
710.99357311320819
  0
LINE
  8
_0-1_計細線
  6
CONTINUOUS
 62
    3
 10
639.76328124999475
 20
509.99357311320955
 11
639.76328124999372
 21
710.99357311320819
  0
LINE
  8
_0-1_計細線
  6
CONTINUOUS
 62
    3
 10
651.16328124999529
 20
509.99357311320955
 11
639.76328124999475
 21
509.99357311320955
  0
LINE
  8
_0-1_計細線
  6
CONTINUOUS
 62
    3
 10
651.16328124999427
 20
710.99357311320819
 11
639.76328124999372
 21
710.99357311320819
  0
LINE
  8
_0-0_計極細
  6
CONTINUOUS
 62
    2
 10
642.96328124999502
 20
509.99357311320955
 11
642.963281249994
 21
710.99357311320819
  0
LINE
  8
_0-0_計極細
  6
CONTINUOUS
 62
    2
 10
647.96328124999502
 20
509.99357311320955
 11
647.963281249994
 21
710.99357311320819
  0
LINE
  8
_0-1_計細線
  6
CONTINUOUS
 62
    3
 10
634.16328124999529
 20
509.99357311320955
 11
634.16328124999427
 21
710.99357311320819
  0
LINE
  8
_0-1_計細線
  6
CONTINUOUS
 62
    3
 10
622.76328124999486
 20
509.99357311320955
 11
622.76328124999372
 21
710.99357311320819
  0
LINE
  8
_0-1_計細線
  6
CONTINUOUS
 62
    3
 10
634.16328124999529
 20
509.99357311320955
 11
622.76328124999486
 21
509.99357311320955
  0
LINE
  8
_0-1_計細線
  6
CONTINUOUS
 62
    3
 10
634.16328124999427
 20
710.99357311320819
 11
622.76328124999372
 21
710.99357311320819
  0
LINE
  8
_0-0_計極細
  6
CONTINUOUS
 62
    2
 10
625.96328124999502
 20
509.99357311320955
 11
625.963281249994
 21
710.99357311320819
  0
LINE
  8
_0-0_計極細
  6
CONTINUOUS
 62
    2
 10
630.96328124999502
 20
509.99357311320955
 11
630.963281249994
 21
710.99357311320819
  0
LINE
  8
_0-1_計細線
  6
CONTINUOUS
 62
    3
 10
617.16328124999541
 20
509.99357311320955
 11
617.16328124999427
 21
710.99357311320819
  0
LINE
  8
_0-1_計細線
  6
CONTINUOUS
 62
    3
 10
605.76328124999475
 20
509.99357311320955
 11
605.76328124999372
 21
710.99357311320819
  0
LINE
  8
_0-1_計細線
  6
CONTINUOUS
 62
    3
 10
617.16328124999541
 20
509.99357311320955
 11
605.76328124999475
 21
509.99357311320955
  0
LINE
  8
_0-1_計細線
  6
CONTINUOUS
 62
    3
 10
617.16328124999427
 20
710.99357311320819
 11
605.76328124999372
 21
710.99357311320819
  0
LINE
  8
_0-0_計極細
  6
CONTINUOUS
 62
    2
 10
608.96328124999502
 20
509.99357311320955
 11
608.963281249994
 21
710.99357311320819
  0
LINE
  8
_0-0_計極細
  6
CONTINUOUS
 62
    2
 10
613.96328124999502
 20
509.99357311320955
 11
613.963281249994
 21
710.99357311320819
  0
LINE
  8
_0-1_計細線
  6
CONTINUOUS
 62
    3
 10
600.16328124999529
 20
509.99357311320955
 11
600.16328124999427
 21
710.99357311320819
  0
LINE
  8
_0-1_計細線
  6
CONTINUOUS
 62
    3
 10
588.76328124999475
 20
509.99357311320955
 11
588.76328124999372
 21
710.99357311320819
  0
LINE
  8
_0-1_計細線
  6
CONTINUOUS
 62
    3
 10
600.16328124999529
 20
509.99357311320955
 11
588.76328124999475
 21
509.99357311320955
  0
LINE
  8
_0-1_計細線
  6
CONTINUOUS
 62
    3
 10
600.16328124999427
 20
710.99357311320819
 11
588.76328124999372
 21
710.99357311320819
  0
LINE
  8
_0-0_計極細
  6
CONTINUOUS
 62
    2
 10
591.96328124999502
 20
509.99357311320955
 11
591.963281249994
 21
710.99357311320819
  0
LINE
  8
_0-0_計極細
  6
CONTINUOUS
 62
    2
 10
596.96328124999502
 20
509.99357311320955
 11
596.963281249994
 21
710.99357311320819
  0
LINE
  8
_0-1_計細線
  6
CONTINUOUS
 62
    3
 10
583.16328124999529
 20
509.99357311320955
 11
583.16328124999427
 21
710.99357311320819
  0
LINE
  8
_0-1_計細線
  6
CONTINUOUS
 62
    3
 10
571.76328124999475
 20
509.99357311320955
 11
571.76328124999372
 21
710.99357311320819
  0
LINE
  8
_0-1_計細線
  6
CONTINUOUS
 62
    3
 10
583.16328124999529
 20
509.99357311320955
 11
571.76328124999475
 21
509.99357311320955
  0
LINE
  8
_0-1_計細線
  6
CONTINUOUS
 62
    3
 10
583.16328124999427
 20
710.99357311320819
 11
571.76328124999372
 21
710.99357311320819
  0
LINE
  8
_0-0_計極細
  6
CONTINUOUS
 62
    2
 10
574.96328124999513
 20
509.99357311320955
 11
574.963281249994
 21
710.99357311320819
  0
LINE
  8
_0-0_計極細
  6
CONTINUOUS
 62
    2
 10
579.96328124999513
 20
509.99357311320955
 11
579.963281249994
 21
710.99357311320819
  0
LINE
  8
_0-1_計細線
  6
CONTINUOUS
 62
    3
 10
566.16328124999529
 20
509.99357311320955
 11
566.16328124999427
 21
710.99357311320819
  0
LINE
  8
_0-1_計細線
  6
CONTINUOUS
 62
    3
 10
554.76328124999475
 20
509.99357311320955
 11
554.76328124999372
 21
710.99357311320819
  0
LINE
  8
_0-1_計細線
  6
CONTINUOUS
 62
    3
 10
566.16328124999529
 20
509.99357311320955
 11
554.76328124999475
 21
509.99357311320955
  0
LINE
  8
_0-1_計細線
  6
CONTINUOUS
 62
    3
 10
566.16328124999427
 20
710.99357311320819
 11
554.76328124999372
 21
710.99357311320819
  0
LINE
  8
_0-0_計極細
  6
CONTINUOUS
 62
    2
 10
557.96328124999502
 20
509.99357311320955
 11
557.963281249994
 21
710.99357311320819
  0
LINE
  8
_0-0_計極細
  6
CONTINUOUS
 62
    2
 10
562.96328124999502
 20
509.99357311320955
 11
562.963281249994
 21
710.99357311320819
  0
LINE
  8
_0-1_計細線
  6
CONTINUOUS
 62
    3
 10
549.16328124999529
 20
509.99357311320955
 11
549.16328124999427
 21
710.99357311320819
  0
LINE
  8
_0-1_計細線
  6
CONTINUOUS
 62
    3
 10
537.76328124999486
 20
509.99357311320955
 11
537.76328124999372
 21
710.99357311320819
  0
LINE
  8
_0-1_計細線
  6
CONTINUOUS
 62
    3
 10
549.16328124999529
 20
509.99357311320955
 11
537.76328124999486
 21
509.99357311320955
  0
LINE
  8
_0-1_計細線
  6
CONTINUOUS
 62
    3
 10
549.16328124999427
 20
710.99357311320819
 11
537.76328124999372
 21
710.99357311320819
  0
LINE
  8
_0-0_計極細
  6
CONTINUOUS
 62
    2
 10
540.96328124999502
 20
509.99357311320955
 11
540.963281249994
 21
710.99357311320819
  0
LINE
  8
_0-0_計極細
  6
CONTINUOUS
 62
    2
 10
545.96328124999502
 20
509.99357311320955
 11
545.963281249994
 21
710.99357311320819
  0
LINE
  8
_0-1_計細線
  6
CONTINUOUS
 62
    3
 10
532.16328124999541
 20
509.99357311320955
 11
532.16328124999427
 21
710.99357311320819
  0
LINE
  8
_0-1_計細線
  6
CONTINUOUS
 62
    3
 10
520.76328124999475
 20
509.99357311320955
 11
520.76328124999372
 21
710.99357311320819
  0
LINE
  8
_0-1_計細線
  6
CONTINUOUS
 62
    3
 10
532.16328124999541
 20
509.99357311320955
 11
520.76328124999475
 21
509.99357311320955
  0
LINE
  8
_0-1_計細線
  6
CONTINUOUS
 62
    3
 10
532.16328124999427
 20
710.99357311320819
 11
520.76328124999372
 21
710.99357311320819
  0
LINE
  8
_0-0_計極細
  6
CONTINUOUS
 62
    2
 10
523.96328124999502
 20
509.99357311320955
 11
523.963281249994
 21
710.99357311320819
  0
LINE
  8
_0-0_計極細
  6
CONTINUOUS
 62
    2
 10
528.96328124999502
 20
509.99357311320955
 11
528.963281249994
 21
710.99357311320819
  0
LINE
  8
_0-1_計細線
  6
CONTINUOUS
 62
    3
 10
515.16328124999529
 20
509.99357311320955
 11
515.16328124999427
 21
710.99357311320819
  0
LINE
  8
_0-1_計細線
  6
CONTINUOUS
 62
    3
 10
503.76328124999475
 20
509.99357311320955
 11
503.76328124999372
 21
710.99357311320819
  0
LINE
  8
_0-1_計細線
  6
CONTINUOUS
 62
    3
 10
515.16328124999529
 20
509.99357311320955
 11
503.76328124999475
 21
509.99357311320955
  0
LINE
  8
_0-1_計細線
  6
CONTINUOUS
 62
    3
 10
515.16328124999427
 20
710.99357311320819
 11
503.76328124999372
 21
710.99357311320819
  0
LINE
  8
_0-0_計極細
  6
CONTINUOUS
 62
    2
 10
506.96328124999502
 20
509.99357311320955
 11
506.96328124999405
 21
710.99357311320819
  0
LINE
  8
_0-0_計極細
  6
CONTINUOUS
 62
    2
 10
511.96328124999502
 20
509.99357311320955
 11
511.96328124999405
 21
710.99357311320819
  0
LINE
  8
_0-1_計細線
  6
CONTINUOUS
 62
    3
 10
498.16328124999529
 20
509.99357311320955
 11
498.16328124999427
 21
710.99357311320819
  0
LINE
  8
_0-1_計細線
  6
CONTINUOUS
 62
    3
 10
486.7632812499948
 20
509.99357311320955
 11
486.76328124999372
 21
710.99357311320819
  0
LINE
  8
_0-1_計細線
  6
CONTINUOUS
 62
    3
 10
498.16328124999529
 20
509.99357311320955
 11
486.7632812499948
 21
509.99357311320955
  0
LINE
  8
_0-1_計細線
  6
CONTINUOUS
 62
    3
 10
498.16328124999427
 20
710.99357311320819
 11
486.76328124999372
 21
710.99357311320819
  0
LINE
  8
_0-0_計極細
  6
CONTINUOUS
 62
    2
 10
489.96328124999508
 20
509.99357311320955
 11
489.963281249994
 21
710.99357311320819
  0
LINE
  8
_0-0_計極細
  6
CONTINUOUS
 62
    2
 10
494.96328124999508
 20
509.99357311320955
 11
494.963281249994
 21
710.99357311320819
  0
LINE
  8
_0-1_計細線
  6
CONTINUOUS
 62
    3
 10
481.16328124999535
 20
509.99357311320955
 11
481.16328124999427
 21
710.99357311320819
  0
LINE
  8
_0-1_計細線
  6
CONTINUOUS
 62
    3
 10
469.76328124999475
 20
509.99357311320955
 11
469.76328124999378
 21
710.99357311320819
  0
LINE
  8
_0-1_計細線
  6
CONTINUOUS
 62
    3
 10
481.16328124999535
 20
509.99357311320955
 11
469.76328124999475
 21
509.99357311320955
  0
LINE
  8
_0-1_計細線
  6
CONTINUOUS
 62
    3
 10
481.16328124999427
 20
710.99357311320819
 11
469.76328124999378
 21
710.99357311320819
  0
LINE
  8
_0-0_計極細
  6
CONTINUOUS
 62
    2
 10
472.96328124999502
 20
509.99357311320955
 11
472.96328124999405
 21
710.99357311320819
  0
LINE
  8
_0-0_計極細
  6
CONTINUOUS
 62
    2
 10
477.96328124999502
 20
509.99357311320955
 11
477.96328124999405
 21
710.99357311320819
  0
LINE
  8
_0-1_計細線
  6
CONTINUOUS
 62
    3
 10
464.16328124999529
 20
509.99357311320955
 11
464.16328124999433
 21
710.99357311320819
  0
LINE
  8
_0-1_計細線
  6
CONTINUOUS
 62
    3
 10
452.7632812499948
 20
509.99357311320955
 11
452.76328124999372
 21
710.99357311320819
  0
LINE
  8
_0-1_計細線
  6
CONTINUOUS
 62
    3
 10
464.16328124999529
 20
509.99357311320955
 11
452.7632812499948
 21
509.99357311320955
  0
LINE
  8
_0-1_計細線
  6
CONTINUOUS
 62
    3
 10
464.16328124999433
 20
710.99357311320819
 11
452.76328124999372
 21
710.99357311320819
  0
LINE
  8
_0-0_計極細
  6
CONTINUOUS
 62
    2
 10
455.96328124999502
 20
509.99357311320955
 11
455.963281249994
 21
710.99357311320819
  0
LINE
  8
_0-0_計極細
  6
CONTINUOUS
 62
    2
 10
460.96328124999502
 20
509.99357311320955
 11
460.963281249994
 21
710.99357311320819
  0
LINE
  8
_0-1_計細線
  6
CONTINUOUS
 62
    3
 10
447.16328124999535
 20
509.99357311320955
 11
447.16328124999427
 21
710.99357311320819
  0
LINE
  8
_0-1_計細線
  6
CONTINUOUS
 62
    3
 10
435.76328124999475
 20
509.99357311320955
 11
435.76328124999378
 21
710.99357311320819
  0
LINE
  8
_0-1_計細線
  6
CONTINUOUS
 62
    3
 10
447.16328124999535
 20
509.99357311320955
 11
435.76328124999475
 21
509.99357311320955
  0
LINE
  8
_0-1_計細線
  6
CONTINUOUS
 62
    3
 10
447.16328124999427
 20
710.99357311320819
 11
435.76328124999378
 21
710.99357311320819
  0
LINE
  8
_0-0_計極細
  6
CONTINUOUS
 62
    2
 10
438.96328124999508
 20
509.99357311320955
 11
438.963281249994
 21
710.99357311320819
  0
LINE
  8
_0-0_計極細
  6
CONTINUOUS
 62
    2
 10
443.96328124999508
 20
509.99357311320955
 11
443.963281249994
 21
710.99357311320819
  0
LINE
  8
_0-1_計細線
  6
CONTINUOUS
 62
    3
 10
430.16328124999529
 20
509.99357311320955
 11
430.16328124999433
 21
710.99357311320819
  0
LINE
  8
_0-1_計細線
  6
CONTINUOUS
 62
    3
 10
418.76328124999475
 20
509.99357311320955
 11
418.76328124999372
 21
710.99357311320819
  0
LINE
  8
_0-1_計細線
  6
CONTINUOUS
 62
    3
 10
430.16328124999529
 20
509.99357311320955
 11
418.76328124999475
 21
509.99357311320955
  0
LINE
  8
_0-1_計細線
  6
CONTINUOUS
 62
    3
 10
430.16328124999433
 20
710.99357311320819
 11
418.76328124999372
 21
710.99357311320819
  0
LINE
  8
_0-0_計極細
  6
CONTINUOUS
 62
    2
 10
421.96328124999502
 20
509.99357311320955
 11
421.96328124999405
 21
710.99357311320819
  0
LINE
  8
_0-0_計極細
  6
CONTINUOUS
 62
    2
 10
426.96328124999502
 20
509.99357311320955
 11
426.96328124999405
 21
710.99357311320819
  0
LINE
  8
_0-1_計細線
  6
CONTINUOUS
 62
    3
 10
413.16328124999529
 20
509.99357311320955
 11
413.16328124999427
 21
710.99357311320819
  0
LINE
  8
_0-1_計細線
  6
CONTINUOUS
 62
    3
 10
401.7632812499948
 20
509.99357311320955
 11
401.76328124999372
 21
710.99357311320819
  0
LINE
  8
_0-1_計細線
  6
CONTINUOUS
 62
    3
 10
413.16328124999529
 20
509.99357311320955
 11
401.7632812499948
 21
509.99357311320955
  0
LINE
  8
_0-1_計細線
  6
CONTINUOUS
 62
    3
 10
413.16328124999427
 20
710.99357311320819
 11
401.76328124999372
 21
710.99357311320819
  0
LINE
  8
_0-0_計極細
  6
CONTINUOUS
 62
    2
 10
404.96328124999508
 20
509.99357311320955
 11
404.963281249994
 21
710.99357311320819
  0
LINE
  8
_0-0_計極細
  6
CONTINUOUS
 62
    2
 10
409.96328124999508
 20
509.99357311320955
 11
409.963281249994
 21
710.99357311320819
  0
LINE
  8
_0-1_計細線
  6
CONTINUOUS
 62
    3
 10
396.16328124999535
 20
509.99357311320955
 11
396.16328124999427
 21
710.99357311320819
  0
LINE
  8
_0-1_計細線
  6
CONTINUOUS
 62
    3
 10
384.76328124999475
 20
509.99357311320955
 11
384.76328124999378
 21
710.99357311320819
  0
LINE
  8
_0-1_計細線
  6
CONTINUOUS
 62
    3
 10
396.16328124999535
 20
509.99357311320955
 11
384.76328124999475
 21
509.99357311320955
  0
LINE
  8
_0-1_計細線
  6
CONTINUOUS
 62
    3
 10
396.16328124999427
 20
710.99357311320819
 11
384.76328124999378
 21
710.99357311320819
  0
LINE
  8
_0-0_計極細
  6
CONTINUOUS
 62
    2
 10
387.96328124999502
 20
509.99357311320955
 11
387.96328124999405
 21
710.99357311320819
  0
LINE
  8
_0-0_計極細
  6
CONTINUOUS
 62
    2
 10
392.96328124999502
 20
509.99357311320955
 11
392.96328124999405
 21
710.99357311320819
  0
LINE
  8
_0-1_計細線
  6
CONTINUOUS
 62
    3
 10
379.16328124999529
 20
509.99357311320955
 11
379.16328124999433
 21
710.99357311320819
  0
LINE
  8
_0-1_計細線
  6
CONTINUOUS
 62
    3
 10
367.76328124999475
 20
509.99357311320955
 11
367.76328124999372
 21
710.99357311320819
  0
LINE
  8
_0-1_計細線
  6
CONTINUOUS
 62
    3
 10
379.16328124999529
 20
509.99357311320955
 11
367.76328124999475
 21
509.99357311320955
  0
LINE
  8
_0-1_計細線
  6
CONTINUOUS
 62
    3
 10
379.16328124999433
 20
710.99357311320819
 11
367.76328124999372
 21
710.99357311320819
  0
LINE
  8
_0-0_計極細
  6
CONTINUOUS
 62
    2
 10
370.96328124999502
 20
509.99357311320955
 11
370.963281249994
 21
710.99357311320819
  0
LINE
  8
_0-0_計極細
  6
CONTINUOUS
 62
    2
 10
375.96328124999502
 20
509.99357311320955
 11
375.963281249994
 21
710.99357311320819
  0
LINE
  8
_0-1_計細線
  6
CONTINUOUS
 62
    3
 10
362.16328124999529
 20
509.99357311320955
 11
362.16328124999427
 21
710.99357311320819
  0
LINE
  8
_0-1_計細線
  6
CONTINUOUS
 62
    3
 10
350.76328124999486
 20
509.99357311320955
 11
350.76328124999372
 21
710.99357311320819
  0
LINE
  8
_0-1_計細線
  6
CONTINUOUS
 62
    3
 10
362.16328124999529
 20
509.99357311320955
 11
350.76328124999486
 21
509.99357311320955
  0
LINE
  8
_0-1_計細線
  6
CONTINUOUS
 62
    3
 10
362.16328124999427
 20
710.99357311320819
 11
350.76328124999372
 21
710.99357311320819
  0
LINE
  8
_0-0_計極細
  6
CONTINUOUS
 62
    2
 10
353.96328124999508
 20
509.99357311320955
 11
353.963281249994
 21
710.99357311320819
  0
LINE
  8
_0-0_計極細
  6
CONTINUOUS
 62
    2
 10
358.96328124999508
 20
509.99357311320955
 11
358.963281249994
 21
710.99357311320819
  0
LINE
  8
_0-1_計細線
  6
CONTINUOUS
 62
    3
 10
345.16328124999541
 20
509.99357311320955
 11
345.16328124999427
 21
710.99357311320819
  0
LINE
  8
_0-1_計細線
  6
CONTINUOUS
 62
    3
 10
333.76328124999486
 20
509.99357311320955
 11
333.76328124999372
 21
710.99357311320819
  0
LINE
  8
_0-1_計細線
  6
CONTINUOUS
 62
    3
 10
345.16328124999541
 20
509.99357311320955
 11
333.76328124999486
 21
509.99357311320955
  0
LINE
  8
_0-1_計細線
  6
CONTINUOUS
 62
    3
 10
345.16328124999427
 20
710.99357311320819
 11
333.76328124999372
 21
710.99357311320819
  0
LINE
  8
_0-0_計極細
  6
CONTINUOUS
 62
    2
 10
336.96328124999519
 20
509.99357311320955
 11
336.96328124999405
 21
710.99357311320819
  0
LINE
  8
_0-0_計極細
  6
CONTINUOUS
 62
    2
 10
341.96328124999519
 20
509.99357311320955
 11
341.96328124999405
 21
710.99357311320819
  0
LINE
  8
_0-1_計細線
  6
CONTINUOUS
 62
    3
 10
328.16328124999541
 20
509.99357311320955
 11
328.16328124999427
 21
710.99357311320819
  0
LINE
  8
_0-1_計細線
  6
CONTINUOUS
 62
    3
 10
316.76328124999486
 20
509.99357311320955
 11
316.76328124999372
 21
710.99357311320819
  0
LINE
  8
_0-1_計細線
  6
CONTINUOUS
 62
    3
 10
328.16328124999541
 20
509.99357311320955
 11
316.76328124999486
 21
509.99357311320955
  0
LINE
  8
_0-1_計細線
  6
CONTINUOUS
 62
    3
 10
328.16328124999427
 20
710.99357311320819
 11
316.76328124999372
 21
710.99357311320819
  0
LINE
  8
_0-0_計極細
  6
CONTINUOUS
 62
    2
 10
319.96328124999513
 20
509.99357311320955
 11
319.963281249994
 21
710.99357311320819
  0
LINE
  8
_0-0_計極細
  6
CONTINUOUS
 62
    2
 10
324.96328124999513
 20
509.99357311320955
 11
324.963281249994
 21
710.99357311320819
  0
LINE
  8
_0-1_計細線
  6
CONTINUOUS
 62
    3
 10
311.16328124999541
 20
509.99357311320955
 11
311.16328124999427
 21
710.99357311320819
  0
LINE
  8
_0-1_計細線
  6
CONTINUOUS
 62
    3
 10
299.76328124999486
 20
509.99357311320955
 11
299.76328124999372
 21
710.99357311320819
  0
LINE
  8
_0-1_計細線
  6
CONTINUOUS
 62
    3
 10
311.16328124999541
 20
509.99357311320955
 11
299.76328124999486
 21
509.99357311320955
  0
LINE
  8
_0-1_計細線
  6
CONTINUOUS
 62
    3
 10
311.16328124999427
 20
710.99357311320819
 11
299.76328124999372
 21
710.99357311320819
  0
LINE
  8
_0-0_計極細
  6
CONTINUOUS
 62
    2
 10
302.96328124999519
 20
509.99357311320955
 11
302.96328124999405
 21
710.99357311320819
  0
LINE
  8
_0-0_計極細
  6
CONTINUOUS
 62
    2
 10
307.96328124999519
 20
509.99357311320955
 11
307.96328124999405
 21
710.99357311320819
  0
LINE
  8
_0-1_計細線
  6
CONTINUOUS
 62
    3
 10
293.76328124999532
 20
509.99357311320955
 11
293.76328124999418
 21
710.99357311320819
  0
LINE
  8
_0-1_計細線
  6
CONTINUOUS
 62
    3
 10
282.36328124999477
 20
509.99357311320955
 11
282.36328124999363
 21
710.99357311320819
  0
LINE
  8
_0-1_計細線
  6
CONTINUOUS
 62
    3
 10
293.76328124999532
 20
509.99357311320955
 11
282.36328124999477
 21
509.99357311320955
  0
LINE
  8
_0-1_計細線
  6
CONTINUOUS
 62
    3
 10
293.76328124999418
 20
710.99357311320819
 11
282.36328124999363
 21
710.99357311320819
  0
LINE
  8
_0-0_計極細
  6
CONTINUOUS
 62
    2
 10
285.5632812499951
 20
509.99357311320955
 11
285.56328124999396
 21
710.99357311320819
  0
LINE
  8
_0-0_計極細
  6
CONTINUOUS
 62
    2
 10
290.5632812499951
 20
509.99357311320955
 11
290.56328124999396
 21
710.99357311320819
  0
LINE
  8
_0-1_計細線
  6
CONTINUOUS
 62
    3
 10
276.36328124999551
 20
509.99357311320955
 11
276.36328124999437
 21
710.99357311320819
  0
LINE
  8
_0-1_計細線
  6
CONTINUOUS
 62
    3
 10
264.96328124999491
 20
509.99357311320955
 11
264.96328124999377
 21
710.99357311320819
  0
LINE
  8
_0-1_計細線
  6
CONTINUOUS
 62
    3
 10
276.36328124999551
 20
509.99357311320955
 11
264.96328124999491
 21
509.99357311320955
  0
LINE
  8
_0-1_計細線
  6
CONTINUOUS
 62
    3
 10
276.36328124999437
 20
710.99357311320819
 11
264.96328124999377
 21
710.99357311320819
  0
LINE
  8
_0-0_計極細
  6
CONTINUOUS
 62
    2
 10
268.16328124999518
 20
509.99357311320955
 11
268.16328124999404
 21
710.99357311320819
  0
LINE
  8
_0-0_計極細
  6
CONTINUOUS
 62
    2
 10
273.16328124999518
 20
509.99357311320955
 11
273.16328124999404
 21
710.99357311320819
  0
LINE
  8
_0-1_計細線
  6
CONTINUOUS
 62
    3
 10
258.96328124999559
 20
509.99357311320955
 11
258.96328124999445
 21
710.99357311320819
  0
LINE
  8
_0-1_計細線
  6
CONTINUOUS
 62
    3
 10
247.56328124999504
 20
509.99357311320955
 11
247.56328124999391
 21
710.99357311320819
  0
LINE
  8
_0-1_計細線
  6
CONTINUOUS
 62
    3
 10
258.96328124999559
 20
509.99357311320955
 11
247.56328124999504
 21
509.99357311320955
  0
LINE
  8
_0-1_計細線
  6
CONTINUOUS
 62
    3
 10
258.96328124999445
 20
710.99357311320819
 11
247.56328124999391
 21
710.99357311320819
  0
LINE
  8
_0-0_計極細
  6
CONTINUOUS
 62
    2
 10
250.76328124999534
 20
509.99357311320955
 11
250.76328124999421
 21
710.99357311320819
  0
LINE
  8
_0-0_計極細
  6
CONTINUOUS
 62
    2
 10
255.76328124999534
 20
509.99357311320955
 11
255.76328124999421
 21
710.99357311320819
  0
LINE
  8
_0-1_計細線
  6
CONTINUOUS
 62
    3
 10
241.56328124999575
 20
509.99357311320955
 11
241.56328124999462
 21
710.99357311320819
  0
LINE
  8
_0-1_計細線
  6
CONTINUOUS
 62
    3
 10
230.16328124999518
 20
509.99357311320955
 11
230.16328124999404
 21
710.99357311320819
  0
LINE
  8
_0-1_計細線
  6
CONTINUOUS
 62
    3
 10
241.56328124999575
 20
509.99357311320955
 11
230.16328124999518
 21
509.99357311320955
  0
LINE
  8
_0-1_計細線
  6
CONTINUOUS
 62
    3
 10
241.56328124999462
 20
710.99357311320819
 11
230.16328124999404
 21
710.99357311320819
  0
LINE
  8
_0-0_計極細
  6
CONTINUOUS
 62
    2
 10
233.36328124999545
 20
509.99357311320955
 11
233.36328124999432
 21
710.99357311320819
  0
LINE
  8
_0-0_計極細
  6
CONTINUOUS
 62
    2
 10
238.36328124999545
 20
509.99357311320955
 11
238.36328124999432
 21
710.99357311320819
  0
LINE
  8
_0-1_計細線
  6
CONTINUOUS
 62
    3
 10
208.66328124999086
 20
685.49357311320693
 11
230.1632812499922
 21
685.49357311320693
  0
LINE
  8
_0-1_計細線
  6
CONTINUOUS
 62
    3
 10
208.66328124999086
 20
535.49357311320819
 11
230.1632812499922
 21
535.49357311320819
  0
LINE
  8
_0-0_計極細
  6
CONTINUOUS
 62
    2
 10
1200.7632812499942
 20
549.9935731132091
 11
1195.1632812499936
 21
549.9935731132091
  0
LINE
  8
_0-0_計極細
  6
CONTINUOUS
 62
    2
 10
1200.7632812499942
 20
562.9935731132091
 11
1195.1632812499936
 21
562.9935731132091
  0
LINE
  8
_0-0_計極細
  6
CONTINUOUS
 62
    2
 10
1200.7632812499942
 20
657.99357311320921
 11
1195.1632812499938
 21
657.99357311320921
  0
LINE
  8
_0-0_計極細
  6
CONTINUOUS
 62
    2
 10
1200.7632812499942
 20
670.9935731132091
 11
1195.1632812499938
 21
670.9935731132091
  0
LINE
  8
_0-0_計極細
  6
CONTINUOUS
 62
    2
 10
1183.763281249993
 20
549.99357311320932
 11
1178.1632812499929
 21
549.99357311320932
  0
LINE
  8
_0-0_計極細
  6
CONTINUOUS
 62
    2
 10
1183.763281249993
 20
562.99357311320932
 11
1178.1632812499929
 21
562.99357311320932
  0
LINE
  8
_0-0_計極細
  6
CONTINUOUS
 62
    2
 10
1183.7632812499933
 20
657.99357311320932
 11
1178.1632812499931
 21
657.99357311320932
  0
LINE
  8
_0-0_計極細
  6
CONTINUOUS
 62
    2
 10
1183.7632812499933
 20
670.99357311320932
 11
1178.1632812499931
 21
670.99357311320932
  0
LINE
  8
_0-0_計極細
  6
CONTINUOUS
 62
    2
 10
1161.163281249997
 20
549.99357311320932
 11
1166.7632812499969
 21
549.99357311320932
  0
LINE
  8
_0-0_計極細
  6
CONTINUOUS
 62
    2
 10
1161.163281249997
 20
562.99357311320932
 11
1166.7632812499969
 21
562.99357311320932
  0
LINE
  8
_0-0_計極細
  6
CONTINUOUS
 62
    2
 10
1161.163281249997
 20
657.99357311320932
 11
1166.7632812499971
 21
657.99357311320932
  0
LINE
  8
_0-0_計極細
  6
CONTINUOUS
 62
    2
 10
1161.163281249997
 20
670.99357311320932
 11
1166.7632812499971
 21
670.99357311320932
  0
LINE
  8
_0-0_計極細
  6
CONTINUOUS
 62
    2
 10
1144.1632812499963
 20
549.9935731132091
 11
1149.7632812499965
 21
549.9935731132091
  0
LINE
  8
_0-0_計極細
  6
CONTINUOUS
 62
    2
 10
1144.1632812499965
 20
562.9935731132091
 11
1149.7632812499965
 21
562.9935731132091
  0
LINE
  8
_0-0_計極細
  6
CONTINUOUS
 62
    2
 10
1127.1632812499959
 20
549.9935731132091
 11
1132.7632812499958
 21
549.9935731132091
  0
LINE
  8
_0-0_計極細
  6
CONTINUOUS
 62
    2
 10
1127.1632812499959
 20
562.9935731132091
 11
1132.763281249996
 21
562.9935731132091
  0
LINE
  8
_0-0_計極細
  6
CONTINUOUS
 62
    2
 10
1127.1632812499961
 20
657.99357311320921
 11
1132.763281249996
 21
657.99357311320921
  0
LINE
  8
_0-0_計極細
  6
CONTINUOUS
 62
    2
 10
1127.1632812499961
 20
670.9935731132091
 11
1132.763281249996
 21
670.9935731132091
  0
LINE
  8
_0-0_計極細
  6
CONTINUOUS
 62
    2
 10
1110.1632812499947
 20
549.99357311320932
 11
1115.7632812499953
 21
549.99357311320932
  0
LINE
  8
_0-0_計極細
  6
CONTINUOUS
 62
    2
 10
1110.1632812499947
 20
562.99357311320932
 11
1115.7632812499953
 21
562.99357311320932
  0
LINE
  8
_0-0_計極細
  6
CONTINUOUS
 62
    2
 10
1110.163281249995
 20
657.99357311320932
 11
1115.7632812499955
 21
657.99357311320932
  0
LINE
  8
_0-0_計極細
  6
CONTINUOUS
 62
    2
 10
1110.163281249995
 20
670.99357311320932
 11
1115.7632812499955
 21
670.99357311320932
  0
LINE
  8
_0-0_計極細
  6
CONTINUOUS
 62
    2
 10
1093.163281249995
 20
549.99357311320932
 11
1098.7632812499951
 21
549.99357311320932
  0
LINE
  8
_0-0_計極細
  6
CONTINUOUS
 62
    2
 10
1093.163281249995
 20
562.99357311320932
 11
1098.7632812499951
 21
562.99357311320932
  0
LINE
  8
_0-0_計極細
  6
CONTINUOUS
 62
    2
 10
1144.1632812499975
 20
657.99357311320921
 11
1149.7632812499974
 21
657.99357311320921
  0
LINE
  8
_0-0_計極細
  6
CONTINUOUS
 62
    2
 10
1144.1632812499975
 20
670.9935731132091
 11
1149.7632812499974
 21
670.9935731132091
  0
LINE
  8
_0-0_計極細
  6
CONTINUOUS
 62
    2
 10
1081.7632812499944
 20
549.9935731132091
 11
1076.1632812499943
 21
549.9935731132091
  0
LINE
  8
_0-0_計極細
  6
CONTINUOUS
 62
    2
 10
1081.7632812499944
 20
562.9935731132091
 11
1076.1632812499943
 21
562.9935731132091
  0
LINE
  8
_0-0_計極細
  6
CONTINUOUS
 62
    2
 10
1081.7632812499946
 20
657.99357311320921
 11
1076.1632812499943
 21
657.99357311320921
  0
LINE
  8
_0-0_計極細
  6
CONTINUOUS
 62
    2
 10
1081.7632812499946
 20
670.9935731132091
 11
1076.1632812499943
 21
670.9935731132091
  0
LINE
  8
_0-0_計極細
  6
CONTINUOUS
 62
    2
 10
1217.763281249996
 20
549.9935731132091
 11
1212.1632812499956
 21
549.9935731132091
  0
LINE
  8
_0-0_計極細
  6
CONTINUOUS
 62
    2
 10
1217.763281249996
 20
562.9935731132091
 11
1212.1632812499956
 21
562.9935731132091
  0
LINE
  8
_0-0_計極細
  6
CONTINUOUS
 62
    2
 10
1217.7632812499962
 20
657.99357311320921
 11
1212.1632812499959
 21
657.99357311320921
  0
LINE
  8
_0-0_計極細
  6
CONTINUOUS
 62
    2
 10
1217.7632812499962
 20
670.9935731132091
 11
1212.1632812499959
 21
670.9935731132091
  0
LINE
  8
_0-0_計極細
  6
CONTINUOUS
 62
    2
 10
1064.7632812499946
 20
549.9935731132091
 11
1059.1632812499945
 21
549.9935731132091
  0
LINE
  8
_0-0_計極細
  6
CONTINUOUS
 62
    2
 10
1064.7632812499946
 20
562.9935731132091
 11
1059.1632812499945
 21
562.9935731132091
  0
LINE
  8
_0-0_計極細
  6
CONTINUOUS
 62
    2
 10
1064.7632812499951
 20
657.99357311320921
 11
1059.1632812499947
 21
657.99357311320921
  0
LINE
  8
_0-0_計極細
  6
CONTINUOUS
 62
    2
 10
1064.7632812499951
 20
670.9935731132091
 11
1059.1632812499947
 21
670.9935731132091
  0
LINE
  8
_0-0_計極細
  6
CONTINUOUS
 62
    2
 10
1047.7632812499946
 20
549.9935731132091
 11
1042.1632812499945
 21
549.9935731132091
  0
LINE
  8
_0-0_計極細
  6
CONTINUOUS
 62
    2
 10
1047.7632812499946
 20
562.9935731132091
 11
1042.1632812499945
 21
562.9935731132091
  0
LINE
  8
_0-0_計極細
  6
CONTINUOUS
 62
    2
 10
1047.7632812499949
 20
657.99357311320921
 11
1042.1632812499947
 21
657.99357311320921
  0
LINE
  8
_0-0_計極細
  6
CONTINUOUS
 62
    2
 10
1047.7632812499949
 20
670.9935731132091
 11
1042.1632812499947
 21
670.9935731132091
  0
LINE
  8
_0-0_計極細
  6
CONTINUOUS
 62
    2
 10
1030.7632812499946
 20
549.9935731132091
 11
1025.1632812499947
 21
549.9935731132091
  0
LINE
  8
_0-0_計極細
  6
CONTINUOUS
 62
    2
 10
1030.7632812499946
 20
562.9935731132091
 11
1025.1632812499947
 21
562.9935731132091
  0
LINE
  8
_0-0_計極細
  6
CONTINUOUS
 62
    2
 10
1030.7632812499949
 20
657.99357311320921
 11
1025.1632812499947
 21
657.99357311320921
  0
LINE
  8
_0-0_計極細
  6
CONTINUOUS
 62
    2
 10
1030.7632812499949
 20
670.9935731132091
 11
1025.1632812499947
 21
670.9935731132091
  0
LINE
  8
_0-0_計極細
  6
CONTINUOUS
 62
    2
 10
1013.7632812499947
 20
549.9935731132091
 11
1008.1632812499946
 21
549.9935731132091
  0
LINE
  8
_0-0_計極細
  6
CONTINUOUS
 62
    2
 10
1013.7632812499947
 20
562.9935731132091
 11
1008.1632812499946
 21
562.9935731132091
  0
LINE
  8
_0-0_計極細
  6
CONTINUOUS
 62
    2
 10
1013.7632812499949
 20
657.99357311320921
 11
1008.1632812499947
 21
657.99357311320921
  0
LINE
  8
_0-0_計極細
  6
CONTINUOUS
 62
    2
 10
1013.7632812499949
 20
670.9935731132091
 11
1008.1632812499947
 21
670.9935731132091
  0
LINE
  8
_0-0_計極細
  6
CONTINUOUS
 62
    2
 10
996.76328124999475
 20
549.9935731132091
 11
991.1632812499945
 21
549.9935731132091
  0
LINE
  8
_0-0_計極細
  6
CONTINUOUS
 62
    2
 10
996.76328124999475
 20
562.9935731132091
 11
991.1632812499945
 21
562.9935731132091
  0
LINE
  8
_0-0_計極細
  6
CONTINUOUS
 62
    2
 10
996.76328124999486
 20
657.99357311320921
 11
991.16328124999472
 21
657.99357311320921
  0
LINE
  8
_0-0_計極細
  6
CONTINUOUS
 62
    2
 10
996.76328124999486
 20
670.9935731132091
 11
991.16328124999472
 21
670.9935731132091
  0
LINE
  8
_0-0_計極細
  6
CONTINUOUS
 62
    2
 10
979.76328124999463
 20
549.9935731132091
 11
974.1632812499945
 21
549.9935731132091
  0
LINE
  8
_0-0_計極細
  6
CONTINUOUS
 62
    2
 10
979.76328124999463
 20
562.9935731132091
 11
974.1632812499945
 21
562.9935731132091
  0
LINE
  8
_0-0_計極細
  6
CONTINUOUS
 62
    2
 10
979.76328124999498
 20
657.99357311320921
 11
974.16328124999472
 21
657.99357311320921
  0
LINE
  8
_0-0_計極細
  6
CONTINUOUS
 62
    2
 10
979.76328124999498
 20
670.9935731132091
 11
974.16328124999472
 21
670.9935731132091
  0
LINE
  8
_0-0_計極細
  6
CONTINUOUS
 62
    2
 10
962.76328124999463
 20
549.9935731132091
 11
957.1632812499945
 21
549.9935731132091
  0
LINE
  8
_0-0_計極細
  6
CONTINUOUS
 62
    2
 10
962.76328124999463
 20
562.9935731132091
 11
957.1632812499945
 21
562.9935731132091
  0
LINE
  8
_0-0_計極細
  6
CONTINUOUS
 62
    2
 10
962.76328124999498
 20
657.99357311320921
 11
957.16328124999461
 21
657.99357311320921
  0
LINE
  8
_0-0_計極細
  6
CONTINUOUS
 62
    2
 10
962.76328124999498
 20
670.9935731132091
 11
957.16328124999461
 21
670.9935731132091
  0
LINE
  8
_0-0_計極細
  6
CONTINUOUS
 62
    2
 10
945.76328124999463
 20
549.9935731132091
 11
940.16328124999461
 21
549.9935731132091
  0
LINE
  8
_0-0_計極細
  6
CONTINUOUS
 62
    2
 10
945.76328124999463
 20
562.9935731132091
 11
940.16328124999461
 21
562.9935731132091
  0
LINE
  8
_0-0_計極細
  6
CONTINUOUS
 62
    2
 10
945.76328124999486
 20
657.99357311320921
 11
940.16328124999461
 21
657.99357311320921
  0
LINE
  8
_0-0_計極細
  6
CONTINUOUS
 62
    2
 10
945.76328124999486
 20
670.9935731132091
 11
940.16328124999461
 21
670.9935731132091
  0
LINE
  8
_0-0_計極細
  6
CONTINUOUS
 62
    2
 10
928.76328124999475
 20
549.9935731132091
 11
923.16328124999461
 21
549.9935731132091
  0
LINE
  8
_0-0_計極細
  6
CONTINUOUS
 62
    2
 10
928.76328124999475
 20
562.9935731132091
 11
923.16328124999461
 21
562.9935731132091
  0
LINE
  8
_0-0_計極細
  6
CONTINUOUS
 62
    2
 10
928.76328124999486
 20
657.99357311320921
 11
923.16328124999472
 21
657.99357311320921
  0
LINE
  8
_0-0_計極細
  6
CONTINUOUS
 62
    2
 10
928.76328124999486
 20
670.9935731132091
 11
923.16328124999472
 21
670.9935731132091
  0
LINE
  8
_0-0_計極細
  6
CONTINUOUS
 62
    2
 10
911.76328124999475
 20
549.9935731132091
 11
906.1632812499945
 21
549.9935731132091
  0
LINE
  8
_0-0_計極細
  6
CONTINUOUS
 62
    2
 10
911.76328124999475
 20
562.9935731132091
 11
906.1632812499945
 21
562.9935731132091
  0
LINE
  8
_0-0_計極細
  6
CONTINUOUS
 62
    2
 10
911.76328124999486
 20
657.99357311320921
 11
906.16328124999472
 21
657.99357311320921
  0
LINE
  8
_0-0_計極細
  6
CONTINUOUS
 62
    2
 10
911.76328124999486
 20
670.9935731132091
 11
906.16328124999472
 21
670.9935731132091
  0
LINE
  8
_0-0_計極細
  6
CONTINUOUS
 62
    2
 10
894.76328124999463
 20
549.9935731132091
 11
889.1632812499945
 21
549.9935731132091
  0
LINE
  8
_0-0_計極細
  6
CONTINUOUS
 62
    2
 10
894.76328124999463
 20
562.9935731132091
 11
889.1632812499945
 21
562.9935731132091
  0
LINE
  8
_0-0_計極細
  6
CONTINUOUS
 62
    2
 10
894.76328124999498
 20
657.99357311320921
 11
889.16328124999472
 21
657.99357311320921
  0
LINE
  8
_0-0_計極細
  6
CONTINUOUS
 62
    2
 10
894.76328124999498
 20
670.9935731132091
 11
889.16328124999472
 21
670.9935731132091
  0
LINE
  8
_0-0_計極細
  6
CONTINUOUS
 62
    2
 10
877.76328124999463
 20
549.9935731132091
 11
872.1632812499945
 21
549.9935731132091
  0
LINE
  8
_0-0_計極細
  6
CONTINUOUS
 62
    2
 10
877.76328124999463
 20
562.9935731132091
 11
872.1632812499945
 21
562.9935731132091
  0
LINE
  8
_0-0_計極細
  6
CONTINUOUS
 62
    2
 10
877.76328124999498
 20
657.99357311320921
 11
872.16328124999461
 21
657.99357311320921
  0
LINE
  8
_0-0_計極細
  6
CONTINUOUS
 62
    2
 10
877.76328124999498
 20
670.9935731132091
 11
872.16328124999461
 21
670.9935731132091
  0
LINE
  8
_0-0_計極細
  6
CONTINUOUS
 62
    2
 10
860.76328124999463
 20
549.9935731132091
 11
855.16328124999461
 21
549.9935731132091
  0
LINE
  8
_0-0_計極細
  6
CONTINUOUS
 62
    2
 10
860.76328124999463
 20
562.9935731132091
 11
855.16328124999461
 21
562.9935731132091
  0
LINE
  8
_0-0_計極細
  6
CONTINUOUS
 62
    2
 10
860.76328124999486
 20
657.99357311320921
 11
855.16328124999461
 21
657.99357311320921
  0
LINE
  8
_0-0_計極細
  6
CONTINUOUS
 62
    2
 10
860.76328124999486
 20
670.9935731132091
 11
855.16328124999461
 21
670.9935731132091
  0
LINE
  8
_0-0_計極細
  6
CONTINUOUS
 62
    2
 10
843.76328124999475
 20
549.9935731132091
 11
838.16328124999461
 21
549.9935731132091
  0
LINE
  8
_0-0_計極細
  6
CONTINUOUS
 62
    2
 10
843.76328124999475
 20
562.9935731132091
 11
838.16328124999461
 21
562.9935731132091
  0
LINE
  8
_0-0_計極細
  6
CONTINUOUS
 62
    2
 10
843.76328124999486
 20
657.99357311320921
 11
838.16328124999472
 21
657.99357311320921
  0
LINE
  8
_0-0_計極細
  6
CONTINUOUS
 62
    2
 10
843.76328124999486
 20
670.9935731132091
 11
838.16328124999472
 21
670.9935731132091
  0
LINE
  8
_0-0_計極細
  6
CONTINUOUS
 62
    2
 10
826.76328124999475
 20
549.9935731132091
 11
821.1632812499945
 21
549.9935731132091
  0
LINE
  8
_0-0_計極細
  6
CONTINUOUS
 62
    2
 10
826.76328124999475
 20
562.9935731132091
 11
821.1632812499945
 21
562.9935731132091
  0
LINE
  8
_0-0_計極細
  6
CONTINUOUS
 62
    2
 10
826.76328124999486
 20
657.99357311320921
 11
821.16328124999472
 21
657.99357311320921
  0
LINE
  8
_0-0_計極細
  6
CONTINUOUS
 62
    2
 10
826.76328124999486
 20
670.9935731132091
 11
821.16328124999472
 21
670.9935731132091
  0
LINE
  8
_0-0_計極細
  6
CONTINUOUS
 62
    2
 10
809.76328124999463
 20
549.9935731132091
 11
804.1632812499945
 21
549.9935731132091
  0
LINE
  8
_0-0_計極細
  6
CONTINUOUS
 62
    2
 10
809.76328124999463
 20
562.9935731132091
 11
804.1632812499945
 21
562.9935731132091
  0
LINE
  8
_0-0_計極細
  6
CONTINUOUS
 62
    2
 10
809.76328124999498
 20
657.99357311320921
 11
804.16328124999472
 21
657.99357311320921
  0
LINE
  8
_0-0_計極細
  6
CONTINUOUS
 62
    2
 10
809.76328124999498
 20
670.9935731132091
 11
804.16328124999472
 21
670.9935731132091
  0
LINE
  8
_0-0_計極細
  6
CONTINUOUS
 62
    2
 10
792.76328124999463
 20
549.9935731132091
 11
787.1632812499945
 21
549.9935731132091
  0
LINE
  8
_0-0_計極細
  6
CONTINUOUS
 62
    2
 10
792.76328124999463
 20
562.9935731132091
 11
787.1632812499945
 21
562.9935731132091
  0
LINE
  8
_0-0_計極細
  6
CONTINUOUS
 62
    2
 10
792.76328124999498
 20
657.99357311320921
 11
787.16328124999461
 21
657.99357311320921
  0
LINE
  8
_0-0_計極細
  6
CONTINUOUS
 62
    2
 10
792.76328124999498
 20
670.9935731132091
 11
787.16328124999461
 21
670.9935731132091
  0
LINE
  8
_0-0_計極細
  6
CONTINUOUS
 62
    2
 10
775.76328124999463
 20
549.9935731132091
 11
770.16328124999461
 21
549.9935731132091
  0
LINE
  8
_0-0_計極細
  6
CONTINUOUS
 62
    2
 10
775.76328124999463
 20
562.9935731132091
 11
770.16328124999461
 21
562.9935731132091
  0
LINE
  8
_0-0_計極細
  6
CONTINUOUS
 62
    2
 10
775.76328124999486
 20
657.99357311320921
 11
770.16328124999461
 21
657.99357311320921
  0
LINE
  8
_0-0_計極細
  6
CONTINUOUS
 62
    2
 10
775.76328124999486
 20
670.9935731132091
 11
770.16328124999461
 21
670.9935731132091
  0
LINE
  8
_0-0_計極細
  6
CONTINUOUS
 62
    2
 10
758.76328124999463
 20
549.9935731132091
 11
753.16328124999461
 21
549.9935731132091
  0
LINE
  8
_0-0_計極細
  6
CONTINUOUS
 62
    2
 10
758.76328124999463
 20
562.9935731132091
 11
753.16328124999461
 21
562.9935731132091
  0
LINE
  8
_0-0_計極細
  6
CONTINUOUS
 62
    2
 10
758.76328124999486
 20
657.99357311320921
 11
753.16328124999461
 21
657.99357311320921
  0
LINE
  8
_0-0_計極細
  6
CONTINUOUS
 62
    2
 10
758.76328124999486
 20
670.9935731132091
 11
753.16328124999461
 21
670.9935731132091
  0
LINE
  8
_0-0_計極細
  6
CONTINUOUS
 62
    2
 10
741.76328124999475
 20
549.9935731132091
 11
736.1632812499945
 21
549.9935731132091
  0
LINE
  8
_0-0_計極細
  6
CONTINUOUS
 62
    2
 10
741.76328124999475
 20
562.9935731132091
 11
736.1632812499945
 21
562.9935731132091
  0
LINE
  8
_0-0_計極細
  6
CONTINUOUS
 62
    2
 10
741.76328124999486
 20
657.99357311320921
 11
736.16328124999472
 21
657.99357311320921
  0
LINE
  8
_0-0_計極細
  6
CONTINUOUS
 62
    2
 10
741.76328124999486
 20
670.9935731132091
 11
736.16328124999472
 21
670.9935731132091
  0
LINE
  8
_0-0_計極細
  6
CONTINUOUS
 62
    2
 10
724.76328124999463
 20
549.9935731132091
 11
719.1632812499945
 21
549.9935731132091
  0
LINE
  8
_0-0_計極細
  6
CONTINUOUS
 62
    2
 10
724.76328124999463
 20
562.9935731132091
 11
719.1632812499945
 21
562.9935731132091
  0
LINE
  8
_0-0_計極細
  6
CONTINUOUS
 62
    2
 10
724.76328124999486
 20
657.99357311320921
 11
719.16328124999472
 21
657.99357311320921
  0
LINE
  8
_0-0_計極細
  6
CONTINUOUS
 62
    2
 10
724.76328124999486
 20
670.9935731132091
 11
719.16328124999472
 21
670.9935731132091
  0
LINE
  8
_0-0_計極細
  6
CONTINUOUS
 62
    2
 10
707.76328124999463
 20
549.9935731132091
 11
702.1632812499945
 21
549.9935731132091
  0
LINE
  8
_0-0_計極細
  6
CONTINUOUS
 62
    2
 10
707.76328124999463
 20
562.9935731132091
 11
702.1632812499945
 21
562.9935731132091
  0
LINE
  8
_0-0_計極細
  6
CONTINUOUS
 62
    2
 10
707.76328124999498
 20
657.99357311320921
 11
702.16328124999461
 21
657.99357311320921
  0
LINE
  8
_0-0_計極細
  6
CONTINUOUS
 62
    2
 10
707.76328124999498
 20
670.9935731132091
 11
702.16328124999461
 21
670.9935731132091
  0
LINE
  8
_0-0_計極細
  6
CONTINUOUS
 62
    2
 10
690.76328124999463
 20
549.9935731132091
 11
685.1632812499945
 21
549.9935731132091
  0
LINE
  8
_0-0_計極細
  6
CONTINUOUS
 62
    2
 10
690.76328124999463
 20
562.9935731132091
 11
685.1632812499945
 21
562.9935731132091
  0
LINE
  8
_0-0_計極細
  6
CONTINUOUS
 62
    2
 10
690.76328124999486
 20
657.99357311320921
 11
685.16328124999461
 21
657.99357311320921
  0
LINE
  8
_0-0_計極細
  6
CONTINUOUS
 62
    2
 10
690.76328124999486
 20
670.9935731132091
 11
685.16328124999461
 21
670.9935731132091
  0
LINE
  8
_0-0_計極細
  6
CONTINUOUS
 62
    2
 10
673.76328124999463
 20
549.9935731132091
 11
668.16328124999461
 21
549.9935731132091
  0
LINE
  8
_0-0_計極細
  6
CONTINUOUS
 62
    2
 10
673.76328124999463
 20
562.9935731132091
 11
668.16328124999461
 21
562.9935731132091
  0
LINE
  8
_0-0_計極細
  6
CONTINUOUS
 62
    2
 10
673.76328124999486
 20
657.99357311320921
 11
668.16328124999461
 21
657.99357311320921
  0
LINE
  8
_0-0_計極細
  6
CONTINUOUS
 62
    2
 10
673.76328124999486
 20
670.9935731132091
 11
668.16328124999461
 21
670.9935731132091
  0
LINE
  8
_0-0_計極細
  6
CONTINUOUS
 62
    2
 10
656.76328124999475
 20
549.9935731132091
 11
651.1632812499945
 21
549.9935731132091
  0
LINE
  8
_0-0_計極細
  6
CONTINUOUS
 62
    2
 10
656.76328124999475
 20
562.9935731132091
 11
651.1632812499945
 21
562.9935731132091
  0
LINE
  8
_0-0_計極細
  6
CONTINUOUS
 62
    2
 10
656.76328124999486
 20
657.99357311320921
 11
651.16328124999472
 21
657.99357311320921
  0
LINE
  8
_0-0_計極細
  6
CONTINUOUS
 62
    2
 10
656.76328124999486
 20
670.9935731132091
 11
651.16328124999472
 21
670.9935731132091
  0
LINE
  8
_0-0_計極細
  6
CONTINUOUS
 62
    2
 10
639.76328124999463
 20
549.9935731132091
 11
634.1632812499945
 21
549.9935731132091
  0
LINE
  8
_0-0_計極細
  6
CONTINUOUS
 62
    2
 10
639.76328124999463
 20
562.9935731132091
 11
634.1632812499945
 21
562.9935731132091
  0
LINE
  8
_0-0_計極細
  6
CONTINUOUS
 62
    2
 10
639.76328124999486
 20
657.99357311320921
 11
634.16328124999472
 21
657.99357311320921
  0
LINE
  8
_0-0_計極細
  6
CONTINUOUS
 62
    2
 10
639.76328124999486
 20
670.9935731132091
 11
634.16328124999472
 21
670.9935731132091
  0
LINE
  8
_0-0_計極細
  6
CONTINUOUS
 62
    2
 10
622.76328124999463
 20
549.9935731132091
 11
617.1632812499945
 21
549.9935731132091
  0
LINE
  8
_0-0_計極細
  6
CONTINUOUS
 62
    2
 10
622.76328124999463
 20
562.9935731132091
 11
617.1632812499945
 21
562.9935731132091
  0
LINE
  8
_0-0_計極細
  6
CONTINUOUS
 62
    2
 10
622.76328124999486
 20
657.99357311320921
 11
617.16328124999461
 21
657.99357311320921
  0
LINE
  8
_0-0_計極細
  6
CONTINUOUS
 62
    2
 10
622.76328124999486
 20
670.9935731132091
 11
617.16328124999461
 21
670.9935731132091
  0
LINE
  8
_0-0_計極細
  6
CONTINUOUS
 62
    2
 10
605.76328124999463
 20
549.9935731132091
 11
600.1632812499945
 21
549.9935731132091
  0
LINE
  8
_0-0_計極細
  6
CONTINUOUS
 62
    2
 10
605.76328124999463
 20
562.9935731132091
 11
600.1632812499945
 21
562.9935731132091
  0
LINE
  8
_0-0_計極細
  6
CONTINUOUS
 62
    2
 10
605.76328124999486
 20
657.99357311320921
 11
600.16328124999461
 21
657.99357311320921
  0
LINE
  8
_0-0_計極細
  6
CONTINUOUS
 62
    2
 10
605.76328124999486
 20
670.9935731132091
 11
600.16328124999461
 21
670.9935731132091
  0
LINE
  8
_0-0_計極細
  6
CONTINUOUS
 62
    2
 10
588.76328124999463
 20
549.9935731132091
 11
583.1632812499945
 21
549.9935731132091
  0
LINE
  8
_0-0_計極細
  6
CONTINUOUS
 62
    2
 10
588.76328124999463
 20
562.9935731132091
 11
583.1632812499945
 21
562.9935731132091
  0
LINE
  8
_0-0_計極細
  6
CONTINUOUS
 62
    2
 10
588.76328124999486
 20
657.99357311320921
 11
583.16328124999461
 21
657.99357311320921
  0
LINE
  8
_0-0_計極細
  6
CONTINUOUS
 62
    2
 10
588.76328124999486
 20
670.9935731132091
 11
583.16328124999461
 21
670.9935731132091
  0
LINE
  8
_0-0_計極細
  6
CONTINUOUS
 62
    2
 10
571.76328124999463
 20
549.9935731132091
 11
566.1632812499945
 21
549.9935731132091
  0
LINE
  8
_0-0_計極細
  6
CONTINUOUS
 62
    2
 10
571.76328124999463
 20
562.9935731132091
 11
566.1632812499945
 21
562.9935731132091
  0
LINE
  8
_0-0_計極細
  6
CONTINUOUS
 62
    2
 10
571.76328124999486
 20
657.99357311320921
 11
566.16328124999461
 21
657.99357311320921
  0
LINE
  8
_0-0_計極細
  6
CONTINUOUS
 62
    2
 10
571.76328124999486
 20
670.9935731132091
 11
566.16328124999461
 21
670.9935731132091
  0
LINE
  8
_0-0_計極細
  6
CONTINUOUS
 62
    2
 10
554.76328124999463
 20
549.9935731132091
 11
549.1632812499945
 21
549.9935731132091
  0
LINE
  8
_0-0_計極細
  6
CONTINUOUS
 62
    2
 10
554.76328124999463
 20
562.9935731132091
 11
549.1632812499945
 21
562.9935731132091
  0
LINE
  8
_0-0_計極細
  6
CONTINUOUS
 62
    2
 10
554.76328124999486
 20
657.99357311320921
 11
549.16328124999472
 21
657.99357311320921
  0
LINE
  8
_0-0_計極細
  6
CONTINUOUS
 62
    2
 10
554.76328124999486
 20
670.9935731132091
 11
549.16328124999472
 21
670.9935731132091
  0
LINE
  8
_0-0_計極細
  6
CONTINUOUS
 62
    2
 10
537.76328124999463
 20
549.9935731132091
 11
532.1632812499945
 21
549.9935731132091
  0
LINE
  8
_0-0_計極細
  6
CONTINUOUS
 62
    2
 10
537.76328124999463
 20
562.9935731132091
 11
532.1632812499945
 21
562.9935731132091
  0
LINE
  8
_0-0_計極細
  6
CONTINUOUS
 62
    2
 10
537.76328124999486
 20
657.99357311320921
 11
532.16328124999461
 21
657.99357311320921
  0
LINE
  8
_0-0_計極細
  6
CONTINUOUS
 62
    2
 10
537.76328124999486
 20
670.9935731132091
 11
532.16328124999461
 21
670.9935731132091
  0
LINE
  8
_0-0_計極細
  6
CONTINUOUS
 62
    2
 10
520.76328124999463
 20
549.9935731132091
 11
515.1632812499945
 21
549.9935731132091
  0
LINE
  8
_0-0_計極細
  6
CONTINUOUS
 62
    2
 10
520.76328124999463
 20
562.9935731132091
 11
515.1632812499945
 21
562.9935731132091
  0
LINE
  8
_0-0_計極細
  6
CONTINUOUS
 62
    2
 10
520.76328124999486
 20
657.99357311320921
 11
515.16328124999461
 21
657.99357311320921
  0
LINE
  8
_0-0_計極細
  6
CONTINUOUS
 62
    2
 10
520.76328124999486
 20
670.9935731132091
 11
515.16328124999461
 21
670.9935731132091
  0
LINE
  8
_0-0_計極細
  6
CONTINUOUS
 62
    2
 10
503.76328124999469
 20
549.9935731132091
 11
498.1632812499945
 21
549.9935731132091
  0
LINE
  8
_0-0_計極細
  6
CONTINUOUS
 62
    2
 10
503.76328124999469
 20
562.9935731132091
 11
498.1632812499945
 21
562.9935731132091
  0
LINE
  8
_0-0_計極細
  6
CONTINUOUS
 62
    2
 10
503.76328124999486
 20
657.99357311320921
 11
498.16328124999467
 21
657.99357311320921
  0
LINE
  8
_0-0_計極細
  6
CONTINUOUS
 62
    2
 10
503.76328124999486
 20
670.9935731132091
 11
498.16328124999467
 21
670.9935731132091
  0
LINE
  8
_0-0_計極細
  6
CONTINUOUS
 62
    2
 10
486.76328124999463
 20
549.9935731132091
 11
481.16328124999455
 21
549.9935731132091
  0
LINE
  8
_0-0_計極細
  6
CONTINUOUS
 62
    2
 10
486.76328124999463
 20
562.9935731132091
 11
481.16328124999455
 21
562.9935731132091
  0
LINE
  8
_0-0_計極細
  6
CONTINUOUS
 62
    2
 10
486.76328124999486
 20
657.99357311320921
 11
481.16328124999461
 21
657.99357311320921
  0
LINE
  8
_0-0_計極細
  6
CONTINUOUS
 62
    2
 10
486.76328124999486
 20
670.9935731132091
 11
481.16328124999461
 21
670.9935731132091
  0
LINE
  8
_0-0_計極細
  6
CONTINUOUS
 62
    2
 10
469.76328124999469
 20
549.9935731132091
 11
464.1632812499945
 21
549.9935731132091
  0
LINE
  8
_0-0_計極細
  6
CONTINUOUS
 62
    2
 10
469.76328124999469
 20
562.9935731132091
 11
464.1632812499945
 21
562.9935731132091
  0
LINE
  8
_0-0_計極細
  6
CONTINUOUS
 62
    2
 10
469.76328124999492
 20
657.99357311320921
 11
464.16328124999467
 21
657.99357311320921
  0
LINE
  8
_0-0_計極細
  6
CONTINUOUS
 62
    2
 10
469.76328124999492
 20
670.9935731132091
 11
464.16328124999467
 21
670.9935731132091
  0
LINE
  8
_0-0_計極細
  6
CONTINUOUS
 62
    2
 10
452.76328124999463
 20
549.9935731132091
 11
447.1632812499945
 21
549.9935731132091
  0
LINE
  8
_0-0_計極細
  6
CONTINUOUS
 62
    2
 10
452.76328124999463
 20
562.9935731132091
 11
447.1632812499945
 21
562.9935731132091
  0
LINE
  8
_0-0_計極細
  6
CONTINUOUS
 62
    2
 10
452.76328124999486
 20
657.99357311320921
 11
447.16328124999461
 21
657.99357311320921
  0
LINE
  8
_0-0_計極細
  6
CONTINUOUS
 62
    2
 10
452.76328124999486
 20
670.9935731132091
 11
447.16328124999461
 21
670.9935731132091
  0
LINE
  8
_0-0_計極細
  6
CONTINUOUS
 62
    2
 10
435.76328124999463
 20
549.9935731132091
 11
430.16328124999455
 21
549.9935731132091
  0
LINE
  8
_0-0_計極細
  6
CONTINUOUS
 62
    2
 10
435.76328124999463
 20
562.9935731132091
 11
430.16328124999455
 21
562.9935731132091
  0
LINE
  8
_0-0_計極細
  6
CONTINUOUS
 62
    2
 10
435.76328124999492
 20
657.99357311320921
 11
430.16328124999461
 21
657.99357311320921
  0
LINE
  8
_0-0_計極細
  6
CONTINUOUS
 62
    2
 10
435.76328124999492
 20
670.9935731132091
 11
430.16328124999461
 21
670.9935731132091
  0
LINE
  8
_0-0_計極細
  6
CONTINUOUS
 62
    2
 10
418.76328124999469
 20
549.9935731132091
 11
413.1632812499945
 21
549.9935731132091
  0
LINE
  8
_0-0_計極細
  6
CONTINUOUS
 62
    2
 10
418.76328124999469
 20
562.9935731132091
 11
413.1632812499945
 21
562.9935731132091
  0
LINE
  8
_0-0_計極細
  6
CONTINUOUS
 62
    2
 10
418.76328124999486
 20
657.99357311320921
 11
413.16328124999467
 21
657.99357311320921
  0
LINE
  8
_0-0_計極細
  6
CONTINUOUS
 62
    2
 10
418.76328124999486
 20
670.9935731132091
 11
413.16328124999467
 21
670.9935731132091
  0
LINE
  8
_0-0_計極細
  6
CONTINUOUS
 62
    2
 10
401.76328124999463
 20
549.9935731132091
 11
396.16328124999455
 21
549.9935731132091
  0
LINE
  8
_0-0_計極細
  6
CONTINUOUS
 62
    2
 10
401.76328124999463
 20
562.9935731132091
 11
396.16328124999455
 21
562.9935731132091
  0
LINE
  8
_0-0_計極細
  6
CONTINUOUS
 62
    2
 10
401.76328124999486
 20
657.99357311320921
 11
396.16328124999461
 21
657.99357311320921
  0
LINE
  8
_0-0_計極細
  6
CONTINUOUS
 62
    2
 10
401.76328124999486
 20
670.9935731132091
 11
396.16328124999461
 21
670.9935731132091
  0
LINE
  8
_0-0_計極細
  6
CONTINUOUS
 62
    2
 10
384.76328124999469
 20
549.9935731132091
 11
379.1632812499945
 21
549.9935731132091
  0
LINE
  8
_0-0_計極細
  6
CONTINUOUS
 62
    2
 10
384.76328124999469
 20
562.9935731132091
 11
379.1632812499945
 21
562.9935731132091
  0
LINE
  8
_0-0_計極細
  6
CONTINUOUS
 62
    2
 10
384.76328124999492
 20
657.99357311320921
 11
379.16328124999461
 21
657.99357311320921
  0
LINE
  8
_0-0_計極細
  6
CONTINUOUS
 62
    2
 10
384.76328124999492
 20
670.9935731132091
 11
379.16328124999461
 21
670.9935731132091
  0
LINE
  8
_0-0_計極細
  6
CONTINUOUS
 62
    2
 10
367.76328124999463
 20
549.9935731132091
 11
362.1632812499945
 21
549.9935731132091
  0
LINE
  8
_0-0_計極細
  6
CONTINUOUS
 62
    2
 10
367.76328124999463
 20
562.9935731132091
 11
362.1632812499945
 21
562.9935731132091
  0
LINE
  8
_0-0_計極細
  6
CONTINUOUS
 62
    2
 10
367.76328124999486
 20
657.99357311320921
 11
362.16328124999461
 21
657.99357311320921
  0
LINE
  8
_0-0_計極細
  6
CONTINUOUS
 62
    2
 10
367.76328124999486
 20
670.9935731132091
 11
362.16328124999461
 21
670.9935731132091
  0
LINE
  8
_0-0_計極細
  6
CONTINUOUS
 62
    2
 10
350.76328124999463
 20
549.9935731132091
 11
345.16328124999455
 21
549.9935731132091
  0
LINE
  8
_0-0_計極細
  6
CONTINUOUS
 62
    2
 10
350.76328124999463
 20
562.9935731132091
 11
345.16328124999455
 21
562.9935731132091
  0
LINE
  8
_0-0_計極細
  6
CONTINUOUS
 62
    2
 10
350.76328124999486
 20
657.99357311320921
 11
345.16328124999455
 21
657.99357311320921
  0
LINE
  8
_0-0_計極細
  6
CONTINUOUS
 62
    2
 10
350.76328124999486
 20
670.9935731132091
 11
345.16328124999455
 21
670.9935731132091
  0
LINE
  8
_0-0_計極細
  6
CONTINUOUS
 62
    2
 10
333.76328124999469
 20
549.9935731132091
 11
328.1632812499945
 21
549.9935731132091
  0
LINE
  8
_0-0_計極細
  6
CONTINUOUS
 62
    2
 10
333.76328124999469
 20
562.9935731132091
 11
328.1632812499945
 21
562.9935731132091
  0
LINE
  8
_0-0_計極細
  6
CONTINUOUS
 62
    2
 10
333.76328124999486
 20
657.99357311320921
 11
328.1632812499945
 21
657.99357311320921
  0
LINE
  8
_0-0_計極細
  6
CONTINUOUS
 62
    2
 10
333.76328124999486
 20
670.9935731132091
 11
328.1632812499945
 21
670.9935731132091
  0
LINE
  8
_0-0_計極細
  6
CONTINUOUS
 62
    2
 10
316.76328124999463
 20
549.9935731132091
 11
311.16328124999455
 21
549.9935731132091
  0
LINE
  8
_0-0_計極細
  6
CONTINUOUS
 62
    2
 10
316.76328124999463
 20
562.9935731132091
 11
311.16328124999455
 21
562.9935731132091
  0
LINE
  8
_0-0_計極細
  6
CONTINUOUS
 62
    2
 10
316.76328124999486
 20
657.99357311320921
 11
311.16328124999455
 21
657.99357311320921
  0
LINE
  8
_0-0_計極細
  6
CONTINUOUS
 62
    2
 10
316.76328124999486
 20
670.9935731132091
 11
311.16328124999455
 21
670.9935731132091
  0
LINE
  8
_0-0_計極細
  6
CONTINUOUS
 62
    2
 10
299.76328124999469
 20
549.9935731132091
 11
293.76328124999446
 21
549.9935731132091
  0
LINE
  8
_0-0_計極細
  6
CONTINUOUS
 62
    2
 10
299.76328124999469
 20
562.9935731132091
 11
293.76328124999446
 21
562.9935731132091
  0
LINE
  8
_0-0_計極細
  6
CONTINUOUS
 62
    2
 10
299.76328124999486
 20
657.99357311320921
 11
293.76328124999463
 21
657.99357311320921
  0
LINE
  8
_0-0_計極細
  6
CONTINUOUS
 62
    2
 10
299.76328124999486
 20
670.9935731132091
 11
293.76328124999463
 21
670.9935731132091
  0
LINE
  8
_0-0_計極細
  6
CONTINUOUS
 62
    2
 10
282.36328124999477
 20
549.9935731132091
 11
276.36328124999454
 21
549.9935731132091
  0
LINE
  8
_0-0_計極細
  6
CONTINUOUS
 62
    2
 10
282.36328124999477
 20
562.9935731132091
 11
276.36328124999454
 21
562.9935731132091
  0
LINE
  8
_0-0_計極細
  6
CONTINUOUS
 62
    2
 10
282.363281249995
 20
657.99357311320921
 11
276.36328124999477
 21
657.99357311320921
  0
LINE
  8
_0-0_計極細
  6
CONTINUOUS
 62
    2
 10
282.363281249995
 20
670.9935731132091
 11
276.36328124999477
 21
670.9935731132091
  0
LINE
  8
_0-0_計極細
  6
CONTINUOUS
 62
    2
 10
264.96328124999491
 20
549.9935731132091
 11
258.96328124999468
 21
549.9935731132091
  0
LINE
  8
_0-0_計極細
  6
CONTINUOUS
 62
    2
 10
264.96328124999491
 20
562.9935731132091
 11
258.96328124999468
 21
562.9935731132091
  0
LINE
  8
_0-0_計極細
  6
CONTINUOUS
 62
    2
 10
264.96328124999513
 20
657.99357311320921
 11
258.96328124999491
 21
657.99357311320921
  0
LINE
  8
_0-0_計極細
  6
CONTINUOUS
 62
    2
 10
264.96328124999513
 20
670.9935731132091
 11
258.96328124999491
 21
670.9935731132091
  0
LINE
  8
_0-0_計極細
  6
CONTINUOUS
 62
    2
 10
247.56328124999504
 20
549.9935731132091
 11
241.56328124999482
 21
549.9935731132091
  0
LINE
  8
_0-0_計極細
  6
CONTINUOUS
 62
    2
 10
247.56328124999504
 20
562.9935731132091
 11
241.56328124999482
 21
562.9935731132091
  0
LINE
  8
_0-0_計極細
  6
CONTINUOUS
 62
    2
 10
247.56328124999527
 20
657.99357311320921
 11
241.56328124999504
 21
657.99357311320921
  0
LINE
  8
_0-0_計極細
  6
CONTINUOUS
 62
    2
 10
247.56328124999527
 20
670.9935731132091
 11
241.56328124999504
 21
670.9935731132091
  0
LINE
  8
_0-0_計極細
  6
CENTER1
 62
    2
 10
228.23909250678597
 20
664.49357311320932
 11
1236.9211049910073
 21
664.4935731132091
  0
LINE
  8
_0-0_計極細
  6
CENTER1
 62
    2
 10
227.15469607331514
 20
556.49357311320932
 11
1236.921104991007
 21
556.4935731132091
  0
LINE
  8
_0-1_計細線
  6
CONTINUOUS
 62
    3
 10
1132.7632812499958
 20
509.99357311320955
 11
1132.7632812499946
 21
710.99357311320841
  0
LINE
  8
_0-1_計細線
  6
CONTINUOUS
 62
    3
 10
1132.7632812499958
 20
509.99357311320955
 11
1144.1632812499963
 21
509.99357311320955
  0
LINE
  8
_0-0_計極細
  6
CONTINUOUS
 62
    2
 10
1140.9632812499963
 20
509.99357311320955
 11
1140.9632812499949
 21
710.99357311320841
  0
LINE
  8
_0-0_計極細
  6
CONTINUOUS
 62
    2
 10
1135.9632812499963
 20
509.99357311320955
 11
1135.9632812499949
 21
710.99357311320841
  0
LINE
  8
_0-1_計細線
  6
CONTINUOUS
 62
    3
 10
1161.163281249997
 20
509.99357311320978
 11
1161.1632812499961
 21
710.99357311320841
  0
LINE
  8
_0-1_計細線
  6
CONTINUOUS
 62
    3
 10
1149.7632812499965
 20
509.99357311320955
 11
1161.163281249997
 21
509.99357311320978
  0
LINE
  8
_0-0_計極細
  6
CONTINUOUS
 62
    2
 10
1157.9632812499967
 20
509.99357311320955
 11
1157.9632812499956
 21
710.99357311320841
  0
LINE
  8
_0-0_計極細
  6
CONTINUOUS
 62
    2
 10
1152.9632812499967
 20
509.99357311320955
 11
1152.9632812499956
 21
710.99357311320841
  0
LINE
  8
_0-1_計細線
  6
CONTINUOUS
 62
    3
 10
1144.1632812499963
 20
509.99357311320955
 11
1144.1632812499963
 21
710.99357311320841
  0
LINE
  8
_0-1_計細線
  6
CONTINUOUS
 62
    3
 10
1132.7632812499946
 20
710.99357311320841
 11
1144.1632812499952
 21
710.99357311320841
  0
LINE
  8
_0-1_計細線
  6
CONTINUOUS
 62
    3
 10
1149.7632812499965
 20
710.99357311320841
 11
1161.1632812499961
 21
710.99357311320841
  0
LINE
  8
_0-1_計細線
  6
CONTINUOUS
 62
    3
 10
1149.7632812499965
 20
509.99357311320955
 11
1149.7632812499965
 21
710.99357311320841
  0
LINE
  8
_0-0_計極細
  6
CONTINUOUS
 62
    2
 10
1093.1632812499943
 20
670.9935731132091
 11
1093.6132812499936
 21
670.9935731132091
  0
LINE
  8
_0-0_計極細
  6
CONTINUOUS
 62
    2
 10
1098.3132812499935
 20
670.9935731132091
 11
1098.7632812499953
 21
670.9935731132091
  0
LINE
  8
_0-0_計極細
  6
CONTINUOUS
 62
    2
 10
1093.1632812499943
 20
657.99357311320921
 11
1093.6132812499936
 21
657.99357311320921
  0
LINE
  8
_0-0_計極細
  6
CONTINUOUS
 62
    2
 10
1098.3132812499935
 20
657.99357311320921
 11
1098.7632812499953
 21
657.99357311320921
  0
LINE
  8
_0-5_寸法線
  6
CONTINUOUS
 62
    7
 10
1095.7483275942309
 20
649.66451080459865
 11
1090.7483275942309
 21
658.32476484244307
  0
LINE
  8
_0-5_寸法線
  6
CONTINUOUS
 62
    7
 10
1095.7483275942309
 20
649.66451080459865
 11
1095.7483275942309
 21
659.66451080459865
  0
LINE
  8
_0-5_寸法線
  6
CONTINUOUS
 62
    7
 10
1095.7483275942309
 20
649.66451080459865
 11
1064.7120238885852
 21
765.49357311320728
  0
LINE
  8
_0-5_寸法線
  6
CONTINUOUS
 62
    7
 10
1064.7120238885852
 20
765.49357311320728
 11
1004.7120238885852
 21
765.49357311320728
  0
TEXT
  8
_0-5_寸法線
 62
    7
 10
1004.7120238885852
 20
765.49357311320728
 40
15
 41
0.8000000000000001
 50
0
  1
取　外　具
  0
TEXT
  8
_0-5_寸法線
 62
    7
 10
1004.0619149184506
 20
748.71260845258394
 40
15
 41
0.8000000000000001
 50
-0.0000000000001357
  1
(標準付属)
  0
LINE
  8
_0-7_枠細線
  6
CONTINUOUS
 62
    5
 10
1022.1702003703895
 20
782.52976024087843
 11
1014.6702003703894
 21
797.52976024087843
  0
LINE
  8
_0-7_枠細線
  6
CONTINUOUS
 62
    5
 10
1007.1702003703894
 20
782.52976024087843
 11
1022.1702003703895
 21
782.52976024087843
  0
LINE
  8
_0-7_枠細線
  6
CONTINUOUS
 62
    5
 10
1014.6702003703894
 20
797.52976024087843
 11
1007.1702003703894
 21
782.52976024087843
  0
TEXT
  8
_0-7_枠細線
 62
    5
 10
1009.5353516385376
 20
782.22275799549777
 40
12.5
 41
0.8
 50
0
  1
１
  0
LINE
  8
_0-7_枠細線
  6
CONTINUOUS
 62
    5
 10
1033.0397433976059
 20
797.52976024087843
 11
1025.5397433976059
 21
782.52976024087843
  0
LINE
  8
_0-7_枠細線
  6
CONTINUOUS
 62
    5
 10
1025.5397433976059
 20
782.52976024087843
 11
1040.5397433976059
 21
782.52976024087843
  0
LINE
  8
_0-7_枠細線
  6
CONTINUOUS
 62
    5
 10
1040.5397433976059
 20
782.52976024087843
 11
1033.0397433976059
 21
797.52976024087843
  0
TEXT
  8
_0-7_枠細線
 62
    5
 10
1028.0252354881545
 20
781.98207635069707
 40
12.5
 41
0.8
 50
0
  1
２
  0
LINE
  8
_0-7_枠細線
  6
CONTINUOUS
 62
    5
 10
1059.2537273123021
 20
782.52976024087843
 11
1051.7537273123021
 21
797.52976024087843
  0
LINE
  8
_0-7_枠細線
  6
CONTINUOUS
 62
    5
 10
1044.2537273123021
 20
782.52976024087843
 11
1059.2537273123021
 21
782.52976024087843
  0
LINE
  8
_0-7_枠細線
  6
CONTINUOUS
 62
    5
 10
1051.7537273123021
 20
797.52976024087843
 11
1044.2537273123021
 21
782.52976024087843
  0
TEXT
  8
_0-7_枠細線
 62
    5
 10
1046.6188785804502
 20
781.98207635069707
 40
12.5
 41
0.8
 50
0
  1
５
  0
TEXT
  8
_0-5_寸法線
 62
    7
 10
344.51035292196741
 20
448.27598052061745
 40
15
 41
0.8000000000000001
 50
0
  1
ＧＳＬ－２０
  0
LINE
  8
_0-5_寸法線
  6
CONTINUOUS
 62
    7
 10
332.66898336450151
 20
507.46857311320991
 11
337.668983375626
 21
498.80831908178828
  0
LINE
  8
_0-5_寸法線
  6
CONTINUOUS
 62
    7
 10
332.66898336450151
 20
507.46857311320991
 11
332.66898337734699
 21
497.46857311320991
  0
LINE
  8
_0-5_寸法線
  6
CONTINUOUS
 62
    7
 10
332.66898336450151
 20
507.46857311320991
 11
344.51035292196741
 21
463.27598052061745
  0
LINE
  8
_0-5_寸法線
  6
CONTINUOUS
 62
    7
 10
344.51035292196741
 20
463.27598052061745
 11
452.51035292196747
 21
463.27598052061745
  0
TEXT
  8
_0-5_寸法線
 62
    7
 10
344.51035292196741
 20
463.8759805206173
 40
15
 41
0.8000000000000001
 50
0
  1
ＳＵＳアングル受枠
  0
LINE
  8
_0-5_寸法線
  6
CONTINUOUS
 62
    7
 10
458.4366222232328
 20
550.44729426159211
 11
463.43662221113084
 21
541.7870402167606
  0
LINE
  8
_0-5_寸法線
  6
CONTINUOUS
 62
    7
 10
458.4366222232328
 20
550.44729426159211
 11
458.43662220925864
 21
540.44729426159211
  0
LINE
  8
_0-5_寸法線
  6
CONTINUOUS
 62
    7
 10
458.4366222232328
 20
550.44729426159211
 11
481.79410521272644
 21
463.27598052061745
  0
LINE
  8
_0-5_寸法線
  6
CONTINUOUS
 62
    7
 10
481.79410521272644
 20
463.27598052061745
 11
613.79410521272666
 21
463.27598052061745
  0
TEXT
  8
_0-5_寸法線
 62
    7
 10
481.79410521272655
 20
463.27598052061745
 40
15
 41
0.8000000000000001
 50
0
  1
セーフティグレーチング
  0
TEXT
  8
_0-5_寸法線
 62
    7
 10
481.79410521272644
 20
448.27598052061745
 40
15
 41
0.8000000000000001
 50
0
  1
ＧＲＳＪ－２０Ｗ２０１
  0
LINE
  8
_0-1_計細線
  6
CONTINUOUS
 62
    3
 10
1098.3132812499932
 20
625.49357311320819
 11
1098.3132812499935
 21
678.49357311320819
  0
LINE
  8
_0-1_計細線
  6
CONTINUOUS
 62
    3
 10
1093.6132812499936
 20
678.49357311320819
 11
1093.6132812499934
 21
625.49357311320819
  0
LINE
  8
_0-1_計細線
  6
CONTINUOUS
 62
    3
 10
1093.6132812499934
 20
625.49357311320819
 11
1098.3132812499932
 21
625.49357311320819
  0
LINE
  8
_0-1_計細線
  6
CONTINUOUS
 62
    3
 10
1093.6132812499936
 20
668.49357311320819
 11
1098.3132812499935
 21
668.49357311320819
  0
LINE
  8
_0-1_計細線
  6
CONTINUOUS
 62
    3
 10
1093.6132812499936
 20
676.4935731132083
 11
1098.3132812499935
 21
676.4935731132083
  0
LINE
  8
_0-1_計細線
  6
CONTINUOUS
 62
    3
 10
1093.6132812499936
 20
678.49357311320819
 11
1098.3132812499935
 21
678.49357311320819
  0
LINE
  8
_0-1_計細線
  6
CONTINUOUS
 62
    3
 10
1093.6132812499936
 20
674.49357311320819
 11
1098.3132812499935
 21
674.49357311320819
  0
LINE
  8
_0-1_計細線
  6
CONTINUOUS
 62
    3
 10
1093.6132812499936
 20
672.49357311320819
 11
1098.3132812499935
 21
672.49357311320819
  0
LINE
  8
_0-1_計細線
  6
CONTINUOUS
 62
    3
 10
1093.6132812499936
 20
670.49357311320819
 11
1098.3132812499935
 21
670.49357311320819
  0
ARC
  8
_0-b_細線3
  6
CONTINUOUS
 62
    7
 10
869.85596010283177
 20
266.53633549527376
 40
1.666666666666667
 50
89.999999999999915
 51
179.99999999999983
  0
ARC
  8
_0-b_細線3
  6
CONTINUOUS
 62
    7
 10
870.63587542171058
 20
269.86966882860725
 40
1.666666666666667
 50
269.99999999999977
 51
330.00000000000301
  0
ARC
  8
_0-b_細線3
  6
CONTINUOUS
 62
    7
 10
873.52262676765872
 20
268.20300216194073
 40
1.666666666666667
 50
89.999999999999915
 51
150.00000000000134
  0
LINE
  8
_0-b_細線3
  6
CONTINUOUS
 62
    7
 10
869.85596010283177
 20
268.20300216194073
 11
870.63587542171058
 21
268.20300216194073
  0
ARC
  8
_0-b_細線3
  6
CONTINUOUS
 62
    7
 10
885.52262676581972
 20
266.53633549527376
 40
1.666666666666667
 50
0
 51
89.999999999999915
  0
ARC
  8
_0-b_細線3
  6
CONTINUOUS
 62
    7
 10
884.74271144694046
 20
269.86966882860725
 40
1.666666666666667
 50
210.00000000000404
 51
269.99999999999977
  0
ARC
  8
_0-b_細線3
  6
CONTINUOUS
 62
    7
 10
881.85596010099232
 20
268.20300216194073
 40
1.666666666666667
 50
29.999999999990862
 51
89.999999999984354
  0
LINE
  8
_0-b_細線3
  6
CONTINUOUS
 62
    7
 10
885.52262676581972
 20
268.20300216194073
 11
884.74271144694046
 21
268.20300216194073
  0
ARC
  8
_0-b_細線3
  6
CONTINUOUS
 62
    7
 10
869.02262676949817
 20
264.20300216194073
 40
0.8333333333333334
 50
179.99999999999983
 51
269.99999999999977
  0
LINE
  8
_0-b_細線3
  6
CONTINUOUS
 62
    7
 10
868.18929343616469
 20
266.53633549527376
 11
868.18929343616469
 21
264.20300216194073
  0
ARC
  8
_0-b_細線3
  6
CONTINUOUS
 62
    7
 10
886.35596009915275
 20
264.20300216194073
 40
0.8333333333333334
 50
269.99999999999977
 51
359.99999999999966
  0
LINE
  8
_0-b_細線3
  6
CONTINUOUS
 62
    7
 10
887.18929343248635
 20
266.53633549527376
 11
887.18929343248635
 21
264.20300216194073
  0
ARC
  8
_0-b_細線3
  6
CONTINUOUS
 62
    7
 10
873.18929343616469
 20
261.70300216194073
 40
1.666666666666667
 50
0
 51
89.999999999999915
  0
LINE
  8
_0-b_細線3
  6
CONTINUOUS
 62
    7
 10
873.18929343616469
 20
263.36966882860725
 11
869.02262676949817
 21
263.36966882860725
  0
ARC
  8
_0-b_細線3
  6
CONTINUOUS
 62
    7
 10
882.18929343616526
 20
261.70300216194073
 40
1.666666666666667
 50
89.999999999999915
 51
179.99999999999983
  0
LINE
  8
_0-b_細線3
  6
CONTINUOUS
 62
    7
 10
882.18929343248635
 20
263.36966882860725
 11
886.35596009915275
 21
263.36966882860725
  0
LINE
  8
_0-b_細線3
  6
CONTINUOUS
 62
    7
 10
881.85596010099232
 20
269.86966882860725
 11
873.52262676765872
 21
269.86966882860725
  0
LINE
  8
_0-b_細線3
  6
CONTINUOUS
 62
    7
 10
874.85596010099232
 20
236.53633549527376
 11
874.85596010283177
 21
261.70300216194073
  0
LINE
  8
_0-b_細線3
  6
CONTINUOUS
 62
    7
 10
880.52262676765872
 20
236.53633549527376
 11
880.52262676949863
 21
261.70300216194073
  0
LINE
  8
_0-b_細線3
  6
CONTINUOUS
 62
    7
 10
880.52262676765872
 20
236.53633549527376
 11
874.85596010099232
 21
236.53633549527376
  0
ARC
  8
_0-b_細線3
  6
CONTINUOUS
 62
    7
 10
898.85596010343477
 20
266.53633549527376
 40
1.666666666666667
 50
89.999999999999915
 51
179.99999999999983
  0
ARC
  8
_0-b_細線3
  6
CONTINUOUS
 62
    7
 10
899.63587542231369
 20
269.86966882860725
 40
1.666666666666667
 50
269.99999999999977
 51
329.99999999999523
  0
ARC
  8
_0-b_細線3
  6
CONTINUOUS
 62
    7
 10
902.52262676826172
 20
268.20300216194073
 40
1.666666666666667
 50
89.999999999999915
 51
150.00000000000915
  0
LINE
  8
_0-b_細線3
  6
CONTINUOUS
 62
    7
 10
898.85596010343477
 20
268.20300216194073
 11
899.63587542231369
 21
268.20300216194073
  0
ARC
  8
_0-b_細線3
  6
CONTINUOUS
 62
    7
 10
914.52262676642272
 20
266.53633549527376
 40
1.666666666666667
 50
0
 51
89.999999999999915
  0
ARC
  8
_0-b_細線3
  6
CONTINUOUS
 62
    7
 10
913.74271144754346
 20
269.86966882860725
 40
1.666666666666667
 50
209.99999999999622
 51
269.99999999999977
  0
ARC
  8
_0-b_細線3
  6
CONTINUOUS
 62
    7
 10
910.8559601015952
 20
268.20300216194073
 40
1.666666666666667
 50
29.999999999998682
 51
89.999999999999915
  0
LINE
  8
_0-b_細線3
  6
CONTINUOUS
 62
    7
 10
914.52262676642272
 20
268.20300216194073
 11
913.74271144754346
 21
268.20300216194073
  0
ARC
  8
_0-b_細線3
  6
CONTINUOUS
 62
    7
 10
898.02262677010162
 20
264.20300216194073
 40
0.8333333333333334
 50
179.99999999999983
 51
269.99999999999977
  0
LINE
  8
_0-b_細線3
  6
CONTINUOUS
 62
    7
 10
897.1892934367678
 20
266.53633549527376
 11
897.1892934367678
 21
264.20300216194073
  0
ARC
  8
_0-b_細線3
  6
CONTINUOUS
 62
    7
 10
915.35596009975575
 20
264.20300216194073
 40
0.8333333333333334
 50
269.99999999999977
 51
359.99999999999966
  0
LINE
  8
_0-b_細線3
  6
CONTINUOUS
 62
    7
 10
916.18929343308935
 20
266.53633549527376
 11
916.18929343308935
 21
264.20300216194073
  0
ARC
  8
_0-b_細線3
  6
CONTINUOUS
 62
    7
 10
902.1892934367678
 20
261.70300216194073
 40
1.666666666666667
 50
0
 51
89.999999999999915
  0
LINE
  8
_0-b_細線3
  6
CONTINUOUS
 62
    7
 10
902.1892934367678
 20
263.36966882860725
 11
898.02262677010162
 21
263.36966882860725
  0
ARC
  8
_0-b_細線3
  6
CONTINUOUS
 62
    7
 10
911.18929343676825
 20
261.70300216194073
 40
1.666666666666667
 50
89.999999999999915
 51
179.99999999999983
  0
LINE
  8
_0-b_細線3
  6
CONTINUOUS
 62
    7
 10
911.18929343308935
 20
263.36966882860725
 11
915.35596009975575
 21
263.36966882860725
  0
LINE
  8
_0-b_細線3
  6
CONTINUOUS
 62
    7
 10
910.8559601015952
 20
269.86966882860725
 11
902.52262676826172
 21
269.86966882860725
  0
LINE
  8
_0-b_細線3
  6
CONTINUOUS
 62
    7
 10
903.85596010159531
 20
236.53633549527376
 11
903.85596010343477
 21
261.70300216194073
  0
LINE
  8
_0-b_細線3
  6
CONTINUOUS
 62
    7
 10
909.52262676826183
 20
236.53633549527376
 11
909.52262677010162
 21
261.70300216194073
  0
LINE
  8
_0-b_細線3
  6
CONTINUOUS
 62
    7
 10
909.52262676826183
 20
236.53633549527376
 11
903.85596010159531
 21
236.53633549527376
  0
ARC
  8
_0-b_細線3
  6
CONTINUOUS
 62
    7
 10
927.85596010403765
 20
266.53633549527376
 40
1.666666666666667
 50
89.999999999999915
 51
179.99999999999983
  0
ARC
  8
_0-b_細線3
  6
CONTINUOUS
 62
    7
 10
928.63587542291668
 20
269.86966882860725
 40
1.666666666666667
 50
269.99999999999977
 51
329.99999999999523
  0
ARC
  8
_0-b_細線3
  6
CONTINUOUS
 62
    7
 10
931.52262676886482
 20
268.20300216194073
 40
1.666666666666667
 50
89.999999999999915
 51
150.00000000000915
  0
LINE
  8
_0-b_細線3
  6
CONTINUOUS
 62
    7
 10
927.85596010403765
 20
268.20300216194073
 11
928.63587542291668
 21
268.20300216194073
  0
ARC
  8
_0-b_細線3
  6
CONTINUOUS
 62
    7
 10
943.52262676702583
 20
266.53633549527376
 40
1.666666666666667
 50
0
 51
89.999999999999915
  0
ARC
  8
_0-b_細線3
  6
CONTINUOUS
 62
    7
 10
942.74271144814634
 20
269.86966882860725
 40
1.666666666666667
 50
210.00000000000404
 51
269.99999999999977
  0
ARC
  8
_0-b_細線3
  6
CONTINUOUS
 62
    7
 10
939.8559601021982
 20
268.20300216194073
 40
1.666666666666667
 50
29.999999999990862
 51
89.999999999984354
  0
LINE
  8
_0-b_細線3
  6
CONTINUOUS
 62
    7
 10
943.52262676702583
 20
268.20300216194073
 11
942.74271144814634
 21
268.20300216194073
  0
ARC
  8
_0-b_細線3
  6
CONTINUOUS
 62
    7
 10
927.02262677070416
 20
264.20300216194073
 40
0.8333333333333334
 50
179.99999999999983
 51
269.99999999999977
  0
LINE
  8
_0-b_細線3
  6
CONTINUOUS
 62
    7
 10
926.18929343737079
 20
266.53633549527376
 11
926.18929343737079
 21
264.20300216194073
  0
ARC
  8
_0-b_細線3
  6
CONTINUOUS
 62
    7
 10
944.35596010035874
 20
264.20300216194073
 40
0.8333333333333334
 50
269.99999999999977
 51
359.99999999999966
  0
LINE
  8
_0-b_細線3
  6
CONTINUOUS
 62
    7
 10
945.18929343369223
 20
266.53633549527376
 11
945.18929343369223
 21
264.20300216194073
  0
ARC
  8
_0-b_細線3
  6
CONTINUOUS
 62
    7
 10
931.18929343737079
 20
261.70300216194073
 40
1.666666666666667
 50
0
 51
89.999999999999915
  0
LINE
  8
_0-b_細線3
  6
CONTINUOUS
 62
    7
 10
931.18929343737079
 20
263.36966882860725
 11
927.02262677070416
 21
263.36966882860725
  0
ARC
  8
_0-b_細線3
  6
CONTINUOUS
 62
    7
 10
940.18929343737068
 20
261.70300216194073
 40
1.666666666666667
 50
89.999999999999915
 51
179.99999999999983
  0
LINE
  8
_0-b_細線3
  6
CONTINUOUS
 62
    7
 10
940.18929343369177
 20
263.36966882860725
 11
944.35596010035874
 21
263.36966882860725
  0
LINE
  8
_0-b_細線3
  6
CONTINUOUS
 62
    7
 10
939.8559601021982
 20
269.86966882860725
 11
931.52262676886482
 21
269.86966882860725
  0
LINE
  8
_0-b_細線3
  6
CONTINUOUS
 62
    7
 10
932.8559601021982
 20
236.53633549527376
 11
932.85596010403765
 21
261.70300216194073
  0
LINE
  8
_0-b_細線3
  6
CONTINUOUS
 62
    7
 10
938.52262676886482
 20
236.53633549527376
 11
938.52262677070473
 21
261.70300216194073
  0
LINE
  8
_0-b_細線3
  6
CONTINUOUS
 62
    7
 10
938.52262676886482
 20
236.53633549527376
 11
932.8559601021982
 21
236.53633549527376
  0
ARC
  8
_0-b_細線3
  6
CONTINUOUS
 62
    7
 10
811.85596010130882
 20
266.53633549527376
 40
1.666666666666667
 50
89.999999999999915
 51
179.99999999999983
  0
ARC
  8
_0-b_細線3
  6
CONTINUOUS
 62
    7
 10
812.63587542018763
 20
269.86966882860725
 40
1.666666666666667
 50
269.99999999999977
 51
330.00000000000301
  0
ARC
  8
_0-b_細線3
  6
CONTINUOUS
 62
    7
 10
815.52262676613577
 20
268.20300216194073
 40
1.666666666666667
 50
89.999999999999915
 51
150.00000000000134
  0
LINE
  8
_0-b_細線3
  6
CONTINUOUS
 62
    7
 10
811.85596010130882
 20
268.20300216194073
 11
812.63587542018763
 21
268.20300216194073
  0
ARC
  8
_0-b_細線3
  6
CONTINUOUS
 62
    7
 10
827.52262676429677
 20
266.53633549527376
 40
1.666666666666667
 50
0
 51
89.999999999999915
  0
ARC
  8
_0-b_細線3
  6
CONTINUOUS
 62
    7
 10
826.74271144541785
 20
269.86966882860725
 40
1.666666666666667
 50
209.99999999999622
 51
269.99999999999977
  0
ARC
  8
_0-b_細線3
  6
CONTINUOUS
 62
    7
 10
823.85596009946937
 20
268.20300216194073
 40
1.666666666666667
 50
29.999999999990862
 51
89.999999999984354
  0
LINE
  8
_0-b_細線3
  6
CONTINUOUS
 62
    7
 10
827.52262676429677
 20
268.20300216194073
 11
826.74271144541785
 21
268.20300216194073
  0
ARC
  8
_0-b_細線3
  6
CONTINUOUS
 62
    7
 10
811.02262676797579
 20
264.20300216194073
 40
0.8333333333333334
 50
179.99999999999983
 51
269.99999999999977
  0
LINE
  8
_0-b_細線3
  6
CONTINUOUS
 62
    7
 10
810.18929343464174
 20
266.53633549527376
 11
810.18929343464174
 21
264.20300216194073
  0
ARC
  8
_0-b_細線3
  6
CONTINUOUS
 62
    7
 10
828.3559600976298
 20
264.20300216194073
 40
0.8333333333333334
 50
269.99999999999977
 51
359.99999999999966
  0
LINE
  8
_0-b_細線3
  6
CONTINUOUS
 62
    7
 10
829.18929343096374
 20
266.53633549527376
 11
829.18929343096374
 21
264.20300216194073
  0
ARC
  8
_0-b_細線3
  6
CONTINUOUS
 62
    7
 10
815.18929343464174
 20
261.70300216194073
 40
1.666666666666667
 50
0
 51
89.999999999999915
  0
LINE
  8
_0-b_細線3
  6
CONTINUOUS
 62
    7
 10
815.18929343464174
 20
263.36966882860725
 11
811.02262676797579
 21
263.36966882860725
  0
ARC
  8
_0-b_細線3
  6
CONTINUOUS
 62
    7
 10
824.18929343464231
 20
261.70300216194073
 40
1.666666666666667
 50
89.999999999999915
 51
179.99999999999983
  0
LINE
  8
_0-b_細線3
  6
CONTINUOUS
 62
    7
 10
824.1892934309634
 20
263.36966882860725
 11
828.3559600976298
 21
263.36966882860725
  0
LINE
  8
_0-b_細線3
  6
CONTINUOUS
 62
    7
 10
823.85596009946937
 20
269.86966882860725
 11
815.52262676613577
 21
269.86966882860725
  0
LINE
  8
_0-b_細線3
  6
CONTINUOUS
 62
    7
 10
816.85596009946971
 20
236.53633549527376
 11
816.85596010130882
 21
261.70300216194073
  0
LINE
  8
_0-b_細線3
  6
CONTINUOUS
 62
    7
 10
822.52262676613577
 20
236.53633549527376
 11
822.52262676797568
 21
261.70300216194073
  0
LINE
  8
_0-b_細線3
  6
CONTINUOUS
 62
    7
 10
822.52262676613577
 20
236.53633549527376
 11
816.85596009946971
 21
236.53633549527376
  0
ARC
  8
_0-b_細線3
  6
CONTINUOUS
 62
    7
 10
840.85596010191182
 20
266.53633549527376
 40
1.666666666666667
 50
89.999999999999915
 51
179.99999999999983
  0
ARC
  8
_0-b_細線3
  6
CONTINUOUS
 62
    7
 10
841.63587542079108
 20
269.86966882860725
 40
1.666666666666667
 50
269.99999999999977
 51
329.99999999998744
  0
ARC
  8
_0-b_細線3
  6
CONTINUOUS
 62
    7
 10
844.52262676673877
 20
268.20300216194073
 40
1.666666666666667
 50
89.999999999999915
 51
150.00000000000915
  0
LINE
  8
_0-b_細線3
  6
CONTINUOUS
 62
    7
 10
840.85596010191182
 20
268.20300216194073
 11
841.63587542079108
 21
268.20300216194073
  0
ARC
  8
_0-b_細線3
  6
CONTINUOUS
 62
    7
 10
856.52262676489977
 20
266.53633549527376
 40
1.666666666666667
 50
0
 51
89.999999999999915
  0
ARC
  8
_0-b_細線3
  6
CONTINUOUS
 62
    7
 10
855.74271144602051
 20
269.86966882860725
 40
1.666666666666667
 50
210.00000000000404
 51
269.99999999999977
  0
ARC
  8
_0-b_細線3
  6
CONTINUOUS
 62
    7
 10
852.85596010007282
 20
268.20300216194073
 40
1.666666666666667
 50
29.999999999998682
 51
89.999999999999915
  0
LINE
  8
_0-b_細線3
  6
CONTINUOUS
 62
    7
 10
856.52262676489977
 20
268.20300216194073
 11
855.74271144602051
 21
268.20300216194073
  0
ARC
  8
_0-b_細線3
  6
CONTINUOUS
 62
    7
 10
840.02262676857868
 20
264.20300216194073
 40
0.8333333333333334
 50
179.99999999999983
 51
269.99999999999977
  0
LINE
  8
_0-b_細線3
  6
CONTINUOUS
 62
    7
 10
839.18929343524519
 20
266.53633549527376
 11
839.18929343524519
 21
264.20300216194073
  0
ARC
  8
_0-b_細線3
  6
CONTINUOUS
 62
    7
 10
857.3559600982328
 20
264.20300216194073
 40
0.8333333333333334
 50
269.99999999999977
 51
359.99999999999966
  0
LINE
  8
_0-b_細線3
  6
CONTINUOUS
 62
    7
 10
858.1892934315664
 20
266.53633549527376
 11
858.1892934315664
 21
264.20300216194073
  0
ARC
  8
_0-b_細線3
  6
CONTINUOUS
 62
    7
 10
844.18929343524519
 20
261.70300216194073
 40
1.666666666666667
 50
0
 51
89.999999999999915
  0
LINE
  8
_0-b_細線3
  6
CONTINUOUS
 62
    7
 10
844.18929343524519
 20
263.36966882860725
 11
840.02262676857868
 21
263.36966882860725
  0
ARC
  8
_0-b_細線3
  6
CONTINUOUS
 62
    7
 10
853.1892934352453
 20
261.70300216194073
 40
1.666666666666667
 50
89.999999999999915
 51
179.99999999999983
  0
LINE
  8
_0-b_細線3
  6
CONTINUOUS
 62
    7
 10
853.1892934315664
 20
263.36966882860725
 11
857.3559600982328
 21
263.36966882860725
  0
LINE
  8
_0-b_細線3
  6
CONTINUOUS
 62
    7
 10
852.85596010007282
 20
269.86966882860725
 11
844.52262676673877
 21
269.86966882860725
  0
LINE
  8
_0-b_細線3
  6
CONTINUOUS
 62
    7
 10
845.85596010007237
 20
236.53633549527376
 11
845.85596010191182
 21
261.70300216194073
  0
LINE
  8
_0-b_細線3
  6
CONTINUOUS
 62
    7
 10
851.52262676673922
 20
236.53633549527376
 11
851.52262676857868
 21
261.70300216194073
  0
LINE
  8
_0-b_細線3
  6
CONTINUOUS
 62
    7
 10
851.52262676673922
 20
236.53633549527376
 11
845.85596010007237
 21
236.53633549527376
  0
ARC
  8
_0-a_極細3
  6
CONTINUOUS
 62
    7
 10
966.51869676006186
 20
258.35638633692224
 40
17.558839598481345
 50
150.03871396148165
 51
205.23810402387883
  0
ARC
  8
_0-a_極細3
  6
CONTINUOUS
 62
    7
 10
934.75322157016376
 20
243.38287712429155
 40
17.558839598481345
 50
330.03871396148202
 51
25.238104023878222
  0
ARC
  8
_0-a_極細3
  6
CONTINUOUS
 62
    7
 10
821.59888132172796
 20
258.35638633692224
 40
17.558839598481345
 50
150.03871396148165
 51
205.23810402387883
  0
ARC
  8
_0-a_極細3
  6
CONTINUOUS
 62
    7
 10
789.83340613182986
 20
243.38287712429155
 40
17.558839598481345
 50
330.03871396148202
 51
25.238104023878222
  0
LINE
  8
_0-a_極細3
  6
CENTER1
 62
    7
 10
956.48806042462172
 20
250.86963173060713
 11
793.90951779669592
 21
250.86963173060713
  0
LINE
  8
_0-d_寸法3
  6
CONTINUOUS
 62
    7
 10
943.88081387873763
 20
242.27209985878426
 11
979.23315560442325
 21
267.02607602847502
  0
LINE
  8
_0-d_寸法3
  6
CONTINUOUS
 62
    7
 10
975.1373953829783
 20
264.15819384671977
 11
972.549204931953
 21
273.81745210961043
  0
LINE
  8
_0-d_寸法3
  6
CONTINUOUS
 62
    7
 10
975.1373953829783
 20
264.15819384671977
 11
977.72558583400337
 21
273.81745210961043
  0
LINE
  8
_0-d_寸法3
  6
CONTINUOUS
 62
    7
 10
943.88081387873763
 20
275.60543319211774
 11
979.23315560442325
 21
300.3594093618085
  0
LINE
  8
_0-d_寸法3
  6
CONTINUOUS
 62
    7
 10
975.1373953829783
 20
297.49152718005325
 11
977.72558583400337
 21
287.83226891716254
  0
LINE
  8
_0-d_寸法3
  6
CONTINUOUS
 62
    7
 10
975.1373953829783
 20
297.49152718005325
 11
972.549204931953
 21
287.83226891716259
  0
LINE
  8
_0-d_寸法3
  6
CONTINUOUS
 62
    7
 10
975.1373953829783
 20
264.15819384671977
 11
975.1373953829783
 21
297.49152718005325
  0
TEXT
  8
_0-d_寸法3
 62
    7
 10
975.1373953829783
 20
273.32486051338719
 40
15
 41
1
 50
90
  1
20
  0
LINE
  8
_0-b_細線3
  6
CONTINUOUS
 62
    7
 10
880.52262676857879
 20
240.03629839727409
 11
903.85596010191216
 21
240.03629839727409
  0
LINE
  8
_0-b_細線3
  6
CONTINUOUS
 62
    7
 10
909.52262676918167
 20
240.03629839727409
 11
932.85596010251527
 21
240.03629839727409
  0
LINE
  8
_0-b_細線3
  6
CONTINUOUS
 62
    7
 10
822.52262676705584
 20
240.03629839727409
 11
845.85596010038921
 21
240.03629839727409
  0
LINE
  8
_0-b_細線3
  6
CONTINUOUS
 62
    7
 10
851.52262676765929
 20
240.03629839727409
 11
874.85596010099232
 21
240.03629839727409
  0
LINE
  8
_0-b_細線3
  6
CONTINUOUS
 62
    7
 10
880.52262676857879
 20
261.70296506394061
 11
903.85596010191216
 21
261.70296506394061
  0
LINE
  8
_0-b_細線3
  6
CONTINUOUS
 62
    7
 10
909.52262676918167
 20
261.70296506394061
 11
932.85596010251527
 21
261.70296506394061
  0
LINE
  8
_0-b_細線3
  6
CONTINUOUS
 62
    7
 10
822.52262676705584
 20
261.70296506394061
 11
845.85596010038921
 21
261.70296506394061
  0
LINE
  8
_0-b_細線3
  6
CONTINUOUS
 62
    7
 10
851.52262676765929
 20
261.70296506394061
 11
874.85596010099232
 21
261.70296506394061
  0
LINE
  8
_0-b_細線3
  6
CONTINUOUS
 62
    7
 10
938.52262676978467
 20
261.70296506394061
 11
949.28172316058476
 21
261.70296506394061
  0
LINE
  8
_0-b_細線3
  6
CONTINUOUS
 62
    7
 10
938.52262676978467
 20
240.03629839727409
 11
951.99019516964086
 21
240.03629839727409
  0
LINE
  8
_0-b_細線3
  6
CONTINUOUS
 62
    7
 10
804.36190772225086
 20
261.70296506394061
 11
816.85596009978622
 21
261.70296506394061
  0
LINE
  8
_0-b_細線3
  6
CONTINUOUS
 62
    7
 10
807.07037973130696
 20
240.03629839727409
 11
816.85596009978622
 21
240.03629839727409
  0
TEXT
  8
_0-7_枠細線
 62
    5
 10
832.20525292576508
 20
196.2258538605478
 40
25
 41
0.8
 50
0
  1
側面詳細図
  0
LINE
  8
_0-d_寸法3
  6
CONTINUOUS
 62
    7
 10
877.68929343432569
 20
279.86966882860725
 11
877.68929343432569
 21
324.86966882860719
  0
LINE
  8
_0-d_寸法3
  6
CONTINUOUS
 62
    7
 10
877.68929343432569
 20
319.86966882860719
 11
887.34855169721641
 21
322.45785927963243
  0
LINE
  8
_0-d_寸法3
  6
CONTINUOUS
 62
    7
 10
877.68929343432569
 20
319.86966882860719
 11
887.34855169721641
 21
317.281478377582
  0
LINE
  8
_0-d_寸法3
  6
CONTINUOUS
 62
    7
 10
906.6892934349288
 20
279.86966882860725
 11
906.6892934349288
 21
324.86966882860719
  0
LINE
  8
_0-d_寸法3
  6
CONTINUOUS
 62
    7
 10
906.6892934349288
 20
319.86966882860719
 11
897.03003517203797
 21
317.281478377582
  0
LINE
  8
_0-d_寸法3
  6
CONTINUOUS
 62
    7
 10
906.6892934349288
 20
319.86966882860719
 11
897.03003517203797
 21
322.45785927963249
  0
LINE
  8
_0-d_寸法3
  6
CONTINUOUS
 62
    7
 10
877.68929343432569
 20
319.86966882860719
 11
906.6892934349288
 21
319.86966882860719
  0
TEXT
  8
_0-d_寸法3
 62
    7
 10
866.1431155246845
 20
304.86966882860719
 40
15
 41
1
 50
0
  1
(17.4)
  0
LINE
  8
_0-d_寸法3
  6
CONTINUOUS
 62
    7
 10
906.6892934349288
 20
319.86966882860719
 11
916.3485516978194
 21
322.45785927963232
  0
LINE
  8
_0-d_寸法3
  6
CONTINUOUS
 62
    7
 10
906.6892934349288
 20
319.86966882860719
 11
916.3485516978194
 21
317.28147837758195
  0
LINE
  8
_0-d_寸法3
  6
CONTINUOUS
 62
    7
 10
935.68929343553179
 20
279.86966882860725
 11
935.68929343553179
 21
324.86966882860719
  0
LINE
  8
_0-d_寸法3
  6
CONTINUOUS
 62
    7
 10
935.68929343553179
 20
319.86966882860719
 11
926.03003517264096
 21
317.281478377582
  0
LINE
  8
_0-d_寸法3
  6
CONTINUOUS
 62
    7
 10
935.68929343553179
 20
319.86966882860719
 11
926.03003517264096
 21
322.45785927963249
  0
LINE
  8
_0-d_寸法3
  6
CONTINUOUS
 62
    7
 10
906.6892934349288
 20
319.86966882860719
 11
935.68929343553179
 21
319.86966882860719
  0
TEXT
  8
_0-d_寸法3
 62
    7
 10
903.209782191351
 20
319.86966882860719
 40
15
 41
1
 50
0
  1
(17.4)
  0
LINE
  8
_0-d_寸法3
  6
CONTINUOUS
 62
    7
 10
829.18929343096374
 20
279.86966882860725
 11
829.18929343096374
 21
324.86966882860719
  0
LINE
  8
_0-d_寸法3
  6
CONTINUOUS
 62
    7
 10
829.18929343096374
 20
319.86966882860719
 11
819.53003516807314
 21
317.281478377582
  0
LINE
  8
_0-d_寸法3
  6
CONTINUOUS
 62
    7
 10
829.18929343096374
 20
319.86966882860719
 11
819.53003516807314
 21
322.45785927963249
  0
LINE
  8
_0-d_寸法3
  6
CONTINUOUS
 62
    7
 10
839.18929343096374
 20
279.86966882860725
 11
839.18929343096374
 21
324.86966882860719
  0
LINE
  8
_0-d_寸法3
  6
CONTINUOUS
 62
    7
 10
804.81533774779678
 20
319.86966882860719
 11
839.18929343096374
 21
319.86966882860719
  0
TEXT
  8
_0-d_寸法3
 62
    7
 10
804.81533774779678
 20
304.86966882860719
 40
15
 41
1
 50
0
  1
(6)
  0
LINE
  8
_0-d_寸法3
  6
CONTINUOUS
 62
    7
 10
839.18929343096374
 20
319.86966882860719
 11
848.84855169385446
 21
322.45785927963243
  0
LINE
  8
_0-d_寸法3
  6
CONTINUOUS
 62
    7
 10
839.18929343096374
 20
319.86966882860719
 11
848.84855169385446
 21
317.281478377582
  0
LINE
  8
_0-d_寸法3
  6
CONTINUOUS
 62
    7
 10
858.18929343096386
 20
279.86966882860725
 11
858.18929343096386
 21
324.86966882860719
  0
LINE
  8
_0-d_寸法3
  6
CONTINUOUS
 62
    7
 10
858.18929343096386
 20
319.86966882860719
 11
848.53003516807325
 21
317.281478377582
  0
LINE
  8
_0-d_寸法3
  6
CONTINUOUS
 62
    7
 10
858.18929343096386
 20
319.86966882860719
 11
848.53003516807325
 21
322.45785927963249
  0
LINE
  8
_0-d_寸法3
  6
CONTINUOUS
 62
    7
 10
839.18929343096374
 20
319.86966882860719
 11
858.18929343096386
 21
319.86966882860719
  0
TEXT
  8
_0-d_寸法3
 62
    7
 10
829.92459700705581
 20
319.86966882860719
 40
15
 41
1
 50
0
  1
11.4
  0
TEXT
  8
_0-7_枠細線
 62
    5
 10
947.15422267493318
 20
198.86671839474587
 40
20
 41
0.6
 50
0
  1
Ｓ＝１：３
  0
LINE
  8
_0-5_寸法線
  6
CONTINUOUS
 62
    7
 10
1260.6632812499981
 20
715.49357311321376
 11
1305.6632812499922
 21
715.49357311321376
  0
LINE
  8
_0-5_寸法線
  6
CONTINUOUS
 62
    7
 10
1300.6632812499922
 20
715.49357311321376
 11
1298.0750907989668
 21
725.15283137610436
  0
LINE
  8
_0-5_寸法線
  6
CONTINUOUS
 62
    7
 10
1300.6632812499922
 20
715.49357311321376
 11
1303.2514717010172
 21
725.15283137610436
  0
LINE
  8
_0-5_寸法線
  6
CONTINUOUS
 62
    7
 10
1260.6632812499954
 20
712.49357311320819
 11
1305.6632812499922
 21
712.49357311320819
  0
CIRCLE
  8
_0-5_寸法線
  6
CONTINUOUS
 62
    1
 10
1300.6632812499922
 20
712.49357311320819
 40
1.5000000000000002
  0
LINE
  8
_0-5_寸法線
  6
CONTINUOUS
 62
    7
 10
1300.6632812499922
 20
740.49357311321376
 11
1300.6632812499922
 21
712.49357311320819
  0
TEXT
  8
_0-5_寸法線
 62
    7
 10
1300.6632812499922
 20
730.32756110894456
 40
15
 41
1
 50
90
  1
3
  0
LINE
  8
_0-5_寸法線
  6
CONTINUOUS
 62
    7
 10
1260.6632812499954
 20
710.99357311320819
 11
1305.663281249992
 21
710.99357311320819
  0
LINE
  8
_0-5_寸法線
  6
CONTINUOUS
 62
    7
 10
1300.6632812499922
 20
712.49357311320819
 11
1300.663281249992
 21
710.99357311320819
  0
TEXT
  8
_0-5_寸法線
 62
    7
 10
1317.8071565448088
 20
688.49357311320819
 40
15
 41
1
 50
90
  1
1.5
  0
LINE
  8
_0-5_寸法線
  6
CONTINUOUS
 62
    7
 10
1300.663281249992
 20
710.99357311320819
 11
1303.251471701017
 21
701.33431485031747
  0
LINE
  8
_0-5_寸法線
  6
CONTINUOUS
 62
    7
 10
1300.663281249992
 20
710.99357311320819
 11
1298.0750907989668
 21
701.33431485031747
  0
LINE
  8
_0-5_寸法線
  6
CONTINUOUS
 62
    7
 10
1260.6632812499954
 20
509.99357311320955
 11
1305.6632812499922
 21
509.99357311320955
  0
LINE
  8
_0-5_寸法線
  6
CONTINUOUS
 62
    7
 10
1300.6632812499922
 20
509.99357311320955
 11
1298.075090798967
 21
519.65283137610027
  0
LINE
  8
_0-5_寸法線
  6
CONTINUOUS
 62
    7
 10
1300.6632812499922
 20
509.99357311320955
 11
1303.2514717010176
 21
519.65283137610027
  0
LINE
  8
_0-5_寸法線
  6
CONTINUOUS
 62
    7
 10
1300.663281249992
 20
710.99357311320819
 11
1300.6632812499922
 21
509.99357311320955
  0
TEXT
  8
_0-5_寸法線
 62
    7
 10
1300.6632812499922
 20
596.89380558410971
 40
15
 41
1
 50
90
  1
201
  0
LINE
  8
_0-5_寸法線
  6
CONTINUOUS
 62
    7
 10
1260.6632812499954
 20
508.49357311320955
 11
1305.6632812499922
 21
508.49357311320955
  0
CIRCLE
  8
_0-5_寸法線
  6
CONTINUOUS
 62
    1
 10
1300.6632812499922
 20
508.49357311320955
 40
1.5000000000000002
  0
LINE
  8
_0-5_寸法線
  6
CONTINUOUS
 62
    7
 10
1300.6632812499922
 20
509.99357311320955
 11
1300.6632812499922
 21
508.49357311320955
  0
TEXT
  8
_0-5_寸法線
 62
    7
 10
1317.6523806014125
 20
509.34828272406656
 40
15
 41
1
 50
90
  1
1.5
  0
LINE
  8
_0-5_寸法線
  6
CONTINUOUS
 62
    7
 10
1260.6632812499954
 20
505.49357311320773
 11
1305.6632812499922
 21
505.49357311320773
  0
LINE
  8
_0-5_寸法線
  6
CONTINUOUS
 62
    7
 10
1300.6632812499922
 20
505.49357311320773
 11
1303.2514717010176
 21
495.83431485031701
  0
LINE
  8
_0-5_寸法線
  6
CONTINUOUS
 62
    7
 10
1300.6632812499922
 20
505.49357311320773
 11
1298.075090798967
 21
495.83431485031713
  0
LINE
  8
_0-5_寸法線
  6
CONTINUOUS
 62
    7
 10
1300.6632812499922
 20
508.49357311320955
 11
1300.6632812499922
 21
480.49357311320773
  0
TEXT
  8
_0-5_寸法線
 62
    7
 10
1300.6632812499922
 20
483.92729540526972
 40
15
 41
1
 50
90
  1
3
  0
TEXT
  8
_0-7_枠細線
 62
    5
 10
890.16995454985135
 20
375.55454176804568
 40
15
 41
1
 50
0
  1
2.2kg/枚
  0
TEXT
  8
_0-7_枠細線
 62
    5
 10
976.41995454985135
 20
375.55454176804568
 40
15
 41
1
 50
0
  1
2.4kg/m組
  0
LINE
  8
_0-5_寸法線
  6
CONTINUOUS
 62
    7
 10
654.2358661063945
 20
725.49357311320819
 11
654.23586610639461
 21
770.49357311320728
  0
LINE
  8
_0-5_寸法線
  6
CONTINUOUS
 62
    7
 10
654.23586610639461
 20
765.49357311320728
 11
644.57660784350401
 21
762.90538266218209
  0
LINE
  8
_0-5_寸法線
  6
CONTINUOUS
 62
    7
 10
654.23586610639461
 20
765.49357311320728
 11
644.57660784350401
 21
768.08176356423246
  0
LINE
  8
_0-5_寸法線
  6
CONTINUOUS
 62
    7
 10
665.63586610639504
 20
725.49357311320819
 11
665.63586610639516
 21
770.49357311320728
  0
CIRCLE
  8
_0-5_寸法線
  6
CONTINUOUS
 62
    1
 10
665.63586610639516
 20
765.49357311320728
 40
1.5000000000000002
  0
LINE
  8
_0-5_寸法線
  6
CONTINUOUS
 62
    7
 10
629.23586610639461
 20
765.49357311320728
 11
665.63586610639516
 21
765.49357311320728
  0
TEXT
  8
_0-5_寸法線
 62
    7
 10
632.90946641001938
 20
765.49357311320728
 40
15
 41
1
 50
0
  1
11.4
  0
LINE
  8
_0-5_寸法線
  6
CONTINUOUS
 62
    7
 10
671.2358661063945
 20
725.49357311320819
 11
671.23586610639461
 21
770.49357311320728
  0
LINE
  8
_0-5_寸法線
  6
CONTINUOUS
 62
    7
 10
671.23586610639461
 20
765.49357311320728
 11
680.89512436928533
 21
768.08176356423246
  0
LINE
  8
_0-5_寸法線
  6
CONTINUOUS
 62
    7
 10
671.23586610639461
 20
765.49357311320728
 11
680.89512436928533
 21
762.90538266218209
  0
LINE
  8
_0-5_寸法線
  6
CONTINUOUS
 62
    7
 10
665.63586610639516
 20
765.49357311320728
 11
719.64278055092382
 21
765.49357311320728
  0
TEXT
  8
_0-5_寸法線
 62
    7
 10
682.14278055092393
 20
750.49357311320728
 40
15
 41
1
 50
0
  1
6以下
  0
LINE
  8
_0-a_極細3
  6
CONTINUOUS
 62
    7
 10
688.46758625742484
 20
224.86966882860816
 11
688.46758625742484
 21
156.53633549527422
  0
LINE
  8
_0-a_極細3
  6
CONTINUOUS
 62
    7
 10
605.1342529240917
 20
156.53633549527422
 11
688.46758625742484
 21
156.53633549527422
  0
LINE
  8
_0-a_極細3
  6
CONTINUOUS
 62
    7
 10
688.46758625742484
 20
224.86966882860816
 11
719.31200006920631
 21
224.86966882860816
  0
LINE
  8
_0-a_極細3
  6
CONTINUOUS
 62
    7
 10
605.1342529240917
 20
156.53633549527422
 11
605.1342529240917
 21
130.29473520049535
  0
LINE
  8
_0-a_極細3
  6
CONTINUOUS
 62
    7
 10
696.75758867201807
 20
130.29473520049535
 11
719.31200011074668
 21
152.84914663922427
  0
LINE
  8
_0-a_極細3
  6
CONTINUOUS
 62
    7
 10
626.04691055336275
 20
130.29473520049535
 11
652.2885108481421
 21
156.53633549527422
  0
LINE
  8
_0-a_極細3
  6
CONTINUOUS
 62
    7
 10
688.46758625742484
 20
192.71541090455685
 11
719.31200006996164
 21
223.55982471709379
  0
LINE
  8
_0-a_極細3
  6
CONTINUOUS
 62
    7
 10
689.68652086015277
 20
130.29473520049535
 11
719.31200010666839
 21
159.92021444701138
  0
LINE
  8
_0-a_極細3
  6
CONTINUOUS
 62
    7
 10
618.9758427414979
 20
130.29473520049535
 11
645.21744303627725
 21
156.53633549527422
  0
LINE
  8
_0-a_極細3
  6
CONTINUOUS
 62
    7
 10
688.46758625742484
 20
199.78647871642266
 11
713.55077619005965
 21
224.86966864905753
  0
LINE
  8
_0-a_極細3
  6
CONTINUOUS
 62
    7
 10
682.61545304828701
 20
130.29473520049535
 11
719.31200010258976
 21
166.99128225479811
  0
LINE
  8
_0-a_極細3
  6
CONTINUOUS
 62
    7
 10
611.90477492963305
 20
130.29473520049535
 11
638.14637522441149
 21
156.53633549527422
  0
LINE
  8
_0-a_極細3
  6
CONTINUOUS
 62
    7
 10
688.46758625742484
 20
206.85754652828837
 11
706.47970842881045
 21
224.86966869967364
  0
CIRCLE
  8
_0-a_極細3
  6
CONTINUOUS
 62
    7
 10
591.54004794312982
 20
215.39067183786031
 40
0.5530864197530718
  0
CIRCLE
  8
_0-a_極細3
  6
CONTINUOUS
 62
    7
 10
601.4956034986842
 20
220.19067183786049
 40
0.5530864197530718
  0
CIRCLE
  8
_0-a_極細3
  6
CONTINUOUS
 62
    7
 10
597.40671460979661
 20
195.21289406008279
 40
0.5530864197530718
  0
CIRCLE
  8
_0-a_極細3
  6
CONTINUOUS
 62
    7
 10
614.94004794312946
 20
178.19067183786089
 40
0.5530864197530718
  0
CIRCLE
  8
_0-a_極細3
  6
CONTINUOUS
 62
    7
 10
597.10671460979552
 20
154.89067183786119
 40
0.5530864197530718
  0
CIRCLE
  8
_0-a_極細3
  6
CONTINUOUS
 62
    7
 10
587.7733812764634
 20
137.02400517119443
 40
0.5530864197530718
  0
CIRCLE
  8
_0-a_極細3
  6
CONTINUOUS
 62
    7
 10
599.24004794312873
 20
166.89067183786079
 40
0.5530864197530718
  0
CIRCLE
  8
_0-a_極細3
  6
CONTINUOUS
 62
    7
 10
613.10671460979552
 20
162.09067183786104
 40
0.5530864197530718
  0
CIRCLE
  8
_0-a_極細3
  6
CONTINUOUS
 62
    7
 10
640.04004794312891
 20
162.35733850452746
 40
0.5530864197530718
  0
CIRCLE
  8
_0-a_極細3
  6
CONTINUOUS
 62
    7
 10
628.04004794312982
 20
171.42400517119404
 40
0.5530864197530718
  0
CIRCLE
  8
_0-a_極細3
  6
CONTINUOUS
 62
    7
 10
639.24004794312873
 20
177.02400517119401
 40
0.5530864197530718
  0
CIRCLE
  8
_0-a_極細3
  6
CONTINUOUS
 62
    7
 10
627.26227016535063
 20
231.31289406008275
 40
0.5530864197530718
  0
CIRCLE
  8
_0-a_極細3
  6
CONTINUOUS
 62
    7
 10
647.79560349868348
 20
230.60178294897105
 40
0.5530864197530718
  0
CIRCLE
  8
_0-a_極細3
  6
CONTINUOUS
 62
    7
 10
636.19560349868402
 20
216.60178294897196
 40
0.5530864197530718
  0
CIRCLE
  8
_0-a_極細3
  6
CONTINUOUS
 62
    7
 10
675.39560349868384
 20
163.40178294897214
 40
0.5530864197530718
  0
CIRCLE
  8
_0-a_極細3
  6
CONTINUOUS
 62
    7
 10
682.59560349868366
 20
177.4017829489722
 40
0.5530864197530718
  0
CIRCLE
  8
_0-a_極細3
  6
CONTINUOUS
 62
    7
 10
680.9956034986842
 20
198.2017829489719
 40
0.5530864197530718
  0
CIRCLE
  8
_0-a_極細3
  6
CONTINUOUS
 62
    7
 10
660.19560349868402
 20
199.80178294897178
 40
0.5530864197530718
  0
CIRCLE
  8
_0-a_極細3
  6
CONTINUOUS
 62
    7
 10
640.59560349868457
 20
205.40178294897171
 40
0.5530864197530718
  0
CIRCLE
  8
_0-a_極細3
  6
CONTINUOUS
 62
    7
 10
662.99560349868432
 20
219.40178294897169
 40
0.5530864197530718
  0
CIRCLE
  8
_0-a_極細3
  6
CONTINUOUS
 62
    7
 10
676.9956034986842
 20
212.20178294897141
 40
0.5530864197530718
  0
CIRCLE
  8
_0-a_極細3
  6
CONTINUOUS
 62
    7
 10
706.59560349868366
 20
233.40178294897126
 40
0.5530864197530718
  0
CIRCLE
  8
_0-a_極細3
  6
CONTINUOUS
 62
    7
 10
686.15115905423932
 20
231.70517801070037
 40
1.825531472681392
  0
CIRCLE
  8
_0-a_極細3
  6
CONTINUOUS
 62
    7
 10
662.72893683201687
 20
206.28295578847795
 40
1.825531472681392
  0
CIRCLE
  8
_0-a_極細3
  6
CONTINUOUS
 62
    7
 10
592.33449238757362
 20
161.73295578847871
 40
1.825531472681392
  0
CIRCLE
  8
_0-a_極細3
  6
CONTINUOUS
 62
    7
 10
637.75671460979515
 20
169.19962245514489
 40
1.825531472681392
  0
CIRCLE
  8
_0-a_極細3
  6
CONTINUOUS
 62
    7
 10
684.02190724507886
 20
159.01257006317564
 40
1.825531472681392
  0
CIRCLE
  8
_0-a_極細3
  6
CONTINUOUS
 62
    7
 10
633.35671460979552
 20
212.39962245514474
 40
1.825531472681392
  0
CIRCLE
  8
_0-a_極細3
  6
CONTINUOUS
 62
    7
 10
585.89066522708049
 20
206.97641704810849
 40
0.5530864197530718
  0
CIRCLE
  8
_0-a_極細3
  6
CONTINUOUS
 62
    7
 10
586.09066522708031
 20
183.02086149255317
 40
0.5530864197530718
  0
LINE
  8
_0-a_極細3
  6
CONTINUOUS
 62
    7
 10
572.63425292409079
 20
231.53633549527424
 11
571.80091959075776
 21
231.53633549527424
  0
LINE
  8
_0-a_極細3
  6
CONTINUOUS
 62
    7
 10
571.80091959075776
 20
231.53633549527424
 11
571.80091959075776
 21
130.29473520049535
  0
CIRCLE
  8
_0-a_極細3
  6
CONTINUOUS
 62
    7
 10
577.78531543284203
 20
191.47956072674972
 40
0.5530864197530718
  0
CIRCLE
  8
_0-a_極細3
  6
CONTINUOUS
 62
    7
 10
579.09189979498092
 20
152.22400517119425
 40
0.5530864197530718
  0
CIRCLE
  8
_0-a_極細3
  6
CONTINUOUS
 62
    7
 10
578.45301090609132
 20
218.17740023292302
 40
1.825531472681392
  0
CIRCLE
  8
_0-a_極細3
  6
CONTINUOUS
 62
    7
 10
581.40115905424022
 20
145.55517801070025
 40
1.825531472681392
  0
LINE
  8
_0-a_極細3
  6
CONTINUOUS
 62
    7
 10
205.13425292409158
 20
224.86966882860816
 11
205.13425292409158
 21
156.53633549527422
  0
LINE
  8
_0-a_極細3
  6
CONTINUOUS
 62
    7
 10
288.46758625742467
 20
156.53633549527422
 11
205.13425292409158
 21
156.53633549527422
  0
LINE
  8
_0-a_極細3
  6
CONTINUOUS
 62
    7
 10
205.13425292409158
 20
224.86966882860816
 11
174.28983911231043
 21
224.86966882860816
  0
LINE
  8
_0-a_極細3
  6
CONTINUOUS
 62
    7
 10
288.46758625742467
 20
156.53633549527422
 11
288.46758625742467
 21
130.29473520049535
  0
LINE
  8
_0-a_極細3
  6
CONTINUOUS
 62
    7
 10
251.04561169243482
 20
130.29473531693199
 11
277.28721187077792
 21
156.53633549527422
  0
LINE
  8
_0-a_極細3
  6
CONTINUOUS
 62
    7
 10
180.33493379379399
 20
130.29473553694515
 11
206.57653375212305
 21
156.53633549527422
  0
LINE
  8
_0-a_極細3
  6
CONTINUOUS
 62
    7
 10
174.28983911231043
 20
194.96031897411655
 11
204.19918896680215
 21
224.86966882860816
  0
LINE
  8
_0-a_極細3
  6
CONTINUOUS
 62
    7
 10
243.97454390257067
 20
130.29473533893361
 11
270.21614405891216
 21
156.53633549527422
  0
LINE
  8
_0-a_極細3
  6
CONTINUOUS
 62
    7
 10
174.28983911231043
 20
131.32070866732738
 11
205.13425292409158
 21
162.16512247910899
  0
LINE
  8
_0-a_極細3
  6
CONTINUOUS
 62
    7
 10
174.28983911231043
 20
202.03138678598222
 11
197.12812115493549
 21
224.86966882860816
  0
LINE
  8
_0-a_極細3
  6
CONTINUOUS
 62
    7
 10
236.90347611270653
 20
130.29473536093477
 11
263.14507624704646
 21
156.53633549527422
  0
LINE
  8
_0-a_極細3
  6
CONTINUOUS
 62
    7
 10
174.28983911231043
 20
138.39177647919314
 11
205.13425292409158
 21
169.23619029097424
  0
LINE
  8
_0-a_極細3
  6
CONTINUOUS
 62
    7
 10
174.28983911231043
 20
209.10245459784758
 11
190.05705334307066
 21
224.86966882860816
  0
CIRCLE
  8
_0-a_極細3
  6
CONTINUOUS
 62
    7
 10
181.85486275794722
 20
230.11752368971247
 40
0.5530864197530718
  0
CIRCLE
  8
_0-a_極細3
  6
CONTINUOUS
 62
    7
 10
192.462270165354
 20
231.1841903563791
 40
0.5530864197530718
  0
CIRCLE
  8
_0-a_極細3
  6
CONTINUOUS
 62
    7
 10
205.0844923875762
 20
233.1397459119344
 40
0.5530864197530718
  0
CIRCLE
  8
_0-a_極細3
  6
CONTINUOUS
 62
    7
 10
212.02893683202149
 20
225.88419035637889
 40
0.5530864197530718
  0
CIRCLE
  8
_0-a_極細3
  6
CONTINUOUS
 62
    7
 10
232.47338127646492
 20
224.63974591193437
 40
0.5530864197530718
  0
CIRCLE
  8
_0-a_極細3
  6
CONTINUOUS
 62
    7
 10
257.54004794313153
 20
220.90641257860128
 40
0.5530864197530718
  0
CIRCLE
  8
_0-a_極細3
  6
CONTINUOUS
 62
    7
 10
244.91782572090841
 20
215.21752368971238
 40
0.5530864197530718
  0
CIRCLE
  8
_0-a_極細3
  6
CONTINUOUS
 62
    7
 10
230.16227016535467
 20
201.70641257860098
 40
0.5530864197530718
  0
CIRCLE
  8
_0-a_極細3
  6
CONTINUOUS
 62
    7
 10
257.54004794313153
 20
208.99530146749021
 40
0.5530864197530718
  0
CIRCLE
  8
_0-a_極細3
  6
CONTINUOUS
 62
    7
 10
211.45115905424305
 20
195.57307924526825
 40
0.5530864197530718
  0
CIRCLE
  8
_0-a_極細3
  6
CONTINUOUS
 62
    7
 10
216.42893683202118
 20
181.88419035637935
 40
0.5530864197530718
  0
CIRCLE
  8
_0-a_極細3
  6
CONTINUOUS
 62
    7
 10
210.7400479431314
 20
163.9286348008236
 40
0.5530864197530718
  0
CIRCLE
  8
_0-a_極細3
  6
CONTINUOUS
 62
    7
 10
219.45115905424302
 20
170.68419035637908
 40
0.5530864197530718
  0
CIRCLE
  8
_0-a_極細3
  6
CONTINUOUS
 62
    7
 10
225.67338127646565
 20
162.1508570230462
 40
0.5530864197530718
  0
CIRCLE
  8
_0-a_極細3
  6
CONTINUOUS
 62
    7
 10
264.97338127646492
 20
180.03974591193497
 40
0.5530864197530718
  0
CIRCLE
  8
_0-a_極細3
  6
CONTINUOUS
 62
    7
 10
253.77338127646425
 20
174.52863480082357
 40
0.5530864197530718
  0
CIRCLE
  8
_0-a_極細3
  6
CONTINUOUS
 62
    7
 10
259.99560349868688
 20
172.03974591193492
 40
0.5530864197530718
  0
CIRCLE
  8
_0-a_極細3
  6
CONTINUOUS
 62
    7
 10
256.44004794313207
 20
162.79530146749039
 40
0.5530864197530718
  0
CIRCLE
  8
_0-a_極細3
  6
CONTINUOUS
 62
    7
 10
276.35115905424271
 20
163.861968134157
 40
0.5530864197530718
  0
CIRCLE
  8
_0-a_極細3
  6
CONTINUOUS
 62
    7
 10
289.32893683202082
 20
167.0619681341573
 40
0.5530864197530718
  0
CIRCLE
  8
_0-a_極細3
  6
CONTINUOUS
 62
    7
 10
303.01782572090872
 20
152.1286348008239
 40
0.5530864197530718
  0
CIRCLE
  8
_0-a_極細3
  6
CONTINUOUS
 62
    7
 10
296.08449238757629
 20
137.19530146749094
 40
0.5530864197530718
  0
CIRCLE
  8
_0-a_極細3
  6
CONTINUOUS
 62
    7
 10
294.17338127646389
 20
214.94344961563823
 40
0.5530864197530718
  0
CIRCLE
  8
_0-a_極細3
  6
CONTINUOUS
 62
    7
 10
309.28449238757514
 20
204.98789406008291
 40
0.5530864197530718
  0
CIRCLE
  8
_0-a_極細3
  6
CONTINUOUS
 62
    7
 10
309.8178257209089
 20
187.03233850452762
 40
0.5530864197530718
  0
CIRCLE
  8
_0-a_極細3
  6
CONTINUOUS
 62
    7
 10
274.57338127646528
 20
216.76567183786076
 40
0.5530864197530718
  0
CIRCLE
  8
_0-a_極細3
  6
CONTINUOUS
 62
    7
 10
251.46227016535397
 20
205.81628912181122
 40
1.825531472681392
  0
CIRCLE
  8
_0-a_極細3
  6
CONTINUOUS
 62
    7
 10
229.06227016535439
 20
215.94962245514444
 40
1.825531472681392
  0
CIRCLE
  8
_0-a_極細3
  6
CONTINUOUS
 62
    7
 10
209.46227016535403
 20
177.94962245514489
 40
1.825531472681392
  0
CIRCLE
  8
_0-a_極細3
  6
CONTINUOUS
 62
    7
 10
262.66227016535288
 20
165.14962245514468
 40
1.825531472681392
  0
CIRCLE
  8
_0-a_極細3
  6
CONTINUOUS
 62
    7
 10
298.64004794313104
 20
161.54962245514525
 40
1.825531472681392
  0
CIRCLE
  8
_0-a_極細3
  6
CONTINUOUS
 62
    7
 10
303.44004794313025
 20
142.88295578847874
 40
1.825531472681392
  0
LINE
  8
_0-a_極細3
  6
CONTINUOUS
 62
    7
 10
320.96758625742461
 20
231.53633549527424
 11
321.80091959075861
 21
231.53633549527424
  0
LINE
  8
_0-a_極細3
  6
CONTINUOUS
 62
    7
 10
321.80091959075861
 20
231.53633549527424
 11
321.80091959075861
 21
130.29473520049535
  0
CIRCLE
  8
_0-a_極細3
  6
CONTINUOUS
 62
    7
 10
314.91348544312916
 20
215.5496224551448
 40
1.825531472681392
  0
CIRCLE
  8
_0-a_極細3
  6
CONTINUOUS
 62
    7
 10
313.921529424612
 20
160.8397459119351
 40
0.5530864197530718
  0
CIRCLE
  8
_0-a_極細3
  6
CONTINUOUS
 62
    7
 10
315.25486275794594
 20
138.18367487876549
 40
0.5530864197530718
  0
CIRCLE
  8
_0-a_極細3
  6
CONTINUOUS
 62
    7
 10
536.80091959075776
 20
250.86966882860818
 40
3.333333333333333
  0
CIRCLE
  8
_0-a_極細3
  6
CONTINUOUS
 62
    7
 10
356.80091959075861
 20
250.86966882860818
 40
3.333333333333333
  0
CIRCLE
  8
_0-a_極細3
  6
CONTINUOUS
 62
    7
 10
629.75115905423968
 20
251.04622739341539
 40
0.5530864197530718
  0
CIRCLE
  8
_0-a_極細3
  6
CONTINUOUS
 62
    7
 10
679.79560349868348
 20
239.0017829489716
 40
0.5530864197530718
  0
CIRCLE
  8
_0-a_極細3
  6
CONTINUOUS
 62
    7
 10
701.79560349868314
 20
247.17184467736661
 40
1.825531472681392
  0
CIRCLE
  8
_0-a_極細3
  6
CONTINUOUS
 62
    7
 10
693.79560349868359
 20
255.13511628230435
 40
0.5530864197530718
  0
CIRCLE
  8
_0-a_極細3
  6
CONTINUOUS
 62
    7
 10
662.99560349868432
 20
250.0684496156382
 40
0.5530864197530718
  0
CIRCLE
  8
_0-a_極細3
  6
CONTINUOUS
 62
    7
 10
663.12893683201753
 20
243.74962245514416
 40
1.825531472681392
  0
CIRCLE
  8
_0-a_極細3
  6
CONTINUOUS
 62
    7
 10
641.79560349868348
 20
256.06844961563775
 40
0.5530864197530718
  0
LINE
  8
_0-a_極細3
  6
CONTINUOUS
 62
    7
 10
630.1342529240917
 20
269.86966882860816
 11
630.1342529240917
 21
258.20300216194073
  0
LINE
  8
_0-a_極細3
  6
CONTINUOUS
 62
    7
 10
630.1342529240917
 20
269.86966882860816
 11
719.31200006920631
 21
269.86966882860816
  0
LINE
  8
_0-a_極細3
  6
CONTINUOUS
 62
    7
 10
621.80091959075776
 20
258.20300216194073
 11
719.31200006920631
 21
258.20300216194073
  0
LINE
  8
_0-a_極細3
  6
CONTINUOUS
 62
    7
 10
621.80091959075776
 20
269.86966882860816
 11
630.1342529240917
 21
269.86966882860816
  0
LINE
  8
_0-a_極細3
  6
CONTINUOUS
 62
    7
 10
621.80091959075776
 20
269.03633549527422
 11
621.80091959075776
 21
269.86966882860816
  0
LINE
  8
_0-a_極細3
  6
CONTINUOUS
 62
    7
 10
630.1342529240917
 20
261.8720884426657
 11
626.46516664336718
 21
258.20300216194073
  0
LINE
  8
_0-a_極細3
  6
CONTINUOUS
 62
    7
 10
630.1342529240917
 20
266.11472912978479
 11
622.22252595624718
 21
258.20300216194073
  0
LINE
  8
_0-a_極細3
  6
CONTINUOUS
 62
    7
 10
621.80091959075776
 20
262.02403648357131
 11
629.64655193579506
 21
269.86966882860816
  0
LINE
  8
_0-a_極細3
  6
CONTINUOUS
 62
    7
 10
621.80091959075776
 20
266.26667717068995
 11
625.40391124867506
 21
269.86966882860725
  0
LINE
  8
_0-a_極細3
  6
CONTINUOUS
 62
    7
 10
630.1342529240917
 20
268.36034661910207
 11
628.62493071458607
 21
269.86966882860816
  0
LINE
  8
_0-a_極細3
  6
CONTINUOUS
 62
    7
 10
630.1342529240917
 20
264.11770593198344
 11
624.38229002746789
 21
269.86966882860816
  0
LINE
  8
_0-a_極細3
  6
CONTINUOUS
 62
    7
 10
630.1342529240917
 20
259.87506524486389
 11
621.80091959075776
 21
268.20839857819738
  0
LINE
  8
_0-a_極細3
  6
CONTINUOUS
 62
    7
 10
627.56367531989576
 20
258.20300216194073
 11
621.80091959075776
 21
263.96575789107783
  0
LINE
  8
_0-a_極細3
  6
CONTINUOUS
 62
    7
 10
623.32103463277576
 20
258.20300216194073
 11
621.80091959075776
 21
259.72311720395828
  0
LINE
  8
_0-a_極細3
  6
CONTINUOUS
 62
    7
 10
698.59005832439448
 20
258.20300216194073
 11
710.25672436427226
 21
269.86966820181897
  0
LINE
  8
_0-a_極細3
  6
CONTINUOUS
 62
    7
 10
677.37685488879822
 20
258.20300216194119
 11
689.04352109462502
 21
269.86966836776719
  0
LINE
  8
_0-a_極細3
  6
CONTINUOUS
 62
    7
 10
656.16365145320174
 20
258.20300216194073
 11
667.83031782497687
 21
269.86966853371587
  0
LINE
  8
_0-a_極細3
  6
CONTINUOUS
 62
    7
 10
634.95044801760537
 20
258.20300216194073
 11
646.61711455532884
 21
269.86966869966454
  0
LINE
  8
_0-a_極細3
  6
DASHED2
 62
    7
 10
709.19666004219266
 20
258.20300216194119
 11
719.31200006920631
 21
268.31834218895438
  0
LINE
  8
_0-a_極細3
  6
DASHED2
 62
    7
 10
687.98345660659629
 20
258.20300216194073
 11
699.65012272944819
 21
269.86966828479308
  0
LINE
  8
_0-a_極細3
  6
DASHED2
 62
    7
 10
666.77025317099992
 20
258.20300216194073
 11
678.43691945980095
 21
269.86966845074176
  0
LINE
  8
_0-a_極細3
  6
DASHED2
 62
    7
 10
645.55704973540355
 20
258.20300216194073
 11
657.2237161901528
 21
269.86966861668998
  0
LINE
  8
_0-a_極細3
  6
DASHED2
 62
    7
 10
630.1342529240917
 20
263.9934087862257
 11
636.01051292050465
 21
269.86966878263866
  0
CIRCLE
  8
_0-a_極細3
  6
CONTINUOUS
 62
    7
 10
192.18572695547721
 20
240.07307924526776
 40
0.5530864197530718
  0
CIRCLE
  8
_0-a_極細3
  6
CONTINUOUS
 62
    7
 10
233.52893683202055
 20
244.87307924526749
 40
0.5530864197530718
  0
CIRCLE
  8
_0-a_極細3
  6
CONTINUOUS
 62
    7
 10
258.41782572090926
 20
254.82863480082327
 40
0.5530864197530718
  0
CIRCLE
  8
_0-a_極細3
  6
CONTINUOUS
 62
    7
 10
264.10671460979813
 20
238.65085702304532
 40
0.5530864197530718
  0
CIRCLE
  8
_0-a_極細3
  6
CONTINUOUS
 62
    7
 10
239.21782572090947
 20
238.11752368971202
 40
0.5530864197530718
  0
CIRCLE
  8
_0-a_極細3
  6
CONTINUOUS
 62
    7
 10
227.48449238757587
 20
253.05085702304541
 40
0.5530864197530718
  0
CIRCLE
  8
_0-a_極細3
  6
CONTINUOUS
 62
    7
 10
254.28449238757608
 20
238.74962245514416
 40
1.825531472681392
  0
CIRCLE
  8
_0-a_極細3
  6
CONTINUOUS
 62
    7
 10
202.52237268614101
 20
245.67923672984264
 40
1.825531472681392
  0
CIRCLE
  8
_0-a_極細3
  6
CONTINUOUS
 62
    7
 10
182.32529314506124
 20
246.57184467736627
 40
1.825531472681392
  0
LINE
  8
_0-a_極細3
  6
CONTINUOUS
 62
    7
 10
263.46758625742467
 20
269.86966882860816
 11
263.46758625742467
 21
258.20300216194073
  0
LINE
  8
_0-a_極細3
  6
CONTINUOUS
 62
    7
 10
263.46758625742467
 20
269.86966882860816
 11
174.28983911231043
 21
269.86966882860816
  0
LINE
  8
_0-a_極細3
  6
CONTINUOUS
 62
    7
 10
271.80091959075855
 20
258.20300216194073
 11
174.28983911231043
 21
258.20300216194073
  0
LINE
  8
_0-a_極細3
  6
CONTINUOUS
 62
    7
 10
271.80091959075855
 20
269.86966882860816
 11
263.46758625742467
 21
269.86966882860816
  0
LINE
  8
_0-a_極細3
  6
CONTINUOUS
 62
    7
 10
271.80091959075855
 20
269.03633549527422
 11
271.80091959075855
 21
269.86966882860816
  0
LINE
  8
_0-a_極細3
  6
CONTINUOUS
 62
    7
 10
271.60282933439851
 20
258.20300216194073
 11
271.80091959075855
 21
258.40109241830032
  0
LINE
  8
_0-a_極細3
  6
CONTINUOUS
 62
    7
 10
267.36018864727941
 20
258.20300216194073
 11
271.80091959075855
 21
262.64373310541987
  0
LINE
  8
_0-a_極細3
  6
CONTINUOUS
 62
    7
 10
263.46758625742467
 20
258.55304045920593
 11
271.80091959075855
 21
266.88637379253851
  0
LINE
  8
_0-a_極細3
  6
CONTINUOUS
 62
    7
 10
263.46758625742467
 20
262.79568114632457
 11
270.54157393970729
 21
269.86966882860816
  0
LINE
  8
_0-a_極細3
  6
CONTINUOUS
 62
    7
 10
263.46758625742467
 20
267.03832183344412
 11
266.29893325258911
 21
269.86966882860816
  0
LINE
  8
_0-a_極細3
  6
CONTINUOUS
 62
    7
 10
271.80091959075855
 20
267.58870195634881
 11
269.51995271850012
 21
269.86966882860816
  0
LINE
  8
_0-a_極細3
  6
CONTINUOUS
 62
    7
 10
271.80091959075855
 20
263.34606126922972
 11
265.27731203138018
 21
269.86966882860816
  0
LINE
  8
_0-a_極細3
  6
CONTINUOUS
 62
    7
 10
263.46758625742467
 20
267.43675391544411
 11
271.80091959075855
 21
259.10342058211063
  0
LINE
  8
_0-a_極細3
  6
CONTINUOUS
 62
    7
 10
263.46758625742467
 20
263.19411322832457
 11
268.45869732380805
 21
258.20300216194073
  0
LINE
  8
_0-a_極細3
  6
CONTINUOUS
 62
    7
 10
263.46758625742467
 20
258.95147254120548
 11
264.2160566366889
 21
258.20300216194073
  0
LINE
  8
_0-a_極細3
  6
CONTINUOUS
 62
    7
 10
254.63226657979396
 20
258.20300215581392
 11
263.46758625742467
 21
267.03832183344412
  0
LINE
  8
_0-a_極細3
  6
CONTINUOUS
 62
    7
 10
233.41906312948652
 20
258.20300214110193
 11
245.08572981699274
 21
269.86966882860725
  0
LINE
  8
_0-a_極細3
  6
CONTINUOUS
 62
    7
 10
212.20585967917913
 20
258.20300212639086
 11
223.87252638139543
 21
269.86966882860816
  0
LINE
  8
_0-a_極細3
  6
CONTINUOUS
 62
    7
 10
190.99265622887074
 20
258.20300211167978
 11
202.65932294579912
 21
269.86966882860816
  0
LINE
  8
_0-a_極細3
  6
CONTINUOUS
 62
    7
 10
174.28983911231043
 20
262.71338843071544
 11
181.44611951020272
 21
269.86966882860725
  0
LINE
  8
_0-a_極細3
  6
DASHED2
 62
    7
 10
244.0256648546407
 20
258.20300214845793
 11
255.6923315347909
 21
269.86966882860816
  0
LINE
  8
_0-a_極細3
  6
DASHED2
 62
    7
 10
222.8124614043324
 20
258.20300213374685
 11
234.47912809919364
 21
269.86966882860816
  0
LINE
  8
_0-a_極細3
  6
DASHED2
 62
    7
 10
201.59925795402586
 20
258.20300211903577
 11
213.26592466359642
 21
269.86966882860816
  0
LINE
  8
_0-a_極細3
  6
DASHED2
 62
    7
 10
180.38605450371747
 20
258.20300210432424
 11
192.05272122800096
 21
269.86966882860816
  0
CIRCLE
  8
_0-a_極細3
  6
CONTINUOUS
 62
    7
 10
241.98078868387228
 20
250.2607335662542
 40
1.825531472681392
  0
LINE
  8
_0-a_極細3
  6
CENTER1
 62
    7
 10
446.80091959075764
 20
220.35050600982504
 11
446.80091959075764
 21
283.80050600983077
  0
CIRCLE
  8
_0-b_細線3
  6
CONTINUOUS
 62
    7
 10
536.80091959075776
 20
250.86966882860818
 40
10.833333333333332
  0
LINE
  8
_0-b_細線3
  6
CONTINUOUS
 62
    7
 10
530.13425292409079
 20
250.86966882860818
 11
533.46758625742473
 21
256.64317152050398
  0
LINE
  8
_0-b_細線3
  6
CONTINUOUS
 62
    7
 10
533.46758625742473
 20
256.64317152050398
 11
540.13425292409079
 21
256.64317152050398
  0
LINE
  8
_0-b_細線3
  6
CONTINUOUS
 62
    7
 10
540.13425292409079
 20
256.64317152050398
 11
543.46758625742473
 21
250.86966882860818
  0
LINE
  8
_0-b_細線3
  6
CONTINUOUS
 62
    7
 10
543.46758625742473
 20
250.86966882860818
 11
540.13425292409079
 21
245.09616613671099
  0
LINE
  8
_0-b_細線3
  6
CONTINUOUS
 62
    7
 10
540.13425292409079
 20
245.09616613671099
 11
533.46758625742473
 21
245.09616613671099
  0
LINE
  8
_0-b_細線3
  6
CONTINUOUS
 62
    7
 10
533.46758625742473
 20
245.09616613671099
 11
530.13425292409079
 21
250.86966882860818
  0
CIRCLE
  8
_0-b_細線3
  6
CONTINUOUS
 62
    7
 10
356.80091959075861
 20
250.86966882860818
 40
10.833333333333332
  0
LINE
  8
_0-b_細線3
  6
CONTINUOUS
 62
    7
 10
363.46758625742552
 20
250.86966882860818
 11
360.13425292409158
 21
256.64317152050398
  0
LINE
  8
_0-b_細線3
  6
CONTINUOUS
 62
    7
 10
360.13425292409158
 20
256.64317152050398
 11
353.46758625742552
 21
256.64317152050398
  0
LINE
  8
_0-b_細線3
  6
CONTINUOUS
 62
    7
 10
353.46758625742552
 20
256.64317152050398
 11
350.13425292409158
 21
250.86966882860818
  0
LINE
  8
_0-b_細線3
  6
CONTINUOUS
 62
    7
 10
350.13425292409158
 20
250.86966882860818
 11
353.46758625742552
 21
245.09616613671099
  0
LINE
  8
_0-b_細線3
  6
CONTINUOUS
 62
    7
 10
353.46758625742552
 20
245.09616613671099
 11
360.13425292409158
 21
245.09616613671099
  0
LINE
  8
_0-b_細線3
  6
CONTINUOUS
 62
    7
 10
360.13425292409158
 20
245.09616613671099
 11
363.46758625742552
 21
250.86966882860818
  0
ARC
  8
_0-b_細線3
  6
CONTINUOUS
 62
    7
 10
616.80091959075776
 20
236.53633549527424
 40
4.9999999999999991
 50
269.99999999999977
 51
359.99999999999966
  0
LINE
  8
_0-b_細線3
  6
CONTINUOUS
 62
    7
 10
621.80091959075776
 20
236.53633549527424
 11
621.80091959075776
 21
269.03633549527422
  0
LINE
  8
_0-b_細線3
  6
CONTINUOUS
 62
    7
 10
616.80091959075776
 20
231.53633549527424
 11
572.63425292409079
 21
231.53633549527424
  0
LINE
  8
_0-b_細線3
  6
CONTINUOUS
 62
    7
 10
571.80091959075776
 20
232.36966882860816
 11
572.63425292409079
 21
231.53633549527424
  0
LINE
  8
_0-b_細線3
  6
CONTINUOUS
 62
    7
 10
571.80091959075776
 20
235.70300216194119
 11
571.80091959075776
 21
232.36966882860816
  0
LINE
  8
_0-b_細線3
  6
CONTINUOUS
 62
    7
 10
572.63425292409079
 20
236.53633549527424
 11
571.80091959075776
 21
235.70300216194119
  0
LINE
  8
_0-b_細線3
  6
CONTINUOUS
 62
    7
 10
616.80091959075776
 20
236.53633549527424
 11
572.63425292409079
 21
236.53633549527424
  0
LINE
  8
_0-b_細線3
  6
CONTINUOUS
 62
    7
 10
620.96758625742564
 20
269.86966882860816
 11
621.80091959075776
 21
269.03633549527422
  0
LINE
  8
_0-b_細線3
  6
CONTINUOUS
 62
    7
 10
617.6342529240917
 20
269.86966882860816
 11
620.96758625742564
 21
269.86966882860816
  0
LINE
  8
_0-b_細線3
  6
CONTINUOUS
 62
    7
 10
616.80091959075776
 20
269.03633549527422
 11
617.6342529240917
 21
269.86966882860816
  0
LINE
  8
_0-b_細線3
  6
CONTINUOUS
 62
    7
 10
616.80091959075776
 20
236.53633549527424
 11
616.80091959075776
 21
269.03633549527422
  0
ARC
  8
_0-b_細線3
  6
CONTINUOUS
 62
    7
 10
276.80091959075855
 20
236.53633549527424
 40
4.9999999999999991
 50
179.99999999999983
 51
269.99999999999977
  0
LINE
  8
_0-b_細線3
  6
CONTINUOUS
 62
    7
 10
271.80091959075855
 20
236.53633549527424
 11
271.80091959075855
 21
269.03633549527422
  0
LINE
  8
_0-b_細線3
  6
CONTINUOUS
 62
    7
 10
276.80091959075855
 20
231.53633549527424
 11
320.96758625742461
 21
231.53633549527424
  0
LINE
  8
_0-b_細線3
  6
CONTINUOUS
 62
    7
 10
321.80091959075861
 20
232.36966882860816
 11
320.96758625742461
 21
231.53633549527424
  0
LINE
  8
_0-b_細線3
  6
CONTINUOUS
 62
    7
 10
321.80091959075861
 20
235.70300216194119
 11
321.80091959075861
 21
232.36966882860816
  0
LINE
  8
_0-b_細線3
  6
CONTINUOUS
 62
    7
 10
320.96758625742461
 20
236.53633549527424
 11
321.80091959075861
 21
235.70300216194119
  0
LINE
  8
_0-b_細線3
  6
CONTINUOUS
 62
    7
 10
276.80091959075855
 20
236.53633549527424
 11
320.96758625742461
 21
236.53633549527424
  0
LINE
  8
_0-b_細線3
  6
CONTINUOUS
 62
    7
 10
272.63425292409158
 20
269.86966882860816
 11
271.80091959075855
 21
269.03633549527422
  0
LINE
  8
_0-b_細線3
  6
CONTINUOUS
 62
    7
 10
275.96758625742467
 20
269.86966882860816
 11
272.63425292409158
 21
269.86966882860816
  0
LINE
  8
_0-b_細線3
  6
CONTINUOUS
 62
    7
 10
276.80091959075855
 20
269.03633549527422
 11
275.96758625742467
 21
269.86966882860816
  0
LINE
  8
_0-b_細線3
  6
CONTINUOUS
 62
    7
 10
276.80091959075855
 20
236.53633549527424
 11
276.80091959075855
 21
269.03633549527422
  0
LINE
  8
_0-a_極細3
  6
CONTINUOUS
 62
    7
 10
228.16085137027329
 20
181.418036657778
 11
223.03054922038802
 21
195.51342596956644
  0
LINE
  8
_0-a_極細3
  6
CONTINUOUS
 62
    7
 10
278.15489404406992
 20
215.57704666881276
 11
283.28519619395468
 21
201.4816573570242
  0
LINE
  8
_0-a_極細3
  6
CONTINUOUS
 62
    7
 10
223.03054922038802
 20
195.51342596956644
 11
278.15489404406992
 21
215.57704666881276
  0
LINE
  8
_0-a_極細3
  6
CONTINUOUS
 62
    7
 10
228.16085137027329
 20
181.418036657778
 11
283.28519619395468
 21
201.4816573570242
  0
LINE
  8
_0-a_極細3
  6
CENTER1
 62
    7
 10
220.6402669033379
 20
186.66210127364229
 11
284.6712873859039
 21
209.96748675867778
  0
LINE
  8
_0-a_極細3
  6
CONTINUOUS
 62
    7
 10
246.80091959075853
 20
156.53633549527422
 11
246.80091959075853
 21
200.62189684359055
  0
LINE
  8
_0-a_極細3
  6
CONTINUOUS
 62
    7
 10
246.80091959075853
 20
200.62189684359055
 11
231.80091959075853
 21
200.62189684359055
  0
LINE
  8
_0-a_極細3
  6
CONTINUOUS
 62
    7
 10
231.80091959075853
 20
200.62189684359055
 11
231.80091959075853
 21
156.53633549527422
  0
LINE
  8
_0-a_極細3
  6
CENTER1
 62
    7
 10
239.30091959075853
 20
148.25959521082177
 11
239.30091959075853
 21
204.89761700820011
  0
LINE
  8
_0-a_極細3
  6
CONTINUOUS
 62
    7
 10
665.44098781124308
 20
181.418036657778
 11
670.5712899611284
 21
195.51342596956644
  0
LINE
  8
_0-a_極細3
  6
CONTINUOUS
 62
    7
 10
615.44694513744685
 20
215.57704666881276
 11
610.31664298756209
 21
201.4816573570242
  0
LINE
  8
_0-a_極細3
  6
CONTINUOUS
 62
    7
 10
670.5712899611284
 20
195.51342596956644
 11
615.44694513744685
 21
215.57704666881276
  0
LINE
  8
_0-a_極細3
  6
CONTINUOUS
 62
    7
 10
665.44098781124308
 20
181.418036657778
 11
610.31664298756209
 21
201.4816573570242
  0
LINE
  8
_0-a_極細3
  6
CENTER1
 62
    7
 10
672.96157227817844
 20
186.66210127364229
 11
608.9305517956127
 21
209.96748675867778
  0
LINE
  8
_0-a_極細3
  6
CONTINUOUS
 62
    7
 10
646.80091959075776
 20
156.53633549527422
 11
646.80091959075776
 21
200.62189684359055
  0
LINE
  8
_0-a_極細3
  6
CONTINUOUS
 62
    7
 10
646.80091959075776
 20
200.62189684359055
 11
661.80091959075776
 21
200.62189684359055
  0
LINE
  8
_0-a_極細3
  6
CONTINUOUS
 62
    7
 10
661.80091959075776
 20
200.62189684359055
 11
661.80091959075776
 21
156.53633549527422
  0
LINE
  8
_0-a_極細3
  6
CENTER1
 62
    7
 10
654.30091959075776
 20
148.25959521082177
 11
654.30091959075776
 21
204.89761700820011
  0
LINE
  8
_0-d_寸法3
  6
CONTINUOUS
 62
    7
 10
438.60939914786786
 20
242.27209985878477
 11
403.25705742218224
 21
267.02607602847593
  0
LINE
  8
_0-d_寸法3
  6
CONTINUOUS
 62
    7
 10
407.35281764362725
 20
264.15819384672068
 11
404.76462719260206
 21
273.81745210961134
  0
LINE
  8
_0-d_寸法3
  6
CONTINUOUS
 62
    7
 10
407.35281764362725
 20
264.15819384672068
 11
409.94100809465243
 21
273.81745210961134
  0
LINE
  8
_0-d_寸法3
  6
CONTINUOUS
 62
    7
 10
438.60939914786769
 20
275.6054331921186
 11
403.25705742218224
 21
300.35940936180896
  0
LINE
  8
_0-d_寸法3
  6
CONTINUOUS
 62
    7
 10
407.35281764362725
 20
297.49152718005371
 11
409.94100809465237
 21
287.83226891716299
  0
LINE
  8
_0-d_寸法3
  6
CONTINUOUS
 62
    7
 10
407.35281764362725
 20
297.49152718005371
 11
404.76462719260201
 21
287.83226891716305
  0
LINE
  8
_0-d_寸法3
  6
CONTINUOUS
 62
    7
 10
407.35281764362725
 20
264.15819384672068
 11
407.35281764362725
 21
297.49152718005371
  0
TEXT
  8
_0-d_寸法3
 62
    7
 10
407.35281764362725
 20
273.32486051338719
 40
15
 41
1
 50
90
  1
20
  0
LINE
  8
_0-b_細線3
  6
CONTINUOUS
 62
    7
 10
271.80091959075855
 20
251.14858000808567
 11
271.80091959075855
 21
192.81524667475239
  0
LINE
  8
_0-b_細線3
  6
CONTINUOUS
 62
    7
 10
271.80091959075855
 20
192.81524667475239
 11
267.9675862574253
 21
192.81524667475239
  0
LINE
  8
_0-b_細線3
  6
CONTINUOUS
 62
    7
 10
267.9675862574253
 20
192.81524667475239
 11
267.9675862574253
 21
251.14858000808567
  0
LINE
  8
_0-b_細線3
  6
CONTINUOUS
 62
    7
 10
267.9675862574253
 20
251.14858000808567
 11
271.80091959075855
 21
251.14858000808567
  0
LINE
  8
_0-a_極細3
  6
CONTINUOUS
 62
    7
 10
267.9675862574253
 20
224.48191334141907
 11
271.80091959075855
 21
224.48191334141907
  0
LINE
  8
_0-a_極細3
  6
CONTINUOUS
 62
    7
 10
267.9675862574253
 20
227.81524667475242
 11
271.80091959075855
 21
227.81524667475242
  0
LINE
  8
_0-a_極細3
  6
CONTINUOUS
 62
    7
 10
267.9675862574253
 20
221.14858000808567
 11
271.80091959075855
 21
221.14858000808567
  0
LINE
  8
_0-a_極細3
  6
CONTINUOUS
 62
    7
 10
267.9675862574253
 20
231.14858000808567
 11
271.80091959075855
 21
231.14858000808567
  0
LINE
  8
_0-a_極細3
  6
CONTINUOUS
 62
    7
 10
271.80091959075855
 20
197.81524667475239
 11
267.9675862574253
 21
197.81524667475239
  0
LINE
  8
_0-a_極細3
  6
CONTINUOUS
 62
    7
 10
267.9675862574253
 20
247.81524667475242
 11
271.80091959075855
 21
247.81524667475242
  0
LINE
  8
_0-b_細線3
  6
CONTINUOUS
 62
    7
 10
621.80091959075799
 20
251.53633549527424
 11
621.80091959075799
 21
193.20300216194099
  0
LINE
  8
_0-b_細線3
  6
CONTINUOUS
 62
    7
 10
621.80091959075799
 20
193.20300216194099
 11
625.63425292409136
 21
193.20300216194099
  0
LINE
  8
_0-b_細線3
  6
CONTINUOUS
 62
    7
 10
625.63425292409136
 20
193.20300216194099
 11
625.63425292409136
 21
251.53633549527424
  0
LINE
  8
_0-b_細線3
  6
CONTINUOUS
 62
    7
 10
625.63425292409136
 20
251.53633549527424
 11
621.80091959075799
 21
251.53633549527424
  0
LINE
  8
_0-a_極細3
  6
CONTINUOUS
 62
    7
 10
625.63425292409136
 20
224.86966882860759
 11
621.80091959075799
 21
224.86966882860759
  0
LINE
  8
_0-a_極細3
  6
CONTINUOUS
 62
    7
 10
625.63425292409136
 20
228.20300216194099
 11
621.80091959075799
 21
228.20300216194099
  0
LINE
  8
_0-a_極細3
  6
CONTINUOUS
 62
    7
 10
625.63425292409136
 20
221.53633549527424
 11
621.80091959075799
 21
221.53633549527424
  0
LINE
  8
_0-a_極細3
  6
CONTINUOUS
 62
    7
 10
625.63425292409136
 20
231.53633549527424
 11
621.80091959075799
 21
231.53633549527424
  0
LINE
  8
_0-a_極細3
  6
CONTINUOUS
 62
    7
 10
621.80091959075799
 20
198.20300216194099
 11
625.63425292409136
 21
198.20300216194099
  0
LINE
  8
_0-a_極細3
  6
CONTINUOUS
 62
    7
 10
625.63425292409136
 20
248.20300216194099
 11
621.80091959075799
 21
248.20300216194099
  0
LINE
  8
_0-7_枠細線
  6
CONTINUOUS
 62
    5
 10
643.56496976471362
 20
240.8696572952141
 11
636.06496976471362
 21
255.8696572952141
  0
LINE
  8
_0-7_枠細線
  6
CONTINUOUS
 62
    5
 10
628.56496976471362
 20
240.8696572952141
 11
643.56496976471362
 21
240.8696572952141
  0
LINE
  8
_0-7_枠細線
  6
CONTINUOUS
 62
    5
 10
636.06496976471362
 20
255.8696572952141
 11
628.56496976471362
 21
240.8696572952141
  0
TEXT
  8
_0-7_枠細線
 62
    5
 10
630.93012103286173
 20
239.92083733036421
 40
12.5
 41
0.8
 50
0
  1
４
  0
LINE
  8
_0-d_寸法3
  6
CONTINUOUS
 62
    7
 10
271.80091959075855
 20
274.86966882860816
 11
271.80091959075855
 21
359.86966882860679
  0
LINE
  8
_0-d_寸法3
  6
CONTINUOUS
 62
    7
 10
271.80091959075855
 20
354.86966882860679
 11
281.46017785364916
 21
357.45785927963198
  0
LINE
  8
_0-d_寸法3
  6
CONTINUOUS
 62
    7
 10
271.80091959075855
 20
354.86966882860679
 11
281.46017785364916
 21
352.28147837758166
  0
LINE
  8
_0-d_寸法3
  6
CONTINUOUS
 62
    7
 10
621.80091959075867
 20
274.86966882860816
 11
621.80091959075867
 21
359.86966882860679
  0
LINE
  8
_0-d_寸法3
  6
CONTINUOUS
 62
    7
 10
621.80091959075867
 20
354.86966882860679
 11
612.14166132786795
 21
352.28147837758166
  0
LINE
  8
_0-d_寸法3
  6
CONTINUOUS
 62
    7
 10
621.80091959075867
 20
354.86966882860679
 11
612.14166132786795
 21
357.45785927963203
  0
LINE
  8
_0-d_寸法3
  6
CONTINUOUS
 62
    7
 10
271.80091959075855
 20
354.86966882860679
 11
621.80091959075867
 21
354.86966882860679
  0
TEXT
  8
_0-d_寸法3
 62
    7
 10
435.55091959075861
 20
354.86966882860679
 40
15
 41
1
 50
0
  1
210
  0
LINE
  8
_0-d_寸法3
  6
CONTINUOUS
 62
    7
 10
261.80091959075855
 20
269.86966882860821
 11
212.96758625742527
 21
269.86966882860816
  0
LINE
  8
_0-d_寸法3
  6
CONTINUOUS
 62
    7
 10
217.96758625742527
 20
269.86966882860816
 11
220.5557767084504
 21
260.21041056571744
  0
LINE
  8
_0-d_寸法3
  6
CONTINUOUS
 62
    7
 10
217.96758625742527
 20
269.86966882860816
 11
215.3793958064
 21
260.2104105657175
  0
LINE
  8
_0-d_寸法3
  6
CONTINUOUS
 62
    7
 10
259.80091959075855
 20
231.5363354952747
 11
212.96758625742527
 21
231.5363354952747
  0
LINE
  8
_0-d_寸法3
  6
CONTINUOUS
 62
    7
 10
217.96758625742527
 20
231.5363354952747
 11
215.3793958064
 21
241.19559375816536
  0
LINE
  8
_0-d_寸法3
  6
CONTINUOUS
 62
    7
 10
217.96758625742527
 20
231.5363354952747
 11
220.5557767084504
 21
241.19559375816536
  0
LINE
  8
_0-d_寸法3
  6
CONTINUOUS
 62
    7
 10
217.96758625742527
 20
269.86966882860816
 11
217.96758625742527
 21
231.5363354952747
  0
TEXT
  8
_0-d_寸法3
 62
    7
 10
217.96758625742527
 20
243.20300216194119
 40
15
 41
1
 50
90
  1
23
  0
LINE
  8
_0-d_寸法3
  6
CONTINUOUS
 62
    7
 10
261.80091959075855
 20
231.5363354952747
 11
212.96758625742527
 21
231.5363354952747
  0
LINE
  8
_0-d_寸法3
  6
CONTINUOUS
 62
    7
 10
217.96758625742527
 20
231.5363354952747
 11
220.5557767084504
 21
221.87707723238401
  0
LINE
  8
_0-d_寸法3
  6
CONTINUOUS
 62
    7
 10
217.96758625742527
 20
231.5363354952747
 11
215.3793958064
 21
221.87707723238404
  0
LINE
  8
_0-d_寸法3
  6
CONTINUOUS
 62
    7
 10
259.80091959075855
 20
193.20300216194127
 11
212.96758625742612
 21
193.20300216194127
  0
LINE
  8
_0-d_寸法3
  6
CONTINUOUS
 62
    7
 10
217.96758625742612
 20
193.20300216194119
 11
215.37939580640091
 21
202.86226042483193
  0
LINE
  8
_0-d_寸法3
  6
CONTINUOUS
 62
    7
 10
217.96758625742612
 20
193.20300216194119
 11
220.55577670845139
 21
202.86226042483193
  0
LINE
  8
_0-d_寸法3
  6
CONTINUOUS
 62
    7
 10
217.96758625742527
 20
231.5363354952747
 11
217.96758625742612
 21
193.20300216194119
  0
TEXT
  8
_0-d_寸法3
 62
    7
 10
217.96758625742612
 20
204.86966882860813
 40
15
 41
1
 50
90
  1
23
  0
LINE
  8
_0-d_寸法3
  6
CONTINUOUS
 62
    7
 10
321.80091959075861
 20
226.53633549527424
 11
321.80091959075855
 21
174.3916435943693
  0
LINE
  8
_0-d_寸法3
  6
CONTINUOUS
 62
    7
 10
321.80091959075855
 20
179.3916435943693
 11
331.46017785364916
 21
181.97983404539451
  0
LINE
  8
_0-d_寸法3
  6
CONTINUOUS
 62
    7
 10
321.80091959075855
 20
179.3916435943693
 11
331.46017785364916
 21
176.80345314334403
  0
LINE
  8
_0-d_寸法3
  6
CONTINUOUS
 62
    7
 10
571.80091959075776
 20
226.53633549527424
 11
571.80091959075764
 21
174.3916435943693
  0
LINE
  8
_0-d_寸法3
  6
CONTINUOUS
 62
    7
 10
571.80091959075764
 20
179.3916435943693
 11
562.14166132786693
 21
176.80345314334409
  0
LINE
  8
_0-d_寸法3
  6
CONTINUOUS
 62
    7
 10
571.80091959075764
 20
179.3916435943693
 11
562.14166132786693
 21
181.97983404539457
  0
LINE
  8
_0-d_寸法3
  6
CONTINUOUS
 62
    7
 10
321.80091959075855
 20
179.3916435943693
 11
571.80091959075764
 21
179.3916435943693
  0
TEXT
  8
_0-d_寸法3
 62
    7
 10
435.55091959075867
 20
179.3916435943693
 40
15
 41
1
 50
0
  1
150
  0
LINE
  8
_0-d_寸法3
  6
CONTINUOUS
 62
    7
 10
271.80091959075855
 20
182.81524667475239
 11
271.80091959075855
 21
174.3916435943693
  0
LINE
  8
_0-d_寸法3
  6
CONTINUOUS
 62
    7
 10
271.80091959075855
 20
179.3916435943693
 11
281.46017785364916
 21
181.97983404539451
  0
LINE
  8
_0-d_寸法3
  6
CONTINUOUS
 62
    7
 10
271.80091959075855
 20
179.3916435943693
 11
281.46017785364916
 21
176.80345314334403
  0
LINE
  8
_0-d_寸法3
  6
CONTINUOUS
 62
    7
 10
321.80091959075861
 20
221.53633549527424
 11
321.80091959075855
 21
174.3916435943693
  0
LINE
  8
_0-d_寸法3
  6
CONTINUOUS
 62
    7
 10
321.80091959075855
 20
179.3916435943693
 11
312.14166132786778
 21
176.80345314334409
  0
LINE
  8
_0-d_寸法3
  6
CONTINUOUS
 62
    7
 10
321.80091959075855
 20
179.3916435943693
 11
312.14166132786784
 21
181.97983404539457
  0
LINE
  8
_0-d_寸法3
  6
CONTINUOUS
 62
    7
 10
271.80091959075855
 20
179.3916435943693
 11
321.80091959075855
 21
179.3916435943693
  0
TEXT
  8
_0-d_寸法3
 62
    7
 10
289.30091959075867
 20
179.3916435943693
 40
15
 41
1
 50
0
  1
30
  0
LINE
  8
_0-d_寸法3
  6
CONTINUOUS
 62
    7
 10
621.80091959075799
 20
183.20300216194099
 11
621.80091959075799
 21
174.3916435943693
  0
LINE
  8
_0-d_寸法3
  6
CONTINUOUS
 62
    7
 10
621.80091959075799
 20
179.3916435943693
 11
612.14166132786727
 21
176.80345314334403
  0
LINE
  8
_0-d_寸法3
  6
CONTINUOUS
 62
    7
 10
621.80091959075799
 20
179.3916435943693
 11
612.14166132786727
 21
181.97983404539451
  0
LINE
  8
_0-d_寸法3
  6
CONTINUOUS
 62
    7
 10
571.80091959075776
 20
221.53633549527424
 11
571.80091959075764
 21
174.3916435943693
  0
LINE
  8
_0-d_寸法3
  6
CONTINUOUS
 62
    7
 10
571.80091959075764
 20
179.3916435943693
 11
581.46017785364836
 21
181.97983404539457
  0
LINE
  8
_0-d_寸法3
  6
CONTINUOUS
 62
    7
 10
571.80091959075764
 20
179.3916435943693
 11
581.46017785364836
 21
176.80345314334409
  0
LINE
  8
_0-d_寸法3
  6
CONTINUOUS
 62
    7
 10
621.80091959075799
 20
179.3916435943693
 11
571.80091959075764
 21
179.3916435943693
  0
TEXT
  8
_0-d_寸法3
 62
    7
 10
589.30091959075776
 20
179.3916435943693
 40
15
 41
1
 50
0
  1
30
  0
TEXT
  8
_0-7_枠細線
 62
    5
 10
396.8788722139343
 20
94.869303826929325
 40
25
 41
0.8
 50
0
  1
断面詳細図
  0
TEXT
  8
_0-7_枠細線
 62
    5
 10
511.82784196310223
 20
97.481147871740603
 40
20
 41
0.6
 50
0
  1
Ｓ＝１：３
  0
LINE
  8
_0-d_寸法3
  6
CONTINUOUS
 62
    7
 10
271.80091959075855
 20
274.8696688286077
 11
271.80091959075867
 21
324.8696688286077
  0
LINE
  8
_0-d_寸法3
  6
CONTINUOUS
 62
    7
 10
271.80091959075867
 20
319.8696688286077
 11
262.14166132786784
 21
317.28147837758252
  0
LINE
  8
_0-d_寸法3
  6
CONTINUOUS
 62
    7
 10
271.80091959075867
 20
319.8696688286077
 11
262.14166132786801
 21
322.457859279633
  0
LINE
  8
_0-d_寸法3
  6
CONTINUOUS
 62
    7
 10
276.80091959075855
 20
274.8696688286077
 11
276.80091959075867
 21
324.8696688286077
  0
CIRCLE
  8
_0-d_寸法3
  6
CONTINUOUS
 62
    1
 10
276.80091959075867
 20
319.8696688286077
 40
1.5000000000000002
  0
LINE
  8
_0-d_寸法3
  6
CONTINUOUS
 62
    7
 10
246.80091959075867
 20
319.8696688286077
 11
276.80091959075867
 21
319.8696688286077
  0
TEXT
  8
_0-d_寸法3
 62
    7
 10
251.26946956856364
 20
319.8696688286077
 40
15
 41
1
 50
0
  1
3
  0
LINE
  8
_0-d_寸法3
  6
CONTINUOUS
 62
    7
 10
279.30091959075855
 20
274.86966882860725
 11
279.30091959075867
 21
324.8696688286077
  0
LINE
  8
_0-d_寸法3
  6
CONTINUOUS
 62
    7
 10
276.80091959075867
 20
319.8696688286077
 11
279.30091959075867
 21
319.8696688286077
  0
TEXT
  8
_0-d_寸法3
 62
    7
 10
281.53744103773533
 20
302.6607925871466
 40
15
 41
1
 50
0
  1
1.5
  0
LINE
  8
_0-d_寸法3
  6
CONTINUOUS
 62
    7
 10
279.30091959075867
 20
319.8696688286077
 11
288.96017785364933
 21
322.45785927963288
  0
LINE
  8
_0-d_寸法3
  6
CONTINUOUS
 62
    7
 10
279.30091959075867
 20
319.8696688286077
 11
288.96017785364933
 21
317.28147837758252
  0
LINE
  8
_0-d_寸法3
  6
CONTINUOUS
 62
    7
 10
614.30091959075776
 20
274.86966882860725
 11
614.30091959075787
 21
324.8696688286077
  0
LINE
  8
_0-d_寸法3
  6
CONTINUOUS
 62
    7
 10
614.30091959075787
 20
319.8696688286077
 11
604.64166132786715
 21
317.28147837758252
  0
LINE
  8
_0-d_寸法3
  6
CONTINUOUS
 62
    7
 10
614.30091959075787
 20
319.8696688286077
 11
604.64166132786715
 21
322.457859279633
  0
LINE
  8
_0-d_寸法3
  6
CONTINUOUS
 62
    7
 10
279.30091959075867
 20
319.8696688286077
 11
614.30091959075787
 21
319.8696688286077
  0
TEXT
  8
_0-d_寸法3
 62
    7
 10
435.55091959075821
 20
319.8696688286077
 40
15
 41
1
 50
0
  1
201
  0
LINE
  8
_0-d_寸法3
  6
CONTINUOUS
 62
    7
 10
616.80091959075844
 20
274.8696688286077
 11
616.80091959075844
 21
324.8696688286077
  0
CIRCLE
  8
_0-d_寸法3
  6
CONTINUOUS
 62
    1
 10
616.80091959075844
 20
319.8696688286077
 40
1.5000000000000002
  0
LINE
  8
_0-d_寸法3
  6
CONTINUOUS
 62
    7
 10
614.30091959075787
 20
319.8696688286077
 11
616.80091959075844
 21
319.8696688286077
  0
TEXT
  8
_0-d_寸法3
 62
    7
 10
589.87102004716894
 20
301.77083091261835
 40
15
 41
1
 50
0
  1
1.5
  0
LINE
  8
_0-d_寸法3
  6
CONTINUOUS
 62
    7
 10
621.80091959075776
 20
274.8696688286077
 11
621.80091959075787
 21
324.8696688286077
  0
LINE
  8
_0-d_寸法3
  6
CONTINUOUS
 62
    7
 10
621.80091959075787
 20
319.8696688286077
 11
631.46017785364859
 21
322.45785927963283
  0
LINE
  8
_0-d_寸法3
  6
CONTINUOUS
 62
    7
 10
621.80091959075787
 20
319.8696688286077
 11
631.46017785364859
 21
317.28147837758246
  0
LINE
  8
_0-d_寸法3
  6
CONTINUOUS
 62
    7
 10
616.80091959075844
 20
319.8696688286077
 11
646.80091959075799
 21
319.8696688286077
  0
TEXT
  8
_0-d_寸法3
 62
    7
 10
634.96830778301785
 20
319.8696688286077
 40
15
 41
1
 50
0
  1
3
  0
LINE
  8
_0-a_極細3
  6
CENTER1
 62
    7
 10
619.92119421948587
 20
250.86963173060758
 11
273.96234780244754
 21
250.86963173060758
  0
CIRCLE
  8
_0-a_極細3
  6
CONTINUOUS
 62
    7
 10
630.72893683201778
 20
237.07725808390279
 40
1.825531472681392
  0
LINE
  8
_0-a_極細3
  6
CONTINUOUS
 62
    7
 10
614.30091959075776
 20
268.20300216194119
 11
279.30091959075855
 21
268.20300216194119
  0
LINE
  8
_0-b_細線3
  6
CONTINUOUS
 62
    7
 10
279.30091959075855
 20
263.36966882860816
 11
614.30091959075776
 21
263.36966882860816
  0
LINE
  8
_0-b_細線3
  6
CONTINUOUS
 62
    7
 10
279.30091959075855
 20
236.53633549527424
 11
279.30091959075855
 21
269.86966882860725
  0
LINE
  8
_0-b_細線3
  6
CONTINUOUS
 62
    7
 10
279.30091959075855
 20
269.86966882860725
 11
614.30091959075776
 21
269.86966882860725
  0
LINE
  8
_0-b_細線3
  6
CONTINUOUS
 62
    7
 10
614.30091959075776
 20
269.86966882860725
 11
614.30091959075776
 21
236.53633549527424
  0
LINE
  8
_0-b_細線3
  6
CONTINUOUS
 62
    7
 10
614.30091959075776
 20
236.53633549527424
 11
279.30091959075855
 21
236.53633549527424
  0
ENDSEC
  0
EOF
