  0
SECTION
  2
HEADER
  9
$ACADVER
  1
AC1009
  9
$INSBASE
 10
0
 20
0
 30
0
  9
$EXTMIN
 10
0
 20
0
  9
$EXTMAX
 10
1485
 20
1050
  9
$LIMMIN
 10
0
 20
0
  9
$LIMMAX
 10
1485
 20
1050
  9
$LTSCALE
 40
5
  0
ENDSEC
  0
SECTION
  2
TABLES
  0
TABLE
  2
LTYPE
 70
     9
  0
LTYPE
  2
CONTINUOUS
 70
    64
  3
実線
 72
    65
 73
     0
 40
0.0
  0
LTYPE
  2
DASHED1
 70
    64
  3
--  --  --  --  --  --  --  --  
 72
    65
 73
     2
 40
2.5
 49
1.25
 49
-1.25
  0
LTYPE
  2
DASHED2
 70
    64
  3
----    ----    ----    ----    
 72
    65
 73
     2
 40
5.0
 49
2.5
 49
-2.5
  0
LTYPE
  2
DASHED3
 70
    64
  3
------  ------  ------  ------  
 72
    65
 73
     2
 40
5.0
 49
3.75
 49
-1.25
  0
LTYPE
  2
CENTER1
 70
    64
  3
----- - ----- - ----- - ----- - 
 72
    65
 73
     4
 40
10.0
 49
6.25
 49
-1.25
 49
1.25
 49
-1.25
  0
LTYPE
  2
CENTER2
 70
    64
  3
----------  --  ----------  --  
 72
    65
 73
     4
 40
20.0
 49
12.5
 49
-2.5
 49
2.5
 49
-2.5
  0
LTYPE
  2
PHANTOM1
 70
    64
  3
--- - - --- - - --- - - --- - - 
 72
    65
 73
     6
 40
10.0
 49
3.25
 49
-1.25
 49
1.25
 49
-1.25
 49
1.25
 49
-1.25
  0
LTYPE
  2
PHANTOM2
 70
    64
  3
--------  -  -  --------  -  -  
 72
    65
 73
     6
 40
20.0
 49
10.0
 49
-2.5
 49
1.25
 49
-2.5
 49
1.25
 49
-2.5
  0
LTYPE
  2
DOT
 70
    64
  3
-   -   -   -   -   -   -   -   
 72
    65
 73
     2
 40
2.5
 49
0.625
 49
-1.875
  0
LTYPE
  2
DUMMY
 70
    64
  3
ダミー
 72
    65
 73
     0
 40
0.0
  0
LTYPE
  2
RAND1
 70
    64
  3
ランダム線1
 72
    65
 73
     4
 40
10.0
 49
1.0
 49
-2.0
 49
3.0
 49
-4.0
  0
LTYPE
  2
RAND2
 70
    64
  3
ランダム線2
 72
    65
 73
     4
 40
14.0
 49
2.0
 49
-3.0
 49
4.0
 49
-5.0
  0
LTYPE
  2
RAND3
 70
    64
  3
ランダム線3
 72
    65
 73
     4
 40
18.0
 49
3.0
 49
-4.0
 49
5.0
 49
-6.0
  0
LTYPE
  2
RAND4
 70
    64
  3
ランダム線4
 72
    65
 73
     4
 40
22.0
 49
4.0
 49
-5.0
 49
6.0
 49
-7.0
  0
LTYPE
  2
RAND5
 70
    64
  3
ランダム線5
 72
    65
 73
     4
 40
26.0
 49
5.0
 49
-6.0
 49
7.0
 49
-8.0
  0
LTYPE
  2
LONG1
 70
    64
  3
----------  --  ----------  --  
 72
    65
 73
     4
 40
40.0
 49
32.5
 49
-2.5
 49
2.5
 49
-2.5
  0
LTYPE
  2
LONG2
 70
    64
  3
--------  -  -  --------  -  -  
 72
    65
 73
     6
 40
40.0
 49
30.0
 49
-2.5
 49
1.25
 49
-2.5
 49
1.25
 49
-2.5
  0
LTYPE
  2
LONG3
 70
    64
  3
+++++++++++++++..+++++++++++++++
 72
    65
 73
     2
 40
40.0
 49
37.5
 49
-2.5
  0
LTYPE
  2
LONG4
 70
    64
  3
+++++++++++++++..+++++++++++++++
 72
    65
 73
     2
 40
80.0
 49
75.0
 49
-5.0
  0
LTYPE
  2
LONG5
 70
    64
  3
----------  --  ----------  --  
 72
    65
 73
     4
 40
60.0
 49
37.5
 49
-7.5
 49
7.5
 49
-7.5
  0
LTYPE
  2
dashed
 70
   64
  3
-------   -------------   ------
 72
   65
 73
    2
 40
7.5
 49
6
 49
-1.5
  0
LTYPE
  2
dashed_spaced
 70
   64
  3
----        --------        ----
 72
   65
 73
    2
 40
12
 49
6
 49
-6
  0
LTYPE
  2
long_dashed_dotted
 70
   64
  3
------------- --- --------------
 72
   65
 73
    4
 40
15.25
 49
12
 49
-1.5
 49
0.25
 49
-1.5
  0
LTYPE
  2
long_dashed_double-dotted
 70
   64
  3
----------- --- --- ------------
 72
   65
 73
    6
 40
17
 49
12
 49
-1.5
 49
0.25
 49
-1.5
 49
0.25
 49
-1.5
  0
LTYPE
  2
long_dashed_triplicate-dotted
 70
   64
  3
--------- --- --- --- ----------
 72
   65
 73
    8
 40
18.75
 49
12
 49
-1.5
 49
0.25
 49
-1.5
 49
0.25
 49
-1.5
 49
0.25
 49
-1.5
  0
LTYPE
  2
dotted
 70
   64
  3
   -       -       -       -    
 72
   65
 73
    2
 40
1.75
 49
0.25
 49
-1.5
  0
LTYPE
  2
chain
 70
   64
  3
-------------- -- --------------
 72
   65
 73
    4
 40
18.5
 49
12
 49
-1.5
 49
3.5
 49
-1.5
  0
LTYPE
  2
chain_double_dash
 70
   64
  3
------------ -- -- -------------
 72
   65
 73
    6
 40
23.5
 49
12
 49
-1.5
 49
3.5
 49
-1.5
 49
3.5
 49
-1.5
  0
LTYPE
  2
dashed_dotted
 70
   64
  3
-----------     -     ----------
 72
   65
 73
    4
 40
9.25
 49
6
 49
-1.5
 49
0.25
 49
-1.5
  0
LTYPE
  2
double-dashed_dotted
 70
   64
  3
------   -----------   -   -----
 72
   65
 73
    6
 40
16.75
 49
6
 49
-1.5
 49
6
 49
-1.5
 49
0.25
 49
-1.5
  0
LTYPE
  2
dashed_double-dotted
 70
   64
  3
---------    -    -    ---------
 72
   65
 73
    6
 40
11
 49
6
 49
-1.5
 49
0.25
 49
-1.5
 49
0.25
 49
-1.5
  0
LTYPE
  2
double-dashed_double-dotted
 70
   64
  3
-----   ---------   -   -   ----
 72
   65
 73
    8
 40
18.5
 49
6
 49
-1.5
 49
6
 49
-1.5
 49
0.25
 49
-1.5
 49
0.25
 49
-1.5
  0
LTYPE
  2
dashed_triplicate-dotted
 70
   64
  3
-------    -    -    -    ------
 72
   65
 73
    8
 40
12.75
 49
6
 49
-1.5
 49
0.25
 49
-1.5
 49
0.25
 49
-1.5
 49
0.25
 49
-1.5
  0
LTYPE
  2
double-dashed_triplicate-dotted
 70
   64
  3
-----  ---------  -  -  -  -----
 72
   65
 73
   10
 40
20.25
 49
6
 49
-1.5
 49
6
 49
-1.5
 49
0.25
 49
-1.5
 49
0.25
 49
-1.5
 49
0.25
 49
-1.5
  0
LTYPE
  2
undefined
 70
   64
  3
--------------------------------
 72
   65
 73
    0
 40
0
  0
ENDTAB
  0
TABLE
  2
STYLE
  5
3
100
AcDbSymbolTable
 70
     1
  0
STYLE
  5
10
100
AcDbSymbolTableRecord
100
AcDbTextStyleTableRecord
  2
STANDARD
 70
     0
 40
0.0
 41
1.0
 50
0.0
 71
     0
 42
0.2
  3
txt
  4
bigfont.shx
  0
STYLE
  5
26
100
AcDbSymbolTableRecord
100
AcDbTextStyleTableRecord
  2
TATEGAKI
 70
    68
 40
0.0
 41
1.0
 50
0.0
 71
     0
 42
1.0
  3
txt
  4
bigfont.shx
  0
ENDTAB
  0
TABLE
  2
LAYER
 70
   10
  0
LAYER
  2
_0-0_計極細
 70
   64
 62
    7
  6
CONTINUOUS
  0
LAYER
  2
_0-1_計細線
 70
   64
 62
    7
  6
CONTINUOUS
  0
LAYER
  2
_0-5_寸法線
 70
   64
 62
    7
  6
CONTINUOUS
  0
LAYER
  2
_0-7_枠細線
 70
   64
 62
    7
  6
CONTINUOUS
  0
LAYER
  2
_0-8_枠中線
 70
   64
 62
    7
  6
CONTINUOUS
  0
LAYER
  2
_0-9_枠極太
 70
   64
 62
    7
  6
CONTINUOUS
  0
LAYER
  2
_0-a_極細3
 70
   64
 62
    7
  6
CONTINUOUS
  0
LAYER
  2
_0-b_細線3
 70
   64
 62
    7
  6
CONTINUOUS
  0
LAYER
  2
_0-d_寸法3
 70
   64
 62
    7
  6
CONTINUOUS
  0
LAYER
  2
ADD_LINE
 70
   64
 62
    7
  6
CONTINUOUS
  0
ENDTAB
  0
ENDSEC
  0
SECTION
  2
BLOCKS
  0
ENDSEC
  0
SECTION
  2
ENTITIES
  0
LINE
  8
_0-7_枠細線
  6
CONTINUOUS
 62
    5
 10
1185
 20
180
 11
1185
 21
100
  0
TEXT
  8
_0-7_枠細線
 62
    5
 10
937.5
 20
97.5
 40
17.5
 41
1
 50
0
  1
備考
  7
TATEGAKI
  0
TEXT
  8
_0-7_枠細線
 62
    5
 10
937.5
 20
137.5
 40
17.5
 41
1
 50
0
  1
品番
  7
TATEGAKI
  0
TEXT
  8
_0-7_枠細線
 62
    5
 10
937.5
 20
177.5
 40
17.5
 41
1
 50
0
  1
品名
  7
TATEGAKI
  0
LINE
  8
_0-7_枠細線
  6
CONTINUOUS
 62
    5
 10
1185
 20
140
 11
925
 21
140
  0
LINE
  8
_0-7_枠細線
  6
CONTINUOUS
 62
    5
 10
950
 20
180
 11
950
 21
60
  0
LINE
  8
_0-8_枠中線
  6
CONTINUOUS
 62
    5
 10
1425
 20
180
 11
925
 21
180
  0
LINE
  8
_0-8_枠中線
  6
CONTINUOUS
 62
    5
 10
925
 20
180
 11
925
 21
60
  0
LINE
  8
_0-7_枠細線
  6
CONTINUOUS
 62
    5
 10
1245
 20
180
 11
1245
 21
60
  0
TEXT
  8
_0-7_枠細線
 62
    5
 10
1192.5
 20
160
 40
15
 41
1
 50
0
  1
縮　尺
  0
TEXT
  8
_0-7_枠細線
 62
    5
 10
1194
 20
117.5
 40
20
 41
0.7
 50
0
  1
１：５
  0
LINE
  8
_0-7_枠細線
  6
CONTINUOUS
 62
    5
 10
1185
 20
155
 11
1245
 21
155
  0
LINE
  8
_0-7_枠細線
  6
CONTINUOUS
 62
    5
 10
1245
 20
100
 11
925
 21
100
  0
LINE
  8
_0-7_枠細線
  6
CONTINUOUS
 62
    5
 10
1425
 20
90
 11
1245
 21
90
  0
LINE
  8
_0-7_枠細線
  6
CONTINUOUS
 62
    5
 10
1245
 20
120
 11
1425
 21
120
  0
LINE
  8
_0-7_枠細線
  6
CONTINUOUS
 62
    5
 10
1425
 20
140
 11
1245
 21
140
  0
TEXT
  8
_0-7_枠細線
 62
    5
 10
1255
 20
147.5
 40
25
 41
0.8
 50
0
  1
株式会社シマブン
  0
TEXT
  8
_0-7_枠細線
 62
    5
 10
1252.5
 20
60
 40
15
 41
1
 50
0
  1
年月日
  0
TEXT
  8
_0-7_枠細線
 62
    5
 10
1252.5
 20
75
 40
15
 41
1
 50
0
  1
作　成
  0
TEXT
  8
_0-7_枠細線
 62
    5
 10
1250
 20
95
 40
20
 41
1
 50
0
  1
島 英
  0
TEXT
  8
_0-7_枠細線
 62
    5
 10
1256.25
 20
122.5
 40
15
 41
1
 50
0
  1
承 認
  0
LINE
  8
_0-7_枠細線
  6
CONTINUOUS
 62
    5
 10
1305
 20
140
 11
1305
 21
60
  0
TEXT
  8
_0-7_枠細線
 62
    5
 10
1315
 20
95
 40
20
 41
1
 50
0
  1
隠塚
  0
TEXT
  8
_0-7_枠細線
 62
    5
 10
1316.25
 20
122.5
 40
15
 41
1
 50
0
  1
検 図
  0
LINE
  8
_0-7_枠細線
  6
CONTINUOUS
 62
    5
 10
1365
 20
140
 11
1365
 21
90
  0
TEXT
  8
_0-7_枠細線
 62
    5
 10
1375
 20
95
 40
20
 41
1
 50
0
  1
藤戸
  0
TEXT
  8
_0-7_枠細線
 62
    5
 10
1376.25
 20
122.5
 40
15
 41
1
 50
0
  1
設 計
  0
TEXT
  8
_0-7_枠細線
 62
    5
 10
965.50000000000011
 20
150
 40
20
 41
0.6
 50
0
  1
セーフティグレーチングＨ２０タイプ
  0
TEXT
  8
_0-7_枠細線
 62
    5
 10
965.49999999999977
 20
70
 40
20
 41
0.5999999999999998
 50
0
  1
色については品番表参照のこと
  0
TEXT
  8
_0-7_枠細線
 62
    5
 10
1310
 20
67.5
 40
15
 41
0.6666666666666666
 50
0
  1
２００９年０１月１６日
  0
TEXT
  8
_0-7_枠細線
 62
    5
 10
965.50000000000011
 20
110
 40
20
 41
0.6
 50
0
  1
ＧＲＳＪ－２０Ｗ２５１　ＳＥＴ
  0
LINE
  8
_0-7_枠細線
  6
CONTINUOUS
 62
    5
 10
1425
 20
942.5
 11
890
 21
942.5
  0
TEXT
  8
_0-7_枠細線
 62
    5
 10
895
 20
945
 40
12.5
 41
1
 50
0
  1
記号
  0
TEXT
  8
_0-7_枠細線
 62
    5
 10
996.875
 20
945
 40
12.5
 41
1
 50
0
  1
訂　 正　 記　 事
  0
TEXT
  8
_0-7_枠細線
 62
    5
 10
1181.25
 20
945
 40
12.5
 41
1
 50
0
  1
訂 正 年 月 日
  0
TEXT
  8
_0-7_枠細線
 62
    5
 10
1306.25
 20
945
 40
12.5
 41
1
 50
0
  1
備　　　　　考
  0
LINE
  8
_0-7_枠細線
  6
CONTINUOUS
 62
    5
 10
1425
 20
925
 11
890
 21
925
  0
TEXT
  8
_0-7_枠細線
 62
    5
 10
938.85037037037023
 20
927.5
 40
12.5
 41
1
 50
0
  1
品番・色記号変更
  0
TEXT
  8
_0-7_枠細線
 62
    5
 10
1180
 20
927.5
 40
12.5
 41
0.7199999999999999
 50
0
  1
２０１３．０３．１３
  0
LINE
  8
_0-7_枠細線
  6
CONTINUOUS
 62
    5
 10
915
 20
908.75
 11
907.5
 21
923.75
  0
LINE
  8
_0-7_枠細線
  6
CONTINUOUS
 62
    5
 10
900
 20
908.75
 11
915
 21
908.75
  0
LINE
  8
_0-7_枠細線
  6
CONTINUOUS
 62
    5
 10
907.5
 20
923.75
 11
900
 21
908.75
  0
TEXT
  8
_0-7_枠細線
 62
    5
 10
902.36515126814822
 20
908.44299775461946
 40
12.5
 41
0.8
 50
0
  1
１
  0
LINE
  8
_0-7_枠細線
  6
CONTINUOUS
 62
    5
 10
1424.9999999999998
 20
907.5
 11
890
 21
907.5
  0
TEXT
  8
_0-7_枠細線
 62
    5
 10
938.85037037037011
 20
910
 40
12.500000000000002
 41
1
 50
0
  1
取外具形状変更
  0
TEXT
  8
_0-7_枠細線
 62
    5
 10
1180
 20
910
 40
12.500000000000002
 41
0.7199999999999998
 50
0
  1
２０１５．１１．２０
  0
LINE
  8
_0-7_枠細線
  6
CONTINUOUS
 62
    5
 10
1425
 20
890
 11
890
 21
890
  0
TEXT
  8
_0-7_枠細線
 62
    5
 10
1180
 20
892.5
 40
12.5
 41
0.7199999999999999
 50
0
  1
２０１７．０４．０１
  0
LINE
  8
_0-7_枠細線
  6
CONTINUOUS
 62
    5
 10
915
 20
873.94233397174685
 11
907.5
 21
888.94233397174685
  0
LINE
  8
_0-7_枠細線
  6
CONTINUOUS
 62
    5
 10
900
 20
873.94233397174685
 11
915
 21
873.94233397174685
  0
LINE
  8
_0-7_枠細線
  6
CONTINUOUS
 62
    5
 10
907.5
 20
888.94233397174685
 11
900
 21
873.94233397174685
  0
TEXT
  8
_0-7_枠細線
 62
    5
 10
1180
 20
875
 40
12.5
 41
0.7199999999999999
 50
0
  1
２０１７．０４．０１
  0
TEXT
  8
_0-7_枠細線
 62
    5
 10
938.85037037037023
 20
875
 40
12.5
 41
1
 50
0
  1
ブラウン色（Ｃ）追加
  0
LINE
  8
_0-7_枠細線
  6
CONTINUOUS
 62
    5
 10
1425
 20
872.5
 11
890
 21
872.5
  0
LINE
  8
_0-7_枠細線
  6
CONTINUOUS
 62
    5
 10
907.5
 20
906.44233397174685
 11
900
 21
891.44233397174685
  0
LINE
  8
_0-7_枠細線
  6
CONTINUOUS
 62
    5
 10
900
 20
891.44233397174685
 11
915
 21
891.44233397174685
  0
LINE
  8
_0-7_枠細線
  6
CONTINUOUS
 62
    5
 10
915
 20
891.44233397174685
 11
907.5
 21
906.44233397174685
  0
TEXT
  8
_0-7_枠細線
 62
    5
 10
938.85037037037023
 20
892.5
 40
12.5
 41
1
 50
0
  1
取外具形状変更
  0
TEXT
  8
_0-7_枠細線
 62
    5
 10
902.48549209054841
 20
890.89465008156549
 40
12.5
 41
0.8
 50
0
  1
２
  0
TEXT
  8
_0-7_枠細線
 62
    5
 10
902.36515126814811
 20
872.99351400689704
 40
12.5
 41
0.8
 50
0
  1
３
  0
LINE
  8
_0-7_枠細線
  6
CONTINUOUS
 62
    5
 10
915
 20
856.44233397174685
 11
907.5
 21
871.44233397174685
  0
LINE
  8
_0-7_枠細線
  6
CONTINUOUS
 62
    5
 10
900
 20
856.44233397174685
 11
915
 21
856.44233397174685
  0
LINE
  8
_0-7_枠細線
  6
CONTINUOUS
 62
    5
 10
907.5
 20
871.44233397174685
 11
900
 21
856.44233397174685
  0
LINE
  8
_0-7_枠細線
  6
CONTINUOUS
 62
    5
 10
1425
 20
855
 11
890
 21
855
  0
TEXT
  8
_0-7_枠細線
 62
    5
 10
1180
 20
857.5
 40
12.5
 41
0.7199999999999999
 50
0
  1
２０１９．０９．０１
  0
TEXT
  8
_0-7_枠細線
 62
    5
 10
902.36515126814811
 20
855.49351400689704
 40
12.5
 41
0.8
 50
0
  1
４
  0
LINE
  8
_0-9_枠極太
  6
CONTINUOUS
 62
    5
 10
60
 20
60
 11
60
 21
960
  0
LINE
  8
_0-9_枠極太
  6
CONTINUOUS
 62
    5
 10
60
 20
960
 11
1425
 21
960
  0
LINE
  8
_0-9_枠極太
  6
CONTINUOUS
 62
    5
 10
1425
 20
960
 11
1425
 21
60
  0
LINE
  8
_0-9_枠極太
  6
CONTINUOUS
 62
    5
 10
1425
 20
60
 11
60
 21
60
  0
LINE
  8
_0-7_枠細線
  6
CONTINUOUS
 62
    5
 10
1074.9999999999995
 20
286.80454176804579
 11
1374.9999999999998
 21
286.80454176804579
  0
LINE
  8
_0-7_枠細線
  6
CONTINUOUS
 62
    5
 10
1074.9999999999995
 20
311.80454176804574
 11
1374.9999999999998
 21
311.80454176804574
  0
LINE
  8
_0-7_枠細線
  6
CONTINUOUS
 62
    5
 10
1074.9999999999995
 20
336.80454176804574
 11
1374.9999999999998
 21
336.80454176804574
  0
LINE
  8
_0-7_枠細線
  6
CONTINUOUS
 62
    5
 10
1074.9999999999995
 20
361.80454176804585
 11
1374.9999999999998
 21
361.80454176804585
  0
LINE
  8
_0-7_枠細線
  6
CONTINUOUS
 62
    5
 10
1074.9999999999995
 20
386.80454176804574
 11
1374.9999999999998
 21
386.80454176804574
  0
LINE
  8
_0-7_枠細線
  6
CONTINUOUS
 62
    5
 10
1074.9999999999995
 20
411.80454176804568
 11
1374.9999999999998
 21
411.80454176804568
  0
LINE
  8
_0-7_枠細線
  6
CONTINUOUS
 62
    5
 10
1074.9999999999995
 20
436.80454176804568
 11
1374.9999999999998
 21
436.80454176804568
  0
TEXT
  8
_0-7_枠細線
 62
    5
 10
1163.7499999999995
 20
441.80454176804568
 40
17.5
 41
1
 50
0
  1
品番表
  0
TEXT
  8
_0-7_枠細線
 62
    5
 10
1306
 20
416.80454176804568
 40
15
 41
0.8000000000000001
 50
0
  1
備　　考
  0
TEXT
  8
_0-7_枠細線
 62
    5
 10
1213
 20
366.80454176804585
 40
15
 41
0.5999999999999999
 50
0
  1
ライトグレー
  0
TEXT
  8
_0-7_枠細線
 62
    5
 10
1222
 20
391.80454176804568
 40
15
 41
0.5999999999999999
 50
0
  1
ベージュ
  0
TEXT
  8
_0-7_枠細線
 62
    5
 10
1234
 20
416.80454176804568
 40
15
 41
0.8000000000000001
 50
0
  1
色
  0
TEXT
  8
_0-7_枠細線
 62
    5
 10
1110.9999999999998
 20
416.80454176804568
 40
15
 41
0.8000000000000001
 50
0
  1
品　　番
  0
LINE
  8
_0-7_枠細線
  6
CONTINUOUS
 62
    5
 10
1074.9999999999995
 20
211.8045417680456
 11
1374.9999999999998
 21
211.8045417680456
  0
LINE
  8
_0-7_枠細線
  6
CONTINUOUS
 62
    5
 10
1074.9999999999995
 20
236.80454176804579
 11
1374.9999999999998
 21
236.80454176804579
  0
LINE
  8
_0-7_枠細線
  6
CONTINUOUS
 62
    5
 10
1074.9999999999995
 20
261.80454176804585
 11
1374.9999999999998
 21
261.80454176804585
  0
TEXT
  8
_0-7_枠細線
 62
    5
 10
1222.0000000000005
 20
341.80454176804585
 40
15
 41
0.5999999999999999
 50
0
  1
ホワイト
  0
TEXT
  8
_0-7_枠細線
 62
    5
 10
1226.4999999999998
 20
316.80454176804574
 40
15
 41
0.5999999999999999
 50
0
  1
ピンク
  0
TEXT
  8
_0-7_枠細線
 62
    5
 10
1226.4999999999998
 20
291.80454176804574
 40
15
 41
0.5999999999999999
 50
0
  1
ブルー
  0
TEXT
  8
_0-7_枠細線
 62
    5
 10
1212.9999999999995
 20
266.80454176804579
 40
15
 41
0.5999999999999999
 50
0
  1
ダークグレー
  0
TEXT
  8
_0-7_枠細線
 62
    5
 10
1079.7499999999998
 20
391.80454176804568
 40
15
 41
0.5666666666666667
 50
0
  1
ＧＲＳＪ－２０Ｗ２５１－Ｂ
  0
TEXT
  8
_0-7_枠細線
 62
    5
 10
1079.75
 20
366.80454176804574
 40
15
 41
0.5666666666666667
 50
0
  1
ＧＲＳＪ－２０Ｗ２５１－Ｇ
  0
TEXT
  8
_0-7_枠細線
 62
    5
 10
1079.75
 20
341.80454176804585
 40
15
 41
0.5666666666666667
 50
0
  1
ＧＲＳＪ－２０Ｗ２５１－Ｓ
  0
TEXT
  8
_0-7_枠細線
 62
    5
 10
1079.75
 20
316.80454176804574
 40
15
 41
0.5666666666666667
 50
0
  1
ＧＲＳＪ－２０Ｗ２５１－Ｐ
  0
TEXT
  8
_0-7_枠細線
 62
    5
 10
1079.75
 20
291.80454176804574
 40
15
 41
0.5666666666666667
 50
0
  1
ＧＲＳＪ－２０Ｗ２５１－Ａ
  0
TEXT
  8
_0-7_枠細線
 62
    5
 10
1079.75
 20
266.80454176804579
 40
15
 41
0.5666666666666667
 50
0
  1
ＧＲＳＪ－２０Ｗ２５１－Ｄ
  0
TEXT
  8
_0-7_枠細線
 62
    5
 10
1079.75
 20
241.80454176804571
 40
15
 41
0.5666666666666667
 50
0
  1
ＧＲＳＪ－２０Ｗ２５１－Ｍ
  0
TEXT
  8
_0-7_枠細線
 62
    5
 10
1226.4999999999998
 20
241.80454176804571
 40
15
 41
0.5999999999999999
 50
0
  1
ウッド
  0
LINE
  8
_0-7_枠細線
  6
CONTINUOUS
 62
    5
 10
1074.9999999999995
 20
186.80454176804531
 11
1374.9999999999998
 21
186.80454176804531
  0
TEXT
  8
_0-7_枠細線
 62
    5
 10
1222.0000000000005
 20
191.80454176804545
 40
15
 41
0.5999999999999999
 50
0
  1
ブラック
  0
TEXT
  8
_0-7_枠細線
 62
    5
 10
1079.75
 20
191.80454176804545
 40
15
 41
0.5666666666666667
 50
0
  1
ＧＲＳＪ－２０Ｗ２５１－Ｋ
  0
LINE
  8
_0-7_枠細線
  6
CONTINUOUS
 62
    5
 10
1195
 20
436.80454176804568
 11
1195
 21
186.80454176804523
  0
LINE
  8
_0-7_枠細線
  6
CONTINUOUS
 62
    5
 10
1284.9999999999998
 20
436.80454176804568
 11
1284.9999999999998
 21
186.80454176804523
  0
LINE
  8
_0-7_枠細線
  6
CONTINUOUS
 62
    5
 10
1374.9999999999998
 20
436.80454176804568
 11
1374.9999999999998
 21
186.80454176804523
  0
LINE
  8
_0-7_枠細線
  6
CONTINUOUS
 62
    5
 10
1074.9999999999995
 20
436.80454176804568
 11
1074.9999999999995
 21
186.80454176804523
  0
TEXT
  8
_0-7_枠細線
 62
    5
 10
1079.7499999999998
 20
216.80454176804574
 40
15
 41
0.5666666666666667
 50
0
  1
ＧＲＳＪ－２０Ｗ２５１－Ｃ
  0
TEXT
  8
_0-7_枠細線
 62
    5
 10
1222
 20
216.80454176804574
 40
15
 41
0.5999999999999999
 50
0
  1
ブラウン
  0
LINE
  8
_0-7_枠細線
  6
CONTINUOUS
 62
    5
 10
1068.6456150812833
 20
217.7817369717809
 11
1061.1456150812833
 21
232.7817369717809
  0
LINE
  8
_0-7_枠細線
  6
CONTINUOUS
 62
    5
 10
1053.6456150812833
 20
217.7817369717809
 11
1068.6456150812833
 21
217.7817369717809
  0
LINE
  8
_0-7_枠細線
  6
CONTINUOUS
 62
    5
 10
1061.1456150812833
 20
232.7817369717809
 11
1053.6456150812833
 21
217.7817369717809
  0
TEXT
  8
_0-7_枠細線
 62
    5
 10
1056.0107663494314
 20
216.83291700693098
 40
12.5
 41
0.8
 50
0
  1
３
  0
LINE
  8
_0-7_枠細線
  6
CONTINUOUS
 62
    5
 10
785.16995454985135
 20
356.80454176804568
 11
785.16995454985135
 21
436.80454176804568
  0
TEXT
  8
_0-7_枠細線
 62
    5
 10
807.66995454985135
 20
414.30454176804568
 40
15
 41
1
 50
0
  1
耐荷重
  0
TEXT
  8
_0-7_枠細線
 62
    5
 10
800.16995454985135
 20
384.30454176804568
 40
15
 41
1
 50
0
  1
3.5kN/㎡
  0
TEXT
  8
_0-7_枠細線
 62
    5
 10
792.66995454985135
 20
364.30454176804568
 40
15
 41
1
 50
0
  1
（歩道用）
  0
LINE
  8
_0-7_枠細線
  6
CONTINUOUS
 62
    5
 10
875.16995454985135
 20
356.80454176804568
 11
875.16995454985135
 21
436.80454176804568
  0
TEXT
  8
_0-7_枠細線
 62
    5
 10
897.66995454985135
 20
414.30454176804568
 40
15
 41
1
 50
0
  1
蓋重量
  0
LINE
  8
_0-7_枠細線
  6
CONTINUOUS
 62
    5
 10
965.16995454985135
 20
356.80454176804568
 11
965.16995454985135
 21
436.80454176804568
  0
TEXT
  8
_0-7_枠細線
 62
    5
 10
987.66995454985135
 20
414.30454176804568
 40
15
 41
1
 50
0
  1
枠重量
  0
LINE
  8
_0-7_枠細線
  6
CONTINUOUS
 62
    5
 10
785.16995454985135
 20
406.80454176804568
 11
1055.1699545498514
 21
406.80454176804568
  0
LINE
  8
_0-7_枠細線
  6
CONTINUOUS
 62
    5
 10
785.16995454985135
 20
436.80454176804568
 11
1055.1699545498514
 21
436.80454176804568
  0
LINE
  8
_0-7_枠細線
  6
CONTINUOUS
 62
    5
 10
785.16995454985135
 20
356.80454176804568
 11
1055.1699545498514
 21
356.80454176804568
  0
LINE
  8
_0-7_枠細線
  6
CONTINUOUS
 62
    5
 10
1055.1699545498514
 20
356.80454176804568
 11
1055.1699545498514
 21
436.80454176804568
  0
TEXT
  8
_0-7_枠細線
 62
    5
 10
938.85037037037023
 20
857.5
 40
12.5
 41
1
 50
0
  1
アンカー材質･厚み変更
  0
LINE
  8
_0-7_枠細線
  6
CONTINUOUS
 62
    5
 10
1425
 20
837.5
 11
890
 21
837.5
  0
TEXT
  8
_0-7_枠細線
 62
    5
 10
938.85037037037023
 20
840
 40
12.5
 41
1
 50
0
  1
取外具形状変更
  0
LINE
  8
_0-7_枠細線
  6
CONTINUOUS
 62
    5
 10
907.5
 20
853.94233397174685
 11
900
 21
838.94233397174685
  0
LINE
  8
_0-7_枠細線
  6
CONTINUOUS
 62
    5
 10
900
 20
838.94233397174685
 11
915
 21
838.94233397174685
  0
LINE
  8
_0-7_枠細線
  6
CONTINUOUS
 62
    5
 10
915
 20
838.94233397174685
 11
907.5
 21
853.94233397174685
  0
TEXT
  8
_0-7_枠細線
 62
    5
 10
1180
 20
840
 40
12.5
 41
0.7199999999999999
 50
0
  1
２０２１．０５．０６
  0
TEXT
  8
_0-7_枠細線
 62
    5
 10
902.36515126814822
 20
838.63533172636664
 40
12.5
 41
0.8
 50
0
  1
５
  0
LINE
  8
_0-7_枠細線
  6
CONTINUOUS
 62
    5
 10
1275
 20
837.5
 11
1275
 21
959.99999999999943
  0
LINE
  8
_0-7_枠細線
  6
CONTINUOUS
 62
    5
 10
1175
 20
837.5
 11
1175
 21
959.99999999999943
  0
LINE
  8
_0-7_枠細線
  6
CONTINUOUS
 62
    5
 10
925
 20
837.5
 11
925
 21
959.99999999999943
  0
LINE
  8
_0-7_枠細線
  6
CONTINUOUS
 62
    5
 10
890
 20
837.5
 11
890
 21
959.99999999999943
  0
LINE
  8
_0-0_計極細
  6
CENTER2
 62
    2
 10
214.27468175977197
 20
610.4935731132091
 11
1245.2080150931492
 21
610.4935731132091
  0
ARC
  8
_0-0_計極細
  6
CONTINUOUS
 62
    2
 10
217.10950245347547
 20
732.99357311320864
 40
11.295514677412786
 50
138.39585046827571
 51
221.60414953172395
  0
ARC
  8
_0-0_計極細
  6
CONTINUOUS
 62
    2
 10
200.2170601401051
 20
717.99357311320728
 40
11.295514677412786
 50
318.39585046827381
 51
41.604149531723962
  0
ARC
  8
_0-0_計極細
  6
CONTINUOUS
 62
    2
 10
217.10950245347547
 20
502.9935731132087
 40
11.295514677412786
 50
138.39585046827571
 51
221.60414953172395
  0
ARC
  8
_0-0_計極細
  6
CONTINUOUS
 62
    2
 10
200.2170601401051
 20
487.99357311320733
 40
11.295514677412786
 50
318.39585046827534
 51
41.604149531723962
  0
LINE
  8
_0-1_計細線
  6
CONTINUOUS
 62
    3
 10
208.66328129678934
 20
740.49357311320864
 11
1250.663281296791
 21
740.49357311320864
  0
LINE
  8
_0-1_計細線
  6
CONTINUOUS
 62
    3
 10
1250.663281296791
 20
480.49357311321
 11
208.66328129678982
 21
480.49357311321
  0
ARC
  8
_0-0_計極細
  6
CONTINUOUS
 62
    2
 10
1259.1095024534766
 20
732.99357311320864
 40
11.295514677412786
 50
138.39585046827494
 51
221.60414953172469
  0
ARC
  8
_0-0_計極細
  6
CONTINUOUS
 62
    2
 10
1242.217060140106
 20
717.99357311320728
 40
11.295514677412786
 50
318.39585046827455
 51
41.604149531724723
  0
ARC
  8
_0-0_計極細
  6
CONTINUOUS
 62
    2
 10
1259.1095024534766
 20
502.9935731132087
 40
11.295514677412786
 50
138.39585046827494
 51
221.60414953172469
  0
ARC
  8
_0-0_計極細
  6
CONTINUOUS
 62
    2
 10
1242.217060140106
 20
487.99357311320733
 40
11.295514677412786
 50
318.39585046827455
 51
41.604149531724723
  0
LINE
  8
_0-1_計細線
  6
CONTINUOUS
 62
    3
 10
206.7490655984173
 20
737.49357311320864
 11
1248.7490655984184
 21
737.49357311320864
  0
LINE
  8
_0-1_計細線
  6
CONTINUOUS
 62
    3
 10
1252.5774969951656
 20
483.49357311321
 11
210.57749699516563
 21
483.49357311321
  0
LINE
  8
_0-5_寸法線
  6
CONTINUOUS
 62
    7
 10
198.66328129678934
 20
740.49357311320864
 11
153.66328129679482
 21
740.49357311320864
  0
LINE
  8
_0-5_寸法線
  6
CONTINUOUS
 62
    7
 10
158.66328129679482
 20
740.49357311320864
 11
161.25147174782001
 21
730.83431485031792
  0
LINE
  8
_0-5_寸法線
  6
CONTINUOUS
 62
    7
 10
158.66328129679482
 20
740.49357311320864
 11
156.07509084576961
 21
730.83431485031792
  0
LINE
  8
_0-5_寸法線
  6
CONTINUOUS
 62
    7
 10
198.66328129679209
 20
710.49357311320864
 11
153.66328129679482
 21
710.49357311320864
  0
LINE
  8
_0-5_寸法線
  6
CONTINUOUS
 62
    7
 10
158.66328129679482
 20
710.49357311320864
 11
156.07509084576961
 21
720.15283137609936
  0
LINE
  8
_0-5_寸法線
  6
CONTINUOUS
 62
    7
 10
158.66328129679482
 20
710.49357311320864
 11
161.25147174782001
 21
720.15283137609936
  0
LINE
  8
_0-5_寸法線
  6
CONTINUOUS
 62
    7
 10
158.66328129679482
 20
740.49357311320864
 11
158.66328129679482
 21
710.49357311320864
  0
TEXT
  8
_0-5_寸法線
 62
    7
 10
158.66328129679482
 20
717.99357311320864
 40
15
 41
1
 50
90
  1
30
  0
LINE
  8
_0-5_寸法線
  6
CONTINUOUS
 62
    7
 10
158.66328129679482
 20
710.49357311320864
 11
161.25147174782001
 21
700.83431485031792
  0
LINE
  8
_0-5_寸法線
  6
CONTINUOUS
 62
    7
 10
158.66328129679482
 20
710.49357311320864
 11
156.07509084576961
 21
700.83431485031792
  0
LINE
  8
_0-5_寸法線
  6
CONTINUOUS
 62
    7
 10
198.66328129678982
 20
510.49357311320875
 11
153.66328129679482
 21
510.4935731132087
  0
LINE
  8
_0-5_寸法線
  6
CONTINUOUS
 62
    7
 10
158.66328129679482
 20
510.4935731132087
 11
156.07509084576961
 21
520.15283137609936
  0
LINE
  8
_0-5_寸法線
  6
CONTINUOUS
 62
    7
 10
158.66328129679482
 20
510.4935731132087
 11
161.25147174782001
 21
520.15283137609936
  0
LINE
  8
_0-5_寸法線
  6
CONTINUOUS
 62
    7
 10
158.66328129679482
 20
710.49357311320864
 11
158.66328129679482
 21
510.4935731132087
  0
TEXT
  8
_0-5_寸法線
 62
    7
 10
158.66328129679482
 20
599.24357311320864
 40
15
 41
1
 50
89.999999999999815
  1
200
  0
LINE
  8
_0-5_寸法線
  6
CONTINUOUS
 62
    7
 10
158.66328129679482
 20
510.4935731132087
 11
161.25147174782001
 21
500.83431485031792
  0
LINE
  8
_0-5_寸法線
  6
CONTINUOUS
 62
    7
 10
158.66328129679482
 20
510.4935731132087
 11
156.07509084576961
 21
500.83431485031804
  0
LINE
  8
_0-5_寸法線
  6
CONTINUOUS
 62
    7
 10
198.66328129679488
 20
480.49357311321188
 11
153.66328129679482
 21
480.49357311321188
  0
LINE
  8
_0-5_寸法線
  6
CONTINUOUS
 62
    7
 10
158.66328129679482
 20
480.49357311321188
 11
156.07509084576961
 21
490.15283137610254
  0
LINE
  8
_0-5_寸法線
  6
CONTINUOUS
 62
    7
 10
158.66328129679482
 20
480.49357311321188
 11
161.25147174782001
 21
490.15283137610254
  0
LINE
  8
_0-5_寸法線
  6
CONTINUOUS
 62
    7
 10
158.66328129679482
 20
510.4935731132087
 11
158.66328129679482
 21
480.49357311321188
  0
TEXT
  8
_0-5_寸法線
 62
    7
 10
158.66328129679482
 20
487.99357311321
 40
15
 41
1
 50
90
  1
30
  0
LINE
  8
_0-5_寸法線
  6
CONTINUOUS
 62
    7
 10
1260.663281296791
 20
740.49357311320864
 11
1340.66328129679
 21
740.49357311320864
  0
LINE
  8
_0-5_寸法線
  6
CONTINUOUS
 62
    7
 10
1335.66328129679
 20
740.49357311320864
 11
1338.251471747815
 21
730.83431485031792
  0
LINE
  8
_0-5_寸法線
  6
CONTINUOUS
 62
    7
 10
1335.66328129679
 20
740.49357311320864
 11
1333.0750908457649
 21
730.83431485031792
  0
LINE
  8
_0-5_寸法線
  6
CONTINUOUS
 62
    7
 10
1260.66328129679
 20
480.49357311320506
 11
1340.6632812967903
 21
480.49357311320506
  0
LINE
  8
_0-5_寸法線
  6
CONTINUOUS
 62
    7
 10
1335.6632812967903
 20
480.49357311320506
 11
1333.0750908457649
 21
490.15283137609572
  0
LINE
  8
_0-5_寸法線
  6
CONTINUOUS
 62
    7
 10
1335.6632812967903
 20
480.49357311320506
 11
1338.2514717478152
 21
490.15283137609572
  0
LINE
  8
_0-5_寸法線
  6
CONTINUOUS
 62
    7
 10
1335.66328129679
 20
740.49357311320864
 11
1335.6632812967903
 21
480.49357311320506
  0
TEXT
  8
_0-5_寸法線
 62
    7
 10
1335.6632812967903
 20
599.24357311320682
 40
15
 41
1
 50
90
  1
260
  0
LINE
  8
_0-1_計細線
  6
CONTINUOUS
 62
    3
 10
208.66328129678934
 20
710.49357311320864
 11
230.16328129679124
 21
710.49357311320864
  0
LINE
  8
_0-1_計細線
  6
CONTINUOUS
 62
    3
 10
208.66328129678982
 20
510.49357311321
 11
230.16328129679124
 21
510.49357311321
  0
LINE
  8
_0-1_計細線
  6
CONTINUOUS
 62
    3
 10
1229.1632812967914
 20
510.49357311321
 11
1250.663281296791
 21
510.49357311321
  0
LINE
  8
_0-1_計細線
  6
CONTINUOUS
 62
    3
 10
1229.1632812967914
 20
710.49357311320864
 11
1250.663281296791
 21
710.49357311320864
  0
LINE
  8
_0-1_計細線
  6
CONTINUOUS
 62
    3
 10
1229.1632812967916
 20
484.99357311321006
 11
1229.1632812967907
 21
735.99357311320875
  0
LINE
  8
_0-1_計細線
  6
CONTINUOUS
 62
    3
 10
1217.7632812967911
 20
484.99357311321006
 11
1217.7632812967904
 21
735.99357311320875
  0
LINE
  8
_0-1_計細線
  6
CONTINUOUS
 62
    3
 10
1229.1632812967916
 20
484.99357311321006
 11
1217.7632812967911
 21
484.99357311321006
  0
LINE
  8
_0-1_計細線
  6
CONTINUOUS
 62
    3
 10
1229.1632812967907
 20
735.99357311320875
 11
1217.7632812967904
 21
735.99357311320875
  0
LINE
  8
_0-0_計極細
  6
CONTINUOUS
 62
    2
 10
1220.9632812967914
 20
484.99357311321006
 11
1220.9632812967905
 21
735.99357311320875
  0
LINE
  8
_0-0_計極細
  6
CONTINUOUS
 62
    2
 10
1225.9632812967914
 20
484.99357311321006
 11
1225.9632812967905
 21
735.99357311320875
  0
LINE
  8
_0-1_計細線
  6
CONTINUOUS
 62
    3
 10
1195.1632812967907
 20
484.99357311321006
 11
1195.1632812967898
 21
735.99357311320875
  0
LINE
  8
_0-1_計細線
  6
CONTINUOUS
 62
    3
 10
1183.7632812967902
 20
484.99357311321046
 11
1183.7632812967895
 21
735.99357311320875
  0
LINE
  8
_0-1_計細線
  6
CONTINUOUS
 62
    3
 10
1195.1632812967907
 20
484.99357311321006
 11
1183.7632812967902
 21
484.99357311321046
  0
LINE
  8
_0-1_計細線
  6
CONTINUOUS
 62
    3
 10
1195.1632812967898
 20
735.99357311320875
 11
1183.7632812967895
 21
735.99357311320875
  0
LINE
  8
_0-0_計極細
  6
CONTINUOUS
 62
    2
 10
1186.9632812967911
 20
484.99357311321046
 11
1186.96328129679
 21
735.99357311320875
  0
LINE
  8
_0-0_計極細
  6
CONTINUOUS
 62
    2
 10
1191.9632812967911
 20
484.99357311321006
 11
1191.96328129679
 21
735.99357311320875
  0
LINE
  8
_0-1_計細線
  6
CONTINUOUS
 62
    3
 10
1178.1632812967905
 20
484.99357311321046
 11
1178.1632812967891
 21
735.99357311320875
  0
LINE
  8
_0-1_計細線
  6
CONTINUOUS
 62
    3
 10
1166.76328129679
 20
484.99357311321046
 11
1166.7632812967886
 21
735.99357311320875
  0
LINE
  8
_0-1_計細線
  6
CONTINUOUS
 62
    3
 10
1178.1632812967905
 20
484.99357311321046
 11
1166.76328129679
 21
484.99357311321046
  0
LINE
  8
_0-1_計細線
  6
CONTINUOUS
 62
    3
 10
1178.1632812967891
 20
735.99357311320875
 11
1166.7632812967886
 21
735.99357311320875
  0
LINE
  8
_0-0_計極細
  6
CONTINUOUS
 62
    2
 10
1169.9632812967902
 20
484.99357311321046
 11
1169.9632812967889
 21
735.99357311320875
  0
LINE
  8
_0-0_計極細
  6
CONTINUOUS
 62
    2
 10
1174.9632812967902
 20
484.99357311321046
 11
1174.9632812967889
 21
735.99357311320875
  0
LINE
  8
_0-1_計細線
  6
CONTINUOUS
 62
    3
 10
1115.7632812967927
 20
484.99357311321046
 11
1115.7632812967918
 21
735.99357311320875
  0
LINE
  8
_0-1_計細線
  6
CONTINUOUS
 62
    3
 10
1127.1632812967932
 20
484.99357311321006
 11
1127.1632812967923
 21
735.99357311320875
  0
LINE
  8
_0-1_計細線
  6
CONTINUOUS
 62
    3
 10
1115.7632812967927
 20
484.99357311321046
 11
1127.1632812967932
 21
484.99357311321006
  0
LINE
  8
_0-1_計細線
  6
CONTINUOUS
 62
    3
 10
1115.7632812967918
 20
735.99357311320875
 11
1127.1632812967923
 21
735.99357311320875
  0
LINE
  8
_0-0_計極細
  6
CONTINUOUS
 62
    2
 10
1123.9632812967925
 20
484.99357311321006
 11
1123.9632812967916
 21
735.99357311320875
  0
LINE
  8
_0-0_計極細
  6
CONTINUOUS
 62
    2
 10
1118.9632812967925
 20
484.99357311321046
 11
1118.9632812967916
 21
735.99357311320875
  0
LINE
  8
_0-1_計細線
  6
CONTINUOUS
 62
    3
 10
1098.7632812967918
 20
484.99357311321046
 11
1098.7632812967904
 21
735.99357311320875
  0
LINE
  8
_0-1_計細線
  6
CONTINUOUS
 62
    3
 10
1110.1632812967923
 20
484.99357311321046
 11
1110.163281296791
 21
735.99357311320875
  0
LINE
  8
_0-1_計細線
  6
CONTINUOUS
 62
    3
 10
1098.7632812967918
 20
484.99357311321046
 11
1110.1632812967923
 21
484.99357311321046
  0
LINE
  8
_0-1_計細線
  6
CONTINUOUS
 62
    3
 10
1098.7632812967904
 20
735.99357311320875
 11
1110.163281296791
 21
735.99357311320875
  0
LINE
  8
_0-0_計極細
  6
CONTINUOUS
 62
    2
 10
1106.963281296792
 20
484.99357311321046
 11
1106.9632812967907
 21
735.99357311320875
  0
LINE
  8
_0-0_計極細
  6
CONTINUOUS
 62
    2
 10
1101.963281296792
 20
484.99357311321046
 11
1101.9632812967907
 21
735.99357311320875
  0
LINE
  8
_0-1_計細線
  6
CONTINUOUS
 62
    3
 10
1081.7632812967918
 20
484.99357311321046
 11
1081.7632812967909
 21
735.99357311320875
  0
LINE
  8
_0-1_計細線
  6
CONTINUOUS
 62
    3
 10
1093.1632812967923
 20
484.99357311321046
 11
1093.1632812967914
 21
735.99357311320875
  0
LINE
  8
_0-1_計細線
  6
CONTINUOUS
 62
    3
 10
1081.7632812967918
 20
484.99357311321046
 11
1093.1632812967923
 21
484.99357311321046
  0
LINE
  8
_0-1_計細線
  6
CONTINUOUS
 62
    3
 10
1081.7632812967909
 20
735.99357311320875
 11
1093.1632812967914
 21
735.99357311320875
  0
LINE
  8
_0-0_計極細
  6
CONTINUOUS
 62
    2
 10
1089.963281296792
 20
484.99357311321046
 11
1089.9632812967911
 21
735.99357311320875
  0
LINE
  8
_0-0_計極細
  6
CONTINUOUS
 62
    2
 10
1084.963281296792
 20
484.99357311321046
 11
1084.9632812967911
 21
735.99357311320875
  0
LINE
  8
_0-1_計細線
  6
CONTINUOUS
 62
    3
 10
1076.1632812967928
 20
484.99357311321006
 11
1076.1632812967914
 21
735.99357311320875
  0
LINE
  8
_0-1_計細線
  6
CONTINUOUS
 62
    3
 10
1064.7632812967922
 20
484.99357311321006
 11
1064.7632812967909
 21
735.99357311320875
  0
LINE
  8
_0-1_計細線
  6
CONTINUOUS
 62
    3
 10
1076.1632812967928
 20
484.99357311321006
 11
1064.7632812967922
 21
484.99357311321006
  0
LINE
  8
_0-1_計細線
  6
CONTINUOUS
 62
    3
 10
1076.1632812967914
 20
735.99357311320875
 11
1064.7632812967909
 21
735.99357311320875
  0
LINE
  8
_0-0_計極細
  6
CONTINUOUS
 62
    2
 10
1067.9632812967925
 20
484.99357311321006
 11
1067.9632812967911
 21
735.99357311320875
  0
LINE
  8
_0-0_計極細
  6
CONTINUOUS
 62
    2
 10
1072.9632812967925
 20
484.99357311321006
 11
1072.9632812967911
 21
735.99357311320875
  0
LINE
  8
_0-1_計細線
  6
CONTINUOUS
 62
    3
 10
1212.1632812967932
 20
484.99357311321006
 11
1212.1632812967919
 21
735.99357311320875
  0
LINE
  8
_0-1_計細線
  6
CONTINUOUS
 62
    3
 10
1200.7632812967925
 20
484.99357311321046
 11
1200.7632812967913
 21
735.99357311320875
  0
LINE
  8
_0-1_計細線
  6
CONTINUOUS
 62
    3
 10
1212.1632812967932
 20
484.99357311321006
 11
1200.7632812967925
 21
484.99357311321046
  0
LINE
  8
_0-1_計細線
  6
CONTINUOUS
 62
    3
 10
1212.1632812967919
 20
735.99357311320875
 11
1200.7632812967913
 21
735.99357311320875
  0
LINE
  8
_0-0_計極細
  6
CONTINUOUS
 62
    2
 10
1203.9632812967932
 20
484.99357311321046
 11
1203.963281296792
 21
735.99357311320875
  0
LINE
  8
_0-0_計極細
  6
CONTINUOUS
 62
    2
 10
1208.9632812967932
 20
484.99357311321006
 11
1208.963281296792
 21
735.99357311320875
  0
LINE
  8
_0-1_計細線
  6
CONTINUOUS
 62
    3
 10
1059.1632812967928
 20
484.99357311321006
 11
1059.1632812967919
 21
735.99357311320875
  0
LINE
  8
_0-1_計細線
  6
CONTINUOUS
 62
    3
 10
1047.7632812967922
 20
484.99357311321006
 11
1047.7632812967913
 21
735.99357311320875
  0
LINE
  8
_0-1_計細線
  6
CONTINUOUS
 62
    3
 10
1059.1632812967928
 20
484.99357311321006
 11
1047.7632812967922
 21
484.99357311321006
  0
LINE
  8
_0-1_計細線
  6
CONTINUOUS
 62
    3
 10
1059.1632812967919
 20
735.99357311320875
 11
1047.7632812967913
 21
735.99357311320875
  0
LINE
  8
_0-0_計極細
  6
CONTINUOUS
 62
    2
 10
1050.9632812967925
 20
484.99357311321006
 11
1050.9632812967916
 21
735.99357311320875
  0
LINE
  8
_0-0_計極細
  6
CONTINUOUS
 62
    2
 10
1055.9632812967925
 20
484.99357311321006
 11
1055.9632812967916
 21
735.99357311320875
  0
LINE
  8
_0-1_計細線
  6
CONTINUOUS
 62
    3
 10
1042.1632812967928
 20
484.99357311321006
 11
1042.1632812967919
 21
735.99357311320875
  0
LINE
  8
_0-1_計細線
  6
CONTINUOUS
 62
    3
 10
1030.7632812967922
 20
484.99357311321006
 11
1030.7632812967913
 21
735.99357311320875
  0
LINE
  8
_0-1_計細線
  6
CONTINUOUS
 62
    3
 10
1042.1632812967928
 20
484.99357311321006
 11
1030.7632812967922
 21
484.99357311321006
  0
LINE
  8
_0-1_計細線
  6
CONTINUOUS
 62
    3
 10
1042.1632812967919
 20
735.99357311320875
 11
1030.7632812967913
 21
735.99357311320875
  0
LINE
  8
_0-0_計極細
  6
CONTINUOUS
 62
    2
 10
1033.9632812967925
 20
484.99357311321006
 11
1033.9632812967916
 21
735.99357311320875
  0
LINE
  8
_0-0_計極細
  6
CONTINUOUS
 62
    2
 10
1038.9632812967925
 20
484.99357311321006
 11
1038.9632812967916
 21
735.99357311320875
  0
LINE
  8
_0-1_計細線
  6
CONTINUOUS
 62
    3
 10
1025.1632812967928
 20
484.99357311321006
 11
1025.1632812967919
 21
735.99357311320875
  0
LINE
  8
_0-1_計細線
  6
CONTINUOUS
 62
    3
 10
1013.7632812967922
 20
484.99357311321006
 11
1013.7632812967912
 21
735.99357311320875
  0
LINE
  8
_0-1_計細線
  6
CONTINUOUS
 62
    3
 10
1025.1632812967928
 20
484.99357311321006
 11
1013.7632812967922
 21
484.99357311321006
  0
LINE
  8
_0-1_計細線
  6
CONTINUOUS
 62
    3
 10
1025.1632812967919
 20
735.99357311320875
 11
1013.7632812967912
 21
735.99357311320875
  0
LINE
  8
_0-0_計極細
  6
CONTINUOUS
 62
    2
 10
1016.9632812967926
 20
484.99357311321006
 11
1016.9632812967916
 21
735.99357311320875
  0
LINE
  8
_0-0_計極細
  6
CONTINUOUS
 62
    2
 10
1021.9632812967926
 20
484.99357311321006
 11
1021.9632812967916
 21
735.99357311320875
  0
LINE
  8
_0-1_計細線
  6
CONTINUOUS
 62
    3
 10
1008.1632812967928
 20
484.99357311321006
 11
1008.1632812967918
 21
735.99357311320875
  0
LINE
  8
_0-1_計細線
  6
CONTINUOUS
 62
    3
 10
996.76328129679234
 20
484.99357311321006
 11
996.76328129679121
 21
735.99357311320875
  0
LINE
  8
_0-1_計細線
  6
CONTINUOUS
 62
    3
 10
1008.1632812967928
 20
484.99357311321006
 11
996.76328129679234
 21
484.99357311321006
  0
LINE
  8
_0-1_計細線
  6
CONTINUOUS
 62
    3
 10
1008.1632812967918
 20
735.99357311320875
 11
996.76328129679121
 21
735.99357311320875
  0
LINE
  8
_0-0_計極細
  6
CONTINUOUS
 62
    2
 10
999.9632812967925
 20
484.99357311321006
 11
999.96328129679159
 21
735.99357311320875
  0
LINE
  8
_0-0_計極細
  6
CONTINUOUS
 62
    2
 10
1004.9632812967925
 20
484.99357311321006
 11
1004.9632812967916
 21
735.99357311320875
  0
LINE
  8
_0-1_計細線
  6
CONTINUOUS
 62
    3
 10
991.16328129679289
 20
484.99357311321006
 11
991.16328129679175
 21
735.99357311320875
  0
LINE
  8
_0-1_計細線
  6
CONTINUOUS
 62
    3
 10
979.76328129679234
 20
484.99357311321006
 11
979.76328129679132
 21
735.99357311320875
  0
LINE
  8
_0-1_計細線
  6
CONTINUOUS
 62
    3
 10
991.16328129679289
 20
484.99357311321006
 11
979.76328129679234
 21
484.99357311321006
  0
LINE
  8
_0-1_計細線
  6
CONTINUOUS
 62
    3
 10
991.16328129679175
 20
735.99357311320875
 11
979.76328129679132
 21
735.99357311320875
  0
LINE
  8
_0-0_計極細
  6
CONTINUOUS
 62
    2
 10
982.9632812967925
 20
484.99357311321006
 11
982.96328129679159
 21
735.99357311320875
  0
LINE
  8
_0-0_計極細
  6
CONTINUOUS
 62
    2
 10
987.9632812967925
 20
484.99357311321006
 11
987.96328129679159
 21
735.99357311320875
  0
LINE
  8
_0-1_計細線
  6
CONTINUOUS
 62
    3
 10
974.16328129679289
 20
484.99357311321006
 11
974.16328129679187
 21
735.99357311320875
  0
LINE
  8
_0-1_計細線
  6
CONTINUOUS
 62
    3
 10
962.76328129679223
 20
484.99357311321006
 11
962.76328129679132
 21
735.99357311320875
  0
LINE
  8
_0-1_計細線
  6
CONTINUOUS
 62
    3
 10
974.16328129679289
 20
484.99357311321006
 11
962.76328129679223
 21
484.99357311321006
  0
LINE
  8
_0-1_計細線
  6
CONTINUOUS
 62
    3
 10
974.16328129679187
 20
735.99357311320875
 11
962.76328129679132
 21
735.99357311320875
  0
LINE
  8
_0-0_計極細
  6
CONTINUOUS
 62
    2
 10
965.9632812967925
 20
484.99357311321006
 11
965.96328129679148
 21
735.99357311320875
  0
LINE
  8
_0-0_計極細
  6
CONTINUOUS
 62
    2
 10
970.9632812967925
 20
484.99357311321006
 11
970.96328129679148
 21
735.99357311320875
  0
LINE
  8
_0-1_計細線
  6
CONTINUOUS
 62
    3
 10
957.16328129679277
 20
484.99357311321006
 11
957.16328129679187
 21
735.99357311320875
  0
LINE
  8
_0-1_計細線
  6
CONTINUOUS
 62
    3
 10
945.76328129679223
 20
484.99357311321006
 11
945.76328129679132
 21
735.99357311320875
  0
LINE
  8
_0-1_計細線
  6
CONTINUOUS
 62
    3
 10
957.16328129679277
 20
484.99357311321006
 11
945.76328129679223
 21
484.99357311321006
  0
LINE
  8
_0-1_計細線
  6
CONTINUOUS
 62
    3
 10
957.16328129679187
 20
735.99357311320875
 11
945.76328129679132
 21
735.99357311320875
  0
LINE
  8
_0-0_計極細
  6
CONTINUOUS
 62
    2
 10
948.96328129679262
 20
484.99357311321006
 11
948.96328129679148
 21
735.99357311320875
  0
LINE
  8
_0-0_計極細
  6
CONTINUOUS
 62
    2
 10
953.96328129679262
 20
484.99357311321006
 11
953.96328129679148
 21
735.99357311320875
  0
LINE
  8
_0-1_計細線
  6
CONTINUOUS
 62
    3
 10
940.16328129679277
 20
484.99357311321006
 11
940.16328129679187
 21
735.99357311320875
  0
LINE
  8
_0-1_計細線
  6
CONTINUOUS
 62
    3
 10
928.76328129679223
 20
484.99357311321006
 11
928.76328129679121
 21
735.99357311320875
  0
LINE
  8
_0-1_計細線
  6
CONTINUOUS
 62
    3
 10
940.16328129679277
 20
484.99357311321006
 11
928.76328129679223
 21
484.99357311321006
  0
LINE
  8
_0-1_計細線
  6
CONTINUOUS
 62
    3
 10
940.16328129679187
 20
735.99357311320875
 11
928.76328129679121
 21
735.99357311320875
  0
LINE
  8
_0-0_計極細
  6
CONTINUOUS
 62
    2
 10
931.96328129679262
 20
484.99357311321006
 11
931.96328129679159
 21
735.99357311320875
  0
LINE
  8
_0-0_計極細
  6
CONTINUOUS
 62
    2
 10
936.96328129679262
 20
484.99357311321006
 11
936.96328129679159
 21
735.99357311320875
  0
LINE
  8
_0-1_計細線
  6
CONTINUOUS
 62
    3
 10
923.16328129679277
 20
484.99357311321006
 11
923.16328129679175
 21
735.99357311320875
  0
LINE
  8
_0-1_計細線
  6
CONTINUOUS
 62
    3
 10
911.76328129679234
 20
484.99357311321006
 11
911.76328129679121
 21
735.99357311320875
  0
LINE
  8
_0-1_計細線
  6
CONTINUOUS
 62
    3
 10
923.16328129679277
 20
484.99357311321006
 11
911.76328129679234
 21
484.99357311321006
  0
LINE
  8
_0-1_計細線
  6
CONTINUOUS
 62
    3
 10
923.16328129679175
 20
735.99357311320875
 11
911.76328129679121
 21
735.99357311320875
  0
LINE
  8
_0-0_計極細
  6
CONTINUOUS
 62
    2
 10
914.9632812967925
 20
484.99357311321006
 11
914.96328129679159
 21
735.99357311320875
  0
LINE
  8
_0-0_計極細
  6
CONTINUOUS
 62
    2
 10
919.9632812967925
 20
484.99357311321006
 11
919.96328129679159
 21
735.99357311320875
  0
LINE
  8
_0-1_計細線
  6
CONTINUOUS
 62
    3
 10
906.16328129679289
 20
484.99357311321006
 11
906.16328129679175
 21
735.99357311320875
  0
LINE
  8
_0-1_計細線
  6
CONTINUOUS
 62
    3
 10
894.76328129679234
 20
484.99357311321006
 11
894.76328129679132
 21
735.99357311320875
  0
LINE
  8
_0-1_計細線
  6
CONTINUOUS
 62
    3
 10
906.16328129679289
 20
484.99357311321006
 11
894.76328129679234
 21
484.99357311321006
  0
LINE
  8
_0-1_計細線
  6
CONTINUOUS
 62
    3
 10
906.16328129679175
 20
735.99357311320875
 11
894.76328129679132
 21
735.99357311320875
  0
LINE
  8
_0-0_計極細
  6
CONTINUOUS
 62
    2
 10
897.9632812967925
 20
484.99357311321006
 11
897.96328129679159
 21
735.99357311320875
  0
LINE
  8
_0-0_計極細
  6
CONTINUOUS
 62
    2
 10
902.9632812967925
 20
484.99357311321006
 11
902.96328129679159
 21
735.99357311320875
  0
LINE
  8
_0-1_計細線
  6
CONTINUOUS
 62
    3
 10
889.16328129679289
 20
484.99357311321006
 11
889.16328129679187
 21
735.99357311320875
  0
LINE
  8
_0-1_計細線
  6
CONTINUOUS
 62
    3
 10
877.76328129679223
 20
484.99357311321006
 11
877.76328129679132
 21
735.99357311320875
  0
LINE
  8
_0-1_計細線
  6
CONTINUOUS
 62
    3
 10
889.16328129679289
 20
484.99357311321006
 11
877.76328129679223
 21
484.99357311321006
  0
LINE
  8
_0-1_計細線
  6
CONTINUOUS
 62
    3
 10
889.16328129679187
 20
735.99357311320875
 11
877.76328129679132
 21
735.99357311320875
  0
LINE
  8
_0-0_計極細
  6
CONTINUOUS
 62
    2
 10
880.9632812967925
 20
484.99357311321006
 11
880.96328129679148
 21
735.99357311320875
  0
LINE
  8
_0-0_計極細
  6
CONTINUOUS
 62
    2
 10
885.9632812967925
 20
484.99357311321006
 11
885.96328129679148
 21
735.99357311320875
  0
LINE
  8
_0-1_計細線
  6
CONTINUOUS
 62
    3
 10
872.16328129679277
 20
484.99357311321006
 11
872.16328129679187
 21
735.99357311320875
  0
LINE
  8
_0-1_計細線
  6
CONTINUOUS
 62
    3
 10
860.76328129679223
 20
484.99357311321006
 11
860.76328129679132
 21
735.99357311320875
  0
LINE
  8
_0-1_計細線
  6
CONTINUOUS
 62
    3
 10
872.16328129679277
 20
484.99357311321006
 11
860.76328129679223
 21
484.99357311321006
  0
LINE
  8
_0-1_計細線
  6
CONTINUOUS
 62
    3
 10
872.16328129679187
 20
735.99357311320875
 11
860.76328129679132
 21
735.99357311320875
  0
LINE
  8
_0-0_計極細
  6
CONTINUOUS
 62
    2
 10
863.96328129679262
 20
484.99357311321006
 11
863.96328129679148
 21
735.99357311320875
  0
LINE
  8
_0-0_計極細
  6
CONTINUOUS
 62
    2
 10
868.96328129679262
 20
484.99357311321006
 11
868.96328129679148
 21
735.99357311320875
  0
LINE
  8
_0-1_計細線
  6
CONTINUOUS
 62
    3
 10
855.16328129679277
 20
484.99357311321006
 11
855.16328129679187
 21
735.99357311320875
  0
LINE
  8
_0-1_計細線
  6
CONTINUOUS
 62
    3
 10
843.76328129679223
 20
484.99357311321006
 11
843.76328129679121
 21
735.99357311320875
  0
LINE
  8
_0-1_計細線
  6
CONTINUOUS
 62
    3
 10
855.16328129679277
 20
484.99357311321006
 11
843.76328129679223
 21
484.99357311321006
  0
LINE
  8
_0-1_計細線
  6
CONTINUOUS
 62
    3
 10
855.16328129679187
 20
735.99357311320875
 11
843.76328129679121
 21
735.99357311320875
  0
LINE
  8
_0-0_計極細
  6
CONTINUOUS
 62
    2
 10
846.96328129679262
 20
484.99357311321006
 11
846.96328129679159
 21
735.99357311320875
  0
LINE
  8
_0-0_計極細
  6
CONTINUOUS
 62
    2
 10
851.96328129679262
 20
484.99357311321006
 11
851.96328129679159
 21
735.99357311320875
  0
LINE
  8
_0-1_計細線
  6
CONTINUOUS
 62
    3
 10
838.16328129679277
 20
484.99357311321006
 11
838.16328129679175
 21
735.99357311320875
  0
LINE
  8
_0-1_計細線
  6
CONTINUOUS
 62
    3
 10
826.76328129679234
 20
484.99357311321006
 11
826.76328129679121
 21
735.99357311320875
  0
LINE
  8
_0-1_計細線
  6
CONTINUOUS
 62
    3
 10
838.16328129679277
 20
484.99357311321006
 11
826.76328129679234
 21
484.99357311321006
  0
LINE
  8
_0-1_計細線
  6
CONTINUOUS
 62
    3
 10
838.16328129679175
 20
735.99357311320875
 11
826.76328129679121
 21
735.99357311320875
  0
LINE
  8
_0-0_計極細
  6
CONTINUOUS
 62
    2
 10
829.9632812967925
 20
484.99357311321006
 11
829.96328129679159
 21
735.99357311320875
  0
LINE
  8
_0-0_計極細
  6
CONTINUOUS
 62
    2
 10
834.9632812967925
 20
484.99357311321006
 11
834.96328129679159
 21
735.99357311320875
  0
LINE
  8
_0-1_計細線
  6
CONTINUOUS
 62
    3
 10
821.16328129679289
 20
484.99357311321006
 11
821.16328129679175
 21
735.99357311320875
  0
LINE
  8
_0-1_計細線
  6
CONTINUOUS
 62
    3
 10
809.76328129679234
 20
484.99357311321006
 11
809.76328129679132
 21
735.99357311320875
  0
LINE
  8
_0-1_計細線
  6
CONTINUOUS
 62
    3
 10
821.16328129679289
 20
484.99357311321006
 11
809.76328129679234
 21
484.99357311321006
  0
LINE
  8
_0-1_計細線
  6
CONTINUOUS
 62
    3
 10
821.16328129679175
 20
735.99357311320875
 11
809.76328129679132
 21
735.99357311320875
  0
LINE
  8
_0-0_計極細
  6
CONTINUOUS
 62
    2
 10
812.9632812967925
 20
484.99357311321006
 11
812.96328129679159
 21
735.99357311320875
  0
LINE
  8
_0-0_計極細
  6
CONTINUOUS
 62
    2
 10
817.9632812967925
 20
484.99357311321006
 11
817.96328129679159
 21
735.99357311320875
  0
LINE
  8
_0-1_計細線
  6
CONTINUOUS
 62
    3
 10
804.16328129679289
 20
484.99357311321006
 11
804.16328129679187
 21
735.99357311320875
  0
LINE
  8
_0-1_計細線
  6
CONTINUOUS
 62
    3
 10
792.76328129679223
 20
484.99357311321006
 11
792.76328129679132
 21
735.99357311320875
  0
LINE
  8
_0-1_計細線
  6
CONTINUOUS
 62
    3
 10
804.16328129679289
 20
484.99357311321006
 11
792.76328129679223
 21
484.99357311321006
  0
LINE
  8
_0-1_計細線
  6
CONTINUOUS
 62
    3
 10
804.16328129679187
 20
735.99357311320875
 11
792.76328129679132
 21
735.99357311320875
  0
LINE
  8
_0-0_計極細
  6
CONTINUOUS
 62
    2
 10
795.9632812967925
 20
484.99357311321006
 11
795.96328129679148
 21
735.99357311320875
  0
LINE
  8
_0-0_計極細
  6
CONTINUOUS
 62
    2
 10
800.9632812967925
 20
484.99357311321006
 11
800.96328129679148
 21
735.99357311320875
  0
LINE
  8
_0-1_計細線
  6
CONTINUOUS
 62
    3
 10
787.16328129679277
 20
484.99357311321006
 11
787.16328129679187
 21
735.99357311320875
  0
LINE
  8
_0-1_計細線
  6
CONTINUOUS
 62
    3
 10
775.76328129679223
 20
484.99357311321006
 11
775.76328129679132
 21
735.99357311320875
  0
LINE
  8
_0-1_計細線
  6
CONTINUOUS
 62
    3
 10
787.16328129679277
 20
484.99357311321006
 11
775.76328129679223
 21
484.99357311321006
  0
LINE
  8
_0-1_計細線
  6
CONTINUOUS
 62
    3
 10
787.16328129679187
 20
735.99357311320875
 11
775.76328129679132
 21
735.99357311320875
  0
LINE
  8
_0-0_計極細
  6
CONTINUOUS
 62
    2
 10
778.96328129679262
 20
484.99357311321006
 11
778.96328129679148
 21
735.99357311320875
  0
LINE
  8
_0-0_計極細
  6
CONTINUOUS
 62
    2
 10
783.96328129679262
 20
484.99357311321006
 11
783.96328129679148
 21
735.99357311320875
  0
LINE
  8
_0-1_計細線
  6
CONTINUOUS
 62
    3
 10
770.16328129679277
 20
484.99357311321006
 11
770.16328129679187
 21
735.99357311320875
  0
LINE
  8
_0-1_計細線
  6
CONTINUOUS
 62
    3
 10
758.76328129679223
 20
484.99357311321006
 11
758.76328129679121
 21
735.99357311320875
  0
LINE
  8
_0-1_計細線
  6
CONTINUOUS
 62
    3
 10
770.16328129679277
 20
484.99357311321006
 11
758.76328129679223
 21
484.99357311321006
  0
LINE
  8
_0-1_計細線
  6
CONTINUOUS
 62
    3
 10
770.16328129679187
 20
735.99357311320875
 11
758.76328129679121
 21
735.99357311320875
  0
LINE
  8
_0-0_計極細
  6
CONTINUOUS
 62
    2
 10
761.96328129679262
 20
484.99357311321006
 11
761.96328129679148
 21
735.99357311320875
  0
LINE
  8
_0-0_計極細
  6
CONTINUOUS
 62
    2
 10
766.96328129679262
 20
484.99357311321006
 11
766.96328129679148
 21
735.99357311320875
  0
LINE
  8
_0-1_計細線
  6
CONTINUOUS
 62
    3
 10
753.16328129679277
 20
484.99357311321006
 11
753.16328129679175
 21
735.99357311320875
  0
LINE
  8
_0-1_計細線
  6
CONTINUOUS
 62
    3
 10
741.76328129679223
 20
484.99357311321006
 11
741.76328129679121
 21
735.99357311320875
  0
LINE
  8
_0-1_計細線
  6
CONTINUOUS
 62
    3
 10
753.16328129679277
 20
484.99357311321006
 11
741.76328129679223
 21
484.99357311321006
  0
LINE
  8
_0-1_計細線
  6
CONTINUOUS
 62
    3
 10
753.16328129679175
 20
735.99357311320875
 11
741.76328129679121
 21
735.99357311320875
  0
LINE
  8
_0-0_計極細
  6
CONTINUOUS
 62
    2
 10
744.9632812967925
 20
484.99357311321006
 11
744.96328129679159
 21
735.99357311320875
  0
LINE
  8
_0-0_計極細
  6
CONTINUOUS
 62
    2
 10
749.9632812967925
 20
484.99357311321006
 11
749.96328129679159
 21
735.99357311320875
  0
LINE
  8
_0-1_計細線
  6
CONTINUOUS
 62
    3
 10
736.16328129679277
 20
484.99357311321006
 11
736.16328129679175
 21
735.99357311320875
  0
LINE
  8
_0-1_計細線
  6
CONTINUOUS
 62
    3
 10
724.76328129679234
 20
484.99357311321006
 11
724.76328129679121
 21
735.99357311320875
  0
LINE
  8
_0-1_計細線
  6
CONTINUOUS
 62
    3
 10
736.16328129679277
 20
484.99357311321006
 11
724.76328129679234
 21
484.99357311321006
  0
LINE
  8
_0-1_計細線
  6
CONTINUOUS
 62
    3
 10
736.16328129679175
 20
735.99357311320875
 11
724.76328129679121
 21
735.99357311320875
  0
LINE
  8
_0-0_計極細
  6
CONTINUOUS
 62
    2
 10
727.9632812967925
 20
484.99357311321006
 11
727.96328129679159
 21
735.99357311320875
  0
LINE
  8
_0-0_計極細
  6
CONTINUOUS
 62
    2
 10
732.9632812967925
 20
484.99357311321006
 11
732.96328129679159
 21
735.99357311320875
  0
LINE
  8
_0-1_計細線
  6
CONTINUOUS
 62
    3
 10
719.16328129679289
 20
484.99357311321006
 11
719.16328129679175
 21
735.99357311320875
  0
LINE
  8
_0-1_計細線
  6
CONTINUOUS
 62
    3
 10
707.76328129679223
 20
484.99357311321006
 11
707.76328129679132
 21
735.99357311320875
  0
LINE
  8
_0-1_計細線
  6
CONTINUOUS
 62
    3
 10
719.16328129679289
 20
484.99357311321006
 11
707.76328129679223
 21
484.99357311321006
  0
LINE
  8
_0-1_計細線
  6
CONTINUOUS
 62
    3
 10
719.16328129679175
 20
735.99357311320875
 11
707.76328129679132
 21
735.99357311320875
  0
LINE
  8
_0-0_計極細
  6
CONTINUOUS
 62
    2
 10
710.9632812967925
 20
484.99357311321006
 11
710.96328129679148
 21
735.99357311320875
  0
LINE
  8
_0-0_計極細
  6
CONTINUOUS
 62
    2
 10
715.9632812967925
 20
484.99357311321006
 11
715.96328129679148
 21
735.99357311320875
  0
LINE
  8
_0-1_計細線
  6
CONTINUOUS
 62
    3
 10
702.16328129679277
 20
484.99357311321006
 11
702.16328129679187
 21
735.99357311320875
  0
LINE
  8
_0-1_計細線
  6
CONTINUOUS
 62
    3
 10
690.76328129679223
 20
484.99357311321006
 11
690.76328129679132
 21
735.99357311320875
  0
LINE
  8
_0-1_計細線
  6
CONTINUOUS
 62
    3
 10
702.16328129679277
 20
484.99357311321006
 11
690.76328129679223
 21
484.99357311321006
  0
LINE
  8
_0-1_計細線
  6
CONTINUOUS
 62
    3
 10
702.16328129679187
 20
735.99357311320875
 11
690.76328129679132
 21
735.99357311320875
  0
LINE
  8
_0-0_計極細
  6
CONTINUOUS
 62
    2
 10
693.9632812967925
 20
484.99357311321006
 11
693.96328129679148
 21
735.99357311320875
  0
LINE
  8
_0-0_計極細
  6
CONTINUOUS
 62
    2
 10
698.9632812967925
 20
484.99357311321006
 11
698.96328129679148
 21
735.99357311320875
  0
LINE
  8
_0-1_計細線
  6
CONTINUOUS
 62
    3
 10
685.16328129679277
 20
484.99357311321006
 11
685.16328129679187
 21
735.99357311320875
  0
LINE
  8
_0-1_計細線
  6
CONTINUOUS
 62
    3
 10
673.76328129679223
 20
484.99357311321006
 11
673.76328129679121
 21
735.99357311320875
  0
LINE
  8
_0-1_計細線
  6
CONTINUOUS
 62
    3
 10
685.16328129679277
 20
484.99357311321006
 11
673.76328129679223
 21
484.99357311321006
  0
LINE
  8
_0-1_計細線
  6
CONTINUOUS
 62
    3
 10
685.16328129679187
 20
735.99357311320875
 11
673.76328129679121
 21
735.99357311320875
  0
LINE
  8
_0-0_計極細
  6
CONTINUOUS
 62
    2
 10
676.96328129679262
 20
484.99357311321006
 11
676.96328129679148
 21
735.99357311320875
  0
LINE
  8
_0-0_計極細
  6
CONTINUOUS
 62
    2
 10
681.96328129679262
 20
484.99357311321006
 11
681.96328129679148
 21
735.99357311320875
  0
LINE
  8
_0-1_計細線
  6
CONTINUOUS
 62
    3
 10
668.16328129679277
 20
484.99357311321006
 11
668.16328129679175
 21
735.99357311320875
  0
LINE
  8
_0-1_計細線
  6
CONTINUOUS
 62
    3
 10
656.76328129679223
 20
484.99357311321006
 11
656.76328129679121
 21
735.99357311320875
  0
LINE
  8
_0-1_計細線
  6
CONTINUOUS
 62
    3
 10
668.16328129679277
 20
484.99357311321006
 11
656.76328129679223
 21
484.99357311321006
  0
LINE
  8
_0-1_計細線
  6
CONTINUOUS
 62
    3
 10
668.16328129679175
 20
735.99357311320875
 11
656.76328129679121
 21
735.99357311320875
  0
LINE
  8
_0-0_計極細
  6
CONTINUOUS
 62
    2
 10
659.9632812967925
 20
484.99357311321006
 11
659.96328129679159
 21
735.99357311320875
  0
LINE
  8
_0-0_計極細
  6
CONTINUOUS
 62
    2
 10
664.9632812967925
 20
484.99357311321006
 11
664.96328129679159
 21
735.99357311320875
  0
LINE
  8
_0-1_計細線
  6
CONTINUOUS
 62
    3
 10
651.16328129679277
 20
484.99357311321006
 11
651.16328129679175
 21
735.99357311320875
  0
LINE
  8
_0-1_計細線
  6
CONTINUOUS
 62
    3
 10
639.76328129679223
 20
484.99357311321006
 11
639.76328129679121
 21
735.99357311320875
  0
LINE
  8
_0-1_計細線
  6
CONTINUOUS
 62
    3
 10
651.16328129679277
 20
484.99357311321006
 11
639.76328129679223
 21
484.99357311321006
  0
LINE
  8
_0-1_計細線
  6
CONTINUOUS
 62
    3
 10
651.16328129679175
 20
735.99357311320875
 11
639.76328129679121
 21
735.99357311320875
  0
LINE
  8
_0-0_計極細
  6
CONTINUOUS
 62
    2
 10
642.9632812967925
 20
484.99357311321006
 11
642.96328129679159
 21
735.99357311320875
  0
LINE
  8
_0-0_計極細
  6
CONTINUOUS
 62
    2
 10
647.9632812967925
 20
484.99357311321006
 11
647.96328129679159
 21
735.99357311320875
  0
LINE
  8
_0-1_計細線
  6
CONTINUOUS
 62
    3
 10
634.16328129679277
 20
484.99357311321006
 11
634.16328129679175
 21
735.99357311320875
  0
LINE
  8
_0-1_計細線
  6
CONTINUOUS
 62
    3
 10
622.76328129679223
 20
484.99357311321006
 11
622.76328129679121
 21
735.99357311320875
  0
LINE
  8
_0-1_計細線
  6
CONTINUOUS
 62
    3
 10
634.16328129679277
 20
484.99357311321006
 11
622.76328129679223
 21
484.99357311321006
  0
LINE
  8
_0-1_計細線
  6
CONTINUOUS
 62
    3
 10
634.16328129679175
 20
735.99357311320875
 11
622.76328129679121
 21
735.99357311320875
  0
LINE
  8
_0-0_計極細
  6
CONTINUOUS
 62
    2
 10
625.9632812967925
 20
484.99357311321006
 11
625.96328129679148
 21
735.99357311320875
  0
LINE
  8
_0-0_計極細
  6
CONTINUOUS
 62
    2
 10
630.9632812967925
 20
484.99357311321006
 11
630.96328129679148
 21
735.99357311320875
  0
LINE
  8
_0-1_計細線
  6
CONTINUOUS
 62
    3
 10
617.16328129679277
 20
484.99357311321006
 11
617.16328129679175
 21
735.99357311320875
  0
LINE
  8
_0-1_計細線
  6
CONTINUOUS
 62
    3
 10
605.76328129679223
 20
484.99357311321006
 11
605.76328129679132
 21
735.99357311320875
  0
LINE
  8
_0-1_計細線
  6
CONTINUOUS
 62
    3
 10
617.16328129679277
 20
484.99357311321006
 11
605.76328129679223
 21
484.99357311321006
  0
LINE
  8
_0-1_計細線
  6
CONTINUOUS
 62
    3
 10
617.16328129679175
 20
735.99357311320875
 11
605.76328129679132
 21
735.99357311320875
  0
LINE
  8
_0-0_計極細
  6
CONTINUOUS
 62
    2
 10
608.9632812967925
 20
484.99357311321006
 11
608.96328129679148
 21
735.99357311320875
  0
LINE
  8
_0-0_計極細
  6
CONTINUOUS
 62
    2
 10
613.9632812967925
 20
484.99357311321006
 11
613.96328129679148
 21
735.99357311320875
  0
LINE
  8
_0-1_計細線
  6
CONTINUOUS
 62
    3
 10
600.16328129679277
 20
484.99357311321006
 11
600.16328129679187
 21
735.99357311320875
  0
LINE
  8
_0-1_計細線
  6
CONTINUOUS
 62
    3
 10
588.76328129679223
 20
484.99357311321006
 11
588.76328129679121
 21
735.99357311320875
  0
LINE
  8
_0-1_計細線
  6
CONTINUOUS
 62
    3
 10
600.16328129679277
 20
484.99357311321006
 11
588.76328129679223
 21
484.99357311321006
  0
LINE
  8
_0-1_計細線
  6
CONTINUOUS
 62
    3
 10
600.16328129679187
 20
735.99357311320875
 11
588.76328129679121
 21
735.99357311320875
  0
LINE
  8
_0-0_計極細
  6
CONTINUOUS
 62
    2
 10
591.9632812967925
 20
484.99357311321006
 11
591.96328129679148
 21
735.99357311320875
  0
LINE
  8
_0-0_計極細
  6
CONTINUOUS
 62
    2
 10
596.9632812967925
 20
484.99357311321006
 11
596.96328129679148
 21
735.99357311320875
  0
LINE
  8
_0-1_計細線
  6
CONTINUOUS
 62
    3
 10
583.16328129679277
 20
484.99357311321006
 11
583.16328129679175
 21
735.99357311320875
  0
LINE
  8
_0-1_計細線
  6
CONTINUOUS
 62
    3
 10
571.76328129679223
 20
484.99357311321006
 11
571.76328129679121
 21
735.99357311320875
  0
LINE
  8
_0-1_計細線
  6
CONTINUOUS
 62
    3
 10
583.16328129679277
 20
484.99357311321006
 11
571.76328129679223
 21
484.99357311321006
  0
LINE
  8
_0-1_計細線
  6
CONTINUOUS
 62
    3
 10
583.16328129679175
 20
735.99357311320875
 11
571.76328129679121
 21
735.99357311320875
  0
LINE
  8
_0-0_計極細
  6
CONTINUOUS
 62
    2
 10
574.9632812967925
 20
484.99357311321006
 11
574.96328129679148
 21
735.99357311320875
  0
LINE
  8
_0-0_計極細
  6
CONTINUOUS
 62
    2
 10
579.9632812967925
 20
484.99357311321006
 11
579.96328129679148
 21
735.99357311320875
  0
LINE
  8
_0-1_計細線
  6
CONTINUOUS
 62
    3
 10
566.16328129679277
 20
484.99357311321006
 11
566.16328129679175
 21
735.99357311320875
  0
LINE
  8
_0-1_計細線
  6
CONTINUOUS
 62
    3
 10
554.76328129679223
 20
484.99357311321006
 11
554.76328129679121
 21
735.99357311320875
  0
LINE
  8
_0-1_計細線
  6
CONTINUOUS
 62
    3
 10
566.16328129679277
 20
484.99357311321006
 11
554.76328129679223
 21
484.99357311321006
  0
LINE
  8
_0-1_計細線
  6
CONTINUOUS
 62
    3
 10
566.16328129679175
 20
735.99357311320875
 11
554.76328129679121
 21
735.99357311320875
  0
LINE
  8
_0-0_計極細
  6
CONTINUOUS
 62
    2
 10
557.9632812967925
 20
484.99357311321006
 11
557.96328129679159
 21
735.99357311320875
  0
LINE
  8
_0-0_計極細
  6
CONTINUOUS
 62
    2
 10
562.9632812967925
 20
484.99357311321006
 11
562.96328129679159
 21
735.99357311320875
  0
LINE
  8
_0-1_計細線
  6
CONTINUOUS
 62
    3
 10
549.16328129679277
 20
484.99357311321006
 11
549.16328129679175
 21
735.99357311320875
  0
LINE
  8
_0-1_計細線
  6
CONTINUOUS
 62
    3
 10
537.76328129679223
 20
484.99357311321006
 11
537.76328129679121
 21
735.99357311320875
  0
LINE
  8
_0-1_計細線
  6
CONTINUOUS
 62
    3
 10
549.16328129679277
 20
484.99357311321006
 11
537.76328129679223
 21
484.99357311321006
  0
LINE
  8
_0-1_計細線
  6
CONTINUOUS
 62
    3
 10
549.16328129679175
 20
735.99357311320875
 11
537.76328129679121
 21
735.99357311320875
  0
LINE
  8
_0-0_計極細
  6
CONTINUOUS
 62
    2
 10
540.9632812967925
 20
484.99357311321006
 11
540.96328129679148
 21
735.99357311320875
  0
LINE
  8
_0-0_計極細
  6
CONTINUOUS
 62
    2
 10
545.9632812967925
 20
484.99357311321006
 11
545.96328129679148
 21
735.99357311320875
  0
LINE
  8
_0-1_計細線
  6
CONTINUOUS
 62
    3
 10
532.16328129679277
 20
484.99357311321006
 11
532.16328129679175
 21
735.99357311320875
  0
LINE
  8
_0-1_計細線
  6
CONTINUOUS
 62
    3
 10
520.76328129679223
 20
484.99357311321006
 11
520.76328129679132
 21
735.99357311320875
  0
LINE
  8
_0-1_計細線
  6
CONTINUOUS
 62
    3
 10
532.16328129679277
 20
484.99357311321006
 11
520.76328129679223
 21
484.99357311321006
  0
LINE
  8
_0-1_計細線
  6
CONTINUOUS
 62
    3
 10
532.16328129679175
 20
735.99357311320875
 11
520.76328129679132
 21
735.99357311320875
  0
LINE
  8
_0-0_計極細
  6
CONTINUOUS
 62
    2
 10
523.9632812967925
 20
484.99357311321006
 11
523.96328129679148
 21
735.99357311320875
  0
LINE
  8
_0-0_計極細
  6
CONTINUOUS
 62
    2
 10
528.9632812967925
 20
484.99357311321006
 11
528.96328129679148
 21
735.99357311320875
  0
LINE
  8
_0-1_計細線
  6
CONTINUOUS
 62
    3
 10
515.16328129679277
 20
484.99357311321006
 11
515.16328129679187
 21
735.99357311320875
  0
LINE
  8
_0-1_計細線
  6
CONTINUOUS
 62
    3
 10
503.76328129679223
 20
484.99357311321006
 11
503.76328129679121
 21
735.99357311320875
  0
LINE
  8
_0-1_計細線
  6
CONTINUOUS
 62
    3
 10
515.16328129679277
 20
484.99357311321006
 11
503.76328129679223
 21
484.99357311321006
  0
LINE
  8
_0-1_計細線
  6
CONTINUOUS
 62
    3
 10
515.16328129679187
 20
735.99357311320875
 11
503.76328129679121
 21
735.99357311320875
  0
LINE
  8
_0-0_計極細
  6
CONTINUOUS
 62
    2
 10
506.9632812967925
 20
484.99357311321006
 11
506.96328129679154
 21
735.99357311320875
  0
LINE
  8
_0-0_計極細
  6
CONTINUOUS
 62
    2
 10
511.9632812967925
 20
484.99357311321006
 11
511.96328129679154
 21
735.99357311320875
  0
LINE
  8
_0-1_計細線
  6
CONTINUOUS
 62
    3
 10
498.16328129679277
 20
484.99357311321006
 11
498.16328129679175
 21
735.99357311320875
  0
LINE
  8
_0-1_計細線
  6
CONTINUOUS
 62
    3
 10
486.76328129679229
 20
484.99357311321006
 11
486.76328129679121
 21
735.99357311320875
  0
LINE
  8
_0-1_計細線
  6
CONTINUOUS
 62
    3
 10
498.16328129679277
 20
484.99357311321006
 11
486.76328129679229
 21
484.99357311321006
  0
LINE
  8
_0-1_計細線
  6
CONTINUOUS
 62
    3
 10
498.16328129679175
 20
735.99357311320875
 11
486.76328129679121
 21
735.99357311320875
  0
LINE
  8
_0-0_計極細
  6
CONTINUOUS
 62
    2
 10
489.96328129679256
 20
484.99357311321006
 11
489.96328129679148
 21
735.99357311320875
  0
LINE
  8
_0-0_計極細
  6
CONTINUOUS
 62
    2
 10
494.96328129679256
 20
484.99357311321006
 11
494.96328129679148
 21
735.99357311320875
  0
LINE
  8
_0-1_計細線
  6
CONTINUOUS
 62
    3
 10
481.16328129679283
 20
484.99357311321006
 11
481.16328129679175
 21
735.99357311320875
  0
LINE
  8
_0-1_計細線
  6
CONTINUOUS
 62
    3
 10
469.76328129679223
 20
484.99357311321006
 11
469.76328129679126
 21
735.99357311320875
  0
LINE
  8
_0-1_計細線
  6
CONTINUOUS
 62
    3
 10
481.16328129679283
 20
484.99357311321006
 11
469.76328129679223
 21
484.99357311321006
  0
LINE
  8
_0-1_計細線
  6
CONTINUOUS
 62
    3
 10
481.16328129679175
 20
735.99357311320875
 11
469.76328129679126
 21
735.99357311320875
  0
LINE
  8
_0-0_計極細
  6
CONTINUOUS
 62
    2
 10
472.9632812967925
 20
484.99357311321006
 11
472.96328129679154
 21
735.99357311320875
  0
LINE
  8
_0-0_計極細
  6
CONTINUOUS
 62
    2
 10
477.9632812967925
 20
484.99357311321006
 11
477.96328129679154
 21
735.99357311320875
  0
LINE
  8
_0-1_計細線
  6
CONTINUOUS
 62
    3
 10
464.16328129679277
 20
484.99357311321006
 11
464.16328129679181
 21
735.99357311320875
  0
LINE
  8
_0-1_計細線
  6
CONTINUOUS
 62
    3
 10
452.76328129679229
 20
484.99357311321006
 11
452.76328129679121
 21
735.99357311320875
  0
LINE
  8
_0-1_計細線
  6
CONTINUOUS
 62
    3
 10
464.16328129679277
 20
484.99357311321006
 11
452.76328129679229
 21
484.99357311321006
  0
LINE
  8
_0-1_計細線
  6
CONTINUOUS
 62
    3
 10
464.16328129679181
 20
735.99357311320875
 11
452.76328129679121
 21
735.99357311320875
  0
LINE
  8
_0-0_計極細
  6
CONTINUOUS
 62
    2
 10
455.9632812967925
 20
484.99357311321006
 11
455.96328129679148
 21
735.99357311320875
  0
LINE
  8
_0-0_計極細
  6
CONTINUOUS
 62
    2
 10
460.9632812967925
 20
484.99357311321006
 11
460.96328129679148
 21
735.99357311320875
  0
LINE
  8
_0-1_計細線
  6
CONTINUOUS
 62
    3
 10
447.16328129679283
 20
484.99357311321006
 11
447.16328129679175
 21
735.99357311320875
  0
LINE
  8
_0-1_計細線
  6
CONTINUOUS
 62
    3
 10
435.76328129679223
 20
484.99357311321006
 11
435.76328129679126
 21
735.99357311320875
  0
LINE
  8
_0-1_計細線
  6
CONTINUOUS
 62
    3
 10
447.16328129679283
 20
484.99357311321006
 11
435.76328129679223
 21
484.99357311321006
  0
LINE
  8
_0-1_計細線
  6
CONTINUOUS
 62
    3
 10
447.16328129679175
 20
735.99357311320875
 11
435.76328129679126
 21
735.99357311320875
  0
LINE
  8
_0-0_計極細
  6
CONTINUOUS
 62
    2
 10
438.96328129679256
 20
484.99357311321006
 11
438.96328129679148
 21
735.99357311320875
  0
LINE
  8
_0-0_計極細
  6
CONTINUOUS
 62
    2
 10
443.96328129679256
 20
484.99357311321006
 11
443.96328129679148
 21
735.99357311320875
  0
LINE
  8
_0-1_計細線
  6
CONTINUOUS
 62
    3
 10
430.16328129679277
 20
484.99357311321006
 11
430.16328129679181
 21
735.99357311320875
  0
LINE
  8
_0-1_計細線
  6
CONTINUOUS
 62
    3
 10
418.76328129679223
 20
484.99357311321006
 11
418.76328129679121
 21
735.99357311320875
  0
LINE
  8
_0-1_計細線
  6
CONTINUOUS
 62
    3
 10
430.16328129679277
 20
484.99357311321006
 11
418.76328129679223
 21
484.99357311321006
  0
LINE
  8
_0-1_計細線
  6
CONTINUOUS
 62
    3
 10
430.16328129679181
 20
735.99357311320875
 11
418.76328129679121
 21
735.99357311320875
  0
LINE
  8
_0-0_計極細
  6
CONTINUOUS
 62
    2
 10
421.9632812967925
 20
484.99357311321006
 11
421.96328129679154
 21
735.99357311320875
  0
LINE
  8
_0-0_計極細
  6
CONTINUOUS
 62
    2
 10
426.9632812967925
 20
484.99357311321006
 11
426.96328129679154
 21
735.99357311320875
  0
LINE
  8
_0-1_計細線
  6
CONTINUOUS
 62
    3
 10
413.16328129679277
 20
484.99357311321006
 11
413.16328129679175
 21
735.99357311320875
  0
LINE
  8
_0-1_計細線
  6
CONTINUOUS
 62
    3
 10
401.76328129679229
 20
484.99357311321006
 11
401.76328129679121
 21
735.99357311320875
  0
LINE
  8
_0-1_計細線
  6
CONTINUOUS
 62
    3
 10
413.16328129679277
 20
484.99357311321006
 11
401.76328129679229
 21
484.99357311321006
  0
LINE
  8
_0-1_計細線
  6
CONTINUOUS
 62
    3
 10
413.16328129679175
 20
735.99357311320875
 11
401.76328129679121
 21
735.99357311320875
  0
LINE
  8
_0-0_計極細
  6
CONTINUOUS
 62
    2
 10
404.96328129679256
 20
484.99357311321006
 11
404.96328129679148
 21
735.99357311320875
  0
LINE
  8
_0-0_計極細
  6
CONTINUOUS
 62
    2
 10
409.96328129679256
 20
484.99357311321006
 11
409.96328129679148
 21
735.99357311320875
  0
LINE
  8
_0-1_計細線
  6
CONTINUOUS
 62
    3
 10
396.16328129679283
 20
484.99357311321006
 11
396.16328129679187
 21
735.99357311320875
  0
LINE
  8
_0-1_計細線
  6
CONTINUOUS
 62
    3
 10
384.76328129679223
 20
484.99357311321006
 11
384.76328129679132
 21
735.99357311320875
  0
LINE
  8
_0-1_計細線
  6
CONTINUOUS
 62
    3
 10
396.16328129679283
 20
484.99357311321006
 11
384.76328129679223
 21
484.99357311321006
  0
LINE
  8
_0-1_計細線
  6
CONTINUOUS
 62
    3
 10
396.16328129679187
 20
735.99357311320875
 11
384.76328129679132
 21
735.99357311320875
  0
LINE
  8
_0-0_計極細
  6
CONTINUOUS
 62
    2
 10
387.9632812967925
 20
484.99357311321006
 11
387.96328129679159
 21
735.99357311320875
  0
LINE
  8
_0-0_計極細
  6
CONTINUOUS
 62
    2
 10
392.9632812967925
 20
484.99357311321006
 11
392.96328129679159
 21
735.99357311320875
  0
LINE
  8
_0-1_計細線
  6
CONTINUOUS
 62
    3
 10
379.16328129679277
 20
484.99357311321006
 11
379.16328129679187
 21
735.99357311320875
  0
LINE
  8
_0-1_計細線
  6
CONTINUOUS
 62
    3
 10
367.76328129679223
 20
484.99357311321006
 11
367.76328129679138
 21
735.99357311320875
  0
LINE
  8
_0-1_計細線
  6
CONTINUOUS
 62
    3
 10
379.16328129679277
 20
484.99357311321006
 11
367.76328129679223
 21
484.99357311321006
  0
LINE
  8
_0-1_計細線
  6
CONTINUOUS
 62
    3
 10
379.16328129679187
 20
735.99357311320875
 11
367.76328129679138
 21
735.99357311320875
  0
LINE
  8
_0-0_計極細
  6
CONTINUOUS
 62
    2
 10
370.9632812967925
 20
484.99357311321006
 11
370.96328129679159
 21
735.99357311320875
  0
LINE
  8
_0-0_計極細
  6
CONTINUOUS
 62
    2
 10
375.9632812967925
 20
484.99357311321006
 11
375.96328129679159
 21
735.99357311320875
  0
LINE
  8
_0-1_計細線
  6
CONTINUOUS
 62
    3
 10
362.16328129679277
 20
484.99357311321006
 11
362.16328129679192
 21
735.99357311320875
  0
LINE
  8
_0-1_計細線
  6
CONTINUOUS
 62
    3
 10
350.76328129679223
 20
484.99357311321006
 11
350.76328129679132
 21
735.99357311320875
  0
LINE
  8
_0-1_計細線
  6
CONTINUOUS
 62
    3
 10
362.16328129679277
 20
484.99357311321006
 11
350.76328129679223
 21
484.99357311321006
  0
LINE
  8
_0-1_計細線
  6
CONTINUOUS
 62
    3
 10
362.16328129679192
 20
735.99357311320875
 11
350.76328129679132
 21
735.99357311320875
  0
LINE
  8
_0-0_計極細
  6
CONTINUOUS
 62
    2
 10
353.96328129679256
 20
484.99357311321006
 11
353.96328129679159
 21
735.99357311320875
  0
LINE
  8
_0-0_計極細
  6
CONTINUOUS
 62
    2
 10
358.96328129679256
 20
484.99357311321006
 11
358.96328129679159
 21
735.99357311320875
  0
LINE
  8
_0-1_計細線
  6
CONTINUOUS
 62
    3
 10
345.16328129679277
 20
484.99357311321006
 11
345.16328129679187
 21
735.99357311320875
  0
LINE
  8
_0-1_計細線
  6
CONTINUOUS
 62
    3
 10
333.76328129679223
 20
484.99357311321006
 11
333.76328129679132
 21
735.99357311320875
  0
LINE
  8
_0-1_計細線
  6
CONTINUOUS
 62
    3
 10
345.16328129679277
 20
484.99357311321006
 11
333.76328129679223
 21
484.99357311321006
  0
LINE
  8
_0-1_計細線
  6
CONTINUOUS
 62
    3
 10
345.16328129679187
 20
735.99357311320875
 11
333.76328129679132
 21
735.99357311320875
  0
LINE
  8
_0-0_計極細
  6
CONTINUOUS
 62
    2
 10
336.9632812967925
 20
484.99357311321006
 11
336.96328129679159
 21
735.99357311320875
  0
LINE
  8
_0-0_計極細
  6
CONTINUOUS
 62
    2
 10
341.9632812967925
 20
484.99357311321006
 11
341.96328129679159
 21
735.99357311320875
  0
LINE
  8
_0-1_計細線
  6
CONTINUOUS
 62
    3
 10
328.16328129679277
 20
484.99357311321006
 11
328.16328129679187
 21
735.99357311320875
  0
LINE
  8
_0-1_計細線
  6
CONTINUOUS
 62
    3
 10
316.76328129679223
 20
484.99357311321006
 11
316.76328129679132
 21
735.99357311320875
  0
LINE
  8
_0-1_計細線
  6
CONTINUOUS
 62
    3
 10
328.16328129679277
 20
484.99357311321006
 11
316.76328129679223
 21
484.99357311321006
  0
LINE
  8
_0-1_計細線
  6
CONTINUOUS
 62
    3
 10
328.16328129679187
 20
735.99357311320875
 11
316.76328129679132
 21
735.99357311320875
  0
LINE
  8
_0-0_計極細
  6
CONTINUOUS
 62
    2
 10
319.96328129679256
 20
484.99357311321006
 11
319.96328129679159
 21
735.99357311320875
  0
LINE
  8
_0-0_計極細
  6
CONTINUOUS
 62
    2
 10
324.9632812967925
 20
484.99357311321006
 11
324.96328129679165
 21
735.99357311320875
  0
LINE
  8
_0-1_計細線
  6
CONTINUOUS
 62
    3
 10
311.16328129679277
 20
484.99357311321006
 11
311.16328129679187
 21
735.99357311320875
  0
LINE
  8
_0-1_計細線
  6
CONTINUOUS
 62
    3
 10
299.76328129679223
 20
484.99357311321006
 11
299.76328129679132
 21
735.99357311320875
  0
LINE
  8
_0-1_計細線
  6
CONTINUOUS
 62
    3
 10
311.16328129679277
 20
484.99357311321006
 11
299.76328129679223
 21
484.99357311321006
  0
LINE
  8
_0-1_計細線
  6
CONTINUOUS
 62
    3
 10
311.16328129679187
 20
735.99357311320875
 11
299.76328129679132
 21
735.99357311320875
  0
LINE
  8
_0-0_計極細
  6
CONTINUOUS
 62
    2
 10
302.9632812967925
 20
484.99357311321006
 11
302.96328129679159
 21
735.99357311320875
  0
LINE
  8
_0-0_計極細
  6
CONTINUOUS
 62
    2
 10
307.9632812967925
 20
484.99357311321006
 11
307.96328129679159
 21
735.99357311320875
  0
LINE
  8
_0-1_計細線
  6
CONTINUOUS
 62
    3
 10
293.76328129679268
 20
484.99357311321006
 11
293.76328129679177
 21
735.99357311320875
  0
LINE
  8
_0-1_計細線
  6
CONTINUOUS
 62
    3
 10
282.36328129679214
 20
484.99357311321006
 11
282.36328129679123
 21
735.99357311320875
  0
LINE
  8
_0-1_計細線
  6
CONTINUOUS
 62
    3
 10
293.76328129679268
 20
484.99357311321006
 11
282.36328129679214
 21
484.99357311321006
  0
LINE
  8
_0-1_計細線
  6
CONTINUOUS
 62
    3
 10
293.76328129679177
 20
735.99357311320875
 11
282.36328129679123
 21
735.99357311320875
  0
LINE
  8
_0-0_計極細
  6
CONTINUOUS
 62
    2
 10
285.56328129679241
 20
484.99357311321006
 11
285.5632812967915
 21
735.99357311320875
  0
LINE
  8
_0-0_計極細
  6
CONTINUOUS
 62
    2
 10
290.56328129679241
 20
484.99357311321006
 11
290.5632812967915
 21
735.99357311320875
  0
LINE
  8
_0-1_計細線
  6
CONTINUOUS
 62
    3
 10
276.36328129679305
 20
484.99357311321006
 11
276.36328129679168
 21
735.99357311320875
  0
LINE
  8
_0-1_計細線
  6
CONTINUOUS
 62
    3
 10
264.96328129679256
 20
484.99357311321006
 11
264.96328129679114
 21
735.99357311320875
  0
LINE
  8
_0-1_計細線
  6
CONTINUOUS
 62
    3
 10
276.36328129679305
 20
484.99357311321006
 11
264.96328129679256
 21
484.99357311321006
  0
LINE
  8
_0-1_計細線
  6
CONTINUOUS
 62
    3
 10
276.36328129679168
 20
735.99357311320875
 11
264.96328129679114
 21
735.99357311320875
  0
LINE
  8
_0-0_計極細
  6
CONTINUOUS
 62
    2
 10
268.16328129679277
 20
484.99357311321006
 11
268.16328129679141
 21
735.99357311320875
  0
LINE
  8
_0-0_計極細
  6
CONTINUOUS
 62
    2
 10
273.16328129679277
 20
484.99357311321006
 11
273.16328129679141
 21
735.99357311320875
  0
LINE
  8
_0-1_計細線
  6
CONTINUOUS
 62
    3
 10
258.96328129679296
 20
484.99357311321006
 11
258.96328129679205
 21
735.99357311320875
  0
LINE
  8
_0-1_計細線
  6
CONTINUOUS
 62
    3
 10
247.56328129679247
 20
484.99357311321006
 11
247.56328129679133
 21
735.99357311320875
  0
LINE
  8
_0-1_計細線
  6
CONTINUOUS
 62
    3
 10
258.96328129679296
 20
484.99357311321006
 11
247.56328129679247
 21
484.99357311321006
  0
LINE
  8
_0-1_計細線
  6
CONTINUOUS
 62
    3
 10
258.96328129679205
 20
735.99357311320875
 11
247.56328129679133
 21
735.99357311320875
  0
LINE
  8
_0-0_計極細
  6
CONTINUOUS
 62
    2
 10
250.76328129679268
 20
484.99357311321006
 11
250.76328129679155
 21
735.99357311320875
  0
LINE
  8
_0-0_計極細
  6
CONTINUOUS
 62
    2
 10
255.76328129679268
 20
484.99357311321006
 11
255.76328129679155
 21
735.99357311320875
  0
LINE
  8
_0-1_計細線
  6
CONTINUOUS
 62
    3
 10
241.56328129679309
 20
484.99357311321006
 11
241.56328129679196
 21
735.99357311320875
  0
LINE
  8
_0-1_計細線
  6
CONTINUOUS
 62
    3
 10
230.16328129679252
 20
484.99357311321006
 11
230.16328129679138
 21
735.99357311320875
  0
LINE
  8
_0-1_計細線
  6
CONTINUOUS
 62
    3
 10
241.56328129679309
 20
484.99357311321006
 11
230.16328129679252
 21
484.99357311321006
  0
LINE
  8
_0-1_計細線
  6
CONTINUOUS
 62
    3
 10
241.56328129679196
 20
735.99357311320875
 11
230.16328129679138
 21
735.99357311320875
  0
LINE
  8
_0-0_計極細
  6
CONTINUOUS
 62
    2
 10
233.36328129679288
 20
484.99357311321006
 11
233.36328129679174
 21
735.99357311320875
  0
LINE
  8
_0-0_計極細
  6
CONTINUOUS
 62
    2
 10
238.36328129679288
 20
484.99357311321006
 11
238.36328129679174
 21
735.99357311320875
  0
LINE
  8
_0-0_計極細
  6
CONTINUOUS
 62
    2
 10
1200.7632812967913
 20
603.99357311320864
 11
1195.163281296791
 21
603.99357311320864
  0
LINE
  8
_0-0_計極細
  6
CONTINUOUS
 62
    2
 10
1200.7632812967913
 20
616.99357311320864
 11
1195.163281296791
 21
616.99357311320864
  0
LINE
  8
_0-0_計極細
  6
CONTINUOUS
 62
    2
 10
1183.7632812967904
 20
603.9935731132091
 11
1178.1632812967905
 21
603.9935731132091
  0
LINE
  8
_0-0_計極細
  6
CONTINUOUS
 62
    2
 10
1183.7632812967904
 20
616.9935731132091
 11
1178.1632812967905
 21
616.9935731132091
  0
LINE
  8
_0-0_計極細
  6
CONTINUOUS
 62
    2
 10
1161.1632812967946
 20
603.9935731132091
 11
1166.7632812967945
 21
603.9935731132091
  0
LINE
  8
_0-0_計極細
  6
CONTINUOUS
 62
    2
 10
1161.1632812967946
 20
616.9935731132091
 11
1166.7632812967945
 21
616.9935731132091
  0
LINE
  8
_0-0_計極細
  6
CONTINUOUS
 62
    2
 10
1144.1632812967937
 20
603.99357311320864
 11
1149.763281296794
 21
603.99357311320864
  0
LINE
  8
_0-0_計極細
  6
CONTINUOUS
 62
    2
 10
1144.1632812967941
 20
616.99357311320864
 11
1149.763281296794
 21
616.99357311320864
  0
LINE
  8
_0-0_計極細
  6
CONTINUOUS
 62
    2
 10
1127.1632812967932
 20
603.99357311320864
 11
1132.7632812967931
 21
603.99357311320864
  0
LINE
  8
_0-0_計極細
  6
CONTINUOUS
 62
    2
 10
1127.1632812967932
 20
616.99357311320864
 11
1132.7632812967936
 21
616.99357311320864
  0
LINE
  8
_0-0_計極細
  6
CONTINUOUS
 62
    2
 10
1110.1632812967923
 20
603.9935731132091
 11
1115.7632812967927
 21
603.9935731132091
  0
LINE
  8
_0-0_計極細
  6
CONTINUOUS
 62
    2
 10
1110.1632812967923
 20
616.9935731132091
 11
1115.7632812967927
 21
616.9935731132091
  0
LINE
  8
_0-0_計極細
  6
CONTINUOUS
 62
    2
 10
1081.7632812967918
 20
603.99357311320864
 11
1076.1632812967919
 21
603.99357311320864
  0
LINE
  8
_0-0_計極細
  6
CONTINUOUS
 62
    2
 10
1081.7632812967918
 20
616.99357311320864
 11
1076.1632812967919
 21
616.99357311320864
  0
LINE
  8
_0-0_計極細
  6
CONTINUOUS
 62
    2
 10
1217.7632812967934
 20
603.99357311320864
 11
1212.1632812967932
 21
603.99357311320864
  0
LINE
  8
_0-0_計極細
  6
CONTINUOUS
 62
    2
 10
1217.7632812967934
 20
616.99357311320864
 11
1212.1632812967932
 21
616.99357311320864
  0
LINE
  8
_0-0_計極細
  6
CONTINUOUS
 62
    2
 10
1064.7632812967922
 20
603.99357311320864
 11
1059.1632812967919
 21
603.99357311320864
  0
LINE
  8
_0-0_計極細
  6
CONTINUOUS
 62
    2
 10
1064.7632812967922
 20
616.99357311320864
 11
1059.1632812967919
 21
616.99357311320864
  0
LINE
  8
_0-0_計極細
  6
CONTINUOUS
 62
    2
 10
1047.7632812967922
 20
603.99357311320864
 11
1042.1632812967919
 21
603.99357311320864
  0
LINE
  8
_0-0_計極細
  6
CONTINUOUS
 62
    2
 10
1047.7632812967922
 20
616.99357311320864
 11
1042.1632812967919
 21
616.99357311320864
  0
LINE
  8
_0-0_計極細
  6
CONTINUOUS
 62
    2
 10
1030.7632812967922
 20
603.99357311320864
 11
1025.1632812967919
 21
603.99357311320864
  0
LINE
  8
_0-0_計極細
  6
CONTINUOUS
 62
    2
 10
1030.7632812967922
 20
616.99357311320864
 11
1025.1632812967919
 21
616.99357311320864
  0
LINE
  8
_0-0_計極細
  6
CONTINUOUS
 62
    2
 10
1013.7632812967922
 20
603.99357311320864
 11
1008.1632812967921
 21
603.99357311320864
  0
LINE
  8
_0-0_計極細
  6
CONTINUOUS
 62
    2
 10
1013.7632812967922
 20
616.99357311320864
 11
1008.1632812967921
 21
616.99357311320864
  0
LINE
  8
_0-0_計極細
  6
CONTINUOUS
 62
    2
 10
996.76328129679223
 20
603.99357311320864
 11
991.16328129679209
 21
603.99357311320864
  0
LINE
  8
_0-0_計極細
  6
CONTINUOUS
 62
    2
 10
996.76328129679223
 20
616.99357311320864
 11
991.16328129679209
 21
616.99357311320864
  0
LINE
  8
_0-0_計極細
  6
CONTINUOUS
 62
    2
 10
979.76328129679223
 20
603.99357311320864
 11
974.16328129679198
 21
603.99357311320864
  0
LINE
  8
_0-0_計極細
  6
CONTINUOUS
 62
    2
 10
979.76328129679223
 20
616.99357311320864
 11
974.16328129679198
 21
616.99357311320864
  0
LINE
  8
_0-0_計極細
  6
CONTINUOUS
 62
    2
 10
962.76328129679212
 20
603.99357311320864
 11
957.16328129679198
 21
603.99357311320864
  0
LINE
  8
_0-0_計極細
  6
CONTINUOUS
 62
    2
 10
962.76328129679212
 20
616.99357311320864
 11
957.16328129679198
 21
616.99357311320864
  0
LINE
  8
_0-0_計極細
  6
CONTINUOUS
 62
    2
 10
945.76328129679212
 20
603.99357311320864
 11
940.16328129679209
 21
603.99357311320864
  0
LINE
  8
_0-0_計極細
  6
CONTINUOUS
 62
    2
 10
945.76328129679212
 20
616.99357311320864
 11
940.16328129679209
 21
616.99357311320864
  0
LINE
  8
_0-0_計極細
  6
CONTINUOUS
 62
    2
 10
928.76328129679223
 20
603.99357311320864
 11
923.16328129679209
 21
603.99357311320864
  0
LINE
  8
_0-0_計極細
  6
CONTINUOUS
 62
    2
 10
928.76328129679223
 20
616.99357311320864
 11
923.16328129679209
 21
616.99357311320864
  0
LINE
  8
_0-0_計極細
  6
CONTINUOUS
 62
    2
 10
911.76328129679223
 20
603.99357311320864
 11
906.16328129679209
 21
603.99357311320864
  0
LINE
  8
_0-0_計極細
  6
CONTINUOUS
 62
    2
 10
911.76328129679223
 20
616.99357311320864
 11
906.16328129679209
 21
616.99357311320864
  0
LINE
  8
_0-0_計極細
  6
CONTINUOUS
 62
    2
 10
894.76328129679223
 20
603.99357311320864
 11
889.16328129679198
 21
603.99357311320864
  0
LINE
  8
_0-0_計極細
  6
CONTINUOUS
 62
    2
 10
894.76328129679223
 20
616.99357311320864
 11
889.16328129679198
 21
616.99357311320864
  0
LINE
  8
_0-0_計極細
  6
CONTINUOUS
 62
    2
 10
877.76328129679212
 20
603.99357311320864
 11
872.16328129679198
 21
603.99357311320864
  0
LINE
  8
_0-0_計極細
  6
CONTINUOUS
 62
    2
 10
877.76328129679212
 20
616.99357311320864
 11
872.16328129679198
 21
616.99357311320864
  0
LINE
  8
_0-0_計極細
  6
CONTINUOUS
 62
    2
 10
860.76328129679212
 20
603.99357311320864
 11
855.16328129679209
 21
603.99357311320864
  0
LINE
  8
_0-0_計極細
  6
CONTINUOUS
 62
    2
 10
860.76328129679212
 20
616.99357311320864
 11
855.16328129679209
 21
616.99357311320864
  0
LINE
  8
_0-0_計極細
  6
CONTINUOUS
 62
    2
 10
843.76328129679223
 20
603.99357311320864
 11
838.16328129679209
 21
603.99357311320864
  0
LINE
  8
_0-0_計極細
  6
CONTINUOUS
 62
    2
 10
843.76328129679223
 20
616.99357311320864
 11
838.16328129679209
 21
616.99357311320864
  0
LINE
  8
_0-0_計極細
  6
CONTINUOUS
 62
    2
 10
826.76328129679223
 20
603.99357311320864
 11
821.16328129679209
 21
603.99357311320864
  0
LINE
  8
_0-0_計極細
  6
CONTINUOUS
 62
    2
 10
826.76328129679223
 20
616.99357311320864
 11
821.16328129679209
 21
616.99357311320864
  0
LINE
  8
_0-0_計極細
  6
CONTINUOUS
 62
    2
 10
809.76328129679223
 20
603.99357311320864
 11
804.16328129679198
 21
603.99357311320864
  0
LINE
  8
_0-0_計極細
  6
CONTINUOUS
 62
    2
 10
809.76328129679223
 20
616.99357311320864
 11
804.16328129679198
 21
616.99357311320864
  0
LINE
  8
_0-0_計極細
  6
CONTINUOUS
 62
    2
 10
792.76328129679212
 20
603.99357311320864
 11
787.16328129679198
 21
603.99357311320864
  0
LINE
  8
_0-0_計極細
  6
CONTINUOUS
 62
    2
 10
792.76328129679212
 20
616.99357311320864
 11
787.16328129679198
 21
616.99357311320864
  0
LINE
  8
_0-0_計極細
  6
CONTINUOUS
 62
    2
 10
775.76328129679212
 20
603.99357311320864
 11
770.16328129679209
 21
603.99357311320864
  0
LINE
  8
_0-0_計極細
  6
CONTINUOUS
 62
    2
 10
775.76328129679212
 20
616.99357311320864
 11
770.16328129679209
 21
616.99357311320864
  0
LINE
  8
_0-0_計極細
  6
CONTINUOUS
 62
    2
 10
758.76328129679212
 20
603.99357311320864
 11
753.16328129679209
 21
603.99357311320864
  0
LINE
  8
_0-0_計極細
  6
CONTINUOUS
 62
    2
 10
758.76328129679212
 20
616.99357311320864
 11
753.16328129679209
 21
616.99357311320864
  0
LINE
  8
_0-0_計極細
  6
CONTINUOUS
 62
    2
 10
741.76328129679223
 20
603.99357311320864
 11
736.16328129679209
 21
603.99357311320864
  0
LINE
  8
_0-0_計極細
  6
CONTINUOUS
 62
    2
 10
741.76328129679223
 20
616.99357311320864
 11
736.16328129679209
 21
616.99357311320864
  0
LINE
  8
_0-0_計極細
  6
CONTINUOUS
 62
    2
 10
724.76328129679223
 20
603.99357311320864
 11
719.16328129679198
 21
603.99357311320864
  0
LINE
  8
_0-0_計極細
  6
CONTINUOUS
 62
    2
 10
724.76328129679223
 20
616.99357311320864
 11
719.16328129679198
 21
616.99357311320864
  0
LINE
  8
_0-0_計極細
  6
CONTINUOUS
 62
    2
 10
707.76328129679212
 20
603.99357311320864
 11
702.16328129679198
 21
603.99357311320864
  0
LINE
  8
_0-0_計極細
  6
CONTINUOUS
 62
    2
 10
707.76328129679212
 20
616.99357311320864
 11
702.16328129679198
 21
616.99357311320864
  0
LINE
  8
_0-0_計極細
  6
CONTINUOUS
 62
    2
 10
690.76328129679212
 20
603.99357311320864
 11
685.16328129679198
 21
603.99357311320864
  0
LINE
  8
_0-0_計極細
  6
CONTINUOUS
 62
    2
 10
690.76328129679212
 20
616.99357311320864
 11
685.16328129679198
 21
616.99357311320864
  0
LINE
  8
_0-0_計極細
  6
CONTINUOUS
 62
    2
 10
673.76328129679212
 20
603.99357311320864
 11
668.16328129679209
 21
603.99357311320864
  0
LINE
  8
_0-0_計極細
  6
CONTINUOUS
 62
    2
 10
673.76328129679212
 20
616.99357311320864
 11
668.16328129679209
 21
616.99357311320864
  0
LINE
  8
_0-0_計極細
  6
CONTINUOUS
 62
    2
 10
656.76328129679223
 20
603.99357311320864
 11
651.16328129679209
 21
603.99357311320864
  0
LINE
  8
_0-0_計極細
  6
CONTINUOUS
 62
    2
 10
656.76328129679223
 20
616.99357311320864
 11
651.16328129679209
 21
616.99357311320864
  0
LINE
  8
_0-0_計極細
  6
CONTINUOUS
 62
    2
 10
639.76328129679223
 20
603.99357311320864
 11
634.16328129679198
 21
603.99357311320864
  0
LINE
  8
_0-0_計極細
  6
CONTINUOUS
 62
    2
 10
639.76328129679223
 20
616.99357311320864
 11
634.16328129679198
 21
616.99357311320864
  0
LINE
  8
_0-0_計極細
  6
CONTINUOUS
 62
    2
 10
622.76328129679212
 20
603.99357311320864
 11
617.16328129679198
 21
603.99357311320864
  0
LINE
  8
_0-0_計極細
  6
CONTINUOUS
 62
    2
 10
622.76328129679212
 20
616.99357311320864
 11
617.16328129679198
 21
616.99357311320864
  0
LINE
  8
_0-0_計極細
  6
CONTINUOUS
 62
    2
 10
605.76328129679212
 20
603.99357311320864
 11
600.16328129679198
 21
603.99357311320864
  0
LINE
  8
_0-0_計極細
  6
CONTINUOUS
 62
    2
 10
605.76328129679212
 20
616.99357311320864
 11
600.16328129679198
 21
616.99357311320864
  0
LINE
  8
_0-0_計極細
  6
CONTINUOUS
 62
    2
 10
588.76328129679212
 20
603.99357311320864
 11
583.16328129679198
 21
603.99357311320864
  0
LINE
  8
_0-0_計極細
  6
CONTINUOUS
 62
    2
 10
588.76328129679212
 20
616.99357311320864
 11
583.16328129679198
 21
616.99357311320864
  0
LINE
  8
_0-0_計極細
  6
CONTINUOUS
 62
    2
 10
571.76328129679212
 20
603.99357311320864
 11
566.16328129679209
 21
603.99357311320864
  0
LINE
  8
_0-0_計極細
  6
CONTINUOUS
 62
    2
 10
571.76328129679212
 20
616.99357311320864
 11
566.16328129679209
 21
616.99357311320864
  0
LINE
  8
_0-0_計極細
  6
CONTINUOUS
 62
    2
 10
554.76328129679223
 20
603.99357311320864
 11
549.16328129679198
 21
603.99357311320864
  0
LINE
  8
_0-0_計極細
  6
CONTINUOUS
 62
    2
 10
554.76328129679223
 20
616.99357311320864
 11
549.16328129679198
 21
616.99357311320864
  0
LINE
  8
_0-0_計極細
  6
CONTINUOUS
 62
    2
 10
537.76328129679212
 20
603.99357311320864
 11
532.16328129679198
 21
603.99357311320864
  0
LINE
  8
_0-0_計極細
  6
CONTINUOUS
 62
    2
 10
537.76328129679212
 20
616.99357311320864
 11
532.16328129679198
 21
616.99357311320864
  0
LINE
  8
_0-0_計極細
  6
CONTINUOUS
 62
    2
 10
520.76328129679212
 20
603.99357311320864
 11
515.16328129679198
 21
603.99357311320864
  0
LINE
  8
_0-0_計極細
  6
CONTINUOUS
 62
    2
 10
520.76328129679212
 20
616.99357311320864
 11
515.16328129679198
 21
616.99357311320864
  0
LINE
  8
_0-0_計極細
  6
CONTINUOUS
 62
    2
 10
503.76328129679217
 20
603.99357311320864
 11
498.16328129679198
 21
603.99357311320864
  0
LINE
  8
_0-0_計極細
  6
CONTINUOUS
 62
    2
 10
503.76328129679217
 20
616.99357311320864
 11
498.16328129679198
 21
616.99357311320864
  0
LINE
  8
_0-0_計極細
  6
CONTINUOUS
 62
    2
 10
486.76328129679212
 20
603.99357311320864
 11
481.16328129679204
 21
603.99357311320864
  0
LINE
  8
_0-0_計極細
  6
CONTINUOUS
 62
    2
 10
486.76328129679212
 20
616.99357311320864
 11
481.16328129679204
 21
616.99357311320864
  0
LINE
  8
_0-0_計極細
  6
CONTINUOUS
 62
    2
 10
469.76328129679217
 20
603.99357311320864
 11
464.16328129679198
 21
603.99357311320864
  0
LINE
  8
_0-0_計極細
  6
CONTINUOUS
 62
    2
 10
469.76328129679217
 20
616.99357311320864
 11
464.16328129679198
 21
616.99357311320864
  0
LINE
  8
_0-0_計極細
  6
CONTINUOUS
 62
    2
 10
452.76328129679212
 20
603.99357311320864
 11
447.16328129679198
 21
603.99357311320864
  0
LINE
  8
_0-0_計極細
  6
CONTINUOUS
 62
    2
 10
452.76328129679212
 20
616.99357311320864
 11
447.16328129679198
 21
616.99357311320864
  0
LINE
  8
_0-0_計極細
  6
CONTINUOUS
 62
    2
 10
435.76328129679212
 20
603.99357311320864
 11
430.16328129679204
 21
603.99357311320864
  0
LINE
  8
_0-0_計極細
  6
CONTINUOUS
 62
    2
 10
435.76328129679212
 20
616.99357311320864
 11
430.16328129679204
 21
616.99357311320864
  0
LINE
  8
_0-0_計極細
  6
CONTINUOUS
 62
    2
 10
418.76328129679217
 20
603.99357311320864
 11
413.16328129679198
 21
603.99357311320864
  0
LINE
  8
_0-0_計極細
  6
CONTINUOUS
 62
    2
 10
418.76328129679217
 20
616.99357311320864
 11
413.16328129679198
 21
616.99357311320864
  0
LINE
  8
_0-0_計極細
  6
CONTINUOUS
 62
    2
 10
401.76328129679212
 20
603.99357311320864
 11
396.16328129679187
 21
603.99357311320864
  0
LINE
  8
_0-0_計極細
  6
CONTINUOUS
 62
    2
 10
401.76328129679212
 20
616.99357311320864
 11
396.16328129679187
 21
616.99357311320864
  0
LINE
  8
_0-0_計極細
  6
CONTINUOUS
 62
    2
 10
384.76328129679223
 20
603.99357311320864
 11
379.16328129679187
 21
603.99357311320864
  0
LINE
  8
_0-0_計極細
  6
CONTINUOUS
 62
    2
 10
384.76328129679223
 20
616.99357311320864
 11
379.16328129679187
 21
616.99357311320864
  0
LINE
  8
_0-0_計極細
  6
CONTINUOUS
 62
    2
 10
367.76328129679223
 20
603.99357311320864
 11
362.16328129679192
 21
603.99357311320864
  0
LINE
  8
_0-0_計極細
  6
CONTINUOUS
 62
    2
 10
367.76328129679223
 20
616.99357311320864
 11
362.16328129679192
 21
616.99357311320864
  0
LINE
  8
_0-0_計極細
  6
CONTINUOUS
 62
    2
 10
350.76328129679223
 20
603.99357311320864
 11
345.16328129679187
 21
603.99357311320864
  0
LINE
  8
_0-0_計極細
  6
CONTINUOUS
 62
    2
 10
350.76328129679223
 20
616.99357311320864
 11
345.16328129679187
 21
616.99357311320864
  0
LINE
  8
_0-0_計極細
  6
CONTINUOUS
 62
    2
 10
333.76328129679223
 20
603.99357311320864
 11
328.16328129679187
 21
603.99357311320864
  0
LINE
  8
_0-0_計極細
  6
CONTINUOUS
 62
    2
 10
333.76328129679223
 20
616.99357311320864
 11
328.16328129679187
 21
616.99357311320864
  0
LINE
  8
_0-0_計極細
  6
CONTINUOUS
 62
    2
 10
316.76328129679223
 20
603.99357311320864
 11
311.16328129679187
 21
603.99357311320864
  0
LINE
  8
_0-0_計極細
  6
CONTINUOUS
 62
    2
 10
316.76328129679223
 20
616.99357311320864
 11
311.16328129679187
 21
616.99357311320864
  0
LINE
  8
_0-0_計極細
  6
CONTINUOUS
 62
    2
 10
299.76328129679223
 20
603.99357311320864
 11
293.76328129679177
 21
603.99357311320864
  0
LINE
  8
_0-0_計極細
  6
CONTINUOUS
 62
    2
 10
299.76328129679223
 20
616.99357311320864
 11
293.76328129679177
 21
616.99357311320864
  0
LINE
  8
_0-0_計極細
  6
CONTINUOUS
 62
    2
 10
282.36328129679214
 20
603.99357311320864
 11
276.36328129679214
 21
603.99357311320864
  0
LINE
  8
_0-0_計極細
  6
CONTINUOUS
 62
    2
 10
282.36328129679214
 20
616.99357311320864
 11
276.36328129679214
 21
616.99357311320864
  0
LINE
  8
_0-0_計極細
  6
CONTINUOUS
 62
    2
 10
264.96328129679256
 20
603.99357311320864
 11
258.96328129679205
 21
603.99357311320864
  0
LINE
  8
_0-0_計極細
  6
CONTINUOUS
 62
    2
 10
264.96328129679256
 20
616.99357311320864
 11
258.96328129679205
 21
616.99357311320864
  0
LINE
  8
_0-0_計極細
  6
CONTINUOUS
 62
    2
 10
247.56328129679247
 20
603.99357311320864
 11
241.56328129679224
 21
603.99357311320864
  0
LINE
  8
_0-0_計極細
  6
CONTINUOUS
 62
    2
 10
247.56328129679247
 20
616.99357311320864
 11
241.56328129679224
 21
616.99357311320864
  0
LINE
  8
_0-0_計極細
  6
CONTINUOUS
 62
    2
 10
1200.7632812967915
 20
711.99357311320864
 11
1195.1632812967912
 21
711.99357311320864
  0
LINE
  8
_0-0_計極細
  6
CONTINUOUS
 62
    2
 10
1200.7632812967915
 20
724.99357311320864
 11
1195.1632812967912
 21
724.99357311320864
  0
LINE
  8
_0-0_計極細
  6
CONTINUOUS
 62
    2
 10
1183.7632812967906
 20
711.9935731132091
 11
1178.1632812967905
 21
711.9935731132091
  0
LINE
  8
_0-0_計極細
  6
CONTINUOUS
 62
    2
 10
1183.7632812967906
 20
724.9935731132091
 11
1178.1632812967905
 21
724.9935731132091
  0
LINE
  8
_0-0_計極細
  6
CONTINUOUS
 62
    2
 10
1161.1632812967946
 20
711.9935731132091
 11
1166.7632812967945
 21
711.9935731132091
  0
LINE
  8
_0-0_計極細
  6
CONTINUOUS
 62
    2
 10
1161.1632812967946
 20
724.9935731132091
 11
1166.7632812967945
 21
724.9935731132091
  0
LINE
  8
_0-0_計極細
  6
CONTINUOUS
 62
    2
 10
1127.1632812967937
 20
711.99357311320864
 11
1132.7632812967936
 21
711.99357311320864
  0
LINE
  8
_0-0_計極細
  6
CONTINUOUS
 62
    2
 10
1127.1632812967937
 20
724.99357311320864
 11
1132.7632812967936
 21
724.99357311320864
  0
LINE
  8
_0-0_計極細
  6
CONTINUOUS
 62
    2
 10
1110.1632812967923
 20
711.9935731132091
 11
1115.7632812967931
 21
711.9935731132091
  0
LINE
  8
_0-0_計極細
  6
CONTINUOUS
 62
    2
 10
1110.1632812967923
 20
724.9935731132091
 11
1115.7632812967931
 21
724.9935731132091
  0
LINE
  8
_0-0_計極細
  6
CONTINUOUS
 62
    2
 10
1144.163281296795
 20
711.99357311320864
 11
1149.763281296795
 21
711.99357311320864
  0
LINE
  8
_0-0_計極細
  6
CONTINUOUS
 62
    2
 10
1144.163281296795
 20
724.99357311320864
 11
1149.763281296795
 21
724.99357311320864
  0
LINE
  8
_0-0_計極細
  6
CONTINUOUS
 62
    2
 10
1081.7632812967922
 20
711.99357311320864
 11
1076.1632812967919
 21
711.99357311320864
  0
LINE
  8
_0-0_計極細
  6
CONTINUOUS
 62
    2
 10
1081.7632812967922
 20
724.99357311320864
 11
1076.1632812967919
 21
724.99357311320864
  0
LINE
  8
_0-0_計極細
  6
CONTINUOUS
 62
    2
 10
1217.7632812967936
 20
711.99357311320864
 11
1212.1632812967932
 21
711.99357311320864
  0
LINE
  8
_0-0_計極細
  6
CONTINUOUS
 62
    2
 10
1217.7632812967936
 20
724.99357311320864
 11
1212.1632812967932
 21
724.99357311320864
  0
LINE
  8
_0-0_計極細
  6
CONTINUOUS
 62
    2
 10
1064.7632812967922
 20
711.99357311320864
 11
1059.1632812967923
 21
711.99357311320864
  0
LINE
  8
_0-0_計極細
  6
CONTINUOUS
 62
    2
 10
1064.7632812967922
 20
724.99357311320864
 11
1059.1632812967923
 21
724.99357311320864
  0
LINE
  8
_0-0_計極細
  6
CONTINUOUS
 62
    2
 10
1047.7632812967922
 20
711.99357311320864
 11
1042.1632812967923
 21
711.99357311320864
  0
LINE
  8
_0-0_計極細
  6
CONTINUOUS
 62
    2
 10
1047.7632812967922
 20
724.99357311320864
 11
1042.1632812967923
 21
724.99357311320864
  0
LINE
  8
_0-0_計極細
  6
CONTINUOUS
 62
    2
 10
1030.7632812967922
 20
711.99357311320864
 11
1025.1632812967923
 21
711.99357311320864
  0
LINE
  8
_0-0_計極細
  6
CONTINUOUS
 62
    2
 10
1030.7632812967922
 20
724.99357311320864
 11
1025.1632812967923
 21
724.99357311320864
  0
LINE
  8
_0-0_計極細
  6
CONTINUOUS
 62
    2
 10
1013.7632812967923
 20
711.99357311320864
 11
1008.1632812967922
 21
711.99357311320864
  0
LINE
  8
_0-0_計極細
  6
CONTINUOUS
 62
    2
 10
1013.7632812967923
 20
724.99357311320864
 11
1008.1632812967922
 21
724.99357311320864
  0
LINE
  8
_0-0_計極細
  6
CONTINUOUS
 62
    2
 10
996.76328129679234
 20
711.99357311320864
 11
991.16328129679221
 21
711.99357311320864
  0
LINE
  8
_0-0_計極細
  6
CONTINUOUS
 62
    2
 10
996.76328129679234
 20
724.99357311320864
 11
991.16328129679221
 21
724.99357311320864
  0
LINE
  8
_0-0_計極細
  6
CONTINUOUS
 62
    2
 10
979.76328129679246
 20
711.99357311320864
 11
974.16328129679209
 21
711.99357311320864
  0
LINE
  8
_0-0_計極細
  6
CONTINUOUS
 62
    2
 10
979.76328129679246
 20
724.99357311320864
 11
974.16328129679209
 21
724.99357311320864
  0
LINE
  8
_0-0_計極細
  6
CONTINUOUS
 62
    2
 10
962.76328129679246
 20
711.99357311320864
 11
957.16328129679209
 21
711.99357311320864
  0
LINE
  8
_0-0_計極細
  6
CONTINUOUS
 62
    2
 10
962.76328129679246
 20
724.99357311320864
 11
957.16328129679209
 21
724.99357311320864
  0
LINE
  8
_0-0_計極細
  6
CONTINUOUS
 62
    2
 10
945.76328129679246
 20
711.99357311320864
 11
940.16328129679209
 21
711.99357311320864
  0
LINE
  8
_0-0_計極細
  6
CONTINUOUS
 62
    2
 10
945.76328129679246
 20
724.99357311320864
 11
940.16328129679209
 21
724.99357311320864
  0
LINE
  8
_0-0_計極細
  6
CONTINUOUS
 62
    2
 10
928.76328129679234
 20
711.99357311320864
 11
923.16328129679221
 21
711.99357311320864
  0
LINE
  8
_0-0_計極細
  6
CONTINUOUS
 62
    2
 10
928.76328129679234
 20
724.99357311320864
 11
923.16328129679221
 21
724.99357311320864
  0
LINE
  8
_0-0_計極細
  6
CONTINUOUS
 62
    2
 10
911.76328129679234
 20
711.99357311320864
 11
906.16328129679221
 21
711.99357311320864
  0
LINE
  8
_0-0_計極細
  6
CONTINUOUS
 62
    2
 10
911.76328129679234
 20
724.99357311320864
 11
906.16328129679221
 21
724.99357311320864
  0
LINE
  8
_0-0_計極細
  6
CONTINUOUS
 62
    2
 10
894.76328129679246
 20
711.99357311320864
 11
889.16328129679209
 21
711.99357311320864
  0
LINE
  8
_0-0_計極細
  6
CONTINUOUS
 62
    2
 10
894.76328129679246
 20
724.99357311320864
 11
889.16328129679209
 21
724.99357311320864
  0
LINE
  8
_0-0_計極細
  6
CONTINUOUS
 62
    2
 10
877.76328129679246
 20
711.99357311320864
 11
872.16328129679209
 21
711.99357311320864
  0
LINE
  8
_0-0_計極細
  6
CONTINUOUS
 62
    2
 10
877.76328129679246
 20
724.99357311320864
 11
872.16328129679209
 21
724.99357311320864
  0
LINE
  8
_0-0_計極細
  6
CONTINUOUS
 62
    2
 10
860.76328129679246
 20
711.99357311320864
 11
855.16328129679209
 21
711.99357311320864
  0
LINE
  8
_0-0_計極細
  6
CONTINUOUS
 62
    2
 10
860.76328129679246
 20
724.99357311320864
 11
855.16328129679209
 21
724.99357311320864
  0
LINE
  8
_0-0_計極細
  6
CONTINUOUS
 62
    2
 10
843.76328129679234
 20
711.99357311320864
 11
838.16328129679221
 21
711.99357311320864
  0
LINE
  8
_0-0_計極細
  6
CONTINUOUS
 62
    2
 10
843.76328129679234
 20
724.99357311320864
 11
838.16328129679221
 21
724.99357311320864
  0
LINE
  8
_0-0_計極細
  6
CONTINUOUS
 62
    2
 10
826.76328129679234
 20
711.99357311320864
 11
821.16328129679221
 21
711.99357311320864
  0
LINE
  8
_0-0_計極細
  6
CONTINUOUS
 62
    2
 10
826.76328129679234
 20
724.99357311320864
 11
821.16328129679221
 21
724.99357311320864
  0
LINE
  8
_0-0_計極細
  6
CONTINUOUS
 62
    2
 10
809.76328129679246
 20
711.99357311320864
 11
804.16328129679209
 21
711.99357311320864
  0
LINE
  8
_0-0_計極細
  6
CONTINUOUS
 62
    2
 10
809.76328129679246
 20
724.99357311320864
 11
804.16328129679209
 21
724.99357311320864
  0
LINE
  8
_0-0_計極細
  6
CONTINUOUS
 62
    2
 10
792.76328129679246
 20
711.99357311320864
 11
787.16328129679209
 21
711.99357311320864
  0
LINE
  8
_0-0_計極細
  6
CONTINUOUS
 62
    2
 10
792.76328129679246
 20
724.99357311320864
 11
787.16328129679209
 21
724.99357311320864
  0
LINE
  8
_0-0_計極細
  6
CONTINUOUS
 62
    2
 10
775.76328129679246
 20
711.99357311320864
 11
770.16328129679209
 21
711.99357311320864
  0
LINE
  8
_0-0_計極細
  6
CONTINUOUS
 62
    2
 10
775.76328129679246
 20
724.99357311320864
 11
770.16328129679209
 21
724.99357311320864
  0
LINE
  8
_0-0_計極細
  6
CONTINUOUS
 62
    2
 10
758.76328129679234
 20
711.99357311320864
 11
753.16328129679209
 21
711.99357311320864
  0
LINE
  8
_0-0_計極細
  6
CONTINUOUS
 62
    2
 10
758.76328129679234
 20
724.99357311320864
 11
753.16328129679209
 21
724.99357311320864
  0
LINE
  8
_0-0_計極細
  6
CONTINUOUS
 62
    2
 10
741.76328129679234
 20
711.99357311320864
 11
736.16328129679221
 21
711.99357311320864
  0
LINE
  8
_0-0_計極細
  6
CONTINUOUS
 62
    2
 10
741.76328129679234
 20
724.99357311320864
 11
736.16328129679221
 21
724.99357311320864
  0
LINE
  8
_0-0_計極細
  6
CONTINUOUS
 62
    2
 10
724.76328129679234
 20
711.99357311320864
 11
719.16328129679209
 21
711.99357311320864
  0
LINE
  8
_0-0_計極細
  6
CONTINUOUS
 62
    2
 10
724.76328129679234
 20
724.99357311320864
 11
719.16328129679209
 21
724.99357311320864
  0
LINE
  8
_0-0_計極細
  6
CONTINUOUS
 62
    2
 10
707.76328129679246
 20
711.99357311320864
 11
702.16328129679209
 21
711.99357311320864
  0
LINE
  8
_0-0_計極細
  6
CONTINUOUS
 62
    2
 10
707.76328129679246
 20
724.99357311320864
 11
702.16328129679209
 21
724.99357311320864
  0
LINE
  8
_0-0_計極細
  6
CONTINUOUS
 62
    2
 10
690.76328129679246
 20
711.99357311320864
 11
685.16328129679209
 21
711.99357311320864
  0
LINE
  8
_0-0_計極細
  6
CONTINUOUS
 62
    2
 10
690.76328129679246
 20
724.99357311320864
 11
685.16328129679209
 21
724.99357311320864
  0
LINE
  8
_0-0_計極細
  6
CONTINUOUS
 62
    2
 10
673.76328129679234
 20
711.99357311320864
 11
668.16328129679209
 21
711.99357311320864
  0
LINE
  8
_0-0_計極細
  6
CONTINUOUS
 62
    2
 10
673.76328129679234
 20
724.99357311320864
 11
668.16328129679209
 21
724.99357311320864
  0
LINE
  8
_0-0_計極細
  6
CONTINUOUS
 62
    2
 10
656.76328129679234
 20
711.99357311320864
 11
651.16328129679221
 21
711.99357311320864
  0
LINE
  8
_0-0_計極細
  6
CONTINUOUS
 62
    2
 10
656.76328129679234
 20
724.99357311320864
 11
651.16328129679221
 21
724.99357311320864
  0
LINE
  8
_0-0_計極細
  6
CONTINUOUS
 62
    2
 10
639.76328129679234
 20
711.99357311320864
 11
634.16328129679209
 21
711.99357311320864
  0
LINE
  8
_0-0_計極細
  6
CONTINUOUS
 62
    2
 10
639.76328129679234
 20
724.99357311320864
 11
634.16328129679209
 21
724.99357311320864
  0
LINE
  8
_0-0_計極細
  6
CONTINUOUS
 62
    2
 10
622.76328129679234
 20
711.99357311320864
 11
617.16328129679209
 21
711.99357311320864
  0
LINE
  8
_0-0_計極細
  6
CONTINUOUS
 62
    2
 10
622.76328129679234
 20
724.99357311320864
 11
617.16328129679209
 21
724.99357311320864
  0
LINE
  8
_0-0_計極細
  6
CONTINUOUS
 62
    2
 10
605.76328129679246
 20
711.99357311320864
 11
600.16328129679209
 21
711.99357311320864
  0
LINE
  8
_0-0_計極細
  6
CONTINUOUS
 62
    2
 10
605.76328129679246
 20
724.99357311320864
 11
600.16328129679209
 21
724.99357311320864
  0
LINE
  8
_0-0_計極細
  6
CONTINUOUS
 62
    2
 10
588.76328129679234
 20
711.99357311320864
 11
583.16328129679209
 21
711.99357311320864
  0
LINE
  8
_0-0_計極細
  6
CONTINUOUS
 62
    2
 10
588.76328129679234
 20
724.99357311320864
 11
583.16328129679209
 21
724.99357311320864
  0
LINE
  8
_0-0_計極細
  6
CONTINUOUS
 62
    2
 10
571.76328129679234
 20
711.99357311320864
 11
566.16328129679209
 21
711.99357311320864
  0
LINE
  8
_0-0_計極細
  6
CONTINUOUS
 62
    2
 10
571.76328129679234
 20
724.99357311320864
 11
566.16328129679209
 21
724.99357311320864
  0
LINE
  8
_0-0_計極細
  6
CONTINUOUS
 62
    2
 10
554.76328129679234
 20
711.99357311320864
 11
549.16328129679209
 21
711.99357311320864
  0
LINE
  8
_0-0_計極細
  6
CONTINUOUS
 62
    2
 10
554.76328129679234
 20
724.99357311320864
 11
549.16328129679209
 21
724.99357311320864
  0
LINE
  8
_0-0_計極細
  6
CONTINUOUS
 62
    2
 10
537.76328129679234
 20
711.99357311320864
 11
532.16328129679209
 21
711.99357311320864
  0
LINE
  8
_0-0_計極細
  6
CONTINUOUS
 62
    2
 10
537.76328129679234
 20
724.99357311320864
 11
532.16328129679209
 21
724.99357311320864
  0
LINE
  8
_0-0_計極細
  6
CONTINUOUS
 62
    2
 10
520.76328129679246
 20
711.99357311320864
 11
515.16328129679209
 21
711.99357311320864
  0
LINE
  8
_0-0_計極細
  6
CONTINUOUS
 62
    2
 10
520.76328129679246
 20
724.99357311320864
 11
515.16328129679209
 21
724.99357311320864
  0
LINE
  8
_0-0_計極細
  6
CONTINUOUS
 62
    2
 10
503.76328129679234
 20
711.99357311320864
 11
498.16328129679215
 21
711.99357311320864
  0
LINE
  8
_0-0_計極細
  6
CONTINUOUS
 62
    2
 10
503.76328129679234
 20
724.99357311320864
 11
498.16328129679215
 21
724.99357311320864
  0
LINE
  8
_0-0_計極細
  6
CONTINUOUS
 62
    2
 10
486.76328129679234
 20
711.99357311320864
 11
481.16328129679209
 21
711.99357311320864
  0
LINE
  8
_0-0_計極細
  6
CONTINUOUS
 62
    2
 10
486.76328129679234
 20
724.99357311320864
 11
481.16328129679209
 21
724.99357311320864
  0
LINE
  8
_0-0_計極細
  6
CONTINUOUS
 62
    2
 10
469.7632812967924
 20
711.99357311320864
 11
464.16328129679215
 21
711.99357311320864
  0
LINE
  8
_0-0_計極細
  6
CONTINUOUS
 62
    2
 10
469.7632812967924
 20
724.99357311320864
 11
464.16328129679215
 21
724.99357311320864
  0
LINE
  8
_0-0_計極細
  6
CONTINUOUS
 62
    2
 10
452.76328129679234
 20
711.99357311320864
 11
447.16328129679209
 21
711.99357311320864
  0
LINE
  8
_0-0_計極細
  6
CONTINUOUS
 62
    2
 10
452.76328129679234
 20
724.99357311320864
 11
447.16328129679209
 21
724.99357311320864
  0
LINE
  8
_0-0_計極細
  6
CONTINUOUS
 62
    2
 10
435.7632812967924
 20
711.99357311320864
 11
430.16328129679209
 21
711.99357311320864
  0
LINE
  8
_0-0_計極細
  6
CONTINUOUS
 62
    2
 10
435.7632812967924
 20
724.99357311320864
 11
430.16328129679209
 21
724.99357311320864
  0
LINE
  8
_0-0_計極細
  6
CONTINUOUS
 62
    2
 10
418.76328129679234
 20
711.99357311320864
 11
413.16328129679215
 21
711.99357311320864
  0
LINE
  8
_0-0_計極細
  6
CONTINUOUS
 62
    2
 10
418.76328129679234
 20
724.99357311320864
 11
413.16328129679215
 21
724.99357311320864
  0
LINE
  8
_0-0_計極細
  6
CONTINUOUS
 62
    2
 10
401.76328129679234
 20
711.99357311320864
 11
396.16328129679209
 21
711.99357311320864
  0
LINE
  8
_0-0_計極細
  6
CONTINUOUS
 62
    2
 10
401.76328129679234
 20
724.99357311320864
 11
396.16328129679209
 21
724.99357311320864
  0
LINE
  8
_0-0_計極細
  6
CONTINUOUS
 62
    2
 10
384.76328129679223
 20
711.99357311320864
 11
379.16328129679209
 21
711.99357311320864
  0
LINE
  8
_0-0_計極細
  6
CONTINUOUS
 62
    2
 10
384.76328129679223
 20
724.99357311320864
 11
379.16328129679209
 21
724.99357311320864
  0
LINE
  8
_0-0_計極細
  6
CONTINUOUS
 62
    2
 10
367.76328129679223
 20
711.99357311320864
 11
362.16328129679209
 21
711.99357311320864
  0
LINE
  8
_0-0_計極細
  6
CONTINUOUS
 62
    2
 10
367.76328129679223
 20
724.99357311320864
 11
362.16328129679209
 21
724.99357311320864
  0
LINE
  8
_0-0_計極細
  6
CONTINUOUS
 62
    2
 10
350.76328129679223
 20
711.99357311320864
 11
345.16328129679209
 21
711.99357311320864
  0
LINE
  8
_0-0_計極細
  6
CONTINUOUS
 62
    2
 10
350.76328129679223
 20
724.99357311320864
 11
345.16328129679209
 21
724.99357311320864
  0
LINE
  8
_0-0_計極細
  6
CONTINUOUS
 62
    2
 10
333.76328129679223
 20
711.99357311320864
 11
328.16328129679232
 21
711.99357311320864
  0
LINE
  8
_0-0_計極細
  6
CONTINUOUS
 62
    2
 10
333.76328129679223
 20
724.99357311320864
 11
328.16328129679232
 21
724.99357311320864
  0
LINE
  8
_0-0_計極細
  6
CONTINUOUS
 62
    2
 10
316.76328129679223
 20
711.99357311320864
 11
311.16328129679232
 21
711.99357311320864
  0
LINE
  8
_0-0_計極細
  6
CONTINUOUS
 62
    2
 10
316.76328129679223
 20
724.99357311320864
 11
311.16328129679232
 21
724.99357311320864
  0
LINE
  8
_0-0_計極細
  6
CONTINUOUS
 62
    2
 10
299.76328129679223
 20
711.99357311320864
 11
293.76328129679223
 21
711.99357311320864
  0
LINE
  8
_0-0_計極細
  6
CONTINUOUS
 62
    2
 10
299.76328129679223
 20
724.99357311320864
 11
293.76328129679223
 21
724.99357311320864
  0
LINE
  8
_0-0_計極細
  6
CONTINUOUS
 62
    2
 10
282.36328129679265
 20
711.99357311320864
 11
276.36328129679214
 21
711.99357311320864
  0
LINE
  8
_0-0_計極細
  6
CONTINUOUS
 62
    2
 10
282.36328129679265
 20
724.99357311320864
 11
276.36328129679214
 21
724.99357311320864
  0
LINE
  8
_0-0_計極細
  6
CONTINUOUS
 62
    2
 10
264.96328129679256
 20
711.99357311320864
 11
258.9632812967925
 21
711.99357311320864
  0
LINE
  8
_0-0_計極細
  6
CONTINUOUS
 62
    2
 10
264.96328129679256
 20
724.99357311320864
 11
258.9632812967925
 21
724.99357311320864
  0
LINE
  8
_0-0_計極細
  6
CONTINUOUS
 62
    2
 10
247.56328129679261
 20
711.99357311320864
 11
241.56328129679238
 21
711.99357311320864
  0
LINE
  8
_0-0_計極細
  6
CONTINUOUS
 62
    2
 10
247.56328129679261
 20
724.99357311320864
 11
241.56328129679238
 21
724.99357311320864
  0
LINE
  8
_0-0_計極細
  6
CENTER1
 62
    2
 10
228.2390925535833
 20
718.4935731132091
 11
1236.9211050378046
 21
718.49357311320875
  0
LINE
  8
_0-0_計極細
  6
CONTINUOUS
 62
    2
 10
1200.7632812967913
 20
495.99357311320864
 11
1195.163281296791
 21
495.99357311320864
  0
LINE
  8
_0-0_計極細
  6
CONTINUOUS
 62
    2
 10
1200.7632812967913
 20
508.9935731132087
 11
1195.163281296791
 21
508.9935731132087
  0
LINE
  8
_0-0_計極細
  6
CONTINUOUS
 62
    2
 10
1183.7632812967904
 20
495.99357311320915
 11
1178.1632812967905
 21
495.99357311320915
  0
LINE
  8
_0-0_計極細
  6
CONTINUOUS
 62
    2
 10
1183.7632812967904
 20
508.9935731132091
 11
1178.1632812967905
 21
508.9935731132091
  0
LINE
  8
_0-0_計極細
  6
CONTINUOUS
 62
    2
 10
1161.1632812967946
 20
495.99357311320915
 11
1166.7632812967945
 21
495.99357311320915
  0
LINE
  8
_0-0_計極細
  6
CONTINUOUS
 62
    2
 10
1161.1632812967946
 20
508.9935731132091
 11
1166.7632812967945
 21
508.9935731132091
  0
LINE
  8
_0-0_計極細
  6
CONTINUOUS
 62
    2
 10
1144.1632812967937
 20
495.99357311320864
 11
1149.763281296794
 21
495.99357311320864
  0
LINE
  8
_0-0_計極細
  6
CONTINUOUS
 62
    2
 10
1144.1632812967941
 20
508.9935731132087
 11
1149.763281296794
 21
508.9935731132087
  0
LINE
  8
_0-0_計極細
  6
CONTINUOUS
 62
    2
 10
1127.1632812967932
 20
495.99357311320864
 11
1132.7632812967931
 21
495.99357311320864
  0
LINE
  8
_0-0_計極細
  6
CONTINUOUS
 62
    2
 10
1127.1632812967932
 20
508.9935731132087
 11
1132.7632812967936
 21
508.9935731132087
  0
LINE
  8
_0-0_計極細
  6
CONTINUOUS
 62
    2
 10
1110.1632812967923
 20
495.99357311320915
 11
1115.7632812967927
 21
495.99357311320915
  0
LINE
  8
_0-0_計極細
  6
CONTINUOUS
 62
    2
 10
1110.1632812967923
 20
508.9935731132091
 11
1115.7632812967927
 21
508.9935731132091
  0
LINE
  8
_0-0_計極細
  6
CONTINUOUS
 62
    2
 10
1093.1632812967923
 20
495.99357311320915
 11
1098.7632812967927
 21
495.99357311320915
  0
LINE
  8
_0-0_計極細
  6
CONTINUOUS
 62
    2
 10
1093.1632812967923
 20
508.9935731132091
 11
1098.7632812967927
 21
508.9935731132091
  0
LINE
  8
_0-0_計極細
  6
CONTINUOUS
 62
    2
 10
1081.7632812967918
 20
495.99357311320864
 11
1076.1632812967919
 21
495.99357311320864
  0
LINE
  8
_0-0_計極細
  6
CONTINUOUS
 62
    2
 10
1081.7632812967918
 20
508.9935731132087
 11
1076.1632812967919
 21
508.9935731132087
  0
LINE
  8
_0-0_計極細
  6
CONTINUOUS
 62
    2
 10
1217.7632812967934
 20
495.99357311320864
 11
1212.1632812967932
 21
495.99357311320864
  0
LINE
  8
_0-0_計極細
  6
CONTINUOUS
 62
    2
 10
1217.7632812967934
 20
508.9935731132087
 11
1212.1632812967932
 21
508.9935731132087
  0
LINE
  8
_0-0_計極細
  6
CONTINUOUS
 62
    2
 10
1064.7632812967922
 20
495.99357311320864
 11
1059.1632812967919
 21
495.99357311320864
  0
LINE
  8
_0-0_計極細
  6
CONTINUOUS
 62
    2
 10
1064.7632812967922
 20
508.9935731132087
 11
1059.1632812967919
 21
508.9935731132087
  0
LINE
  8
_0-0_計極細
  6
CONTINUOUS
 62
    2
 10
1047.7632812967922
 20
495.99357311320864
 11
1042.1632812967919
 21
495.99357311320864
  0
LINE
  8
_0-0_計極細
  6
CONTINUOUS
 62
    2
 10
1047.7632812967922
 20
508.9935731132087
 11
1042.1632812967919
 21
508.9935731132087
  0
LINE
  8
_0-0_計極細
  6
CONTINUOUS
 62
    2
 10
1030.7632812967922
 20
495.99357311320864
 11
1025.1632812967919
 21
495.99357311320864
  0
LINE
  8
_0-0_計極細
  6
CONTINUOUS
 62
    2
 10
1030.7632812967922
 20
508.9935731132087
 11
1025.1632812967919
 21
508.9935731132087
  0
LINE
  8
_0-0_計極細
  6
CONTINUOUS
 62
    2
 10
1013.7632812967922
 20
495.99357311320864
 11
1008.1632812967921
 21
495.99357311320864
  0
LINE
  8
_0-0_計極細
  6
CONTINUOUS
 62
    2
 10
1013.7632812967922
 20
508.9935731132087
 11
1008.1632812967921
 21
508.9935731132087
  0
LINE
  8
_0-0_計極細
  6
CONTINUOUS
 62
    2
 10
996.76328129679223
 20
495.99357311320864
 11
991.16328129679209
 21
495.99357311320864
  0
LINE
  8
_0-0_計極細
  6
CONTINUOUS
 62
    2
 10
996.76328129679223
 20
508.9935731132087
 11
991.16328129679209
 21
508.9935731132087
  0
LINE
  8
_0-0_計極細
  6
CONTINUOUS
 62
    2
 10
979.76328129679223
 20
495.99357311320864
 11
974.16328129679198
 21
495.99357311320864
  0
LINE
  8
_0-0_計極細
  6
CONTINUOUS
 62
    2
 10
979.76328129679223
 20
508.9935731132087
 11
974.16328129679198
 21
508.9935731132087
  0
LINE
  8
_0-0_計極細
  6
CONTINUOUS
 62
    2
 10
962.76328129679212
 20
495.99357311320864
 11
957.16328129679198
 21
495.99357311320864
  0
LINE
  8
_0-0_計極細
  6
CONTINUOUS
 62
    2
 10
962.76328129679212
 20
508.9935731132087
 11
957.16328129679198
 21
508.9935731132087
  0
LINE
  8
_0-0_計極細
  6
CONTINUOUS
 62
    2
 10
945.76328129679212
 20
495.99357311320864
 11
940.16328129679209
 21
495.99357311320864
  0
LINE
  8
_0-0_計極細
  6
CONTINUOUS
 62
    2
 10
945.76328129679212
 20
508.9935731132087
 11
940.16328129679209
 21
508.9935731132087
  0
LINE
  8
_0-0_計極細
  6
CONTINUOUS
 62
    2
 10
928.76328129679223
 20
495.99357311320864
 11
923.16328129679209
 21
495.99357311320864
  0
LINE
  8
_0-0_計極細
  6
CONTINUOUS
 62
    2
 10
928.76328129679223
 20
508.9935731132087
 11
923.16328129679209
 21
508.9935731132087
  0
LINE
  8
_0-0_計極細
  6
CONTINUOUS
 62
    2
 10
911.76328129679223
 20
495.99357311320864
 11
906.16328129679209
 21
495.99357311320864
  0
LINE
  8
_0-0_計極細
  6
CONTINUOUS
 62
    2
 10
911.76328129679223
 20
508.9935731132087
 11
906.16328129679209
 21
508.9935731132087
  0
LINE
  8
_0-0_計極細
  6
CONTINUOUS
 62
    2
 10
894.76328129679223
 20
495.99357311320864
 11
889.16328129679198
 21
495.99357311320864
  0
LINE
  8
_0-0_計極細
  6
CONTINUOUS
 62
    2
 10
894.76328129679223
 20
508.9935731132087
 11
889.16328129679198
 21
508.9935731132087
  0
LINE
  8
_0-0_計極細
  6
CONTINUOUS
 62
    2
 10
877.76328129679212
 20
495.99357311320864
 11
872.16328129679198
 21
495.99357311320864
  0
LINE
  8
_0-0_計極細
  6
CONTINUOUS
 62
    2
 10
877.76328129679212
 20
508.9935731132087
 11
872.16328129679198
 21
508.9935731132087
  0
LINE
  8
_0-0_計極細
  6
CONTINUOUS
 62
    2
 10
860.76328129679212
 20
495.99357311320864
 11
855.16328129679209
 21
495.99357311320864
  0
LINE
  8
_0-0_計極細
  6
CONTINUOUS
 62
    2
 10
860.76328129679212
 20
508.9935731132087
 11
855.16328129679209
 21
508.9935731132087
  0
LINE
  8
_0-0_計極細
  6
CONTINUOUS
 62
    2
 10
843.76328129679223
 20
495.99357311320864
 11
838.16328129679209
 21
495.99357311320864
  0
LINE
  8
_0-0_計極細
  6
CONTINUOUS
 62
    2
 10
843.76328129679223
 20
508.9935731132087
 11
838.16328129679209
 21
508.9935731132087
  0
LINE
  8
_0-0_計極細
  6
CONTINUOUS
 62
    2
 10
826.76328129679223
 20
495.99357311320864
 11
821.16328129679209
 21
495.99357311320864
  0
LINE
  8
_0-0_計極細
  6
CONTINUOUS
 62
    2
 10
826.76328129679223
 20
508.9935731132087
 11
821.16328129679209
 21
508.9935731132087
  0
LINE
  8
_0-0_計極細
  6
CONTINUOUS
 62
    2
 10
809.76328129679223
 20
495.99357311320864
 11
804.16328129679198
 21
495.99357311320864
  0
LINE
  8
_0-0_計極細
  6
CONTINUOUS
 62
    2
 10
809.76328129679223
 20
508.9935731132087
 11
804.16328129679198
 21
508.9935731132087
  0
LINE
  8
_0-0_計極細
  6
CONTINUOUS
 62
    2
 10
792.76328129679212
 20
495.99357311320864
 11
787.16328129679198
 21
495.99357311320864
  0
LINE
  8
_0-0_計極細
  6
CONTINUOUS
 62
    2
 10
792.76328129679212
 20
508.9935731132087
 11
787.16328129679198
 21
508.9935731132087
  0
LINE
  8
_0-0_計極細
  6
CONTINUOUS
 62
    2
 10
775.76328129679212
 20
495.99357311320864
 11
770.16328129679209
 21
495.99357311320864
  0
LINE
  8
_0-0_計極細
  6
CONTINUOUS
 62
    2
 10
775.76328129679212
 20
508.9935731132087
 11
770.16328129679209
 21
508.9935731132087
  0
LINE
  8
_0-0_計極細
  6
CONTINUOUS
 62
    2
 10
758.76328129679212
 20
495.99357311320864
 11
753.16328129679209
 21
495.99357311320864
  0
LINE
  8
_0-0_計極細
  6
CONTINUOUS
 62
    2
 10
758.76328129679212
 20
508.9935731132087
 11
753.16328129679209
 21
508.9935731132087
  0
LINE
  8
_0-0_計極細
  6
CONTINUOUS
 62
    2
 10
741.76328129679223
 20
495.99357311320864
 11
736.16328129679209
 21
495.99357311320864
  0
LINE
  8
_0-0_計極細
  6
CONTINUOUS
 62
    2
 10
741.76328129679223
 20
508.9935731132087
 11
736.16328129679209
 21
508.9935731132087
  0
LINE
  8
_0-0_計極細
  6
CONTINUOUS
 62
    2
 10
724.76328129679223
 20
495.99357311320864
 11
719.16328129679198
 21
495.99357311320864
  0
LINE
  8
_0-0_計極細
  6
CONTINUOUS
 62
    2
 10
724.76328129679223
 20
508.9935731132087
 11
719.16328129679198
 21
508.9935731132087
  0
LINE
  8
_0-0_計極細
  6
CONTINUOUS
 62
    2
 10
707.76328129679212
 20
495.99357311320864
 11
702.16328129679198
 21
495.99357311320864
  0
LINE
  8
_0-0_計極細
  6
CONTINUOUS
 62
    2
 10
707.76328129679212
 20
508.9935731132087
 11
702.16328129679198
 21
508.9935731132087
  0
LINE
  8
_0-0_計極細
  6
CONTINUOUS
 62
    2
 10
690.76328129679212
 20
495.99357311320864
 11
685.16328129679198
 21
495.99357311320864
  0
LINE
  8
_0-0_計極細
  6
CONTINUOUS
 62
    2
 10
690.76328129679212
 20
508.9935731132087
 11
685.16328129679198
 21
508.9935731132087
  0
LINE
  8
_0-0_計極細
  6
CONTINUOUS
 62
    2
 10
673.76328129679212
 20
495.99357311320864
 11
668.16328129679209
 21
495.99357311320864
  0
LINE
  8
_0-0_計極細
  6
CONTINUOUS
 62
    2
 10
673.76328129679212
 20
508.9935731132087
 11
668.16328129679209
 21
508.9935731132087
  0
LINE
  8
_0-0_計極細
  6
CONTINUOUS
 62
    2
 10
656.76328129679223
 20
495.99357311320864
 11
651.16328129679209
 21
495.99357311320864
  0
LINE
  8
_0-0_計極細
  6
CONTINUOUS
 62
    2
 10
656.76328129679223
 20
508.9935731132087
 11
651.16328129679209
 21
508.9935731132087
  0
LINE
  8
_0-0_計極細
  6
CONTINUOUS
 62
    2
 10
639.76328129679223
 20
495.99357311320864
 11
634.16328129679198
 21
495.99357311320864
  0
LINE
  8
_0-0_計極細
  6
CONTINUOUS
 62
    2
 10
639.76328129679223
 20
508.9935731132087
 11
634.16328129679198
 21
508.9935731132087
  0
LINE
  8
_0-0_計極細
  6
CONTINUOUS
 62
    2
 10
622.76328129679212
 20
495.99357311320864
 11
617.16328129679198
 21
495.99357311320864
  0
LINE
  8
_0-0_計極細
  6
CONTINUOUS
 62
    2
 10
622.76328129679212
 20
508.9935731132087
 11
617.16328129679198
 21
508.9935731132087
  0
LINE
  8
_0-0_計極細
  6
CONTINUOUS
 62
    2
 10
605.76328129679212
 20
495.99357311320864
 11
600.16328129679198
 21
495.99357311320864
  0
LINE
  8
_0-0_計極細
  6
CONTINUOUS
 62
    2
 10
605.76328129679212
 20
508.9935731132087
 11
600.16328129679198
 21
508.9935731132087
  0
LINE
  8
_0-0_計極細
  6
CONTINUOUS
 62
    2
 10
588.76328129679212
 20
495.99357311320864
 11
583.16328129679198
 21
495.99357311320864
  0
LINE
  8
_0-0_計極細
  6
CONTINUOUS
 62
    2
 10
588.76328129679212
 20
508.9935731132087
 11
583.16328129679198
 21
508.9935731132087
  0
LINE
  8
_0-0_計極細
  6
CONTINUOUS
 62
    2
 10
571.76328129679212
 20
495.99357311320864
 11
566.16328129679209
 21
495.99357311320864
  0
LINE
  8
_0-0_計極細
  6
CONTINUOUS
 62
    2
 10
571.76328129679212
 20
508.9935731132087
 11
566.16328129679209
 21
508.9935731132087
  0
LINE
  8
_0-0_計極細
  6
CONTINUOUS
 62
    2
 10
554.76328129679223
 20
495.99357311320864
 11
549.16328129679198
 21
495.99357311320864
  0
LINE
  8
_0-0_計極細
  6
CONTINUOUS
 62
    2
 10
554.76328129679223
 20
508.9935731132087
 11
549.16328129679198
 21
508.9935731132087
  0
LINE
  8
_0-0_計極細
  6
CONTINUOUS
 62
    2
 10
537.76328129679212
 20
495.99357311320864
 11
532.16328129679198
 21
495.99357311320864
  0
LINE
  8
_0-0_計極細
  6
CONTINUOUS
 62
    2
 10
537.76328129679212
 20
508.9935731132087
 11
532.16328129679198
 21
508.9935731132087
  0
LINE
  8
_0-0_計極細
  6
CONTINUOUS
 62
    2
 10
520.76328129679212
 20
495.99357311320864
 11
515.16328129679198
 21
495.99357311320864
  0
LINE
  8
_0-0_計極細
  6
CONTINUOUS
 62
    2
 10
520.76328129679212
 20
508.9935731132087
 11
515.16328129679198
 21
508.9935731132087
  0
LINE
  8
_0-0_計極細
  6
CONTINUOUS
 62
    2
 10
503.76328129679217
 20
495.99357311320864
 11
498.16328129679198
 21
495.99357311320864
  0
LINE
  8
_0-0_計極細
  6
CONTINUOUS
 62
    2
 10
503.76328129679217
 20
508.9935731132087
 11
498.16328129679198
 21
508.9935731132087
  0
LINE
  8
_0-0_計極細
  6
CONTINUOUS
 62
    2
 10
486.76328129679212
 20
495.99357311320864
 11
481.16328129679204
 21
495.99357311320864
  0
LINE
  8
_0-0_計極細
  6
CONTINUOUS
 62
    2
 10
486.76328129679212
 20
508.9935731132087
 11
481.16328129679204
 21
508.9935731132087
  0
LINE
  8
_0-0_計極細
  6
CONTINUOUS
 62
    2
 10
469.76328129679217
 20
495.99357311320864
 11
464.16328129679198
 21
495.99357311320864
  0
LINE
  8
_0-0_計極細
  6
CONTINUOUS
 62
    2
 10
469.76328129679217
 20
508.9935731132087
 11
464.16328129679198
 21
508.9935731132087
  0
LINE
  8
_0-0_計極細
  6
CONTINUOUS
 62
    2
 10
452.76328129679212
 20
495.99357311320864
 11
447.16328129679198
 21
495.99357311320864
  0
LINE
  8
_0-0_計極細
  6
CONTINUOUS
 62
    2
 10
452.76328129679212
 20
508.9935731132087
 11
447.16328129679198
 21
508.9935731132087
  0
LINE
  8
_0-0_計極細
  6
CONTINUOUS
 62
    2
 10
435.76328129679212
 20
495.99357311320864
 11
430.16328129679204
 21
495.99357311320864
  0
LINE
  8
_0-0_計極細
  6
CONTINUOUS
 62
    2
 10
435.76328129679212
 20
508.9935731132087
 11
430.16328129679204
 21
508.9935731132087
  0
LINE
  8
_0-0_計極細
  6
CONTINUOUS
 62
    2
 10
418.76328129679217
 20
495.99357311320864
 11
413.16328129679198
 21
495.99357311320864
  0
LINE
  8
_0-0_計極細
  6
CONTINUOUS
 62
    2
 10
418.76328129679217
 20
508.9935731132087
 11
413.16328129679198
 21
508.9935731132087
  0
LINE
  8
_0-0_計極細
  6
CONTINUOUS
 62
    2
 10
401.76328129679212
 20
495.99357311320864
 11
396.16328129679187
 21
495.99357311320864
  0
LINE
  8
_0-0_計極細
  6
CONTINUOUS
 62
    2
 10
401.76328129679212
 20
508.9935731132087
 11
396.16328129679187
 21
508.9935731132087
  0
LINE
  8
_0-0_計極細
  6
CONTINUOUS
 62
    2
 10
384.76328129679223
 20
495.99357311320864
 11
379.16328129679187
 21
495.99357311320864
  0
LINE
  8
_0-0_計極細
  6
CONTINUOUS
 62
    2
 10
384.76328129679223
 20
508.9935731132087
 11
379.16328129679187
 21
508.9935731132087
  0
LINE
  8
_0-0_計極細
  6
CONTINUOUS
 62
    2
 10
367.76328129679223
 20
495.99357311320864
 11
362.16328129679192
 21
495.99357311320864
  0
LINE
  8
_0-0_計極細
  6
CONTINUOUS
 62
    2
 10
367.76328129679223
 20
508.9935731132087
 11
362.16328129679192
 21
508.9935731132087
  0
LINE
  8
_0-0_計極細
  6
CONTINUOUS
 62
    2
 10
350.76328129679223
 20
495.99357311320864
 11
345.16328129679187
 21
495.99357311320864
  0
LINE
  8
_0-0_計極細
  6
CONTINUOUS
 62
    2
 10
350.76328129679223
 20
508.9935731132087
 11
345.16328129679187
 21
508.9935731132087
  0
LINE
  8
_0-0_計極細
  6
CONTINUOUS
 62
    2
 10
333.76328129679223
 20
495.99357311320864
 11
328.16328129679187
 21
495.99357311320864
  0
LINE
  8
_0-0_計極細
  6
CONTINUOUS
 62
    2
 10
333.76328129679223
 20
508.9935731132087
 11
328.16328129679187
 21
508.9935731132087
  0
LINE
  8
_0-0_計極細
  6
CONTINUOUS
 62
    2
 10
316.76328129679223
 20
495.99357311320864
 11
311.16328129679187
 21
495.99357311320864
  0
LINE
  8
_0-0_計極細
  6
CONTINUOUS
 62
    2
 10
316.76328129679223
 20
508.9935731132087
 11
311.16328129679187
 21
508.9935731132087
  0
LINE
  8
_0-0_計極細
  6
CONTINUOUS
 62
    2
 10
299.76328129679223
 20
495.99357311320864
 11
293.76328129679177
 21
495.99357311320864
  0
LINE
  8
_0-0_計極細
  6
CONTINUOUS
 62
    2
 10
299.76328129679223
 20
508.9935731132087
 11
293.76328129679177
 21
508.9935731132087
  0
LINE
  8
_0-0_計極細
  6
CONTINUOUS
 62
    2
 10
282.36328129679214
 20
495.99357311320864
 11
276.36328129679214
 21
495.99357311320864
  0
LINE
  8
_0-0_計極細
  6
CONTINUOUS
 62
    2
 10
282.36328129679214
 20
508.9935731132087
 11
276.36328129679214
 21
508.9935731132087
  0
LINE
  8
_0-0_計極細
  6
CONTINUOUS
 62
    2
 10
264.96328129679256
 20
495.99357311320864
 11
258.96328129679205
 21
495.99357311320864
  0
LINE
  8
_0-0_計極細
  6
CONTINUOUS
 62
    2
 10
264.96328129679256
 20
508.9935731132087
 11
258.96328129679205
 21
508.9935731132087
  0
LINE
  8
_0-0_計極細
  6
CONTINUOUS
 62
    2
 10
247.56328129679247
 20
495.99357311320864
 11
241.56328129679224
 21
495.99357311320864
  0
LINE
  8
_0-0_計極細
  6
CONTINUOUS
 62
    2
 10
247.56328129679247
 20
508.9935731132087
 11
241.56328129679224
 21
508.9935731132087
  0
LINE
  8
_0-0_計極細
  6
CENTER1
 62
    2
 10
227.15469612011248
 20
502.49357311320915
 11
1236.9211050378044
 21
502.49357311320864
  0
LINE
  8
_0-0_計極細
  6
CONTINUOUS
 62
    2
 10
1093.1632812967914
 20
711.9935731132091
 11
1098.7632812967922
 21
711.9935731132091
  0
LINE
  8
_0-0_計極細
  6
CONTINUOUS
 62
    2
 10
1093.1632812967914
 20
724.9935731132091
 11
1098.7632812967922
 21
724.9935731132091
  0
LINE
  8
_0-1_計細線
  6
CONTINUOUS
 62
    3
 10
1132.7632812967931
 20
484.99357311321006
 11
1132.7632812967922
 21
735.99357311320875
  0
LINE
  8
_0-1_計細線
  6
CONTINUOUS
 62
    3
 10
1132.7632812967931
 20
484.99357311321006
 11
1144.1632812967937
 21
484.99357311321006
  0
LINE
  8
_0-0_計極細
  6
CONTINUOUS
 62
    2
 10
1140.9632812967934
 20
484.99357311321006
 11
1140.9632812967925
 21
735.99357311320875
  0
LINE
  8
_0-0_計極細
  6
CONTINUOUS
 62
    2
 10
1135.9632812967934
 20
484.99357311321006
 11
1135.9632812967925
 21
735.99357311320875
  0
LINE
  8
_0-1_計細線
  6
CONTINUOUS
 62
    3
 10
1132.7632812967922
 20
735.99357311320875
 11
1144.1632812967937
 21
735.99357311320875
  0
LINE
  8
_0-1_計細線
  6
CONTINUOUS
 62
    3
 10
1144.1632812967937
 20
484.99357311321006
 11
1144.1632812967937
 21
735.99357311320875
  0
LINE
  8
_0-1_計細線
  6
CONTINUOUS
 62
    3
 10
1161.1632812967946
 20
484.99357311321046
 11
1161.1632812967932
 21
735.99357311320875
  0
LINE
  8
_0-1_計細線
  6
CONTINUOUS
 62
    3
 10
1149.763281296794
 20
484.99357311321006
 11
1161.1632812967946
 21
484.99357311321046
  0
LINE
  8
_0-0_計極細
  6
CONTINUOUS
 62
    2
 10
1157.9632812967943
 20
484.99357311321006
 11
1157.963281296793
 21
735.99357311320875
  0
LINE
  8
_0-0_計極細
  6
CONTINUOUS
 62
    2
 10
1152.9632812967943
 20
484.99357311321006
 11
1152.963281296793
 21
735.99357311320875
  0
LINE
  8
_0-1_計細線
  6
CONTINUOUS
 62
    3
 10
1149.763281296794
 20
484.99357311321006
 11
1149.763281296794
 21
735.99357311320875
  0
LINE
  8
_0-1_計細線
  6
CONTINUOUS
 62
    3
 10
1149.763281296794
 20
735.99357311320875
 11
1161.1632812967932
 21
735.99357311320875
  0
LINE
  8
_0-0_計極細
  6
CONTINUOUS
 62
    2
 10
1093.1632812967919
 20
616.9935731132091
 11
1093.6132812967917
 21
616.9935731132091
  0
LINE
  8
_0-0_計極細
  6
CONTINUOUS
 62
    2
 10
1098.3132812967915
 20
616.9935731132091
 11
1098.7632812967931
 21
616.9935731132091
  0
LINE
  8
_0-0_計極細
  6
CONTINUOUS
 62
    2
 10
1093.1632812967919
 20
603.9935731132091
 11
1093.6132812967917
 21
603.9935731132091
  0
LINE
  8
_0-0_計極細
  6
CONTINUOUS
 62
    2
 10
1098.3132812967915
 20
603.9935731132091
 11
1098.7632812967931
 21
603.9935731132091
  0
LINE
  8
_0-1_計細線
  6
CONTINUOUS
 62
    3
 10
1098.313281296791
 20
571.49357311320819
 11
1098.3132812967915
 21
624.49357311320807
  0
LINE
  8
_0-1_計細線
  6
CONTINUOUS
 62
    3
 10
1093.6132812967917
 20
624.49357311320807
 11
1093.6132812967912
 21
571.49357311320819
  0
LINE
  8
_0-1_計細線
  6
CONTINUOUS
 62
    3
 10
1093.6132812967912
 20
571.49357311320819
 11
1098.313281296791
 21
571.49357311320819
  0
LINE
  8
_0-1_計細線
  6
CONTINUOUS
 62
    3
 10
1093.6132812967917
 20
614.49357311320807
 11
1098.3132812967915
 21
614.49357311320807
  0
LINE
  8
_0-1_計細線
  6
CONTINUOUS
 62
    3
 10
1093.6132812967917
 20
622.49357311320807
 11
1098.3132812967915
 21
622.49357311320807
  0
LINE
  8
_0-1_計細線
  6
CONTINUOUS
 62
    3
 10
1093.6132812967917
 20
624.49357311320807
 11
1098.3132812967915
 21
624.49357311320807
  0
LINE
  8
_0-1_計細線
  6
CONTINUOUS
 62
    3
 10
1093.6132812967917
 20
620.49357311320807
 11
1098.3132812967915
 21
620.49357311320807
  0
LINE
  8
_0-1_計細線
  6
CONTINUOUS
 62
    3
 10
1093.6132812967917
 20
618.49357311320807
 11
1098.3132812967915
 21
618.49357311320807
  0
LINE
  8
_0-1_計細線
  6
CONTINUOUS
 62
    3
 10
1093.6132812967917
 20
616.49357311320819
 11
1098.3132812967915
 21
616.49357311320819
  0
TEXT
  8
_0-5_寸法線
 62
    7
 10
344.51035296876449
 20
423.27598052061785
 40
15
 41
0.8000000000000001
 50
0
  1
ＧＳＬ－２０
  0
LINE
  8
_0-5_寸法線
  6
CONTINUOUS
 62
    7
 10
332.66898341129854
 20
482.46857311321037
 11
337.66898342242308
 21
473.80831908178868
  0
LINE
  8
_0-5_寸法線
  6
CONTINUOUS
 62
    7
 10
332.66898341129854
 20
482.46857311321037
 11
332.66898342414402
 21
472.46857311321037
  0
LINE
  8
_0-5_寸法線
  6
CONTINUOUS
 62
    7
 10
332.66898341129854
 20
482.46857311321037
 11
344.51035296876449
 21
438.27598052061785
  0
LINE
  8
_0-5_寸法線
  6
CONTINUOUS
 62
    7
 10
344.51035296876449
 20
438.27598052061785
 11
452.51035296876444
 21
438.27598052061785
  0
TEXT
  8
_0-5_寸法線
 62
    7
 10
344.51035296876449
 20
438.87598052061776
 40
15
 41
0.8000000000000001
 50
0
  1
ＳＵＳアングル受枠
  0
LINE
  8
_0-5_寸法線
  6
CONTINUOUS
 62
    7
 10
458.43662227002989
 20
525.44729426159256
 11
463.43662225792792
 21
516.78704021676117
  0
LINE
  8
_0-5_寸法線
  6
CONTINUOUS
 62
    7
 10
458.43662227002989
 20
525.44729426159256
 11
458.43662225605567
 21
515.44729426159256
  0
LINE
  8
_0-5_寸法線
  6
CONTINUOUS
 62
    7
 10
458.43662227002989
 20
525.44729426159256
 11
481.79410525952346
 21
438.27598052061785
  0
LINE
  8
_0-5_寸法線
  6
CONTINUOUS
 62
    7
 10
481.79410525952346
 20
438.27598052061785
 11
613.79410525952358
 21
438.27598052061785
  0
TEXT
  8
_0-5_寸法線
 62
    7
 10
481.79410525952363
 20
438.27598052061785
 40
15
 41
0.8000000000000001
 50
0
  1
セーフティグレーチング
  0
TEXT
  8
_0-5_寸法線
 62
    7
 10
481.79410525952346
 20
423.27598052061785
 40
15
 41
0.8000000000000001
 50
0
  1
ＧＲＳＪ－２０Ｗ２５１
  0
LINE
  8
_0-5_寸法線
  6
CONTINUOUS
 62
    7
 10
230.16328129679124
 20
750.49357311320819
 11
230.16328129679124
 21
830.49357311320773
  0
LINE
  8
_0-5_寸法線
  6
CONTINUOUS
 62
    7
 10
230.16328129679124
 20
825.49357311320773
 11
237.40772499395916
 21
827.43471595147662
  0
LINE
  8
_0-5_寸法線
  6
CONTINUOUS
 62
    7
 10
230.16328129679124
 20
825.49357311320773
 11
237.40772499395916
 21
823.55243027493884
  0
LINE
  8
_0-5_寸法線
  6
CONTINUOUS
 62
    7
 10
1229.1632812967914
 20
750.49357311320819
 11
1229.1632812967914
 21
830.49357311320773
  0
LINE
  8
_0-5_寸法線
  6
CONTINUOUS
 62
    7
 10
1229.1632812967914
 20
825.49357311320773
 11
1221.9188375996232
 21
823.55243027493884
  0
LINE
  8
_0-5_寸法線
  6
CONTINUOUS
 62
    7
 10
1229.1632812967914
 20
825.49357311320773
 11
1221.9188375996232
 21
827.43471595147662
  0
LINE
  8
_0-5_寸法線
  6
CONTINUOUS
 62
    7
 10
230.16328129679124
 20
825.49357311320773
 11
1229.1632812967914
 21
825.49357311320773
  0
TEXT
  8
_0-5_寸法線
 62
    7
 10
718.4132812967913
 20
825.49357311320762
 40
15
 41
1
 50
0
  1
999
  0
LINE
  8
_0-5_寸法線
  6
CONTINUOUS
 62
    7
 10
1095.0840386513687
 20
623.65025230542801
 11
1090.0840386511752
 21
632.31050634316068
  0
LINE
  8
_0-5_寸法線
  6
CONTINUOUS
 62
    7
 10
1095.0840386513687
 20
623.65025230542801
 11
1095.0840386511454
 21
633.65025230542801
  0
LINE
  8
_0-5_寸法線
  6
CONTINUOUS
 62
    7
 10
1095.0840386513687
 20
623.65025230542801
 11
1050.3785055743999
 21
790.49357311320773
  0
LINE
  8
_0-5_寸法線
  6
CONTINUOUS
 62
    7
 10
1050.3785055743999
 20
790.49357311320773
 11
990.37850557439992
 21
790.49357311320773
  0
TEXT
  8
_0-5_寸法線
 62
    7
 10
990.37850557439992
 20
790.49357311320773
 40
15
 41
0.8000000000000001
 50
0
  1
取　外　具
  0
TEXT
  8
_0-5_寸法線
 62
    7
 10
991.0527428296532
 20
773.95620191549779
 40
15
 41
0.8000000000000001
 50
-0.0000000000001357
  1
(標準付属)
  0
LINE
  8
_0-7_枠細線
  6
CONTINUOUS
 62
    5
 10
1007.2021766852923
 20
807.94062900125243
 11
999.70217668529222
 21
822.94062900125243
  0
LINE
  8
_0-7_枠細線
  6
CONTINUOUS
 62
    5
 10
992.20217668529222
 20
807.94062900125243
 11
1007.2021766852923
 21
807.94062900125243
  0
LINE
  8
_0-7_枠細線
  6
CONTINUOUS
 62
    5
 10
999.70217668529222
 20
822.94062900125243
 11
992.20217668529222
 21
807.94062900125243
  0
TEXT
  8
_0-7_枠細線
 62
    5
 10
994.56732795344021
 20
807.63362675587189
 40
12.5
 41
0.8
 50
0
  1
１
  0
LINE
  8
_0-7_枠細線
  6
CONTINUOUS
 62
    5
 10
1018.0717197125086
 20
822.94062900125243
 11
1010.5717197125086
 21
807.94062900125243
  0
LINE
  8
_0-7_枠細線
  6
CONTINUOUS
 62
    5
 10
1010.5717197125086
 20
807.94062900125243
 11
1025.5717197125086
 21
807.94062900125243
  0
LINE
  8
_0-7_枠細線
  6
CONTINUOUS
 62
    5
 10
1025.5717197125086
 20
807.94062900125243
 11
1018.0717197125086
 21
822.94062900125243
  0
TEXT
  8
_0-7_枠細線
 62
    5
 10
1013.0572118030574
 20
807.39294511107107
 40
12.5
 41
0.8
 50
0
  1
２
  0
LINE
  8
_0-7_枠細線
  6
CONTINUOUS
 62
    5
 10
1044.2857036272048
 20
807.94062900125243
 11
1036.7857036272048
 21
822.94062900125243
  0
LINE
  8
_0-7_枠細線
  6
CONTINUOUS
 62
    5
 10
1029.2857036272048
 20
807.94062900125243
 11
1044.2857036272048
 21
807.94062900125243
  0
LINE
  8
_0-7_枠細線
  6
CONTINUOUS
 62
    5
 10
1036.7857036272048
 20
822.94062900125243
 11
1029.2857036272048
 21
807.94062900125243
  0
TEXT
  8
_0-7_枠細線
 62
    5
 10
1031.6508548953529
 20
807.39294511107107
 40
12.5
 41
0.8
 50
0
  1
５
  0
ARC
  8
_0-b_細線3
  6
CONTINUOUS
 62
    7
 10
869.85596010283177
 20
266.53633549527376
 40
1.666666666666667
 50
89.999999999999915
 51
179.99999999999983
  0
ARC
  8
_0-b_細線3
  6
CONTINUOUS
 62
    7
 10
870.63587542171058
 20
269.86966882860725
 40
1.666666666666667
 50
269.99999999999977
 51
330.00000000000301
  0
ARC
  8
_0-b_細線3
  6
CONTINUOUS
 62
    7
 10
873.52262676765872
 20
268.20300216194073
 40
1.666666666666667
 50
89.999999999999915
 51
150.00000000000134
  0
LINE
  8
_0-b_細線3
  6
CONTINUOUS
 62
    7
 10
869.85596010283177
 20
268.20300216194073
 11
870.63587542171058
 21
268.20300216194073
  0
ARC
  8
_0-b_細線3
  6
CONTINUOUS
 62
    7
 10
885.52262676581972
 20
266.53633549527376
 40
1.666666666666667
 50
0
 51
89.999999999999915
  0
ARC
  8
_0-b_細線3
  6
CONTINUOUS
 62
    7
 10
884.74271144694046
 20
269.86966882860725
 40
1.666666666666667
 50
210.00000000000404
 51
269.99999999999977
  0
ARC
  8
_0-b_細線3
  6
CONTINUOUS
 62
    7
 10
881.85596010099232
 20
268.20300216194073
 40
1.666666666666667
 50
29.999999999990862
 51
89.999999999984354
  0
LINE
  8
_0-b_細線3
  6
CONTINUOUS
 62
    7
 10
885.52262676581972
 20
268.20300216194073
 11
884.74271144694046
 21
268.20300216194073
  0
ARC
  8
_0-b_細線3
  6
CONTINUOUS
 62
    7
 10
869.02262676949817
 20
264.20300216194073
 40
0.8333333333333334
 50
179.99999999999983
 51
269.99999999999977
  0
LINE
  8
_0-b_細線3
  6
CONTINUOUS
 62
    7
 10
868.18929343616469
 20
266.53633549527376
 11
868.18929343616469
 21
264.20300216194073
  0
ARC
  8
_0-b_細線3
  6
CONTINUOUS
 62
    7
 10
886.35596009915275
 20
264.20300216194073
 40
0.8333333333333334
 50
269.99999999999977
 51
359.99999999999966
  0
LINE
  8
_0-b_細線3
  6
CONTINUOUS
 62
    7
 10
887.18929343248635
 20
266.53633549527376
 11
887.18929343248635
 21
264.20300216194073
  0
ARC
  8
_0-b_細線3
  6
CONTINUOUS
 62
    7
 10
873.18929343616469
 20
261.70300216194073
 40
1.666666666666667
 50
0
 51
89.999999999999915
  0
LINE
  8
_0-b_細線3
  6
CONTINUOUS
 62
    7
 10
873.18929343616469
 20
263.36966882860725
 11
869.02262676949817
 21
263.36966882860725
  0
ARC
  8
_0-b_細線3
  6
CONTINUOUS
 62
    7
 10
882.18929343616526
 20
261.70300216194073
 40
1.666666666666667
 50
89.999999999999915
 51
179.99999999999983
  0
LINE
  8
_0-b_細線3
  6
CONTINUOUS
 62
    7
 10
882.18929343248635
 20
263.36966882860725
 11
886.35596009915275
 21
263.36966882860725
  0
LINE
  8
_0-b_細線3
  6
CONTINUOUS
 62
    7
 10
881.85596010099232
 20
269.86966882860725
 11
873.52262676765872
 21
269.86966882860725
  0
LINE
  8
_0-b_細線3
  6
CONTINUOUS
 62
    7
 10
874.85596010099232
 20
236.53633549527376
 11
874.85596010283177
 21
261.70300216194073
  0
LINE
  8
_0-b_細線3
  6
CONTINUOUS
 62
    7
 10
880.52262676765872
 20
236.53633549527376
 11
880.52262676949863
 21
261.70300216194073
  0
LINE
  8
_0-b_細線3
  6
CONTINUOUS
 62
    7
 10
880.52262676765872
 20
236.53633549527376
 11
874.85596010099232
 21
236.53633549527376
  0
ARC
  8
_0-b_細線3
  6
CONTINUOUS
 62
    7
 10
898.85596010343477
 20
266.53633549527376
 40
1.666666666666667
 50
89.999999999999915
 51
179.99999999999983
  0
ARC
  8
_0-b_細線3
  6
CONTINUOUS
 62
    7
 10
899.63587542231369
 20
269.86966882860725
 40
1.666666666666667
 50
269.99999999999977
 51
329.99999999999523
  0
ARC
  8
_0-b_細線3
  6
CONTINUOUS
 62
    7
 10
902.52262676826172
 20
268.20300216194073
 40
1.666666666666667
 50
89.999999999999915
 51
150.00000000000915
  0
LINE
  8
_0-b_細線3
  6
CONTINUOUS
 62
    7
 10
898.85596010343477
 20
268.20300216194073
 11
899.63587542231369
 21
268.20300216194073
  0
ARC
  8
_0-b_細線3
  6
CONTINUOUS
 62
    7
 10
914.52262676642272
 20
266.53633549527376
 40
1.666666666666667
 50
0
 51
89.999999999999915
  0
ARC
  8
_0-b_細線3
  6
CONTINUOUS
 62
    7
 10
913.74271144754346
 20
269.86966882860725
 40
1.666666666666667
 50
209.99999999999622
 51
269.99999999999977
  0
ARC
  8
_0-b_細線3
  6
CONTINUOUS
 62
    7
 10
910.8559601015952
 20
268.20300216194073
 40
1.666666666666667
 50
29.999999999998682
 51
89.999999999999915
  0
LINE
  8
_0-b_細線3
  6
CONTINUOUS
 62
    7
 10
914.52262676642272
 20
268.20300216194073
 11
913.74271144754346
 21
268.20300216194073
  0
ARC
  8
_0-b_細線3
  6
CONTINUOUS
 62
    7
 10
898.02262677010162
 20
264.20300216194073
 40
0.8333333333333334
 50
179.99999999999983
 51
269.99999999999977
  0
LINE
  8
_0-b_細線3
  6
CONTINUOUS
 62
    7
 10
897.1892934367678
 20
266.53633549527376
 11
897.1892934367678
 21
264.20300216194073
  0
ARC
  8
_0-b_細線3
  6
CONTINUOUS
 62
    7
 10
915.35596009975575
 20
264.20300216194073
 40
0.8333333333333334
 50
269.99999999999977
 51
359.99999999999966
  0
LINE
  8
_0-b_細線3
  6
CONTINUOUS
 62
    7
 10
916.18929343308935
 20
266.53633549527376
 11
916.18929343308935
 21
264.20300216194073
  0
ARC
  8
_0-b_細線3
  6
CONTINUOUS
 62
    7
 10
902.1892934367678
 20
261.70300216194073
 40
1.666666666666667
 50
0
 51
89.999999999999915
  0
LINE
  8
_0-b_細線3
  6
CONTINUOUS
 62
    7
 10
902.1892934367678
 20
263.36966882860725
 11
898.02262677010162
 21
263.36966882860725
  0
ARC
  8
_0-b_細線3
  6
CONTINUOUS
 62
    7
 10
911.18929343676825
 20
261.70300216194073
 40
1.666666666666667
 50
89.999999999999915
 51
179.99999999999983
  0
LINE
  8
_0-b_細線3
  6
CONTINUOUS
 62
    7
 10
911.18929343308935
 20
263.36966882860725
 11
915.35596009975575
 21
263.36966882860725
  0
LINE
  8
_0-b_細線3
  6
CONTINUOUS
 62
    7
 10
910.8559601015952
 20
269.86966882860725
 11
902.52262676826172
 21
269.86966882860725
  0
LINE
  8
_0-b_細線3
  6
CONTINUOUS
 62
    7
 10
903.85596010159531
 20
236.53633549527376
 11
903.85596010343477
 21
261.70300216194073
  0
LINE
  8
_0-b_細線3
  6
CONTINUOUS
 62
    7
 10
909.52262676826183
 20
236.53633549527376
 11
909.52262677010162
 21
261.70300216194073
  0
LINE
  8
_0-b_細線3
  6
CONTINUOUS
 62
    7
 10
909.52262676826183
 20
236.53633549527376
 11
903.85596010159531
 21
236.53633549527376
  0
ARC
  8
_0-b_細線3
  6
CONTINUOUS
 62
    7
 10
927.85596010403765
 20
266.53633549527376
 40
1.666666666666667
 50
89.999999999999915
 51
179.99999999999983
  0
ARC
  8
_0-b_細線3
  6
CONTINUOUS
 62
    7
 10
928.63587542291668
 20
269.86966882860725
 40
1.666666666666667
 50
269.99999999999977
 51
329.99999999999523
  0
ARC
  8
_0-b_細線3
  6
CONTINUOUS
 62
    7
 10
931.52262676886482
 20
268.20300216194073
 40
1.666666666666667
 50
89.999999999999915
 51
150.00000000000915
  0
LINE
  8
_0-b_細線3
  6
CONTINUOUS
 62
    7
 10
927.85596010403765
 20
268.20300216194073
 11
928.63587542291668
 21
268.20300216194073
  0
ARC
  8
_0-b_細線3
  6
CONTINUOUS
 62
    7
 10
943.52262676702583
 20
266.53633549527376
 40
1.666666666666667
 50
0
 51
89.999999999999915
  0
ARC
  8
_0-b_細線3
  6
CONTINUOUS
 62
    7
 10
942.74271144814634
 20
269.86966882860725
 40
1.666666666666667
 50
210.00000000000404
 51
269.99999999999977
  0
ARC
  8
_0-b_細線3
  6
CONTINUOUS
 62
    7
 10
939.8559601021982
 20
268.20300216194073
 40
1.666666666666667
 50
29.999999999990862
 51
89.999999999984354
  0
LINE
  8
_0-b_細線3
  6
CONTINUOUS
 62
    7
 10
943.52262676702583
 20
268.20300216194073
 11
942.74271144814634
 21
268.20300216194073
  0
ARC
  8
_0-b_細線3
  6
CONTINUOUS
 62
    7
 10
927.02262677070416
 20
264.20300216194073
 40
0.8333333333333334
 50
179.99999999999983
 51
269.99999999999977
  0
LINE
  8
_0-b_細線3
  6
CONTINUOUS
 62
    7
 10
926.18929343737079
 20
266.53633549527376
 11
926.18929343737079
 21
264.20300216194073
  0
ARC
  8
_0-b_細線3
  6
CONTINUOUS
 62
    7
 10
944.35596010035874
 20
264.20300216194073
 40
0.8333333333333334
 50
269.99999999999977
 51
359.99999999999966
  0
LINE
  8
_0-b_細線3
  6
CONTINUOUS
 62
    7
 10
945.18929343369223
 20
266.53633549527376
 11
945.18929343369223
 21
264.20300216194073
  0
ARC
  8
_0-b_細線3
  6
CONTINUOUS
 62
    7
 10
931.18929343737079
 20
261.70300216194073
 40
1.666666666666667
 50
0
 51
89.999999999999915
  0
LINE
  8
_0-b_細線3
  6
CONTINUOUS
 62
    7
 10
931.18929343737079
 20
263.36966882860725
 11
927.02262677070416
 21
263.36966882860725
  0
ARC
  8
_0-b_細線3
  6
CONTINUOUS
 62
    7
 10
940.18929343737068
 20
261.70300216194073
 40
1.666666666666667
 50
89.999999999999915
 51
179.99999999999983
  0
LINE
  8
_0-b_細線3
  6
CONTINUOUS
 62
    7
 10
940.18929343369177
 20
263.36966882860725
 11
944.35596010035874
 21
263.36966882860725
  0
LINE
  8
_0-b_細線3
  6
CONTINUOUS
 62
    7
 10
939.8559601021982
 20
269.86966882860725
 11
931.52262676886482
 21
269.86966882860725
  0
LINE
  8
_0-b_細線3
  6
CONTINUOUS
 62
    7
 10
932.8559601021982
 20
236.53633549527376
 11
932.85596010403765
 21
261.70300216194073
  0
LINE
  8
_0-b_細線3
  6
CONTINUOUS
 62
    7
 10
938.52262676886482
 20
236.53633549527376
 11
938.52262677070473
 21
261.70300216194073
  0
LINE
  8
_0-b_細線3
  6
CONTINUOUS
 62
    7
 10
938.52262676886482
 20
236.53633549527376
 11
932.8559601021982
 21
236.53633549527376
  0
ARC
  8
_0-b_細線3
  6
CONTINUOUS
 62
    7
 10
811.85596010130882
 20
266.53633549527376
 40
1.666666666666667
 50
89.999999999999915
 51
179.99999999999983
  0
ARC
  8
_0-b_細線3
  6
CONTINUOUS
 62
    7
 10
812.63587542018763
 20
269.86966882860725
 40
1.666666666666667
 50
269.99999999999977
 51
330.00000000000301
  0
ARC
  8
_0-b_細線3
  6
CONTINUOUS
 62
    7
 10
815.52262676613577
 20
268.20300216194073
 40
1.666666666666667
 50
89.999999999999915
 51
150.00000000000134
  0
LINE
  8
_0-b_細線3
  6
CONTINUOUS
 62
    7
 10
811.85596010130882
 20
268.20300216194073
 11
812.63587542018763
 21
268.20300216194073
  0
ARC
  8
_0-b_細線3
  6
CONTINUOUS
 62
    7
 10
827.52262676429677
 20
266.53633549527376
 40
1.666666666666667
 50
0
 51
89.999999999999915
  0
ARC
  8
_0-b_細線3
  6
CONTINUOUS
 62
    7
 10
826.74271144541785
 20
269.86966882860725
 40
1.666666666666667
 50
209.99999999999622
 51
269.99999999999977
  0
ARC
  8
_0-b_細線3
  6
CONTINUOUS
 62
    7
 10
823.85596009946937
 20
268.20300216194073
 40
1.666666666666667
 50
29.999999999990862
 51
89.999999999984354
  0
LINE
  8
_0-b_細線3
  6
CONTINUOUS
 62
    7
 10
827.52262676429677
 20
268.20300216194073
 11
826.74271144541785
 21
268.20300216194073
  0
ARC
  8
_0-b_細線3
  6
CONTINUOUS
 62
    7
 10
811.02262676797579
 20
264.20300216194073
 40
0.8333333333333334
 50
179.99999999999983
 51
269.99999999999977
  0
LINE
  8
_0-b_細線3
  6
CONTINUOUS
 62
    7
 10
810.18929343464174
 20
266.53633549527376
 11
810.18929343464174
 21
264.20300216194073
  0
ARC
  8
_0-b_細線3
  6
CONTINUOUS
 62
    7
 10
828.3559600976298
 20
264.20300216194073
 40
0.8333333333333334
 50
269.99999999999977
 51
359.99999999999966
  0
LINE
  8
_0-b_細線3
  6
CONTINUOUS
 62
    7
 10
829.18929343096374
 20
266.53633549527376
 11
829.18929343096374
 21
264.20300216194073
  0
ARC
  8
_0-b_細線3
  6
CONTINUOUS
 62
    7
 10
815.18929343464174
 20
261.70300216194073
 40
1.666666666666667
 50
0
 51
89.999999999999915
  0
LINE
  8
_0-b_細線3
  6
CONTINUOUS
 62
    7
 10
815.18929343464174
 20
263.36966882860725
 11
811.02262676797579
 21
263.36966882860725
  0
ARC
  8
_0-b_細線3
  6
CONTINUOUS
 62
    7
 10
824.18929343464231
 20
261.70300216194073
 40
1.666666666666667
 50
89.999999999999915
 51
179.99999999999983
  0
LINE
  8
_0-b_細線3
  6
CONTINUOUS
 62
    7
 10
824.1892934309634
 20
263.36966882860725
 11
828.3559600976298
 21
263.36966882860725
  0
LINE
  8
_0-b_細線3
  6
CONTINUOUS
 62
    7
 10
823.85596009946937
 20
269.86966882860725
 11
815.52262676613577
 21
269.86966882860725
  0
LINE
  8
_0-b_細線3
  6
CONTINUOUS
 62
    7
 10
816.85596009946971
 20
236.53633549527376
 11
816.85596010130882
 21
261.70300216194073
  0
LINE
  8
_0-b_細線3
  6
CONTINUOUS
 62
    7
 10
822.52262676613577
 20
236.53633549527376
 11
822.52262676797568
 21
261.70300216194073
  0
LINE
  8
_0-b_細線3
  6
CONTINUOUS
 62
    7
 10
822.52262676613577
 20
236.53633549527376
 11
816.85596009946971
 21
236.53633549527376
  0
ARC
  8
_0-b_細線3
  6
CONTINUOUS
 62
    7
 10
840.85596010191182
 20
266.53633549527376
 40
1.666666666666667
 50
89.999999999999915
 51
179.99999999999983
  0
ARC
  8
_0-b_細線3
  6
CONTINUOUS
 62
    7
 10
841.63587542079108
 20
269.86966882860725
 40
1.666666666666667
 50
269.99999999999977
 51
329.99999999998744
  0
ARC
  8
_0-b_細線3
  6
CONTINUOUS
 62
    7
 10
844.52262676673877
 20
268.20300216194073
 40
1.666666666666667
 50
89.999999999999915
 51
150.00000000000915
  0
LINE
  8
_0-b_細線3
  6
CONTINUOUS
 62
    7
 10
840.85596010191182
 20
268.20300216194073
 11
841.63587542079108
 21
268.20300216194073
  0
ARC
  8
_0-b_細線3
  6
CONTINUOUS
 62
    7
 10
856.52262676489977
 20
266.53633549527376
 40
1.666666666666667
 50
0
 51
89.999999999999915
  0
ARC
  8
_0-b_細線3
  6
CONTINUOUS
 62
    7
 10
855.74271144602051
 20
269.86966882860725
 40
1.666666666666667
 50
210.00000000000404
 51
269.99999999999977
  0
ARC
  8
_0-b_細線3
  6
CONTINUOUS
 62
    7
 10
852.85596010007282
 20
268.20300216194073
 40
1.666666666666667
 50
29.999999999998682
 51
89.999999999999915
  0
LINE
  8
_0-b_細線3
  6
CONTINUOUS
 62
    7
 10
856.52262676489977
 20
268.20300216194073
 11
855.74271144602051
 21
268.20300216194073
  0
ARC
  8
_0-b_細線3
  6
CONTINUOUS
 62
    7
 10
840.02262676857868
 20
264.20300216194073
 40
0.8333333333333334
 50
179.99999999999983
 51
269.99999999999977
  0
LINE
  8
_0-b_細線3
  6
CONTINUOUS
 62
    7
 10
839.18929343524519
 20
266.53633549527376
 11
839.18929343524519
 21
264.20300216194073
  0
ARC
  8
_0-b_細線3
  6
CONTINUOUS
 62
    7
 10
857.3559600982328
 20
264.20300216194073
 40
0.8333333333333334
 50
269.99999999999977
 51
359.99999999999966
  0
LINE
  8
_0-b_細線3
  6
CONTINUOUS
 62
    7
 10
858.1892934315664
 20
266.53633549527376
 11
858.1892934315664
 21
264.20300216194073
  0
ARC
  8
_0-b_細線3
  6
CONTINUOUS
 62
    7
 10
844.18929343524519
 20
261.70300216194073
 40
1.666666666666667
 50
0
 51
89.999999999999915
  0
LINE
  8
_0-b_細線3
  6
CONTINUOUS
 62
    7
 10
844.18929343524519
 20
263.36966882860725
 11
840.02262676857868
 21
263.36966882860725
  0
ARC
  8
_0-b_細線3
  6
CONTINUOUS
 62
    7
 10
853.1892934352453
 20
261.70300216194073
 40
1.666666666666667
 50
89.999999999999915
 51
179.99999999999983
  0
LINE
  8
_0-b_細線3
  6
CONTINUOUS
 62
    7
 10
853.1892934315664
 20
263.36966882860725
 11
857.3559600982328
 21
263.36966882860725
  0
LINE
  8
_0-b_細線3
  6
CONTINUOUS
 62
    7
 10
852.85596010007282
 20
269.86966882860725
 11
844.52262676673877
 21
269.86966882860725
  0
LINE
  8
_0-b_細線3
  6
CONTINUOUS
 62
    7
 10
845.85596010007237
 20
236.53633549527376
 11
845.85596010191182
 21
261.70300216194073
  0
LINE
  8
_0-b_細線3
  6
CONTINUOUS
 62
    7
 10
851.52262676673922
 20
236.53633549527376
 11
851.52262676857868
 21
261.70300216194073
  0
LINE
  8
_0-b_細線3
  6
CONTINUOUS
 62
    7
 10
851.52262676673922
 20
236.53633549527376
 11
845.85596010007237
 21
236.53633549527376
  0
ARC
  8
_0-a_極細3
  6
CONTINUOUS
 62
    7
 10
966.51869676006186
 20
258.35638633692224
 40
17.558839598481345
 50
150.03871396148165
 51
205.23810402387883
  0
ARC
  8
_0-a_極細3
  6
CONTINUOUS
 62
    7
 10
934.75322157016376
 20
243.38287712429155
 40
17.558839598481345
 50
330.03871396148202
 51
25.238104023878222
  0
ARC
  8
_0-a_極細3
  6
CONTINUOUS
 62
    7
 10
821.59888132172796
 20
258.35638633692224
 40
17.558839598481345
 50
150.03871396148165
 51
205.23810402387883
  0
ARC
  8
_0-a_極細3
  6
CONTINUOUS
 62
    7
 10
789.83340613182986
 20
243.38287712429155
 40
17.558839598481345
 50
330.03871396148202
 51
25.238104023878222
  0
LINE
  8
_0-a_極細3
  6
CENTER1
 62
    7
 10
956.48806042462172
 20
250.86963173060713
 11
793.90951779669592
 21
250.86963173060713
  0
LINE
  8
_0-d_寸法3
  6
CONTINUOUS
 62
    7
 10
943.88081387873763
 20
242.27209985878426
 11
979.23315560442325
 21
267.02607602847502
  0
LINE
  8
_0-d_寸法3
  6
CONTINUOUS
 62
    7
 10
975.1373953829783
 20
264.15819384671977
 11
972.549204931953
 21
273.81745210961043
  0
LINE
  8
_0-d_寸法3
  6
CONTINUOUS
 62
    7
 10
975.1373953829783
 20
264.15819384671977
 11
977.72558583400337
 21
273.81745210961043
  0
LINE
  8
_0-d_寸法3
  6
CONTINUOUS
 62
    7
 10
943.88081387873763
 20
275.60543319211774
 11
979.23315560442325
 21
300.3594093618085
  0
LINE
  8
_0-d_寸法3
  6
CONTINUOUS
 62
    7
 10
975.1373953829783
 20
297.49152718005325
 11
977.72558583400337
 21
287.83226891716254
  0
LINE
  8
_0-d_寸法3
  6
CONTINUOUS
 62
    7
 10
975.1373953829783
 20
297.49152718005325
 11
972.549204931953
 21
287.83226891716259
  0
LINE
  8
_0-d_寸法3
  6
CONTINUOUS
 62
    7
 10
975.1373953829783
 20
264.15819384671977
 11
975.1373953829783
 21
297.49152718005325
  0
TEXT
  8
_0-d_寸法3
 62
    7
 10
975.1373953829783
 20
273.32486051338719
 40
15
 41
1
 50
90
  1
20
  0
LINE
  8
_0-b_細線3
  6
CONTINUOUS
 62
    7
 10
880.52262676857879
 20
240.03629839727409
 11
903.85596010191216
 21
240.03629839727409
  0
LINE
  8
_0-b_細線3
  6
CONTINUOUS
 62
    7
 10
909.52262676918167
 20
240.03629839727409
 11
932.85596010251527
 21
240.03629839727409
  0
LINE
  8
_0-b_細線3
  6
CONTINUOUS
 62
    7
 10
822.52262676705584
 20
240.03629839727409
 11
845.85596010038921
 21
240.03629839727409
  0
LINE
  8
_0-b_細線3
  6
CONTINUOUS
 62
    7
 10
851.52262676765929
 20
240.03629839727409
 11
874.85596010099232
 21
240.03629839727409
  0
LINE
  8
_0-b_細線3
  6
CONTINUOUS
 62
    7
 10
880.52262676857879
 20
261.70296506394061
 11
903.85596010191216
 21
261.70296506394061
  0
LINE
  8
_0-b_細線3
  6
CONTINUOUS
 62
    7
 10
909.52262676918167
 20
261.70296506394061
 11
932.85596010251527
 21
261.70296506394061
  0
LINE
  8
_0-b_細線3
  6
CONTINUOUS
 62
    7
 10
822.52262676705584
 20
261.70296506394061
 11
845.85596010038921
 21
261.70296506394061
  0
LINE
  8
_0-b_細線3
  6
CONTINUOUS
 62
    7
 10
851.52262676765929
 20
261.70296506394061
 11
874.85596010099232
 21
261.70296506394061
  0
LINE
  8
_0-b_細線3
  6
CONTINUOUS
 62
    7
 10
938.52262676978467
 20
261.70296506394061
 11
949.28172316058476
 21
261.70296506394061
  0
LINE
  8
_0-b_細線3
  6
CONTINUOUS
 62
    7
 10
938.52262676978467
 20
240.03629839727409
 11
951.99019516964086
 21
240.03629839727409
  0
LINE
  8
_0-b_細線3
  6
CONTINUOUS
 62
    7
 10
804.36190772225086
 20
261.70296506394061
 11
816.85596009978622
 21
261.70296506394061
  0
LINE
  8
_0-b_細線3
  6
CONTINUOUS
 62
    7
 10
807.07037973130696
 20
240.03629839727409
 11
816.85596009978622
 21
240.03629839727409
  0
TEXT
  8
_0-7_枠細線
 62
    5
 10
832.20525292576508
 20
196.2258538605478
 40
25
 41
0.8
 50
0
  1
側面詳細図
  0
LINE
  8
_0-d_寸法3
  6
CONTINUOUS
 62
    7
 10
877.68929343432569
 20
279.86966882860725
 11
877.68929343432569
 21
324.86966882860719
  0
LINE
  8
_0-d_寸法3
  6
CONTINUOUS
 62
    7
 10
877.68929343432569
 20
319.86966882860719
 11
887.34855169721641
 21
322.45785927963243
  0
LINE
  8
_0-d_寸法3
  6
CONTINUOUS
 62
    7
 10
877.68929343432569
 20
319.86966882860719
 11
887.34855169721641
 21
317.281478377582
  0
LINE
  8
_0-d_寸法3
  6
CONTINUOUS
 62
    7
 10
906.6892934349288
 20
279.86966882860725
 11
906.6892934349288
 21
324.86966882860719
  0
LINE
  8
_0-d_寸法3
  6
CONTINUOUS
 62
    7
 10
906.6892934349288
 20
319.86966882860719
 11
897.03003517203797
 21
317.281478377582
  0
LINE
  8
_0-d_寸法3
  6
CONTINUOUS
 62
    7
 10
906.6892934349288
 20
319.86966882860719
 11
897.03003517203797
 21
322.45785927963249
  0
LINE
  8
_0-d_寸法3
  6
CONTINUOUS
 62
    7
 10
877.68929343432569
 20
319.86966882860719
 11
906.6892934349288
 21
319.86966882860719
  0
TEXT
  8
_0-d_寸法3
 62
    7
 10
866.1431155246845
 20
304.86966882860719
 40
15
 41
1
 50
0
  1
(17.4)
  0
LINE
  8
_0-d_寸法3
  6
CONTINUOUS
 62
    7
 10
906.6892934349288
 20
319.86966882860719
 11
916.3485516978194
 21
322.45785927963232
  0
LINE
  8
_0-d_寸法3
  6
CONTINUOUS
 62
    7
 10
906.6892934349288
 20
319.86966882860719
 11
916.3485516978194
 21
317.28147837758195
  0
LINE
  8
_0-d_寸法3
  6
CONTINUOUS
 62
    7
 10
935.68929343553179
 20
279.86966882860725
 11
935.68929343553179
 21
324.86966882860719
  0
LINE
  8
_0-d_寸法3
  6
CONTINUOUS
 62
    7
 10
935.68929343553179
 20
319.86966882860719
 11
926.03003517264096
 21
317.281478377582
  0
LINE
  8
_0-d_寸法3
  6
CONTINUOUS
 62
    7
 10
935.68929343553179
 20
319.86966882860719
 11
926.03003517264096
 21
322.45785927963249
  0
LINE
  8
_0-d_寸法3
  6
CONTINUOUS
 62
    7
 10
906.6892934349288
 20
319.86966882860719
 11
935.68929343553179
 21
319.86966882860719
  0
TEXT
  8
_0-d_寸法3
 62
    7
 10
903.209782191351
 20
319.86966882860719
 40
15
 41
1
 50
0
  1
(17.4)
  0
LINE
  8
_0-d_寸法3
  6
CONTINUOUS
 62
    7
 10
829.18929343096374
 20
279.86966882860725
 11
829.18929343096374
 21
324.86966882860719
  0
LINE
  8
_0-d_寸法3
  6
CONTINUOUS
 62
    7
 10
829.18929343096374
 20
319.86966882860719
 11
819.53003516807314
 21
317.281478377582
  0
LINE
  8
_0-d_寸法3
  6
CONTINUOUS
 62
    7
 10
829.18929343096374
 20
319.86966882860719
 11
819.53003516807314
 21
322.45785927963249
  0
LINE
  8
_0-d_寸法3
  6
CONTINUOUS
 62
    7
 10
839.18929343096374
 20
279.86966882860725
 11
839.18929343096374
 21
324.86966882860719
  0
LINE
  8
_0-d_寸法3
  6
CONTINUOUS
 62
    7
 10
804.81533774779678
 20
319.86966882860719
 11
839.18929343096374
 21
319.86966882860719
  0
TEXT
  8
_0-d_寸法3
 62
    7
 10
804.81533774779678
 20
304.86966882860719
 40
15
 41
1
 50
0
  1
(6)
  0
LINE
  8
_0-d_寸法3
  6
CONTINUOUS
 62
    7
 10
839.18929343096374
 20
319.86966882860719
 11
848.84855169385446
 21
322.45785927963243
  0
LINE
  8
_0-d_寸法3
  6
CONTINUOUS
 62
    7
 10
839.18929343096374
 20
319.86966882860719
 11
848.84855169385446
 21
317.281478377582
  0
LINE
  8
_0-d_寸法3
  6
CONTINUOUS
 62
    7
 10
858.18929343096386
 20
279.86966882860725
 11
858.18929343096386
 21
324.86966882860719
  0
LINE
  8
_0-d_寸法3
  6
CONTINUOUS
 62
    7
 10
858.18929343096386
 20
319.86966882860719
 11
848.53003516807325
 21
317.281478377582
  0
LINE
  8
_0-d_寸法3
  6
CONTINUOUS
 62
    7
 10
858.18929343096386
 20
319.86966882860719
 11
848.53003516807325
 21
322.45785927963249
  0
LINE
  8
_0-d_寸法3
  6
CONTINUOUS
 62
    7
 10
839.18929343096374
 20
319.86966882860719
 11
858.18929343096386
 21
319.86966882860719
  0
TEXT
  8
_0-d_寸法3
 62
    7
 10
829.92459700705581
 20
319.86966882860719
 40
15
 41
1
 50
0
  1
11.4
  0
TEXT
  8
_0-7_枠細線
 62
    5
 10
947.15422267493318
 20
198.86671839474587
 40
20
 41
0.6
 50
0
  1
Ｓ＝１：３
  0
LINE
  8
_0-5_寸法線
  6
CONTINUOUS
 62
    7
 10
1260.6632812967925
 20
480.49357311321
 11
1305.6632812967941
 21
480.49357311320989
  0
LINE
  8
_0-5_寸法線
  6
CONTINUOUS
 62
    7
 10
1300.6632812967941
 20
480.49357311320989
 11
1303.2514717478193
 21
470.83431485031923
  0
LINE
  8
_0-5_寸法線
  6
CONTINUOUS
 62
    7
 10
1300.6632812967941
 20
480.49357311320989
 11
1298.075090845769
 21
470.83431485031923
  0
LINE
  8
_0-5_寸法線
  6
CONTINUOUS
 62
    7
 10
1260.6632812967928
 20
483.49357311321
 11
1305.6632812967941
 21
483.49357311320995
  0
CIRCLE
  8
_0-5_寸法線
  6
CONTINUOUS
 62
    1
 10
1300.6632812967941
 20
483.49357311320995
 40
1.5000000000000002
  0
LINE
  8
_0-5_寸法線
  6
CONTINUOUS
 62
    7
 10
1300.6632812967941
 20
455.49357311320989
 11
1300.6632812967941
 21
483.49357311320995
  0
TEXT
  8
_0-5_寸法線
 62
    7
 10
1300.6632812967896
 20
460.64423121954269
 40
15
 41
1
 50
90
  1
3
  0
LINE
  8
_0-5_寸法線
  6
CONTINUOUS
 62
    7
 10
1260.6632812967928
 20
484.99357311321006
 11
1305.6632812967941
 21
484.99357311320989
  0
LINE
  8
_0-5_寸法線
  6
CONTINUOUS
 62
    7
 10
1300.6632812967941
 20
483.49357311320995
 11
1300.6632812967941
 21
484.99357311320989
  0
TEXT
  8
_0-5_寸法線
 62
    7
 10
1318.0635042010576
 20
484.99357311321006
 40
15
 41
1
 50
90
  1
1.5
  0
LINE
  8
_0-5_寸法線
  6
CONTINUOUS
 62
    7
 10
1300.6632812967941
 20
484.99357311320989
 11
1298.075090845769
 21
494.65283137610061
  0
LINE
  8
_0-5_寸法線
  6
CONTINUOUS
 62
    7
 10
1300.6632812967941
 20
484.99357311320989
 11
1303.2514717478193
 21
494.65283137610061
  0
LINE
  8
_0-5_寸法線
  6
CONTINUOUS
 62
    7
 10
1260.6632812967928
 20
735.99357311320875
 11
1305.6632812967941
 21
735.99357311320864
  0
LINE
  8
_0-5_寸法線
  6
CONTINUOUS
 62
    7
 10
1300.6632812967941
 20
735.99357311320864
 11
1303.2514717478193
 21
726.33431485031781
  0
LINE
  8
_0-5_寸法線
  6
CONTINUOUS
 62
    7
 10
1300.6632812967941
 20
735.99357311320864
 11
1298.075090845769
 21
726.33431485031781
  0
LINE
  8
_0-5_寸法線
  6
CONTINUOUS
 62
    7
 10
1300.6632812967941
 20
484.99357311320989
 11
1300.6632812967941
 21
735.99357311320864
  0
TEXT
  8
_0-5_寸法線
 62
    7
 10
1300.6632812967941
 20
599.24357311320932
 40
15
 41
1
 50
90
  1
251
  0
LINE
  8
_0-5_寸法線
  6
CONTINUOUS
 62
    7
 10
1260.6632812967928
 20
737.49357311320853
 11
1305.6632812967941
 21
737.49357311320853
  0
CIRCLE
  8
_0-5_寸法線
  6
CONTINUOUS
 62
    1
 10
1300.6632812967941
 20
737.49357311320853
 40
1.5000000000000002
  0
LINE
  8
_0-5_寸法線
  6
CONTINUOUS
 62
    7
 10
1300.6632812967941
 20
735.99357311320864
 11
1300.6632812967941
 21
737.49357311320853
  0
TEXT
  8
_0-5_寸法線
 62
    7
 10
1317.5217883991709
 20
713.49357311320875
 40
15
 41
1
 50
90
  1
1.5
  0
LINE
  8
_0-5_寸法線
  6
CONTINUOUS
 62
    7
 10
1260.6632812967941
 20
740.49357311321228
 11
1305.6632812967941
 21
740.49357311321216
  0
LINE
  8
_0-5_寸法線
  6
CONTINUOUS
 62
    7
 10
1300.6632812967941
 20
740.49357311321216
 11
1298.075090845769
 21
750.15283137610299
  0
LINE
  8
_0-5_寸法線
  6
CONTINUOUS
 62
    7
 10
1300.6632812967941
 20
740.49357311321216
 11
1303.2514717478193
 21
750.15283137610299
  0
LINE
  8
_0-5_寸法線
  6
CONTINUOUS
 62
    7
 10
1300.6632812967941
 20
737.49357311320853
 11
1300.6632812967941
 21
765.49357311321216
  0
TEXT
  8
_0-5_寸法線
 62
    7
 10
1300.6632812967896
 20
753.87539341622141
 40
15
 41
1
 50
90
  1
3
  0
TEXT
  8
_0-7_枠細線
 62
    5
 10
890.16995454985135
 20
375.55454176804568
 40
15
 41
1
 50
0
  1
2.7kg/枚
  0
TEXT
  8
_0-7_枠細線
 62
    5
 10
976.41995454985135
 20
375.55454176804568
 40
15
 41
1
 50
0
  1
2.4kg/m組
  0
LINE
  8
_0-5_寸法線
  6
CONTINUOUS
 62
    7
 10
860.76328129679212
 20
750.49357311320864
 11
860.76328129679212
 21
795.49357311320773
  0
LINE
  8
_0-5_寸法線
  6
CONTINUOUS
 62
    7
 10
860.76328129679212
 20
790.49357311320773
 11
851.10402303390151
 21
787.90538266218266
  0
LINE
  8
_0-5_寸法線
  6
CONTINUOUS
 62
    7
 10
860.76328129679212
 20
790.49357311320773
 11
851.10402303390151
 21
793.08176356423303
  0
LINE
  8
_0-5_寸法線
  6
CONTINUOUS
 62
    7
 10
872.16328129679255
 20
750.49357311320864
 11
872.16328129679266
 21
795.49357311320773
  0
CIRCLE
  8
_0-5_寸法線
  6
CONTINUOUS
 62
    1
 10
872.16328129679266
 20
790.49357311320773
 40
1.5000000000000002
  0
LINE
  8
_0-5_寸法線
  6
CONTINUOUS
 62
    7
 10
835.76328129679212
 20
790.49357311320773
 11
872.16328129679266
 21
790.49357311320773
  0
TEXT
  8
_0-5_寸法線
 62
    7
 10
837.88902861846725
 20
790.49357311320773
 40
15
 41
1
 50
0
  1
11.4
  0
LINE
  8
_0-5_寸法線
  6
CONTINUOUS
 62
    7
 10
877.763281296792
 20
750.49357311320864
 11
877.76328129679212
 21
795.49357311320773
  0
LINE
  8
_0-5_寸法線
  6
CONTINUOUS
 62
    7
 10
877.76328129679212
 20
790.49357311320773
 11
887.42253955968295
 21
793.08176356423303
  0
LINE
  8
_0-5_寸法線
  6
CONTINUOUS
 62
    7
 10
877.76328129679212
 20
790.49357311320773
 11
887.42253955968295
 21
787.90538266218255
  0
LINE
  8
_0-5_寸法線
  6
CONTINUOUS
 62
    7
 10
872.16328129679266
 20
790.49357311320773
 11
928.91821171151378
 21
790.49357311320773
  0
TEXT
  8
_0-5_寸法線
 62
    7
 10
891.41821171151378
 20
775.49357311320773
 40
15
 41
1
 50
0
  1
6以下
  0
LINE
  8
_0-a_極細3
  6
CONTINUOUS
 62
    7
 10
163.46758651983498
 20
224.8696688286077
 11
163.46758651983498
 21
156.53633549527422
  0
LINE
  8
_0-a_極細3
  6
CONTINUOUS
 62
    7
 10
246.80091985316807
 20
156.53633549527422
 11
163.46758651983498
 21
156.53633549527422
  0
LINE
  8
_0-a_極細3
  6
CONTINUOUS
 62
    7
 10
163.46758651983498
 20
224.8696688286077
 11
132.62317270805383
 21
224.8696688286077
  0
LINE
  8
_0-a_極細3
  6
CONTINUOUS
 62
    7
 10
246.80091985316807
 20
156.53633549527422
 11
246.80091985316807
 21
130.29473520049535
  0
LINE
  8
_0-a_極細3
  6
CONTINUOUS
 62
    7
 10
209.37894528817822
 20
130.29473531693199
 11
235.62054546652135
 21
156.53633549527422
  0
LINE
  8
_0-a_極細3
  6
CONTINUOUS
 62
    7
 10
138.66826738953739
 20
130.29473553694515
 11
164.90986734786645
 21
156.53633549527422
  0
LINE
  8
_0-a_極細3
  6
CONTINUOUS
 62
    7
 10
132.62317270805383
 20
194.96031897411655
 11
162.53252256254555
 21
224.8696688286077
  0
LINE
  8
_0-a_極細3
  6
CONTINUOUS
 62
    7
 10
202.30787749831407
 20
130.29473533893361
 11
228.54947765465468
 21
156.53633549527422
  0
LINE
  8
_0-a_極細3
  6
CONTINUOUS
 62
    7
 10
132.62317270805383
 20
131.32070866732738
 11
163.46758651983498
 21
162.16512247910856
  0
LINE
  8
_0-a_極細3
  6
CONTINUOUS
 62
    7
 10
132.62317270805383
 20
202.03138678598222
 11
155.46145475067888
 21
224.8696688286077
  0
LINE
  8
_0-a_極細3
  6
CONTINUOUS
 62
    7
 10
195.23680970844993
 20
130.29473536093477
 11
221.47840984278986
 21
156.53633549527422
  0
LINE
  8
_0-a_極細3
  6
CONTINUOUS
 62
    7
 10
132.62317270805383
 20
138.39177647919271
 11
163.46758651983498
 21
169.23619029097424
  0
LINE
  8
_0-a_極細3
  6
CONTINUOUS
 62
    7
 10
132.62317270805383
 20
209.10245459784804
 11
148.390386938814
 21
224.8696688286077
  0
CIRCLE
  8
_0-a_極細3
  6
CONTINUOUS
 62
    7
 10
140.18819635369061
 20
230.11752368971247
 40
0.5530864197530718
  0
CIRCLE
  8
_0-a_極細3
  6
CONTINUOUS
 62
    7
 10
150.7956037610974
 20
231.1841903563791
 40
0.5530864197530718
  0
CIRCLE
  8
_0-a_極細3
  6
CONTINUOUS
 62
    7
 10
163.4178259833196
 20
233.1397459119344
 40
0.5530864197530718
  0
CIRCLE
  8
_0-a_極細3
  6
CONTINUOUS
 62
    7
 10
170.36227042776403
 20
225.88419035637889
 40
0.5530864197530718
  0
CIRCLE
  8
_0-a_極細3
  6
CONTINUOUS
 62
    7
 10
190.80671487220741
 20
224.63974591193437
 40
0.5530864197530718
  0
CIRCLE
  8
_0-a_極細3
  6
CONTINUOUS
 62
    7
 10
215.87338153887492
 20
220.90641257860128
 40
0.5530864197530718
  0
CIRCLE
  8
_0-a_極細3
  6
CONTINUOUS
 62
    7
 10
203.25115931665181
 20
215.21752368971192
 40
0.5530864197530718
  0
CIRCLE
  8
_0-a_極細3
  6
CONTINUOUS
 62
    7
 10
188.49560376109721
 20
201.70641257860098
 40
0.5530864197530718
  0
CIRCLE
  8
_0-a_極細3
  6
CONTINUOUS
 62
    7
 10
215.87338153887492
 20
208.99530146749021
 40
0.5530864197530718
  0
CIRCLE
  8
_0-a_極細3
  6
CONTINUOUS
 62
    7
 10
169.78449264998551
 20
195.57307924526782
 40
0.5530864197530718
  0
CIRCLE
  8
_0-a_極細3
  6
CONTINUOUS
 62
    7
 10
174.76227042776358
 20
181.88419035637892
 40
0.5530864197530718
  0
CIRCLE
  8
_0-a_極細3
  6
CONTINUOUS
 62
    7
 10
169.0733815388748
 20
163.9286348008236
 40
0.5530864197530718
  0
CIRCLE
  8
_0-a_極細3
  6
CONTINUOUS
 62
    7
 10
177.78449264998642
 20
170.68419035637908
 40
0.5530864197530718
  0
CIRCLE
  8
_0-a_極細3
  6
CONTINUOUS
 62
    7
 10
184.00671487220819
 20
162.1508570230462
 40
0.5530864197530718
  0
CIRCLE
  8
_0-a_極細3
  6
CONTINUOUS
 62
    7
 10
223.30671487220741
 20
180.03974591193497
 40
0.5530864197530718
  0
CIRCLE
  8
_0-a_極細3
  6
CONTINUOUS
 62
    7
 10
212.10671487220765
 20
174.52863480082399
 40
0.5530864197530718
  0
CIRCLE
  8
_0-a_極細3
  6
CONTINUOUS
 62
    7
 10
218.32893709443027
 20
172.03974591193492
 40
0.5530864197530718
  0
CIRCLE
  8
_0-a_極細3
  6
CONTINUOUS
 62
    7
 10
214.77338153887459
 20
162.79530146749039
 40
0.5530864197530718
  0
CIRCLE
  8
_0-a_極細3
  6
CONTINUOUS
 62
    7
 10
234.68449264998512
 20
163.861968134157
 40
0.5530864197530718
  0
CIRCLE
  8
_0-a_極細3
  6
CONTINUOUS
 62
    7
 10
247.66227042776322
 20
167.0619681341573
 40
0.5530864197530718
  0
CIRCLE
  8
_0-a_極細3
  6
CONTINUOUS
 62
    7
 10
261.35115931665212
 20
152.1286348008239
 40
0.5530864197530718
  0
CIRCLE
  8
_0-a_極細3
  6
CONTINUOUS
 62
    7
 10
254.41782598331869
 20
137.19530146749051
 40
0.5530864197530718
  0
CIRCLE
  8
_0-a_極細3
  6
CONTINUOUS
 62
    7
 10
237.75115931665269
 20
180.81011628230499
 40
0.5530864197530718
  0
CIRCLE
  8
_0-a_極細3
  6
CONTINUOUS
 62
    7
 10
252.50671487220728
 20
214.94344961563823
 40
0.5530864197530718
  0
CIRCLE
  8
_0-a_極細3
  6
CONTINUOUS
 62
    7
 10
267.61782598331854
 20
204.98789406008291
 40
0.5530864197530718
  0
CIRCLE
  8
_0-a_極細3
  6
CONTINUOUS
 62
    7
 10
268.1511593166523
 20
187.03233850452762
 40
0.5530864197530718
  0
CIRCLE
  8
_0-a_極細3
  6
CONTINUOUS
 62
    7
 10
232.90671487220777
 20
216.76567183786031
 40
0.5530864197530718
  0
CIRCLE
  8
_0-a_極細3
  6
CONTINUOUS
 62
    7
 10
209.79560376109646
 20
205.81628912181122
 40
1.825531472681392
  0
CIRCLE
  8
_0-a_極細3
  6
CONTINUOUS
 62
    7
 10
187.39560376109679
 20
215.94962245514444
 40
1.825531472681392
  0
CIRCLE
  8
_0-a_極細3
  6
CONTINUOUS
 62
    7
 10
167.79560376109742
 20
177.94962245514489
 40
1.825531472681392
  0
CIRCLE
  8
_0-a_極細3
  6
CONTINUOUS
 62
    7
 10
220.99560376109628
 20
165.14962245514516
 40
1.825531472681392
  0
CIRCLE
  8
_0-a_極細3
  6
CONTINUOUS
 62
    7
 10
256.97338153887347
 20
161.54962245514525
 40
1.825531472681392
  0
CIRCLE
  8
_0-a_極細3
  6
CONTINUOUS
 62
    7
 10
261.77338153887365
 20
142.88295578847874
 40
1.825531472681392
  0
LINE
  8
_0-a_極細3
  6
CONTINUOUS
 62
    7
 10
279.30091985316807
 20
231.53633549527424
 11
280.13425318650104
 21
231.53633549527424
  0
LINE
  8
_0-a_極細3
  6
CONTINUOUS
 62
    7
 10
280.13425318650104
 20
231.53633549527424
 11
280.13425318650104
 21
130.29473520049535
  0
CIRCLE
  8
_0-a_極細3
  6
CONTINUOUS
 62
    7
 10
273.24681903887256
 20
215.5496224551448
 40
1.825531472681392
  0
CIRCLE
  8
_0-a_極細3
  6
CONTINUOUS
 62
    7
 10
272.2548630203554
 20
160.8397459119351
 40
0.5530864197530718
  0
CIRCLE
  8
_0-a_極細3
  6
CONTINUOUS
 62
    7
 10
273.58819635368934
 20
138.18367487876549
 40
0.5530864197530718
  0
CIRCLE
  8
_0-a_極細3
  6
CONTINUOUS
 62
    7
 10
261.21782598331436
 20
196.43851134403391
 40
1.825531472681392
  0
LINE
  8
_0-a_極細3
  6
CONTINUOUS
 62
    7
 10
730.13425318650104
 20
224.8696688286077
 11
730.13425318650104
 21
156.53633549527422
  0
LINE
  8
_0-a_極細3
  6
CONTINUOUS
 62
    7
 10
646.80091985316812
 20
156.53633549527422
 11
730.13425318650104
 21
156.53633549527422
  0
LINE
  8
_0-a_極細3
  6
CONTINUOUS
 62
    7
 10
730.13425318650104
 20
224.8696688286077
 11
760.97866699828319
 21
224.8696688286077
  0
LINE
  8
_0-a_極細3
  6
CONTINUOUS
 62
    7
 10
646.80091985316812
 20
156.53633549527422
 11
646.80091985316812
 21
130.29473520049535
  0
LINE
  8
_0-a_極細3
  6
CONTINUOUS
 62
    7
 10
738.42425560109496
 20
130.29473520049535
 11
760.97866703982334
 21
152.84914663922427
  0
LINE
  8
_0-a_極細3
  6
CONTINUOUS
 62
    7
 10
667.71357748243963
 20
130.29473520049535
 11
693.95517777721898
 21
156.53633549527422
  0
LINE
  8
_0-a_極細3
  6
CONTINUOUS
 62
    7
 10
730.13425318650104
 20
192.71541090455685
 11
760.97866699903852
 21
223.55982471709379
  0
LINE
  8
_0-a_極細3
  6
CONTINUOUS
 62
    7
 10
731.35318778922863
 20
130.29473520049535
 11
760.97866703574527
 21
159.92021444701095
  0
LINE
  8
_0-a_極細3
  6
CONTINUOUS
 62
    7
 10
660.6425096705733
 20
130.29473520049535
 11
686.88410996535356
 21
156.53633549527422
  0
LINE
  8
_0-a_極細3
  6
CONTINUOUS
 62
    7
 10
730.13425318650104
 20
199.78647871642266
 11
755.21744311913596
 21
224.86966864905753
  0
LINE
  8
_0-a_極細3
  6
CONTINUOUS
 62
    7
 10
724.28211997736389
 20
130.29473520049535
 11
760.97866703166619
 21
166.99128225479811
  0
LINE
  8
_0-a_極細3
  6
CONTINUOUS
 62
    7
 10
653.57144185870936
 20
130.29473520049535
 11
679.81304215348791
 21
156.53633549527422
  0
LINE
  8
_0-a_極細3
  6
CONTINUOUS
 62
    7
 10
730.13425318650104
 20
206.85754652828837
 11
748.14637535788722
 21
224.86966869967364
  0
CIRCLE
  8
_0-a_極細3
  6
CONTINUOUS
 62
    7
 10
633.20671487220523
 20
215.39067183786031
 40
0.5530864197530718
  0
CIRCLE
  8
_0-a_極細3
  6
CONTINUOUS
 62
    7
 10
643.16227042776154
 20
220.19067183786049
 40
0.5530864197530718
  0
CIRCLE
  8
_0-a_極細3
  6
CONTINUOUS
 62
    7
 10
639.07338153887292
 20
195.21289406008327
 40
0.5530864197530718
  0
CIRCLE
  8
_0-a_極細3
  6
CONTINUOUS
 62
    7
 10
656.60671487220588
 20
178.19067183786046
 40
0.5530864197530718
  0
CIRCLE
  8
_0-a_極細3
  6
CONTINUOUS
 62
    7
 10
638.77338153887285
 20
154.89067183786119
 40
0.5530864197530718
  0
CIRCLE
  8
_0-a_極細3
  6
CONTINUOUS
 62
    7
 10
629.44004820553971
 20
137.02400517119443
 40
0.5530864197530718
  0
CIRCLE
  8
_0-a_極細3
  6
CONTINUOUS
 62
    7
 10
640.90671487220607
 20
166.89067183786122
 40
0.5530864197530718
  0
CIRCLE
  8
_0-a_極細3
  6
CONTINUOUS
 62
    7
 10
654.77338153887194
 20
162.09067183786104
 40
0.5530864197530718
  0
CIRCLE
  8
_0-a_極細3
  6
CONTINUOUS
 62
    7
 10
681.70671487220477
 20
162.35733850452746
 40
0.5530864197530718
  0
CIRCLE
  8
_0-a_極細3
  6
CONTINUOUS
 62
    7
 10
669.70671487220613
 20
171.42400517119404
 40
0.5530864197530718
  0
CIRCLE
  8
_0-a_極細3
  6
CONTINUOUS
 62
    7
 10
680.90671487220504
 20
177.02400517119443
 40
0.5530864197530718
  0
CIRCLE
  8
_0-a_極細3
  6
CONTINUOUS
 62
    7
 10
668.92893709442751
 20
231.31289406008275
 40
0.5530864197530718
  0
CIRCLE
  8
_0-a_極細3
  6
CONTINUOUS
 62
    7
 10
689.46227042776036
 20
230.60178294897105
 40
0.5530864197530718
  0
CIRCLE
  8
_0-a_極細3
  6
CONTINUOUS
 62
    7
 10
677.86227042776034
 20
216.6017829489715
 40
0.5530864197530718
  0
CIRCLE
  8
_0-a_極細3
  6
CONTINUOUS
 62
    7
 10
717.06227042776027
 20
163.40178294897214
 40
0.5530864197530718
  0
CIRCLE
  8
_0-a_極細3
  6
CONTINUOUS
 62
    7
 10
724.26227042776009
 20
177.4017829489722
 40
0.5530864197530718
  0
CIRCLE
  8
_0-a_極細3
  6
CONTINUOUS
 62
    7
 10
722.66227042776052
 20
198.2017829489719
 40
0.5530864197530718
  0
CIRCLE
  8
_0-a_極細3
  6
CONTINUOUS
 62
    7
 10
701.86227042776045
 20
199.80178294897178
 40
0.5530864197530718
  0
CIRCLE
  8
_0-a_極細3
  6
CONTINUOUS
 62
    7
 10
682.26227042776088
 20
205.40178294897217
 40
0.5530864197530718
  0
CIRCLE
  8
_0-a_極細3
  6
CONTINUOUS
 62
    7
 10
704.66227042776052
 20
219.40178294897123
 40
0.5530864197530718
  0
CIRCLE
  8
_0-a_極細3
  6
CONTINUOUS
 62
    7
 10
718.66227042776063
 20
212.20178294897187
 40
0.5530864197530718
  0
CIRCLE
  8
_0-a_極細3
  6
CONTINUOUS
 62
    7
 10
748.26227042775952
 20
233.40178294897126
 40
0.5530864197530718
  0
CIRCLE
  8
_0-a_極細3
  6
CONTINUOUS
 62
    7
 10
727.81782598331563
 20
231.70517801069991
 40
1.825531472681392
  0
CIRCLE
  8
_0-a_極細3
  6
CONTINUOUS
 62
    7
 10
704.3956037610933
 20
206.28295578847795
 40
1.825531472681392
  0
CIRCLE
  8
_0-a_極細3
  6
CONTINUOUS
 62
    7
 10
634.00115931665084
 20
161.73295578847871
 40
1.825531472681392
  0
CIRCLE
  8
_0-a_極細3
  6
CONTINUOUS
 62
    7
 10
644.22338153887165
 20
191.59962245514498
 40
1.825531472681392
  0
CIRCLE
  8
_0-a_極細3
  6
CONTINUOUS
 62
    7
 10
679.42338153887192
 20
169.19962245514489
 40
1.825531472681392
  0
CIRCLE
  8
_0-a_極細3
  6
CONTINUOUS
 62
    7
 10
725.68857417415518
 20
159.01257006317522
 40
1.825531472681392
  0
CIRCLE
  8
_0-a_極細3
  6
CONTINUOUS
 62
    7
 10
675.02338153887183
 20
212.39962245514474
 40
1.825531472681392
  0
CIRCLE
  8
_0-a_極細3
  6
CONTINUOUS
 62
    7
 10
627.5573321561568
 20
206.97641704810849
 40
0.5530864197530718
  0
CIRCLE
  8
_0-a_極細3
  6
CONTINUOUS
 62
    7
 10
627.75733215615764
 20
183.02086149255317
 40
0.5530864197530718
  0
LINE
  8
_0-a_極細3
  6
CONTINUOUS
 62
    7
 10
614.3009198531671
 20
231.53633549527424
 11
613.46758651983498
 21
231.53633549527424
  0
LINE
  8
_0-a_極細3
  6
CONTINUOUS
 62
    7
 10
613.46758651983498
 20
231.53633549527424
 11
613.46758651983498
 21
130.29473520049535
  0
CIRCLE
  8
_0-a_極細3
  6
CONTINUOUS
 62
    7
 10
619.45198236191743
 20
191.47956072674972
 40
0.5530864197530718
  0
CIRCLE
  8
_0-a_極細3
  6
CONTINUOUS
 62
    7
 10
620.75856672405826
 20
152.22400517119425
 40
0.5530864197530718
  0
CIRCLE
  8
_0-a_極細3
  6
CONTINUOUS
 62
    7
 10
620.11967783516764
 20
218.17740023292302
 40
1.825531472681392
  0
CIRCLE
  8
_0-a_極細3
  6
CONTINUOUS
 62
    7
 10
623.06782598331654
 20
145.55517801070073
 40
1.825531472681392
  0
LINE
  8
_0-a_極細3
  6
CENTER1
 62
    7
 10
446.80091985316807
 20
220.35050600982458
 11
446.80091985316807
 21
283.80050600983122
  0
CIRCLE
  8
_0-a_極細3
  6
CONTINUOUS
 62
    7
 10
150.5190605512206
 20
240.07307924526776
 40
0.5530864197530718
  0
CIRCLE
  8
_0-a_極細3
  6
CONTINUOUS
 62
    7
 10
191.86227042776395
 20
244.87307924526795
 40
0.5530864197530718
  0
CIRCLE
  8
_0-a_極細3
  6
CONTINUOUS
 62
    7
 10
216.75115931665266
 20
254.82863480082327
 40
0.5530864197530718
  0
CIRCLE
  8
_0-a_極細3
  6
CONTINUOUS
 62
    7
 10
222.44004820554153
 20
238.65085702304532
 40
0.5530864197530718
  0
CIRCLE
  8
_0-a_極細3
  6
CONTINUOUS
 62
    7
 10
197.55115931665193
 20
238.11752368971247
 40
0.5530864197530718
  0
CIRCLE
  8
_0-a_極細3
  6
CONTINUOUS
 62
    7
 10
185.81782598331927
 20
253.05085702304586
 40
0.5530864197530718
  0
CIRCLE
  8
_0-a_極細3
  6
CONTINUOUS
 62
    7
 10
212.61782598331948
 20
238.74962245514416
 40
1.825531472681392
  0
CIRCLE
  8
_0-a_極細3
  6
CONTINUOUS
 62
    7
 10
160.8557062818835
 20
245.67923672984219
 40
1.825531472681392
  0
CIRCLE
  8
_0-a_極細3
  6
CONTINUOUS
 62
    7
 10
140.65862674080464
 20
246.5718446773667
 40
1.825531472681392
  0
LINE
  8
_0-a_極細3
  6
CONTINUOUS
 62
    7
 10
221.80091985316807
 20
269.8696688286077
 11
221.80091985316807
 21
258.20300216194119
  0
LINE
  8
_0-a_極細3
  6
CONTINUOUS
 62
    7
 10
221.80091985316807
 20
269.8696688286077
 11
132.62317270805383
 21
269.8696688286077
  0
LINE
  8
_0-a_極細3
  6
CONTINUOUS
 62
    7
 10
230.13425318650107
 20
258.20300216194119
 11
132.62317270805383
 21
258.20300216194119
  0
LINE
  8
_0-a_極細3
  6
CONTINUOUS
 62
    7
 10
230.13425318650107
 20
269.8696688286077
 11
221.80091985316807
 21
269.8696688286077
  0
LINE
  8
_0-a_極細3
  6
CONTINUOUS
 62
    7
 10
230.13425318650107
 20
269.03633549527422
 11
230.13425318650107
 21
269.8696688286077
  0
LINE
  8
_0-a_極細3
  6
CONTINUOUS
 62
    7
 10
229.9361629301419
 20
258.20300216194119
 11
230.13425318650107
 21
258.40109241830032
  0
LINE
  8
_0-a_極細3
  6
CONTINUOUS
 62
    7
 10
225.69352224302278
 20
258.20300216194119
 11
230.13425318650107
 21
262.64373310541941
  0
LINE
  8
_0-a_極細3
  6
CONTINUOUS
 62
    7
 10
221.80091985316807
 20
258.55304045920548
 11
230.13425318650107
 21
266.88637379253896
  0
LINE
  8
_0-a_極細3
  6
CONTINUOUS
 62
    7
 10
221.80091985316807
 20
262.79568114632502
 11
228.87490753545066
 21
269.8696688286077
  0
LINE
  8
_0-a_極細3
  6
CONTINUOUS
 62
    7
 10
221.80091985316807
 20
267.03832183344457
 11
224.6322668483316
 21
269.8696688286077
  0
LINE
  8
_0-a_極細3
  6
CONTINUOUS
 62
    7
 10
230.13425318650107
 20
267.58870195634881
 11
227.85328631424264
 21
269.8696688286077
  0
LINE
  8
_0-a_極細3
  6
CONTINUOUS
 62
    7
 10
230.13425318650107
 20
263.34606126922972
 11
223.61064562712357
 21
269.8696688286077
  0
LINE
  8
_0-a_極細3
  6
CONTINUOUS
 62
    7
 10
221.80091985316807
 20
267.43675391544411
 11
230.13425318650107
 21
259.10342058211063
  0
LINE
  8
_0-a_極細3
  6
CONTINUOUS
 62
    7
 10
221.80091985316807
 20
263.19411322832457
 11
226.79203091955145
 21
258.20300216194119
  0
LINE
  8
_0-a_極細3
  6
CONTINUOUS
 62
    7
 10
221.80091985316807
 20
258.95147254120548
 11
222.5493902324323
 21
258.20300216194119
  0
LINE
  8
_0-a_極細3
  6
CONTINUOUS
 62
    7
 10
212.96560017553736
 20
258.20300215581392
 11
221.80091985316807
 21
267.03832183344457
  0
LINE
  8
_0-a_極細3
  6
CONTINUOUS
 62
    7
 10
191.75239672522991
 20
258.20300214110239
 11
203.41906341273528
 21
269.86966882860725
  0
LINE
  8
_0-a_極細3
  6
CONTINUOUS
 62
    7
 10
170.53919327492252
 20
258.20300212639131
 11
182.20585997713883
 21
269.8696688286077
  0
LINE
  8
_0-a_極細3
  6
CONTINUOUS
 62
    7
 10
149.32598982461414
 20
258.20300211167978
 11
160.99265654154252
 21
269.8696688286077
  0
LINE
  8
_0-a_極細3
  6
CONTINUOUS
 62
    7
 10
132.62317270805383
 20
262.71338843071544
 11
139.77945310594612
 21
269.86966882860725
  0
LINE
  8
_0-a_極細3
  6
DASHED2
 62
    7
 10
202.35899845038318
 20
258.20300214845793
 11
214.02566513053344
 21
269.86966882860816
  0
LINE
  8
_0-a_極細3
  6
DASHED2
 62
    7
 10
181.14579500007579
 20
258.20300213374685
 11
192.81246169493704
 21
269.8696688286077
  0
LINE
  8
_0-a_極細3
  6
DASHED2
 62
    7
 10
159.93259154976826
 20
258.20300211903577
 11
171.59925825933982
 21
269.8696688286077
  0
LINE
  8
_0-a_極細3
  6
DASHED2
 62
    7
 10
138.71938809945993
 20
258.2030021043247
 11
150.3860548237443
 21
269.8696688286077
  0
CIRCLE
  8
_0-a_極細3
  6
CONTINUOUS
 62
    7
 10
200.31412227961567
 20
250.26073356625375
 40
1.825531472681392
  0
CIRCLE
  8
_0-a_極細3
  6
CONTINUOUS
 62
    7
 10
671.41782598331645
 20
251.04622739341585
 40
0.5530864197530718
  0
CIRCLE
  8
_0-a_極細3
  6
CONTINUOUS
 62
    7
 10
721.46227042776036
 20
239.00178294897117
 40
0.5530864197530718
  0
CIRCLE
  8
_0-a_極細3
  6
CONTINUOUS
 62
    7
 10
743.46227042775979
 20
247.17184467736661
 40
1.825531472681392
  0
CIRCLE
  8
_0-a_極細3
  6
CONTINUOUS
 62
    7
 10
672.39560376109409
 20
238.28295578847792
 40
1.825531472681392
  0
CIRCLE
  8
_0-a_極細3
  6
CONTINUOUS
 62
    7
 10
735.46227042776025
 20
255.13511628230481
 40
0.5530864197530718
  0
CIRCLE
  8
_0-a_極細3
  6
CONTINUOUS
 62
    7
 10
704.66227042776052
 20
250.0684496156382
 40
0.5530864197530718
  0
CIRCLE
  8
_0-a_極細3
  6
CONTINUOUS
 62
    7
 10
704.79560376109373
 20
243.74962245514416
 40
1.825531472681392
  0
CIRCLE
  8
_0-a_極細3
  6
CONTINUOUS
 62
    7
 10
683.46227042776025
 20
256.0684496156382
 40
0.5530864197530718
  0
LINE
  8
_0-a_極細3
  6
CONTINUOUS
 62
    7
 10
671.80091985316812
 20
269.8696688286077
 11
671.80091985316812
 21
258.20300216194119
  0
LINE
  8
_0-a_極細3
  6
CONTINUOUS
 62
    7
 10
671.80091985316812
 20
269.8696688286077
 11
760.97866699828319
 21
269.8696688286077
  0
LINE
  8
_0-a_極細3
  6
CONTINUOUS
 62
    7
 10
663.46758651983453
 20
258.20300216194119
 11
760.97866699828319
 21
258.20300216194119
  0
LINE
  8
_0-a_極細3
  6
CONTINUOUS
 62
    7
 10
663.46758651983453
 20
269.8696688286077
 11
671.80091985316812
 21
269.8696688286077
  0
LINE
  8
_0-a_極細3
  6
CONTINUOUS
 62
    7
 10
663.46758651983453
 20
269.03633549527422
 11
663.46758651983453
 21
269.8696688286077
  0
LINE
  8
_0-a_極細3
  6
CONTINUOUS
 62
    7
 10
671.80091985316812
 20
261.8720884426657
 11
668.13183357244361
 21
258.20300216194119
  0
LINE
  8
_0-a_極細3
  6
CONTINUOUS
 62
    7
 10
671.80091985316812
 20
266.11472912978479
 11
663.88919288532395
 21
258.20300216194119
  0
LINE
  8
_0-a_極細3
  6
CONTINUOUS
 62
    7
 10
663.46758651983453
 20
262.02403648357131
 11
671.31321886487149
 21
269.8696688286077
  0
LINE
  8
_0-a_極細3
  6
CONTINUOUS
 62
    7
 10
663.46758651983453
 20
266.26667717068995
 11
667.07057817775183
 21
269.86966882860725
  0
LINE
  8
_0-a_極細3
  6
CONTINUOUS
 62
    7
 10
671.80091985316812
 20
268.36034661910207
 11
670.29159764366284
 21
269.8696688286077
  0
LINE
  8
_0-a_極細3
  6
CONTINUOUS
 62
    7
 10
671.80091985316812
 20
264.11770593198253
 11
666.0489569565442
 21
269.8696688286077
  0
LINE
  8
_0-a_極細3
  6
CONTINUOUS
 62
    7
 10
671.80091985316812
 20
259.87506524486389
 11
663.46758651983453
 21
268.20839857819692
  0
LINE
  8
_0-a_極細3
  6
CONTINUOUS
 62
    7
 10
669.23034224897208
 20
258.20300216194119
 11
663.46758651983453
 21
263.96575789107783
  0
LINE
  8
_0-a_極細3
  6
CONTINUOUS
 62
    7
 10
664.98770156185265
 20
258.20300216194119
 11
663.46758651983453
 21
259.72311720395828
  0
LINE
  8
_0-a_極細3
  6
CONTINUOUS
 62
    7
 10
740.25672525347136
 20
258.20300216194119
 11
751.92339129334857
 21
269.86966820181851
  0
LINE
  8
_0-a_極細3
  6
CONTINUOUS
 62
    7
 10
719.04352181787488
 20
258.20300216194119
 11
730.71018802370133
 21
269.86966836776719
  0
LINE
  8
_0-a_極細3
  6
CONTINUOUS
 62
    7
 10
697.83031838227862
 20
258.20300216194119
 11
709.4969847540533
 21
269.86966853371587
  0
LINE
  8
_0-a_極細3
  6
CONTINUOUS
 62
    7
 10
676.61711494668168
 20
258.20300216194119
 11
688.28378148440549
 21
269.86966869966454
  0
LINE
  8
_0-a_極細3
  6
DASHED2
 62
    7
 10
750.86332697126954
 20
258.20300216194119
 11
760.97866699828319
 21
268.31834218895438
  0
LINE
  8
_0-a_極細3
  6
DASHED2
 62
    7
 10
729.65012353567261
 20
258.20300216194119
 11
741.31678965852507
 21
269.86966828479308
  0
LINE
  8
_0-a_極細3
  6
DASHED2
 62
    7
 10
708.43692010007635
 20
258.20300216194119
 11
720.10358638887726
 21
269.8696684507413
  0
LINE
  8
_0-a_極細3
  6
DASHED2
 62
    7
 10
687.22371666448043
 20
258.20300216194119
 11
698.89038311922877
 21
269.86966861668998
  0
LINE
  8
_0-a_極細3
  6
DASHED2
 62
    7
 10
671.80091985316812
 20
263.99340878622525
 11
677.67717984958097
 21
269.86966878263866
  0
LINE
  8
_0-a_極細3
  6
CENTER1
 62
    7
 10
661.58786114856173
 20
250.86963173060758
 11
228.48026074196048
 21
250.86963173060758
  0
LINE
  8
_0-a_極細3
  6
CONTINUOUS
 62
    7
 10
655.96758651983453
 20
268.20300216194119
 11
237.63425318650107
 21
268.20300216194119
  0
CIRCLE
  8
_0-a_極細3
  6
CONTINUOUS
 62
    7
 10
266.80091985316807
 20
250.86966882860818
 40
3.333333333333333
  0
CIRCLE
  8
_0-a_極細3
  6
CONTINUOUS
 62
    7
 10
626.80091985316812
 20
250.86966882860818
 40
3.333333333333333
  0
CIRCLE
  8
_0-a_極細3
  6
CONTINUOUS
 62
    7
 10
446.80091985316807
 20
250.86966882860818
 40
3.333333333333333
  0
ARC
  8
_0-b_細線3
  6
CONTINUOUS
 62
    7
 10
235.13425318650107
 20
236.53633549527424
 40
4.9999999999999991
 50
179.99999999999983
 51
269.99999999999977
  0
LINE
  8
_0-b_細線3
  6
CONTINUOUS
 62
    7
 10
230.13425318650107
 20
236.53633549527424
 11
230.13425318650107
 21
269.03633549527422
  0
LINE
  8
_0-b_細線3
  6
CONTINUOUS
 62
    7
 10
235.13425318650107
 20
231.53633549527424
 11
279.30091985316807
 21
231.53633549527424
  0
LINE
  8
_0-b_細線3
  6
CONTINUOUS
 62
    7
 10
280.13425318650104
 20
232.3696688286077
 11
279.30091985316807
 21
231.53633549527424
  0
LINE
  8
_0-b_細線3
  6
CONTINUOUS
 62
    7
 10
280.13425318650104
 20
235.70300216194119
 11
280.13425318650104
 21
232.3696688286077
  0
LINE
  8
_0-b_細線3
  6
CONTINUOUS
 62
    7
 10
279.30091985316807
 20
236.53633549527424
 11
280.13425318650104
 21
235.70300216194119
  0
LINE
  8
_0-b_細線3
  6
CONTINUOUS
 62
    7
 10
235.13425318650107
 20
236.53633549527424
 11
279.30091985316807
 21
236.53633549527424
  0
LINE
  8
_0-b_細線3
  6
CONTINUOUS
 62
    7
 10
230.96758651983498
 20
269.8696688286077
 11
230.13425318650107
 21
269.03633549527422
  0
LINE
  8
_0-b_細線3
  6
CONTINUOUS
 62
    7
 10
234.30091985316807
 20
269.8696688286077
 11
230.96758651983498
 21
269.8696688286077
  0
LINE
  8
_0-b_細線3
  6
CONTINUOUS
 62
    7
 10
235.13425318650107
 20
269.03633549527422
 11
234.30091985316807
 21
269.8696688286077
  0
LINE
  8
_0-b_細線3
  6
CONTINUOUS
 62
    7
 10
235.13425318650107
 20
236.53633549527424
 11
235.13425318650107
 21
269.03633549527422
  0
ARC
  8
_0-b_細線3
  6
CONTINUOUS
 62
    7
 10
658.46758651983453
 20
236.53633549527424
 40
4.9999999999999991
 50
269.99999999999977
 51
359.99999999999966
  0
LINE
  8
_0-b_細線3
  6
CONTINUOUS
 62
    7
 10
663.46758651983453
 20
236.53633549527424
 11
663.46758651983453
 21
269.03633549527422
  0
LINE
  8
_0-b_細線3
  6
CONTINUOUS
 62
    7
 10
658.46758651983453
 20
231.53633549527424
 11
614.3009198531671
 21
231.53633549527424
  0
LINE
  8
_0-b_細線3
  6
CONTINUOUS
 62
    7
 10
613.46758651983498
 20
232.3696688286077
 11
614.3009198531671
 21
231.53633549527424
  0
LINE
  8
_0-b_細線3
  6
CONTINUOUS
 62
    7
 10
613.46758651983498
 20
235.70300216194119
 11
613.46758651983498
 21
232.3696688286077
  0
LINE
  8
_0-b_細線3
  6
CONTINUOUS
 62
    7
 10
614.3009198531671
 20
236.53633549527424
 11
613.46758651983498
 21
235.70300216194119
  0
LINE
  8
_0-b_細線3
  6
CONTINUOUS
 62
    7
 10
658.46758651983453
 20
236.53633549527424
 11
614.3009198531671
 21
236.53633549527424
  0
LINE
  8
_0-b_細線3
  6
CONTINUOUS
 62
    7
 10
662.63425318650104
 20
269.8696688286077
 11
663.46758651983453
 21
269.03633549527422
  0
LINE
  8
_0-b_細線3
  6
CONTINUOUS
 62
    7
 10
659.30091985316812
 20
269.8696688286077
 11
662.63425318650104
 21
269.8696688286077
  0
LINE
  8
_0-b_細線3
  6
CONTINUOUS
 62
    7
 10
658.46758651983453
 20
269.03633549527422
 11
659.30091985316812
 21
269.8696688286077
  0
LINE
  8
_0-b_細線3
  6
CONTINUOUS
 62
    7
 10
658.46758651983453
 20
236.53633549527424
 11
658.46758651983453
 21
269.03633549527422
  0
LINE
  8
_0-b_細線3
  6
CONTINUOUS
 62
    7
 10
237.63425318650107
 20
263.36966882860816
 11
655.96758651983453
 21
263.36966882860816
  0
CIRCLE
  8
_0-b_細線3
  6
CONTINUOUS
 62
    7
 10
266.80091985316807
 20
250.86966882860818
 40
10.833333333333332
  0
LINE
  8
_0-b_細線3
  6
CONTINUOUS
 62
    7
 10
273.46758651983498
 20
250.86966882860818
 11
270.13425318650104
 21
256.64317152050398
  0
LINE
  8
_0-b_細線3
  6
CONTINUOUS
 62
    7
 10
270.13425318650104
 20
256.64317152050398
 11
263.46758651983498
 21
256.64317152050398
  0
LINE
  8
_0-b_細線3
  6
CONTINUOUS
 62
    7
 10
263.46758651983498
 20
256.64317152050398
 11
260.13425318650104
 21
250.86966882860818
  0
LINE
  8
_0-b_細線3
  6
CONTINUOUS
 62
    7
 10
260.13425318650104
 20
250.86966882860818
 11
263.46758651983498
 21
245.09616613671142
  0
LINE
  8
_0-b_細線3
  6
CONTINUOUS
 62
    7
 10
263.46758651983498
 20
245.09616613671142
 11
270.13425318650104
 21
245.09616613671142
  0
LINE
  8
_0-b_細線3
  6
CONTINUOUS
 62
    7
 10
270.13425318650104
 20
245.09616613671142
 11
273.46758651983498
 21
250.86966882860818
  0
CIRCLE
  8
_0-b_細線3
  6
CONTINUOUS
 62
    7
 10
626.80091985316812
 20
250.86966882860818
 40
10.833333333333332
  0
LINE
  8
_0-b_細線3
  6
CONTINUOUS
 62
    7
 10
620.13425318650104
 20
250.86966882860818
 11
623.46758651983498
 21
256.64317152050398
  0
LINE
  8
_0-b_細線3
  6
CONTINUOUS
 62
    7
 10
623.46758651983498
 20
256.64317152050398
 11
630.13425318650104
 21
256.64317152050398
  0
LINE
  8
_0-b_細線3
  6
CONTINUOUS
 62
    7
 10
630.13425318650104
 20
256.64317152050398
 11
633.46758651983498
 21
250.86966882860818
  0
LINE
  8
_0-b_細線3
  6
CONTINUOUS
 62
    7
 10
633.46758651983498
 20
250.86966882860818
 11
630.13425318650104
 21
245.09616613671142
  0
LINE
  8
_0-b_細線3
  6
CONTINUOUS
 62
    7
 10
630.13425318650104
 20
245.09616613671142
 11
623.46758651983498
 21
245.09616613671142
  0
LINE
  8
_0-b_細線3
  6
CONTINUOUS
 62
    7
 10
623.46758651983498
 20
245.09616613671142
 11
620.13425318650104
 21
250.86966882860818
  0
CIRCLE
  8
_0-b_細線3
  6
CONTINUOUS
 62
    7
 10
446.80091985316807
 20
250.86966882860818
 40
10.833333333333332
  0
LINE
  8
_0-b_細線3
  6
CONTINUOUS
 62
    7
 10
440.13425318650104
 20
250.86966882860818
 11
443.46758651983498
 21
256.64317152050398
  0
LINE
  8
_0-b_細線3
  6
CONTINUOUS
 62
    7
 10
443.46758651983498
 20
256.64317152050398
 11
450.13425318650104
 21
256.64317152050398
  0
LINE
  8
_0-b_細線3
  6
CONTINUOUS
 62
    7
 10
450.13425318650104
 20
256.64317152050398
 11
453.46758651983498
 21
250.86966882860818
  0
LINE
  8
_0-b_細線3
  6
CONTINUOUS
 62
    7
 10
453.46758651983498
 20
250.86966882860818
 11
450.13425318650104
 21
245.09616613671142
  0
LINE
  8
_0-b_細線3
  6
CONTINUOUS
 62
    7
 10
450.13425318650104
 20
245.09616613671142
 11
443.46758651983498
 21
245.09616613671142
  0
LINE
  8
_0-b_細線3
  6
CONTINUOUS
 62
    7
 10
443.46758651983498
 20
245.09616613671142
 11
440.13425318650104
 21
250.86966882860818
  0
LINE
  8
_0-d_寸法3
  6
CONTINUOUS
 62
    7
 10
220.13425318650192
 20
269.86966882860776
 11
174.18422210791221
 21
269.8696688286077
  0
LINE
  8
_0-d_寸法3
  6
CONTINUOUS
 62
    7
 10
179.18422210791221
 20
269.8696688286077
 11
181.77241255893733
 21
260.21041056571698
  0
LINE
  8
_0-d_寸法3
  6
CONTINUOUS
 62
    7
 10
179.18422210791221
 20
269.8696688286077
 11
176.59603165688694
 21
260.21041056571704
  0
LINE
  8
_0-d_寸法3
  6
CONTINUOUS
 62
    7
 10
218.13425318650195
 20
231.53633549527427
 11
174.18422210791221
 21
231.53633549527427
  0
LINE
  8
_0-d_寸法3
  6
CONTINUOUS
 62
    7
 10
179.18422210791221
 20
231.53633549527424
 11
176.59603165688694
 21
241.19559375816493
  0
LINE
  8
_0-d_寸法3
  6
CONTINUOUS
 62
    7
 10
179.18422210791221
 20
231.53633549527424
 11
181.77241255893739
 21
241.19559375816493
  0
LINE
  8
_0-d_寸法3
  6
CONTINUOUS
 62
    7
 10
179.18422210791221
 20
269.8696688286077
 11
179.18422210791221
 21
231.53633549527424
  0
TEXT
  8
_0-d_寸法3
 62
    7
 10
179.18422210791221
 20
243.20300216194119
 40
15
 41
1
 50
90
  1
23
  0
LINE
  8
_0-d_寸法3
  6
CONTINUOUS
 62
    7
 10
220.13425318650192
 20
231.53633549527427
 11
174.18422210791221
 21
231.53633549527427
  0
LINE
  8
_0-d_寸法3
  6
CONTINUOUS
 62
    7
 10
179.18422210791221
 20
231.53633549527424
 11
181.77241255893733
 21
221.87707723238356
  0
LINE
  8
_0-d_寸法3
  6
CONTINUOUS
 62
    7
 10
179.18422210791221
 20
231.53633549527424
 11
176.59603165688694
 21
221.87707723238358
  0
LINE
  8
_0-d_寸法3
  6
CONTINUOUS
 62
    7
 10
218.13425318650195
 20
193.20300216194079
 11
174.18422210791311
 21
193.20300216194079
  0
LINE
  8
_0-d_寸法3
  6
CONTINUOUS
 62
    7
 10
179.18422210791311
 20
193.2030021619407
 11
176.59603165688793
 21
202.86226042483145
  0
LINE
  8
_0-d_寸法3
  6
CONTINUOUS
 62
    7
 10
179.18422210791311
 20
193.2030021619407
 11
181.77241255893833
 21
202.86226042483145
  0
LINE
  8
_0-d_寸法3
  6
CONTINUOUS
 62
    7
 10
179.18422210791221
 20
231.53633549527424
 11
179.18422210791311
 21
193.2030021619407
  0
TEXT
  8
_0-d_寸法3
 62
    7
 10
179.18422210791311
 20
204.86966882860727
 40
15
 41
1
 50
90
  1
23
  0
LINE
  8
_0-a_極細3
  6
CONTINUOUS
 62
    7
 10
186.49418496601569
 20
181.41803665777758
 11
181.36388281613051
 21
195.51342596956601
  0
LINE
  8
_0-a_極細3
  6
CONTINUOUS
 62
    7
 10
236.48822763981244
 20
215.57704666881276
 11
241.61852978969719
 21
201.4816573570242
  0
LINE
  8
_0-a_極細3
  6
CONTINUOUS
 62
    7
 10
181.36388281613051
 20
195.51342596956601
 11
236.48822763981244
 21
215.57704666881276
  0
LINE
  8
_0-a_極細3
  6
CONTINUOUS
 62
    7
 10
186.49418496601569
 20
181.41803665777758
 11
241.61852978969719
 21
201.4816573570242
  0
LINE
  8
_0-a_極細3
  6
CENTER1
 62
    7
 10
178.97360049908036
 20
186.66210127364229
 11
243.0046209816463
 21
209.96748675867732
  0
LINE
  8
_0-a_極細3
  6
CONTINUOUS
 62
    7
 10
205.13425318650107
 20
156.53633549527422
 11
205.13425318650107
 21
200.62189684359055
  0
LINE
  8
_0-a_極細3
  6
CONTINUOUS
 62
    7
 10
205.13425318650107
 20
200.62189684359055
 11
190.13425318650107
 21
200.62189684359055
  0
LINE
  8
_0-a_極細3
  6
CONTINUOUS
 62
    7
 10
190.13425318650107
 20
200.62189684359055
 11
190.13425318650107
 21
156.53633549527422
  0
LINE
  8
_0-a_極細3
  6
CENTER1
 62
    7
 10
197.63425318650107
 20
148.25959521082132
 11
197.63425318650107
 21
204.89761700819969
  0
LINE
  8
_0-a_極細3
  6
CONTINUOUS
 62
    7
 10
707.10765474031984
 20
181.41803665777758
 11
712.23795689020506
 21
195.51342596956601
  0
LINE
  8
_0-a_極細3
  6
CONTINUOUS
 62
    7
 10
657.11361206652373
 20
215.57704666881276
 11
651.98330991663897
 21
201.4816573570242
  0
LINE
  8
_0-a_極細3
  6
CONTINUOUS
 62
    7
 10
712.23795689020506
 20
195.51342596956601
 11
657.11361206652373
 21
215.57704666881276
  0
LINE
  8
_0-a_極細3
  6
CONTINUOUS
 62
    7
 10
707.10765474031984
 20
181.41803665777758
 11
651.98330991663897
 21
201.4816573570242
  0
LINE
  8
_0-a_極細3
  6
CENTER1
 62
    7
 10
714.62823920725532
 20
186.66210127364229
 11
650.59721872468958
 21
209.96748675867732
  0
LINE
  8
_0-a_極細3
  6
CONTINUOUS
 62
    7
 10
688.46758651983453
 20
156.53633549527422
 11
688.46758651983453
 21
200.62189684359055
  0
LINE
  8
_0-a_極細3
  6
CONTINUOUS
 62
    7
 10
688.46758651983453
 20
200.62189684359055
 11
703.46758651983453
 21
200.62189684359055
  0
LINE
  8
_0-a_極細3
  6
CONTINUOUS
 62
    7
 10
703.46758651983453
 20
200.62189684359055
 11
703.46758651983453
 21
156.53633549527422
  0
LINE
  8
_0-a_極細3
  6
CENTER1
 62
    7
 10
695.96758651983453
 20
148.25959521082132
 11
695.96758651983453
 21
204.89761700819969
  0
LINE
  8
_0-d_寸法3
  6
CONTINUOUS
 62
    7
 10
438.60939941027817
 20
242.27209985878471
 11
403.25705768459267
 21
267.02607602847547
  0
LINE
  8
_0-d_寸法3
  6
CONTINUOUS
 62
    7
 10
407.35281790603756
 20
264.15819384672022
 11
404.76462745501237
 21
273.81745210961088
  0
LINE
  8
_0-d_寸法3
  6
CONTINUOUS
 62
    7
 10
407.35281790603756
 20
264.15819384672022
 11
409.94100835706286
 21
273.81745210961088
  0
LINE
  8
_0-d_寸法3
  6
CONTINUOUS
 62
    7
 10
438.60939941027817
 20
275.6054331921182
 11
403.25705768459267
 21
300.35940936180896
  0
LINE
  8
_0-d_寸法3
  6
CONTINUOUS
 62
    7
 10
407.35281790603756
 20
297.49152718005371
 11
409.94100835706274
 21
287.83226891716299
  0
LINE
  8
_0-d_寸法3
  6
CONTINUOUS
 62
    7
 10
407.35281790603756
 20
297.49152718005371
 11
404.76462745501237
 21
287.83226891716305
  0
LINE
  8
_0-d_寸法3
  6
CONTINUOUS
 62
    7
 10
407.35281790603756
 20
264.15819384672022
 11
407.35281790603756
 21
297.49152718005371
  0
TEXT
  8
_0-d_寸法3
 62
    7
 10
407.35281790603756
 20
273.32486051338674
 40
15
 41
1
 50
90
  1
20
  0
TEXT
  8
_0-7_枠細線
 62
    5
 10
396.87887221393424
 20
94.869303826929325
 40
25
 41
0.8
 50
0
  1
断面詳細図
  0
LINE
  8
_0-b_細線3
  6
CONTINUOUS
 62
    7
 10
230.13425318650107
 20
251.53670049695305
 11
230.13425318650107
 21
193.20336716361979
  0
LINE
  8
_0-b_細線3
  6
CONTINUOUS
 62
    7
 10
230.13425318650107
 20
193.20336716361979
 11
226.30091985316773
 21
193.20336716361979
  0
LINE
  8
_0-b_細線3
  6
CONTINUOUS
 62
    7
 10
226.30091985316773
 20
193.20336716361979
 11
226.30091985316773
 21
251.53670049695305
  0
LINE
  8
_0-b_細線3
  6
CONTINUOUS
 62
    7
 10
226.30091985316773
 20
251.53670049695305
 11
230.13425318650107
 21
251.53670049695305
  0
LINE
  8
_0-a_極細3
  6
CONTINUOUS
 62
    7
 10
226.30091985316773
 20
224.87003383028639
 11
230.13425318650107
 21
224.87003383028639
  0
LINE
  8
_0-a_極細3
  6
CONTINUOUS
 62
    7
 10
226.30091985316773
 20
228.20336716361979
 11
230.13425318650107
 21
228.20336716361979
  0
LINE
  8
_0-a_極細3
  6
CONTINUOUS
 62
    7
 10
226.30091985316773
 20
221.53670049695305
 11
230.13425318650107
 21
221.53670049695305
  0
LINE
  8
_0-a_極細3
  6
CONTINUOUS
 62
    7
 10
226.30091985316773
 20
231.53670049695305
 11
230.13425318650107
 21
231.53670049695305
  0
LINE
  8
_0-a_極細3
  6
CONTINUOUS
 62
    7
 10
230.13425318650107
 20
198.20336716361979
 11
226.30091985316773
 21
198.20336716361979
  0
LINE
  8
_0-a_極細3
  6
CONTINUOUS
 62
    7
 10
226.30091985316773
 20
248.20336716361979
 11
230.13425318650107
 21
248.20336716361979
  0
LINE
  8
_0-b_細線3
  6
CONTINUOUS
 62
    7
 10
663.46758651983475
 20
251.53633549527424
 11
663.46758651983475
 21
193.20300216194099
  0
LINE
  8
_0-b_細線3
  6
CONTINUOUS
 62
    7
 10
663.46758651983475
 20
193.20300216194099
 11
667.30091985316812
 21
193.20300216194099
  0
LINE
  8
_0-b_細線3
  6
CONTINUOUS
 62
    7
 10
667.30091985316812
 20
193.20300216194099
 11
667.30091985316812
 21
251.53633549527424
  0
LINE
  8
_0-b_細線3
  6
CONTINUOUS
 62
    7
 10
667.30091985316812
 20
251.53633549527424
 11
663.46758651983475
 21
251.53633549527424
  0
LINE
  8
_0-a_極細3
  6
CONTINUOUS
 62
    7
 10
667.30091985316812
 20
224.86966882860759
 11
663.46758651983475
 21
224.86966882860759
  0
LINE
  8
_0-a_極細3
  6
CONTINUOUS
 62
    7
 10
667.30091985316812
 20
228.20300216194099
 11
663.46758651983475
 21
228.20300216194099
  0
LINE
  8
_0-a_極細3
  6
CONTINUOUS
 62
    7
 10
667.30091985316812
 20
221.53633549527424
 11
663.46758651983475
 21
221.53633549527424
  0
LINE
  8
_0-a_極細3
  6
CONTINUOUS
 62
    7
 10
667.30091985316812
 20
231.53633549527424
 11
663.46758651983475
 21
231.53633549527424
  0
LINE
  8
_0-a_極細3
  6
CONTINUOUS
 62
    7
 10
663.46758651983475
 20
198.20300216194099
 11
667.30091985316812
 21
198.20300216194099
  0
LINE
  8
_0-a_極細3
  6
CONTINUOUS
 62
    7
 10
667.30091985316812
 20
248.20300216194099
 11
663.46758651983475
 21
248.20300216194099
  0
LINE
  8
_0-7_枠細線
  6
CONTINUOUS
 62
    5
 10
685.23163669379051
 20
240.8696572952141
 11
677.73163669379051
 21
255.8696572952141
  0
LINE
  8
_0-7_枠細線
  6
CONTINUOUS
 62
    5
 10
670.23163669379051
 20
240.8696572952141
 11
685.23163669379051
 21
240.8696572952141
  0
LINE
  8
_0-7_枠細線
  6
CONTINUOUS
 62
    5
 10
677.73163669379051
 20
255.8696572952141
 11
670.23163669379051
 21
240.8696572952141
  0
TEXT
  8
_0-7_枠細線
 62
    5
 10
672.5967879619385
 20
239.92083733036421
 40
12.5
 41
0.8
 50
0
  1
４
  0
LINE
  8
_0-d_寸法3
  6
CONTINUOUS
 62
    7
 10
230.13425318650192
 20
274.86966882860816
 11
230.13425318650192
 21
359.86966882860719
  0
LINE
  8
_0-d_寸法3
  6
CONTINUOUS
 62
    7
 10
230.13425318650192
 20
354.86966882860719
 11
239.79351144939267
 21
357.45785927963243
  0
LINE
  8
_0-d_寸法3
  6
CONTINUOUS
 62
    7
 10
230.13425318650192
 20
354.86966882860719
 11
239.79351144939267
 21
352.281478377582
  0
LINE
  8
_0-d_寸法3
  6
CONTINUOUS
 62
    7
 10
663.46758651983509
 20
274.86966882860816
 11
663.46758651983509
 21
359.86966882860719
  0
LINE
  8
_0-d_寸法3
  6
CONTINUOUS
 62
    7
 10
663.46758651983509
 20
354.86966882860719
 11
653.80832825694426
 21
352.281478377582
  0
LINE
  8
_0-d_寸法3
  6
CONTINUOUS
 62
    7
 10
663.46758651983509
 20
354.86966882860719
 11
653.80832825694426
 21
357.45785927963249
  0
LINE
  8
_0-d_寸法3
  6
CONTINUOUS
 62
    7
 10
230.13425318650192
 20
354.86966882860719
 11
663.46758651983509
 21
354.86966882860719
  0
TEXT
  8
_0-d_寸法3
 62
    7
 10
435.55091985316892
 20
354.86966882860719
 40
15
 41
1
 50
0
  1
260
  0
TEXT
  8
_0-7_枠細線
 62
    5
 10
511.82784196310223
 20
97.481147871740603
 40
20
 41
0.6
 50
0
  1
Ｓ＝１：３
  0
LINE
  8
_0-d_寸法3
  6
CONTINUOUS
 62
    7
 10
663.46758651983475
 20
183.20300216194099
 11
663.46758651983475
 21
168.20300216194084
  0
LINE
  8
_0-d_寸法3
  6
CONTINUOUS
 62
    7
 10
663.46758651983475
 20
173.20300216194084
 11
653.80832825694415
 21
170.61481171091572
  0
LINE
  8
_0-d_寸法3
  6
CONTINUOUS
 62
    7
 10
663.46758651983475
 20
173.20300216194084
 11
653.80832825694415
 21
175.79119261296611
  0
LINE
  8
_0-d_寸法3
  6
CONTINUOUS
 62
    7
 10
613.46758651983498
 20
221.53633549527424
 11
613.46758651983487
 21
168.20300216194084
  0
LINE
  8
_0-d_寸法3
  6
CONTINUOUS
 62
    7
 10
613.46758651983487
 20
173.20300216194084
 11
623.12684478272558
 21
175.79119261296611
  0
LINE
  8
_0-d_寸法3
  6
CONTINUOUS
 62
    7
 10
613.46758651983487
 20
173.20300216194084
 11
623.12684478272558
 21
170.61481171091572
  0
LINE
  8
_0-d_寸法3
  6
CONTINUOUS
 62
    7
 10
663.46758651983475
 20
173.20300216194084
 11
613.46758651983487
 21
173.20300216194084
  0
TEXT
  8
_0-d_寸法3
 62
    7
 10
630.96758651983339
 20
173.20300216194084
 40
15
 41
1
 50
0.0000000000002714
  1
30
  0
LINE
  8
_0-d_寸法3
  6
CONTINUOUS
 62
    7
 10
280.13425318650104
 20
226.53633549527424
 11
280.13425318650098
 21
168.20300216194084
  0
LINE
  8
_0-d_寸法3
  6
CONTINUOUS
 62
    7
 10
280.13425318650098
 20
173.20300216194084
 11
289.79351144939164
 21
175.79119261296611
  0
LINE
  8
_0-d_寸法3
  6
CONTINUOUS
 62
    7
 10
280.13425318650098
 20
173.20300216194084
 11
289.79351144939164
 21
170.61481171091572
  0
LINE
  8
_0-d_寸法3
  6
CONTINUOUS
 62
    7
 10
613.46758651983498
 20
226.53633549527424
 11
613.46758651983487
 21
168.20300216194084
  0
LINE
  8
_0-d_寸法3
  6
CONTINUOUS
 62
    7
 10
613.46758651983487
 20
173.20300216194084
 11
603.80832825694415
 21
170.61481171091572
  0
LINE
  8
_0-d_寸法3
  6
CONTINUOUS
 62
    7
 10
613.46758651983487
 20
173.20300216194084
 11
603.80832825694415
 21
175.79119261296611
  0
LINE
  8
_0-d_寸法3
  6
CONTINUOUS
 62
    7
 10
280.13425318650098
 20
173.20300216194084
 11
613.46758651983487
 21
173.20300216194084
  0
TEXT
  8
_0-d_寸法3
 62
    7
 10
435.55091985316716
 20
173.20300216194084
 40
15
 41
1
 50
0
  1
200
  0
LINE
  8
_0-d_寸法3
  6
CONTINUOUS
 62
    7
 10
230.13425318650107
 20
183.20336716361979
 11
230.13425318650107
 21
168.20300216194084
  0
LINE
  8
_0-d_寸法3
  6
CONTINUOUS
 62
    7
 10
230.13425318650107
 20
173.20300216194084
 11
239.79351144939173
 21
175.79119261296611
  0
LINE
  8
_0-d_寸法3
  6
CONTINUOUS
 62
    7
 10
230.13425318650107
 20
173.20300216194084
 11
239.79351144939173
 21
170.61481171091572
  0
LINE
  8
_0-d_寸法3
  6
CONTINUOUS
 62
    7
 10
280.13425318650104
 20
221.53633549527424
 11
280.13425318650098
 21
168.20300216194084
  0
LINE
  8
_0-d_寸法3
  6
CONTINUOUS
 62
    7
 10
280.13425318650098
 20
173.20300216194084
 11
270.47499492361027
 21
170.61481171091572
  0
LINE
  8
_0-d_寸法3
  6
CONTINUOUS
 62
    7
 10
280.13425318650098
 20
173.20300216194084
 11
270.47499492361032
 21
175.79119261296611
  0
LINE
  8
_0-d_寸法3
  6
CONTINUOUS
 62
    7
 10
230.13425318650107
 20
173.20300216194084
 11
280.13425318650098
 21
173.20300216194084
  0
TEXT
  8
_0-d_寸法3
 62
    7
 10
247.63425318650107
 20
173.20300216194084
 40
15
 41
1
 50
0
  1
30
  0
LINE
  8
_0-d_寸法3
  6
CONTINUOUS
 62
    7
 10
230.13425318650107
 20
274.86966882860719
 11
230.13425318650107
 21
324.86966882860719
  0
LINE
  8
_0-d_寸法3
  6
CONTINUOUS
 62
    7
 10
230.13425318650107
 20
319.86966882860719
 11
220.47499492361041
 21
317.281478377582
  0
LINE
  8
_0-d_寸法3
  6
CONTINUOUS
 62
    7
 10
230.13425318650107
 20
319.86966882860719
 11
220.47499492361041
 21
322.45785927963249
  0
LINE
  8
_0-d_寸法3
  6
CONTINUOUS
 62
    7
 10
235.13425318650107
 20
274.86966882860719
 11
235.13425318650107
 21
324.86966882860719
  0
CIRCLE
  8
_0-d_寸法3
  6
CONTINUOUS
 62
    1
 10
235.13425318650107
 20
319.86966882860719
 40
1.5000000000000002
  0
LINE
  8
_0-d_寸法3
  6
CONTINUOUS
 62
    7
 10
205.13425318650107
 20
319.86966882860719
 11
235.13425318650107
 21
319.86966882860719
  0
TEXT
  8
_0-d_寸法3
 62
    7
 10
209.60280316430612
 20
319.86966882860719
 40
15
 41
1
 50
0
  1
3
  0
LINE
  8
_0-d_寸法3
  6
CONTINUOUS
 62
    7
 10
237.63425318650107
 20
274.86966882860673
 11
237.63425318650107
 21
324.86966882860719
  0
LINE
  8
_0-d_寸法3
  6
CONTINUOUS
 62
    7
 10
235.13425318650107
 20
319.86966882860719
 11
237.63425318650107
 21
319.86966882860719
  0
TEXT
  8
_0-d_寸法3
 62
    7
 10
239.87077463347774
 20
302.66079258714615
 40
15
 41
1
 50
0
  1
1.5
  0
LINE
  8
_0-d_寸法3
  6
CONTINUOUS
 62
    7
 10
237.63425318650107
 20
319.86966882860719
 11
247.29351144939181
 21
322.45785927963243
  0
LINE
  8
_0-d_寸法3
  6
CONTINUOUS
 62
    7
 10
237.63425318650107
 20
319.86966882860719
 11
247.29351144939181
 21
317.281478377582
  0
LINE
  8
_0-d_寸法3
  6
CONTINUOUS
 62
    7
 10
655.96758651983453
 20
274.86966882860673
 11
655.96758651983464
 21
324.86966882860719
  0
LINE
  8
_0-d_寸法3
  6
CONTINUOUS
 62
    7
 10
655.96758651983464
 20
319.86966882860719
 11
646.30832825694392
 21
317.281478377582
  0
LINE
  8
_0-d_寸法3
  6
CONTINUOUS
 62
    7
 10
655.96758651983464
 20
319.86966882860719
 11
646.30832825694392
 21
322.45785927963249
  0
LINE
  8
_0-d_寸法3
  6
CONTINUOUS
 62
    7
 10
237.63425318650107
 20
319.86966882860719
 11
655.96758651983464
 21
319.86966882860719
  0
TEXT
  8
_0-d_寸法3
 62
    7
 10
435.5509198531679
 20
319.86966882860719
 40
15
 41
1
 50
0
  1
251
  0
LINE
  8
_0-d_寸法3
  6
CONTINUOUS
 62
    7
 10
658.46758651983509
 20
274.86966882860719
 11
658.46758651983521
 21
324.86966882860719
  0
CIRCLE
  8
_0-d_寸法3
  6
CONTINUOUS
 62
    1
 10
658.46758651983521
 20
319.86966882860719
 40
1.5000000000000002
  0
LINE
  8
_0-d_寸法3
  6
CONTINUOUS
 62
    7
 10
655.96758651983464
 20
319.86966882860719
 11
658.46758651983521
 21
319.86966882860719
  0
TEXT
  8
_0-d_寸法3
 62
    7
 10
631.53768697624571
 20
301.77083091261784
 40
15
 41
1
 50
0
  1
1.5
  0
LINE
  8
_0-d_寸法3
  6
CONTINUOUS
 62
    7
 10
663.46758651983453
 20
274.86966882860719
 11
663.46758651983464
 21
324.86966882860719
  0
LINE
  8
_0-d_寸法3
  6
CONTINUOUS
 62
    7
 10
663.46758651983464
 20
319.86966882860719
 11
673.12684478272547
 21
322.45785927963232
  0
LINE
  8
_0-d_寸法3
  6
CONTINUOUS
 62
    7
 10
663.46758651983464
 20
319.86966882860719
 11
673.12684478272547
 21
317.28147837758195
  0
LINE
  8
_0-d_寸法3
  6
CONTINUOUS
 62
    7
 10
658.46758651983521
 20
319.86966882860719
 11
688.46758651983464
 21
319.86966882860719
  0
TEXT
  8
_0-d_寸法3
 62
    7
 10
676.21609669811266
 20
319.86966882860719
 40
15
 41
1
 50
0
  1
3
  0
LINE
  8
_0-b_細線3
  6
CONTINUOUS
 62
    7
 10
237.63425318650107
 20
236.53633549527424
 11
237.63425318650107
 21
269.86966882860725
  0
LINE
  8
_0-b_細線3
  6
CONTINUOUS
 62
    7
 10
237.63425318650107
 20
269.86966882860725
 11
655.96758651983453
 21
269.86966882860725
  0
LINE
  8
_0-b_細線3
  6
CONTINUOUS
 62
    7
 10
655.96758651983453
 20
269.86966882860725
 11
655.96758651983453
 21
236.53633549527424
  0
LINE
  8
_0-b_細線3
  6
CONTINUOUS
 62
    7
 10
655.96758651983453
 20
236.53633549527424
 11
237.63425318650107
 21
236.53633549527424
  0
ENDSEC
  0
EOF
