  0
SECTION
  2
HEADER
  9
$ACADVER
  1
AC1009
  9
$INSBASE
 10
0
 20
0
 30
0
  9
$EXTMIN
 10
0
 20
0
  9
$EXTMAX
 10
1485
 20
1050
  9
$LIMMIN
 10
0
 20
0
  9
$LIMMAX
 10
1485
 20
1050
  9
$LTSCALE
 40
5
  0
ENDSEC
  0
SECTION
  2
TABLES
  0
TABLE
  2
LTYPE
 70
     9
  0
LTYPE
  2
CONTINUOUS
 70
    64
  3
実線
 72
    65
 73
     0
 40
0.0
  0
LTYPE
  2
DASHED1
 70
    64
  3
--  --  --  --  --  --  --  --  
 72
    65
 73
     2
 40
2.5
 49
1.25
 49
-1.25
  0
LTYPE
  2
DASHED2
 70
    64
  3
----    ----    ----    ----    
 72
    65
 73
     2
 40
5.0
 49
2.5
 49
-2.5
  0
LTYPE
  2
DASHED3
 70
    64
  3
------  ------  ------  ------  
 72
    65
 73
     2
 40
5.0
 49
3.75
 49
-1.25
  0
LTYPE
  2
CENTER1
 70
    64
  3
----- - ----- - ----- - ----- - 
 72
    65
 73
     4
 40
10.0
 49
6.25
 49
-1.25
 49
1.25
 49
-1.25
  0
LTYPE
  2
CENTER2
 70
    64
  3
----------  --  ----------  --  
 72
    65
 73
     4
 40
20.0
 49
12.5
 49
-2.5
 49
2.5
 49
-2.5
  0
LTYPE
  2
PHANTOM1
 70
    64
  3
--- - - --- - - --- - - --- - - 
 72
    65
 73
     6
 40
10.0
 49
3.25
 49
-1.25
 49
1.25
 49
-1.25
 49
1.25
 49
-1.25
  0
LTYPE
  2
PHANTOM2
 70
    64
  3
--------  -  -  --------  -  -  
 72
    65
 73
     6
 40
20.0
 49
10.0
 49
-2.5
 49
1.25
 49
-2.5
 49
1.25
 49
-2.5
  0
LTYPE
  2
DOT
 70
    64
  3
-   -   -   -   -   -   -   -   
 72
    65
 73
     2
 40
2.5
 49
0.625
 49
-1.875
  0
LTYPE
  2
DUMMY
 70
    64
  3
ダミー
 72
    65
 73
     0
 40
0.0
  0
LTYPE
  2
RAND1
 70
    64
  3
ランダム線1
 72
    65
 73
     4
 40
10.0
 49
1.0
 49
-2.0
 49
3.0
 49
-4.0
  0
LTYPE
  2
RAND2
 70
    64
  3
ランダム線2
 72
    65
 73
     4
 40
14.0
 49
2.0
 49
-3.0
 49
4.0
 49
-5.0
  0
LTYPE
  2
RAND3
 70
    64
  3
ランダム線3
 72
    65
 73
     4
 40
18.0
 49
3.0
 49
-4.0
 49
5.0
 49
-6.0
  0
LTYPE
  2
RAND4
 70
    64
  3
ランダム線4
 72
    65
 73
     4
 40
22.0
 49
4.0
 49
-5.0
 49
6.0
 49
-7.0
  0
LTYPE
  2
RAND5
 70
    64
  3
ランダム線5
 72
    65
 73
     4
 40
26.0
 49
5.0
 49
-6.0
 49
7.0
 49
-8.0
  0
LTYPE
  2
LONG1
 70
    64
  3
----------  --  ----------  --  
 72
    65
 73
     4
 40
40.0
 49
32.5
 49
-2.5
 49
2.5
 49
-2.5
  0
LTYPE
  2
LONG2
 70
    64
  3
--------  -  -  --------  -  -  
 72
    65
 73
     6
 40
40.0
 49
30.0
 49
-2.5
 49
1.25
 49
-2.5
 49
1.25
 49
-2.5
  0
LTYPE
  2
LONG3
 70
    64
  3
+++++++++++++++..+++++++++++++++
 72
    65
 73
     2
 40
40.0
 49
37.5
 49
-2.5
  0
LTYPE
  2
LONG4
 70
    64
  3
+++++++++++++++..+++++++++++++++
 72
    65
 73
     2
 40
80.0
 49
75.0
 49
-5.0
  0
LTYPE
  2
LONG5
 70
    64
  3
----------  --  ----------  --  
 72
    65
 73
     4
 40
60.0
 49
37.5
 49
-7.5
 49
7.5
 49
-7.5
  0
LTYPE
  2
dashed
 70
   64
  3
-------   -------------   ------
 72
   65
 73
    2
 40
7.5
 49
6
 49
-1.5
  0
LTYPE
  2
dashed_spaced
 70
   64
  3
----        --------        ----
 72
   65
 73
    2
 40
12
 49
6
 49
-6
  0
LTYPE
  2
long_dashed_dotted
 70
   64
  3
------------- --- --------------
 72
   65
 73
    4
 40
15.25
 49
12
 49
-1.5
 49
0.25
 49
-1.5
  0
LTYPE
  2
long_dashed_double-dotted
 70
   64
  3
----------- --- --- ------------
 72
   65
 73
    6
 40
17
 49
12
 49
-1.5
 49
0.25
 49
-1.5
 49
0.25
 49
-1.5
  0
LTYPE
  2
long_dashed_triplicate-dotted
 70
   64
  3
--------- --- --- --- ----------
 72
   65
 73
    8
 40
18.75
 49
12
 49
-1.5
 49
0.25
 49
-1.5
 49
0.25
 49
-1.5
 49
0.25
 49
-1.5
  0
LTYPE
  2
dotted
 70
   64
  3
   -       -       -       -    
 72
   65
 73
    2
 40
1.75
 49
0.25
 49
-1.5
  0
LTYPE
  2
chain
 70
   64
  3
-------------- -- --------------
 72
   65
 73
    4
 40
18.5
 49
12
 49
-1.5
 49
3.5
 49
-1.5
  0
LTYPE
  2
chain_double_dash
 70
   64
  3
------------ -- -- -------------
 72
   65
 73
    6
 40
23.5
 49
12
 49
-1.5
 49
3.5
 49
-1.5
 49
3.5
 49
-1.5
  0
LTYPE
  2
dashed_dotted
 70
   64
  3
-----------     -     ----------
 72
   65
 73
    4
 40
9.25
 49
6
 49
-1.5
 49
0.25
 49
-1.5
  0
LTYPE
  2
double-dashed_dotted
 70
   64
  3
------   -----------   -   -----
 72
   65
 73
    6
 40
16.75
 49
6
 49
-1.5
 49
6
 49
-1.5
 49
0.25
 49
-1.5
  0
LTYPE
  2
dashed_double-dotted
 70
   64
  3
---------    -    -    ---------
 72
   65
 73
    6
 40
11
 49
6
 49
-1.5
 49
0.25
 49
-1.5
 49
0.25
 49
-1.5
  0
LTYPE
  2
double-dashed_double-dotted
 70
   64
  3
-----   ---------   -   -   ----
 72
   65
 73
    8
 40
18.5
 49
6
 49
-1.5
 49
6
 49
-1.5
 49
0.25
 49
-1.5
 49
0.25
 49
-1.5
  0
LTYPE
  2
dashed_triplicate-dotted
 70
   64
  3
-------    -    -    -    ------
 72
   65
 73
    8
 40
12.75
 49
6
 49
-1.5
 49
0.25
 49
-1.5
 49
0.25
 49
-1.5
 49
0.25
 49
-1.5
  0
LTYPE
  2
double-dashed_triplicate-dotted
 70
   64
  3
-----  ---------  -  -  -  -----
 72
   65
 73
   10
 40
20.25
 49
6
 49
-1.5
 49
6
 49
-1.5
 49
0.25
 49
-1.5
 49
0.25
 49
-1.5
 49
0.25
 49
-1.5
  0
LTYPE
  2
undefined
 70
   64
  3
--------------------------------
 72
   65
 73
    0
 40
0
  0
ENDTAB
  0
TABLE
  2
STYLE
  5
3
100
AcDbSymbolTable
 70
     1
  0
STYLE
  5
10
100
AcDbSymbolTableRecord
100
AcDbTextStyleTableRecord
  2
STANDARD
 70
     0
 40
0.0
 41
1.0
 50
0.0
 71
     0
 42
0.2
  3
txt
  4
bigfont.shx
  0
STYLE
  5
26
100
AcDbSymbolTableRecord
100
AcDbTextStyleTableRecord
  2
TATEGAKI
 70
    68
 40
0.0
 41
1.0
 50
0.0
 71
     0
 42
1.0
  3
txt
  4
bigfont.shx
  0
ENDTAB
  0
TABLE
  2
LAYER
 70
   10
  0
LAYER
  2
_0-0_計極細
 70
   64
 62
    7
  6
CONTINUOUS
  0
LAYER
  2
_0-1_計細線
 70
   64
 62
    7
  6
CONTINUOUS
  0
LAYER
  2
_0-5_寸法線
 70
   64
 62
    7
  6
CONTINUOUS
  0
LAYER
  2
_0-7_枠細線
 70
   64
 62
    7
  6
CONTINUOUS
  0
LAYER
  2
_0-8_枠中線
 70
   64
 62
    7
  6
CONTINUOUS
  0
LAYER
  2
_0-9_枠極太
 70
   64
 62
    7
  6
CONTINUOUS
  0
LAYER
  2
_0-a_極細3
 70
   64
 62
    7
  6
CONTINUOUS
  0
LAYER
  2
_0-b_細線3
 70
   64
 62
    7
  6
CONTINUOUS
  0
LAYER
  2
_0-d_寸法3
 70
   64
 62
    7
  6
CONTINUOUS
  0
LAYER
  2
ADD_LINE
 70
   64
 62
    7
  6
CONTINUOUS
  0
ENDTAB
  0
ENDSEC
  0
SECTION
  2
BLOCKS
  0
ENDSEC
  0
SECTION
  2
ENTITIES
  0
LINE
  8
_0-7_枠細線
  6
CONTINUOUS
 62
    5
 10
1185
 20
180
 11
1185
 21
100
  0
TEXT
  8
_0-7_枠細線
 62
    5
 10
937.5
 20
97.5
 40
17.5
 41
1
 50
0
  1
備考
  7
TATEGAKI
  0
TEXT
  8
_0-7_枠細線
 62
    5
 10
937.5
 20
137.5
 40
17.5
 41
1
 50
0
  1
品番
  7
TATEGAKI
  0
TEXT
  8
_0-7_枠細線
 62
    5
 10
937.5
 20
177.5
 40
17.5
 41
1
 50
0
  1
品名
  7
TATEGAKI
  0
LINE
  8
_0-7_枠細線
  6
CONTINUOUS
 62
    5
 10
1185
 20
140
 11
925
 21
140
  0
LINE
  8
_0-7_枠細線
  6
CONTINUOUS
 62
    5
 10
950
 20
180
 11
950
 21
60
  0
LINE
  8
_0-8_枠中線
  6
CONTINUOUS
 62
    5
 10
1425
 20
180
 11
925
 21
180
  0
LINE
  8
_0-8_枠中線
  6
CONTINUOUS
 62
    5
 10
925
 20
180
 11
925
 21
60
  0
LINE
  8
_0-7_枠細線
  6
CONTINUOUS
 62
    5
 10
1245
 20
180
 11
1245
 21
60
  0
TEXT
  8
_0-7_枠細線
 62
    5
 10
1192.5
 20
160
 40
15
 41
1
 50
0
  1
縮　尺
  0
TEXT
  8
_0-7_枠細線
 62
    5
 10
1194
 20
117.5
 40
20
 41
0.7
 50
0
  1
１：５
  0
LINE
  8
_0-7_枠細線
  6
CONTINUOUS
 62
    5
 10
1185
 20
155
 11
1245
 21
155
  0
LINE
  8
_0-7_枠細線
  6
CONTINUOUS
 62
    5
 10
1245
 20
100
 11
925
 21
100
  0
LINE
  8
_0-7_枠細線
  6
CONTINUOUS
 62
    5
 10
1425
 20
90
 11
1245
 21
90
  0
LINE
  8
_0-7_枠細線
  6
CONTINUOUS
 62
    5
 10
1245
 20
120
 11
1425
 21
120
  0
LINE
  8
_0-7_枠細線
  6
CONTINUOUS
 62
    5
 10
1425
 20
140
 11
1245
 21
140
  0
TEXT
  8
_0-7_枠細線
 62
    5
 10
1255
 20
147.5
 40
25
 41
0.8
 50
0
  1
株式会社シマブン
  0
TEXT
  8
_0-7_枠細線
 62
    5
 10
1252.5
 20
60
 40
15
 41
1
 50
0
  1
年月日
  0
TEXT
  8
_0-7_枠細線
 62
    5
 10
1252.5
 20
75
 40
15
 41
1
 50
0
  1
作　成
  0
TEXT
  8
_0-7_枠細線
 62
    5
 10
1250
 20
95
 40
20
 41
1
 50
0
  1
島 英
  0
TEXT
  8
_0-7_枠細線
 62
    5
 10
1256.25
 20
122.5
 40
15
 41
1
 50
0
  1
承 認
  0
LINE
  8
_0-7_枠細線
  6
CONTINUOUS
 62
    5
 10
1305
 20
140
 11
1305
 21
60
  0
TEXT
  8
_0-7_枠細線
 62
    5
 10
1315
 20
95
 40
20
 41
1
 50
0
  1
隠塚
  0
TEXT
  8
_0-7_枠細線
 62
    5
 10
1316.25
 20
122.5
 40
15
 41
1
 50
0
  1
検 図
  0
LINE
  8
_0-7_枠細線
  6
CONTINUOUS
 62
    5
 10
1365
 20
140
 11
1365
 21
90
  0
TEXT
  8
_0-7_枠細線
 62
    5
 10
1375
 20
95
 40
20
 41
1
 50
0
  1
藤戸
  0
TEXT
  8
_0-7_枠細線
 62
    5
 10
1376.25
 20
122.5
 40
15
 41
1
 50
0
  1
設 計
  0
TEXT
  8
_0-7_枠細線
 62
    5
 10
965.50000000000011
 20
150
 40
20
 41
0.6
 50
0
  1
セーフティグレーチングＨ２５タイプ
  0
TEXT
  8
_0-7_枠細線
 62
    5
 10
965.50000000000011
 20
70
 40
20
 41
0.5999999999999998
 50
0
  1
色については品番表参照のこと
  0
TEXT
  8
_0-7_枠細線
 62
    5
 10
1310
 20
67.5
 40
15
 41
0.6666666666666666
 50
0
  1
２００９年０１月１６日
  0
TEXT
  8
_0-7_枠細線
 62
    5
 10
965.50000000000011
 20
110
 40
20
 41
0.6
 50
0
  1
ＧＲＳＪ－２５Ｗ２０１　ＳＥＴ
  0
LINE
  8
_0-7_枠細線
  6
CONTINUOUS
 62
    5
 10
1073.4764130630547
 20
286.58280415605634
 11
1373.4764130630549
 21
286.58280415605634
  0
LINE
  8
_0-7_枠細線
  6
CONTINUOUS
 62
    5
 10
1073.4764130630547
 20
311.58280415605634
 11
1373.4764130630549
 21
311.58280415605634
  0
LINE
  8
_0-7_枠細線
  6
CONTINUOUS
 62
    5
 10
1073.4764130630547
 20
336.58280415605634
 11
1373.4764130630549
 21
336.58280415605634
  0
LINE
  8
_0-7_枠細線
  6
CONTINUOUS
 62
    5
 10
1073.4764130630547
 20
361.5828041560564
 11
1373.4764130630549
 21
361.5828041560564
  0
LINE
  8
_0-7_枠細線
  6
CONTINUOUS
 62
    5
 10
1073.4764130630547
 20
386.58280415605634
 11
1373.4764130630549
 21
386.58280415605634
  0
LINE
  8
_0-7_枠細線
  6
CONTINUOUS
 62
    5
 10
1073.4764130630547
 20
411.58280415605617
 11
1373.4764130630549
 21
411.58280415605617
  0
LINE
  8
_0-7_枠細線
  6
CONTINUOUS
 62
    5
 10
1073.4764130630547
 20
436.58280415605617
 11
1373.4764130630549
 21
436.58280415605617
  0
TEXT
  8
_0-7_枠細線
 62
    5
 10
1162.2264130630547
 20
441.58280415605617
 40
17.5
 41
1
 50
0
  1
品番表
  0
TEXT
  8
_0-7_枠細線
 62
    5
 10
1304.4764130630549
 20
416.58280415605617
 40
15
 41
0.8000000000000001
 50
0
  1
備　　考
  0
TEXT
  8
_0-7_枠細線
 62
    5
 10
1211.4764130630551
 20
366.5828041560564
 40
15
 41
0.5999999999999999
 50
0
  1
ライトグレー
  0
TEXT
  8
_0-7_枠細線
 62
    5
 10
1220.4764130630551
 20
391.58280415605617
 40
15
 41
0.5999999999999999
 50
0
  1
ベージュ
  0
TEXT
  8
_0-7_枠細線
 62
    5
 10
1232.4764130630551
 20
416.58280415605617
 40
15
 41
0.8000000000000001
 50
0
  1
色
  0
TEXT
  8
_0-7_枠細線
 62
    5
 10
1109.4764130630549
 20
416.58280415605617
 40
15
 41
0.8000000000000001
 50
0
  1
品　　番
  0
LINE
  8
_0-7_枠細線
  6
CONTINUOUS
 62
    5
 10
1073.4764130630547
 20
211.58280415605614
 11
1373.4764130630549
 21
211.58280415605614
  0
LINE
  8
_0-7_枠細線
  6
CONTINUOUS
 62
    5
 10
1073.4764130630547
 20
236.58280415605634
 11
1373.4764130630549
 21
236.58280415605634
  0
LINE
  8
_0-7_枠細線
  6
CONTINUOUS
 62
    5
 10
1073.4764130630547
 20
261.5828041560564
 11
1373.4764130630549
 21
261.5828041560564
  0
TEXT
  8
_0-7_枠細線
 62
    5
 10
1220.4764130630556
 20
341.5828041560564
 40
15
 41
0.5999999999999999
 50
0
  1
ホワイト
  0
TEXT
  8
_0-7_枠細線
 62
    5
 10
1224.9764130630549
 20
316.58280415605634
 40
15
 41
0.5999999999999999
 50
0
  1
ピンク
  0
TEXT
  8
_0-7_枠細線
 62
    5
 10
1224.9764130630549
 20
291.58280415605634
 40
15
 41
0.5999999999999999
 50
0
  1
ブルー
  0
TEXT
  8
_0-7_枠細線
 62
    5
 10
1211.4764130630547
 20
266.58280415605634
 40
15
 41
0.5999999999999999
 50
0
  1
ダークグレー
  0
TEXT
  8
_0-7_枠細線
 62
    5
 10
1078.2264130630549
 20
391.58280415605617
 40
15
 41
0.5666666666666667
 50
0
  1
ＧＲＳＪ－２５Ｗ２０１－Ｂ
  0
TEXT
  8
_0-7_枠細線
 62
    5
 10
1078.2264130630551
 20
366.58280415605634
 40
15
 41
0.5666666666666667
 50
0
  1
ＧＲＳＪ－２５Ｗ２０１－Ｇ
  0
TEXT
  8
_0-7_枠細線
 62
    5
 10
1078.2264130630551
 20
341.5828041560564
 40
15
 41
0.5666666666666667
 50
0
  1
ＧＲＳＪ－２５Ｗ２０１－Ｓ
  0
TEXT
  8
_0-7_枠細線
 62
    5
 10
1078.2264130630551
 20
316.58280415605634
 40
15
 41
0.5666666666666667
 50
0
  1
ＧＲＳＪ－２５Ｗ２０１－Ｐ
  0
TEXT
  8
_0-7_枠細線
 62
    5
 10
1078.2264130630551
 20
291.58280415605634
 40
15
 41
0.5666666666666667
 50
0
  1
ＧＲＳＪ－２５Ｗ２０１－Ａ
  0
TEXT
  8
_0-7_枠細線
 62
    5
 10
1078.2264130630551
 20
266.58280415605634
 40
15
 41
0.5666666666666667
 50
0
  1
ＧＲＳＪ－２５Ｗ２０１－Ｄ
  0
TEXT
  8
_0-7_枠細線
 62
    5
 10
1078.2264130630551
 20
241.58280415605623
 40
15
 41
0.5666666666666667
 50
0
  1
ＧＲＳＪ－２５Ｗ２０１－Ｍ
  0
TEXT
  8
_0-7_枠細線
 62
    5
 10
1224.9764130630549
 20
241.58280415605623
 40
15
 41
0.5999999999999999
 50
0
  1
ウッド
  0
LINE
  8
_0-7_枠細線
  6
CONTINUOUS
 62
    5
 10
1073.4764130630547
 20
186.58280415605589
 11
1373.4764130630549
 21
186.58280415605589
  0
TEXT
  8
_0-7_枠細線
 62
    5
 10
1220.4764130630556
 20
191.58280415605603
 40
15
 41
0.5999999999999999
 50
0
  1
ブラック
  0
TEXT
  8
_0-7_枠細線
 62
    5
 10
1078.2264130630551
 20
191.58280415605603
 40
15
 41
0.5666666666666667
 50
0
  1
ＧＲＳＪ－２５Ｗ２０１－Ｋ
  0
LINE
  8
_0-7_枠細線
  6
CONTINUOUS
 62
    5
 10
1193.4764130630551
 20
436.58280415605617
 11
1193.4764130630551
 21
186.58280415605583
  0
LINE
  8
_0-7_枠細線
  6
CONTINUOUS
 62
    5
 10
1283.4764130630547
 20
436.58280415605617
 11
1283.4764130630547
 21
186.58280415605583
  0
LINE
  8
_0-7_枠細線
  6
CONTINUOUS
 62
    5
 10
1373.4764130630549
 20
436.58280415605617
 11
1373.4764130630549
 21
186.58280415605603
  0
LINE
  8
_0-7_枠細線
  6
CONTINUOUS
 62
    5
 10
1073.4764130630547
 20
436.58280415605617
 11
1073.4764130630547
 21
186.58280415605583
  0
TEXT
  8
_0-7_枠細線
 62
    5
 10
1078.2264130630549
 20
216.58280415605631
 40
15
 41
0.5666666666666667
 50
0
  1
ＧＲＳＪ－２５Ｗ２０１－Ｃ
  0
TEXT
  8
_0-7_枠細線
 62
    5
 10
1220.4764130630551
 20
216.58280415605631
 40
15
 41
0.5999999999999999
 50
0
  1
ブラウン
  0
LINE
  8
_0-7_枠細線
  6
CONTINUOUS
 62
    5
 10
1067.3640166614723
 20
216.73623777788603
 11
1059.8640166614723
 21
231.73623777788603
  0
LINE
  8
_0-7_枠細線
  6
CONTINUOUS
 62
    5
 10
1052.3640166614723
 20
216.73623777788603
 11
1067.3640166614723
 21
216.73623777788603
  0
LINE
  8
_0-7_枠細線
  6
CONTINUOUS
 62
    5
 10
1059.8640166614723
 20
231.73623777788603
 11
1052.3640166614723
 21
216.73623777788603
  0
TEXT
  8
_0-7_枠細線
 62
    5
 10
1054.7291679296204
 20
215.78741781303609
 40
12.5
 41
0.8
 50
0
  1
３
  0
LINE
  8
_0-7_枠細線
  6
CONTINUOUS
 62
    5
 10
785.16995454985135
 20
356.80454176804568
 11
785.16995454985135
 21
436.80454176804568
  0
TEXT
  8
_0-7_枠細線
 62
    5
 10
807.66995454985135
 20
414.30454176804568
 40
15
 41
1
 50
0
  1
耐荷重
  0
TEXT
  8
_0-7_枠細線
 62
    5
 10
800.16995454985135
 20
384.30454176804568
 40
15
 41
1
 50
0
  1
3.5kN/㎡
  0
TEXT
  8
_0-7_枠細線
 62
    5
 10
792.66995454985135
 20
364.30454176804568
 40
15
 41
1
 50
0
  1
（歩道用）
  0
LINE
  8
_0-7_枠細線
  6
CONTINUOUS
 62
    5
 10
875.16995454985135
 20
356.80454176804568
 11
875.16995454985135
 21
436.80454176804568
  0
TEXT
  8
_0-7_枠細線
 62
    5
 10
897.66995454985135
 20
414.30454176804568
 40
15
 41
1
 50
0
  1
蓋重量
  0
LINE
  8
_0-7_枠細線
  6
CONTINUOUS
 62
    5
 10
965.16995454985135
 20
356.80454176804568
 11
965.16995454985135
 21
436.80454176804568
  0
TEXT
  8
_0-7_枠細線
 62
    5
 10
987.66995454985135
 20
414.30454176804568
 40
15
 41
1
 50
0
  1
枠重量
  0
LINE
  8
_0-7_枠細線
  6
CONTINUOUS
 62
    5
 10
785.16995454985135
 20
406.80454176804568
 11
1055.1699545498514
 21
406.80454176804568
  0
LINE
  8
_0-7_枠細線
  6
CONTINUOUS
 62
    5
 10
785.16995454985135
 20
436.80454176804568
 11
1055.1699545498514
 21
436.80454176804568
  0
LINE
  8
_0-7_枠細線
  6
CONTINUOUS
 62
    5
 10
785.16995454985135
 20
356.80454176804568
 11
1055.1699545498514
 21
356.80454176804568
  0
LINE
  8
_0-7_枠細線
  6
CONTINUOUS
 62
    5
 10
1055.1699545498514
 20
356.80454176804568
 11
1055.1699545498514
 21
436.80454176804568
  0
LINE
  8
_0-7_枠細線
  6
CONTINUOUS
 62
    5
 10
1425
 20
942.5
 11
890
 21
942.5
  0
TEXT
  8
_0-7_枠細線
 62
    5
 10
895
 20
945
 40
12.5
 41
1
 50
0
  1
記号
  0
TEXT
  8
_0-7_枠細線
 62
    5
 10
996.875
 20
945
 40
12.5
 41
1
 50
0
  1
訂　 正　 記　 事
  0
TEXT
  8
_0-7_枠細線
 62
    5
 10
1181.25
 20
945
 40
12.5
 41
1
 50
0
  1
訂 正 年 月 日
  0
TEXT
  8
_0-7_枠細線
 62
    5
 10
1306.25
 20
945
 40
12.5
 41
1
 50
0
  1
備　　　　　考
  0
LINE
  8
_0-7_枠細線
  6
CONTINUOUS
 62
    5
 10
1425
 20
925
 11
890
 21
925
  0
TEXT
  8
_0-7_枠細線
 62
    5
 10
938.85037037037023
 20
927.5
 40
12.5
 41
1
 50
0
  1
品番・色記号変更
  0
TEXT
  8
_0-7_枠細線
 62
    5
 10
1180
 20
927.5
 40
12.5
 41
0.7199999999999999
 50
0
  1
２０１３．０３．１３
  0
LINE
  8
_0-7_枠細線
  6
CONTINUOUS
 62
    5
 10
915
 20
908.75
 11
907.5
 21
923.75
  0
LINE
  8
_0-7_枠細線
  6
CONTINUOUS
 62
    5
 10
900
 20
908.75
 11
915
 21
908.75
  0
LINE
  8
_0-7_枠細線
  6
CONTINUOUS
 62
    5
 10
907.5
 20
923.75
 11
900
 21
908.75
  0
TEXT
  8
_0-7_枠細線
 62
    5
 10
902.36515126814822
 20
908.44299775461946
 40
12.5
 41
0.8
 50
0
  1
１
  0
LINE
  8
_0-7_枠細線
  6
CONTINUOUS
 62
    5
 10
1424.9999999999998
 20
907.5
 11
890
 21
907.5
  0
TEXT
  8
_0-7_枠細線
 62
    5
 10
938.85037037037011
 20
910
 40
12.500000000000002
 41
1
 50
0
  1
取外具形状変更
  0
TEXT
  8
_0-7_枠細線
 62
    5
 10
1180
 20
910
 40
12.500000000000002
 41
0.7199999999999998
 50
0
  1
２０１５．１１．２０
  0
LINE
  8
_0-7_枠細線
  6
CONTINUOUS
 62
    5
 10
1425
 20
890
 11
890
 21
890
  0
TEXT
  8
_0-7_枠細線
 62
    5
 10
1180
 20
892.5
 40
12.5
 41
0.7199999999999999
 50
0
  1
２０１７．０４．０１
  0
LINE
  8
_0-7_枠細線
  6
CONTINUOUS
 62
    5
 10
915
 20
873.94233397174685
 11
907.5
 21
888.94233397174685
  0
LINE
  8
_0-7_枠細線
  6
CONTINUOUS
 62
    5
 10
900
 20
873.94233397174685
 11
915
 21
873.94233397174685
  0
LINE
  8
_0-7_枠細線
  6
CONTINUOUS
 62
    5
 10
907.5
 20
888.94233397174685
 11
900
 21
873.94233397174685
  0
TEXT
  8
_0-7_枠細線
 62
    5
 10
1180
 20
875
 40
12.5
 41
0.7199999999999999
 50
0
  1
２０１７．０４．０１
  0
TEXT
  8
_0-7_枠細線
 62
    5
 10
938.85037037037023
 20
875
 40
12.5
 41
1
 50
0
  1
ブラウン色（Ｃ）追加
  0
LINE
  8
_0-7_枠細線
  6
CONTINUOUS
 62
    5
 10
1425
 20
872.5
 11
890
 21
872.5
  0
LINE
  8
_0-7_枠細線
  6
CONTINUOUS
 62
    5
 10
907.5
 20
906.44233397174685
 11
900
 21
891.44233397174685
  0
LINE
  8
_0-7_枠細線
  6
CONTINUOUS
 62
    5
 10
900
 20
891.44233397174685
 11
915
 21
891.44233397174685
  0
LINE
  8
_0-7_枠細線
  6
CONTINUOUS
 62
    5
 10
915
 20
891.44233397174685
 11
907.5
 21
906.44233397174685
  0
TEXT
  8
_0-7_枠細線
 62
    5
 10
938.85037037037023
 20
892.5
 40
12.5
 41
1
 50
0
  1
取外具形状変更
  0
TEXT
  8
_0-7_枠細線
 62
    5
 10
902.48549209054841
 20
890.89465008156549
 40
12.5
 41
0.8
 50
0
  1
２
  0
TEXT
  8
_0-7_枠細線
 62
    5
 10
902.36515126814811
 20
872.99351400689704
 40
12.5
 41
0.8
 50
0
  1
３
  0
LINE
  8
_0-7_枠細線
  6
CONTINUOUS
 62
    5
 10
915
 20
856.44233397174685
 11
907.5
 21
871.44233397174685
  0
LINE
  8
_0-7_枠細線
  6
CONTINUOUS
 62
    5
 10
900
 20
856.44233397174685
 11
915
 21
856.44233397174685
  0
LINE
  8
_0-7_枠細線
  6
CONTINUOUS
 62
    5
 10
907.5
 20
871.44233397174685
 11
900
 21
856.44233397174685
  0
LINE
  8
_0-7_枠細線
  6
CONTINUOUS
 62
    5
 10
1425
 20
855
 11
890
 21
855
  0
TEXT
  8
_0-7_枠細線
 62
    5
 10
1180
 20
857.5
 40
12.5
 41
0.7199999999999999
 50
0
  1
２０１９．０９．０１
  0
TEXT
  8
_0-7_枠細線
 62
    5
 10
902.36515126814822
 20
855.49351400689704
 40
12.5
 41
0.8
 50
0
  1
４
  0
LINE
  8
_0-9_枠極太
  6
CONTINUOUS
 62
    5
 10
60
 20
60
 11
60
 21
960
  0
LINE
  8
_0-9_枠極太
  6
CONTINUOUS
 62
    5
 10
60
 20
960
 11
1425
 21
960
  0
LINE
  8
_0-9_枠極太
  6
CONTINUOUS
 62
    5
 10
1425
 20
960
 11
1425
 21
60
  0
LINE
  8
_0-9_枠極太
  6
CONTINUOUS
 62
    5
 10
1425
 20
60
 11
60
 21
60
  0
TEXT
  8
_0-7_枠細線
 62
    5
 10
938.85037037037023
 20
857.5
 40
12.5
 41
1
 50
0
  1
アンカー材質･厚み変更
  0
LINE
  8
_0-7_枠細線
  6
CONTINUOUS
 62
    5
 10
1425
 20
837.5
 11
890
 21
837.5
  0
TEXT
  8
_0-7_枠細線
 62
    5
 10
938.85037037037023
 20
840
 40
12.5
 41
1
 50
0
  1
取外具形状変更
  0
LINE
  8
_0-7_枠細線
  6
CONTINUOUS
 62
    5
 10
907.5
 20
853.94233397174685
 11
900
 21
838.94233397174685
  0
LINE
  8
_0-7_枠細線
  6
CONTINUOUS
 62
    5
 10
900
 20
838.94233397174685
 11
915
 21
838.94233397174685
  0
LINE
  8
_0-7_枠細線
  6
CONTINUOUS
 62
    5
 10
915
 20
838.94233397174685
 11
907.5
 21
853.94233397174685
  0
TEXT
  8
_0-7_枠細線
 62
    5
 10
1180
 20
840
 40
12.5
 41
0.7199999999999999
 50
0
  1
２０２１．０５．０６
  0
TEXT
  8
_0-7_枠細線
 62
    5
 10
902.36515126814822
 20
838.63533172636664
 40
12.5
 41
0.8
 50
0
  1
５
  0
LINE
  8
_0-0_計極細
  6
CENTER2
 62
    2
 10
214.27468171297483
 20
610.4935731132091
 11
1245.2080150463521
 21
610.4935731132091
  0
ARC
  8
_0-0_計極細
  6
CONTINUOUS
 62
    2
 10
217.10950240667827
 20
707.99357311320819
 40
11.295514677412786
 50
138.39585046827571
 51
221.60414953172395
  0
ARC
  8
_0-0_計極細
  6
CONTINUOUS
 62
    2
 10
200.21706009330799
 20
692.99357311320693
 40
11.295514677412786
 50
318.39585046827381
 51
41.604149531723962
  0
ARC
  8
_0-0_計極細
  6
CONTINUOUS
 62
    2
 10
217.10950240667827
 20
527.99357311320819
 40
11.295514677412786
 50
138.39585046827571
 51
221.60414953172395
  0
ARC
  8
_0-0_計極細
  6
CONTINUOUS
 62
    2
 10
200.21706009330799
 20
512.99357311320682
 40
11.295514677412786
 50
318.39585046827534
 51
41.604149531723962
  0
LINE
  8
_0-1_計細線
  6
CONTINUOUS
 62
    3
 10
208.66328124999228
 20
715.49357311320819
 11
1250.6632812499938
 21
715.49357311320819
  0
LINE
  8
_0-1_計細線
  6
CONTINUOUS
 62
    3
 10
1250.6632812499938
 20
505.49357311320961
 11
208.66328124999271
 21
505.49357311320961
  0
ARC
  8
_0-0_計極細
  6
CONTINUOUS
 62
    2
 10
1259.1095024066794
 20
707.99357311320819
 40
11.295514677412786
 50
138.39585046827494
 51
221.60414953172469
  0
ARC
  8
_0-0_計極細
  6
CONTINUOUS
 62
    2
 10
1242.2170600933089
 20
692.99357311320693
 40
11.295514677412786
 50
318.39585046827455
 51
41.604149531724723
  0
ARC
  8
_0-0_計極細
  6
CONTINUOUS
 62
    2
 10
1259.1095024066794
 20
527.99357311320819
 40
11.295514677412786
 50
138.39585046827494
 51
221.60414953172469
  0
ARC
  8
_0-0_計極細
  6
CONTINUOUS
 62
    2
 10
1242.2170600933089
 20
512.99357311320682
 40
11.295514677412786
 50
318.39585046827455
 51
41.604149531724723
  0
LINE
  8
_0-1_計細線
  6
CONTINUOUS
 62
    3
 10
206.74906555162011
 20
712.49357311320819
 11
1248.7490655516212
 21
712.49357311320819
  0
LINE
  8
_0-1_計細線
  6
CONTINUOUS
 62
    3
 10
1252.5774969483684
 20
508.49357311320955
 11
210.57749694836843
 21
508.49357311320955
  0
LINE
  8
_0-5_寸法線
  6
CONTINUOUS
 62
    7
 10
198.66328124999228
 20
715.49357311320819
 11
153.66328124999725
 21
715.49357311320819
  0
LINE
  8
_0-5_寸法線
  6
CONTINUOUS
 62
    7
 10
158.66328124999725
 20
715.49357311320819
 11
161.25147170102238
 21
705.83431485031747
  0
LINE
  8
_0-5_寸法線
  6
CONTINUOUS
 62
    7
 10
158.66328124999725
 20
715.49357311320819
 11
156.07509079897198
 21
705.83431485031747
  0
LINE
  8
_0-5_寸法線
  6
CONTINUOUS
 62
    7
 10
198.66328124999498
 20
685.49357311320819
 11
153.66328124999768
 21
685.49357311320819
  0
LINE
  8
_0-5_寸法線
  6
CONTINUOUS
 62
    7
 10
158.66328124999768
 20
685.49357311320819
 11
156.0750907989725
 21
695.15283137609902
  0
LINE
  8
_0-5_寸法線
  6
CONTINUOUS
 62
    7
 10
158.66328124999768
 20
685.49357311320819
 11
161.25147170102287
 21
695.15283137609902
  0
LINE
  8
_0-5_寸法線
  6
CONTINUOUS
 62
    7
 10
158.66328124999725
 20
715.49357311320819
 11
158.66328124999768
 21
685.49357311320819
  0
TEXT
  8
_0-5_寸法線
 62
    7
 10
158.66328124999725
 20
692.99357311320819
 40
15
 41
1
 50
90
  1
30
  0
LINE
  8
_0-5_寸法線
  6
CONTINUOUS
 62
    7
 10
158.66328124999768
 20
685.49357311320819
 11
161.25147170102287
 21
675.83431485031747
  0
LINE
  8
_0-5_寸法線
  6
CONTINUOUS
 62
    7
 10
158.66328124999768
 20
685.49357311320819
 11
156.0750907989725
 21
675.83431485031747
  0
LINE
  8
_0-5_寸法線
  6
CONTINUOUS
 62
    7
 10
198.66328124999271
 20
535.49357311320864
 11
153.66328124999768
 21
535.49357311320864
  0
LINE
  8
_0-5_寸法線
  6
CONTINUOUS
 62
    7
 10
158.66328124999768
 20
535.49357311320864
 11
156.0750907989725
 21
545.15283137609936
  0
LINE
  8
_0-5_寸法線
  6
CONTINUOUS
 62
    7
 10
158.66328124999768
 20
535.49357311320864
 11
161.25147170102287
 21
545.15283137609936
  0
LINE
  8
_0-5_寸法線
  6
CONTINUOUS
 62
    7
 10
158.66328124999768
 20
685.49357311320819
 11
158.66328124999768
 21
535.49357311320864
  0
TEXT
  8
_0-5_寸法線
 62
    7
 10
158.66328124999768
 20
599.24357311320864
 40
15
 41
1
 50
90
  1
150
  0
LINE
  8
_0-5_寸法線
  6
CONTINUOUS
 62
    7
 10
158.66328124999768
 20
535.49357311320864
 11
161.25147170102287
 21
525.83431485031792
  0
LINE
  8
_0-5_寸法線
  6
CONTINUOUS
 62
    7
 10
158.66328124999768
 20
535.49357311320864
 11
156.0750907989725
 21
525.83431485031792
  0
LINE
  8
_0-5_寸法線
  6
CONTINUOUS
 62
    7
 10
198.66328124999768
 20
505.49357311321148
 11
153.66328124999768
 21
505.49357311321137
  0
LINE
  8
_0-5_寸法線
  6
CONTINUOUS
 62
    7
 10
158.66328124999768
 20
505.49357311321137
 11
156.0750907989725
 21
515.15283137610209
  0
LINE
  8
_0-5_寸法線
  6
CONTINUOUS
 62
    7
 10
158.66328124999768
 20
505.49357311321137
 11
161.25147170102287
 21
515.15283137610209
  0
LINE
  8
_0-5_寸法線
  6
CONTINUOUS
 62
    7
 10
158.66328124999768
 20
535.49357311320864
 11
158.66328124999768
 21
505.49357311321137
  0
TEXT
  8
_0-5_寸法線
 62
    7
 10
158.66328124999768
 20
512.99357311321
 40
15
 41
1
 50
90
  1
30
  0
LINE
  8
_0-5_寸法線
  6
CONTINUOUS
 62
    7
 10
1260.6632812499938
 20
715.49357311320819
 11
1340.6632812499927
 21
715.49357311320819
  0
LINE
  8
_0-5_寸法線
  6
CONTINUOUS
 62
    7
 10
1335.6632812499927
 20
715.49357311320819
 11
1338.2514717010179
 21
705.83431485031747
  0
LINE
  8
_0-5_寸法線
  6
CONTINUOUS
 62
    7
 10
1335.6632812499927
 20
715.49357311320819
 11
1333.0750907989677
 21
705.83431485031747
  0
LINE
  8
_0-5_寸法線
  6
CONTINUOUS
 62
    7
 10
1260.6632812499929
 20
505.49357311320506
 11
1340.6632812499929
 21
505.49357311320506
  0
LINE
  8
_0-5_寸法線
  6
CONTINUOUS
 62
    7
 10
1335.6632812499929
 20
505.49357311320506
 11
1333.0750907989679
 21
515.15283137609572
  0
LINE
  8
_0-5_寸法線
  6
CONTINUOUS
 62
    7
 10
1335.6632812499929
 20
505.49357311320506
 11
1338.2514717010181
 21
515.15283137609572
  0
LINE
  8
_0-5_寸法線
  6
CONTINUOUS
 62
    7
 10
1335.6632812499927
 20
715.49357311320819
 11
1335.6632812499929
 21
505.49357311320506
  0
TEXT
  8
_0-5_寸法線
 62
    7
 10
1335.6632812499929
 20
599.24357311320682
 40
15
 41
1
 50
90
  1
210
  0
LINE
  8
_0-1_計細線
  6
CONTINUOUS
 62
    3
 10
1229.163281249994
 20
535.49357311320955
 11
1250.6632812499938
 21
535.49357311320955
  0
LINE
  8
_0-1_計細線
  6
CONTINUOUS
 62
    3
 10
1229.163281249994
 20
685.49357311320819
 11
1250.6632812499938
 21
685.49357311320819
  0
LINE
  8
_0-5_寸法線
  6
CONTINUOUS
 62
    7
 10
230.16328124999404
 20
725.49357311320728
 11
230.16328124999404
 21
805.49357311320728
  0
LINE
  8
_0-5_寸法線
  6
CONTINUOUS
 62
    7
 10
230.16328124999404
 20
800.49357311320728
 11
237.40772494716211
 21
802.43471595147628
  0
LINE
  8
_0-5_寸法線
  6
CONTINUOUS
 62
    7
 10
230.16328124999404
 20
800.49357311320728
 11
237.40772494716211
 21
798.55243027493839
  0
LINE
  8
_0-5_寸法線
  6
CONTINUOUS
 62
    7
 10
1229.163281249994
 20
725.49357311320728
 11
1229.163281249994
 21
805.49357311320728
  0
LINE
  8
_0-5_寸法線
  6
CONTINUOUS
 62
    7
 10
1229.163281249994
 20
800.49357311320728
 11
1221.9188375528261
 21
798.55243027493839
  0
LINE
  8
_0-5_寸法線
  6
CONTINUOUS
 62
    7
 10
1229.163281249994
 20
800.49357311320728
 11
1221.9188375528261
 21
802.43471595147628
  0
LINE
  8
_0-5_寸法線
  6
CONTINUOUS
 62
    7
 10
230.16328124999404
 20
800.49357311320728
 11
1229.163281249994
 21
800.49357311320728
  0
TEXT
  8
_0-5_寸法線
 62
    7
 10
718.41328124999404
 20
800.49357311320728
 40
15
 41
1
 50
0
  1
999
  0
LINE
  8
_0-1_計細線
  6
CONTINUOUS
 62
    3
 10
1229.163281249994
 20
685.49357311320819
 11
1250.6632812499938
 21
685.49357311320819
  0
LINE
  8
_0-1_計細線
  6
CONTINUOUS
 62
    3
 10
1229.1632812499945
 20
509.99357311320955
 11
1229.1632812499936
 21
710.99357311320819
  0
LINE
  8
_0-1_計細線
  6
CONTINUOUS
 62
    3
 10
1217.763281249994
 20
509.99357311320955
 11
1217.763281249993
 21
710.99357311320819
  0
LINE
  8
_0-1_計細線
  6
CONTINUOUS
 62
    3
 10
1229.1632812499945
 20
509.99357311320955
 11
1217.763281249994
 21
509.99357311320955
  0
LINE
  8
_0-1_計細線
  6
CONTINUOUS
 62
    3
 10
1229.1632812499936
 20
710.99357311320819
 11
1217.763281249993
 21
710.99357311320819
  0
LINE
  8
_0-0_計極細
  6
CONTINUOUS
 62
    2
 10
1220.9632812499942
 20
509.99357311320955
 11
1220.9632812499933
 21
710.99357311320819
  0
LINE
  8
_0-0_計極細
  6
CONTINUOUS
 62
    2
 10
1225.9632812499942
 20
509.99357311320955
 11
1225.9632812499933
 21
710.99357311320819
  0
LINE
  8
_0-1_計細線
  6
CONTINUOUS
 62
    3
 10
1195.1632812499936
 20
509.99357311320955
 11
1195.1632812499927
 21
710.99357311320819
  0
LINE
  8
_0-1_計細線
  6
CONTINUOUS
 62
    3
 10
1183.763281249993
 20
509.99357311320978
 11
1183.7632812499921
 21
710.99357311320841
  0
LINE
  8
_0-1_計細線
  6
CONTINUOUS
 62
    3
 10
1195.1632812499936
 20
509.99357311320955
 11
1183.763281249993
 21
509.99357311320978
  0
LINE
  8
_0-1_計細線
  6
CONTINUOUS
 62
    3
 10
1195.1632812499927
 20
710.99357311320819
 11
1183.7632812499921
 21
710.99357311320841
  0
LINE
  8
_0-0_計極細
  6
CONTINUOUS
 62
    2
 10
1186.9632812499938
 20
509.99357311320978
 11
1186.9632812499931
 21
710.99357311320841
  0
LINE
  8
_0-0_計極細
  6
CONTINUOUS
 62
    2
 10
1191.9632812499938
 20
509.99357311320955
 11
1191.9632812499931
 21
710.99357311320841
  0
LINE
  8
_0-1_計細線
  6
CONTINUOUS
 62
    3
 10
1178.1632812499931
 20
509.99357311320978
 11
1178.163281249992
 21
710.99357311320841
  0
LINE
  8
_0-1_計細線
  6
CONTINUOUS
 62
    3
 10
1166.7632812499926
 20
509.99357311320978
 11
1166.7632812499915
 21
710.99357311320841
  0
LINE
  8
_0-1_計細線
  6
CONTINUOUS
 62
    3
 10
1178.1632812499931
 20
509.99357311320978
 11
1166.7632812499926
 21
509.99357311320978
  0
LINE
  8
_0-1_計細線
  6
CONTINUOUS
 62
    3
 10
1178.163281249992
 20
710.99357311320841
 11
1166.7632812499915
 21
710.99357311320841
  0
LINE
  8
_0-0_計極細
  6
CONTINUOUS
 62
    2
 10
1169.9632812499929
 20
509.99357311320978
 11
1169.9632812499917
 21
710.99357311320841
  0
LINE
  8
_0-0_計極細
  6
CONTINUOUS
 62
    2
 10
1174.9632812499929
 20
509.99357311320978
 11
1174.9632812499917
 21
710.99357311320841
  0
LINE
  8
_0-1_計細線
  6
CONTINUOUS
 62
    3
 10
1115.7632812499953
 20
509.99357311320978
 11
1115.7632812499944
 21
710.99357311320819
  0
LINE
  8
_0-1_計細線
  6
CONTINUOUS
 62
    3
 10
1127.1632812499959
 20
509.99357311320955
 11
1127.1632812499952
 21
710.99357311320841
  0
LINE
  8
_0-1_計細線
  6
CONTINUOUS
 62
    3
 10
1115.7632812499953
 20
509.99357311320978
 11
1127.1632812499959
 21
509.99357311320955
  0
LINE
  8
_0-1_計細線
  6
CONTINUOUS
 62
    3
 10
1115.7632812499944
 20
710.99357311320819
 11
1127.1632812499952
 21
710.99357311320841
  0
LINE
  8
_0-0_計極細
  6
CONTINUOUS
 62
    2
 10
1123.9632812499951
 20
509.99357311320955
 11
1123.9632812499942
 21
710.99357311320819
  0
LINE
  8
_0-0_計極細
  6
CONTINUOUS
 62
    2
 10
1118.9632812499951
 20
509.99357311320978
 11
1118.9632812499942
 21
710.99357311320819
  0
LINE
  8
_0-1_計細線
  6
CONTINUOUS
 62
    3
 10
1098.7632812499944
 20
509.99357311320978
 11
1098.7632812499933
 21
710.99357311320819
  0
LINE
  8
_0-1_計細線
  6
CONTINUOUS
 62
    3
 10
1110.163281249995
 20
509.99357311320978
 11
1110.1632812499938
 21
710.99357311320819
  0
LINE
  8
_0-1_計細線
  6
CONTINUOUS
 62
    3
 10
1098.7632812499944
 20
509.99357311320978
 11
1110.163281249995
 21
509.99357311320978
  0
LINE
  8
_0-1_計細線
  6
CONTINUOUS
 62
    3
 10
1098.7632812499933
 20
710.99357311320819
 11
1110.1632812499938
 21
710.99357311320819
  0
LINE
  8
_0-0_計極細
  6
CONTINUOUS
 62
    2
 10
1106.9632812499947
 20
509.99357311320978
 11
1106.9632812499935
 21
710.99357311320819
  0
LINE
  8
_0-0_計極細
  6
CONTINUOUS
 62
    2
 10
1101.9632812499947
 20
509.99357311320978
 11
1101.9632812499935
 21
710.99357311320819
  0
LINE
  8
_0-1_計細線
  6
CONTINUOUS
 62
    3
 10
1081.7632812499944
 20
509.99357311320978
 11
1081.7632812499935
 21
710.99357311320819
  0
LINE
  8
_0-1_計細線
  6
CONTINUOUS
 62
    3
 10
1093.163281249995
 20
509.99357311320978
 11
1093.1632812499943
 21
710.99357311320819
  0
LINE
  8
_0-1_計細線
  6
CONTINUOUS
 62
    3
 10
1081.7632812499944
 20
509.99357311320978
 11
1093.163281249995
 21
509.99357311320978
  0
LINE
  8
_0-1_計細線
  6
CONTINUOUS
 62
    3
 10
1081.7632812499935
 20
710.99357311320819
 11
1093.1632812499943
 21
710.99357311320819
  0
LINE
  8
_0-0_計極細
  6
CONTINUOUS
 62
    2
 10
1089.9632812499949
 20
509.99357311320978
 11
1089.9632812499938
 21
710.99357311320819
  0
LINE
  8
_0-0_計極細
  6
CONTINUOUS
 62
    2
 10
1084.9632812499949
 20
509.99357311320978
 11
1084.9632812499938
 21
710.99357311320819
  0
LINE
  8
_0-1_計細線
  6
CONTINUOUS
 62
    3
 10
1076.1632812499954
 20
509.99357311320955
 11
1076.1632812499943
 21
710.99357311320819
  0
LINE
  8
_0-1_計細線
  6
CONTINUOUS
 62
    3
 10
1064.7632812499951
 20
509.99357311320955
 11
1064.7632812499937
 21
710.99357311320819
  0
LINE
  8
_0-1_計細線
  6
CONTINUOUS
 62
    3
 10
1076.1632812499954
 20
509.99357311320955
 11
1064.7632812499951
 21
509.99357311320955
  0
LINE
  8
_0-1_計細線
  6
CONTINUOUS
 62
    3
 10
1076.1632812499943
 20
710.99357311320819
 11
1064.7632812499937
 21
710.99357311320819
  0
LINE
  8
_0-0_計極細
  6
CONTINUOUS
 62
    2
 10
1067.9632812499951
 20
509.99357311320955
 11
1067.963281249994
 21
710.99357311320819
  0
LINE
  8
_0-0_計極細
  6
CONTINUOUS
 62
    2
 10
1072.9632812499951
 20
509.99357311320955
 11
1072.963281249994
 21
710.99357311320819
  0
LINE
  8
_0-1_計細線
  6
CONTINUOUS
 62
    3
 10
1212.1632812499959
 20
509.99357311320955
 11
1212.1632812499947
 21
710.99357311320819
  0
LINE
  8
_0-1_計細線
  6
CONTINUOUS
 62
    3
 10
1200.7632812499953
 20
509.99357311320978
 11
1200.7632812499942
 21
710.99357311320841
  0
LINE
  8
_0-1_計細線
  6
CONTINUOUS
 62
    3
 10
1212.1632812499959
 20
509.99357311320955
 11
1200.7632812499953
 21
509.99357311320978
  0
LINE
  8
_0-1_計細線
  6
CONTINUOUS
 62
    3
 10
1212.1632812499947
 20
710.99357311320819
 11
1200.7632812499942
 21
710.99357311320841
  0
LINE
  8
_0-0_計極細
  6
CONTINUOUS
 62
    2
 10
1203.963281249996
 20
509.99357311320978
 11
1203.9632812499949
 21
710.99357311320841
  0
LINE
  8
_0-0_計極細
  6
CONTINUOUS
 62
    2
 10
1208.963281249996
 20
509.99357311320955
 11
1208.9632812499949
 21
710.99357311320841
  0
LINE
  8
_0-1_計細線
  6
CONTINUOUS
 62
    3
 10
1059.1632812499956
 20
509.99357311320955
 11
1059.1632812499945
 21
710.99357311320819
  0
LINE
  8
_0-1_計細線
  6
CONTINUOUS
 62
    3
 10
1047.7632812499949
 20
509.99357311320955
 11
1047.763281249994
 21
710.99357311320819
  0
LINE
  8
_0-1_計細線
  6
CONTINUOUS
 62
    3
 10
1059.1632812499956
 20
509.99357311320955
 11
1047.7632812499949
 21
509.99357311320955
  0
LINE
  8
_0-1_計細線
  6
CONTINUOUS
 62
    3
 10
1059.1632812499945
 20
710.99357311320819
 11
1047.763281249994
 21
710.99357311320819
  0
LINE
  8
_0-0_計極細
  6
CONTINUOUS
 62
    2
 10
1050.9632812499951
 20
509.99357311320955
 11
1050.9632812499942
 21
710.99357311320819
  0
LINE
  8
_0-0_計極細
  6
CONTINUOUS
 62
    2
 10
1055.9632812499951
 20
509.99357311320955
 11
1055.9632812499942
 21
710.99357311320819
  0
LINE
  8
_0-1_計細線
  6
CONTINUOUS
 62
    3
 10
1042.1632812499954
 20
509.99357311320955
 11
1042.1632812499945
 21
710.99357311320819
  0
LINE
  8
_0-1_計細線
  6
CONTINUOUS
 62
    3
 10
1030.7632812499949
 20
509.99357311320955
 11
1030.7632812499942
 21
710.99357311320819
  0
LINE
  8
_0-1_計細線
  6
CONTINUOUS
 62
    3
 10
1042.1632812499954
 20
509.99357311320955
 11
1030.7632812499949
 21
509.99357311320955
  0
LINE
  8
_0-1_計細線
  6
CONTINUOUS
 62
    3
 10
1042.1632812499945
 20
710.99357311320819
 11
1030.7632812499942
 21
710.99357311320819
  0
LINE
  8
_0-0_計極細
  6
CONTINUOUS
 62
    2
 10
1033.9632812499951
 20
509.99357311320955
 11
1033.9632812499942
 21
710.99357311320819
  0
LINE
  8
_0-0_計極細
  6
CONTINUOUS
 62
    2
 10
1038.9632812499951
 20
509.99357311320955
 11
1038.9632812499942
 21
710.99357311320819
  0
LINE
  8
_0-1_計細線
  6
CONTINUOUS
 62
    3
 10
1025.1632812499954
 20
509.99357311320955
 11
1025.1632812499947
 21
710.99357311320819
  0
LINE
  8
_0-1_計細線
  6
CONTINUOUS
 62
    3
 10
1013.7632812499951
 20
509.99357311320955
 11
1013.7632812499941
 21
710.99357311320819
  0
LINE
  8
_0-1_計細線
  6
CONTINUOUS
 62
    3
 10
1025.1632812499954
 20
509.99357311320955
 11
1013.7632812499951
 21
509.99357311320955
  0
LINE
  8
_0-1_計細線
  6
CONTINUOUS
 62
    3
 10
1025.1632812499947
 20
710.99357311320819
 11
1013.7632812499941
 21
710.99357311320819
  0
LINE
  8
_0-0_計極細
  6
CONTINUOUS
 62
    2
 10
1016.9632812499952
 20
509.99357311320955
 11
1016.9632812499942
 21
710.99357311320819
  0
LINE
  8
_0-0_計極細
  6
CONTINUOUS
 62
    2
 10
1021.9632812499952
 20
509.99357311320955
 11
1021.9632812499942
 21
710.99357311320819
  0
LINE
  8
_0-1_計細線
  6
CONTINUOUS
 62
    3
 10
1008.1632812499956
 20
509.99357311320955
 11
1008.1632812499946
 21
710.99357311320819
  0
LINE
  8
_0-1_計細線
  6
CONTINUOUS
 62
    3
 10
996.76328124999498
 20
509.99357311320955
 11
996.76328124999395
 21
710.99357311320819
  0
LINE
  8
_0-1_計細線
  6
CONTINUOUS
 62
    3
 10
1008.1632812499956
 20
509.99357311320955
 11
996.76328124999498
 21
509.99357311320955
  0
LINE
  8
_0-1_計細線
  6
CONTINUOUS
 62
    3
 10
1008.1632812499946
 20
710.99357311320819
 11
996.76328124999395
 21
710.99357311320819
  0
LINE
  8
_0-0_計極細
  6
CONTINUOUS
 62
    2
 10
999.96328124999536
 20
509.99357311320955
 11
999.96328124999422
 21
710.99357311320819
  0
LINE
  8
_0-0_計極細
  6
CONTINUOUS
 62
    2
 10
1004.9632812499954
 20
509.99357311320955
 11
1004.9632812499942
 21
710.99357311320819
  0
LINE
  8
_0-1_計細線
  6
CONTINUOUS
 62
    3
 10
991.16328124999552
 20
509.99357311320955
 11
991.1632812499945
 21
710.99357311320819
  0
LINE
  8
_0-1_計細線
  6
CONTINUOUS
 62
    3
 10
979.76328124999498
 20
509.99357311320955
 11
979.76328124999395
 21
710.99357311320819
  0
LINE
  8
_0-1_計細線
  6
CONTINUOUS
 62
    3
 10
991.16328124999552
 20
509.99357311320955
 11
979.76328124999498
 21
509.99357311320955
  0
LINE
  8
_0-1_計細線
  6
CONTINUOUS
 62
    3
 10
991.1632812499945
 20
710.99357311320819
 11
979.76328124999395
 21
710.99357311320819
  0
LINE
  8
_0-0_計極細
  6
CONTINUOUS
 62
    2
 10
982.96328124999536
 20
509.99357311320955
 11
982.96328124999434
 21
710.99357311320819
  0
LINE
  8
_0-0_計極細
  6
CONTINUOUS
 62
    2
 10
987.96328124999536
 20
509.99357311320955
 11
987.96328124999434
 21
710.99357311320819
  0
LINE
  8
_0-1_計細線
  6
CONTINUOUS
 62
    3
 10
974.16328124999552
 20
509.99357311320955
 11
974.1632812499945
 21
710.99357311320819
  0
LINE
  8
_0-1_計細線
  6
CONTINUOUS
 62
    3
 10
962.76328124999509
 20
509.99357311320955
 11
962.76328124999395
 21
710.99357311320819
  0
LINE
  8
_0-1_計細線
  6
CONTINUOUS
 62
    3
 10
974.16328124999552
 20
509.99357311320955
 11
962.76328124999509
 21
509.99357311320955
  0
LINE
  8
_0-1_計細線
  6
CONTINUOUS
 62
    3
 10
974.1632812499945
 20
710.99357311320819
 11
962.76328124999395
 21
710.99357311320819
  0
LINE
  8
_0-0_計極細
  6
CONTINUOUS
 62
    2
 10
965.96328124999536
 20
509.99357311320955
 11
965.96328124999434
 21
710.99357311320819
  0
LINE
  8
_0-0_計極細
  6
CONTINUOUS
 62
    2
 10
970.96328124999536
 20
509.99357311320955
 11
970.96328124999434
 21
710.99357311320819
  0
LINE
  8
_0-1_計細線
  6
CONTINUOUS
 62
    3
 10
957.16328124999563
 20
509.99357311320955
 11
957.1632812499945
 21
710.99357311320819
  0
LINE
  8
_0-1_計細線
  6
CONTINUOUS
 62
    3
 10
945.76328124999509
 20
509.99357311320955
 11
945.76328124999407
 21
710.99357311320819
  0
LINE
  8
_0-1_計細線
  6
CONTINUOUS
 62
    3
 10
957.16328124999563
 20
509.99357311320955
 11
945.76328124999509
 21
509.99357311320955
  0
LINE
  8
_0-1_計細線
  6
CONTINUOUS
 62
    3
 10
957.1632812499945
 20
710.99357311320819
 11
945.76328124999407
 21
710.99357311320819
  0
LINE
  8
_0-0_計極細
  6
CONTINUOUS
 62
    2
 10
948.96328124999525
 20
509.99357311320955
 11
948.96328124999422
 21
710.99357311320819
  0
LINE
  8
_0-0_計極細
  6
CONTINUOUS
 62
    2
 10
953.96328124999525
 20
509.99357311320955
 11
953.96328124999422
 21
710.99357311320819
  0
LINE
  8
_0-1_計細線
  6
CONTINUOUS
 62
    3
 10
940.16328124999563
 20
509.99357311320955
 11
940.16328124999461
 21
710.99357311320819
  0
LINE
  8
_0-1_計細線
  6
CONTINUOUS
 62
    3
 10
928.76328124999509
 20
509.99357311320955
 11
928.76328124999407
 21
710.99357311320819
  0
LINE
  8
_0-1_計細線
  6
CONTINUOUS
 62
    3
 10
940.16328124999563
 20
509.99357311320955
 11
928.76328124999509
 21
509.99357311320955
  0
LINE
  8
_0-1_計細線
  6
CONTINUOUS
 62
    3
 10
940.16328124999461
 20
710.99357311320819
 11
928.76328124999407
 21
710.99357311320819
  0
LINE
  8
_0-0_計極細
  6
CONTINUOUS
 62
    2
 10
931.96328124999525
 20
509.99357311320955
 11
931.96328124999422
 21
710.99357311320819
  0
LINE
  8
_0-0_計極細
  6
CONTINUOUS
 62
    2
 10
936.96328124999525
 20
509.99357311320955
 11
936.96328124999422
 21
710.99357311320819
  0
LINE
  8
_0-1_計細線
  6
CONTINUOUS
 62
    3
 10
923.16328124999563
 20
509.99357311320955
 11
923.16328124999461
 21
710.99357311320819
  0
LINE
  8
_0-1_計細線
  6
CONTINUOUS
 62
    3
 10
911.76328124999498
 20
509.99357311320955
 11
911.76328124999395
 21
710.99357311320819
  0
LINE
  8
_0-1_計細線
  6
CONTINUOUS
 62
    3
 10
923.16328124999563
 20
509.99357311320955
 11
911.76328124999498
 21
509.99357311320955
  0
LINE
  8
_0-1_計細線
  6
CONTINUOUS
 62
    3
 10
923.16328124999461
 20
710.99357311320819
 11
911.76328124999395
 21
710.99357311320819
  0
LINE
  8
_0-0_計極細
  6
CONTINUOUS
 62
    2
 10
914.96328124999536
 20
509.99357311320955
 11
914.96328124999422
 21
710.99357311320819
  0
LINE
  8
_0-0_計極細
  6
CONTINUOUS
 62
    2
 10
919.96328124999536
 20
509.99357311320955
 11
919.96328124999422
 21
710.99357311320819
  0
LINE
  8
_0-1_計細線
  6
CONTINUOUS
 62
    3
 10
906.16328124999552
 20
509.99357311320955
 11
906.1632812499945
 21
710.99357311320819
  0
LINE
  8
_0-1_計細線
  6
CONTINUOUS
 62
    3
 10
894.76328124999498
 20
509.99357311320955
 11
894.76328124999395
 21
710.99357311320819
  0
LINE
  8
_0-1_計細線
  6
CONTINUOUS
 62
    3
 10
906.16328124999552
 20
509.99357311320955
 11
894.76328124999498
 21
509.99357311320955
  0
LINE
  8
_0-1_計細線
  6
CONTINUOUS
 62
    3
 10
906.1632812499945
 20
710.99357311320819
 11
894.76328124999395
 21
710.99357311320819
  0
LINE
  8
_0-0_計極細
  6
CONTINUOUS
 62
    2
 10
897.96328124999536
 20
509.99357311320955
 11
897.96328124999434
 21
710.99357311320819
  0
LINE
  8
_0-0_計極細
  6
CONTINUOUS
 62
    2
 10
902.96328124999536
 20
509.99357311320955
 11
902.96328124999434
 21
710.99357311320819
  0
LINE
  8
_0-1_計細線
  6
CONTINUOUS
 62
    3
 10
889.16328124999552
 20
509.99357311320955
 11
889.1632812499945
 21
710.99357311320819
  0
LINE
  8
_0-1_計細線
  6
CONTINUOUS
 62
    3
 10
877.76328124999509
 20
509.99357311320955
 11
877.76328124999395
 21
710.99357311320819
  0
LINE
  8
_0-1_計細線
  6
CONTINUOUS
 62
    3
 10
889.16328124999552
 20
509.99357311320955
 11
877.76328124999509
 21
509.99357311320955
  0
LINE
  8
_0-1_計細線
  6
CONTINUOUS
 62
    3
 10
889.1632812499945
 20
710.99357311320819
 11
877.76328124999395
 21
710.99357311320819
  0
LINE
  8
_0-0_計極細
  6
CONTINUOUS
 62
    2
 10
880.96328124999536
 20
509.99357311320955
 11
880.96328124999434
 21
710.99357311320819
  0
LINE
  8
_0-0_計極細
  6
CONTINUOUS
 62
    2
 10
885.96328124999536
 20
509.99357311320955
 11
885.96328124999434
 21
710.99357311320819
  0
LINE
  8
_0-1_計細線
  6
CONTINUOUS
 62
    3
 10
872.16328124999563
 20
509.99357311320955
 11
872.1632812499945
 21
710.99357311320819
  0
LINE
  8
_0-1_計細線
  6
CONTINUOUS
 62
    3
 10
860.76328124999509
 20
509.99357311320955
 11
860.76328124999407
 21
710.99357311320819
  0
LINE
  8
_0-1_計細線
  6
CONTINUOUS
 62
    3
 10
872.16328124999563
 20
509.99357311320955
 11
860.76328124999509
 21
509.99357311320955
  0
LINE
  8
_0-1_計細線
  6
CONTINUOUS
 62
    3
 10
872.1632812499945
 20
710.99357311320819
 11
860.76328124999407
 21
710.99357311320819
  0
LINE
  8
_0-0_計極細
  6
CONTINUOUS
 62
    2
 10
863.96328124999525
 20
509.99357311320955
 11
863.96328124999422
 21
710.99357311320819
  0
LINE
  8
_0-0_計極細
  6
CONTINUOUS
 62
    2
 10
868.96328124999525
 20
509.99357311320955
 11
868.96328124999422
 21
710.99357311320819
  0
LINE
  8
_0-1_計細線
  6
CONTINUOUS
 62
    3
 10
855.16328124999563
 20
509.99357311320955
 11
855.16328124999461
 21
710.99357311320819
  0
LINE
  8
_0-1_計細線
  6
CONTINUOUS
 62
    3
 10
843.76328124999509
 20
509.99357311320955
 11
843.76328124999407
 21
710.99357311320819
  0
LINE
  8
_0-1_計細線
  6
CONTINUOUS
 62
    3
 10
855.16328124999563
 20
509.99357311320955
 11
843.76328124999509
 21
509.99357311320955
  0
LINE
  8
_0-1_計細線
  6
CONTINUOUS
 62
    3
 10
855.16328124999461
 20
710.99357311320819
 11
843.76328124999407
 21
710.99357311320819
  0
LINE
  8
_0-0_計極細
  6
CONTINUOUS
 62
    2
 10
846.96328124999525
 20
509.99357311320955
 11
846.96328124999422
 21
710.99357311320819
  0
LINE
  8
_0-0_計極細
  6
CONTINUOUS
 62
    2
 10
851.96328124999525
 20
509.99357311320955
 11
851.96328124999422
 21
710.99357311320819
  0
LINE
  8
_0-1_計細線
  6
CONTINUOUS
 62
    3
 10
838.16328124999563
 20
509.99357311320955
 11
838.16328124999461
 21
710.99357311320819
  0
LINE
  8
_0-1_計細線
  6
CONTINUOUS
 62
    3
 10
826.76328124999498
 20
509.99357311320955
 11
826.76328124999395
 21
710.99357311320819
  0
LINE
  8
_0-1_計細線
  6
CONTINUOUS
 62
    3
 10
838.16328124999563
 20
509.99357311320955
 11
826.76328124999498
 21
509.99357311320955
  0
LINE
  8
_0-1_計細線
  6
CONTINUOUS
 62
    3
 10
838.16328124999461
 20
710.99357311320819
 11
826.76328124999395
 21
710.99357311320819
  0
LINE
  8
_0-0_計極細
  6
CONTINUOUS
 62
    2
 10
829.96328124999536
 20
509.99357311320955
 11
829.96328124999422
 21
710.99357311320819
  0
LINE
  8
_0-0_計極細
  6
CONTINUOUS
 62
    2
 10
834.96328124999536
 20
509.99357311320955
 11
834.96328124999422
 21
710.99357311320819
  0
LINE
  8
_0-1_計細線
  6
CONTINUOUS
 62
    3
 10
821.16328124999552
 20
509.99357311320955
 11
821.1632812499945
 21
710.99357311320819
  0
LINE
  8
_0-1_計細線
  6
CONTINUOUS
 62
    3
 10
809.76328124999498
 20
509.99357311320955
 11
809.76328124999395
 21
710.99357311320819
  0
LINE
  8
_0-1_計細線
  6
CONTINUOUS
 62
    3
 10
821.16328124999552
 20
509.99357311320955
 11
809.76328124999498
 21
509.99357311320955
  0
LINE
  8
_0-1_計細線
  6
CONTINUOUS
 62
    3
 10
821.1632812499945
 20
710.99357311320819
 11
809.76328124999395
 21
710.99357311320819
  0
LINE
  8
_0-0_計極細
  6
CONTINUOUS
 62
    2
 10
812.96328124999536
 20
509.99357311320955
 11
812.96328124999434
 21
710.99357311320819
  0
LINE
  8
_0-0_計極細
  6
CONTINUOUS
 62
    2
 10
817.96328124999536
 20
509.99357311320955
 11
817.96328124999434
 21
710.99357311320819
  0
LINE
  8
_0-1_計細線
  6
CONTINUOUS
 62
    3
 10
804.16328124999552
 20
509.99357311320955
 11
804.1632812499945
 21
710.99357311320819
  0
LINE
  8
_0-1_計細線
  6
CONTINUOUS
 62
    3
 10
792.76328124999509
 20
509.99357311320955
 11
792.76328124999395
 21
710.99357311320819
  0
LINE
  8
_0-1_計細線
  6
CONTINUOUS
 62
    3
 10
804.16328124999552
 20
509.99357311320955
 11
792.76328124999509
 21
509.99357311320955
  0
LINE
  8
_0-1_計細線
  6
CONTINUOUS
 62
    3
 10
804.1632812499945
 20
710.99357311320819
 11
792.76328124999395
 21
710.99357311320819
  0
LINE
  8
_0-0_計極細
  6
CONTINUOUS
 62
    2
 10
795.96328124999536
 20
509.99357311320955
 11
795.96328124999434
 21
710.99357311320819
  0
LINE
  8
_0-0_計極細
  6
CONTINUOUS
 62
    2
 10
800.96328124999536
 20
509.99357311320955
 11
800.96328124999434
 21
710.99357311320819
  0
LINE
  8
_0-1_計細線
  6
CONTINUOUS
 62
    3
 10
787.16328124999563
 20
509.99357311320955
 11
787.1632812499945
 21
710.99357311320819
  0
LINE
  8
_0-1_計細線
  6
CONTINUOUS
 62
    3
 10
775.76328124999509
 20
509.99357311320955
 11
775.76328124999407
 21
710.99357311320819
  0
LINE
  8
_0-1_計細線
  6
CONTINUOUS
 62
    3
 10
787.16328124999563
 20
509.99357311320955
 11
775.76328124999509
 21
509.99357311320955
  0
LINE
  8
_0-1_計細線
  6
CONTINUOUS
 62
    3
 10
787.1632812499945
 20
710.99357311320819
 11
775.76328124999407
 21
710.99357311320819
  0
LINE
  8
_0-0_計極細
  6
CONTINUOUS
 62
    2
 10
778.96328124999525
 20
509.99357311320955
 11
778.96328124999422
 21
710.99357311320819
  0
LINE
  8
_0-0_計極細
  6
CONTINUOUS
 62
    2
 10
783.96328124999525
 20
509.99357311320955
 11
783.96328124999422
 21
710.99357311320819
  0
LINE
  8
_0-1_計細線
  6
CONTINUOUS
 62
    3
 10
770.16328124999563
 20
509.99357311320955
 11
770.16328124999461
 21
710.99357311320819
  0
LINE
  8
_0-1_計細線
  6
CONTINUOUS
 62
    3
 10
758.76328124999509
 20
509.99357311320955
 11
758.76328124999407
 21
710.99357311320819
  0
LINE
  8
_0-1_計細線
  6
CONTINUOUS
 62
    3
 10
770.16328124999563
 20
509.99357311320955
 11
758.76328124999509
 21
509.99357311320955
  0
LINE
  8
_0-1_計細線
  6
CONTINUOUS
 62
    3
 10
770.16328124999461
 20
710.99357311320819
 11
758.76328124999407
 21
710.99357311320819
  0
LINE
  8
_0-0_計極細
  6
CONTINUOUS
 62
    2
 10
761.96328124999525
 20
509.99357311320955
 11
761.96328124999422
 21
710.99357311320819
  0
LINE
  8
_0-0_計極細
  6
CONTINUOUS
 62
    2
 10
766.96328124999525
 20
509.99357311320955
 11
766.96328124999422
 21
710.99357311320819
  0
LINE
  8
_0-1_計細線
  6
CONTINUOUS
 62
    3
 10
753.16328124999563
 20
509.99357311320955
 11
753.16328124999461
 21
710.99357311320819
  0
LINE
  8
_0-1_計細線
  6
CONTINUOUS
 62
    3
 10
741.76328124999498
 20
509.99357311320955
 11
741.76328124999395
 21
710.99357311320819
  0
LINE
  8
_0-1_計細線
  6
CONTINUOUS
 62
    3
 10
753.16328124999563
 20
509.99357311320955
 11
741.76328124999498
 21
509.99357311320955
  0
LINE
  8
_0-1_計細線
  6
CONTINUOUS
 62
    3
 10
753.16328124999461
 20
710.99357311320819
 11
741.76328124999395
 21
710.99357311320819
  0
LINE
  8
_0-0_計極細
  6
CONTINUOUS
 62
    2
 10
744.96328124999525
 20
509.99357311320955
 11
744.96328124999422
 21
710.99357311320819
  0
LINE
  8
_0-0_計極細
  6
CONTINUOUS
 62
    2
 10
749.96328124999525
 20
509.99357311320955
 11
749.96328124999422
 21
710.99357311320819
  0
LINE
  8
_0-1_計細線
  6
CONTINUOUS
 62
    3
 10
736.16328124999552
 20
509.99357311320955
 11
736.1632812499945
 21
710.99357311320819
  0
LINE
  8
_0-1_計細線
  6
CONTINUOUS
 62
    3
 10
724.76328124999498
 20
509.99357311320955
 11
724.76328124999395
 21
710.99357311320819
  0
LINE
  8
_0-1_計細線
  6
CONTINUOUS
 62
    3
 10
736.16328124999552
 20
509.99357311320955
 11
724.76328124999498
 21
509.99357311320955
  0
LINE
  8
_0-1_計細線
  6
CONTINUOUS
 62
    3
 10
736.1632812499945
 20
710.99357311320819
 11
724.76328124999395
 21
710.99357311320819
  0
LINE
  8
_0-0_計極細
  6
CONTINUOUS
 62
    2
 10
727.96328124999536
 20
509.99357311320955
 11
727.96328124999422
 21
710.99357311320819
  0
LINE
  8
_0-0_計極細
  6
CONTINUOUS
 62
    2
 10
732.96328124999536
 20
509.99357311320955
 11
732.96328124999422
 21
710.99357311320819
  0
LINE
  8
_0-1_計細線
  6
CONTINUOUS
 62
    3
 10
719.16328124999552
 20
509.99357311320955
 11
719.1632812499945
 21
710.99357311320819
  0
LINE
  8
_0-1_計細線
  6
CONTINUOUS
 62
    3
 10
707.76328124999498
 20
509.99357311320955
 11
707.76328124999395
 21
710.99357311320819
  0
LINE
  8
_0-1_計細線
  6
CONTINUOUS
 62
    3
 10
719.16328124999552
 20
509.99357311320955
 11
707.76328124999498
 21
509.99357311320955
  0
LINE
  8
_0-1_計細線
  6
CONTINUOUS
 62
    3
 10
719.1632812499945
 20
710.99357311320819
 11
707.76328124999395
 21
710.99357311320819
  0
LINE
  8
_0-0_計極細
  6
CONTINUOUS
 62
    2
 10
710.96328124999536
 20
509.99357311320955
 11
710.96328124999434
 21
710.99357311320819
  0
LINE
  8
_0-0_計極細
  6
CONTINUOUS
 62
    2
 10
715.96328124999536
 20
509.99357311320955
 11
715.96328124999434
 21
710.99357311320819
  0
LINE
  8
_0-1_計細線
  6
CONTINUOUS
 62
    3
 10
702.16328124999552
 20
509.99357311320955
 11
702.1632812499945
 21
710.99357311320819
  0
LINE
  8
_0-1_計細線
  6
CONTINUOUS
 62
    3
 10
690.76328124999509
 20
509.99357311320955
 11
690.76328124999395
 21
710.99357311320819
  0
LINE
  8
_0-1_計細線
  6
CONTINUOUS
 62
    3
 10
702.16328124999552
 20
509.99357311320955
 11
690.76328124999509
 21
509.99357311320955
  0
LINE
  8
_0-1_計細線
  6
CONTINUOUS
 62
    3
 10
702.1632812499945
 20
710.99357311320819
 11
690.76328124999395
 21
710.99357311320819
  0
LINE
  8
_0-0_計極細
  6
CONTINUOUS
 62
    2
 10
693.96328124999525
 20
509.99357311320955
 11
693.96328124999422
 21
710.99357311320819
  0
LINE
  8
_0-0_計極細
  6
CONTINUOUS
 62
    2
 10
698.96328124999525
 20
509.99357311320955
 11
698.96328124999422
 21
710.99357311320819
  0
LINE
  8
_0-1_計細線
  6
CONTINUOUS
 62
    3
 10
685.16328124999563
 20
509.99357311320955
 11
685.1632812499945
 21
710.99357311320819
  0
LINE
  8
_0-1_計細線
  6
CONTINUOUS
 62
    3
 10
673.76328124999509
 20
509.99357311320955
 11
673.76328124999407
 21
710.99357311320819
  0
LINE
  8
_0-1_計細線
  6
CONTINUOUS
 62
    3
 10
685.16328124999563
 20
509.99357311320955
 11
673.76328124999509
 21
509.99357311320955
  0
LINE
  8
_0-1_計細線
  6
CONTINUOUS
 62
    3
 10
685.1632812499945
 20
710.99357311320819
 11
673.76328124999407
 21
710.99357311320819
  0
LINE
  8
_0-0_計極細
  6
CONTINUOUS
 62
    2
 10
676.96328124999525
 20
509.99357311320955
 11
676.96328124999422
 21
710.99357311320819
  0
LINE
  8
_0-0_計極細
  6
CONTINUOUS
 62
    2
 10
681.96328124999525
 20
509.99357311320955
 11
681.96328124999422
 21
710.99357311320819
  0
LINE
  8
_0-1_計細線
  6
CONTINUOUS
 62
    3
 10
668.16328124999563
 20
509.99357311320955
 11
668.16328124999461
 21
710.99357311320819
  0
LINE
  8
_0-1_計細線
  6
CONTINUOUS
 62
    3
 10
656.76328124999498
 20
509.99357311320955
 11
656.76328124999395
 21
710.99357311320819
  0
LINE
  8
_0-1_計細線
  6
CONTINUOUS
 62
    3
 10
668.16328124999563
 20
509.99357311320955
 11
656.76328124999498
 21
509.99357311320955
  0
LINE
  8
_0-1_計細線
  6
CONTINUOUS
 62
    3
 10
668.16328124999461
 20
710.99357311320819
 11
656.76328124999395
 21
710.99357311320819
  0
LINE
  8
_0-0_計極細
  6
CONTINUOUS
 62
    2
 10
659.96328124999525
 20
509.99357311320955
 11
659.96328124999422
 21
710.99357311320819
  0
LINE
  8
_0-0_計極細
  6
CONTINUOUS
 62
    2
 10
664.96328124999525
 20
509.99357311320955
 11
664.96328124999422
 21
710.99357311320819
  0
LINE
  8
_0-1_計細線
  6
CONTINUOUS
 62
    3
 10
651.16328124999552
 20
509.99357311320955
 11
651.1632812499945
 21
710.99357311320819
  0
LINE
  8
_0-1_計細線
  6
CONTINUOUS
 62
    3
 10
639.76328124999498
 20
509.99357311320955
 11
639.76328124999395
 21
710.99357311320819
  0
LINE
  8
_0-1_計細線
  6
CONTINUOUS
 62
    3
 10
651.16328124999552
 20
509.99357311320955
 11
639.76328124999498
 21
509.99357311320955
  0
LINE
  8
_0-1_計細線
  6
CONTINUOUS
 62
    3
 10
651.1632812499945
 20
710.99357311320819
 11
639.76328124999395
 21
710.99357311320819
  0
LINE
  8
_0-0_計極細
  6
CONTINUOUS
 62
    2
 10
642.96328124999536
 20
509.99357311320955
 11
642.96328124999422
 21
710.99357311320819
  0
LINE
  8
_0-0_計極細
  6
CONTINUOUS
 62
    2
 10
647.96328124999536
 20
509.99357311320955
 11
647.96328124999422
 21
710.99357311320819
  0
LINE
  8
_0-1_計細線
  6
CONTINUOUS
 62
    3
 10
634.16328124999552
 20
509.99357311320955
 11
634.1632812499945
 21
710.99357311320819
  0
LINE
  8
_0-1_計細線
  6
CONTINUOUS
 62
    3
 10
622.76328124999498
 20
509.99357311320955
 11
622.76328124999395
 21
710.99357311320819
  0
LINE
  8
_0-1_計細線
  6
CONTINUOUS
 62
    3
 10
634.16328124999552
 20
509.99357311320955
 11
622.76328124999498
 21
509.99357311320955
  0
LINE
  8
_0-1_計細線
  6
CONTINUOUS
 62
    3
 10
634.1632812499945
 20
710.99357311320819
 11
622.76328124999395
 21
710.99357311320819
  0
LINE
  8
_0-0_計極細
  6
CONTINUOUS
 62
    2
 10
625.96328124999536
 20
509.99357311320955
 11
625.96328124999422
 21
710.99357311320819
  0
LINE
  8
_0-0_計極細
  6
CONTINUOUS
 62
    2
 10
630.96328124999536
 20
509.99357311320955
 11
630.96328124999422
 21
710.99357311320819
  0
LINE
  8
_0-1_計細線
  6
CONTINUOUS
 62
    3
 10
617.16328124999552
 20
509.99357311320955
 11
617.1632812499945
 21
710.99357311320819
  0
LINE
  8
_0-1_計細線
  6
CONTINUOUS
 62
    3
 10
605.76328124999498
 20
509.99357311320955
 11
605.76328124999395
 21
710.99357311320819
  0
LINE
  8
_0-1_計細線
  6
CONTINUOUS
 62
    3
 10
617.16328124999552
 20
509.99357311320955
 11
605.76328124999498
 21
509.99357311320955
  0
LINE
  8
_0-1_計細線
  6
CONTINUOUS
 62
    3
 10
617.1632812499945
 20
710.99357311320819
 11
605.76328124999395
 21
710.99357311320819
  0
LINE
  8
_0-0_計極細
  6
CONTINUOUS
 62
    2
 10
608.96328124999525
 20
509.99357311320955
 11
608.96328124999422
 21
710.99357311320819
  0
LINE
  8
_0-0_計極細
  6
CONTINUOUS
 62
    2
 10
613.96328124999525
 20
509.99357311320955
 11
613.96328124999422
 21
710.99357311320819
  0
LINE
  8
_0-1_計細線
  6
CONTINUOUS
 62
    3
 10
600.16328124999552
 20
509.99357311320955
 11
600.1632812499945
 21
710.99357311320819
  0
LINE
  8
_0-1_計細線
  6
CONTINUOUS
 62
    3
 10
588.76328124999509
 20
509.99357311320955
 11
588.76328124999395
 21
710.99357311320819
  0
LINE
  8
_0-1_計細線
  6
CONTINUOUS
 62
    3
 10
600.16328124999552
 20
509.99357311320955
 11
588.76328124999509
 21
509.99357311320955
  0
LINE
  8
_0-1_計細線
  6
CONTINUOUS
 62
    3
 10
600.1632812499945
 20
710.99357311320819
 11
588.76328124999395
 21
710.99357311320819
  0
LINE
  8
_0-0_計極細
  6
CONTINUOUS
 62
    2
 10
591.96328124999525
 20
509.99357311320955
 11
591.96328124999422
 21
710.99357311320819
  0
LINE
  8
_0-0_計極細
  6
CONTINUOUS
 62
    2
 10
596.96328124999525
 20
509.99357311320955
 11
596.96328124999422
 21
710.99357311320819
  0
LINE
  8
_0-1_計細線
  6
CONTINUOUS
 62
    3
 10
583.16328124999563
 20
509.99357311320955
 11
583.1632812499945
 21
710.99357311320819
  0
LINE
  8
_0-1_計細線
  6
CONTINUOUS
 62
    3
 10
571.76328124999498
 20
509.99357311320955
 11
571.76328124999395
 21
710.99357311320819
  0
LINE
  8
_0-1_計細線
  6
CONTINUOUS
 62
    3
 10
583.16328124999563
 20
509.99357311320955
 11
571.76328124999498
 21
509.99357311320955
  0
LINE
  8
_0-1_計細線
  6
CONTINUOUS
 62
    3
 10
583.1632812499945
 20
710.99357311320819
 11
571.76328124999395
 21
710.99357311320819
  0
LINE
  8
_0-0_計極細
  6
CONTINUOUS
 62
    2
 10
574.96328124999525
 20
509.99357311320955
 11
574.96328124999422
 21
710.99357311320819
  0
LINE
  8
_0-0_計極細
  6
CONTINUOUS
 62
    2
 10
579.96328124999525
 20
509.99357311320955
 11
579.96328124999422
 21
710.99357311320819
  0
LINE
  8
_0-1_計細線
  6
CONTINUOUS
 62
    3
 10
566.16328124999552
 20
509.99357311320955
 11
566.1632812499945
 21
710.99357311320819
  0
LINE
  8
_0-1_計細線
  6
CONTINUOUS
 62
    3
 10
554.76328124999498
 20
509.99357311320955
 11
554.76328124999395
 21
710.99357311320819
  0
LINE
  8
_0-1_計細線
  6
CONTINUOUS
 62
    3
 10
566.16328124999552
 20
509.99357311320955
 11
554.76328124999498
 21
509.99357311320955
  0
LINE
  8
_0-1_計細線
  6
CONTINUOUS
 62
    3
 10
566.1632812499945
 20
710.99357311320819
 11
554.76328124999395
 21
710.99357311320819
  0
LINE
  8
_0-0_計極細
  6
CONTINUOUS
 62
    2
 10
557.96328124999525
 20
509.99357311320955
 11
557.96328124999422
 21
710.99357311320819
  0
LINE
  8
_0-0_計極細
  6
CONTINUOUS
 62
    2
 10
562.96328124999525
 20
509.99357311320955
 11
562.96328124999422
 21
710.99357311320819
  0
LINE
  8
_0-1_計細線
  6
CONTINUOUS
 62
    3
 10
549.16328124999552
 20
509.99357311320955
 11
549.1632812499945
 21
710.99357311320819
  0
LINE
  8
_0-1_計細線
  6
CONTINUOUS
 62
    3
 10
537.76328124999498
 20
509.99357311320955
 11
537.76328124999395
 21
710.99357311320819
  0
LINE
  8
_0-1_計細線
  6
CONTINUOUS
 62
    3
 10
549.16328124999552
 20
509.99357311320955
 11
537.76328124999498
 21
509.99357311320955
  0
LINE
  8
_0-1_計細線
  6
CONTINUOUS
 62
    3
 10
549.1632812499945
 20
710.99357311320819
 11
537.76328124999395
 21
710.99357311320819
  0
LINE
  8
_0-0_計極細
  6
CONTINUOUS
 62
    2
 10
540.96328124999536
 20
509.99357311320955
 11
540.96328124999422
 21
710.99357311320819
  0
LINE
  8
_0-0_計極細
  6
CONTINUOUS
 62
    2
 10
545.96328124999536
 20
509.99357311320955
 11
545.96328124999422
 21
710.99357311320819
  0
LINE
  8
_0-1_計細線
  6
CONTINUOUS
 62
    3
 10
532.16328124999552
 20
509.99357311320955
 11
532.1632812499945
 21
710.99357311320819
  0
LINE
  8
_0-1_計細線
  6
CONTINUOUS
 62
    3
 10
520.76328124999498
 20
509.99357311320955
 11
520.76328124999395
 21
710.99357311320819
  0
LINE
  8
_0-1_計細線
  6
CONTINUOUS
 62
    3
 10
532.16328124999552
 20
509.99357311320955
 11
520.76328124999498
 21
509.99357311320955
  0
LINE
  8
_0-1_計細線
  6
CONTINUOUS
 62
    3
 10
532.1632812499945
 20
710.99357311320819
 11
520.76328124999395
 21
710.99357311320819
  0
LINE
  8
_0-0_計極細
  6
CONTINUOUS
 62
    2
 10
523.96328124999525
 20
509.99357311320955
 11
523.96328124999422
 21
710.99357311320819
  0
LINE
  8
_0-0_計極細
  6
CONTINUOUS
 62
    2
 10
528.96328124999525
 20
509.99357311320955
 11
528.96328124999422
 21
710.99357311320819
  0
LINE
  8
_0-1_計細線
  6
CONTINUOUS
 62
    3
 10
515.16328124999552
 20
509.99357311320955
 11
515.1632812499945
 21
710.99357311320819
  0
LINE
  8
_0-1_計細線
  6
CONTINUOUS
 62
    3
 10
503.76328124999503
 20
509.99357311320955
 11
503.76328124999395
 21
710.99357311320819
  0
LINE
  8
_0-1_計細線
  6
CONTINUOUS
 62
    3
 10
515.16328124999552
 20
509.99357311320955
 11
503.76328124999503
 21
509.99357311320955
  0
LINE
  8
_0-1_計細線
  6
CONTINUOUS
 62
    3
 10
515.1632812499945
 20
710.99357311320819
 11
503.76328124999395
 21
710.99357311320819
  0
LINE
  8
_0-0_計極細
  6
CONTINUOUS
 62
    2
 10
506.96328124999525
 20
509.99357311320955
 11
506.96328124999422
 21
710.99357311320819
  0
LINE
  8
_0-0_計極細
  6
CONTINUOUS
 62
    2
 10
511.96328124999525
 20
509.99357311320955
 11
511.96328124999422
 21
710.99357311320819
  0
LINE
  8
_0-1_計細線
  6
CONTINUOUS
 62
    3
 10
498.16328124999558
 20
509.99357311320955
 11
498.1632812499945
 21
710.99357311320819
  0
LINE
  8
_0-1_計細線
  6
CONTINUOUS
 62
    3
 10
486.76328124999498
 20
509.99357311320955
 11
486.76328124999401
 21
710.99357311320819
  0
LINE
  8
_0-1_計細線
  6
CONTINUOUS
 62
    3
 10
498.16328124999558
 20
509.99357311320955
 11
486.76328124999498
 21
509.99357311320955
  0
LINE
  8
_0-1_計細線
  6
CONTINUOUS
 62
    3
 10
498.1632812499945
 20
710.99357311320819
 11
486.76328124999401
 21
710.99357311320819
  0
LINE
  8
_0-0_計極細
  6
CONTINUOUS
 62
    2
 10
489.9632812499953
 20
509.99357311320955
 11
489.96328124999422
 21
710.99357311320819
  0
LINE
  8
_0-0_計極細
  6
CONTINUOUS
 62
    2
 10
494.9632812499953
 20
509.99357311320955
 11
494.96328124999422
 21
710.99357311320819
  0
LINE
  8
_0-1_計細線
  6
CONTINUOUS
 62
    3
 10
481.16328124999552
 20
509.99357311320955
 11
481.16328124999455
 21
710.99357311320819
  0
LINE
  8
_0-1_計細線
  6
CONTINUOUS
 62
    3
 10
469.76328124999498
 20
509.99357311320955
 11
469.76328124999395
 21
710.99357311320819
  0
LINE
  8
_0-1_計細線
  6
CONTINUOUS
 62
    3
 10
481.16328124999552
 20
509.99357311320955
 11
469.76328124999498
 21
509.99357311320955
  0
LINE
  8
_0-1_計細線
  6
CONTINUOUS
 62
    3
 10
481.16328124999455
 20
710.99357311320819
 11
469.76328124999395
 21
710.99357311320819
  0
LINE
  8
_0-0_計極細
  6
CONTINUOUS
 62
    2
 10
472.96328124999525
 20
509.99357311320955
 11
472.96328124999428
 21
710.99357311320819
  0
LINE
  8
_0-0_計極細
  6
CONTINUOUS
 62
    2
 10
477.96328124999525
 20
509.99357311320955
 11
477.96328124999428
 21
710.99357311320819
  0
LINE
  8
_0-1_計細線
  6
CONTINUOUS
 62
    3
 10
464.16328124999552
 20
509.99357311320955
 11
464.1632812499945
 21
710.99357311320819
  0
LINE
  8
_0-1_計細線
  6
CONTINUOUS
 62
    3
 10
452.76328124999486
 20
509.99357311320955
 11
452.76328124999395
 21
710.99357311320819
  0
LINE
  8
_0-1_計細線
  6
CONTINUOUS
 62
    3
 10
464.16328124999552
 20
509.99357311320955
 11
452.76328124999486
 21
509.99357311320955
  0
LINE
  8
_0-1_計細線
  6
CONTINUOUS
 62
    3
 10
464.1632812499945
 20
710.99357311320819
 11
452.76328124999395
 21
710.99357311320819
  0
LINE
  8
_0-0_計極細
  6
CONTINUOUS
 62
    2
 10
455.96328124999513
 20
509.99357311320955
 11
455.96328124999422
 21
710.99357311320819
  0
LINE
  8
_0-0_計極細
  6
CONTINUOUS
 62
    2
 10
460.96328124999513
 20
509.99357311320955
 11
460.96328124999422
 21
710.99357311320819
  0
LINE
  8
_0-1_計細線
  6
CONTINUOUS
 62
    3
 10
447.16328124999541
 20
509.99357311320955
 11
447.1632812499945
 21
710.99357311320819
  0
LINE
  8
_0-1_計細線
  6
CONTINUOUS
 62
    3
 10
435.76328124999492
 20
509.99357311320955
 11
435.76328124999401
 21
710.99357311320819
  0
LINE
  8
_0-1_計細線
  6
CONTINUOUS
 62
    3
 10
447.16328124999541
 20
509.99357311320955
 11
435.76328124999492
 21
509.99357311320955
  0
LINE
  8
_0-1_計細線
  6
CONTINUOUS
 62
    3
 10
447.1632812499945
 20
710.99357311320819
 11
435.76328124999401
 21
710.99357311320819
  0
LINE
  8
_0-0_計極細
  6
CONTINUOUS
 62
    2
 10
438.96328124999513
 20
509.99357311320955
 11
438.96328124999428
 21
710.99357311320819
  0
LINE
  8
_0-0_計極細
  6
CONTINUOUS
 62
    2
 10
443.96328124999513
 20
509.99357311320955
 11
443.96328124999428
 21
710.99357311320819
  0
LINE
  8
_0-1_計細線
  6
CONTINUOUS
 62
    3
 10
430.16328124999546
 20
509.99357311320955
 11
430.16328124999455
 21
710.99357311320819
  0
LINE
  8
_0-1_計細線
  6
CONTINUOUS
 62
    3
 10
418.76328124999486
 20
509.99357311320955
 11
418.76328124999395
 21
710.99357311320819
  0
LINE
  8
_0-1_計細線
  6
CONTINUOUS
 62
    3
 10
430.16328124999546
 20
509.99357311320955
 11
418.76328124999486
 21
509.99357311320955
  0
LINE
  8
_0-1_計細線
  6
CONTINUOUS
 62
    3
 10
430.16328124999455
 20
710.99357311320819
 11
418.76328124999395
 21
710.99357311320819
  0
LINE
  8
_0-0_計極細
  6
CONTINUOUS
 62
    2
 10
421.96328124999519
 20
509.99357311320955
 11
421.96328124999422
 21
710.99357311320819
  0
LINE
  8
_0-0_計極細
  6
CONTINUOUS
 62
    2
 10
426.96328124999519
 20
509.99357311320955
 11
426.96328124999422
 21
710.99357311320819
  0
LINE
  8
_0-1_計細線
  6
CONTINUOUS
 62
    3
 10
413.16328124999541
 20
509.99357311320955
 11
413.1632812499945
 21
710.99357311320819
  0
LINE
  8
_0-1_計細線
  6
CONTINUOUS
 62
    3
 10
401.76328124999486
 20
509.99357311320955
 11
401.76328124999401
 21
710.99357311320819
  0
LINE
  8
_0-1_計細線
  6
CONTINUOUS
 62
    3
 10
413.16328124999541
 20
509.99357311320955
 11
401.76328124999486
 21
509.99357311320955
  0
LINE
  8
_0-1_計細線
  6
CONTINUOUS
 62
    3
 10
413.1632812499945
 20
710.99357311320819
 11
401.76328124999401
 21
710.99357311320819
  0
LINE
  8
_0-0_計極細
  6
CONTINUOUS
 62
    2
 10
404.96328124999513
 20
509.99357311320955
 11
404.96328124999422
 21
710.99357311320819
  0
LINE
  8
_0-0_計極細
  6
CONTINUOUS
 62
    2
 10
409.96328124999513
 20
509.99357311320955
 11
409.96328124999422
 21
710.99357311320819
  0
LINE
  8
_0-1_計細線
  6
CONTINUOUS
 62
    3
 10
396.16328124999541
 20
509.99357311320955
 11
396.16328124999455
 21
710.99357311320819
  0
LINE
  8
_0-1_計細線
  6
CONTINUOUS
 62
    3
 10
384.76328124999492
 20
509.99357311320955
 11
384.76328124999395
 21
710.99357311320819
  0
LINE
  8
_0-1_計細線
  6
CONTINUOUS
 62
    3
 10
396.16328124999541
 20
509.99357311320955
 11
384.76328124999492
 21
509.99357311320955
  0
LINE
  8
_0-1_計細線
  6
CONTINUOUS
 62
    3
 10
396.16328124999455
 20
710.99357311320819
 11
384.76328124999395
 21
710.99357311320819
  0
LINE
  8
_0-0_計極細
  6
CONTINUOUS
 62
    2
 10
387.96328124999519
 20
509.99357311320955
 11
387.96328124999428
 21
710.99357311320819
  0
LINE
  8
_0-0_計極細
  6
CONTINUOUS
 62
    2
 10
392.96328124999519
 20
509.99357311320955
 11
392.96328124999428
 21
710.99357311320819
  0
LINE
  8
_0-1_計細線
  6
CONTINUOUS
 62
    3
 10
379.16328124999546
 20
509.99357311320955
 11
379.1632812499945
 21
710.99357311320819
  0
LINE
  8
_0-1_計細線
  6
CONTINUOUS
 62
    3
 10
367.76328124999486
 20
509.99357311320955
 11
367.76328124999395
 21
710.99357311320819
  0
LINE
  8
_0-1_計細線
  6
CONTINUOUS
 62
    3
 10
379.16328124999546
 20
509.99357311320955
 11
367.76328124999486
 21
509.99357311320955
  0
LINE
  8
_0-1_計細線
  6
CONTINUOUS
 62
    3
 10
379.1632812499945
 20
710.99357311320819
 11
367.76328124999395
 21
710.99357311320819
  0
LINE
  8
_0-0_計極細
  6
CONTINUOUS
 62
    2
 10
370.96328124999513
 20
509.99357311320955
 11
370.96328124999422
 21
710.99357311320819
  0
LINE
  8
_0-0_計極細
  6
CONTINUOUS
 62
    2
 10
375.96328124999513
 20
509.99357311320955
 11
375.96328124999422
 21
710.99357311320819
  0
LINE
  8
_0-1_計細線
  6
CONTINUOUS
 62
    3
 10
362.16328124999541
 20
509.99357311320955
 11
362.1632812499945
 21
710.99357311320819
  0
LINE
  8
_0-1_計細線
  6
CONTINUOUS
 62
    3
 10
350.76328124999515
 20
509.99357311320955
 11
350.76328124999401
 21
710.99357311320819
  0
LINE
  8
_0-1_計細線
  6
CONTINUOUS
 62
    3
 10
362.16328124999541
 20
509.99357311320955
 11
350.76328124999515
 21
509.99357311320955
  0
LINE
  8
_0-1_計細線
  6
CONTINUOUS
 62
    3
 10
362.1632812499945
 20
710.99357311320819
 11
350.76328124999401
 21
710.99357311320819
  0
LINE
  8
_0-0_計極細
  6
CONTINUOUS
 62
    2
 10
353.96328124999513
 20
509.99357311320955
 11
353.96328124999422
 21
710.99357311320819
  0
LINE
  8
_0-0_計極細
  6
CONTINUOUS
 62
    2
 10
358.96328124999513
 20
509.99357311320955
 11
358.96328124999422
 21
710.99357311320819
  0
LINE
  8
_0-1_計細線
  6
CONTINUOUS
 62
    3
 10
345.16328124999569
 20
509.99357311320955
 11
345.16328124999455
 21
710.99357311320819
  0
LINE
  8
_0-1_計細線
  6
CONTINUOUS
 62
    3
 10
333.76328124999509
 20
509.99357311320955
 11
333.76328124999395
 21
710.99357311320819
  0
LINE
  8
_0-1_計細線
  6
CONTINUOUS
 62
    3
 10
345.16328124999569
 20
509.99357311320955
 11
333.76328124999509
 21
509.99357311320955
  0
LINE
  8
_0-1_計細線
  6
CONTINUOUS
 62
    3
 10
345.16328124999455
 20
710.99357311320819
 11
333.76328124999395
 21
710.99357311320819
  0
LINE
  8
_0-0_計極細
  6
CONTINUOUS
 62
    2
 10
336.96328124999536
 20
509.99357311320955
 11
336.96328124999422
 21
710.99357311320819
  0
LINE
  8
_0-0_計極細
  6
CONTINUOUS
 62
    2
 10
341.96328124999536
 20
509.99357311320955
 11
341.96328124999422
 21
710.99357311320819
  0
LINE
  8
_0-1_計細線
  6
CONTINUOUS
 62
    3
 10
328.16328124999563
 20
509.99357311320955
 11
328.1632812499945
 21
710.99357311320819
  0
LINE
  8
_0-1_計細線
  6
CONTINUOUS
 62
    3
 10
316.76328124999515
 20
509.99357311320955
 11
316.76328124999401
 21
710.99357311320819
  0
LINE
  8
_0-1_計細線
  6
CONTINUOUS
 62
    3
 10
328.16328124999563
 20
509.99357311320955
 11
316.76328124999515
 21
509.99357311320955
  0
LINE
  8
_0-1_計細線
  6
CONTINUOUS
 62
    3
 10
328.1632812499945
 20
710.99357311320819
 11
316.76328124999401
 21
710.99357311320819
  0
LINE
  8
_0-0_計極細
  6
CONTINUOUS
 62
    2
 10
319.96328124999536
 20
509.99357311320955
 11
319.96328124999422
 21
710.99357311320819
  0
LINE
  8
_0-0_計極細
  6
CONTINUOUS
 62
    2
 10
324.96328124999536
 20
509.99357311320955
 11
324.96328124999422
 21
710.99357311320819
  0
LINE
  8
_0-1_計細線
  6
CONTINUOUS
 62
    3
 10
311.16328124999569
 20
509.99357311320955
 11
311.16328124999455
 21
710.99357311320819
  0
LINE
  8
_0-1_計細線
  6
CONTINUOUS
 62
    3
 10
299.76328124999509
 20
509.99357311320955
 11
299.76328124999395
 21
710.99357311320819
  0
LINE
  8
_0-1_計細線
  6
CONTINUOUS
 62
    3
 10
311.16328124999569
 20
509.99357311320955
 11
299.76328124999509
 21
509.99357311320955
  0
LINE
  8
_0-1_計細線
  6
CONTINUOUS
 62
    3
 10
311.16328124999455
 20
710.99357311320819
 11
299.76328124999395
 21
710.99357311320819
  0
LINE
  8
_0-0_計極細
  6
CONTINUOUS
 62
    2
 10
302.96328124999536
 20
509.99357311320955
 11
302.96328124999422
 21
710.99357311320819
  0
LINE
  8
_0-0_計極細
  6
CONTINUOUS
 62
    2
 10
307.96328124999536
 20
509.99357311320955
 11
307.96328124999422
 21
710.99357311320819
  0
LINE
  8
_0-1_計細線
  6
CONTINUOUS
 62
    3
 10
293.7632812499956
 20
509.99357311320955
 11
293.76328124999446
 21
710.99357311320819
  0
LINE
  8
_0-1_計細線
  6
CONTINUOUS
 62
    3
 10
282.363281249995
 20
509.99357311320955
 11
282.36328124999386
 21
710.99357311320819
  0
LINE
  8
_0-1_計細線
  6
CONTINUOUS
 62
    3
 10
293.7632812499956
 20
509.99357311320955
 11
282.363281249995
 21
509.99357311320955
  0
LINE
  8
_0-1_計細線
  6
CONTINUOUS
 62
    3
 10
293.76328124999446
 20
710.99357311320819
 11
282.36328124999386
 21
710.99357311320819
  0
LINE
  8
_0-0_計極細
  6
CONTINUOUS
 62
    2
 10
285.56328124999527
 20
509.99357311320955
 11
285.56328124999413
 21
710.99357311320819
  0
LINE
  8
_0-0_計極細
  6
CONTINUOUS
 62
    2
 10
290.56328124999527
 20
509.99357311320955
 11
290.56328124999413
 21
710.99357311320819
  0
LINE
  8
_0-1_計細線
  6
CONTINUOUS
 62
    3
 10
276.36328124999568
 20
509.99357311320955
 11
276.36328124999454
 21
710.99357311320819
  0
LINE
  8
_0-1_計細線
  6
CONTINUOUS
 62
    3
 10
264.96328124999513
 20
509.99357311320955
 11
264.963281249994
 21
710.99357311320819
  0
LINE
  8
_0-1_計細線
  6
CONTINUOUS
 62
    3
 10
276.36328124999568
 20
509.99357311320955
 11
264.96328124999513
 21
509.99357311320955
  0
LINE
  8
_0-1_計細線
  6
CONTINUOUS
 62
    3
 10
276.36328124999454
 20
710.99357311320819
 11
264.963281249994
 21
710.99357311320819
  0
LINE
  8
_0-0_計極細
  6
CONTINUOUS
 62
    2
 10
268.16328124999541
 20
509.99357311320955
 11
268.16328124999427
 21
710.99357311320819
  0
LINE
  8
_0-0_計極細
  6
CONTINUOUS
 62
    2
 10
273.16328124999541
 20
509.99357311320955
 11
273.16328124999427
 21
710.99357311320819
  0
LINE
  8
_0-1_計細線
  6
CONTINUOUS
 62
    3
 10
258.96328124999582
 20
509.99357311320955
 11
258.96328124999468
 21
710.99357311320819
  0
LINE
  8
_0-1_計細線
  6
CONTINUOUS
 62
    3
 10
247.56328124999527
 20
509.99357311320955
 11
247.56328124999413
 21
710.99357311320819
  0
LINE
  8
_0-1_計細線
  6
CONTINUOUS
 62
    3
 10
258.96328124999582
 20
509.99357311320955
 11
247.56328124999527
 21
509.99357311320955
  0
LINE
  8
_0-1_計細線
  6
CONTINUOUS
 62
    3
 10
258.96328124999468
 20
710.99357311320819
 11
247.56328124999413
 21
710.99357311320819
  0
LINE
  8
_0-0_計極細
  6
CONTINUOUS
 62
    2
 10
250.76328124999554
 20
509.99357311320955
 11
250.76328124999441
 21
710.99357311320819
  0
LINE
  8
_0-0_計極細
  6
CONTINUOUS
 62
    2
 10
255.76328124999554
 20
509.99357311320955
 11
255.76328124999441
 21
710.99357311320819
  0
LINE
  8
_0-1_計細線
  6
CONTINUOUS
 62
    3
 10
241.56328124999595
 20
509.99357311320955
 11
241.56328124999482
 21
710.99357311320819
  0
LINE
  8
_0-1_計細線
  6
CONTINUOUS
 62
    3
 10
230.16328124999546
 20
509.99357311320955
 11
230.16328124999433
 21
710.99357311320819
  0
LINE
  8
_0-1_計細線
  6
CONTINUOUS
 62
    3
 10
241.56328124999595
 20
509.99357311320955
 11
230.16328124999546
 21
509.99357311320955
  0
LINE
  8
_0-1_計細線
  6
CONTINUOUS
 62
    3
 10
241.56328124999482
 20
710.99357311320819
 11
230.16328124999433
 21
710.99357311320819
  0
LINE
  8
_0-0_計極細
  6
CONTINUOUS
 62
    2
 10
233.36328124999568
 20
509.99357311320955
 11
233.36328124999454
 21
710.99357311320819
  0
LINE
  8
_0-0_計極細
  6
CONTINUOUS
 62
    2
 10
238.36328124999568
 20
509.99357311320955
 11
238.36328124999454
 21
710.99357311320819
  0
LINE
  8
_0-1_計細線
  6
CONTINUOUS
 62
    3
 10
208.66328124999114
 20
685.49357311320693
 11
230.16328124999248
 21
685.49357311320693
  0
LINE
  8
_0-1_計細線
  6
CONTINUOUS
 62
    3
 10
208.66328124999114
 20
535.49357311320819
 11
230.16328124999248
 21
535.49357311320819
  0
LINE
  8
_0-0_計極細
  6
CONTINUOUS
 62
    2
 10
1200.7632812499942
 20
549.9935731132091
 11
1195.1632812499938
 21
549.9935731132091
  0
LINE
  8
_0-0_計極細
  6
CONTINUOUS
 62
    2
 10
1200.7632812499942
 20
562.9935731132091
 11
1195.1632812499938
 21
562.9935731132091
  0
LINE
  8
_0-0_計極細
  6
CONTINUOUS
 62
    2
 10
1200.7632812499944
 20
657.99357311320921
 11
1195.163281249994
 21
657.99357311320921
  0
LINE
  8
_0-0_計極細
  6
CONTINUOUS
 62
    2
 10
1200.7632812499944
 20
670.9935731132091
 11
1195.163281249994
 21
670.9935731132091
  0
LINE
  8
_0-0_計極細
  6
CONTINUOUS
 62
    2
 10
1183.7632812499933
 20
549.99357311320932
 11
1178.1632812499931
 21
549.99357311320932
  0
LINE
  8
_0-0_計極細
  6
CONTINUOUS
 62
    2
 10
1183.7632812499933
 20
562.99357311320932
 11
1178.1632812499931
 21
562.99357311320932
  0
LINE
  8
_0-0_計極細
  6
CONTINUOUS
 62
    2
 10
1183.7632812499937
 20
657.99357311320932
 11
1178.1632812499934
 21
657.99357311320932
  0
LINE
  8
_0-0_計極細
  6
CONTINUOUS
 62
    2
 10
1183.7632812499937
 20
670.99357311320932
 11
1178.1632812499934
 21
670.99357311320932
  0
LINE
  8
_0-0_計極細
  6
CONTINUOUS
 62
    2
 10
1161.1632812499972
 20
549.99357311320932
 11
1166.7632812499971
 21
549.99357311320932
  0
LINE
  8
_0-0_計極細
  6
CONTINUOUS
 62
    2
 10
1161.1632812499972
 20
562.99357311320932
 11
1166.7632812499971
 21
562.99357311320932
  0
LINE
  8
_0-0_計極細
  6
CONTINUOUS
 62
    2
 10
1161.1632812499972
 20
657.99357311320932
 11
1166.7632812499974
 21
657.99357311320932
  0
LINE
  8
_0-0_計極細
  6
CONTINUOUS
 62
    2
 10
1161.1632812499972
 20
670.99357311320932
 11
1166.7632812499974
 21
670.99357311320932
  0
LINE
  8
_0-0_計極細
  6
CONTINUOUS
 62
    2
 10
1144.1632812499965
 20
549.9935731132091
 11
1149.7632812499967
 21
549.9935731132091
  0
LINE
  8
_0-0_計極細
  6
CONTINUOUS
 62
    2
 10
1144.1632812499968
 20
562.9935731132091
 11
1149.7632812499967
 21
562.9935731132091
  0
LINE
  8
_0-0_計極細
  6
CONTINUOUS
 62
    2
 10
1127.1632812499961
 20
549.9935731132091
 11
1132.763281249996
 21
549.9935731132091
  0
LINE
  8
_0-0_計極細
  6
CONTINUOUS
 62
    2
 10
1127.1632812499961
 20
562.9935731132091
 11
1132.7632812499962
 21
562.9935731132091
  0
LINE
  8
_0-0_計極細
  6
CONTINUOUS
 62
    2
 10
1127.1632812499963
 20
657.99357311320921
 11
1132.7632812499962
 21
657.99357311320921
  0
LINE
  8
_0-0_計極細
  6
CONTINUOUS
 62
    2
 10
1127.1632812499963
 20
670.9935731132091
 11
1132.7632812499962
 21
670.9935731132091
  0
LINE
  8
_0-0_計極細
  6
CONTINUOUS
 62
    2
 10
1110.163281249995
 20
549.99357311320932
 11
1115.7632812499955
 21
549.99357311320932
  0
LINE
  8
_0-0_計極細
  6
CONTINUOUS
 62
    2
 10
1110.163281249995
 20
562.99357311320932
 11
1115.7632812499955
 21
562.99357311320932
  0
LINE
  8
_0-0_計極細
  6
CONTINUOUS
 62
    2
 10
1110.1632812499952
 20
657.99357311320932
 11
1115.7632812499958
 21
657.99357311320932
  0
LINE
  8
_0-0_計極細
  6
CONTINUOUS
 62
    2
 10
1110.1632812499952
 20
670.99357311320932
 11
1115.7632812499958
 21
670.99357311320932
  0
LINE
  8
_0-0_計極細
  6
CONTINUOUS
 62
    2
 10
1093.1632812499952
 20
549.99357311320932
 11
1098.7632812499953
 21
549.99357311320932
  0
LINE
  8
_0-0_計極細
  6
CONTINUOUS
 62
    2
 10
1093.1632812499952
 20
562.99357311320932
 11
1098.7632812499953
 21
562.99357311320932
  0
LINE
  8
_0-0_計極細
  6
CONTINUOUS
 62
    2
 10
1144.1632812499979
 20
657.99357311320921
 11
1149.7632812499976
 21
657.99357311320921
  0
LINE
  8
_0-0_計極細
  6
CONTINUOUS
 62
    2
 10
1144.1632812499979
 20
670.9935731132091
 11
1149.7632812499976
 21
670.9935731132091
  0
LINE
  8
_0-0_計極細
  6
CONTINUOUS
 62
    2
 10
1081.7632812499946
 20
549.9935731132091
 11
1076.1632812499945
 21
549.9935731132091
  0
LINE
  8
_0-0_計極細
  6
CONTINUOUS
 62
    2
 10
1081.7632812499946
 20
562.9935731132091
 11
1076.1632812499945
 21
562.9935731132091
  0
LINE
  8
_0-0_計極細
  6
CONTINUOUS
 62
    2
 10
1081.7632812499949
 20
657.99357311320921
 11
1076.1632812499945
 21
657.99357311320921
  0
LINE
  8
_0-0_計極細
  6
CONTINUOUS
 62
    2
 10
1081.7632812499949
 20
670.9935731132091
 11
1076.1632812499945
 21
670.9935731132091
  0
LINE
  8
_0-0_計極細
  6
CONTINUOUS
 62
    2
 10
1217.7632812499962
 20
549.9935731132091
 11
1212.1632812499959
 21
549.9935731132091
  0
LINE
  8
_0-0_計極細
  6
CONTINUOUS
 62
    2
 10
1217.7632812499962
 20
562.9935731132091
 11
1212.1632812499959
 21
562.9935731132091
  0
LINE
  8
_0-0_計極細
  6
CONTINUOUS
 62
    2
 10
1217.7632812499965
 20
657.99357311320921
 11
1212.1632812499961
 21
657.99357311320921
  0
LINE
  8
_0-0_計極細
  6
CONTINUOUS
 62
    2
 10
1217.7632812499965
 20
670.9935731132091
 11
1212.1632812499961
 21
670.9935731132091
  0
LINE
  8
_0-0_計極細
  6
CONTINUOUS
 62
    2
 10
1064.7632812499951
 20
549.9935731132091
 11
1059.1632812499947
 21
549.9935731132091
  0
LINE
  8
_0-0_計極細
  6
CONTINUOUS
 62
    2
 10
1064.7632812499951
 20
562.9935731132091
 11
1059.1632812499947
 21
562.9935731132091
  0
LINE
  8
_0-0_計極細
  6
CONTINUOUS
 62
    2
 10
1064.7632812499951
 20
657.99357311320921
 11
1059.163281249995
 21
657.99357311320921
  0
LINE
  8
_0-0_計極細
  6
CONTINUOUS
 62
    2
 10
1064.7632812499951
 20
670.9935731132091
 11
1059.163281249995
 21
670.9935731132091
  0
LINE
  8
_0-0_計極細
  6
CONTINUOUS
 62
    2
 10
1047.7632812499949
 20
549.9935731132091
 11
1042.1632812499947
 21
549.9935731132091
  0
LINE
  8
_0-0_計極細
  6
CONTINUOUS
 62
    2
 10
1047.7632812499949
 20
562.9935731132091
 11
1042.1632812499947
 21
562.9935731132091
  0
LINE
  8
_0-0_計極細
  6
CONTINUOUS
 62
    2
 10
1047.7632812499951
 20
657.99357311320921
 11
1042.1632812499952
 21
657.99357311320921
  0
LINE
  8
_0-0_計極細
  6
CONTINUOUS
 62
    2
 10
1047.7632812499951
 20
670.9935731132091
 11
1042.1632812499952
 21
670.9935731132091
  0
LINE
  8
_0-0_計極細
  6
CONTINUOUS
 62
    2
 10
1030.7632812499949
 20
549.9935731132091
 11
1025.1632812499947
 21
549.9935731132091
  0
LINE
  8
_0-0_計極細
  6
CONTINUOUS
 62
    2
 10
1030.7632812499949
 20
562.9935731132091
 11
1025.1632812499947
 21
562.9935731132091
  0
LINE
  8
_0-0_計極細
  6
CONTINUOUS
 62
    2
 10
1030.7632812499951
 20
657.99357311320921
 11
1025.163281249995
 21
657.99357311320921
  0
LINE
  8
_0-0_計極細
  6
CONTINUOUS
 62
    2
 10
1030.7632812499951
 20
670.9935731132091
 11
1025.163281249995
 21
670.9935731132091
  0
LINE
  8
_0-0_計極細
  6
CONTINUOUS
 62
    2
 10
1013.7632812499949
 20
549.9935731132091
 11
1008.1632812499947
 21
549.9935731132091
  0
LINE
  8
_0-0_計極細
  6
CONTINUOUS
 62
    2
 10
1013.7632812499949
 20
562.9935731132091
 11
1008.1632812499947
 21
562.9935731132091
  0
LINE
  8
_0-0_計極細
  6
CONTINUOUS
 62
    2
 10
1013.7632812499952
 20
657.99357311320921
 11
1008.1632812499948
 21
657.99357311320921
  0
LINE
  8
_0-0_計極細
  6
CONTINUOUS
 62
    2
 10
1013.7632812499952
 20
670.9935731132091
 11
1008.1632812499948
 21
670.9935731132091
  0
LINE
  8
_0-0_計極細
  6
CONTINUOUS
 62
    2
 10
996.76328124999486
 20
549.9935731132091
 11
991.16328124999484
 21
549.9935731132091
  0
LINE
  8
_0-0_計極細
  6
CONTINUOUS
 62
    2
 10
996.76328124999486
 20
562.9935731132091
 11
991.16328124999484
 21
562.9935731132091
  0
LINE
  8
_0-0_計極細
  6
CONTINUOUS
 62
    2
 10
996.76328124999509
 20
657.99357311320921
 11
991.16328124999484
 21
657.99357311320921
  0
LINE
  8
_0-0_計極細
  6
CONTINUOUS
 62
    2
 10
996.76328124999509
 20
670.9935731132091
 11
991.16328124999484
 21
670.9935731132091
  0
LINE
  8
_0-0_計極細
  6
CONTINUOUS
 62
    2
 10
979.76328124999498
 20
549.9935731132091
 11
974.16328124999484
 21
549.9935731132091
  0
LINE
  8
_0-0_計極細
  6
CONTINUOUS
 62
    2
 10
979.76328124999498
 20
562.9935731132091
 11
974.16328124999484
 21
562.9935731132091
  0
LINE
  8
_0-0_計極細
  6
CONTINUOUS
 62
    2
 10
979.76328124999509
 20
657.99357311320921
 11
974.16328124999495
 21
657.99357311320921
  0
LINE
  8
_0-0_計極細
  6
CONTINUOUS
 62
    2
 10
979.76328124999509
 20
670.9935731132091
 11
974.16328124999495
 21
670.9935731132091
  0
LINE
  8
_0-0_計極細
  6
CONTINUOUS
 62
    2
 10
962.76328124999498
 20
549.9935731132091
 11
957.16328124999472
 21
549.9935731132091
  0
LINE
  8
_0-0_計極細
  6
CONTINUOUS
 62
    2
 10
962.76328124999498
 20
562.9935731132091
 11
957.16328124999472
 21
562.9935731132091
  0
LINE
  8
_0-0_計極細
  6
CONTINUOUS
 62
    2
 10
962.76328124999509
 20
657.99357311320921
 11
957.16328124999495
 21
657.99357311320921
  0
LINE
  8
_0-0_計極細
  6
CONTINUOUS
 62
    2
 10
962.76328124999509
 20
670.9935731132091
 11
957.16328124999495
 21
670.9935731132091
  0
LINE
  8
_0-0_計極細
  6
CONTINUOUS
 62
    2
 10
945.76328124999486
 20
549.9935731132091
 11
940.16328124999472
 21
549.9935731132091
  0
LINE
  8
_0-0_計極細
  6
CONTINUOUS
 62
    2
 10
945.76328124999486
 20
562.9935731132091
 11
940.16328124999472
 21
562.9935731132091
  0
LINE
  8
_0-0_計極細
  6
CONTINUOUS
 62
    2
 10
945.7632812499952
 20
657.99357311320921
 11
940.16328124999495
 21
657.99357311320921
  0
LINE
  8
_0-0_計極細
  6
CONTINUOUS
 62
    2
 10
945.7632812499952
 20
670.9935731132091
 11
940.16328124999495
 21
670.9935731132091
  0
LINE
  8
_0-0_計極細
  6
CONTINUOUS
 62
    2
 10
928.76328124999486
 20
549.9935731132091
 11
923.16328124999472
 21
549.9935731132091
  0
LINE
  8
_0-0_計極細
  6
CONTINUOUS
 62
    2
 10
928.76328124999486
 20
562.9935731132091
 11
923.16328124999472
 21
562.9935731132091
  0
LINE
  8
_0-0_計極細
  6
CONTINUOUS
 62
    2
 10
928.7632812499952
 20
657.99357311320921
 11
923.16328124999484
 21
657.99357311320921
  0
LINE
  8
_0-0_計極細
  6
CONTINUOUS
 62
    2
 10
928.7632812499952
 20
670.9935731132091
 11
923.16328124999484
 21
670.9935731132091
  0
LINE
  8
_0-0_計極細
  6
CONTINUOUS
 62
    2
 10
911.76328124999486
 20
549.9935731132091
 11
906.16328124999484
 21
549.9935731132091
  0
LINE
  8
_0-0_計極細
  6
CONTINUOUS
 62
    2
 10
911.76328124999486
 20
562.9935731132091
 11
906.16328124999484
 21
562.9935731132091
  0
LINE
  8
_0-0_計極細
  6
CONTINUOUS
 62
    2
 10
911.76328124999509
 20
657.99357311320921
 11
906.16328124999484
 21
657.99357311320921
  0
LINE
  8
_0-0_計極細
  6
CONTINUOUS
 62
    2
 10
911.76328124999509
 20
670.9935731132091
 11
906.16328124999484
 21
670.9935731132091
  0
LINE
  8
_0-0_計極細
  6
CONTINUOUS
 62
    2
 10
894.76328124999498
 20
549.9935731132091
 11
889.16328124999484
 21
549.9935731132091
  0
LINE
  8
_0-0_計極細
  6
CONTINUOUS
 62
    2
 10
894.76328124999498
 20
562.9935731132091
 11
889.16328124999484
 21
562.9935731132091
  0
LINE
  8
_0-0_計極細
  6
CONTINUOUS
 62
    2
 10
894.76328124999509
 20
657.99357311320921
 11
889.16328124999495
 21
657.99357311320921
  0
LINE
  8
_0-0_計極細
  6
CONTINUOUS
 62
    2
 10
894.76328124999509
 20
670.9935731132091
 11
889.16328124999495
 21
670.9935731132091
  0
LINE
  8
_0-0_計極細
  6
CONTINUOUS
 62
    2
 10
877.76328124999498
 20
549.9935731132091
 11
872.16328124999472
 21
549.9935731132091
  0
LINE
  8
_0-0_計極細
  6
CONTINUOUS
 62
    2
 10
877.76328124999498
 20
562.9935731132091
 11
872.16328124999472
 21
562.9935731132091
  0
LINE
  8
_0-0_計極細
  6
CONTINUOUS
 62
    2
 10
877.76328124999509
 20
657.99357311320921
 11
872.16328124999495
 21
657.99357311320921
  0
LINE
  8
_0-0_計極細
  6
CONTINUOUS
 62
    2
 10
877.76328124999509
 20
670.9935731132091
 11
872.16328124999495
 21
670.9935731132091
  0
LINE
  8
_0-0_計極細
  6
CONTINUOUS
 62
    2
 10
860.76328124999486
 20
549.9935731132091
 11
855.16328124999472
 21
549.9935731132091
  0
LINE
  8
_0-0_計極細
  6
CONTINUOUS
 62
    2
 10
860.76328124999486
 20
562.9935731132091
 11
855.16328124999472
 21
562.9935731132091
  0
LINE
  8
_0-0_計極細
  6
CONTINUOUS
 62
    2
 10
860.7632812499952
 20
657.99357311320921
 11
855.16328124999495
 21
657.99357311320921
  0
LINE
  8
_0-0_計極細
  6
CONTINUOUS
 62
    2
 10
860.7632812499952
 20
670.9935731132091
 11
855.16328124999495
 21
670.9935731132091
  0
LINE
  8
_0-0_計極細
  6
CONTINUOUS
 62
    2
 10
843.76328124999486
 20
549.9935731132091
 11
838.16328124999472
 21
549.9935731132091
  0
LINE
  8
_0-0_計極細
  6
CONTINUOUS
 62
    2
 10
843.76328124999486
 20
562.9935731132091
 11
838.16328124999472
 21
562.9935731132091
  0
LINE
  8
_0-0_計極細
  6
CONTINUOUS
 62
    2
 10
843.7632812499952
 20
657.99357311320921
 11
838.16328124999484
 21
657.99357311320921
  0
LINE
  8
_0-0_計極細
  6
CONTINUOUS
 62
    2
 10
843.7632812499952
 20
670.9935731132091
 11
838.16328124999484
 21
670.9935731132091
  0
LINE
  8
_0-0_計極細
  6
CONTINUOUS
 62
    2
 10
826.76328124999486
 20
549.9935731132091
 11
821.16328124999484
 21
549.9935731132091
  0
LINE
  8
_0-0_計極細
  6
CONTINUOUS
 62
    2
 10
826.76328124999486
 20
562.9935731132091
 11
821.16328124999484
 21
562.9935731132091
  0
LINE
  8
_0-0_計極細
  6
CONTINUOUS
 62
    2
 10
826.76328124999509
 20
657.99357311320921
 11
821.16328124999484
 21
657.99357311320921
  0
LINE
  8
_0-0_計極細
  6
CONTINUOUS
 62
    2
 10
826.76328124999509
 20
670.9935731132091
 11
821.16328124999484
 21
670.9935731132091
  0
LINE
  8
_0-0_計極細
  6
CONTINUOUS
 62
    2
 10
809.76328124999498
 20
549.9935731132091
 11
804.16328124999484
 21
549.9935731132091
  0
LINE
  8
_0-0_計極細
  6
CONTINUOUS
 62
    2
 10
809.76328124999498
 20
562.9935731132091
 11
804.16328124999484
 21
562.9935731132091
  0
LINE
  8
_0-0_計極細
  6
CONTINUOUS
 62
    2
 10
809.76328124999509
 20
657.99357311320921
 11
804.16328124999495
 21
657.99357311320921
  0
LINE
  8
_0-0_計極細
  6
CONTINUOUS
 62
    2
 10
809.76328124999509
 20
670.9935731132091
 11
804.16328124999495
 21
670.9935731132091
  0
LINE
  8
_0-0_計極細
  6
CONTINUOUS
 62
    2
 10
792.76328124999498
 20
549.9935731132091
 11
787.16328124999472
 21
549.9935731132091
  0
LINE
  8
_0-0_計極細
  6
CONTINUOUS
 62
    2
 10
792.76328124999498
 20
562.9935731132091
 11
787.16328124999472
 21
562.9935731132091
  0
LINE
  8
_0-0_計極細
  6
CONTINUOUS
 62
    2
 10
792.76328124999509
 20
657.99357311320921
 11
787.16328124999495
 21
657.99357311320921
  0
LINE
  8
_0-0_計極細
  6
CONTINUOUS
 62
    2
 10
792.76328124999509
 20
670.9935731132091
 11
787.16328124999495
 21
670.9935731132091
  0
LINE
  8
_0-0_計極細
  6
CONTINUOUS
 62
    2
 10
775.76328124999486
 20
549.9935731132091
 11
770.16328124999472
 21
549.9935731132091
  0
LINE
  8
_0-0_計極細
  6
CONTINUOUS
 62
    2
 10
775.76328124999486
 20
562.9935731132091
 11
770.16328124999472
 21
562.9935731132091
  0
LINE
  8
_0-0_計極細
  6
CONTINUOUS
 62
    2
 10
775.7632812499952
 20
657.99357311320921
 11
770.16328124999495
 21
657.99357311320921
  0
LINE
  8
_0-0_計極細
  6
CONTINUOUS
 62
    2
 10
775.7632812499952
 20
670.9935731132091
 11
770.16328124999495
 21
670.9935731132091
  0
LINE
  8
_0-0_計極細
  6
CONTINUOUS
 62
    2
 10
758.76328124999486
 20
549.9935731132091
 11
753.16328124999472
 21
549.9935731132091
  0
LINE
  8
_0-0_計極細
  6
CONTINUOUS
 62
    2
 10
758.76328124999486
 20
562.9935731132091
 11
753.16328124999472
 21
562.9935731132091
  0
LINE
  8
_0-0_計極細
  6
CONTINUOUS
 62
    2
 10
758.7632812499952
 20
657.99357311320921
 11
753.16328124999484
 21
657.99357311320921
  0
LINE
  8
_0-0_計極細
  6
CONTINUOUS
 62
    2
 10
758.7632812499952
 20
670.9935731132091
 11
753.16328124999484
 21
670.9935731132091
  0
LINE
  8
_0-0_計極細
  6
CONTINUOUS
 62
    2
 10
741.76328124999486
 20
549.9935731132091
 11
736.16328124999472
 21
549.9935731132091
  0
LINE
  8
_0-0_計極細
  6
CONTINUOUS
 62
    2
 10
741.76328124999486
 20
562.9935731132091
 11
736.16328124999472
 21
562.9935731132091
  0
LINE
  8
_0-0_計極細
  6
CONTINUOUS
 62
    2
 10
741.76328124999509
 20
657.99357311320921
 11
736.16328124999484
 21
657.99357311320921
  0
LINE
  8
_0-0_計極細
  6
CONTINUOUS
 62
    2
 10
741.76328124999509
 20
670.9935731132091
 11
736.16328124999484
 21
670.9935731132091
  0
LINE
  8
_0-0_計極細
  6
CONTINUOUS
 62
    2
 10
724.76328124999486
 20
549.9935731132091
 11
719.16328124999484
 21
549.9935731132091
  0
LINE
  8
_0-0_計極細
  6
CONTINUOUS
 62
    2
 10
724.76328124999486
 20
562.9935731132091
 11
719.16328124999484
 21
562.9935731132091
  0
LINE
  8
_0-0_計極細
  6
CONTINUOUS
 62
    2
 10
724.76328124999509
 20
657.99357311320921
 11
719.16328124999484
 21
657.99357311320921
  0
LINE
  8
_0-0_計極細
  6
CONTINUOUS
 62
    2
 10
724.76328124999509
 20
670.9935731132091
 11
719.16328124999484
 21
670.9935731132091
  0
LINE
  8
_0-0_計極細
  6
CONTINUOUS
 62
    2
 10
707.76328124999498
 20
549.9935731132091
 11
702.16328124999472
 21
549.9935731132091
  0
LINE
  8
_0-0_計極細
  6
CONTINUOUS
 62
    2
 10
707.76328124999498
 20
562.9935731132091
 11
702.16328124999472
 21
562.9935731132091
  0
LINE
  8
_0-0_計極細
  6
CONTINUOUS
 62
    2
 10
707.76328124999509
 20
657.99357311320921
 11
702.16328124999495
 21
657.99357311320921
  0
LINE
  8
_0-0_計極細
  6
CONTINUOUS
 62
    2
 10
707.76328124999509
 20
670.9935731132091
 11
702.16328124999495
 21
670.9935731132091
  0
LINE
  8
_0-0_計極細
  6
CONTINUOUS
 62
    2
 10
690.76328124999486
 20
549.9935731132091
 11
685.16328124999472
 21
549.9935731132091
  0
LINE
  8
_0-0_計極細
  6
CONTINUOUS
 62
    2
 10
690.76328124999486
 20
562.9935731132091
 11
685.16328124999472
 21
562.9935731132091
  0
LINE
  8
_0-0_計極細
  6
CONTINUOUS
 62
    2
 10
690.76328124999509
 20
657.99357311320921
 11
685.16328124999495
 21
657.99357311320921
  0
LINE
  8
_0-0_計極細
  6
CONTINUOUS
 62
    2
 10
690.76328124999509
 20
670.9935731132091
 11
685.16328124999495
 21
670.9935731132091
  0
LINE
  8
_0-0_計極細
  6
CONTINUOUS
 62
    2
 10
673.76328124999486
 20
549.9935731132091
 11
668.16328124999472
 21
549.9935731132091
  0
LINE
  8
_0-0_計極細
  6
CONTINUOUS
 62
    2
 10
673.76328124999486
 20
562.9935731132091
 11
668.16328124999472
 21
562.9935731132091
  0
LINE
  8
_0-0_計極細
  6
CONTINUOUS
 62
    2
 10
673.7632812499952
 20
657.99357311320921
 11
668.16328124999484
 21
657.99357311320921
  0
LINE
  8
_0-0_計極細
  6
CONTINUOUS
 62
    2
 10
673.7632812499952
 20
670.9935731132091
 11
668.16328124999484
 21
670.9935731132091
  0
LINE
  8
_0-0_計極細
  6
CONTINUOUS
 62
    2
 10
656.76328124999486
 20
549.9935731132091
 11
651.16328124999472
 21
549.9935731132091
  0
LINE
  8
_0-0_計極細
  6
CONTINUOUS
 62
    2
 10
656.76328124999486
 20
562.9935731132091
 11
651.16328124999472
 21
562.9935731132091
  0
LINE
  8
_0-0_計極細
  6
CONTINUOUS
 62
    2
 10
656.76328124999509
 20
657.99357311320921
 11
651.16328124999484
 21
657.99357311320921
  0
LINE
  8
_0-0_計極細
  6
CONTINUOUS
 62
    2
 10
656.76328124999509
 20
670.9935731132091
 11
651.16328124999484
 21
670.9935731132091
  0
LINE
  8
_0-0_計極細
  6
CONTINUOUS
 62
    2
 10
639.76328124999486
 20
549.9935731132091
 11
634.16328124999472
 21
549.9935731132091
  0
LINE
  8
_0-0_計極細
  6
CONTINUOUS
 62
    2
 10
639.76328124999486
 20
562.9935731132091
 11
634.16328124999472
 21
562.9935731132091
  0
LINE
  8
_0-0_計極細
  6
CONTINUOUS
 62
    2
 10
639.76328124999509
 20
657.99357311320921
 11
634.16328124999484
 21
657.99357311320921
  0
LINE
  8
_0-0_計極細
  6
CONTINUOUS
 62
    2
 10
639.76328124999509
 20
670.9935731132091
 11
634.16328124999484
 21
670.9935731132091
  0
LINE
  8
_0-0_計極細
  6
CONTINUOUS
 62
    2
 10
622.76328124999486
 20
549.9935731132091
 11
617.16328124999472
 21
549.9935731132091
  0
LINE
  8
_0-0_計極細
  6
CONTINUOUS
 62
    2
 10
622.76328124999486
 20
562.9935731132091
 11
617.16328124999472
 21
562.9935731132091
  0
LINE
  8
_0-0_計極細
  6
CONTINUOUS
 62
    2
 10
622.76328124999509
 20
657.99357311320921
 11
617.16328124999484
 21
657.99357311320921
  0
LINE
  8
_0-0_計極細
  6
CONTINUOUS
 62
    2
 10
622.76328124999509
 20
670.9935731132091
 11
617.16328124999484
 21
670.9935731132091
  0
LINE
  8
_0-0_計極細
  6
CONTINUOUS
 62
    2
 10
605.76328124999486
 20
549.9935731132091
 11
600.16328124999472
 21
549.9935731132091
  0
LINE
  8
_0-0_計極細
  6
CONTINUOUS
 62
    2
 10
605.76328124999486
 20
562.9935731132091
 11
600.16328124999472
 21
562.9935731132091
  0
LINE
  8
_0-0_計極細
  6
CONTINUOUS
 62
    2
 10
605.76328124999509
 20
657.99357311320921
 11
600.16328124999495
 21
657.99357311320921
  0
LINE
  8
_0-0_計極細
  6
CONTINUOUS
 62
    2
 10
605.76328124999509
 20
670.9935731132091
 11
600.16328124999495
 21
670.9935731132091
  0
LINE
  8
_0-0_計極細
  6
CONTINUOUS
 62
    2
 10
588.76328124999486
 20
549.9935731132091
 11
583.16328124999472
 21
549.9935731132091
  0
LINE
  8
_0-0_計極細
  6
CONTINUOUS
 62
    2
 10
588.76328124999486
 20
562.9935731132091
 11
583.16328124999472
 21
562.9935731132091
  0
LINE
  8
_0-0_計極細
  6
CONTINUOUS
 62
    2
 10
588.76328124999509
 20
657.99357311320921
 11
583.16328124999484
 21
657.99357311320921
  0
LINE
  8
_0-0_計極細
  6
CONTINUOUS
 62
    2
 10
588.76328124999509
 20
670.9935731132091
 11
583.16328124999484
 21
670.9935731132091
  0
LINE
  8
_0-0_計極細
  6
CONTINUOUS
 62
    2
 10
571.76328124999486
 20
549.9935731132091
 11
566.16328124999472
 21
549.9935731132091
  0
LINE
  8
_0-0_計極細
  6
CONTINUOUS
 62
    2
 10
571.76328124999486
 20
562.9935731132091
 11
566.16328124999472
 21
562.9935731132091
  0
LINE
  8
_0-0_計極細
  6
CONTINUOUS
 62
    2
 10
571.76328124999509
 20
657.99357311320921
 11
566.16328124999484
 21
657.99357311320921
  0
LINE
  8
_0-0_計極細
  6
CONTINUOUS
 62
    2
 10
571.76328124999509
 20
670.9935731132091
 11
566.16328124999484
 21
670.9935731132091
  0
LINE
  8
_0-0_計極細
  6
CONTINUOUS
 62
    2
 10
554.76328124999486
 20
549.9935731132091
 11
549.16328124999472
 21
549.9935731132091
  0
LINE
  8
_0-0_計極細
  6
CONTINUOUS
 62
    2
 10
554.76328124999486
 20
562.9935731132091
 11
549.16328124999472
 21
562.9935731132091
  0
LINE
  8
_0-0_計極細
  6
CONTINUOUS
 62
    2
 10
554.76328124999509
 20
657.99357311320921
 11
549.16328124999484
 21
657.99357311320921
  0
LINE
  8
_0-0_計極細
  6
CONTINUOUS
 62
    2
 10
554.76328124999509
 20
670.9935731132091
 11
549.16328124999484
 21
670.9935731132091
  0
LINE
  8
_0-0_計極細
  6
CONTINUOUS
 62
    2
 10
537.76328124999486
 20
549.9935731132091
 11
532.16328124999472
 21
549.9935731132091
  0
LINE
  8
_0-0_計極細
  6
CONTINUOUS
 62
    2
 10
537.76328124999486
 20
562.9935731132091
 11
532.16328124999472
 21
562.9935731132091
  0
LINE
  8
_0-0_計極細
  6
CONTINUOUS
 62
    2
 10
537.76328124999509
 20
657.99357311320921
 11
532.16328124999484
 21
657.99357311320921
  0
LINE
  8
_0-0_計極細
  6
CONTINUOUS
 62
    2
 10
537.76328124999509
 20
670.9935731132091
 11
532.16328124999484
 21
670.9935731132091
  0
LINE
  8
_0-0_計極細
  6
CONTINUOUS
 62
    2
 10
520.76328124999486
 20
549.9935731132091
 11
515.16328124999472
 21
549.9935731132091
  0
LINE
  8
_0-0_計極細
  6
CONTINUOUS
 62
    2
 10
520.76328124999486
 20
562.9935731132091
 11
515.16328124999472
 21
562.9935731132091
  0
LINE
  8
_0-0_計極細
  6
CONTINUOUS
 62
    2
 10
520.76328124999509
 20
657.99357311320921
 11
515.16328124999495
 21
657.99357311320921
  0
LINE
  8
_0-0_計極細
  6
CONTINUOUS
 62
    2
 10
520.76328124999509
 20
670.9935731132091
 11
515.16328124999495
 21
670.9935731132091
  0
LINE
  8
_0-0_計極細
  6
CONTINUOUS
 62
    2
 10
503.76328124999486
 20
549.9935731132091
 11
498.16328124999472
 21
549.9935731132091
  0
LINE
  8
_0-0_計極細
  6
CONTINUOUS
 62
    2
 10
503.76328124999486
 20
562.9935731132091
 11
498.16328124999472
 21
562.9935731132091
  0
LINE
  8
_0-0_計極細
  6
CONTINUOUS
 62
    2
 10
503.76328124999509
 20
657.99357311320921
 11
498.16328124999484
 21
657.99357311320921
  0
LINE
  8
_0-0_計極細
  6
CONTINUOUS
 62
    2
 10
503.76328124999509
 20
670.9935731132091
 11
498.16328124999484
 21
670.9935731132091
  0
LINE
  8
_0-0_計極細
  6
CONTINUOUS
 62
    2
 10
486.76328124999486
 20
549.9935731132091
 11
481.16328124999478
 21
549.9935731132091
  0
LINE
  8
_0-0_計極細
  6
CONTINUOUS
 62
    2
 10
486.76328124999486
 20
562.9935731132091
 11
481.16328124999478
 21
562.9935731132091
  0
LINE
  8
_0-0_計極細
  6
CONTINUOUS
 62
    2
 10
486.76328124999515
 20
657.99357311320921
 11
481.16328124999484
 21
657.99357311320921
  0
LINE
  8
_0-0_計極細
  6
CONTINUOUS
 62
    2
 10
486.76328124999515
 20
670.9935731132091
 11
481.16328124999484
 21
670.9935731132091
  0
LINE
  8
_0-0_計極細
  6
CONTINUOUS
 62
    2
 10
469.76328124999492
 20
549.9935731132091
 11
464.16328124999472
 21
549.9935731132091
  0
LINE
  8
_0-0_計極細
  6
CONTINUOUS
 62
    2
 10
469.76328124999492
 20
562.9935731132091
 11
464.16328124999472
 21
562.9935731132091
  0
LINE
  8
_0-0_計極細
  6
CONTINUOUS
 62
    2
 10
469.76328124999509
 20
657.99357311320921
 11
464.1632812499949
 21
657.99357311320921
  0
LINE
  8
_0-0_計極細
  6
CONTINUOUS
 62
    2
 10
469.76328124999509
 20
670.9935731132091
 11
464.1632812499949
 21
670.9935731132091
  0
LINE
  8
_0-0_計極細
  6
CONTINUOUS
 62
    2
 10
452.76328124999486
 20
549.9935731132091
 11
447.16328124999478
 21
549.9935731132091
  0
LINE
  8
_0-0_計極細
  6
CONTINUOUS
 62
    2
 10
452.76328124999486
 20
562.9935731132091
 11
447.16328124999478
 21
562.9935731132091
  0
LINE
  8
_0-0_計極細
  6
CONTINUOUS
 62
    2
 10
452.76328124999509
 20
657.99357311320921
 11
447.16328124999501
 21
657.99357311320921
  0
LINE
  8
_0-0_計極細
  6
CONTINUOUS
 62
    2
 10
452.76328124999509
 20
670.9935731132091
 11
447.16328124999501
 21
670.9935731132091
  0
LINE
  8
_0-0_計極細
  6
CONTINUOUS
 62
    2
 10
435.76328124999492
 20
549.9935731132091
 11
430.16328124999472
 21
549.9935731132091
  0
LINE
  8
_0-0_計極細
  6
CONTINUOUS
 62
    2
 10
435.76328124999492
 20
562.9935731132091
 11
430.16328124999472
 21
562.9935731132091
  0
LINE
  8
_0-0_計極細
  6
CONTINUOUS
 62
    2
 10
435.76328124999515
 20
657.99357311320921
 11
430.16328124999495
 21
657.99357311320921
  0
LINE
  8
_0-0_計極細
  6
CONTINUOUS
 62
    2
 10
435.76328124999515
 20
670.9935731132091
 11
430.16328124999495
 21
670.9935731132091
  0
LINE
  8
_0-0_計極細
  6
CONTINUOUS
 62
    2
 10
418.76328124999486
 20
549.9935731132091
 11
413.16328124999472
 21
549.9935731132091
  0
LINE
  8
_0-0_計極細
  6
CONTINUOUS
 62
    2
 10
418.76328124999486
 20
562.9935731132091
 11
413.16328124999472
 21
562.9935731132091
  0
LINE
  8
_0-0_計極細
  6
CONTINUOUS
 62
    2
 10
418.76328124999509
 20
657.99357311320921
 11
413.16328124999501
 21
657.99357311320921
  0
LINE
  8
_0-0_計極細
  6
CONTINUOUS
 62
    2
 10
418.76328124999509
 20
670.9935731132091
 11
413.16328124999501
 21
670.9935731132091
  0
LINE
  8
_0-0_計極細
  6
CONTINUOUS
 62
    2
 10
401.76328124999486
 20
549.9935731132091
 11
396.16328124999478
 21
549.9935731132091
  0
LINE
  8
_0-0_計極細
  6
CONTINUOUS
 62
    2
 10
401.76328124999486
 20
562.9935731132091
 11
396.16328124999478
 21
562.9935731132091
  0
LINE
  8
_0-0_計極細
  6
CONTINUOUS
 62
    2
 10
401.76328124999515
 20
657.99357311320921
 11
396.16328124999495
 21
657.99357311320921
  0
LINE
  8
_0-0_計極細
  6
CONTINUOUS
 62
    2
 10
401.76328124999515
 20
670.9935731132091
 11
396.16328124999495
 21
670.9935731132091
  0
LINE
  8
_0-0_計極細
  6
CONTINUOUS
 62
    2
 10
384.76328124999492
 20
549.9935731132091
 11
379.16328124999472
 21
549.9935731132091
  0
LINE
  8
_0-0_計極細
  6
CONTINUOUS
 62
    2
 10
384.76328124999492
 20
562.9935731132091
 11
379.16328124999472
 21
562.9935731132091
  0
LINE
  8
_0-0_計極細
  6
CONTINUOUS
 62
    2
 10
384.76328124999509
 20
657.99357311320921
 11
379.16328124999495
 21
657.99357311320921
  0
LINE
  8
_0-0_計極細
  6
CONTINUOUS
 62
    2
 10
384.76328124999509
 20
670.9935731132091
 11
379.16328124999495
 21
670.9935731132091
  0
LINE
  8
_0-0_計極細
  6
CONTINUOUS
 62
    2
 10
367.76328124999486
 20
549.9935731132091
 11
362.16328124999472
 21
549.9935731132091
  0
LINE
  8
_0-0_計極細
  6
CONTINUOUS
 62
    2
 10
367.76328124999486
 20
562.9935731132091
 11
362.16328124999472
 21
562.9935731132091
  0
LINE
  8
_0-0_計極細
  6
CONTINUOUS
 62
    2
 10
367.76328124999509
 20
657.99357311320921
 11
362.16328124999501
 21
657.99357311320921
  0
LINE
  8
_0-0_計極細
  6
CONTINUOUS
 62
    2
 10
367.76328124999509
 20
670.9935731132091
 11
362.16328124999501
 21
670.9935731132091
  0
LINE
  8
_0-0_計極細
  6
CONTINUOUS
 62
    2
 10
350.76328124999486
 20
549.9935731132091
 11
345.16328124999472
 21
549.9935731132091
  0
LINE
  8
_0-0_計極細
  6
CONTINUOUS
 62
    2
 10
350.76328124999486
 20
562.9935731132091
 11
345.16328124999472
 21
562.9935731132091
  0
LINE
  8
_0-0_計極細
  6
CONTINUOUS
 62
    2
 10
350.76328124999515
 20
657.99357311320921
 11
345.16328124999472
 21
657.99357311320921
  0
LINE
  8
_0-0_計極細
  6
CONTINUOUS
 62
    2
 10
350.76328124999515
 20
670.9935731132091
 11
345.16328124999472
 21
670.9935731132091
  0
LINE
  8
_0-0_計極細
  6
CONTINUOUS
 62
    2
 10
333.76328124999486
 20
549.9935731132091
 11
328.16328124999472
 21
549.9935731132091
  0
LINE
  8
_0-0_計極細
  6
CONTINUOUS
 62
    2
 10
333.76328124999486
 20
562.9935731132091
 11
328.16328124999472
 21
562.9935731132091
  0
LINE
  8
_0-0_計極細
  6
CONTINUOUS
 62
    2
 10
333.76328124999509
 20
657.99357311320921
 11
328.16328124999472
 21
657.99357311320921
  0
LINE
  8
_0-0_計極細
  6
CONTINUOUS
 62
    2
 10
333.76328124999509
 20
670.9935731132091
 11
328.16328124999472
 21
670.9935731132091
  0
LINE
  8
_0-0_計極細
  6
CONTINUOUS
 62
    2
 10
316.76328124999486
 20
549.9935731132091
 11
311.16328124999472
 21
549.9935731132091
  0
LINE
  8
_0-0_計極細
  6
CONTINUOUS
 62
    2
 10
316.76328124999486
 20
562.9935731132091
 11
311.16328124999472
 21
562.9935731132091
  0
LINE
  8
_0-0_計極細
  6
CONTINUOUS
 62
    2
 10
316.76328124999515
 20
657.99357311320921
 11
311.16328124999472
 21
657.99357311320921
  0
LINE
  8
_0-0_計極細
  6
CONTINUOUS
 62
    2
 10
316.76328124999515
 20
670.9935731132091
 11
311.16328124999472
 21
670.9935731132091
  0
LINE
  8
_0-0_計極細
  6
CONTINUOUS
 62
    2
 10
299.76328124999486
 20
549.9935731132091
 11
293.76328124999463
 21
549.9935731132091
  0
LINE
  8
_0-0_計極細
  6
CONTINUOUS
 62
    2
 10
299.76328124999486
 20
562.9935731132091
 11
293.76328124999463
 21
562.9935731132091
  0
LINE
  8
_0-0_計極細
  6
CONTINUOUS
 62
    2
 10
299.76328124999509
 20
657.99357311320921
 11
293.76328124999486
 21
657.99357311320921
  0
LINE
  8
_0-0_計極細
  6
CONTINUOUS
 62
    2
 10
299.76328124999509
 20
670.9935731132091
 11
293.76328124999486
 21
670.9935731132091
  0
LINE
  8
_0-0_計極細
  6
CONTINUOUS
 62
    2
 10
282.363281249995
 20
549.9935731132091
 11
276.36328124999477
 21
549.9935731132091
  0
LINE
  8
_0-0_計極細
  6
CONTINUOUS
 62
    2
 10
282.363281249995
 20
562.9935731132091
 11
276.36328124999477
 21
562.9935731132091
  0
LINE
  8
_0-0_計極細
  6
CONTINUOUS
 62
    2
 10
282.36328124999523
 20
657.99357311320921
 11
276.363281249995
 21
657.99357311320921
  0
LINE
  8
_0-0_計極細
  6
CONTINUOUS
 62
    2
 10
282.36328124999523
 20
670.9935731132091
 11
276.363281249995
 21
670.9935731132091
  0
LINE
  8
_0-0_計極細
  6
CONTINUOUS
 62
    2
 10
264.96328124999513
 20
549.9935731132091
 11
258.96328124999491
 21
549.9935731132091
  0
LINE
  8
_0-0_計極細
  6
CONTINUOUS
 62
    2
 10
264.96328124999513
 20
562.9935731132091
 11
258.96328124999491
 21
562.9935731132091
  0
LINE
  8
_0-0_計極細
  6
CONTINUOUS
 62
    2
 10
264.96328124999536
 20
657.99357311320921
 11
258.96328124999513
 21
657.99357311320921
  0
LINE
  8
_0-0_計極細
  6
CONTINUOUS
 62
    2
 10
264.96328124999536
 20
670.9935731132091
 11
258.96328124999513
 21
670.9935731132091
  0
LINE
  8
_0-0_計極細
  6
CONTINUOUS
 62
    2
 10
247.56328124999527
 20
549.9935731132091
 11
241.56328124999504
 21
549.9935731132091
  0
LINE
  8
_0-0_計極細
  6
CONTINUOUS
 62
    2
 10
247.56328124999527
 20
562.9935731132091
 11
241.56328124999504
 21
562.9935731132091
  0
LINE
  8
_0-0_計極細
  6
CONTINUOUS
 62
    2
 10
247.56328124999555
 20
657.99357311320921
 11
241.56328124999533
 21
657.99357311320921
  0
LINE
  8
_0-0_計極細
  6
CONTINUOUS
 62
    2
 10
247.56328124999555
 20
670.9935731132091
 11
241.56328124999533
 21
670.9935731132091
  0
LINE
  8
_0-0_計極細
  6
CENTER1
 62
    2
 10
228.23909250678616
 20
664.49357311320932
 11
1236.9211049910075
 21
664.4935731132091
  0
LINE
  8
_0-0_計極細
  6
CENTER1
 62
    2
 10
227.15469607331534
 20
556.49357311320932
 11
1236.9211049910073
 21
556.4935731132091
  0
LINE
  8
_0-1_計細線
  6
CONTINUOUS
 62
    3
 10
1132.763281249996
 20
509.99357311320955
 11
1132.7632812499949
 21
710.99357311320841
  0
LINE
  8
_0-1_計細線
  6
CONTINUOUS
 62
    3
 10
1132.763281249996
 20
509.99357311320955
 11
1144.1632812499965
 21
509.99357311320955
  0
LINE
  8
_0-0_計極細
  6
CONTINUOUS
 62
    2
 10
1140.9632812499963
 20
509.99357311320955
 11
1140.9632812499951
 21
710.99357311320841
  0
LINE
  8
_0-0_計極細
  6
CONTINUOUS
 62
    2
 10
1135.9632812499963
 20
509.99357311320955
 11
1135.9632812499951
 21
710.99357311320841
  0
LINE
  8
_0-1_計細線
  6
CONTINUOUS
 62
    3
 10
1161.1632812499972
 20
509.99357311320978
 11
1161.1632812499961
 21
710.99357311320841
  0
LINE
  8
_0-1_計細線
  6
CONTINUOUS
 62
    3
 10
1149.7632812499967
 20
509.99357311320955
 11
1161.1632812499972
 21
509.99357311320978
  0
LINE
  8
_0-0_計極細
  6
CONTINUOUS
 62
    2
 10
1157.963281249997
 20
509.99357311320955
 11
1157.9632812499958
 21
710.99357311320841
  0
LINE
  8
_0-0_計極細
  6
CONTINUOUS
 62
    2
 10
1152.963281249997
 20
509.99357311320955
 11
1152.9632812499958
 21
710.99357311320841
  0
LINE
  8
_0-1_計細線
  6
CONTINUOUS
 62
    3
 10
1144.1632812499965
 20
509.99357311320955
 11
1144.1632812499965
 21
710.99357311320841
  0
LINE
  8
_0-1_計細線
  6
CONTINUOUS
 62
    3
 10
1132.7632812499949
 20
710.99357311320841
 11
1144.1632812499956
 21
710.99357311320841
  0
LINE
  8
_0-1_計細線
  6
CONTINUOUS
 62
    3
 10
1149.7632812499967
 20
710.99357311320841
 11
1161.1632812499961
 21
710.99357311320841
  0
LINE
  8
_0-1_計細線
  6
CONTINUOUS
 62
    3
 10
1149.7632812499967
 20
509.99357311320955
 11
1149.7632812499967
 21
710.99357311320841
  0
LINE
  8
_0-0_計極細
  6
CONTINUOUS
 62
    2
 10
1093.1632812499943
 20
670.9935731132091
 11
1093.6132812499939
 21
670.9935731132091
  0
LINE
  8
_0-0_計極細
  6
CONTINUOUS
 62
    2
 10
1098.3132812499937
 20
670.9935731132091
 11
1098.7632812499955
 21
670.9935731132091
  0
LINE
  8
_0-0_計極細
  6
CONTINUOUS
 62
    2
 10
1093.1632812499943
 20
657.99357311320921
 11
1093.6132812499939
 21
657.99357311320921
  0
LINE
  8
_0-0_計極細
  6
CONTINUOUS
 62
    2
 10
1098.3132812499937
 20
657.99357311320921
 11
1098.7632812499955
 21
657.99357311320921
  0
LINE
  8
_0-5_寸法線
  6
CONTINUOUS
 62
    7
 10
1095.7483275942311
 20
649.66451080459865
 11
1090.7483275942311
 21
658.32476484244307
  0
LINE
  8
_0-5_寸法線
  6
CONTINUOUS
 62
    7
 10
1095.7483275942311
 20
649.66451080459865
 11
1095.7483275942311
 21
659.66451080459865
  0
LINE
  8
_0-5_寸法線
  6
CONTINUOUS
 62
    7
 10
1095.7483275942311
 20
649.66451080459865
 11
1064.7120238885855
 21
765.49357311320728
  0
LINE
  8
_0-5_寸法線
  6
CONTINUOUS
 62
    7
 10
1064.7120238885855
 20
765.49357311320728
 11
1004.7120238885856
 21
765.49357311320728
  0
TEXT
  8
_0-5_寸法線
 62
    7
 10
1004.7120238885856
 20
765.49357311320728
 40
15
 41
0.8000000000000001
 50
0
  1
取　外　具
  0
TEXT
  8
_0-5_寸法線
 62
    7
 10
1004.061914918451
 20
748.71260845258394
 40
15
 41
0.8000000000000001
 50
-0.0000000000001357
  1
(標準付属)
  0
LINE
  8
_0-7_枠細線
  6
CONTINUOUS
 62
    5
 10
1022.1702003703898
 20
782.52976024087843
 11
1014.6702003703897
 21
797.52976024087843
  0
LINE
  8
_0-7_枠細線
  6
CONTINUOUS
 62
    5
 10
1007.1702003703897
 20
782.52976024087843
 11
1022.1702003703898
 21
782.52976024087843
  0
LINE
  8
_0-7_枠細線
  6
CONTINUOUS
 62
    5
 10
1014.6702003703897
 20
797.52976024087843
 11
1007.1702003703897
 21
782.52976024087843
  0
TEXT
  8
_0-7_枠細線
 62
    5
 10
1009.5353516385377
 20
782.22275799549777
 40
12.5
 41
0.8
 50
0
  1
１
  0
LINE
  8
_0-7_枠細線
  6
CONTINUOUS
 62
    5
 10
1033.0397433976061
 20
797.52976024087843
 11
1025.5397433976061
 21
782.52976024087843
  0
LINE
  8
_0-7_枠細線
  6
CONTINUOUS
 62
    5
 10
1025.5397433976061
 20
782.52976024087843
 11
1040.5397433976061
 21
782.52976024087843
  0
LINE
  8
_0-7_枠細線
  6
CONTINUOUS
 62
    5
 10
1040.5397433976061
 20
782.52976024087843
 11
1033.0397433976061
 21
797.52976024087843
  0
TEXT
  8
_0-7_枠細線
 62
    5
 10
1028.025235488155
 20
781.98207635069707
 40
12.5
 41
0.8
 50
0
  1
２
  0
LINE
  8
_0-7_枠細線
  6
CONTINUOUS
 62
    5
 10
1059.2537273123023
 20
782.52976024087843
 11
1051.7537273123023
 21
797.52976024087843
  0
LINE
  8
_0-7_枠細線
  6
CONTINUOUS
 62
    5
 10
1044.2537273123023
 20
782.52976024087843
 11
1059.2537273123023
 21
782.52976024087843
  0
LINE
  8
_0-7_枠細線
  6
CONTINUOUS
 62
    5
 10
1051.7537273123023
 20
797.52976024087843
 11
1044.2537273123023
 21
782.52976024087843
  0
TEXT
  8
_0-7_枠細線
 62
    5
 10
1046.6188785804504
 20
781.98207635069707
 40
12.5
 41
0.8
 50
0
  1
５
  0
LINE
  8
_0-5_寸法線
  6
CONTINUOUS
 62
    7
 10
332.66898336450163
 20
507.46857311320991
 11
337.66898337562617
 21
498.80831908178828
  0
LINE
  8
_0-5_寸法線
  6
CONTINUOUS
 62
    7
 10
332.66898336450163
 20
507.46857311320991
 11
332.6689833773471
 21
497.46857311320991
  0
LINE
  8
_0-5_寸法線
  6
CONTINUOUS
 62
    7
 10
332.66898336450163
 20
507.46857311320991
 11
344.51035292196758
 21
463.27598052061745
  0
LINE
  8
_0-5_寸法線
  6
CONTINUOUS
 62
    7
 10
344.51035292196758
 20
463.27598052061745
 11
452.51035292196752
 21
463.27598052061745
  0
TEXT
  8
_0-5_寸法線
 62
    7
 10
344.51035292196758
 20
463.8759805206173
 40
15
 41
0.8000000000000001
 50
0
  1
ＳＵＳアングル受枠
  0
LINE
  8
_0-5_寸法線
  6
CONTINUOUS
 62
    7
 10
458.43662222323314
 20
550.44729426159211
 11
463.43662221113118
 21
541.7870402167606
  0
LINE
  8
_0-5_寸法線
  6
CONTINUOUS
 62
    7
 10
458.43662222323314
 20
550.44729426159211
 11
458.43662220925899
 21
540.44729426159211
  0
LINE
  8
_0-5_寸法線
  6
CONTINUOUS
 62
    7
 10
458.43662222323314
 20
550.44729426159211
 11
481.79410521272672
 21
463.27598052061745
  0
LINE
  8
_0-5_寸法線
  6
CONTINUOUS
 62
    7
 10
481.79410521272672
 20
463.27598052061745
 11
613.79410521272666
 21
463.27598052061745
  0
TEXT
  8
_0-5_寸法線
 62
    7
 10
481.79410521272678
 20
463.27598052061745
 40
15
 41
0.8000000000000001
 50
0
  1
セーフティグレーチング
  0
LINE
  8
_0-1_計細線
  6
CONTINUOUS
 62
    3
 10
1098.3132812499935
 20
625.49357311320819
 11
1098.3132812499937
 21
678.49357311320819
  0
LINE
  8
_0-1_計細線
  6
CONTINUOUS
 62
    3
 10
1093.6132812499939
 20
678.49357311320819
 11
1093.6132812499936
 21
625.49357311320819
  0
LINE
  8
_0-1_計細線
  6
CONTINUOUS
 62
    3
 10
1093.6132812499936
 20
625.49357311320819
 11
1098.3132812499935
 21
625.49357311320819
  0
LINE
  8
_0-1_計細線
  6
CONTINUOUS
 62
    3
 10
1093.6132812499939
 20
668.49357311320819
 11
1098.3132812499937
 21
668.49357311320819
  0
LINE
  8
_0-1_計細線
  6
CONTINUOUS
 62
    3
 10
1093.6132812499939
 20
676.4935731132083
 11
1098.3132812499937
 21
676.4935731132083
  0
LINE
  8
_0-1_計細線
  6
CONTINUOUS
 62
    3
 10
1093.6132812499939
 20
678.49357311320819
 11
1098.3132812499937
 21
678.49357311320819
  0
LINE
  8
_0-1_計細線
  6
CONTINUOUS
 62
    3
 10
1093.6132812499939
 20
674.49357311320819
 11
1098.3132812499937
 21
674.49357311320819
  0
LINE
  8
_0-1_計細線
  6
CONTINUOUS
 62
    3
 10
1093.6132812499939
 20
672.49357311320819
 11
1098.3132812499937
 21
672.49357311320819
  0
LINE
  8
_0-1_計細線
  6
CONTINUOUS
 62
    3
 10
1093.6132812499939
 20
670.49357311320819
 11
1098.3132812499937
 21
670.49357311320819
  0
LINE
  8
_0-5_寸法線
  6
CONTINUOUS
 62
    7
 10
1260.6632812499984
 20
715.49357311321376
 11
1305.6632812499922
 21
715.49357311321376
  0
LINE
  8
_0-5_寸法線
  6
CONTINUOUS
 62
    7
 10
1300.6632812499922
 20
715.49357311321376
 11
1298.075090798967
 21
725.15283137610436
  0
LINE
  8
_0-5_寸法線
  6
CONTINUOUS
 62
    7
 10
1300.6632812499922
 20
715.49357311321376
 11
1303.2514717010176
 21
725.15283137610436
  0
LINE
  8
_0-5_寸法線
  6
CONTINUOUS
 62
    7
 10
1260.6632812499956
 20
712.49357311320819
 11
1305.6632812499922
 21
712.49357311320819
  0
CIRCLE
  8
_0-5_寸法線
  6
CONTINUOUS
 62
    1
 10
1300.6632812499922
 20
712.49357311320819
 40
1.5000000000000002
  0
LINE
  8
_0-5_寸法線
  6
CONTINUOUS
 62
    7
 10
1300.6632812499922
 20
740.49357311321376
 11
1300.6632812499922
 21
712.49357311320819
  0
TEXT
  8
_0-5_寸法線
 62
    7
 10
1300.6632812499922
 20
730.32756110894456
 40
15
 41
1
 50
90
  1
3
  0
LINE
  8
_0-5_寸法線
  6
CONTINUOUS
 62
    7
 10
1260.6632812499956
 20
710.99357311320819
 11
1305.6632812499922
 21
710.99357311320819
  0
LINE
  8
_0-5_寸法線
  6
CONTINUOUS
 62
    7
 10
1300.6632812499922
 20
712.49357311320819
 11
1300.6632812499922
 21
710.99357311320819
  0
TEXT
  8
_0-5_寸法線
 62
    7
 10
1317.8071565448088
 20
688.49357311320819
 40
15
 41
1
 50
90
  1
1.5
  0
LINE
  8
_0-5_寸法線
  6
CONTINUOUS
 62
    7
 10
1300.6632812499922
 20
710.99357311320819
 11
1303.2514717010172
 21
701.33431485031747
  0
LINE
  8
_0-5_寸法線
  6
CONTINUOUS
 62
    7
 10
1300.6632812499922
 20
710.99357311320819
 11
1298.0750907989668
 21
701.33431485031747
  0
LINE
  8
_0-5_寸法線
  6
CONTINUOUS
 62
    7
 10
1260.6632812499956
 20
509.99357311320955
 11
1305.6632812499925
 21
509.99357311320955
  0
LINE
  8
_0-5_寸法線
  6
CONTINUOUS
 62
    7
 10
1300.6632812499925
 20
509.99357311320955
 11
1298.0750907989673
 21
519.65283137610027
  0
LINE
  8
_0-5_寸法線
  6
CONTINUOUS
 62
    7
 10
1300.6632812499925
 20
509.99357311320955
 11
1303.2514717010176
 21
519.65283137610027
  0
LINE
  8
_0-5_寸法線
  6
CONTINUOUS
 62
    7
 10
1300.6632812499922
 20
710.99357311320819
 11
1300.6632812499925
 21
509.99357311320955
  0
TEXT
  8
_0-5_寸法線
 62
    7
 10
1300.6632812499922
 20
596.89380558410971
 40
15
 41
1
 50
90
  1
201
  0
LINE
  8
_0-5_寸法線
  6
CONTINUOUS
 62
    7
 10
1260.6632812499956
 20
508.49357311320955
 11
1305.6632812499925
 21
508.49357311320955
  0
CIRCLE
  8
_0-5_寸法線
  6
CONTINUOUS
 62
    1
 10
1300.6632812499925
 20
508.49357311320955
 40
1.5000000000000002
  0
LINE
  8
_0-5_寸法線
  6
CONTINUOUS
 62
    7
 10
1300.6632812499925
 20
509.99357311320955
 11
1300.6632812499925
 21
508.49357311320955
  0
TEXT
  8
_0-5_寸法線
 62
    7
 10
1317.6523806014129
 20
509.34828272406656
 40
15
 41
1
 50
90
  1
1.5
  0
LINE
  8
_0-5_寸法線
  6
CONTINUOUS
 62
    7
 10
1260.6632812499956
 20
505.49357311320773
 11
1305.6632812499925
 21
505.49357311320773
  0
LINE
  8
_0-5_寸法線
  6
CONTINUOUS
 62
    7
 10
1300.6632812499925
 20
505.49357311320773
 11
1303.2514717010176
 21
495.83431485031701
  0
LINE
  8
_0-5_寸法線
  6
CONTINUOUS
 62
    7
 10
1300.6632812499925
 20
505.49357311320773
 11
1298.0750907989673
 21
495.83431485031713
  0
LINE
  8
_0-5_寸法線
  6
CONTINUOUS
 62
    7
 10
1300.6632812499925
 20
508.49357311320955
 11
1300.6632812499925
 21
480.49357311320773
  0
TEXT
  8
_0-5_寸法線
 62
    7
 10
1300.6632812499925
 20
483.92729540526972
 40
15
 41
1
 50
90
  1
3
  0
TEXT
  8
_0-5_寸法線
 62
    7
 10
344.51035292196758
 20
448.27598052061745
 40
15
 41
0.8000000000000001
 50
0
  1
ＧＳＬ－２５
  0
TEXT
  8
_0-5_寸法線
 62
    7
 10
481.79410521272672
 20
448.27598052061745
 40
15
 41
0.8000000000000001
 50
0
  1
ＧＲＳＪ－２５Ｗ２０１
  0
LINE
  8
_0-7_枠細線
  6
CONTINUOUS
 62
    5
 10
1275
 20
837.5
 11
1275
 21
959.99999999999943
  0
LINE
  8
_0-7_枠細線
  6
CONTINUOUS
 62
    5
 10
1175
 20
837.5
 11
1175
 21
959.99999999999943
  0
LINE
  8
_0-7_枠細線
  6
CONTINUOUS
 62
    5
 10
925
 20
837.5
 11
925
 21
959.99999999999943
  0
LINE
  8
_0-7_枠細線
  6
CONTINUOUS
 62
    5
 10
890
 20
837.5
 11
890
 21
959.99999999999943
  0
TEXT
  8
_0-7_枠細線
 62
    5
 10
832.20525292576508
 20
196.2258538605478
 40
25
 41
0.8
 50
0
  1
側面詳細図
  0
TEXT
  8
_0-7_枠細線
 62
    5
 10
947.15422267493318
 20
198.86671839474587
 40
20
 41
0.6
 50
0
  1
Ｓ＝１：３
  0
ARC
  8
_0-a_極細3
  6
CONTINUOUS
 62
    7
 10
966.5186967600614
 20
258.35638633692247
 40
17.558839598481345
 50
150.03871396148165
 51
205.23810402387875
  0
ARC
  8
_0-a_極細3
  6
CONTINUOUS
 62
    7
 10
934.7532215701633
 20
243.38287712429181
 40
17.558839598481345
 50
330.03871396148202
 51
25.238104023878222
  0
ARC
  8
_0-a_極細3
  6
CONTINUOUS
 62
    7
 10
821.5988813217275
 20
258.35638633692247
 40
17.558839598481345
 50
150.03871396148165
 51
205.23810402387875
  0
ARC
  8
_0-a_極細3
  6
CONTINUOUS
 62
    7
 10
789.83340613182941
 20
243.38287712429181
 40
17.558839598481345
 50
330.03871396148202
 51
25.238104023878222
  0
LINE
  8
_0-a_極細3
  6
CENTER1
 62
    7
 10
956.48806042462127
 20
250.86963173060738
 11
793.90951779669535
 21
250.86963173060738
  0
ARC
  8
_0-b_細線3
  6
CONTINUOUS
 62
    7
 10
869.85596010283132
 20
266.53633549527399
 40
1.666666666666667
 50
89.999999999999915
 51
179.99999999999983
  0
ARC
  8
_0-b_細線3
  6
CONTINUOUS
 62
    7
 10
870.63587542171024
 20
269.86966882860747
 40
1.666666666666667
 50
269.99999999999977
 51
330.00000000000301
  0
ARC
  8
_0-b_細線3
  6
CONTINUOUS
 62
    7
 10
873.52262676765827
 20
268.20300216194096
 40
1.666666666666667
 50
89.999999999999915
 51
150.00000000000134
  0
LINE
  8
_0-b_細線3
  6
CONTINUOUS
 62
    7
 10
869.85596010283132
 20
268.20300216194096
 11
870.63587542171024
 21
268.20300216194096
  0
ARC
  8
_0-b_細線3
  6
CONTINUOUS
 62
    7
 10
885.52262676581927
 20
266.53633549527399
 40
1.666666666666667
 50
0
 51
89.999999999999915
  0
ARC
  8
_0-b_細線3
  6
CONTINUOUS
 62
    7
 10
884.74271144694001
 20
269.86966882860747
 40
1.666666666666667
 50
210.00000000000404
 51
269.99999999999977
  0
ARC
  8
_0-b_細線3
  6
CONTINUOUS
 62
    7
 10
881.85596010099175
 20
268.20300216194096
 40
1.666666666666667
 50
29.999999999990862
 51
89.999999999984354
  0
LINE
  8
_0-b_細線3
  6
CONTINUOUS
 62
    7
 10
885.52262676581927
 20
268.20300216194096
 11
884.74271144694001
 21
268.20300216194096
  0
ARC
  8
_0-b_細線3
  6
CONTINUOUS
 62
    7
 10
869.02262676949772
 20
264.20300216194096
 40
0.8333333333333334
 50
179.99999999999983
 51
269.99999999999977
  0
LINE
  8
_0-b_細線3
  6
CONTINUOUS
 62
    7
 10
868.18929343616435
 20
266.53633549527399
 11
868.18929343616435
 21
264.20300216194096
  0
ARC
  8
_0-b_細線3
  6
CONTINUOUS
 62
    7
 10
886.3559600991523
 20
264.20300216194096
 40
0.8333333333333334
 50
269.99999999999977
 51
359.99999999999966
  0
LINE
  8
_0-b_細線3
  6
CONTINUOUS
 62
    7
 10
887.1892934324859
 20
266.53633549527399
 11
887.1892934324859
 21
264.20300216194096
  0
ARC
  8
_0-b_細線3
  6
CONTINUOUS
 62
    7
 10
873.18929343616435
 20
261.70300216194096
 40
1.666666666666667
 50
0
 51
89.999999999999915
  0
LINE
  8
_0-b_細線3
  6
CONTINUOUS
 62
    7
 10
873.18929343616435
 20
263.36966882860747
 11
869.02262676949772
 21
263.36966882860747
  0
ARC
  8
_0-b_細線3
  6
CONTINUOUS
 62
    7
 10
882.1892934361648
 20
261.70300216194096
 40
1.666666666666667
 50
89.999999999999915
 51
179.99999999999983
  0
LINE
  8
_0-b_細線3
  6
CONTINUOUS
 62
    7
 10
882.1892934324859
 20
263.36966882860747
 11
886.3559600991523
 21
263.36966882860747
  0
LINE
  8
_0-b_細線3
  6
CONTINUOUS
 62
    7
 10
881.85596010099175
 20
269.86966882860747
 11
873.52262676765827
 21
269.86966882860747
  0
LINE
  8
_0-b_細線3
  6
CONTINUOUS
 62
    7
 10
874.85596010099187
 20
228.20300216194099
 11
874.85596010283132
 21
261.70300216194096
  0
LINE
  8
_0-b_細線3
  6
CONTINUOUS
 62
    7
 10
880.52262676765838
 20
228.20300216194099
 11
880.52262676949817
 21
261.70300216194096
  0
LINE
  8
_0-b_細線3
  6
CONTINUOUS
 62
    7
 10
880.52262676765838
 20
228.20300216194099
 11
874.85596010099187
 21
228.20300216194099
  0
ARC
  8
_0-b_細線3
  6
CONTINUOUS
 62
    7
 10
898.8559601034342
 20
266.53633549527399
 40
1.666666666666667
 50
89.999999999999915
 51
179.99999999999983
  0
ARC
  8
_0-b_細線3
  6
CONTINUOUS
 62
    7
 10
899.63587542231323
 20
269.86966882860747
 40
1.666666666666667
 50
269.99999999999977
 51
329.99999999999523
  0
ARC
  8
_0-b_細線3
  6
CONTINUOUS
 62
    7
 10
902.52262676826138
 20
268.20300216194096
 40
1.666666666666667
 50
89.999999999999915
 51
150.00000000000915
  0
LINE
  8
_0-b_細線3
  6
CONTINUOUS
 62
    7
 10
898.8559601034342
 20
268.20300216194096
 11
899.63587542231323
 21
268.20300216194096
  0
ARC
  8
_0-b_細線3
  6
CONTINUOUS
 62
    7
 10
914.52262676642238
 20
266.53633549527399
 40
1.666666666666667
 50
0
 51
89.999999999999915
  0
ARC
  8
_0-b_細線3
  6
CONTINUOUS
 62
    7
 10
913.74271144754289
 20
269.86966882860747
 40
1.666666666666667
 50
209.99999999999622
 51
269.99999999999977
  0
ARC
  8
_0-b_細線3
  6
CONTINUOUS
 62
    7
 10
910.85596010159475
 20
268.20300216194096
 40
1.666666666666667
 50
29.999999999998682
 51
89.999999999999915
  0
LINE
  8
_0-b_細線3
  6
CONTINUOUS
 62
    7
 10
914.52262676642238
 20
268.20300216194096
 11
913.74271144754289
 21
268.20300216194096
  0
ARC
  8
_0-b_細線3
  6
CONTINUOUS
 62
    7
 10
898.02262677010117
 20
264.20300216194096
 40
0.8333333333333334
 50
179.99999999999983
 51
269.99999999999977
  0
LINE
  8
_0-b_細線3
  6
CONTINUOUS
 62
    7
 10
897.18929343676734
 20
266.53633549527399
 11
897.18929343676734
 21
264.20300216194096
  0
ARC
  8
_0-b_細線3
  6
CONTINUOUS
 62
    7
 10
915.35596009975529
 20
264.20300216194096
 40
0.8333333333333334
 50
269.99999999999977
 51
359.99999999999966
  0
LINE
  8
_0-b_細線3
  6
CONTINUOUS
 62
    7
 10
916.18929343308878
 20
266.53633549527399
 11
916.18929343308878
 21
264.20300216194096
  0
ARC
  8
_0-b_細線3
  6
CONTINUOUS
 62
    7
 10
902.18929343676734
 20
261.70300216194096
 40
1.666666666666667
 50
0
 51
89.999999999999915
  0
LINE
  8
_0-b_細線3
  6
CONTINUOUS
 62
    7
 10
902.18929343676734
 20
263.36966882860747
 11
898.02262677010117
 21
263.36966882860747
  0
ARC
  8
_0-b_細線3
  6
CONTINUOUS
 62
    7
 10
911.18929343676768
 20
261.70300216194096
 40
1.666666666666667
 50
89.999999999999915
 51
179.99999999999983
  0
LINE
  8
_0-b_細線3
  6
CONTINUOUS
 62
    7
 10
911.18929343308878
 20
263.36966882860747
 11
915.35596009975529
 21
263.36966882860747
  0
LINE
  8
_0-b_細線3
  6
CONTINUOUS
 62
    7
 10
910.85596010159475
 20
269.86966882860747
 11
902.52262676826138
 21
269.86966882860747
  0
LINE
  8
_0-b_細線3
  6
CONTINUOUS
 62
    7
 10
903.85596010159475
 20
228.20300216194099
 11
903.8559601034342
 21
261.70300216194096
  0
LINE
  8
_0-b_細線3
  6
CONTINUOUS
 62
    7
 10
909.52262676826138
 20
228.20300216194099
 11
909.52262677010128
 21
261.70300216194096
  0
LINE
  8
_0-b_細線3
  6
CONTINUOUS
 62
    7
 10
909.52262676826138
 20
228.20300216194099
 11
903.85596010159475
 21
228.20300216194099
  0
ARC
  8
_0-b_細線3
  6
CONTINUOUS
 62
    7
 10
927.85596010403719
 20
266.53633549527399
 40
1.666666666666667
 50
89.999999999999915
 51
179.99999999999983
  0
ARC
  8
_0-b_細線3
  6
CONTINUOUS
 62
    7
 10
928.63587542291611
 20
269.86966882860747
 40
1.666666666666667
 50
269.99999999999977
 51
329.99999999999523
  0
ARC
  8
_0-b_細線3
  6
CONTINUOUS
 62
    7
 10
931.52262676886437
 20
268.20300216194096
 40
1.666666666666667
 50
89.999999999999915
 51
150.00000000000915
  0
LINE
  8
_0-b_細線3
  6
CONTINUOUS
 62
    7
 10
927.85596010403719
 20
268.20300216194096
 11
928.63587542291611
 21
268.20300216194096
  0
ARC
  8
_0-b_細線3
  6
CONTINUOUS
 62
    7
 10
943.52262676702537
 20
266.53633549527399
 40
1.666666666666667
 50
0
 51
89.999999999999915
  0
ARC
  8
_0-b_細線3
  6
CONTINUOUS
 62
    7
 10
942.74271144814588
 20
269.86966882860747
 40
1.666666666666667
 50
210.00000000000404
 51
269.99999999999977
  0
ARC
  8
_0-b_細線3
  6
CONTINUOUS
 62
    7
 10
939.85596010219774
 20
268.20300216194096
 40
1.666666666666667
 50
29.999999999990862
 51
89.999999999984354
  0
LINE
  8
_0-b_細線3
  6
CONTINUOUS
 62
    7
 10
943.52262676702537
 20
268.20300216194096
 11
942.74271144814588
 21
268.20300216194096
  0
ARC
  8
_0-b_細線3
  6
CONTINUOUS
 62
    7
 10
927.02262677070382
 20
264.20300216194096
 40
0.8333333333333334
 50
179.99999999999983
 51
269.99999999999977
  0
LINE
  8
_0-b_細線3
  6
CONTINUOUS
 62
    7
 10
926.18929343737022
 20
266.53633549527399
 11
926.18929343737022
 21
264.20300216194096
  0
ARC
  8
_0-b_細線3
  6
CONTINUOUS
 62
    7
 10
944.3559601003584
 20
264.20300216194096
 40
0.8333333333333334
 50
269.99999999999977
 51
359.99999999999966
  0
LINE
  8
_0-b_細線3
  6
CONTINUOUS
 62
    7
 10
945.18929343369177
 20
266.53633549527399
 11
945.18929343369177
 21
264.20300216194096
  0
ARC
  8
_0-b_細線3
  6
CONTINUOUS
 62
    7
 10
931.18929343737022
 20
261.70300216194096
 40
1.666666666666667
 50
0
 51
89.999999999999915
  0
LINE
  8
_0-b_細線3
  6
CONTINUOUS
 62
    7
 10
931.18929343737022
 20
263.36966882860747
 11
927.02262677070382
 21
263.36966882860747
  0
ARC
  8
_0-b_細線3
  6
CONTINUOUS
 62
    7
 10
940.18929343737022
 20
261.70300216194096
 40
1.666666666666667
 50
89.999999999999915
 51
179.99999999999983
  0
LINE
  8
_0-b_細線3
  6
CONTINUOUS
 62
    7
 10
940.18929343369132
 20
263.36966882860747
 11
944.3559601003584
 21
263.36966882860747
  0
LINE
  8
_0-b_細線3
  6
CONTINUOUS
 62
    7
 10
939.85596010219774
 20
269.86966882860747
 11
931.52262676886437
 21
269.86966882860747
  0
LINE
  8
_0-b_細線3
  6
CONTINUOUS
 62
    7
 10
932.85596010219774
 20
228.20300216194099
 11
932.85596010403719
 21
261.70300216194096
  0
LINE
  8
_0-b_細線3
  6
CONTINUOUS
 62
    7
 10
938.52262676886426
 20
228.20300216194099
 11
938.52262677070428
 21
261.70300216194096
  0
LINE
  8
_0-b_細線3
  6
CONTINUOUS
 62
    7
 10
938.52262676886426
 20
228.20300216194099
 11
932.85596010219774
 21
228.20300216194099
  0
ARC
  8
_0-b_細線3
  6
CONTINUOUS
 62
    7
 10
811.85596010130837
 20
266.53633549527399
 40
1.666666666666667
 50
89.999999999999915
 51
179.99999999999983
  0
ARC
  8
_0-b_細線3
  6
CONTINUOUS
 62
    7
 10
812.63587542018729
 20
269.86966882860747
 40
1.666666666666667
 50
269.99999999999977
 51
330.00000000000301
  0
ARC
  8
_0-b_細線3
  6
CONTINUOUS
 62
    7
 10
815.52262676613532
 20
268.20300216194096
 40
1.666666666666667
 50
89.999999999999915
 51
150.00000000000134
  0
LINE
  8
_0-b_細線3
  6
CONTINUOUS
 62
    7
 10
811.85596010130837
 20
268.20300216194096
 11
812.63587542018729
 21
268.20300216194096
  0
ARC
  8
_0-b_細線3
  6
CONTINUOUS
 62
    7
 10
827.52262676429632
 20
266.53633549527399
 40
1.666666666666667
 50
0
 51
89.999999999999915
  0
ARC
  8
_0-b_細線3
  6
CONTINUOUS
 62
    7
 10
826.74271144541751
 20
269.86966882860747
 40
1.666666666666667
 50
209.99999999999622
 51
269.99999999999977
  0
ARC
  8
_0-b_細線3
  6
CONTINUOUS
 62
    7
 10
823.8559600994688
 20
268.20300216194096
 40
1.666666666666667
 50
29.999999999990862
 51
89.999999999984354
  0
LINE
  8
_0-b_細線3
  6
CONTINUOUS
 62
    7
 10
827.52262676429632
 20
268.20300216194096
 11
826.74271144541751
 21
268.20300216194096
  0
ARC
  8
_0-b_細線3
  6
CONTINUOUS
 62
    7
 10
811.02262676797523
 20
264.20300216194096
 40
0.8333333333333334
 50
179.99999999999983
 51
269.99999999999977
  0
LINE
  8
_0-b_細線3
  6
CONTINUOUS
 62
    7
 10
810.1892934346414
 20
266.53633549527399
 11
810.1892934346414
 21
264.20300216194096
  0
ARC
  8
_0-b_細線3
  6
CONTINUOUS
 62
    7
 10
828.35596009762935
 20
264.20300216194096
 40
0.8333333333333334
 50
269.99999999999977
 51
359.99999999999966
  0
LINE
  8
_0-b_細線3
  6
CONTINUOUS
 62
    7
 10
829.1892934309634
 20
266.53633549527399
 11
829.1892934309634
 21
264.20300216194096
  0
ARC
  8
_0-b_細線3
  6
CONTINUOUS
 62
    7
 10
815.1892934346414
 20
261.70300216194096
 40
1.666666666666667
 50
0
 51
89.999999999999915
  0
LINE
  8
_0-b_細線3
  6
CONTINUOUS
 62
    7
 10
815.1892934346414
 20
263.36966882860747
 11
811.02262676797523
 21
263.36966882860747
  0
ARC
  8
_0-b_細線3
  6
CONTINUOUS
 62
    7
 10
824.18929343464185
 20
261.70300216194096
 40
1.666666666666667
 50
89.999999999999915
 51
179.99999999999983
  0
LINE
  8
_0-b_細線3
  6
CONTINUOUS
 62
    7
 10
824.18929343096295
 20
263.36966882860747
 11
828.35596009762935
 21
263.36966882860747
  0
LINE
  8
_0-b_細線3
  6
CONTINUOUS
 62
    7
 10
823.8559600994688
 20
269.86966882860747
 11
815.52262676613532
 21
269.86966882860747
  0
LINE
  8
_0-b_細線3
  6
CONTINUOUS
 62
    7
 10
816.85596009946937
 20
228.20300216194099
 11
816.85596010130837
 21
261.70300216194096
  0
LINE
  8
_0-b_細線3
  6
CONTINUOUS
 62
    7
 10
822.52262676613543
 20
228.20300216194099
 11
822.52262676797523
 21
261.70300216194096
  0
LINE
  8
_0-b_細線3
  6
CONTINUOUS
 62
    7
 10
822.52262676613543
 20
228.20300216194099
 11
816.85596009946937
 21
228.20300216194099
  0
ARC
  8
_0-b_細線3
  6
CONTINUOUS
 62
    7
 10
840.85596010191125
 20
266.53633549527399
 40
1.666666666666667
 50
89.999999999999915
 51
179.99999999999983
  0
ARC
  8
_0-b_細線3
  6
CONTINUOUS
 62
    7
 10
841.63587542079074
 20
269.86966882860747
 40
1.666666666666667
 50
269.99999999999977
 51
329.99999999998744
  0
ARC
  8
_0-b_細線3
  6
CONTINUOUS
 62
    7
 10
844.52262676673843
 20
268.20300216194096
 40
1.666666666666667
 50
89.999999999999915
 51
150.00000000000915
  0
LINE
  8
_0-b_細線3
  6
CONTINUOUS
 62
    7
 10
840.85596010191125
 20
268.20300216194096
 11
841.63587542079074
 21
268.20300216194096
  0
ARC
  8
_0-b_細線3
  6
CONTINUOUS
 62
    7
 10
856.52262676489943
 20
266.53633549527399
 40
1.666666666666667
 50
0
 51
89.999999999999915
  0
ARC
  8
_0-b_細線3
  6
CONTINUOUS
 62
    7
 10
855.74271144601994
 20
269.86966882860747
 40
1.666666666666667
 50
210.00000000000404
 51
269.99999999999977
  0
ARC
  8
_0-b_細線3
  6
CONTINUOUS
 62
    7
 10
852.85596010007225
 20
268.20300216194096
 40
1.666666666666667
 50
29.999999999998682
 51
89.999999999999915
  0
LINE
  8
_0-b_細線3
  6
CONTINUOUS
 62
    7
 10
856.52262676489943
 20
268.20300216194096
 11
855.74271144601994
 21
268.20300216194096
  0
ARC
  8
_0-b_細線3
  6
CONTINUOUS
 62
    7
 10
840.02262676857822
 20
264.20300216194096
 40
0.8333333333333334
 50
179.99999999999983
 51
269.99999999999977
  0
LINE
  8
_0-b_細線3
  6
CONTINUOUS
 62
    7
 10
839.18929343524485
 20
266.53633549527399
 11
839.18929343524485
 21
264.20300216194096
  0
ARC
  8
_0-b_細線3
  6
CONTINUOUS
 62
    7
 10
857.35596009823234
 20
264.20300216194096
 40
0.8333333333333334
 50
269.99999999999977
 51
359.99999999999966
  0
LINE
  8
_0-b_細線3
  6
CONTINUOUS
 62
    7
 10
858.18929343156583
 20
266.53633549527399
 11
858.18929343156583
 21
264.20300216194096
  0
ARC
  8
_0-b_細線3
  6
CONTINUOUS
 62
    7
 10
844.18929343524485
 20
261.70300216194096
 40
1.666666666666667
 50
0
 51
89.999999999999915
  0
LINE
  8
_0-b_細線3
  6
CONTINUOUS
 62
    7
 10
844.18929343524485
 20
263.36966882860747
 11
840.02262676857822
 21
263.36966882860747
  0
ARC
  8
_0-b_細線3
  6
CONTINUOUS
 62
    7
 10
853.18929343524474
 20
261.70300216194096
 40
1.666666666666667
 50
89.999999999999915
 51
179.99999999999983
  0
LINE
  8
_0-b_細線3
  6
CONTINUOUS
 62
    7
 10
853.18929343156583
 20
263.36966882860747
 11
857.35596009823234
 21
263.36966882860747
  0
LINE
  8
_0-b_細線3
  6
CONTINUOUS
 62
    7
 10
852.85596010007225
 20
269.86966882860747
 11
844.52262676673843
 21
269.86966882860747
  0
LINE
  8
_0-b_細線3
  6
CONTINUOUS
 62
    7
 10
845.8559601000718
 20
228.20300216194099
 11
845.85596010191125
 21
261.70300216194096
  0
LINE
  8
_0-b_細線3
  6
CONTINUOUS
 62
    7
 10
851.52262676673888
 20
228.20300216194099
 11
851.52262676857833
 21
261.70300216194096
  0
LINE
  8
_0-b_細線3
  6
CONTINUOUS
 62
    7
 10
851.52262676673888
 20
228.20300216194099
 11
845.8559601000718
 21
228.20300216194099
  0
LINE
  8
_0-d_寸法3
  6
CONTINUOUS
 62
    7
 10
943.88081387873729
 20
233.93876652545146
 11
979.23315560442279
 21
258.69274269514221
  0
LINE
  8
_0-d_寸法3
  6
CONTINUOUS
 62
    7
 10
975.13739538297784
 20
255.82486051338702
 11
972.54920493195254
 21
265.48411877627768
  0
LINE
  8
_0-d_寸法3
  6
CONTINUOUS
 62
    7
 10
975.13739538297784
 20
255.82486051338702
 11
977.72558583400291
 21
265.48411877627768
  0
LINE
  8
_0-d_寸法3
  6
CONTINUOUS
 62
    7
 10
943.88081387873729
 20
275.60543319211797
 11
979.23315560442279
 21
300.35940936180873
  0
LINE
  8
_0-d_寸法3
  6
CONTINUOUS
 62
    7
 10
975.13739538297784
 20
297.49152718005348
 11
977.72558583400291
 21
287.83226891716276
  0
LINE
  8
_0-d_寸法3
  6
CONTINUOUS
 62
    7
 10
975.13739538297784
 20
297.49152718005348
 11
972.54920493195243
 21
287.83226891716282
  0
LINE
  8
_0-d_寸法3
  6
CONTINUOUS
 62
    7
 10
975.13739538297784
 20
255.82486051338702
 11
975.13739538297784
 21
297.49152718005348
  0
TEXT
  8
_0-d_寸法3
 62
    7
 10
975.13739538297784
 20
269.15819384672136
 40
15
 41
1
 50
90
  1
25
  0
LINE
  8
_0-b_細線3
  6
CONTINUOUS
 62
    7
 10
880.52262676857822
 20
240.03629839727412
 11
903.85596010191182
 21
240.03629839727412
  0
LINE
  8
_0-b_細線3
  6
CONTINUOUS
 62
    7
 10
909.52262676918122
 20
240.03629839727412
 11
932.85596010251481
 21
240.03629839727412
  0
LINE
  8
_0-b_細線3
  6
CONTINUOUS
 62
    7
 10
822.52262676705527
 20
240.03629839727412
 11
845.85596010038887
 21
240.03629839727412
  0
LINE
  8
_0-b_細線3
  6
CONTINUOUS
 62
    7
 10
851.52262676765872
 20
240.03629839727412
 11
874.85596010099187
 21
240.03629839727412
  0
LINE
  8
_0-b_細線3
  6
CONTINUOUS
 62
    7
 10
880.52262676857822
 20
261.70296506394084
 11
903.85596010191182
 21
261.70296506394084
  0
LINE
  8
_0-b_細線3
  6
CONTINUOUS
 62
    7
 10
909.52262676918122
 20
261.70296506394084
 11
932.85596010251481
 21
261.70296506394084
  0
LINE
  8
_0-b_細線3
  6
CONTINUOUS
 62
    7
 10
822.52262676705527
 20
261.70296506394084
 11
845.85596010038887
 21
261.70296506394084
  0
LINE
  8
_0-b_細線3
  6
CONTINUOUS
 62
    7
 10
851.52262676765872
 20
261.70296506394084
 11
874.85596010099187
 21
261.70296506394084
  0
LINE
  8
_0-b_細線3
  6
CONTINUOUS
 62
    7
 10
938.52262676978421
 20
261.70296506394084
 11
949.28172316058431
 21
261.70296506394084
  0
LINE
  8
_0-b_細線3
  6
CONTINUOUS
 62
    7
 10
938.52262676978421
 20
240.03629839727412
 11
951.9901951696404
 21
240.03629839727412
  0
LINE
  8
_0-b_細線3
  6
CONTINUOUS
 62
    7
 10
804.36190772225041
 20
261.70296506394084
 11
816.85596009978576
 21
261.70296506394084
  0
LINE
  8
_0-b_細線3
  6
CONTINUOUS
 62
    7
 10
807.0703797313065
 20
240.03629839727412
 11
816.85596009978576
 21
240.03629839727412
  0
LINE
  8
_0-d_寸法3
  6
CONTINUOUS
 62
    7
 10
829.1892934309634
 20
279.86966882860747
 11
829.18929343096352
 21
324.86966882876851
  0
LINE
  8
_0-d_寸法3
  6
CONTINUOUS
 62
    7
 10
829.18929343096352
 20
319.86966882876851
 11
819.53003516807269
 21
317.28147837774333
  0
LINE
  8
_0-d_寸法3
  6
CONTINUOUS
 62
    7
 10
829.18929343096352
 20
319.86966882876851
 11
819.53003516807269
 21
322.45785927979375
  0
LINE
  8
_0-d_寸法3
  6
CONTINUOUS
 62
    7
 10
839.1892934309634
 20
279.86966882860747
 11
839.18929343096352
 21
324.86966882876851
  0
LINE
  8
_0-d_寸法3
  6
CONTINUOUS
 62
    7
 10
804.81533774779632
 20
319.86966882876851
 11
839.18929343096352
 21
319.86966882876851
  0
TEXT
  8
_0-d_寸法3
 62
    7
 10
804.81533774779632
 20
304.86966882876851
 40
15
 41
1
 50
0
  1
(6)
  0
LINE
  8
_0-d_寸法3
  6
CONTINUOUS
 62
    7
 10
839.18929343096352
 20
319.86966882876851
 11
848.84855169385423
 21
322.45785927979369
  0
LINE
  8
_0-d_寸法3
  6
CONTINUOUS
 62
    7
 10
839.18929343096352
 20
319.86966882876851
 11
848.84855169385423
 21
317.28147837774333
  0
LINE
  8
_0-d_寸法3
  6
CONTINUOUS
 62
    7
 10
858.18929343096329
 20
279.86966882860747
 11
858.1892934309634
 21
324.86966882876851
  0
LINE
  8
_0-d_寸法3
  6
CONTINUOUS
 62
    7
 10
858.1892934309634
 20
319.86966882876851
 11
848.5300351680728
 21
317.28147837774333
  0
LINE
  8
_0-d_寸法3
  6
CONTINUOUS
 62
    7
 10
858.1892934309634
 20
319.86966882876851
 11
848.5300351680728
 21
322.45785927979375
  0
LINE
  8
_0-d_寸法3
  6
CONTINUOUS
 62
    7
 10
839.18929343096352
 20
319.86966882876851
 11
858.1892934309634
 21
319.86966882876851
  0
TEXT
  8
_0-d_寸法3
 62
    7
 10
829.92459700705535
 20
319.86966882876851
 40
15
 41
1
 50
0
  1
11.4
  0
TEXT
  8
_0-7_枠細線
 62
    5
 10
890.16995454985135
 20
375.55454176804568
 40
15
 41
1
 50
0
  1
2.5kg/枚
  0
TEXT
  8
_0-7_枠細線
 62
    5
 10
976.41995454985135
 20
375.55454176804568
 40
15
 41
1
 50
0
  1
2.6kg/m組
  0
LINE
  8
_0-5_寸法線
  6
CONTINUOUS
 62
    7
 10
654.23586610639472
 20
725.49357311320819
 11
654.23586610639495
 21
770.49357311320728
  0
LINE
  8
_0-5_寸法線
  6
CONTINUOUS
 62
    7
 10
654.23586610639495
 20
765.49357311320728
 11
644.57660784350412
 21
762.90538266218209
  0
LINE
  8
_0-5_寸法線
  6
CONTINUOUS
 62
    7
 10
654.23586610639495
 20
765.49357311320728
 11
644.57660784350412
 21
768.08176356423246
  0
LINE
  8
_0-5_寸法線
  6
CONTINUOUS
 62
    7
 10
665.63586610639527
 20
725.49357311320819
 11
665.6358661063955
 21
770.49357311320728
  0
CIRCLE
  8
_0-5_寸法線
  6
CONTINUOUS
 62
    1
 10
665.6358661063955
 20
765.49357311320728
 40
1.5000000000000002
  0
LINE
  8
_0-5_寸法線
  6
CONTINUOUS
 62
    7
 10
629.23586610639495
 20
765.49357311320728
 11
665.6358661063955
 21
765.49357311320728
  0
TEXT
  8
_0-5_寸法線
 62
    7
 10
632.20942794964867
 20
765.49357311320728
 40
15
 41
1
 50
0
  1
11.4
  0
LINE
  8
_0-5_寸法線
  6
CONTINUOUS
 62
    7
 10
671.23586610639472
 20
725.49357311320819
 11
671.23586610639495
 21
770.49357311320728
  0
LINE
  8
_0-5_寸法線
  6
CONTINUOUS
 62
    7
 10
671.23586610639495
 20
765.49357311320728
 11
680.89512436928555
 21
768.08176356423246
  0
LINE
  8
_0-5_寸法線
  6
CONTINUOUS
 62
    7
 10
671.23586610639495
 20
765.49357311320728
 11
680.89512436928555
 21
762.90538266218209
  0
LINE
  8
_0-5_寸法線
  6
CONTINUOUS
 62
    7
 10
665.6358661063955
 20
765.49357311320728
 11
722.27439540679325
 21
765.49357311320728
  0
TEXT
  8
_0-5_寸法線
 62
    7
 10
684.77439540679313
 20
750.49357311320728
 40
15
 41
1
 50
0
  1
6以下
  0
LINE
  8
_0-d_寸法3
  6
CONTINUOUS
 62
    7
 10
877.68929343432535
 20
279.86966882860747
 11
877.68929343432535
 21
324.86966882876851
  0
LINE
  8
_0-d_寸法3
  6
CONTINUOUS
 62
    7
 10
877.68929343432535
 20
319.86966882876851
 11
887.34855169721595
 21
322.45785927979369
  0
LINE
  8
_0-d_寸法3
  6
CONTINUOUS
 62
    7
 10
877.68929343432535
 20
319.86966882876851
 11
887.34855169721595
 21
317.28147837774333
  0
LINE
  8
_0-d_寸法3
  6
CONTINUOUS
 62
    7
 10
906.68929343492835
 20
279.86966882860747
 11
906.68929343492835
 21
324.86966882876851
  0
LINE
  8
_0-d_寸法3
  6
CONTINUOUS
 62
    7
 10
906.68929343492835
 20
319.86966882876851
 11
897.03003517203751
 21
317.28147837774333
  0
LINE
  8
_0-d_寸法3
  6
CONTINUOUS
 62
    7
 10
906.68929343492835
 20
319.86966882876851
 11
897.03003517203751
 21
322.45785927979375
  0
LINE
  8
_0-d_寸法3
  6
CONTINUOUS
 62
    7
 10
877.68929343432535
 20
319.86966882876851
 11
906.68929343492835
 21
319.86966882876851
  0
TEXT
  8
_0-d_寸法3
 62
    7
 10
863.41478176722853
 20
304.86966882876851
 40
15
 41
1
 50
0
  1
(17.4)
  0
LINE
  8
_0-d_寸法3
  6
CONTINUOUS
 62
    7
 10
906.68929343492835
 20
319.86966882876851
 11
916.34855169781895
 21
322.45785927979364
  0
LINE
  8
_0-d_寸法3
  6
CONTINUOUS
 62
    7
 10
906.68929343492835
 20
319.86966882876851
 11
916.34855169781895
 21
317.28147837774327
  0
LINE
  8
_0-d_寸法3
  6
CONTINUOUS
 62
    7
 10
935.68929343553123
 20
279.86966882860747
 11
935.68929343553123
 21
324.86966882876851
  0
LINE
  8
_0-d_寸法3
  6
CONTINUOUS
 62
    7
 10
935.68929343553123
 20
319.86966882876851
 11
926.03003517264051
 21
317.28147837774333
  0
LINE
  8
_0-d_寸法3
  6
CONTINUOUS
 62
    7
 10
935.68929343553123
 20
319.86966882876851
 11
926.03003517264051
 21
322.45785927979375
  0
LINE
  8
_0-d_寸法3
  6
CONTINUOUS
 62
    7
 10
906.68929343492835
 20
319.86966882876851
 11
935.68929343553123
 21
319.86966882876851
  0
TEXT
  8
_0-d_寸法3
 62
    7
 10
903.20978219135054
 20
319.86966882876851
 40
15
 41
1
 50
0
  1
(17.4)
  0
TEXT
  8
_0-7_枠細線
 62
    5
 10
396.8788722139343
 20
94.86930382692961
 40
25
 41
0.8
 50
0
  1
断面詳細図
  0
TEXT
  8
_0-7_枠細線
 62
    5
 10
511.82784196310223
 20
97.481147871740816
 40
20
 41
0.6
 50
0
  1
Ｓ＝１：３
  0
LINE
  8
_0-d_寸法3
  6
CONTINUOUS
 62
    7
 10
271.8379906479413
 20
183.20300216194141
 11
271.8379906479413
 21
166.05831026103601
  0
LINE
  8
_0-d_寸法3
  6
CONTINUOUS
 62
    7
 10
271.8379906479413
 20
171.05831026103601
 11
281.49724891083196
 21
173.64650071206128
  0
LINE
  8
_0-d_寸法3
  6
CONTINUOUS
 62
    7
 10
271.8379906479413
 20
171.05831026103601
 11
281.49724891083196
 21
168.47011981001083
  0
LINE
  8
_0-d_寸法3
  6
CONTINUOUS
 62
    7
 10
321.83799064794118
 20
221.5363354952749
 11
321.83799064794039
 21
166.05831026103601
  0
LINE
  8
_0-d_寸法3
  6
CONTINUOUS
 62
    7
 10
321.83799064794039
 20
171.05831026103601
 11
312.17873238504967
 21
168.47011981001089
  0
LINE
  8
_0-d_寸法3
  6
CONTINUOUS
 62
    7
 10
321.83799064794039
 20
171.05831026103601
 11
312.17873238504978
 21
173.64650071206128
  0
LINE
  8
_0-d_寸法3
  6
CONTINUOUS
 62
    7
 10
271.8379906479413
 20
171.05831026103601
 11
321.83799064794039
 21
171.05831026103601
  0
TEXT
  8
_0-d_寸法3
 62
    7
 10
289.3379906479413
 20
171.05831026103601
 40
15
 41
1
 50
0
  1
30
  0
LINE
  8
_0-d_寸法3
  6
CONTINUOUS
 62
    7
 10
621.8379906479413
 20
183.20300216194141
 11
621.8379906479413
 21
166.05831026103601
  0
LINE
  8
_0-d_寸法3
  6
CONTINUOUS
 62
    7
 10
621.8379906479413
 20
171.05831026103601
 11
612.17873238505058
 21
168.47011981001083
  0
LINE
  8
_0-d_寸法3
  6
CONTINUOUS
 62
    7
 10
621.8379906479413
 20
171.05831026103601
 11
612.17873238505058
 21
173.64650071206128
  0
LINE
  8
_0-d_寸法3
  6
CONTINUOUS
 62
    7
 10
571.83799064794141
 20
221.5363354952749
 11
571.83799064794232
 21
166.05831026103601
  0
LINE
  8
_0-d_寸法3
  6
CONTINUOUS
 62
    7
 10
571.83799064794221
 20
171.05831026103601
 11
581.49724891083292
 21
173.64650071206128
  0
LINE
  8
_0-d_寸法3
  6
CONTINUOUS
 62
    7
 10
571.83799064794221
 20
171.05831026103601
 11
581.49724891083292
 21
168.47011981001089
  0
LINE
  8
_0-d_寸法3
  6
CONTINUOUS
 62
    7
 10
621.8379906479413
 20
171.05831026103601
 11
571.83799064794221
 21
171.05831026103601
  0
TEXT
  8
_0-d_寸法3
 62
    7
 10
589.33799064794039
 20
171.05831026103601
 40
15
 41
1
 50
0
  1
30
  0
LINE
  8
_0-d_寸法3
  6
CONTINUOUS
 62
    7
 10
321.8379906479413
 20
226.5363354952749
 11
321.8379906479413
 21
166.05831026103601
  0
LINE
  8
_0-d_寸法3
  6
CONTINUOUS
 62
    7
 10
321.8379906479413
 20
171.05831026103601
 11
331.49724891083196
 21
173.64650071206128
  0
LINE
  8
_0-d_寸法3
  6
CONTINUOUS
 62
    7
 10
321.8379906479413
 20
171.05831026103601
 11
331.49724891083196
 21
168.47011981001083
  0
LINE
  8
_0-d_寸法3
  6
CONTINUOUS
 62
    7
 10
571.8379906479413
 20
226.5363354952749
 11
571.8379906479413
 21
166.05831026103601
  0
LINE
  8
_0-d_寸法3
  6
CONTINUOUS
 62
    7
 10
571.8379906479413
 20
171.05831026103601
 11
562.17873238505058
 21
168.47011981001089
  0
LINE
  8
_0-d_寸法3
  6
CONTINUOUS
 62
    7
 10
571.8379906479413
 20
171.05831026103601
 11
562.17873238505058
 21
173.64650071206128
  0
LINE
  8
_0-d_寸法3
  6
CONTINUOUS
 62
    7
 10
321.8379906479413
 20
171.05831026103601
 11
571.8379906479413
 21
171.05831026103601
  0
TEXT
  8
_0-d_寸法3
 62
    7
 10
435.5879906479413
 20
171.05831026103601
 40
15
 41
1
 50
0
  1
150
  0
CIRCLE
  8
_0-a_極細3
  6
CONTINUOUS
 62
    7
 10
251.49934122253669
 20
219.25170578847815
 40
1.825531472681392
  0
CIRCLE
  8
_0-a_極細3
  6
CONTINUOUS
 62
    7
 10
663.16600788920016
 20
232.84545578847769
 40
1.825531472681392
  0
LINE
  8
_0-a_極細3
  6
CONTINUOUS
 62
    7
 10
688.50465731460747
 20
216.5363354952749
 11
688.50465731460747
 21
148.20300216194099
  0
LINE
  8
_0-a_極細3
  6
CONTINUOUS
 62
    7
 10
605.17132398127433
 20
148.20300216194099
 11
688.50465731460747
 21
148.20300216194099
  0
LINE
  8
_0-a_極細3
  6
CONTINUOUS
 62
    7
 10
688.50465731460747
 20
216.5363354952749
 11
719.34907112638848
 21
216.5363354952749
  0
LINE
  8
_0-a_極細3
  6
CONTINUOUS
 62
    7
 10
605.17132398127433
 20
148.20300216194099
 11
605.17132398127433
 21
121.96140186716207
  0
LINE
  8
_0-a_極細3
  6
CONTINUOUS
 62
    7
 10
696.79465972920025
 20
121.96140186716207
 11
719.34907116792874
 21
144.51581330589102
  0
LINE
  8
_0-a_極細3
  6
CONTINUOUS
 62
    7
 10
626.08398161054538
 20
121.96140186716207
 11
652.32558190532473
 21
148.20300216194099
  0
LINE
  8
_0-a_極細3
  6
CONTINUOUS
 62
    7
 10
688.50465731460747
 20
184.38207757122356
 11
719.34907112714427
 21
215.22649138376053
  0
LINE
  8
_0-a_極細3
  6
CONTINUOUS
 62
    7
 10
689.7235919173354
 20
121.96140186716207
 11
719.34907116385057
 21
151.58688111367815
  0
LINE
  8
_0-a_極細3
  6
CONTINUOUS
 62
    7
 10
619.01291379868053
 20
121.96140186716207
 11
645.25451409345987
 21
148.20300216194099
  0
LINE
  8
_0-a_極細3
  6
CONTINUOUS
 62
    7
 10
688.50465731460747
 20
191.45314538308938
 11
713.58784724724228
 21
216.53633531572427
  0
LINE
  8
_0-a_極細3
  6
CONTINUOUS
 62
    7
 10
682.65252410546964
 20
121.96140186716207
 11
719.34907115977239
 21
158.65794892146482
  0
LINE
  8
_0-a_極細3
  6
CONTINUOUS
 62
    7
 10
611.94184598681568
 20
121.96140186716207
 11
638.18344628159412
 21
148.20300216194099
  0
LINE
  8
_0-a_極細3
  6
CONTINUOUS
 62
    7
 10
688.50465731460747
 20
198.52421319495511
 11
706.51677948599274
 21
216.53633536634038
  0
CIRCLE
  8
_0-a_極細3
  6
CONTINUOUS
 62
    7
 10
591.57711900031245
 20
207.05733850452702
 40
0.5530864197530718
  0
CIRCLE
  8
_0-a_極細3
  6
CONTINUOUS
 62
    7
 10
601.53267455586683
 20
211.85733850452721
 40
0.5530864197530718
  0
CIRCLE
  8
_0-a_極細3
  6
CONTINUOUS
 62
    7
 10
597.44378566697924
 20
186.87956072674956
 40
0.5530864197530718
  0
CIRCLE
  8
_0-a_極細3
  6
CONTINUOUS
 62
    7
 10
614.97711900031209
 20
169.85733850452766
 40
0.5530864197530718
  0
CIRCLE
  8
_0-a_極細3
  6
CONTINUOUS
 62
    7
 10
597.14378566697815
 20
146.55733850452791
 40
0.5530864197530718
  0
CIRCLE
  8
_0-a_極細3
  6
CONTINUOUS
 62
    7
 10
587.81045233364603
 20
128.69067183786115
 40
0.5530864197530718
  0
CIRCLE
  8
_0-a_極細3
  6
CONTINUOUS
 62
    7
 10
599.27711900031136
 20
158.55733850452751
 40
0.5530864197530718
  0
CIRCLE
  8
_0-a_極細3
  6
CONTINUOUS
 62
    7
 10
613.14378566697815
 20
153.75733850452775
 40
0.5530864197530718
  0
CIRCLE
  8
_0-a_極細3
  6
CONTINUOUS
 62
    7
 10
640.07711900031154
 20
154.02400517119418
 40
0.5530864197530718
  0
CIRCLE
  8
_0-a_極細3
  6
CONTINUOUS
 62
    7
 10
628.07711900031245
 20
163.09067183786084
 40
0.5530864197530718
  0
CIRCLE
  8
_0-a_極細3
  6
CONTINUOUS
 62
    7
 10
639.27711900031136
 20
168.69067183786072
 40
0.5530864197530718
  0
CIRCLE
  8
_0-a_極細3
  6
CONTINUOUS
 62
    7
 10
627.29934122253326
 20
222.9795607267495
 40
0.5530864197530718
  0
CIRCLE
  8
_0-a_極細3
  6
CONTINUOUS
 62
    7
 10
647.83267455586611
 20
222.26844961563782
 40
0.5530864197530718
  0
CIRCLE
  8
_0-a_極細3
  6
CONTINUOUS
 62
    7
 10
636.23267455586665
 20
208.2684496156387
 40
0.5530864197530718
  0
CIRCLE
  8
_0-a_極細3
  6
CONTINUOUS
 62
    7
 10
675.43267455586647
 20
155.06844961563885
 40
0.5530864197530718
  0
CIRCLE
  8
_0-a_極細3
  6
CONTINUOUS
 62
    7
 10
682.63267455586629
 20
169.06844961563891
 40
0.5530864197530718
  0
CIRCLE
  8
_0-a_極細3
  6
CONTINUOUS
 62
    7
 10
681.03267455586683
 20
189.86844961563861
 40
0.5530864197530718
  0
CIRCLE
  8
_0-a_極細3
  6
CONTINUOUS
 62
    7
 10
660.23267455586665
 20
191.46844961563858
 40
0.5530864197530718
  0
CIRCLE
  8
_0-a_極細3
  6
CONTINUOUS
 62
    7
 10
640.6326745558672
 20
197.06844961563846
 40
0.5530864197530718
  0
CIRCLE
  8
_0-a_極細3
  6
CONTINUOUS
 62
    7
 10
663.03267455586695
 20
211.06844961563843
 40
0.5530864197530718
  0
CIRCLE
  8
_0-a_極細3
  6
CONTINUOUS
 62
    7
 10
677.03267455586683
 20
203.86844961563816
 40
0.5530864197530718
  0
CIRCLE
  8
_0-a_極細3
  6
CONTINUOUS
 62
    7
 10
706.63267455586629
 20
225.068449615638
 40
0.5530864197530718
  0
CIRCLE
  8
_0-a_極細3
  6
CONTINUOUS
 62
    7
 10
686.18823011142194
 20
223.37184467736711
 40
1.825531472681392
  0
CIRCLE
  8
_0-a_極細3
  6
CONTINUOUS
 62
    7
 10
662.7660078891995
 20
197.94962245514469
 40
1.825531472681392
  0
CIRCLE
  8
_0-a_極細3
  6
CONTINUOUS
 62
    7
 10
592.37156344475625
 20
153.39962245514542
 40
1.825531472681392
  0
CIRCLE
  8
_0-a_極細3
  6
CONTINUOUS
 62
    7
 10
637.79378566697778
 20
160.86628912181169
 40
1.825531472681392
  0
CIRCLE
  8
_0-a_極細3
  6
CONTINUOUS
 62
    7
 10
684.05897830226149
 20
150.67923672984236
 40
1.825531472681392
  0
CIRCLE
  8
_0-a_極細3
  6
CONTINUOUS
 62
    7
 10
633.39378566697815
 20
204.06628912181148
 40
1.825531472681392
  0
CIRCLE
  8
_0-a_極細3
  6
CONTINUOUS
 62
    7
 10
585.92773628426312
 20
198.6430837147752
 40
0.5530864197530718
  0
CIRCLE
  8
_0-a_極細3
  6
CONTINUOUS
 62
    7
 10
586.12773628426294
 20
174.68752815921994
 40
0.5530864197530718
  0
LINE
  8
_0-a_極細3
  6
CONTINUOUS
 62
    7
 10
572.67132398127342
 20
223.20300216194099
 11
571.83799064794039
 21
223.20300216194099
  0
LINE
  8
_0-a_極細3
  6
CONTINUOUS
 62
    7
 10
571.83799064794039
 20
223.20300216194099
 11
571.83799064794039
 21
121.96140186716207
  0
CIRCLE
  8
_0-a_極細3
  6
CONTINUOUS
 62
    7
 10
577.82238649002466
 20
183.14622739341644
 40
0.5530864197530718
  0
CIRCLE
  8
_0-a_極細3
  6
CONTINUOUS
 62
    7
 10
579.12897085216355
 20
143.89067183786096
 40
0.5530864197530718
  0
CIRCLE
  8
_0-a_極細3
  6
CONTINUOUS
 62
    7
 10
578.49008196327395
 20
209.84406689958973
 40
1.825531472681392
  0
CIRCLE
  8
_0-a_極細3
  6
CONTINUOUS
 62
    7
 10
581.43823011142285
 20
137.22184467736702
 40
1.825531472681392
  0
LINE
  8
_0-a_極細3
  6
CONTINUOUS
 62
    7
 10
205.1713239812743
 20
216.5363354952749
 11
205.1713239812743
 21
148.20300216194099
  0
LINE
  8
_0-a_極細3
  6
CONTINUOUS
 62
    7
 10
288.50465731460736
 20
148.20300216194099
 11
205.1713239812743
 21
148.20300216194099
  0
LINE
  8
_0-a_極細3
  6
CONTINUOUS
 62
    7
 10
205.1713239812743
 20
216.5363354952749
 11
174.3269101694932
 21
216.5363354952749
  0
LINE
  8
_0-a_極細3
  6
CONTINUOUS
 62
    7
 10
288.50465731460736
 20
148.20300216194099
 11
288.50465731460736
 21
121.96140186716207
  0
LINE
  8
_0-a_極細3
  6
CONTINUOUS
 62
    7
 10
251.08268274961759
 20
121.96140198359878
 11
277.32428292796072
 21
148.20300216194099
  0
LINE
  8
_0-a_極細3
  6
CONTINUOUS
 62
    7
 10
180.37200485097671
 20
121.96140220361187
 11
206.61360480930583
 21
148.20300216194099
  0
LINE
  8
_0-a_極細3
  6
CONTINUOUS
 62
    7
 10
174.3269101694932
 20
186.62698564078326
 11
204.23626002398493
 21
216.5363354952749
  0
LINE
  8
_0-a_極細3
  6
CONTINUOUS
 62
    7
 10
244.01161495975344
 20
121.96140200560038
 11
270.25321511609491
 21
148.20300216194099
  0
LINE
  8
_0-a_極細3
  6
CONTINUOUS
 62
    7
 10
174.3269101694932
 20
122.98737533399411
 11
205.1713239812743
 21
153.8317891457757
  0
LINE
  8
_0-a_極細3
  6
CONTINUOUS
 62
    7
 10
174.3269101694932
 20
193.69805345264899
 11
197.16519221211826
 21
216.5363354952749
  0
LINE
  8
_0-a_極細3
  6
CONTINUOUS
 62
    7
 10
236.94054716988921
 20
121.96140202760148
 11
263.18214730422915
 21
148.20300216194099
  0
LINE
  8
_0-a_極細3
  6
CONTINUOUS
 62
    7
 10
174.3269101694932
 20
130.05844314585985
 11
205.1713239812743
 21
160.90285695764101
  0
LINE
  8
_0-a_極細3
  6
CONTINUOUS
 62
    7
 10
174.3269101694932
 20
200.76912126451433
 11
190.09412440025335
 21
216.5363354952749
  0
CIRCLE
  8
_0-a_極細3
  6
CONTINUOUS
 62
    7
 10
181.89193381512993
 20
221.78419035637921
 40
0.5530864197530718
  0
CIRCLE
  8
_0-a_極細3
  6
CONTINUOUS
 62
    7
 10
192.49934122253677
 20
222.85085702304585
 40
0.5530864197530718
  0
CIRCLE
  8
_0-a_極細3
  6
CONTINUOUS
 62
    7
 10
205.12156344475898
 20
224.80641257860114
 40
0.5530864197530718
  0
CIRCLE
  8
_0-a_極細3
  6
CONTINUOUS
 62
    7
 10
212.06600788920426
 20
217.55085702304567
 40
0.5530864197530718
  0
CIRCLE
  8
_0-a_極細3
  6
CONTINUOUS
 62
    7
 10
232.51045233364763
 20
216.30641257860111
 40
0.5530864197530718
  0
CIRCLE
  8
_0-a_極細3
  6
CONTINUOUS
 62
    7
 10
257.57711900031427
 20
212.57307924526799
 40
0.5530864197530718
  0
CIRCLE
  8
_0-a_極細3
  6
CONTINUOUS
 62
    7
 10
244.9548967780911
 20
206.88419035637912
 40
0.5530864197530718
  0
CIRCLE
  8
_0-a_極細3
  6
CONTINUOUS
 62
    7
 10
230.19934122253744
 20
193.37307924526769
 40
0.5530864197530718
  0
CIRCLE
  8
_0-a_極細3
  6
CONTINUOUS
 62
    7
 10
257.57711900031427
 20
200.66196813415701
 40
0.5530864197530718
  0
CIRCLE
  8
_0-a_極細3
  6
CONTINUOUS
 62
    7
 10
211.48823011142582
 20
187.23974591193496
 40
0.5530864197530718
  0
CIRCLE
  8
_0-a_極細3
  6
CONTINUOUS
 62
    7
 10
216.46600788920387
 20
173.55085702304606
 40
0.5530864197530718
  0
CIRCLE
  8
_0-a_極細3
  6
CONTINUOUS
 62
    7
 10
210.77711900031409
 20
155.59530146749034
 40
0.5530864197530718
  0
CIRCLE
  8
_0-a_極細3
  6
CONTINUOUS
 62
    7
 10
219.48823011142579
 20
162.35085702304588
 40
0.5530864197530718
  0
CIRCLE
  8
_0-a_極細3
  6
CONTINUOUS
 62
    7
 10
225.71045233364842
 20
153.81752368971297
 40
0.5530864197530718
  0
CIRCLE
  8
_0-a_極細3
  6
CONTINUOUS
 62
    7
 10
265.01045233364766
 20
171.70641257860169
 40
0.5530864197530718
  0
CIRCLE
  8
_0-a_極細3
  6
CONTINUOUS
 62
    7
 10
253.81045233364694
 20
166.19530146749028
 40
0.5530864197530718
  0
CIRCLE
  8
_0-a_極細3
  6
CONTINUOUS
 62
    7
 10
260.03267455586956
 20
163.70641257860171
 40
0.5530864197530718
  0
CIRCLE
  8
_0-a_極細3
  6
CONTINUOUS
 62
    7
 10
256.47711900031481
 20
154.4619681341571
 40
0.5530864197530718
  0
CIRCLE
  8
_0-a_極細3
  6
CONTINUOUS
 62
    7
 10
276.3882301114254
 20
155.52863480082374
 40
0.5530864197530718
  0
CIRCLE
  8
_0-a_極細3
  6
CONTINUOUS
 62
    7
 10
289.3660078892035
 20
158.72863480082401
 40
0.5530864197530718
  0
CIRCLE
  8
_0-a_極細3
  6
CONTINUOUS
 62
    7
 10
303.05489677809146
 20
143.79530146749062
 40
0.5530864197530718
  0
CIRCLE
  8
_0-a_極細3
  6
CONTINUOUS
 62
    7
 10
296.12156344475898
 20
128.86196813415765
 40
0.5530864197530718
  0
CIRCLE
  8
_0-a_極細3
  6
CONTINUOUS
 62
    7
 10
279.45489677809206
 20
172.4767829489717
 40
0.5530864197530718
  0
CIRCLE
  8
_0-a_極細3
  6
CONTINUOUS
 62
    7
 10
294.21045233364657
 20
206.61011628230497
 40
0.5530864197530718
  0
CIRCLE
  8
_0-a_極細3
  6
CONTINUOUS
 62
    7
 10
309.32156344475789
 20
196.65456072674971
 40
0.5530864197530718
  0
CIRCLE
  8
_0-a_極細3
  6
CONTINUOUS
 62
    7
 10
309.8548967780917
 20
178.69900517119433
 40
0.5530864197530718
  0
CIRCLE
  8
_0-a_極細3
  6
CONTINUOUS
 62
    7
 10
274.61045233364803
 20
208.43233850452748
 40
0.5530864197530718
  0
CIRCLE
  8
_0-a_極細3
  6
CONTINUOUS
 62
    7
 10
229.09934122253708
 20
207.61628912181121
 40
1.825531472681392
  0
CIRCLE
  8
_0-a_極細3
  6
CONTINUOUS
 62
    7
 10
209.49934122253671
 20
169.61628912181169
 40
1.825531472681392
  0
CIRCLE
  8
_0-a_極細3
  6
CONTINUOUS
 62
    7
 10
262.69934122253562
 20
156.81628912181145
 40
1.825531472681392
  0
CIRCLE
  8
_0-a_極細3
  6
CONTINUOUS
 62
    7
 10
298.67711900031372
 20
153.21628912181197
 40
1.825531472681392
  0
CIRCLE
  8
_0-a_極細3
  6
CONTINUOUS
 62
    7
 10
303.477119000313
 20
134.54962245514551
 40
1.825531472681392
  0
LINE
  8
_0-a_極細3
  6
CONTINUOUS
 62
    7
 10
321.00465731460736
 20
223.20300216194099
 11
321.8379906479413
 21
223.20300216194099
  0
LINE
  8
_0-a_極細3
  6
CONTINUOUS
 62
    7
 10
321.8379906479413
 20
223.20300216194099
 11
321.8379906479413
 21
121.96140186716207
  0
CIRCLE
  8
_0-a_極細3
  6
CONTINUOUS
 62
    7
 10
314.9505565003119
 20
207.21628912181157
 40
1.825531472681392
  0
CIRCLE
  8
_0-a_極細3
  6
CONTINUOUS
 62
    7
 10
313.95860048179475
 20
152.50641257860181
 40
0.5530864197530718
  0
CIRCLE
  8
_0-a_極細3
  6
CONTINUOUS
 62
    7
 10
315.29193381512869
 20
129.85034154543223
 40
0.5530864197530718
  0
CIRCLE
  8
_0-a_極細3
  6
CONTINUOUS
 62
    7
 10
302.92156344475461
 20
188.10517801070068
 40
1.825531472681392
  0
CIRCLE
  8
_0-a_極細3
  6
CONTINUOUS
 62
    7
 10
192.22279801265998
 20
232.14182924526793
 40
0.5530864197530718
  0
CIRCLE
  8
_0-a_極細3
  6
CONTINUOUS
 62
    7
 10
239.25489677809225
 20
230.01752368971188
 40
0.5530864197530718
  0
CIRCLE
  8
_0-a_極細3
  6
CONTINUOUS
 62
    7
 10
254.32156344475885
 20
230.64962245514451
 40
1.825531472681392
  0
CIRCLE
  8
_0-a_極細3
  6
CONTINUOUS
 62
    7
 10
697.35099309128054
 20
239.40934467736656
 40
1.825531472681392
  0
CIRCLE
  8
_0-a_極細3
  6
CONTINUOUS
 62
    7
 10
536.83799064794039
 20
250.86966882860793
 40
3.333333333333333
  0
CIRCLE
  8
_0-a_極細3
  6
CONTINUOUS
 62
    7
 10
356.8379906479413
 20
250.86966882860793
 40
3.333333333333333
  0
LINE
  8
_0-a_極細3
  6
CONTINUOUS
 62
    7
 10
614.33799064794039
 20
268.20300216194141
 11
279.3379906479413
 21
268.20300216194141
  0
CIRCLE
  8
_0-a_極細3
  6
CONTINUOUS
 62
    7
 10
629.78823011142231
 20
251.04622739341565
 40
0.5530864197530718
  0
CIRCLE
  8
_0-a_極細3
  6
CONTINUOUS
 62
    7
 10
679.83267455586611
 20
239.00178294897137
 40
0.5530864197530718
  0
CIRCLE
  8
_0-a_極細3
  6
CONTINUOUS
 62
    7
 10
693.83267455586622
 20
255.13511628230461
 40
0.5530864197530718
  0
CIRCLE
  8
_0-a_極細3
  6
CONTINUOUS
 62
    7
 10
641.83267455586611
 20
256.06844961563797
 40
0.5530864197530718
  0
LINE
  8
_0-a_極細3
  6
CONTINUOUS
 62
    7
 10
630.17132398127433
 20
269.86966882860793
 11
630.17132398127433
 21
258.20300216194096
  0
LINE
  8
_0-a_極細3
  6
CONTINUOUS
 62
    7
 10
630.17132398127433
 20
269.86966882860793
 11
719.34907112638848
 21
269.86966882860793
  0
LINE
  8
_0-a_極細3
  6
CONTINUOUS
 62
    7
 10
621.83799064794039
 20
258.20300216194096
 11
719.34907112638848
 21
258.20300216194096
  0
LINE
  8
_0-a_極細3
  6
CONTINUOUS
 62
    7
 10
621.83799064794039
 20
269.86966882860793
 11
630.17132398127433
 21
269.86966882860793
  0
LINE
  8
_0-a_極細3
  6
CONTINUOUS
 62
    7
 10
621.83799064794039
 20
269.03633549527399
 11
621.83799064794039
 21
269.86966882860793
  0
LINE
  8
_0-a_極細3
  6
CONTINUOUS
 62
    7
 10
630.17132398127433
 20
261.87208844266593
 11
626.50223770054981
 21
258.20300216194096
  0
LINE
  8
_0-a_極細3
  6
CONTINUOUS
 62
    7
 10
630.17132398127433
 20
266.11472912978456
 11
622.25959701342981
 21
258.20300216194096
  0
LINE
  8
_0-a_極細3
  6
CONTINUOUS
 62
    7
 10
621.83799064794039
 20
262.02403648357154
 11
629.68362299297769
 21
269.86966882860793
  0
LINE
  8
_0-a_極細3
  6
CONTINUOUS
 62
    7
 10
621.83799064794039
 20
266.26667717069017
 11
625.44098230585769
 21
269.86966882860747
  0
LINE
  8
_0-a_極細3
  6
CONTINUOUS
 62
    7
 10
630.17132398127433
 20
268.3603466191023
 11
628.6620017717687
 21
269.86966882860793
  0
LINE
  8
_0-a_極細3
  6
CONTINUOUS
 62
    7
 10
630.17132398127433
 20
264.11770593198321
 11
624.41936108465052
 21
269.86966882860793
  0
LINE
  8
_0-a_極細3
  6
CONTINUOUS
 62
    7
 10
630.17132398127433
 20
259.87506524486412
 11
621.83799064794039
 21
268.20839857819715
  0
LINE
  8
_0-a_極細3
  6
CONTINUOUS
 62
    7
 10
627.60074637707839
 20
258.20300216194096
 11
621.83799064794039
 21
263.96575789107806
  0
LINE
  8
_0-a_極細3
  6
CONTINUOUS
 62
    7
 10
623.35810568995839
 20
258.20300216194096
 11
621.83799064794039
 21
259.72311720395851
  0
LINE
  8
_0-a_極細3
  6
CONTINUOUS
 62
    7
 10
698.62712938157711
 20
258.20300216194096
 11
710.29379542145489
 21
269.8696682018192
  0
LINE
  8
_0-a_極細3
  6
CONTINUOUS
 62
    7
 10
677.41392594598085
 20
258.20300216194141
 11
689.08059215180765
 21
269.86966836776742
  0
LINE
  8
_0-a_極細3
  6
CONTINUOUS
 62
    7
 10
656.20072251038437
 20
258.20300216194096
 11
667.8673888821595
 21
269.86966853371609
  0
LINE
  8
_0-a_極細3
  6
CONTINUOUS
 62
    7
 10
634.987519074788
 20
258.20300216194096
 11
646.65418561251147
 21
269.86966869966432
  0
LINE
  8
_0-a_極細3
  6
DASHED2
 62
    7
 10
709.23373109937529
 20
258.20300216194141
 11
719.34907112638848
 21
268.31834218895415
  0
LINE
  8
_0-a_極細3
  6
DASHED2
 62
    7
 10
688.02052766377892
 20
258.20300216194096
 11
699.68719378663081
 21
269.86966828479331
  0
LINE
  8
_0-a_極細3
  6
DASHED2
 62
    7
 10
666.80732422818255
 20
258.20300216194096
 11
678.47399051698358
 21
269.86966845074198
  0
LINE
  8
_0-a_極細3
  6
DASHED2
 62
    7
 10
645.59412079258618
 20
258.20300216194096
 11
657.26078724733543
 21
269.86966861669021
  0
LINE
  8
_0-a_極細3
  6
DASHED2
 62
    7
 10
630.17132398127433
 20
263.99340878622547
 11
636.04758397768728
 21
269.86966878263843
  0
CIRCLE
  8
_0-a_極細3
  6
CONTINUOUS
 62
    7
 10
233.56600788920332
 20
244.87307924526775
 40
0.5530864197530718
  0
CIRCLE
  8
_0-a_極細3
  6
CONTINUOUS
 62
    7
 10
258.45489677809201
 20
254.82863480082301
 40
0.5530864197530718
  0
CIRCLE
  8
_0-a_極細3
  6
CONTINUOUS
 62
    7
 10
264.14378566698088
 20
238.65085702304555
 40
0.5530864197530718
  0
CIRCLE
  8
_0-a_極細3
  6
CONTINUOUS
 62
    7
 10
227.52156344475864
 20
253.05085702304567
 40
0.5530864197530718
  0
CIRCLE
  8
_0-a_極細3
  6
CONTINUOUS
 62
    7
 10
202.55944374332373
 20
245.67923672984284
 40
1.825531472681392
  0
CIRCLE
  8
_0-a_極細3
  6
CONTINUOUS
 62
    7
 10
182.36236420224401
 20
246.57184467736647
 40
1.825531472681392
  0
LINE
  8
_0-a_極細3
  6
CONTINUOUS
 62
    7
 10
263.50465731460736
 20
269.86966882860793
 11
263.50465731460736
 21
258.20300216194096
  0
LINE
  8
_0-a_極細3
  6
CONTINUOUS
 62
    7
 10
263.50465731460736
 20
269.86966882860793
 11
174.3269101694932
 21
269.86966882860793
  0
LINE
  8
_0-a_極細3
  6
CONTINUOUS
 62
    7
 10
271.8379906479413
 20
258.20300216194096
 11
174.3269101694932
 21
258.20300216194096
  0
LINE
  8
_0-a_極細3
  6
CONTINUOUS
 62
    7
 10
271.8379906479413
 20
269.86966882860793
 11
263.50465731460736
 21
269.86966882860793
  0
LINE
  8
_0-a_極細3
  6
CONTINUOUS
 62
    7
 10
271.8379906479413
 20
269.03633549527399
 11
271.8379906479413
 21
269.86966882860793
  0
LINE
  8
_0-a_極細3
  6
CONTINUOUS
 62
    7
 10
271.63990039158125
 20
258.20300216194096
 11
271.8379906479413
 21
258.40109241830055
  0
LINE
  8
_0-a_極細3
  6
CONTINUOUS
 62
    7
 10
267.39725970446216
 20
258.20300216194096
 11
271.8379906479413
 21
262.6437331054201
  0
LINE
  8
_0-a_極細3
  6
CONTINUOUS
 62
    7
 10
263.50465731460736
 20
258.55304045920616
 11
271.8379906479413
 21
266.88637379253873
  0
LINE
  8
_0-a_極細3
  6
CONTINUOUS
 62
    7
 10
263.50465731460736
 20
262.7956811463248
 11
270.57864499689003
 21
269.86966882860793
  0
LINE
  8
_0-a_極細3
  6
CONTINUOUS
 62
    7
 10
263.50465731460736
 20
267.03832183344434
 11
266.33600430977185
 21
269.86966882860793
  0
LINE
  8
_0-a_極細3
  6
CONTINUOUS
 62
    7
 10
271.8379906479413
 20
267.58870195634904
 11
269.55702377568286
 21
269.86966882860793
  0
LINE
  8
_0-a_極細3
  6
CONTINUOUS
 62
    7
 10
271.8379906479413
 20
263.34606126922949
 11
265.31438308856286
 21
269.86966882860793
  0
LINE
  8
_0-a_極細3
  6
CONTINUOUS
 62
    7
 10
263.50465731460736
 20
267.43675391544434
 11
271.8379906479413
 21
259.10342058211086
  0
LINE
  8
_0-a_極細3
  6
CONTINUOUS
 62
    7
 10
263.50465731460736
 20
263.1941132283248
 11
268.49576838099074
 21
258.20300216194096
  0
LINE
  8
_0-a_極細3
  6
CONTINUOUS
 62
    7
 10
263.50465731460736
 20
258.9514725412057
 11
264.25312769387165
 21
258.20300216194096
  0
LINE
  8
_0-a_極細3
  6
CONTINUOUS
 62
    7
 10
254.66933763697668
 20
258.20300215581369
 11
263.50465731460736
 21
267.03832183344434
  0
LINE
  8
_0-a_極細3
  6
CONTINUOUS
 62
    7
 10
233.45613418666929
 20
258.20300214110216
 11
245.12280087417551
 21
269.86966882860747
  0
LINE
  8
_0-a_極細3
  6
CONTINUOUS
 62
    7
 10
212.24293073636181
 20
258.20300212639108
 11
223.9095974385782
 21
269.86966882860793
  0
LINE
  8
_0-a_極細3
  6
CONTINUOUS
 62
    7
 10
191.02972728605351
 20
258.20300211168001
 11
202.69639400298189
 21
269.86966882860793
  0
LINE
  8
_0-a_極細3
  6
CONTINUOUS
 62
    7
 10
174.3269101694932
 20
262.71338843071567
 11
181.48319056738544
 21
269.86966882860747
  0
LINE
  8
_0-a_極細3
  6
DASHED2
 62
    7
 10
244.06273591182341
 20
258.20300214845815
 11
255.72940259197367
 21
269.86966882860793
  0
LINE
  8
_0-a_極細3
  6
DASHED2
 62
    7
 10
222.84953246151508
 20
258.20300213374708
 11
234.51619915637636
 21
269.86966882860793
  0
LINE
  8
_0-a_極細3
  6
DASHED2
 62
    7
 10
201.63632901120855
 20
258.203002119036
 11
213.30299572077911
 21
269.86966882860793
  0
LINE
  8
_0-a_極細3
  6
DASHED2
 62
    7
 10
180.42312556090025
 20
258.20300210432447
 11
192.08979228518365
 21
269.86966882860793
  0
CIRCLE
  8
_0-a_極細3
  6
CONTINUOUS
 62
    7
 10
242.01785974105496
 20
250.260733566254
 40
1.825531472681392
  0
LINE
  8
_0-a_極細3
  6
CENTER1
 62
    7
 10
446.83799064794044
 20
212.01717267649178
 11
446.83799064794044
 21
283.800506009831
  0
CIRCLE
  8
_0-b_細線3
  6
CONTINUOUS
 62
    7
 10
536.83799064794039
 20
250.86966882860793
 40
10.833333333333332
  0
LINE
  8
_0-b_細線3
  6
CONTINUOUS
 62
    7
 10
530.17132398127342
 20
250.86966882860793
 11
533.50465731460736
 21
256.64317152050421
  0
LINE
  8
_0-b_細線3
  6
CONTINUOUS
 62
    7
 10
533.50465731460736
 20
256.64317152050421
 11
540.17132398127342
 21
256.64317152050421
  0
LINE
  8
_0-b_細線3
  6
CONTINUOUS
 62
    7
 10
540.17132398127342
 20
256.64317152050421
 11
543.50465731460736
 21
250.86966882860793
  0
LINE
  8
_0-b_細線3
  6
CONTINUOUS
 62
    7
 10
543.50465731460736
 20
250.86966882860793
 11
540.17132398127342
 21
245.09616613671119
  0
LINE
  8
_0-b_細線3
  6
CONTINUOUS
 62
    7
 10
540.17132398127342
 20
245.09616613671119
 11
533.50465731460736
 21
245.09616613671119
  0
LINE
  8
_0-b_細線3
  6
CONTINUOUS
 62
    7
 10
533.50465731460736
 20
245.09616613671119
 11
530.17132398127342
 21
250.86966882860793
  0
CIRCLE
  8
_0-b_細線3
  6
CONTINUOUS
 62
    7
 10
356.8379906479413
 20
250.86966882860793
 40
10.833333333333332
  0
LINE
  8
_0-b_細線3
  6
CONTINUOUS
 62
    7
 10
363.50465731460827
 20
250.86966882860793
 11
360.17132398127438
 21
256.64317152050421
  0
LINE
  8
_0-b_細線3
  6
CONTINUOUS
 62
    7
 10
360.17132398127438
 20
256.64317152050421
 11
353.50465731460827
 21
256.64317152050421
  0
LINE
  8
_0-b_細線3
  6
CONTINUOUS
 62
    7
 10
353.50465731460827
 20
256.64317152050421
 11
350.17132398127438
 21
250.86966882860793
  0
LINE
  8
_0-b_細線3
  6
CONTINUOUS
 62
    7
 10
350.17132398127438
 20
250.86966882860793
 11
353.50465731460827
 21
245.09616613671119
  0
LINE
  8
_0-b_細線3
  6
CONTINUOUS
 62
    7
 10
353.50465731460827
 20
245.09616613671119
 11
360.17132398127438
 21
245.09616613671119
  0
LINE
  8
_0-b_細線3
  6
CONTINUOUS
 62
    7
 10
360.17132398127438
 20
245.09616613671119
 11
363.50465731460827
 21
250.86966882860793
  0
LINE
  8
_0-b_細線3
  6
CONTINUOUS
 62
    7
 10
279.3379906479413
 20
263.36966882860793
 11
614.33799064794039
 21
263.36966882860793
  0
ARC
  8
_0-b_細線3
  6
CONTINUOUS
 62
    7
 10
616.83799064794039
 20
228.20300216194099
 40
4.9999999999999991
 50
269.99999999999977
 51
359.99999999999966
  0
LINE
  8
_0-b_細線3
  6
CONTINUOUS
 62
    7
 10
621.83799064794039
 20
228.20300216194099
 11
621.83799064794039
 21
269.03633549527399
  0
LINE
  8
_0-b_細線3
  6
CONTINUOUS
 62
    7
 10
616.83799064794039
 20
223.20300216194099
 11
572.67132398127342
 21
223.20300216194099
  0
LINE
  8
_0-b_細線3
  6
CONTINUOUS
 62
    7
 10
571.83799064794039
 20
224.0363354952749
 11
572.67132398127342
 21
223.20300216194099
  0
LINE
  8
_0-b_細線3
  6
CONTINUOUS
 62
    7
 10
571.83799064794039
 20
227.36966882860796
 11
571.83799064794039
 21
224.0363354952749
  0
LINE
  8
_0-b_細線3
  6
CONTINUOUS
 62
    7
 10
572.67132398127342
 20
228.20300216194099
 11
571.83799064794039
 21
227.36966882860796
  0
LINE
  8
_0-b_細線3
  6
CONTINUOUS
 62
    7
 10
616.83799064794039
 20
228.20300216194099
 11
572.67132398127342
 21
228.20300216194099
  0
LINE
  8
_0-b_細線3
  6
CONTINUOUS
 62
    7
 10
621.00465731460827
 20
269.86966882860793
 11
621.83799064794039
 21
269.03633549527399
  0
LINE
  8
_0-b_細線3
  6
CONTINUOUS
 62
    7
 10
617.67132398127433
 20
269.86966882860793
 11
621.00465731460827
 21
269.86966882860793
  0
LINE
  8
_0-b_細線3
  6
CONTINUOUS
 62
    7
 10
616.83799064794039
 20
269.03633549527399
 11
617.67132398127433
 21
269.86966882860793
  0
LINE
  8
_0-b_細線3
  6
CONTINUOUS
 62
    7
 10
616.83799064794039
 20
228.20300216194099
 11
616.83799064794039
 21
269.03633549527399
  0
ARC
  8
_0-b_細線3
  6
CONTINUOUS
 62
    7
 10
276.8379906479413
 20
228.20300216194099
 40
4.9999999999999991
 50
179.99999999999983
 51
269.99999999999977
  0
LINE
  8
_0-b_細線3
  6
CONTINUOUS
 62
    7
 10
271.8379906479413
 20
228.20300216194099
 11
271.8379906479413
 21
269.03633549527399
  0
LINE
  8
_0-b_細線3
  6
CONTINUOUS
 62
    7
 10
276.8379906479413
 20
223.20300216194099
 11
321.00465731460736
 21
223.20300216194099
  0
LINE
  8
_0-b_細線3
  6
CONTINUOUS
 62
    7
 10
321.8379906479413
 20
224.0363354952749
 11
321.00465731460736
 21
223.20300216194099
  0
LINE
  8
_0-b_細線3
  6
CONTINUOUS
 62
    7
 10
321.8379906479413
 20
227.36966882860796
 11
321.8379906479413
 21
224.0363354952749
  0
LINE
  8
_0-b_細線3
  6
CONTINUOUS
 62
    7
 10
321.00465731460736
 20
228.20300216194099
 11
321.8379906479413
 21
227.36966882860796
  0
LINE
  8
_0-b_細線3
  6
CONTINUOUS
 62
    7
 10
276.8379906479413
 20
228.20300216194099
 11
321.00465731460736
 21
228.20300216194099
  0
LINE
  8
_0-b_細線3
  6
CONTINUOUS
 62
    7
 10
272.67132398127433
 20
269.86966882860793
 11
271.8379906479413
 21
269.03633549527399
  0
LINE
  8
_0-b_細線3
  6
CONTINUOUS
 62
    7
 10
276.00465731460736
 20
269.86966882860793
 11
272.67132398127433
 21
269.86966882860793
  0
LINE
  8
_0-b_細線3
  6
CONTINUOUS
 62
    7
 10
276.8379906479413
 20
269.03633549527399
 11
276.00465731460736
 21
269.86966882860793
  0
LINE
  8
_0-b_細線3
  6
CONTINUOUS
 62
    7
 10
276.8379906479413
 20
228.20300216194099
 11
276.8379906479413
 21
269.03633549527399
  0
LINE
  8
_0-d_寸法3
  6
CONTINUOUS
 62
    7
 10
261.8379906479413
 20
223.20300216194144
 11
215.88795956935158
 21
223.20300216194144
  0
LINE
  8
_0-d_寸法3
  6
CONTINUOUS
 62
    7
 10
220.88795956935158
 20
223.20300216194141
 11
223.47615002037671
 21
213.54374389905075
  0
LINE
  8
_0-d_寸法3
  6
CONTINUOUS
 62
    7
 10
220.88795956935158
 20
223.20300216194141
 11
218.29976911832631
 21
213.54374389905075
  0
LINE
  8
_0-d_寸法3
  6
CONTINUOUS
 62
    7
 10
259.8379906479413
 20
184.86966882860798
 11
215.88795956935243
 21
184.86966882860798
  0
LINE
  8
_0-d_寸法3
  6
CONTINUOUS
 62
    7
 10
220.88795956935243
 20
184.86966882860798
 11
218.29976911832722
 21
194.52892709149864
  0
LINE
  8
_0-d_寸法3
  6
CONTINUOUS
 62
    7
 10
220.88795956935243
 20
184.86966882860798
 11
223.4761500203777
 21
194.52892709149864
  0
LINE
  8
_0-d_寸法3
  6
CONTINUOUS
 62
    7
 10
220.88795956935158
 20
223.20300216194141
 11
220.88795956935243
 21
184.86966882860798
  0
TEXT
  8
_0-d_寸法3
 62
    7
 10
220.88795956935243
 20
196.5363354952749
 40
15
 41
1
 50
90
  1
23
  0
LINE
  8
_0-d_寸法3
  6
CONTINUOUS
 62
    7
 10
261.8379906479413
 20
269.86966882860798
 11
215.88795956935158
 21
269.86966882860793
  0
LINE
  8
_0-d_寸法3
  6
CONTINUOUS
 62
    7
 10
220.88795956935158
 20
269.86966882860793
 11
223.47615002037671
 21
260.21041056571721
  0
LINE
  8
_0-d_寸法3
  6
CONTINUOUS
 62
    7
 10
220.88795956935158
 20
269.86966882860793
 11
218.29976911832631
 21
260.21041056571727
  0
LINE
  8
_0-d_寸法3
  6
CONTINUOUS
 62
    7
 10
259.8379906479413
 20
223.20300216194144
 11
215.88795956935158
 21
223.20300216194144
  0
LINE
  8
_0-d_寸法3
  6
CONTINUOUS
 62
    7
 10
220.88795956935158
 20
223.20300216194141
 11
218.29976911832631
 21
232.8622604248321
  0
LINE
  8
_0-d_寸法3
  6
CONTINUOUS
 62
    7
 10
220.88795956935158
 20
223.20300216194141
 11
223.47615002037671
 21
232.8622604248321
  0
LINE
  8
_0-d_寸法3
  6
CONTINUOUS
 62
    7
 10
220.88795956935158
 20
269.86966882860793
 11
220.88795956935158
 21
223.20300216194141
  0
TEXT
  8
_0-d_寸法3
 62
    7
 10
220.88795956935158
 20
239.0363354952749
 40
15
 41
1
 50
90
  1
28
  0
LINE
  8
_0-a_極細3
  6
CONTINUOUS
 62
    7
 10
228.19792242745598
 20
173.08470332444472
 11
223.06762027757074
 21
187.18009263623321
  0
LINE
  8
_0-a_極細3
  6
CONTINUOUS
 62
    7
 10
278.19196510125221
 20
207.2437133354795
 11
283.32226725113696
 21
193.14832402369098
  0
LINE
  8
_0-a_極細3
  6
CONTINUOUS
 62
    7
 10
223.06762027757074
 20
187.18009263623321
 11
278.19196510125221
 21
207.2437133354795
  0
LINE
  8
_0-a_極細3
  6
CONTINUOUS
 62
    7
 10
228.19792242745598
 20
173.08470332444472
 11
283.32226725113696
 21
193.14832402369098
  0
LINE
  8
_0-a_極細3
  6
CENTER1
 62
    7
 10
220.67733796052067
 20
178.32876794030909
 11
284.70835844308658
 21
201.63415342534449
  0
LINE
  8
_0-a_極細3
  6
CONTINUOUS
 62
    7
 10
246.8379906479413
 20
148.20300216194099
 11
246.8379906479413
 21
192.28856351025726
  0
LINE
  8
_0-a_極細3
  6
CONTINUOUS
 62
    7
 10
246.8379906479413
 20
192.28856351025726
 11
231.8379906479413
 21
192.28856351025726
  0
LINE
  8
_0-a_極細3
  6
CONTINUOUS
 62
    7
 10
231.8379906479413
 20
192.28856351025726
 11
231.8379906479413
 21
148.20300216194099
  0
LINE
  8
_0-a_極細3
  6
CENTER1
 62
    7
 10
239.3379906479413
 20
139.92626187748854
 11
239.3379906479413
 21
196.56428367486683
  0
LINE
  8
_0-a_極細3
  6
CONTINUOUS
 62
    7
 10
665.47805886842571
 20
173.08470332444472
 11
670.60836101831103
 21
187.18009263623321
  0
LINE
  8
_0-a_極細3
  6
CONTINUOUS
 62
    7
 10
615.48401619462902
 20
207.2437133354795
 11
610.35371404474427
 21
193.14832402369098
  0
LINE
  8
_0-a_極細3
  6
CONTINUOUS
 62
    7
 10
670.60836101831103
 20
187.18009263623321
 11
615.48401619462902
 21
207.2437133354795
  0
LINE
  8
_0-a_極細3
  6
CONTINUOUS
 62
    7
 10
665.47805886842571
 20
173.08470332444472
 11
610.35371404474427
 21
193.14832402369098
  0
LINE
  8
_0-a_極細3
  6
CENTER1
 62
    7
 10
672.99864333536107
 20
178.32876794030909
 11
608.9676228527951
 21
201.63415342534449
  0
LINE
  8
_0-a_極細3
  6
CONTINUOUS
 62
    7
 10
646.83799064794039
 20
148.20300216194099
 11
646.83799064794039
 21
192.28856351025726
  0
LINE
  8
_0-a_極細3
  6
CONTINUOUS
 62
    7
 10
646.83799064794039
 20
192.28856351025726
 11
661.83799064794039
 21
192.28856351025726
  0
LINE
  8
_0-a_極細3
  6
CONTINUOUS
 62
    7
 10
661.83799064794039
 20
192.28856351025726
 11
661.83799064794039
 21
148.20300216194099
  0
LINE
  8
_0-a_極細3
  6
CENTER1
 62
    7
 10
654.33799064794039
 20
139.92626187748854
 11
654.33799064794039
 21
196.56428367486683
  0
LINE
  8
_0-a_極細3
  6
CONTINUOUS
 62
    7
 10
269.8379906479413
 20
213.20300216194099
 11
271.8379906479413
 21
213.20300216194099
  0
LINE
  8
_0-b_細線3
  6
CONTINUOUS
 62
    7
 10
271.8379906479413
 20
243.20300216194099
 11
271.8379906479413
 21
184.8696688286077
  0
LINE
  8
_0-b_細線3
  6
CONTINUOUS
 62
    7
 10
271.8379906479413
 20
184.8696688286077
 11
268.00465731460804
 21
184.8696688286077
  0
LINE
  8
_0-b_細線3
  6
CONTINUOUS
 62
    7
 10
268.00465731460804
 20
184.8696688286077
 11
268.00465731460804
 21
243.20300216194099
  0
LINE
  8
_0-b_細線3
  6
CONTINUOUS
 62
    7
 10
268.00465731460804
 20
243.20300216194099
 11
271.8379906479413
 21
243.20300216194099
  0
LINE
  8
_0-a_極細3
  6
CONTINUOUS
 62
    7
 10
268.00465731460804
 20
216.53633549527433
 11
271.8379906479413
 21
216.53633549527433
  0
LINE
  8
_0-a_極細3
  6
CONTINUOUS
 62
    7
 10
268.00465731460804
 20
219.8696688286077
 11
271.8379906479413
 21
219.8696688286077
  0
LINE
  8
_0-a_極細3
  6
CONTINUOUS
 62
    7
 10
268.00465731460804
 20
213.20300216194099
 11
271.8379906479413
 21
213.20300216194099
  0
LINE
  8
_0-a_極細3
  6
CONTINUOUS
 62
    7
 10
268.00465731460804
 20
223.20300216194099
 11
271.8379906479413
 21
223.20300216194099
  0
LINE
  8
_0-a_極細3
  6
CONTINUOUS
 62
    7
 10
271.8379906479413
 20
189.8696688286077
 11
268.00465731460804
 21
189.8696688286077
  0
LINE
  8
_0-a_極細3
  6
CONTINUOUS
 62
    7
 10
268.00465731460804
 20
239.8696688286077
 11
271.8379906479413
 21
239.8696688286077
  0
LINE
  8
_0-b_細線3
  6
CONTINUOUS
 62
    7
 10
621.83799064794061
 20
243.20300216194099
 11
621.83799064794061
 21
184.8696688286077
  0
LINE
  8
_0-b_細線3
  6
CONTINUOUS
 62
    7
 10
621.83799064794061
 20
184.8696688286077
 11
625.67132398127399
 21
184.8696688286077
  0
LINE
  8
_0-b_細線3
  6
CONTINUOUS
 62
    7
 10
625.67132398127399
 20
184.8696688286077
 11
625.67132398127399
 21
243.20300216194099
  0
LINE
  8
_0-b_細線3
  6
CONTINUOUS
 62
    7
 10
625.67132398127399
 20
243.20300216194099
 11
621.83799064794061
 21
243.20300216194099
  0
LINE
  8
_0-a_極細3
  6
CONTINUOUS
 62
    7
 10
625.67132398127399
 20
216.53633549527433
 11
621.83799064794061
 21
216.53633549527433
  0
LINE
  8
_0-a_極細3
  6
CONTINUOUS
 62
    7
 10
625.67132398127399
 20
219.8696688286077
 11
621.83799064794061
 21
219.8696688286077
  0
LINE
  8
_0-a_極細3
  6
CONTINUOUS
 62
    7
 10
625.67132398127399
 20
213.20300216194099
 11
621.83799064794061
 21
213.20300216194099
  0
LINE
  8
_0-a_極細3
  6
CONTINUOUS
 62
    7
 10
625.67132398127399
 20
223.20300216194099
 11
621.83799064794061
 21
223.20300216194099
  0
LINE
  8
_0-a_極細3
  6
CONTINUOUS
 62
    7
 10
621.83799064794061
 20
189.8696688286077
 11
625.67132398127399
 21
189.8696688286077
  0
LINE
  8
_0-a_極細3
  6
CONTINUOUS
 62
    7
 10
625.67132398127399
 20
239.8696688286077
 11
621.83799064794061
 21
239.8696688286077
  0
LINE
  8
_0-7_枠細線
  6
CONTINUOUS
 62
    5
 10
643.60204082189625
 20
232.53632396188084
 11
636.10204082189625
 21
247.53632396188084
  0
LINE
  8
_0-7_枠細線
  6
CONTINUOUS
 62
    5
 10
628.60204082189625
 20
232.53632396188084
 11
643.60204082189625
 21
232.53632396188084
  0
LINE
  8
_0-7_枠細線
  6
CONTINUOUS
 62
    5
 10
636.10204082189625
 20
247.53632396188084
 11
628.60204082189625
 21
232.53632396188084
  0
TEXT
  8
_0-7_枠細線
 62
    5
 10
630.96719209004436
 20
231.58750399703095
 40
12.5
 41
0.8
 50
0
  1
４
  0
LINE
  8
_0-d_寸法3
  6
CONTINUOUS
 62
    7
 10
438.64647020505055
 20
233.93876652545148
 11
403.50616551634982
 21
258.5442727634661
  0
LINE
  8
_0-d_寸法3
  6
CONTINUOUS
 62
    7
 10
407.60192573779477
 20
255.67639058171085
 11
405.01373528676964
 21
265.33564884460151
  0
LINE
  8
_0-d_寸法3
  6
CONTINUOUS
 62
    7
 10
407.60192573779477
 20
255.67639058171085
 11
410.19011618882007
 21
265.33564884460151
  0
LINE
  8
_0-d_寸法3
  6
CONTINUOUS
 62
    7
 10
438.64647020505055
 20
275.60543319211837
 11
403.50616551634982
 21
300.21093943013261
  0
LINE
  8
_0-d_寸法3
  6
CONTINUOUS
 62
    7
 10
407.60192573779477
 20
297.34305724837736
 11
410.19011618882007
 21
287.68379898548676
  0
LINE
  8
_0-d_寸法3
  6
CONTINUOUS
 62
    7
 10
407.60192573779477
 20
297.34305724837736
 11
405.01373528676964
 21
287.68379898548676
  0
LINE
  8
_0-d_寸法3
  6
CONTINUOUS
 62
    7
 10
407.60192573779477
 20
255.67639058171085
 11
407.60192573779477
 21
297.34305724837736
  0
TEXT
  8
_0-d_寸法3
 62
    7
 10
407.60192573779477
 20
272.68804672596701
 40
15
 41
1
 50
90
  1
25
  0
LINE
  8
_0-d_寸法3
  6
CONTINUOUS
 62
    7
 10
271.8379906479413
 20
299.86966882860793
 11
271.8379906479413
 21
359.86966882860747
  0
LINE
  8
_0-d_寸法3
  6
CONTINUOUS
 62
    7
 10
271.8379906479413
 20
354.86966882860747
 11
281.49724891083196
 21
357.45785927963266
  0
LINE
  8
_0-d_寸法3
  6
CONTINUOUS
 62
    7
 10
271.8379906479413
 20
354.86966882860747
 11
281.49724891083196
 21
352.28147837758229
  0
LINE
  8
_0-d_寸法3
  6
CONTINUOUS
 62
    7
 10
621.8379906479413
 20
299.86966882860793
 11
621.8379906479413
 21
359.86966882860747
  0
LINE
  8
_0-d_寸法3
  6
CONTINUOUS
 62
    7
 10
621.8379906479413
 20
354.86966882860747
 11
612.17873238505058
 21
352.28147837758229
  0
LINE
  8
_0-d_寸法3
  6
CONTINUOUS
 62
    7
 10
621.8379906479413
 20
354.86966882860747
 11
612.17873238505058
 21
357.45785927963277
  0
LINE
  8
_0-d_寸法3
  6
CONTINUOUS
 62
    7
 10
271.8379906479413
 20
354.86966882860747
 11
621.8379906479413
 21
354.86966882860747
  0
TEXT
  8
_0-d_寸法3
 62
    7
 10
435.5879906479413
 20
354.86966882860747
 40
15
 41
1
 50
0
  1
210
  0
LINE
  8
_0-d_寸法3
  6
CONTINUOUS
 62
    7
 10
271.8379906479413
 20
274.86966882860747
 11
271.83799064794135
 21
324.86966882860747
  0
LINE
  8
_0-d_寸法3
  6
CONTINUOUS
 62
    7
 10
271.83799064794135
 20
319.86966882860747
 11
262.17873238505064
 21
317.28147837758229
  0
LINE
  8
_0-d_寸法3
  6
CONTINUOUS
 62
    7
 10
271.83799064794135
 20
319.86966882860747
 11
262.17873238505069
 21
322.45785927963277
  0
LINE
  8
_0-d_寸法3
  6
CONTINUOUS
 62
    7
 10
276.8379906479413
 20
274.86966882860747
 11
276.83799064794135
 21
324.86966882860747
  0
CIRCLE
  8
_0-d_寸法3
  6
CONTINUOUS
 62
    1
 10
276.83799064794135
 20
319.86966882860747
 40
1.5000000000000002
  0
LINE
  8
_0-d_寸法3
  6
CONTINUOUS
 62
    7
 10
246.83799064794135
 20
319.86966882860747
 11
276.83799064794135
 21
319.86966882860747
  0
TEXT
  8
_0-d_寸法3
 62
    7
 10
251.30654062574635
 20
319.86966882860747
 40
15
 41
1
 50
0
  1
3
  0
LINE
  8
_0-d_寸法3
  6
CONTINUOUS
 62
    7
 10
279.3379906479413
 20
274.86966882860702
 11
279.33799064794135
 21
324.86966882860747
  0
LINE
  8
_0-d_寸法3
  6
CONTINUOUS
 62
    7
 10
276.83799064794135
 20
319.86966882860747
 11
279.33799064794135
 21
319.86966882860747
  0
TEXT
  8
_0-d_寸法3
 62
    7
 10
280.82673520121784
 20
303.59552873101478
 40
15
 41
1
 50
0
  1
1.5
  0
LINE
  8
_0-d_寸法3
  6
CONTINUOUS
 62
    7
 10
279.33799064794135
 20
319.86966882860747
 11
288.99724891083201
 21
322.45785927963266
  0
LINE
  8
_0-d_寸法3
  6
CONTINUOUS
 62
    7
 10
279.33799064794135
 20
319.86966882860747
 11
288.99724891083201
 21
317.28147837758229
  0
LINE
  8
_0-d_寸法3
  6
CONTINUOUS
 62
    7
 10
614.33799064794039
 20
274.86966882860702
 11
614.3379906479405
 21
324.86966882860747
  0
LINE
  8
_0-d_寸法3
  6
CONTINUOUS
 62
    7
 10
614.3379906479405
 20
319.86966882860747
 11
604.67873238504978
 21
317.28147837758229
  0
LINE
  8
_0-d_寸法3
  6
CONTINUOUS
 62
    7
 10
614.3379906479405
 20
319.86966882860747
 11
604.67873238504978
 21
322.45785927963277
  0
LINE
  8
_0-d_寸法3
  6
CONTINUOUS
 62
    7
 10
279.33799064794135
 20
319.86966882860747
 11
614.3379906479405
 21
319.86966882860747
  0
TEXT
  8
_0-d_寸法3
 62
    7
 10
435.58799064794101
 20
319.86966882860747
 40
15
 41
1
 50
0
  1
201
  0
LINE
  8
_0-d_寸法3
  6
CONTINUOUS
 62
    7
 10
616.83799064794107
 20
274.86966882860747
 11
616.83799064794107
 21
324.86966882860747
  0
CIRCLE
  8
_0-d_寸法3
  6
CONTINUOUS
 62
    1
 10
616.83799064794107
 20
319.86966882860747
 40
1.5000000000000002
  0
LINE
  8
_0-d_寸法3
  6
CONTINUOUS
 62
    7
 10
614.3379906479405
 20
319.86966882860747
 11
616.83799064794107
 21
319.86966882860747
  0
TEXT
  8
_0-d_寸法3
 62
    7
 10
589.34027195436329
 20
302.40928167912773
 40
15
 41
1
 50
0
  1
1.5
  0
LINE
  8
_0-d_寸法3
  6
CONTINUOUS
 62
    7
 10
621.83799064794039
 20
274.86966882860747
 11
621.8379906479405
 21
324.86966882860747
  0
LINE
  8
_0-d_寸法3
  6
CONTINUOUS
 62
    7
 10
621.8379906479405
 20
319.86966882860747
 11
631.49724891083122
 21
322.4578592796326
  0
LINE
  8
_0-d_寸法3
  6
CONTINUOUS
 62
    7
 10
621.8379906479405
 20
319.86966882860747
 11
631.49724891083122
 21
317.28147837758223
  0
LINE
  8
_0-d_寸法3
  6
CONTINUOUS
 62
    7
 10
616.83799064794107
 20
319.86966882860747
 11
646.83799064794061
 21
319.86966882860747
  0
TEXT
  8
_0-d_寸法3
 62
    7
 10
635.63707325153302
 20
319.86966882860747
 40
15
 41
1
 50
0
  1
3
  0
LINE
  8
_0-a_極細3
  6
CENTER1
 62
    7
 10
619.9582652766685
 20
250.86963173060781
 11
274.34425303667098
 21
250.86963173060781
  0
LINE
  8
_0-b_細線3
  6
CONTINUOUS
 62
    7
 10
279.3379906479413
 20
228.20300216194099
 11
279.3379906479413
 21
269.86966882860747
  0
LINE
  8
_0-b_細線3
  6
CONTINUOUS
 62
    7
 10
279.3379906479413
 20
269.86966882860747
 11
614.33799064794039
 21
269.86966882860747
  0
LINE
  8
_0-b_細線3
  6
CONTINUOUS
 62
    7
 10
614.33799064794039
 20
269.86966882860747
 11
614.33799064794039
 21
228.20300216194099
  0
LINE
  8
_0-b_細線3
  6
CONTINUOUS
 62
    7
 10
614.33799064794039
 20
228.20300216194099
 11
279.3379906479413
 21
228.20300216194099
  0
ENDSEC
  0
EOF
