  0
SECTION
  2
HEADER
  9
$ACADVER
  1
AC1009
  9
$INSBASE
 10
0
 20
0
 30
0
  9
$EXTMIN
 10
0
 20
0
  9
$EXTMAX
 10
1485
 20
1050
  9
$LIMMIN
 10
0
 20
0
  9
$LIMMAX
 10
1485
 20
1050
  9
$LTSCALE
 40
5
  0
ENDSEC
  0
SECTION
  2
TABLES
  0
TABLE
  2
LTYPE
 70
     9
  0
LTYPE
  2
CONTINUOUS
 70
    64
  3
実線
 72
    65
 73
     0
 40
0.0
  0
LTYPE
  2
DASHED1
 70
    64
  3
--  --  --  --  --  --  --  --  
 72
    65
 73
     2
 40
2.5
 49
1.25
 49
-1.25
  0
LTYPE
  2
DASHED2
 70
    64
  3
----    ----    ----    ----    
 72
    65
 73
     2
 40
5.0
 49
2.5
 49
-2.5
  0
LTYPE
  2
DASHED3
 70
    64
  3
------  ------  ------  ------  
 72
    65
 73
     2
 40
5.0
 49
3.75
 49
-1.25
  0
LTYPE
  2
CENTER1
 70
    64
  3
----- - ----- - ----- - ----- - 
 72
    65
 73
     4
 40
10.0
 49
6.25
 49
-1.25
 49
1.25
 49
-1.25
  0
LTYPE
  2
CENTER2
 70
    64
  3
----------  --  ----------  --  
 72
    65
 73
     4
 40
20.0
 49
12.5
 49
-2.5
 49
2.5
 49
-2.5
  0
LTYPE
  2
PHANTOM1
 70
    64
  3
--- - - --- - - --- - - --- - - 
 72
    65
 73
     6
 40
10.0
 49
3.25
 49
-1.25
 49
1.25
 49
-1.25
 49
1.25
 49
-1.25
  0
LTYPE
  2
PHANTOM2
 70
    64
  3
--------  -  -  --------  -  -  
 72
    65
 73
     6
 40
20.0
 49
10.0
 49
-2.5
 49
1.25
 49
-2.5
 49
1.25
 49
-2.5
  0
LTYPE
  2
DOT
 70
    64
  3
-   -   -   -   -   -   -   -   
 72
    65
 73
     2
 40
2.5
 49
0.625
 49
-1.875
  0
LTYPE
  2
DUMMY
 70
    64
  3
ダミー
 72
    65
 73
     0
 40
0.0
  0
LTYPE
  2
RAND1
 70
    64
  3
ランダム線1
 72
    65
 73
     4
 40
10.0
 49
1.0
 49
-2.0
 49
3.0
 49
-4.0
  0
LTYPE
  2
RAND2
 70
    64
  3
ランダム線2
 72
    65
 73
     4
 40
14.0
 49
2.0
 49
-3.0
 49
4.0
 49
-5.0
  0
LTYPE
  2
RAND3
 70
    64
  3
ランダム線3
 72
    65
 73
     4
 40
18.0
 49
3.0
 49
-4.0
 49
5.0
 49
-6.0
  0
LTYPE
  2
RAND4
 70
    64
  3
ランダム線4
 72
    65
 73
     4
 40
22.0
 49
4.0
 49
-5.0
 49
6.0
 49
-7.0
  0
LTYPE
  2
RAND5
 70
    64
  3
ランダム線5
 72
    65
 73
     4
 40
26.0
 49
5.0
 49
-6.0
 49
7.0
 49
-8.0
  0
LTYPE
  2
LONG1
 70
    64
  3
----------  --  ----------  --  
 72
    65
 73
     4
 40
40.0
 49
32.5
 49
-2.5
 49
2.5
 49
-2.5
  0
LTYPE
  2
LONG2
 70
    64
  3
--------  -  -  --------  -  -  
 72
    65
 73
     6
 40
40.0
 49
30.0
 49
-2.5
 49
1.25
 49
-2.5
 49
1.25
 49
-2.5
  0
LTYPE
  2
LONG3
 70
    64
  3
+++++++++++++++..+++++++++++++++
 72
    65
 73
     2
 40
40.0
 49
37.5
 49
-2.5
  0
LTYPE
  2
LONG4
 70
    64
  3
+++++++++++++++..+++++++++++++++
 72
    65
 73
     2
 40
80.0
 49
75.0
 49
-5.0
  0
LTYPE
  2
LONG5
 70
    64
  3
----------  --  ----------  --  
 72
    65
 73
     4
 40
60.0
 49
37.5
 49
-7.5
 49
7.5
 49
-7.5
  0
LTYPE
  2
dashed
 70
   64
  3
-------   -------------   ------
 72
   65
 73
    2
 40
7.5
 49
6
 49
-1.5
  0
LTYPE
  2
dashed_spaced
 70
   64
  3
----        --------        ----
 72
   65
 73
    2
 40
12
 49
6
 49
-6
  0
LTYPE
  2
long_dashed_dotted
 70
   64
  3
------------- --- --------------
 72
   65
 73
    4
 40
15.25
 49
12
 49
-1.5
 49
0.25
 49
-1.5
  0
LTYPE
  2
long_dashed_double-dotted
 70
   64
  3
----------- --- --- ------------
 72
   65
 73
    6
 40
17
 49
12
 49
-1.5
 49
0.25
 49
-1.5
 49
0.25
 49
-1.5
  0
LTYPE
  2
long_dashed_triplicate-dotted
 70
   64
  3
--------- --- --- --- ----------
 72
   65
 73
    8
 40
18.75
 49
12
 49
-1.5
 49
0.25
 49
-1.5
 49
0.25
 49
-1.5
 49
0.25
 49
-1.5
  0
LTYPE
  2
dotted
 70
   64
  3
   -       -       -       -    
 72
   65
 73
    2
 40
1.75
 49
0.25
 49
-1.5
  0
LTYPE
  2
chain
 70
   64
  3
-------------- -- --------------
 72
   65
 73
    4
 40
18.5
 49
12
 49
-1.5
 49
3.5
 49
-1.5
  0
LTYPE
  2
chain_double_dash
 70
   64
  3
------------ -- -- -------------
 72
   65
 73
    6
 40
23.5
 49
12
 49
-1.5
 49
3.5
 49
-1.5
 49
3.5
 49
-1.5
  0
LTYPE
  2
dashed_dotted
 70
   64
  3
-----------     -     ----------
 72
   65
 73
    4
 40
9.25
 49
6
 49
-1.5
 49
0.25
 49
-1.5
  0
LTYPE
  2
double-dashed_dotted
 70
   64
  3
------   -----------   -   -----
 72
   65
 73
    6
 40
16.75
 49
6
 49
-1.5
 49
6
 49
-1.5
 49
0.25
 49
-1.5
  0
LTYPE
  2
dashed_double-dotted
 70
   64
  3
---------    -    -    ---------
 72
   65
 73
    6
 40
11
 49
6
 49
-1.5
 49
0.25
 49
-1.5
 49
0.25
 49
-1.5
  0
LTYPE
  2
double-dashed_double-dotted
 70
   64
  3
-----   ---------   -   -   ----
 72
   65
 73
    8
 40
18.5
 49
6
 49
-1.5
 49
6
 49
-1.5
 49
0.25
 49
-1.5
 49
0.25
 49
-1.5
  0
LTYPE
  2
dashed_triplicate-dotted
 70
   64
  3
-------    -    -    -    ------
 72
   65
 73
    8
 40
12.75
 49
6
 49
-1.5
 49
0.25
 49
-1.5
 49
0.25
 49
-1.5
 49
0.25
 49
-1.5
  0
LTYPE
  2
double-dashed_triplicate-dotted
 70
   64
  3
-----  ---------  -  -  -  -----
 72
   65
 73
   10
 40
20.25
 49
6
 49
-1.5
 49
6
 49
-1.5
 49
0.25
 49
-1.5
 49
0.25
 49
-1.5
 49
0.25
 49
-1.5
  0
LTYPE
  2
undefined
 70
   64
  3
--------------------------------
 72
   65
 73
    0
 40
0
  0
ENDTAB
  0
TABLE
  2
STYLE
  5
3
100
AcDbSymbolTable
 70
     1
  0
STYLE
  5
10
100
AcDbSymbolTableRecord
100
AcDbTextStyleTableRecord
  2
STANDARD
 70
     0
 40
0.0
 41
1.0
 50
0.0
 71
     0
 42
0.2
  3
txt
  4
bigfont.shx
  0
STYLE
  5
26
100
AcDbSymbolTableRecord
100
AcDbTextStyleTableRecord
  2
TATEGAKI
 70
    68
 40
0.0
 41
1.0
 50
0.0
 71
     0
 42
1.0
  3
txt
  4
bigfont.shx
  0
ENDTAB
  0
TABLE
  2
LAYER
 70
   10
  0
LAYER
  2
_0-0_計極細
 70
   64
 62
    7
  6
CONTINUOUS
  0
LAYER
  2
_0-1_計細線
 70
   64
 62
    7
  6
CONTINUOUS
  0
LAYER
  2
_0-5_寸法線
 70
   64
 62
    7
  6
CONTINUOUS
  0
LAYER
  2
_0-7_枠細線
 70
   64
 62
    7
  6
CONTINUOUS
  0
LAYER
  2
_0-8_枠中線
 70
   64
 62
    7
  6
CONTINUOUS
  0
LAYER
  2
_0-9_枠極太
 70
   64
 62
    7
  6
CONTINUOUS
  0
LAYER
  2
_0-a_極細3
 70
   64
 62
    7
  6
CONTINUOUS
  0
LAYER
  2
_0-b_細線3
 70
   64
 62
    7
  6
CONTINUOUS
  0
LAYER
  2
_0-d_寸法3
 70
   64
 62
    7
  6
CONTINUOUS
  0
LAYER
  2
ADD_LINE
 70
   64
 62
    7
  6
CONTINUOUS
  0
ENDTAB
  0
ENDSEC
  0
SECTION
  2
BLOCKS
  0
ENDSEC
  0
SECTION
  2
ENTITIES
  0
LINE
  8
_0-7_枠細線
  6
CONTINUOUS
 62
    5
 10
1185
 20
180
 11
1185
 21
100
  0
TEXT
  8
_0-7_枠細線
 62
    5
 10
937.5
 20
97.5
 40
17.5
 41
1
 50
0
  1
備考
  7
TATEGAKI
  0
TEXT
  8
_0-7_枠細線
 62
    5
 10
937.5
 20
137.5
 40
17.5
 41
1
 50
0
  1
品番
  7
TATEGAKI
  0
TEXT
  8
_0-7_枠細線
 62
    5
 10
937.5
 20
177.5
 40
17.5
 41
1
 50
0
  1
品名
  7
TATEGAKI
  0
LINE
  8
_0-7_枠細線
  6
CONTINUOUS
 62
    5
 10
1185
 20
140
 11
925
 21
140
  0
LINE
  8
_0-7_枠細線
  6
CONTINUOUS
 62
    5
 10
950
 20
180
 11
950
 21
60
  0
LINE
  8
_0-8_枠中線
  6
CONTINUOUS
 62
    5
 10
1425
 20
180
 11
925
 21
180
  0
LINE
  8
_0-8_枠中線
  6
CONTINUOUS
 62
    5
 10
925
 20
180
 11
925
 21
60
  0
LINE
  8
_0-7_枠細線
  6
CONTINUOUS
 62
    5
 10
1245
 20
180
 11
1245
 21
60
  0
TEXT
  8
_0-7_枠細線
 62
    5
 10
1192.5
 20
160
 40
15
 41
1
 50
0
  1
縮　尺
  0
TEXT
  8
_0-7_枠細線
 62
    5
 10
1194
 20
117.5
 40
20
 41
0.7
 50
0
  1
１：５
  0
LINE
  8
_0-7_枠細線
  6
CONTINUOUS
 62
    5
 10
1185
 20
155
 11
1245
 21
155
  0
LINE
  8
_0-7_枠細線
  6
CONTINUOUS
 62
    5
 10
1245
 20
100
 11
925
 21
100
  0
LINE
  8
_0-7_枠細線
  6
CONTINUOUS
 62
    5
 10
1425
 20
90
 11
1245
 21
90
  0
LINE
  8
_0-7_枠細線
  6
CONTINUOUS
 62
    5
 10
1245
 20
120
 11
1425
 21
120
  0
LINE
  8
_0-7_枠細線
  6
CONTINUOUS
 62
    5
 10
1425
 20
140
 11
1245
 21
140
  0
TEXT
  8
_0-7_枠細線
 62
    5
 10
1255
 20
147.5
 40
25
 41
0.8
 50
0
  1
株式会社シマブン
  0
TEXT
  8
_0-7_枠細線
 62
    5
 10
1252.5
 20
60
 40
15
 41
1
 50
0
  1
年月日
  0
TEXT
  8
_0-7_枠細線
 62
    5
 10
1252.5
 20
75
 40
15
 41
1
 50
0
  1
作　成
  0
TEXT
  8
_0-7_枠細線
 62
    5
 10
1250
 20
95
 40
20
 41
1
 50
0
  1
島 英
  0
TEXT
  8
_0-7_枠細線
 62
    5
 10
1256.25
 20
122.5
 40
15
 41
1
 50
0
  1
承 認
  0
LINE
  8
_0-7_枠細線
  6
CONTINUOUS
 62
    5
 10
1305
 20
140
 11
1305
 21
60
  0
TEXT
  8
_0-7_枠細線
 62
    5
 10
1315
 20
95
 40
20
 41
1
 50
0
  1
隠塚
  0
TEXT
  8
_0-7_枠細線
 62
    5
 10
1316.25
 20
122.5
 40
15
 41
1
 50
0
  1
検 図
  0
LINE
  8
_0-7_枠細線
  6
CONTINUOUS
 62
    5
 10
1365
 20
140
 11
1365
 21
90
  0
TEXT
  8
_0-7_枠細線
 62
    5
 10
1375
 20
95
 40
20
 41
1
 50
0
  1
藤戸
  0
TEXT
  8
_0-7_枠細線
 62
    5
 10
1376.25
 20
122.5
 40
15
 41
1
 50
0
  1
設 計
  0
TEXT
  8
_0-7_枠細線
 62
    5
 10
965.50000000000011
 20
150
 40
20
 41
0.6
 50
0
  1
セーフティグレーチングＨ２５タイプ
  0
TEXT
  8
_0-7_枠細線
 62
    5
 10
965.50000000000011
 20
70
 40
20
 41
0.5999999999999998
 50
0
  1
色については品番表参照のこと
  0
TEXT
  8
_0-7_枠細線
 62
    5
 10
1310
 20
67.5
 40
15
 41
0.6666666666666666
 50
0
  1
２００９年０１月１６日
  0
TEXT
  8
_0-7_枠細線
 62
    5
 10
965.50000000000011
 20
110
 40
20
 41
0.6
 50
0
  1
ＧＲＳＪ－２５Ｗ２５１　ＳＥＴ
  0
LINE
  8
_0-7_枠細線
  6
CONTINUOUS
 62
    5
 10
1074.9999999999998
 20
286.80454176804579
 11
1375
 21
286.80454176804579
  0
LINE
  8
_0-7_枠細線
  6
CONTINUOUS
 62
    5
 10
1074.9999999999998
 20
311.80454176804568
 11
1375
 21
311.80454176804568
  0
LINE
  8
_0-7_枠細線
  6
CONTINUOUS
 62
    5
 10
1074.9999999999998
 20
336.80454176804568
 11
1375
 21
336.80454176804568
  0
LINE
  8
_0-7_枠細線
  6
CONTINUOUS
 62
    5
 10
1074.9999999999998
 20
361.80454176804585
 11
1375
 21
361.80454176804585
  0
LINE
  8
_0-7_枠細線
  6
CONTINUOUS
 62
    5
 10
1074.9999999999998
 20
386.80454176804574
 11
1375
 21
386.80454176804574
  0
LINE
  8
_0-7_枠細線
  6
CONTINUOUS
 62
    5
 10
1074.9999999999998
 20
411.80454176804568
 11
1375
 21
411.80454176804568
  0
LINE
  8
_0-7_枠細線
  6
CONTINUOUS
 62
    5
 10
1074.9999999999998
 20
436.80454176804568
 11
1375
 21
436.80454176804568
  0
TEXT
  8
_0-7_枠細線
 62
    5
 10
1163.7499999999998
 20
441.80454176804568
 40
17.5
 41
1
 50
0
  1
品番表
  0
TEXT
  8
_0-7_枠細線
 62
    5
 10
1306
 20
416.80454176804568
 40
15
 41
0.8000000000000001
 50
0
  1
備　　考
  0
TEXT
  8
_0-7_枠細線
 62
    5
 10
1213.0000000000002
 20
366.80454176804585
 40
15
 41
0.5999999999999999
 50
0
  1
ライトグレー
  0
TEXT
  8
_0-7_枠細線
 62
    5
 10
1222.0000000000002
 20
391.80454176804568
 40
15
 41
0.5999999999999999
 50
0
  1
ベージュ
  0
TEXT
  8
_0-7_枠細線
 62
    5
 10
1234.0000000000005
 20
416.80454176804568
 40
15
 41
0.8000000000000001
 50
0
  1
色
  0
TEXT
  8
_0-7_枠細線
 62
    5
 10
1111
 20
416.80454176804568
 40
15
 41
0.8000000000000001
 50
0
  1
品　　番
  0
LINE
  8
_0-7_枠細線
  6
CONTINUOUS
 62
    5
 10
1074.9999999999998
 20
211.8045417680456
 11
1375
 21
211.8045417680456
  0
LINE
  8
_0-7_枠細線
  6
CONTINUOUS
 62
    5
 10
1074.9999999999998
 20
236.80454176804579
 11
1375
 21
236.80454176804579
  0
LINE
  8
_0-7_枠細線
  6
CONTINUOUS
 62
    5
 10
1074.9999999999998
 20
261.80454176804591
 11
1375
 21
261.80454176804591
  0
TEXT
  8
_0-7_枠細線
 62
    5
 10
1222.0000000000007
 20
341.80454176804597
 40
15
 41
0.5999999999999999
 50
0
  1
ホワイト
  0
TEXT
  8
_0-7_枠細線
 62
    5
 10
1226.5
 20
316.80454176804568
 40
15
 41
0.5999999999999999
 50
0
  1
ピンク
  0
TEXT
  8
_0-7_枠細線
 62
    5
 10
1226.5
 20
291.80454176804568
 40
15
 41
0.5999999999999999
 50
0
  1
ブルー
  0
TEXT
  8
_0-7_枠細線
 62
    5
 10
1212.9999999999998
 20
266.80454176804579
 40
15
 41
0.5999999999999999
 50
0
  1
ダークグレー
  0
TEXT
  8
_0-7_枠細線
 62
    5
 10
1079.75
 20
391.80454176804568
 40
15
 41
0.5666666666666667
 50
0
  1
ＧＲＳＪ－２５Ｗ２５１－Ｂ
  0
TEXT
  8
_0-7_枠細線
 62
    5
 10
1079.7500000000002
 20
366.80454176804574
 40
15
 41
0.5666666666666667
 50
0
  1
ＧＲＳＪ－２５Ｗ２５１－Ｇ
  0
TEXT
  8
_0-7_枠細線
 62
    5
 10
1079.7500000000002
 20
341.80454176804597
 40
15
 41
0.5666666666666667
 50
0
  1
ＧＲＳＪ－２５Ｗ２５１－Ｓ
  0
TEXT
  8
_0-7_枠細線
 62
    5
 10
1079.7500000000002
 20
316.80454176804568
 40
15
 41
0.5666666666666667
 50
0
  1
ＧＲＳＪ－２５Ｗ２５１－Ｐ
  0
TEXT
  8
_0-7_枠細線
 62
    5
 10
1079.7500000000002
 20
291.80454176804568
 40
15
 41
0.5666666666666667
 50
0
  1
ＧＲＳＪ－２５Ｗ２５１－Ａ
  0
TEXT
  8
_0-7_枠細線
 62
    5
 10
1079.7500000000002
 20
266.80454176804579
 40
15
 41
0.5666666666666667
 50
0
  1
ＧＲＳＪ－２５Ｗ２５１－Ｄ
  0
TEXT
  8
_0-7_枠細線
 62
    5
 10
1079.7500000000002
 20
241.80454176804571
 40
15
 41
0.5666666666666667
 50
0
  1
ＧＲＳＪ－２５Ｗ２５１－Ｍ
  0
TEXT
  8
_0-7_枠細線
 62
    5
 10
1226.5
 20
241.80454176804571
 40
15
 41
0.5999999999999999
 50
0
  1
ウッド
  0
LINE
  8
_0-7_枠細線
  6
CONTINUOUS
 62
    5
 10
1074.9999999999998
 20
186.80454176804531
 11
1375
 21
186.80454176804531
  0
TEXT
  8
_0-7_枠細線
 62
    5
 10
1222.0000000000007
 20
191.80454176804545
 40
15
 41
0.5999999999999999
 50
0
  1
ブラック
  0
TEXT
  8
_0-7_枠細線
 62
    5
 10
1079.7500000000002
 20
191.80454176804545
 40
15
 41
0.5666666666666667
 50
0
  1
ＧＲＳＪ－２５Ｗ２５１－Ｋ
  0
LINE
  8
_0-7_枠細線
  6
CONTINUOUS
 62
    5
 10
1195.0000000000002
 20
436.80454176804568
 11
1195.0000000000002
 21
186.80454176804545
  0
LINE
  8
_0-7_枠細線
  6
CONTINUOUS
 62
    5
 10
1284.9999999999998
 20
436.80454176804568
 11
1284.9999999999998
 21
186.80454176804545
  0
LINE
  8
_0-7_枠細線
  6
CONTINUOUS
 62
    5
 10
1375
 20
436.80454176804568
 11
1375
 21
186.80454176804531
  0
LINE
  8
_0-7_枠細線
  6
CONTINUOUS
 62
    5
 10
1074.9999999999998
 20
436.80454176804568
 11
1074.9999999999998
 21
186.80454176804545
  0
TEXT
  8
_0-7_枠細線
 62
    5
 10
1079.75
 20
216.80454176804571
 40
15
 41
0.5666666666666667
 50
0
  1
ＧＲＳＪ－２５Ｗ２５１－Ｃ
  0
TEXT
  8
_0-7_枠細線
 62
    5
 10
1222.0000000000002
 20
216.80454176804571
 40
15
 41
0.5999999999999999
 50
0
  1
ブラウン
  0
LINE
  8
_0-7_枠細線
  6
CONTINUOUS
 62
    5
 10
1070.9184583481085
 20
219.02147576772461
 11
1063.4184583481085
 21
234.02147576772461
  0
LINE
  8
_0-7_枠細線
  6
CONTINUOUS
 62
    5
 10
1055.9184583481085
 20
219.02147576772461
 11
1070.9184583481085
 21
219.02147576772461
  0
LINE
  8
_0-7_枠細線
  6
CONTINUOUS
 62
    5
 10
1063.4184583481085
 20
234.02147576772461
 11
1055.9184583481085
 21
219.02147576772461
  0
TEXT
  8
_0-7_枠細線
 62
    5
 10
1058.2836096162566
 20
218.07265580287466
 40
12.5
 41
0.8
 50
0
  1
３
  0
LINE
  8
_0-7_枠細線
  6
CONTINUOUS
 62
    5
 10
785.16995454985135
 20
356.80454176804568
 11
785.16995454985135
 21
436.80454176804568
  0
TEXT
  8
_0-7_枠細線
 62
    5
 10
807.66995454985135
 20
414.30454176804568
 40
15
 41
1
 50
0
  1
耐荷重
  0
TEXT
  8
_0-7_枠細線
 62
    5
 10
800.16995454985135
 20
384.30454176804568
 40
15
 41
1
 50
0
  1
3.5kN/㎡
  0
TEXT
  8
_0-7_枠細線
 62
    5
 10
792.66995454985135
 20
364.30454176804568
 40
15
 41
1
 50
0
  1
（歩道用）
  0
LINE
  8
_0-7_枠細線
  6
CONTINUOUS
 62
    5
 10
875.16995454985135
 20
356.80454176804568
 11
875.16995454985135
 21
436.80454176804568
  0
TEXT
  8
_0-7_枠細線
 62
    5
 10
897.66995454985135
 20
414.30454176804568
 40
15
 41
1
 50
0
  1
蓋重量
  0
LINE
  8
_0-7_枠細線
  6
CONTINUOUS
 62
    5
 10
965.16995454985135
 20
356.80454176804568
 11
965.16995454985135
 21
436.80454176804568
  0
TEXT
  8
_0-7_枠細線
 62
    5
 10
987.66995454985135
 20
414.30454176804568
 40
15
 41
1
 50
0
  1
枠重量
  0
LINE
  8
_0-7_枠細線
  6
CONTINUOUS
 62
    5
 10
785.16995454985135
 20
406.80454176804568
 11
1055.1699545498514
 21
406.80454176804568
  0
LINE
  8
_0-7_枠細線
  6
CONTINUOUS
 62
    5
 10
785.16995454985135
 20
436.80454176804568
 11
1055.1699545498514
 21
436.80454176804568
  0
LINE
  8
_0-7_枠細線
  6
CONTINUOUS
 62
    5
 10
785.16995454985135
 20
356.80454176804568
 11
1055.1699545498514
 21
356.80454176804568
  0
LINE
  8
_0-7_枠細線
  6
CONTINUOUS
 62
    5
 10
1055.1699545498514
 20
356.80454176804568
 11
1055.1699545498514
 21
436.80454176804568
  0
LINE
  8
_0-7_枠細線
  6
CONTINUOUS
 62
    5
 10
1425
 20
942.5
 11
890
 21
942.5
  0
TEXT
  8
_0-7_枠細線
 62
    5
 10
895
 20
945
 40
12.5
 41
1
 50
0
  1
記号
  0
TEXT
  8
_0-7_枠細線
 62
    5
 10
996.875
 20
945
 40
12.5
 41
1
 50
0
  1
訂　 正　 記　 事
  0
TEXT
  8
_0-7_枠細線
 62
    5
 10
1181.25
 20
945
 40
12.5
 41
1
 50
0
  1
訂 正 年 月 日
  0
TEXT
  8
_0-7_枠細線
 62
    5
 10
1306.25
 20
945
 40
12.5
 41
1
 50
0
  1
備　　　　　考
  0
LINE
  8
_0-7_枠細線
  6
CONTINUOUS
 62
    5
 10
1425
 20
925
 11
890
 21
925
  0
TEXT
  8
_0-7_枠細線
 62
    5
 10
938.85037037037023
 20
927.5
 40
12.5
 41
1
 50
0
  1
品番・色記号変更
  0
TEXT
  8
_0-7_枠細線
 62
    5
 10
1180
 20
927.5
 40
12.5
 41
0.7199999999999999
 50
0
  1
２０１３．０３．１３
  0
LINE
  8
_0-7_枠細線
  6
CONTINUOUS
 62
    5
 10
915
 20
908.75
 11
907.5
 21
923.75
  0
LINE
  8
_0-7_枠細線
  6
CONTINUOUS
 62
    5
 10
900
 20
908.75
 11
915
 21
908.75
  0
LINE
  8
_0-7_枠細線
  6
CONTINUOUS
 62
    5
 10
907.5
 20
923.75
 11
900
 21
908.75
  0
TEXT
  8
_0-7_枠細線
 62
    5
 10
902.36515126814822
 20
908.44299775461946
 40
12.5
 41
0.8
 50
0
  1
１
  0
LINE
  8
_0-7_枠細線
  6
CONTINUOUS
 62
    5
 10
1424.9999999999998
 20
907.5
 11
890
 21
907.5
  0
TEXT
  8
_0-7_枠細線
 62
    5
 10
938.85037037037011
 20
910
 40
12.500000000000002
 41
1
 50
0
  1
取外具形状変更
  0
TEXT
  8
_0-7_枠細線
 62
    5
 10
1180
 20
910
 40
12.500000000000002
 41
0.7199999999999998
 50
0
  1
２０１５．１１．２０
  0
LINE
  8
_0-7_枠細線
  6
CONTINUOUS
 62
    5
 10
1425
 20
890
 11
890
 21
890
  0
TEXT
  8
_0-7_枠細線
 62
    5
 10
1180
 20
892.5
 40
12.5
 41
0.7199999999999999
 50
0
  1
２０１７．０４．０１
  0
LINE
  8
_0-7_枠細線
  6
CONTINUOUS
 62
    5
 10
915
 20
873.94233397174685
 11
907.5
 21
888.94233397174685
  0
LINE
  8
_0-7_枠細線
  6
CONTINUOUS
 62
    5
 10
900
 20
873.94233397174685
 11
915
 21
873.94233397174685
  0
LINE
  8
_0-7_枠細線
  6
CONTINUOUS
 62
    5
 10
907.5
 20
888.94233397174685
 11
900
 21
873.94233397174685
  0
TEXT
  8
_0-7_枠細線
 62
    5
 10
1180
 20
875
 40
12.5
 41
0.7199999999999999
 50
0
  1
２０１７．０４．０１
  0
TEXT
  8
_0-7_枠細線
 62
    5
 10
938.85037037037023
 20
875
 40
12.5
 41
1
 50
0
  1
ブラウン色（Ｃ）追加
  0
LINE
  8
_0-7_枠細線
  6
CONTINUOUS
 62
    5
 10
1425
 20
872.5
 11
890
 21
872.5
  0
LINE
  8
_0-7_枠細線
  6
CONTINUOUS
 62
    5
 10
907.5
 20
906.44233397174685
 11
900
 21
891.44233397174685
  0
LINE
  8
_0-7_枠細線
  6
CONTINUOUS
 62
    5
 10
900
 20
891.44233397174685
 11
915
 21
891.44233397174685
  0
LINE
  8
_0-7_枠細線
  6
CONTINUOUS
 62
    5
 10
915
 20
891.44233397174685
 11
907.5
 21
906.44233397174685
  0
TEXT
  8
_0-7_枠細線
 62
    5
 10
938.85037037037023
 20
892.5
 40
12.5
 41
1
 50
0
  1
取外具形状変更
  0
TEXT
  8
_0-7_枠細線
 62
    5
 10
902.48549209054841
 20
890.89465008156549
 40
12.5
 41
0.8
 50
0
  1
２
  0
TEXT
  8
_0-7_枠細線
 62
    5
 10
902.36515126814811
 20
872.99351400689704
 40
12.5
 41
0.8
 50
0
  1
３
  0
LINE
  8
_0-7_枠細線
  6
CONTINUOUS
 62
    5
 10
915
 20
856.44233397174685
 11
907.5
 21
871.44233397174685
  0
LINE
  8
_0-7_枠細線
  6
CONTINUOUS
 62
    5
 10
900
 20
856.44233397174685
 11
915
 21
856.44233397174685
  0
LINE
  8
_0-7_枠細線
  6
CONTINUOUS
 62
    5
 10
907.5
 20
871.44233397174685
 11
900
 21
856.44233397174685
  0
LINE
  8
_0-7_枠細線
  6
CONTINUOUS
 62
    5
 10
1425
 20
855
 11
890
 21
855
  0
TEXT
  8
_0-7_枠細線
 62
    5
 10
1180
 20
857.5
 40
12.5
 41
0.7199999999999999
 50
0
  1
２０１９．０９．０１
  0
TEXT
  8
_0-7_枠細線
 62
    5
 10
902.36515126814822
 20
855.49351400689704
 40
12.5
 41
0.8
 50
0
  1
４
  0
LINE
  8
_0-9_枠極太
  6
CONTINUOUS
 62
    5
 10
60
 20
60
 11
60
 21
960
  0
LINE
  8
_0-9_枠極太
  6
CONTINUOUS
 62
    5
 10
60
 20
960
 11
1425
 21
960
  0
LINE
  8
_0-9_枠極太
  6
CONTINUOUS
 62
    5
 10
1425
 20
960
 11
1425
 21
60
  0
LINE
  8
_0-9_枠極太
  6
CONTINUOUS
 62
    5
 10
1425
 20
60
 11
60
 21
60
  0
TEXT
  8
_0-7_枠細線
 62
    5
 10
938.85037037037023
 20
857.5
 40
12.5
 41
1
 50
0
  1
アンカー材質･厚み変更
  0
LINE
  8
_0-7_枠細線
  6
CONTINUOUS
 62
    5
 10
1425
 20
837.5
 11
890
 21
837.5
  0
TEXT
  8
_0-7_枠細線
 62
    5
 10
938.85037037037023
 20
840
 40
12.5
 41
1
 50
0
  1
取外具形状変更
  0
LINE
  8
_0-7_枠細線
  6
CONTINUOUS
 62
    5
 10
907.5
 20
853.94233397174685
 11
900
 21
838.94233397174685
  0
LINE
  8
_0-7_枠細線
  6
CONTINUOUS
 62
    5
 10
900
 20
838.94233397174685
 11
915
 21
838.94233397174685
  0
LINE
  8
_0-7_枠細線
  6
CONTINUOUS
 62
    5
 10
915
 20
838.94233397174685
 11
907.5
 21
853.94233397174685
  0
TEXT
  8
_0-7_枠細線
 62
    5
 10
1180
 20
840
 40
12.5
 41
0.7199999999999999
 50
0
  1
２０２１．０５．０６
  0
TEXT
  8
_0-7_枠細線
 62
    5
 10
902.36515126814822
 20
838.63533172636664
 40
12.5
 41
0.8
 50
0
  1
５
  0
LINE
  8
_0-0_計極細
  6
CENTER2
 62
    2
 10
214.27468175977197
 20
610.4935731132091
 11
1245.2080150931492
 21
610.4935731132091
  0
ARC
  8
_0-0_計極細
  6
CONTINUOUS
 62
    2
 10
217.10950245347547
 20
732.99357311320864
 40
11.295514677412786
 50
138.39585046827571
 51
221.60414953172395
  0
ARC
  8
_0-0_計極細
  6
CONTINUOUS
 62
    2
 10
200.2170601401051
 20
717.99357311320728
 40
11.295514677412786
 50
318.39585046827381
 51
41.604149531723962
  0
ARC
  8
_0-0_計極細
  6
CONTINUOUS
 62
    2
 10
217.10950245347547
 20
502.9935731132087
 40
11.295514677412786
 50
138.39585046827571
 51
221.60414953172395
  0
ARC
  8
_0-0_計極細
  6
CONTINUOUS
 62
    2
 10
200.2170601401051
 20
487.99357311320733
 40
11.295514677412786
 50
318.39585046827534
 51
41.604149531723962
  0
LINE
  8
_0-1_計細線
  6
CONTINUOUS
 62
    3
 10
208.66328129678934
 20
740.49357311320864
 11
1250.663281296791
 21
740.49357311320864
  0
LINE
  8
_0-1_計細線
  6
CONTINUOUS
 62
    3
 10
1250.663281296791
 20
480.49357311321
 11
208.66328129678982
 21
480.49357311321
  0
ARC
  8
_0-0_計極細
  6
CONTINUOUS
 62
    2
 10
1259.1095024534766
 20
732.99357311320864
 40
11.295514677412786
 50
138.39585046827494
 51
221.60414953172469
  0
ARC
  8
_0-0_計極細
  6
CONTINUOUS
 62
    2
 10
1242.217060140106
 20
717.99357311320728
 40
11.295514677412786
 50
318.39585046827455
 51
41.604149531724723
  0
ARC
  8
_0-0_計極細
  6
CONTINUOUS
 62
    2
 10
1259.1095024534766
 20
502.9935731132087
 40
11.295514677412786
 50
138.39585046827494
 51
221.60414953172469
  0
ARC
  8
_0-0_計極細
  6
CONTINUOUS
 62
    2
 10
1242.217060140106
 20
487.99357311320733
 40
11.295514677412786
 50
318.39585046827455
 51
41.604149531724723
  0
LINE
  8
_0-1_計細線
  6
CONTINUOUS
 62
    3
 10
206.7490655984173
 20
737.49357311320864
 11
1248.7490655984184
 21
737.49357311320864
  0
LINE
  8
_0-1_計細線
  6
CONTINUOUS
 62
    3
 10
1252.5774969951656
 20
483.49357311321
 11
210.57749699516563
 21
483.49357311321
  0
LINE
  8
_0-5_寸法線
  6
CONTINUOUS
 62
    7
 10
198.66328129678934
 20
740.49357311320864
 11
153.66328129679482
 21
740.49357311320864
  0
LINE
  8
_0-5_寸法線
  6
CONTINUOUS
 62
    7
 10
158.66328129679482
 20
740.49357311320864
 11
161.25147174782001
 21
730.83431485031792
  0
LINE
  8
_0-5_寸法線
  6
CONTINUOUS
 62
    7
 10
158.66328129679482
 20
740.49357311320864
 11
156.07509084576961
 21
730.83431485031792
  0
LINE
  8
_0-5_寸法線
  6
CONTINUOUS
 62
    7
 10
198.66328129679209
 20
710.49357311320864
 11
153.66328129679482
 21
710.49357311320864
  0
LINE
  8
_0-5_寸法線
  6
CONTINUOUS
 62
    7
 10
158.66328129679482
 20
710.49357311320864
 11
156.07509084576961
 21
720.15283137609936
  0
LINE
  8
_0-5_寸法線
  6
CONTINUOUS
 62
    7
 10
158.66328129679482
 20
710.49357311320864
 11
161.25147174782001
 21
720.15283137609936
  0
LINE
  8
_0-5_寸法線
  6
CONTINUOUS
 62
    7
 10
158.66328129679482
 20
740.49357311320864
 11
158.66328129679482
 21
710.49357311320864
  0
TEXT
  8
_0-5_寸法線
 62
    7
 10
158.66328129679482
 20
717.99357311320864
 40
15
 41
1
 50
90
  1
30
  0
LINE
  8
_0-5_寸法線
  6
CONTINUOUS
 62
    7
 10
158.66328129679482
 20
710.49357311320864
 11
161.25147174782001
 21
700.83431485031792
  0
LINE
  8
_0-5_寸法線
  6
CONTINUOUS
 62
    7
 10
158.66328129679482
 20
710.49357311320864
 11
156.07509084576961
 21
700.83431485031792
  0
LINE
  8
_0-5_寸法線
  6
CONTINUOUS
 62
    7
 10
198.66328129678982
 20
510.49357311320875
 11
153.66328129679482
 21
510.4935731132087
  0
LINE
  8
_0-5_寸法線
  6
CONTINUOUS
 62
    7
 10
158.66328129679482
 20
510.4935731132087
 11
156.07509084576961
 21
520.15283137609936
  0
LINE
  8
_0-5_寸法線
  6
CONTINUOUS
 62
    7
 10
158.66328129679482
 20
510.4935731132087
 11
161.25147174782001
 21
520.15283137609936
  0
LINE
  8
_0-5_寸法線
  6
CONTINUOUS
 62
    7
 10
158.66328129679482
 20
710.49357311320864
 11
158.66328129679482
 21
510.4935731132087
  0
TEXT
  8
_0-5_寸法線
 62
    7
 10
158.66328129679482
 20
599.24357311320864
 40
15
 41
1
 50
89.999999999999815
  1
200
  0
LINE
  8
_0-5_寸法線
  6
CONTINUOUS
 62
    7
 10
158.66328129679482
 20
510.4935731132087
 11
161.25147174782001
 21
500.83431485031792
  0
LINE
  8
_0-5_寸法線
  6
CONTINUOUS
 62
    7
 10
158.66328129679482
 20
510.4935731132087
 11
156.07509084576961
 21
500.83431485031804
  0
LINE
  8
_0-5_寸法線
  6
CONTINUOUS
 62
    7
 10
198.66328129679488
 20
480.49357311321188
 11
153.66328129679482
 21
480.49357311321188
  0
LINE
  8
_0-5_寸法線
  6
CONTINUOUS
 62
    7
 10
158.66328129679482
 20
480.49357311321188
 11
156.07509084576961
 21
490.15283137610254
  0
LINE
  8
_0-5_寸法線
  6
CONTINUOUS
 62
    7
 10
158.66328129679482
 20
480.49357311321188
 11
161.25147174782001
 21
490.15283137610254
  0
LINE
  8
_0-5_寸法線
  6
CONTINUOUS
 62
    7
 10
158.66328129679482
 20
510.4935731132087
 11
158.66328129679482
 21
480.49357311321188
  0
TEXT
  8
_0-5_寸法線
 62
    7
 10
158.66328129679482
 20
487.99357311321
 40
15
 41
1
 50
90
  1
30
  0
LINE
  8
_0-5_寸法線
  6
CONTINUOUS
 62
    7
 10
1260.663281296791
 20
740.49357311320864
 11
1340.66328129679
 21
740.49357311320864
  0
LINE
  8
_0-5_寸法線
  6
CONTINUOUS
 62
    7
 10
1335.66328129679
 20
740.49357311320864
 11
1338.251471747815
 21
730.83431485031792
  0
LINE
  8
_0-5_寸法線
  6
CONTINUOUS
 62
    7
 10
1335.66328129679
 20
740.49357311320864
 11
1333.0750908457649
 21
730.83431485031792
  0
LINE
  8
_0-5_寸法線
  6
CONTINUOUS
 62
    7
 10
1260.66328129679
 20
480.49357311320506
 11
1340.6632812967903
 21
480.49357311320506
  0
LINE
  8
_0-5_寸法線
  6
CONTINUOUS
 62
    7
 10
1335.6632812967903
 20
480.49357311320506
 11
1333.0750908457649
 21
490.15283137609572
  0
LINE
  8
_0-5_寸法線
  6
CONTINUOUS
 62
    7
 10
1335.6632812967903
 20
480.49357311320506
 11
1338.2514717478152
 21
490.15283137609572
  0
LINE
  8
_0-5_寸法線
  6
CONTINUOUS
 62
    7
 10
1335.66328129679
 20
740.49357311320864
 11
1335.6632812967903
 21
480.49357311320506
  0
TEXT
  8
_0-5_寸法線
 62
    7
 10
1335.6632812967903
 20
599.24357311320682
 40
15
 41
1
 50
90
  1
260
  0
LINE
  8
_0-1_計細線
  6
CONTINUOUS
 62
    3
 10
208.66328129678934
 20
710.49357311320864
 11
230.16328129679124
 21
710.49357311320864
  0
LINE
  8
_0-1_計細線
  6
CONTINUOUS
 62
    3
 10
208.66328129678982
 20
510.49357311321
 11
230.16328129679124
 21
510.49357311321
  0
LINE
  8
_0-1_計細線
  6
CONTINUOUS
 62
    3
 10
1229.1632812967914
 20
510.49357311321
 11
1250.663281296791
 21
510.49357311321
  0
LINE
  8
_0-1_計細線
  6
CONTINUOUS
 62
    3
 10
1229.1632812967914
 20
710.49357311320864
 11
1250.663281296791
 21
710.49357311320864
  0
LINE
  8
_0-1_計細線
  6
CONTINUOUS
 62
    3
 10
1229.1632812967916
 20
484.99357311321006
 11
1229.1632812967907
 21
735.99357311320875
  0
LINE
  8
_0-1_計細線
  6
CONTINUOUS
 62
    3
 10
1217.7632812967911
 20
484.99357311321006
 11
1217.7632812967904
 21
735.99357311320875
  0
LINE
  8
_0-1_計細線
  6
CONTINUOUS
 62
    3
 10
1229.1632812967916
 20
484.99357311321006
 11
1217.7632812967911
 21
484.99357311321006
  0
LINE
  8
_0-1_計細線
  6
CONTINUOUS
 62
    3
 10
1229.1632812967907
 20
735.99357311320875
 11
1217.7632812967904
 21
735.99357311320875
  0
LINE
  8
_0-0_計極細
  6
CONTINUOUS
 62
    2
 10
1220.9632812967914
 20
484.99357311321006
 11
1220.9632812967905
 21
735.99357311320875
  0
LINE
  8
_0-0_計極細
  6
CONTINUOUS
 62
    2
 10
1225.9632812967914
 20
484.99357311321006
 11
1225.9632812967905
 21
735.99357311320875
  0
LINE
  8
_0-1_計細線
  6
CONTINUOUS
 62
    3
 10
1195.1632812967907
 20
484.99357311321006
 11
1195.1632812967898
 21
735.99357311320875
  0
LINE
  8
_0-1_計細線
  6
CONTINUOUS
 62
    3
 10
1183.7632812967902
 20
484.99357311321046
 11
1183.7632812967895
 21
735.99357311320875
  0
LINE
  8
_0-1_計細線
  6
CONTINUOUS
 62
    3
 10
1195.1632812967907
 20
484.99357311321006
 11
1183.7632812967902
 21
484.99357311321046
  0
LINE
  8
_0-1_計細線
  6
CONTINUOUS
 62
    3
 10
1195.1632812967898
 20
735.99357311320875
 11
1183.7632812967895
 21
735.99357311320875
  0
LINE
  8
_0-0_計極細
  6
CONTINUOUS
 62
    2
 10
1186.9632812967911
 20
484.99357311321046
 11
1186.96328129679
 21
735.99357311320875
  0
LINE
  8
_0-0_計極細
  6
CONTINUOUS
 62
    2
 10
1191.9632812967911
 20
484.99357311321006
 11
1191.96328129679
 21
735.99357311320875
  0
LINE
  8
_0-1_計細線
  6
CONTINUOUS
 62
    3
 10
1178.1632812967905
 20
484.99357311321046
 11
1178.1632812967891
 21
735.99357311320875
  0
LINE
  8
_0-1_計細線
  6
CONTINUOUS
 62
    3
 10
1166.76328129679
 20
484.99357311321046
 11
1166.7632812967886
 21
735.99357311320875
  0
LINE
  8
_0-1_計細線
  6
CONTINUOUS
 62
    3
 10
1178.1632812967905
 20
484.99357311321046
 11
1166.76328129679
 21
484.99357311321046
  0
LINE
  8
_0-1_計細線
  6
CONTINUOUS
 62
    3
 10
1178.1632812967891
 20
735.99357311320875
 11
1166.7632812967886
 21
735.99357311320875
  0
LINE
  8
_0-0_計極細
  6
CONTINUOUS
 62
    2
 10
1169.9632812967902
 20
484.99357311321046
 11
1169.9632812967889
 21
735.99357311320875
  0
LINE
  8
_0-0_計極細
  6
CONTINUOUS
 62
    2
 10
1174.9632812967902
 20
484.99357311321046
 11
1174.9632812967889
 21
735.99357311320875
  0
LINE
  8
_0-1_計細線
  6
CONTINUOUS
 62
    3
 10
1115.7632812967927
 20
484.99357311321046
 11
1115.7632812967918
 21
735.99357311320875
  0
LINE
  8
_0-1_計細線
  6
CONTINUOUS
 62
    3
 10
1127.1632812967932
 20
484.99357311321006
 11
1127.1632812967923
 21
735.99357311320875
  0
LINE
  8
_0-1_計細線
  6
CONTINUOUS
 62
    3
 10
1115.7632812967927
 20
484.99357311321046
 11
1127.1632812967932
 21
484.99357311321006
  0
LINE
  8
_0-1_計細線
  6
CONTINUOUS
 62
    3
 10
1115.7632812967918
 20
735.99357311320875
 11
1127.1632812967923
 21
735.99357311320875
  0
LINE
  8
_0-0_計極細
  6
CONTINUOUS
 62
    2
 10
1123.9632812967925
 20
484.99357311321006
 11
1123.9632812967916
 21
735.99357311320875
  0
LINE
  8
_0-0_計極細
  6
CONTINUOUS
 62
    2
 10
1118.9632812967925
 20
484.99357311321046
 11
1118.9632812967916
 21
735.99357311320875
  0
LINE
  8
_0-1_計細線
  6
CONTINUOUS
 62
    3
 10
1098.7632812967918
 20
484.99357311321046
 11
1098.7632812967904
 21
735.99357311320875
  0
LINE
  8
_0-1_計細線
  6
CONTINUOUS
 62
    3
 10
1110.1632812967923
 20
484.99357311321046
 11
1110.163281296791
 21
735.99357311320875
  0
LINE
  8
_0-1_計細線
  6
CONTINUOUS
 62
    3
 10
1098.7632812967918
 20
484.99357311321046
 11
1110.1632812967923
 21
484.99357311321046
  0
LINE
  8
_0-1_計細線
  6
CONTINUOUS
 62
    3
 10
1098.7632812967904
 20
735.99357311320875
 11
1110.163281296791
 21
735.99357311320875
  0
LINE
  8
_0-0_計極細
  6
CONTINUOUS
 62
    2
 10
1106.963281296792
 20
484.99357311321046
 11
1106.9632812967907
 21
735.99357311320875
  0
LINE
  8
_0-0_計極細
  6
CONTINUOUS
 62
    2
 10
1101.963281296792
 20
484.99357311321046
 11
1101.9632812967907
 21
735.99357311320875
  0
LINE
  8
_0-1_計細線
  6
CONTINUOUS
 62
    3
 10
1081.7632812967918
 20
484.99357311321046
 11
1081.7632812967909
 21
735.99357311320875
  0
LINE
  8
_0-1_計細線
  6
CONTINUOUS
 62
    3
 10
1093.1632812967923
 20
484.99357311321046
 11
1093.1632812967914
 21
735.99357311320875
  0
LINE
  8
_0-1_計細線
  6
CONTINUOUS
 62
    3
 10
1081.7632812967918
 20
484.99357311321046
 11
1093.1632812967923
 21
484.99357311321046
  0
LINE
  8
_0-1_計細線
  6
CONTINUOUS
 62
    3
 10
1081.7632812967909
 20
735.99357311320875
 11
1093.1632812967914
 21
735.99357311320875
  0
LINE
  8
_0-0_計極細
  6
CONTINUOUS
 62
    2
 10
1089.963281296792
 20
484.99357311321046
 11
1089.9632812967911
 21
735.99357311320875
  0
LINE
  8
_0-0_計極細
  6
CONTINUOUS
 62
    2
 10
1084.963281296792
 20
484.99357311321046
 11
1084.9632812967911
 21
735.99357311320875
  0
LINE
  8
_0-1_計細線
  6
CONTINUOUS
 62
    3
 10
1076.1632812967928
 20
484.99357311321006
 11
1076.1632812967914
 21
735.99357311320875
  0
LINE
  8
_0-1_計細線
  6
CONTINUOUS
 62
    3
 10
1064.7632812967922
 20
484.99357311321006
 11
1064.7632812967909
 21
735.99357311320875
  0
LINE
  8
_0-1_計細線
  6
CONTINUOUS
 62
    3
 10
1076.1632812967928
 20
484.99357311321006
 11
1064.7632812967922
 21
484.99357311321006
  0
LINE
  8
_0-1_計細線
  6
CONTINUOUS
 62
    3
 10
1076.1632812967914
 20
735.99357311320875
 11
1064.7632812967909
 21
735.99357311320875
  0
LINE
  8
_0-0_計極細
  6
CONTINUOUS
 62
    2
 10
1067.9632812967925
 20
484.99357311321006
 11
1067.9632812967911
 21
735.99357311320875
  0
LINE
  8
_0-0_計極細
  6
CONTINUOUS
 62
    2
 10
1072.9632812967925
 20
484.99357311321006
 11
1072.9632812967911
 21
735.99357311320875
  0
LINE
  8
_0-1_計細線
  6
CONTINUOUS
 62
    3
 10
1212.1632812967932
 20
484.99357311321006
 11
1212.1632812967919
 21
735.99357311320875
  0
LINE
  8
_0-1_計細線
  6
CONTINUOUS
 62
    3
 10
1200.7632812967925
 20
484.99357311321046
 11
1200.7632812967913
 21
735.99357311320875
  0
LINE
  8
_0-1_計細線
  6
CONTINUOUS
 62
    3
 10
1212.1632812967932
 20
484.99357311321006
 11
1200.7632812967925
 21
484.99357311321046
  0
LINE
  8
_0-1_計細線
  6
CONTINUOUS
 62
    3
 10
1212.1632812967919
 20
735.99357311320875
 11
1200.7632812967913
 21
735.99357311320875
  0
LINE
  8
_0-0_計極細
  6
CONTINUOUS
 62
    2
 10
1203.9632812967932
 20
484.99357311321046
 11
1203.963281296792
 21
735.99357311320875
  0
LINE
  8
_0-0_計極細
  6
CONTINUOUS
 62
    2
 10
1208.9632812967932
 20
484.99357311321006
 11
1208.963281296792
 21
735.99357311320875
  0
LINE
  8
_0-1_計細線
  6
CONTINUOUS
 62
    3
 10
1059.1632812967928
 20
484.99357311321006
 11
1059.1632812967919
 21
735.99357311320875
  0
LINE
  8
_0-1_計細線
  6
CONTINUOUS
 62
    3
 10
1047.7632812967922
 20
484.99357311321006
 11
1047.7632812967913
 21
735.99357311320875
  0
LINE
  8
_0-1_計細線
  6
CONTINUOUS
 62
    3
 10
1059.1632812967928
 20
484.99357311321006
 11
1047.7632812967922
 21
484.99357311321006
  0
LINE
  8
_0-1_計細線
  6
CONTINUOUS
 62
    3
 10
1059.1632812967919
 20
735.99357311320875
 11
1047.7632812967913
 21
735.99357311320875
  0
LINE
  8
_0-0_計極細
  6
CONTINUOUS
 62
    2
 10
1050.9632812967925
 20
484.99357311321006
 11
1050.9632812967916
 21
735.99357311320875
  0
LINE
  8
_0-0_計極細
  6
CONTINUOUS
 62
    2
 10
1055.9632812967925
 20
484.99357311321006
 11
1055.9632812967916
 21
735.99357311320875
  0
LINE
  8
_0-1_計細線
  6
CONTINUOUS
 62
    3
 10
1042.1632812967928
 20
484.99357311321006
 11
1042.1632812967919
 21
735.99357311320875
  0
LINE
  8
_0-1_計細線
  6
CONTINUOUS
 62
    3
 10
1030.7632812967922
 20
484.99357311321006
 11
1030.7632812967913
 21
735.99357311320875
  0
LINE
  8
_0-1_計細線
  6
CONTINUOUS
 62
    3
 10
1042.1632812967928
 20
484.99357311321006
 11
1030.7632812967922
 21
484.99357311321006
  0
LINE
  8
_0-1_計細線
  6
CONTINUOUS
 62
    3
 10
1042.1632812967919
 20
735.99357311320875
 11
1030.7632812967913
 21
735.99357311320875
  0
LINE
  8
_0-0_計極細
  6
CONTINUOUS
 62
    2
 10
1033.9632812967925
 20
484.99357311321006
 11
1033.9632812967916
 21
735.99357311320875
  0
LINE
  8
_0-0_計極細
  6
CONTINUOUS
 62
    2
 10
1038.9632812967925
 20
484.99357311321006
 11
1038.9632812967916
 21
735.99357311320875
  0
LINE
  8
_0-1_計細線
  6
CONTINUOUS
 62
    3
 10
1025.1632812967928
 20
484.99357311321006
 11
1025.1632812967919
 21
735.99357311320875
  0
LINE
  8
_0-1_計細線
  6
CONTINUOUS
 62
    3
 10
1013.7632812967922
 20
484.99357311321006
 11
1013.7632812967912
 21
735.99357311320875
  0
LINE
  8
_0-1_計細線
  6
CONTINUOUS
 62
    3
 10
1025.1632812967928
 20
484.99357311321006
 11
1013.7632812967922
 21
484.99357311321006
  0
LINE
  8
_0-1_計細線
  6
CONTINUOUS
 62
    3
 10
1025.1632812967919
 20
735.99357311320875
 11
1013.7632812967912
 21
735.99357311320875
  0
LINE
  8
_0-0_計極細
  6
CONTINUOUS
 62
    2
 10
1016.9632812967926
 20
484.99357311321006
 11
1016.9632812967916
 21
735.99357311320875
  0
LINE
  8
_0-0_計極細
  6
CONTINUOUS
 62
    2
 10
1021.9632812967926
 20
484.99357311321006
 11
1021.9632812967916
 21
735.99357311320875
  0
LINE
  8
_0-1_計細線
  6
CONTINUOUS
 62
    3
 10
1008.1632812967928
 20
484.99357311321006
 11
1008.1632812967918
 21
735.99357311320875
  0
LINE
  8
_0-1_計細線
  6
CONTINUOUS
 62
    3
 10
996.76328129679234
 20
484.99357311321006
 11
996.76328129679121
 21
735.99357311320875
  0
LINE
  8
_0-1_計細線
  6
CONTINUOUS
 62
    3
 10
1008.1632812967928
 20
484.99357311321006
 11
996.76328129679234
 21
484.99357311321006
  0
LINE
  8
_0-1_計細線
  6
CONTINUOUS
 62
    3
 10
1008.1632812967918
 20
735.99357311320875
 11
996.76328129679121
 21
735.99357311320875
  0
LINE
  8
_0-0_計極細
  6
CONTINUOUS
 62
    2
 10
999.9632812967925
 20
484.99357311321006
 11
999.96328129679159
 21
735.99357311320875
  0
LINE
  8
_0-0_計極細
  6
CONTINUOUS
 62
    2
 10
1004.9632812967925
 20
484.99357311321006
 11
1004.9632812967916
 21
735.99357311320875
  0
LINE
  8
_0-1_計細線
  6
CONTINUOUS
 62
    3
 10
991.16328129679289
 20
484.99357311321006
 11
991.16328129679175
 21
735.99357311320875
  0
LINE
  8
_0-1_計細線
  6
CONTINUOUS
 62
    3
 10
979.76328129679234
 20
484.99357311321006
 11
979.76328129679132
 21
735.99357311320875
  0
LINE
  8
_0-1_計細線
  6
CONTINUOUS
 62
    3
 10
991.16328129679289
 20
484.99357311321006
 11
979.76328129679234
 21
484.99357311321006
  0
LINE
  8
_0-1_計細線
  6
CONTINUOUS
 62
    3
 10
991.16328129679175
 20
735.99357311320875
 11
979.76328129679132
 21
735.99357311320875
  0
LINE
  8
_0-0_計極細
  6
CONTINUOUS
 62
    2
 10
982.9632812967925
 20
484.99357311321006
 11
982.96328129679159
 21
735.99357311320875
  0
LINE
  8
_0-0_計極細
  6
CONTINUOUS
 62
    2
 10
987.9632812967925
 20
484.99357311321006
 11
987.96328129679159
 21
735.99357311320875
  0
LINE
  8
_0-1_計細線
  6
CONTINUOUS
 62
    3
 10
974.16328129679289
 20
484.99357311321006
 11
974.16328129679187
 21
735.99357311320875
  0
LINE
  8
_0-1_計細線
  6
CONTINUOUS
 62
    3
 10
962.76328129679223
 20
484.99357311321006
 11
962.76328129679132
 21
735.99357311320875
  0
LINE
  8
_0-1_計細線
  6
CONTINUOUS
 62
    3
 10
974.16328129679289
 20
484.99357311321006
 11
962.76328129679223
 21
484.99357311321006
  0
LINE
  8
_0-1_計細線
  6
CONTINUOUS
 62
    3
 10
974.16328129679187
 20
735.99357311320875
 11
962.76328129679132
 21
735.99357311320875
  0
LINE
  8
_0-0_計極細
  6
CONTINUOUS
 62
    2
 10
965.9632812967925
 20
484.99357311321006
 11
965.96328129679148
 21
735.99357311320875
  0
LINE
  8
_0-0_計極細
  6
CONTINUOUS
 62
    2
 10
970.9632812967925
 20
484.99357311321006
 11
970.96328129679148
 21
735.99357311320875
  0
LINE
  8
_0-1_計細線
  6
CONTINUOUS
 62
    3
 10
957.16328129679277
 20
484.99357311321006
 11
957.16328129679187
 21
735.99357311320875
  0
LINE
  8
_0-1_計細線
  6
CONTINUOUS
 62
    3
 10
945.76328129679223
 20
484.99357311321006
 11
945.76328129679132
 21
735.99357311320875
  0
LINE
  8
_0-1_計細線
  6
CONTINUOUS
 62
    3
 10
957.16328129679277
 20
484.99357311321006
 11
945.76328129679223
 21
484.99357311321006
  0
LINE
  8
_0-1_計細線
  6
CONTINUOUS
 62
    3
 10
957.16328129679187
 20
735.99357311320875
 11
945.76328129679132
 21
735.99357311320875
  0
LINE
  8
_0-0_計極細
  6
CONTINUOUS
 62
    2
 10
948.96328129679262
 20
484.99357311321006
 11
948.96328129679148
 21
735.99357311320875
  0
LINE
  8
_0-0_計極細
  6
CONTINUOUS
 62
    2
 10
953.96328129679262
 20
484.99357311321006
 11
953.96328129679148
 21
735.99357311320875
  0
LINE
  8
_0-1_計細線
  6
CONTINUOUS
 62
    3
 10
940.16328129679277
 20
484.99357311321006
 11
940.16328129679187
 21
735.99357311320875
  0
LINE
  8
_0-1_計細線
  6
CONTINUOUS
 62
    3
 10
928.76328129679223
 20
484.99357311321006
 11
928.76328129679121
 21
735.99357311320875
  0
LINE
  8
_0-1_計細線
  6
CONTINUOUS
 62
    3
 10
940.16328129679277
 20
484.99357311321006
 11
928.76328129679223
 21
484.99357311321006
  0
LINE
  8
_0-1_計細線
  6
CONTINUOUS
 62
    3
 10
940.16328129679187
 20
735.99357311320875
 11
928.76328129679121
 21
735.99357311320875
  0
LINE
  8
_0-0_計極細
  6
CONTINUOUS
 62
    2
 10
931.96328129679262
 20
484.99357311321006
 11
931.96328129679159
 21
735.99357311320875
  0
LINE
  8
_0-0_計極細
  6
CONTINUOUS
 62
    2
 10
936.96328129679262
 20
484.99357311321006
 11
936.96328129679159
 21
735.99357311320875
  0
LINE
  8
_0-1_計細線
  6
CONTINUOUS
 62
    3
 10
923.16328129679277
 20
484.99357311321006
 11
923.16328129679175
 21
735.99357311320875
  0
LINE
  8
_0-1_計細線
  6
CONTINUOUS
 62
    3
 10
911.76328129679234
 20
484.99357311321006
 11
911.76328129679121
 21
735.99357311320875
  0
LINE
  8
_0-1_計細線
  6
CONTINUOUS
 62
    3
 10
923.16328129679277
 20
484.99357311321006
 11
911.76328129679234
 21
484.99357311321006
  0
LINE
  8
_0-1_計細線
  6
CONTINUOUS
 62
    3
 10
923.16328129679175
 20
735.99357311320875
 11
911.76328129679121
 21
735.99357311320875
  0
LINE
  8
_0-0_計極細
  6
CONTINUOUS
 62
    2
 10
914.9632812967925
 20
484.99357311321006
 11
914.96328129679159
 21
735.99357311320875
  0
LINE
  8
_0-0_計極細
  6
CONTINUOUS
 62
    2
 10
919.9632812967925
 20
484.99357311321006
 11
919.96328129679159
 21
735.99357311320875
  0
LINE
  8
_0-1_計細線
  6
CONTINUOUS
 62
    3
 10
906.16328129679289
 20
484.99357311321006
 11
906.16328129679175
 21
735.99357311320875
  0
LINE
  8
_0-1_計細線
  6
CONTINUOUS
 62
    3
 10
894.76328129679234
 20
484.99357311321006
 11
894.76328129679132
 21
735.99357311320875
  0
LINE
  8
_0-1_計細線
  6
CONTINUOUS
 62
    3
 10
906.16328129679289
 20
484.99357311321006
 11
894.76328129679234
 21
484.99357311321006
  0
LINE
  8
_0-1_計細線
  6
CONTINUOUS
 62
    3
 10
906.16328129679175
 20
735.99357311320875
 11
894.76328129679132
 21
735.99357311320875
  0
LINE
  8
_0-0_計極細
  6
CONTINUOUS
 62
    2
 10
897.9632812967925
 20
484.99357311321006
 11
897.96328129679159
 21
735.99357311320875
  0
LINE
  8
_0-0_計極細
  6
CONTINUOUS
 62
    2
 10
902.9632812967925
 20
484.99357311321006
 11
902.96328129679159
 21
735.99357311320875
  0
LINE
  8
_0-1_計細線
  6
CONTINUOUS
 62
    3
 10
889.16328129679289
 20
484.99357311321006
 11
889.16328129679187
 21
735.99357311320875
  0
LINE
  8
_0-1_計細線
  6
CONTINUOUS
 62
    3
 10
877.76328129679223
 20
484.99357311321006
 11
877.76328129679132
 21
735.99357311320875
  0
LINE
  8
_0-1_計細線
  6
CONTINUOUS
 62
    3
 10
889.16328129679289
 20
484.99357311321006
 11
877.76328129679223
 21
484.99357311321006
  0
LINE
  8
_0-1_計細線
  6
CONTINUOUS
 62
    3
 10
889.16328129679187
 20
735.99357311320875
 11
877.76328129679132
 21
735.99357311320875
  0
LINE
  8
_0-0_計極細
  6
CONTINUOUS
 62
    2
 10
880.9632812967925
 20
484.99357311321006
 11
880.96328129679148
 21
735.99357311320875
  0
LINE
  8
_0-0_計極細
  6
CONTINUOUS
 62
    2
 10
885.9632812967925
 20
484.99357311321006
 11
885.96328129679148
 21
735.99357311320875
  0
LINE
  8
_0-1_計細線
  6
CONTINUOUS
 62
    3
 10
872.16328129679277
 20
484.99357311321006
 11
872.16328129679187
 21
735.99357311320875
  0
LINE
  8
_0-1_計細線
  6
CONTINUOUS
 62
    3
 10
860.76328129679223
 20
484.99357311321006
 11
860.76328129679132
 21
735.99357311320875
  0
LINE
  8
_0-1_計細線
  6
CONTINUOUS
 62
    3
 10
872.16328129679277
 20
484.99357311321006
 11
860.76328129679223
 21
484.99357311321006
  0
LINE
  8
_0-1_計細線
  6
CONTINUOUS
 62
    3
 10
872.16328129679187
 20
735.99357311320875
 11
860.76328129679132
 21
735.99357311320875
  0
LINE
  8
_0-0_計極細
  6
CONTINUOUS
 62
    2
 10
863.96328129679262
 20
484.99357311321006
 11
863.96328129679148
 21
735.99357311320875
  0
LINE
  8
_0-0_計極細
  6
CONTINUOUS
 62
    2
 10
868.96328129679262
 20
484.99357311321006
 11
868.96328129679148
 21
735.99357311320875
  0
LINE
  8
_0-1_計細線
  6
CONTINUOUS
 62
    3
 10
855.16328129679277
 20
484.99357311321006
 11
855.16328129679187
 21
735.99357311320875
  0
LINE
  8
_0-1_計細線
  6
CONTINUOUS
 62
    3
 10
843.76328129679223
 20
484.99357311321006
 11
843.76328129679121
 21
735.99357311320875
  0
LINE
  8
_0-1_計細線
  6
CONTINUOUS
 62
    3
 10
855.16328129679277
 20
484.99357311321006
 11
843.76328129679223
 21
484.99357311321006
  0
LINE
  8
_0-1_計細線
  6
CONTINUOUS
 62
    3
 10
855.16328129679187
 20
735.99357311320875
 11
843.76328129679121
 21
735.99357311320875
  0
LINE
  8
_0-0_計極細
  6
CONTINUOUS
 62
    2
 10
846.96328129679262
 20
484.99357311321006
 11
846.96328129679159
 21
735.99357311320875
  0
LINE
  8
_0-0_計極細
  6
CONTINUOUS
 62
    2
 10
851.96328129679262
 20
484.99357311321006
 11
851.96328129679159
 21
735.99357311320875
  0
LINE
  8
_0-1_計細線
  6
CONTINUOUS
 62
    3
 10
838.16328129679277
 20
484.99357311321006
 11
838.16328129679175
 21
735.99357311320875
  0
LINE
  8
_0-1_計細線
  6
CONTINUOUS
 62
    3
 10
826.76328129679234
 20
484.99357311321006
 11
826.76328129679121
 21
735.99357311320875
  0
LINE
  8
_0-1_計細線
  6
CONTINUOUS
 62
    3
 10
838.16328129679277
 20
484.99357311321006
 11
826.76328129679234
 21
484.99357311321006
  0
LINE
  8
_0-1_計細線
  6
CONTINUOUS
 62
    3
 10
838.16328129679175
 20
735.99357311320875
 11
826.76328129679121
 21
735.99357311320875
  0
LINE
  8
_0-0_計極細
  6
CONTINUOUS
 62
    2
 10
829.9632812967925
 20
484.99357311321006
 11
829.96328129679159
 21
735.99357311320875
  0
LINE
  8
_0-0_計極細
  6
CONTINUOUS
 62
    2
 10
834.9632812967925
 20
484.99357311321006
 11
834.96328129679159
 21
735.99357311320875
  0
LINE
  8
_0-1_計細線
  6
CONTINUOUS
 62
    3
 10
821.16328129679289
 20
484.99357311321006
 11
821.16328129679175
 21
735.99357311320875
  0
LINE
  8
_0-1_計細線
  6
CONTINUOUS
 62
    3
 10
809.76328129679234
 20
484.99357311321006
 11
809.76328129679132
 21
735.99357311320875
  0
LINE
  8
_0-1_計細線
  6
CONTINUOUS
 62
    3
 10
821.16328129679289
 20
484.99357311321006
 11
809.76328129679234
 21
484.99357311321006
  0
LINE
  8
_0-1_計細線
  6
CONTINUOUS
 62
    3
 10
821.16328129679175
 20
735.99357311320875
 11
809.76328129679132
 21
735.99357311320875
  0
LINE
  8
_0-0_計極細
  6
CONTINUOUS
 62
    2
 10
812.9632812967925
 20
484.99357311321006
 11
812.96328129679159
 21
735.99357311320875
  0
LINE
  8
_0-0_計極細
  6
CONTINUOUS
 62
    2
 10
817.9632812967925
 20
484.99357311321006
 11
817.96328129679159
 21
735.99357311320875
  0
LINE
  8
_0-1_計細線
  6
CONTINUOUS
 62
    3
 10
804.16328129679289
 20
484.99357311321006
 11
804.16328129679187
 21
735.99357311320875
  0
LINE
  8
_0-1_計細線
  6
CONTINUOUS
 62
    3
 10
792.76328129679223
 20
484.99357311321006
 11
792.76328129679132
 21
735.99357311320875
  0
LINE
  8
_0-1_計細線
  6
CONTINUOUS
 62
    3
 10
804.16328129679289
 20
484.99357311321006
 11
792.76328129679223
 21
484.99357311321006
  0
LINE
  8
_0-1_計細線
  6
CONTINUOUS
 62
    3
 10
804.16328129679187
 20
735.99357311320875
 11
792.76328129679132
 21
735.99357311320875
  0
LINE
  8
_0-0_計極細
  6
CONTINUOUS
 62
    2
 10
795.9632812967925
 20
484.99357311321006
 11
795.96328129679148
 21
735.99357311320875
  0
LINE
  8
_0-0_計極細
  6
CONTINUOUS
 62
    2
 10
800.9632812967925
 20
484.99357311321006
 11
800.96328129679148
 21
735.99357311320875
  0
LINE
  8
_0-1_計細線
  6
CONTINUOUS
 62
    3
 10
787.16328129679277
 20
484.99357311321006
 11
787.16328129679187
 21
735.99357311320875
  0
LINE
  8
_0-1_計細線
  6
CONTINUOUS
 62
    3
 10
775.76328129679223
 20
484.99357311321006
 11
775.76328129679132
 21
735.99357311320875
  0
LINE
  8
_0-1_計細線
  6
CONTINUOUS
 62
    3
 10
787.16328129679277
 20
484.99357311321006
 11
775.76328129679223
 21
484.99357311321006
  0
LINE
  8
_0-1_計細線
  6
CONTINUOUS
 62
    3
 10
787.16328129679187
 20
735.99357311320875
 11
775.76328129679132
 21
735.99357311320875
  0
LINE
  8
_0-0_計極細
  6
CONTINUOUS
 62
    2
 10
778.96328129679262
 20
484.99357311321006
 11
778.96328129679148
 21
735.99357311320875
  0
LINE
  8
_0-0_計極細
  6
CONTINUOUS
 62
    2
 10
783.96328129679262
 20
484.99357311321006
 11
783.96328129679148
 21
735.99357311320875
  0
LINE
  8
_0-1_計細線
  6
CONTINUOUS
 62
    3
 10
770.16328129679277
 20
484.99357311321006
 11
770.16328129679187
 21
735.99357311320875
  0
LINE
  8
_0-1_計細線
  6
CONTINUOUS
 62
    3
 10
758.76328129679223
 20
484.99357311321006
 11
758.76328129679121
 21
735.99357311320875
  0
LINE
  8
_0-1_計細線
  6
CONTINUOUS
 62
    3
 10
770.16328129679277
 20
484.99357311321006
 11
758.76328129679223
 21
484.99357311321006
  0
LINE
  8
_0-1_計細線
  6
CONTINUOUS
 62
    3
 10
770.16328129679187
 20
735.99357311320875
 11
758.76328129679121
 21
735.99357311320875
  0
LINE
  8
_0-0_計極細
  6
CONTINUOUS
 62
    2
 10
761.96328129679262
 20
484.99357311321006
 11
761.96328129679148
 21
735.99357311320875
  0
LINE
  8
_0-0_計極細
  6
CONTINUOUS
 62
    2
 10
766.96328129679262
 20
484.99357311321006
 11
766.96328129679148
 21
735.99357311320875
  0
LINE
  8
_0-1_計細線
  6
CONTINUOUS
 62
    3
 10
753.16328129679277
 20
484.99357311321006
 11
753.16328129679175
 21
735.99357311320875
  0
LINE
  8
_0-1_計細線
  6
CONTINUOUS
 62
    3
 10
741.76328129679223
 20
484.99357311321006
 11
741.76328129679121
 21
735.99357311320875
  0
LINE
  8
_0-1_計細線
  6
CONTINUOUS
 62
    3
 10
753.16328129679277
 20
484.99357311321006
 11
741.76328129679223
 21
484.99357311321006
  0
LINE
  8
_0-1_計細線
  6
CONTINUOUS
 62
    3
 10
753.16328129679175
 20
735.99357311320875
 11
741.76328129679121
 21
735.99357311320875
  0
LINE
  8
_0-0_計極細
  6
CONTINUOUS
 62
    2
 10
744.9632812967925
 20
484.99357311321006
 11
744.96328129679159
 21
735.99357311320875
  0
LINE
  8
_0-0_計極細
  6
CONTINUOUS
 62
    2
 10
749.9632812967925
 20
484.99357311321006
 11
749.96328129679159
 21
735.99357311320875
  0
LINE
  8
_0-1_計細線
  6
CONTINUOUS
 62
    3
 10
736.16328129679277
 20
484.99357311321006
 11
736.16328129679175
 21
735.99357311320875
  0
LINE
  8
_0-1_計細線
  6
CONTINUOUS
 62
    3
 10
724.76328129679234
 20
484.99357311321006
 11
724.76328129679121
 21
735.99357311320875
  0
LINE
  8
_0-1_計細線
  6
CONTINUOUS
 62
    3
 10
736.16328129679277
 20
484.99357311321006
 11
724.76328129679234
 21
484.99357311321006
  0
LINE
  8
_0-1_計細線
  6
CONTINUOUS
 62
    3
 10
736.16328129679175
 20
735.99357311320875
 11
724.76328129679121
 21
735.99357311320875
  0
LINE
  8
_0-0_計極細
  6
CONTINUOUS
 62
    2
 10
727.9632812967925
 20
484.99357311321006
 11
727.96328129679159
 21
735.99357311320875
  0
LINE
  8
_0-0_計極細
  6
CONTINUOUS
 62
    2
 10
732.9632812967925
 20
484.99357311321006
 11
732.96328129679159
 21
735.99357311320875
  0
LINE
  8
_0-1_計細線
  6
CONTINUOUS
 62
    3
 10
719.16328129679289
 20
484.99357311321006
 11
719.16328129679175
 21
735.99357311320875
  0
LINE
  8
_0-1_計細線
  6
CONTINUOUS
 62
    3
 10
707.76328129679223
 20
484.99357311321006
 11
707.76328129679132
 21
735.99357311320875
  0
LINE
  8
_0-1_計細線
  6
CONTINUOUS
 62
    3
 10
719.16328129679289
 20
484.99357311321006
 11
707.76328129679223
 21
484.99357311321006
  0
LINE
  8
_0-1_計細線
  6
CONTINUOUS
 62
    3
 10
719.16328129679175
 20
735.99357311320875
 11
707.76328129679132
 21
735.99357311320875
  0
LINE
  8
_0-0_計極細
  6
CONTINUOUS
 62
    2
 10
710.9632812967925
 20
484.99357311321006
 11
710.96328129679148
 21
735.99357311320875
  0
LINE
  8
_0-0_計極細
  6
CONTINUOUS
 62
    2
 10
715.9632812967925
 20
484.99357311321006
 11
715.96328129679148
 21
735.99357311320875
  0
LINE
  8
_0-1_計細線
  6
CONTINUOUS
 62
    3
 10
702.16328129679277
 20
484.99357311321006
 11
702.16328129679187
 21
735.99357311320875
  0
LINE
  8
_0-1_計細線
  6
CONTINUOUS
 62
    3
 10
690.76328129679223
 20
484.99357311321006
 11
690.76328129679132
 21
735.99357311320875
  0
LINE
  8
_0-1_計細線
  6
CONTINUOUS
 62
    3
 10
702.16328129679277
 20
484.99357311321006
 11
690.76328129679223
 21
484.99357311321006
  0
LINE
  8
_0-1_計細線
  6
CONTINUOUS
 62
    3
 10
702.16328129679187
 20
735.99357311320875
 11
690.76328129679132
 21
735.99357311320875
  0
LINE
  8
_0-0_計極細
  6
CONTINUOUS
 62
    2
 10
693.9632812967925
 20
484.99357311321006
 11
693.96328129679148
 21
735.99357311320875
  0
LINE
  8
_0-0_計極細
  6
CONTINUOUS
 62
    2
 10
698.9632812967925
 20
484.99357311321006
 11
698.96328129679148
 21
735.99357311320875
  0
LINE
  8
_0-1_計細線
  6
CONTINUOUS
 62
    3
 10
685.16328129679277
 20
484.99357311321006
 11
685.16328129679187
 21
735.99357311320875
  0
LINE
  8
_0-1_計細線
  6
CONTINUOUS
 62
    3
 10
673.76328129679223
 20
484.99357311321006
 11
673.76328129679121
 21
735.99357311320875
  0
LINE
  8
_0-1_計細線
  6
CONTINUOUS
 62
    3
 10
685.16328129679277
 20
484.99357311321006
 11
673.76328129679223
 21
484.99357311321006
  0
LINE
  8
_0-1_計細線
  6
CONTINUOUS
 62
    3
 10
685.16328129679187
 20
735.99357311320875
 11
673.76328129679121
 21
735.99357311320875
  0
LINE
  8
_0-0_計極細
  6
CONTINUOUS
 62
    2
 10
676.96328129679262
 20
484.99357311321006
 11
676.96328129679148
 21
735.99357311320875
  0
LINE
  8
_0-0_計極細
  6
CONTINUOUS
 62
    2
 10
681.96328129679262
 20
484.99357311321006
 11
681.96328129679148
 21
735.99357311320875
  0
LINE
  8
_0-1_計細線
  6
CONTINUOUS
 62
    3
 10
668.16328129679277
 20
484.99357311321006
 11
668.16328129679175
 21
735.99357311320875
  0
LINE
  8
_0-1_計細線
  6
CONTINUOUS
 62
    3
 10
656.76328129679223
 20
484.99357311321006
 11
656.76328129679121
 21
735.99357311320875
  0
LINE
  8
_0-1_計細線
  6
CONTINUOUS
 62
    3
 10
668.16328129679277
 20
484.99357311321006
 11
656.76328129679223
 21
484.99357311321006
  0
LINE
  8
_0-1_計細線
  6
CONTINUOUS
 62
    3
 10
668.16328129679175
 20
735.99357311320875
 11
656.76328129679121
 21
735.99357311320875
  0
LINE
  8
_0-0_計極細
  6
CONTINUOUS
 62
    2
 10
659.9632812967925
 20
484.99357311321006
 11
659.96328129679159
 21
735.99357311320875
  0
LINE
  8
_0-0_計極細
  6
CONTINUOUS
 62
    2
 10
664.9632812967925
 20
484.99357311321006
 11
664.96328129679159
 21
735.99357311320875
  0
LINE
  8
_0-1_計細線
  6
CONTINUOUS
 62
    3
 10
651.16328129679277
 20
484.99357311321006
 11
651.16328129679175
 21
735.99357311320875
  0
LINE
  8
_0-1_計細線
  6
CONTINUOUS
 62
    3
 10
639.76328129679223
 20
484.99357311321006
 11
639.76328129679121
 21
735.99357311320875
  0
LINE
  8
_0-1_計細線
  6
CONTINUOUS
 62
    3
 10
651.16328129679277
 20
484.99357311321006
 11
639.76328129679223
 21
484.99357311321006
  0
LINE
  8
_0-1_計細線
  6
CONTINUOUS
 62
    3
 10
651.16328129679175
 20
735.99357311320875
 11
639.76328129679121
 21
735.99357311320875
  0
LINE
  8
_0-0_計極細
  6
CONTINUOUS
 62
    2
 10
642.9632812967925
 20
484.99357311321006
 11
642.96328129679159
 21
735.99357311320875
  0
LINE
  8
_0-0_計極細
  6
CONTINUOUS
 62
    2
 10
647.9632812967925
 20
484.99357311321006
 11
647.96328129679159
 21
735.99357311320875
  0
LINE
  8
_0-1_計細線
  6
CONTINUOUS
 62
    3
 10
634.16328129679277
 20
484.99357311321006
 11
634.16328129679175
 21
735.99357311320875
  0
LINE
  8
_0-1_計細線
  6
CONTINUOUS
 62
    3
 10
622.76328129679223
 20
484.99357311321006
 11
622.76328129679121
 21
735.99357311320875
  0
LINE
  8
_0-1_計細線
  6
CONTINUOUS
 62
    3
 10
634.16328129679277
 20
484.99357311321006
 11
622.76328129679223
 21
484.99357311321006
  0
LINE
  8
_0-1_計細線
  6
CONTINUOUS
 62
    3
 10
634.16328129679175
 20
735.99357311320875
 11
622.76328129679121
 21
735.99357311320875
  0
LINE
  8
_0-0_計極細
  6
CONTINUOUS
 62
    2
 10
625.9632812967925
 20
484.99357311321006
 11
625.96328129679148
 21
735.99357311320875
  0
LINE
  8
_0-0_計極細
  6
CONTINUOUS
 62
    2
 10
630.9632812967925
 20
484.99357311321006
 11
630.96328129679148
 21
735.99357311320875
  0
LINE
  8
_0-1_計細線
  6
CONTINUOUS
 62
    3
 10
617.16328129679277
 20
484.99357311321006
 11
617.16328129679175
 21
735.99357311320875
  0
LINE
  8
_0-1_計細線
  6
CONTINUOUS
 62
    3
 10
605.76328129679223
 20
484.99357311321006
 11
605.76328129679132
 21
735.99357311320875
  0
LINE
  8
_0-1_計細線
  6
CONTINUOUS
 62
    3
 10
617.16328129679277
 20
484.99357311321006
 11
605.76328129679223
 21
484.99357311321006
  0
LINE
  8
_0-1_計細線
  6
CONTINUOUS
 62
    3
 10
617.16328129679175
 20
735.99357311320875
 11
605.76328129679132
 21
735.99357311320875
  0
LINE
  8
_0-0_計極細
  6
CONTINUOUS
 62
    2
 10
608.9632812967925
 20
484.99357311321006
 11
608.96328129679148
 21
735.99357311320875
  0
LINE
  8
_0-0_計極細
  6
CONTINUOUS
 62
    2
 10
613.9632812967925
 20
484.99357311321006
 11
613.96328129679148
 21
735.99357311320875
  0
LINE
  8
_0-1_計細線
  6
CONTINUOUS
 62
    3
 10
600.16328129679277
 20
484.99357311321006
 11
600.16328129679187
 21
735.99357311320875
  0
LINE
  8
_0-1_計細線
  6
CONTINUOUS
 62
    3
 10
588.76328129679223
 20
484.99357311321006
 11
588.76328129679121
 21
735.99357311320875
  0
LINE
  8
_0-1_計細線
  6
CONTINUOUS
 62
    3
 10
600.16328129679277
 20
484.99357311321006
 11
588.76328129679223
 21
484.99357311321006
  0
LINE
  8
_0-1_計細線
  6
CONTINUOUS
 62
    3
 10
600.16328129679187
 20
735.99357311320875
 11
588.76328129679121
 21
735.99357311320875
  0
LINE
  8
_0-0_計極細
  6
CONTINUOUS
 62
    2
 10
591.9632812967925
 20
484.99357311321006
 11
591.96328129679148
 21
735.99357311320875
  0
LINE
  8
_0-0_計極細
  6
CONTINUOUS
 62
    2
 10
596.9632812967925
 20
484.99357311321006
 11
596.96328129679148
 21
735.99357311320875
  0
LINE
  8
_0-1_計細線
  6
CONTINUOUS
 62
    3
 10
583.16328129679277
 20
484.99357311321006
 11
583.16328129679175
 21
735.99357311320875
  0
LINE
  8
_0-1_計細線
  6
CONTINUOUS
 62
    3
 10
571.76328129679223
 20
484.99357311321006
 11
571.76328129679121
 21
735.99357311320875
  0
LINE
  8
_0-1_計細線
  6
CONTINUOUS
 62
    3
 10
583.16328129679277
 20
484.99357311321006
 11
571.76328129679223
 21
484.99357311321006
  0
LINE
  8
_0-1_計細線
  6
CONTINUOUS
 62
    3
 10
583.16328129679175
 20
735.99357311320875
 11
571.76328129679121
 21
735.99357311320875
  0
LINE
  8
_0-0_計極細
  6
CONTINUOUS
 62
    2
 10
574.9632812967925
 20
484.99357311321006
 11
574.96328129679148
 21
735.99357311320875
  0
LINE
  8
_0-0_計極細
  6
CONTINUOUS
 62
    2
 10
579.9632812967925
 20
484.99357311321006
 11
579.96328129679148
 21
735.99357311320875
  0
LINE
  8
_0-1_計細線
  6
CONTINUOUS
 62
    3
 10
566.16328129679277
 20
484.99357311321006
 11
566.16328129679175
 21
735.99357311320875
  0
LINE
  8
_0-1_計細線
  6
CONTINUOUS
 62
    3
 10
554.76328129679223
 20
484.99357311321006
 11
554.76328129679121
 21
735.99357311320875
  0
LINE
  8
_0-1_計細線
  6
CONTINUOUS
 62
    3
 10
566.16328129679277
 20
484.99357311321006
 11
554.76328129679223
 21
484.99357311321006
  0
LINE
  8
_0-1_計細線
  6
CONTINUOUS
 62
    3
 10
566.16328129679175
 20
735.99357311320875
 11
554.76328129679121
 21
735.99357311320875
  0
LINE
  8
_0-0_計極細
  6
CONTINUOUS
 62
    2
 10
557.9632812967925
 20
484.99357311321006
 11
557.96328129679159
 21
735.99357311320875
  0
LINE
  8
_0-0_計極細
  6
CONTINUOUS
 62
    2
 10
562.9632812967925
 20
484.99357311321006
 11
562.96328129679159
 21
735.99357311320875
  0
LINE
  8
_0-1_計細線
  6
CONTINUOUS
 62
    3
 10
549.16328129679277
 20
484.99357311321006
 11
549.16328129679175
 21
735.99357311320875
  0
LINE
  8
_0-1_計細線
  6
CONTINUOUS
 62
    3
 10
537.76328129679223
 20
484.99357311321006
 11
537.76328129679121
 21
735.99357311320875
  0
LINE
  8
_0-1_計細線
  6
CONTINUOUS
 62
    3
 10
549.16328129679277
 20
484.99357311321006
 11
537.76328129679223
 21
484.99357311321006
  0
LINE
  8
_0-1_計細線
  6
CONTINUOUS
 62
    3
 10
549.16328129679175
 20
735.99357311320875
 11
537.76328129679121
 21
735.99357311320875
  0
LINE
  8
_0-0_計極細
  6
CONTINUOUS
 62
    2
 10
540.9632812967925
 20
484.99357311321006
 11
540.96328129679148
 21
735.99357311320875
  0
LINE
  8
_0-0_計極細
  6
CONTINUOUS
 62
    2
 10
545.9632812967925
 20
484.99357311321006
 11
545.96328129679148
 21
735.99357311320875
  0
LINE
  8
_0-1_計細線
  6
CONTINUOUS
 62
    3
 10
532.16328129679277
 20
484.99357311321006
 11
532.16328129679175
 21
735.99357311320875
  0
LINE
  8
_0-1_計細線
  6
CONTINUOUS
 62
    3
 10
520.76328129679223
 20
484.99357311321006
 11
520.76328129679132
 21
735.99357311320875
  0
LINE
  8
_0-1_計細線
  6
CONTINUOUS
 62
    3
 10
532.16328129679277
 20
484.99357311321006
 11
520.76328129679223
 21
484.99357311321006
  0
LINE
  8
_0-1_計細線
  6
CONTINUOUS
 62
    3
 10
532.16328129679175
 20
735.99357311320875
 11
520.76328129679132
 21
735.99357311320875
  0
LINE
  8
_0-0_計極細
  6
CONTINUOUS
 62
    2
 10
523.9632812967925
 20
484.99357311321006
 11
523.96328129679148
 21
735.99357311320875
  0
LINE
  8
_0-0_計極細
  6
CONTINUOUS
 62
    2
 10
528.9632812967925
 20
484.99357311321006
 11
528.96328129679148
 21
735.99357311320875
  0
LINE
  8
_0-1_計細線
  6
CONTINUOUS
 62
    3
 10
515.16328129679277
 20
484.99357311321006
 11
515.16328129679187
 21
735.99357311320875
  0
LINE
  8
_0-1_計細線
  6
CONTINUOUS
 62
    3
 10
503.76328129679223
 20
484.99357311321006
 11
503.76328129679121
 21
735.99357311320875
  0
LINE
  8
_0-1_計細線
  6
CONTINUOUS
 62
    3
 10
515.16328129679277
 20
484.99357311321006
 11
503.76328129679223
 21
484.99357311321006
  0
LINE
  8
_0-1_計細線
  6
CONTINUOUS
 62
    3
 10
515.16328129679187
 20
735.99357311320875
 11
503.76328129679121
 21
735.99357311320875
  0
LINE
  8
_0-0_計極細
  6
CONTINUOUS
 62
    2
 10
506.9632812967925
 20
484.99357311321006
 11
506.96328129679154
 21
735.99357311320875
  0
LINE
  8
_0-0_計極細
  6
CONTINUOUS
 62
    2
 10
511.9632812967925
 20
484.99357311321006
 11
511.96328129679154
 21
735.99357311320875
  0
LINE
  8
_0-1_計細線
  6
CONTINUOUS
 62
    3
 10
498.16328129679277
 20
484.99357311321006
 11
498.16328129679175
 21
735.99357311320875
  0
LINE
  8
_0-1_計細線
  6
CONTINUOUS
 62
    3
 10
486.76328129679229
 20
484.99357311321006
 11
486.76328129679121
 21
735.99357311320875
  0
LINE
  8
_0-1_計細線
  6
CONTINUOUS
 62
    3
 10
498.16328129679277
 20
484.99357311321006
 11
486.76328129679229
 21
484.99357311321006
  0
LINE
  8
_0-1_計細線
  6
CONTINUOUS
 62
    3
 10
498.16328129679175
 20
735.99357311320875
 11
486.76328129679121
 21
735.99357311320875
  0
LINE
  8
_0-0_計極細
  6
CONTINUOUS
 62
    2
 10
489.96328129679256
 20
484.99357311321006
 11
489.96328129679148
 21
735.99357311320875
  0
LINE
  8
_0-0_計極細
  6
CONTINUOUS
 62
    2
 10
494.96328129679256
 20
484.99357311321006
 11
494.96328129679148
 21
735.99357311320875
  0
LINE
  8
_0-1_計細線
  6
CONTINUOUS
 62
    3
 10
481.16328129679283
 20
484.99357311321006
 11
481.16328129679175
 21
735.99357311320875
  0
LINE
  8
_0-1_計細線
  6
CONTINUOUS
 62
    3
 10
469.76328129679223
 20
484.99357311321006
 11
469.76328129679126
 21
735.99357311320875
  0
LINE
  8
_0-1_計細線
  6
CONTINUOUS
 62
    3
 10
481.16328129679283
 20
484.99357311321006
 11
469.76328129679223
 21
484.99357311321006
  0
LINE
  8
_0-1_計細線
  6
CONTINUOUS
 62
    3
 10
481.16328129679175
 20
735.99357311320875
 11
469.76328129679126
 21
735.99357311320875
  0
LINE
  8
_0-0_計極細
  6
CONTINUOUS
 62
    2
 10
472.9632812967925
 20
484.99357311321006
 11
472.96328129679154
 21
735.99357311320875
  0
LINE
  8
_0-0_計極細
  6
CONTINUOUS
 62
    2
 10
477.9632812967925
 20
484.99357311321006
 11
477.96328129679154
 21
735.99357311320875
  0
LINE
  8
_0-1_計細線
  6
CONTINUOUS
 62
    3
 10
464.16328129679277
 20
484.99357311321006
 11
464.16328129679181
 21
735.99357311320875
  0
LINE
  8
_0-1_計細線
  6
CONTINUOUS
 62
    3
 10
452.76328129679229
 20
484.99357311321006
 11
452.76328129679138
 21
735.99357311320875
  0
LINE
  8
_0-1_計細線
  6
CONTINUOUS
 62
    3
 10
464.16328129679277
 20
484.99357311321006
 11
452.76328129679229
 21
484.99357311321006
  0
LINE
  8
_0-1_計細線
  6
CONTINUOUS
 62
    3
 10
464.16328129679181
 20
735.99357311320875
 11
452.76328129679138
 21
735.99357311320875
  0
LINE
  8
_0-0_計極細
  6
CONTINUOUS
 62
    2
 10
455.9632812967925
 20
484.99357311321006
 11
455.96328129679165
 21
735.99357311320875
  0
LINE
  8
_0-0_計極細
  6
CONTINUOUS
 62
    2
 10
460.9632812967925
 20
484.99357311321006
 11
460.96328129679165
 21
735.99357311320875
  0
LINE
  8
_0-1_計細線
  6
CONTINUOUS
 62
    3
 10
447.16328129679283
 20
484.99357311321006
 11
447.16328129679192
 21
735.99357311320875
  0
LINE
  8
_0-1_計細線
  6
CONTINUOUS
 62
    3
 10
435.76328129679223
 20
484.99357311321006
 11
435.76328129679132
 21
735.99357311320875
  0
LINE
  8
_0-1_計細線
  6
CONTINUOUS
 62
    3
 10
447.16328129679283
 20
484.99357311321006
 11
435.76328129679223
 21
484.99357311321006
  0
LINE
  8
_0-1_計細線
  6
CONTINUOUS
 62
    3
 10
447.16328129679192
 20
735.99357311320875
 11
435.76328129679132
 21
735.99357311320875
  0
LINE
  8
_0-0_計極細
  6
CONTINUOUS
 62
    2
 10
438.96328129679256
 20
484.99357311321006
 11
438.96328129679159
 21
735.99357311320875
  0
LINE
  8
_0-0_計極細
  6
CONTINUOUS
 62
    2
 10
443.96328129679256
 20
484.99357311321006
 11
443.96328129679159
 21
735.99357311320875
  0
LINE
  8
_0-1_計細線
  6
CONTINUOUS
 62
    3
 10
430.16328129679277
 20
484.99357311321006
 11
430.16328129679187
 21
735.99357311320875
  0
LINE
  8
_0-1_計細線
  6
CONTINUOUS
 62
    3
 10
418.76328129679223
 20
484.99357311321006
 11
418.76328129679138
 21
735.99357311320875
  0
LINE
  8
_0-1_計細線
  6
CONTINUOUS
 62
    3
 10
430.16328129679277
 20
484.99357311321006
 11
418.76328129679223
 21
484.99357311321006
  0
LINE
  8
_0-1_計細線
  6
CONTINUOUS
 62
    3
 10
430.16328129679187
 20
735.99357311320875
 11
418.76328129679138
 21
735.99357311320875
  0
LINE
  8
_0-0_計極細
  6
CONTINUOUS
 62
    2
 10
421.9632812967925
 20
484.99357311321006
 11
421.96328129679159
 21
735.99357311320875
  0
LINE
  8
_0-0_計極細
  6
CONTINUOUS
 62
    2
 10
426.9632812967925
 20
484.99357311321006
 11
426.96328129679159
 21
735.99357311320875
  0
LINE
  8
_0-1_計細線
  6
CONTINUOUS
 62
    3
 10
413.16328129679277
 20
484.99357311321006
 11
413.16328129679192
 21
735.99357311320875
  0
LINE
  8
_0-1_計細線
  6
CONTINUOUS
 62
    3
 10
401.76328129679229
 20
484.99357311321006
 11
401.76328129679132
 21
735.99357311320875
  0
LINE
  8
_0-1_計細線
  6
CONTINUOUS
 62
    3
 10
413.16328129679277
 20
484.99357311321006
 11
401.76328129679229
 21
484.99357311321006
  0
LINE
  8
_0-1_計細線
  6
CONTINUOUS
 62
    3
 10
413.16328129679192
 20
735.99357311320875
 11
401.76328129679132
 21
735.99357311320875
  0
LINE
  8
_0-0_計極細
  6
CONTINUOUS
 62
    2
 10
404.96328129679256
 20
484.99357311321006
 11
404.96328129679165
 21
735.99357311320875
  0
LINE
  8
_0-0_計極細
  6
CONTINUOUS
 62
    2
 10
409.96328129679256
 20
484.99357311321006
 11
409.96328129679165
 21
735.99357311320875
  0
LINE
  8
_0-1_計細線
  6
CONTINUOUS
 62
    3
 10
396.16328129679283
 20
484.99357311321006
 11
396.16328129679187
 21
735.99357311320875
  0
LINE
  8
_0-1_計細線
  6
CONTINUOUS
 62
    3
 10
384.76328129679223
 20
484.99357311321006
 11
384.76328129679132
 21
735.99357311320875
  0
LINE
  8
_0-1_計細線
  6
CONTINUOUS
 62
    3
 10
396.16328129679283
 20
484.99357311321006
 11
384.76328129679223
 21
484.99357311321006
  0
LINE
  8
_0-1_計細線
  6
CONTINUOUS
 62
    3
 10
396.16328129679187
 20
735.99357311320875
 11
384.76328129679132
 21
735.99357311320875
  0
LINE
  8
_0-0_計極細
  6
CONTINUOUS
 62
    2
 10
387.9632812967925
 20
484.99357311321006
 11
387.96328129679159
 21
735.99357311320875
  0
LINE
  8
_0-0_計極細
  6
CONTINUOUS
 62
    2
 10
392.9632812967925
 20
484.99357311321006
 11
392.96328129679159
 21
735.99357311320875
  0
LINE
  8
_0-1_計細線
  6
CONTINUOUS
 62
    3
 10
379.16328129679277
 20
484.99357311321006
 11
379.16328129679187
 21
735.99357311320875
  0
LINE
  8
_0-1_計細線
  6
CONTINUOUS
 62
    3
 10
367.76328129679223
 20
484.99357311321006
 11
367.76328129679138
 21
735.99357311320875
  0
LINE
  8
_0-1_計細線
  6
CONTINUOUS
 62
    3
 10
379.16328129679277
 20
484.99357311321006
 11
367.76328129679223
 21
484.99357311321006
  0
LINE
  8
_0-1_計細線
  6
CONTINUOUS
 62
    3
 10
379.16328129679187
 20
735.99357311320875
 11
367.76328129679138
 21
735.99357311320875
  0
LINE
  8
_0-0_計極細
  6
CONTINUOUS
 62
    2
 10
370.9632812967925
 20
484.99357311321006
 11
370.96328129679159
 21
735.99357311320875
  0
LINE
  8
_0-0_計極細
  6
CONTINUOUS
 62
    2
 10
375.9632812967925
 20
484.99357311321006
 11
375.96328129679159
 21
735.99357311320875
  0
LINE
  8
_0-1_計細線
  6
CONTINUOUS
 62
    3
 10
362.16328129679277
 20
484.99357311321006
 11
362.16328129679192
 21
735.99357311320875
  0
LINE
  8
_0-1_計細線
  6
CONTINUOUS
 62
    3
 10
350.76328129679223
 20
484.99357311321006
 11
350.76328129679132
 21
735.99357311320875
  0
LINE
  8
_0-1_計細線
  6
CONTINUOUS
 62
    3
 10
362.16328129679277
 20
484.99357311321006
 11
350.76328129679223
 21
484.99357311321006
  0
LINE
  8
_0-1_計細線
  6
CONTINUOUS
 62
    3
 10
362.16328129679192
 20
735.99357311320875
 11
350.76328129679132
 21
735.99357311320875
  0
LINE
  8
_0-0_計極細
  6
CONTINUOUS
 62
    2
 10
353.96328129679256
 20
484.99357311321006
 11
353.96328129679159
 21
735.99357311320875
  0
LINE
  8
_0-0_計極細
  6
CONTINUOUS
 62
    2
 10
358.96328129679256
 20
484.99357311321006
 11
358.96328129679159
 21
735.99357311320875
  0
LINE
  8
_0-1_計細線
  6
CONTINUOUS
 62
    3
 10
345.16328129679277
 20
484.99357311321006
 11
345.16328129679187
 21
735.99357311320875
  0
LINE
  8
_0-1_計細線
  6
CONTINUOUS
 62
    3
 10
333.76328129679223
 20
484.99357311321006
 11
333.76328129679132
 21
735.99357311320875
  0
LINE
  8
_0-1_計細線
  6
CONTINUOUS
 62
    3
 10
345.16328129679277
 20
484.99357311321006
 11
333.76328129679223
 21
484.99357311321006
  0
LINE
  8
_0-1_計細線
  6
CONTINUOUS
 62
    3
 10
345.16328129679187
 20
735.99357311320875
 11
333.76328129679132
 21
735.99357311320875
  0
LINE
  8
_0-0_計極細
  6
CONTINUOUS
 62
    2
 10
336.9632812967925
 20
484.99357311321006
 11
336.96328129679159
 21
735.99357311320875
  0
LINE
  8
_0-0_計極細
  6
CONTINUOUS
 62
    2
 10
341.9632812967925
 20
484.99357311321006
 11
341.96328129679159
 21
735.99357311320875
  0
LINE
  8
_0-1_計細線
  6
CONTINUOUS
 62
    3
 10
328.16328129679277
 20
484.99357311321006
 11
328.16328129679187
 21
735.99357311320875
  0
LINE
  8
_0-1_計細線
  6
CONTINUOUS
 62
    3
 10
316.76328129679223
 20
484.99357311321006
 11
316.76328129679132
 21
735.99357311320875
  0
LINE
  8
_0-1_計細線
  6
CONTINUOUS
 62
    3
 10
328.16328129679277
 20
484.99357311321006
 11
316.76328129679223
 21
484.99357311321006
  0
LINE
  8
_0-1_計細線
  6
CONTINUOUS
 62
    3
 10
328.16328129679187
 20
735.99357311320875
 11
316.76328129679132
 21
735.99357311320875
  0
LINE
  8
_0-0_計極細
  6
CONTINUOUS
 62
    2
 10
319.96328129679256
 20
484.99357311321006
 11
319.96328129679159
 21
735.99357311320875
  0
LINE
  8
_0-0_計極細
  6
CONTINUOUS
 62
    2
 10
324.9632812967925
 20
484.99357311321006
 11
324.96328129679165
 21
735.99357311320875
  0
LINE
  8
_0-1_計細線
  6
CONTINUOUS
 62
    3
 10
311.16328129679277
 20
484.99357311321006
 11
311.16328129679187
 21
735.99357311320875
  0
LINE
  8
_0-1_計細線
  6
CONTINUOUS
 62
    3
 10
299.76328129679223
 20
484.99357311321006
 11
299.76328129679132
 21
735.99357311320875
  0
LINE
  8
_0-1_計細線
  6
CONTINUOUS
 62
    3
 10
311.16328129679277
 20
484.99357311321006
 11
299.76328129679223
 21
484.99357311321006
  0
LINE
  8
_0-1_計細線
  6
CONTINUOUS
 62
    3
 10
311.16328129679187
 20
735.99357311320875
 11
299.76328129679132
 21
735.99357311320875
  0
LINE
  8
_0-0_計極細
  6
CONTINUOUS
 62
    2
 10
302.9632812967925
 20
484.99357311321006
 11
302.96328129679159
 21
735.99357311320875
  0
LINE
  8
_0-0_計極細
  6
CONTINUOUS
 62
    2
 10
307.9632812967925
 20
484.99357311321006
 11
307.96328129679159
 21
735.99357311320875
  0
LINE
  8
_0-1_計細線
  6
CONTINUOUS
 62
    3
 10
293.76328129679268
 20
484.99357311321006
 11
293.76328129679177
 21
735.99357311320875
  0
LINE
  8
_0-1_計細線
  6
CONTINUOUS
 62
    3
 10
282.36328129679214
 20
484.99357311321006
 11
282.36328129679123
 21
735.99357311320875
  0
LINE
  8
_0-1_計細線
  6
CONTINUOUS
 62
    3
 10
293.76328129679268
 20
484.99357311321006
 11
282.36328129679214
 21
484.99357311321006
  0
LINE
  8
_0-1_計細線
  6
CONTINUOUS
 62
    3
 10
293.76328129679177
 20
735.99357311320875
 11
282.36328129679123
 21
735.99357311320875
  0
LINE
  8
_0-0_計極細
  6
CONTINUOUS
 62
    2
 10
285.56328129679241
 20
484.99357311321006
 11
285.5632812967915
 21
735.99357311320875
  0
LINE
  8
_0-0_計極細
  6
CONTINUOUS
 62
    2
 10
290.56328129679241
 20
484.99357311321006
 11
290.5632812967915
 21
735.99357311320875
  0
LINE
  8
_0-1_計細線
  6
CONTINUOUS
 62
    3
 10
276.36328129679305
 20
484.99357311321006
 11
276.36328129679168
 21
735.99357311320875
  0
LINE
  8
_0-1_計細線
  6
CONTINUOUS
 62
    3
 10
264.96328129679256
 20
484.99357311321006
 11
264.96328129679114
 21
735.99357311320875
  0
LINE
  8
_0-1_計細線
  6
CONTINUOUS
 62
    3
 10
276.36328129679305
 20
484.99357311321006
 11
264.96328129679256
 21
484.99357311321006
  0
LINE
  8
_0-1_計細線
  6
CONTINUOUS
 62
    3
 10
276.36328129679168
 20
735.99357311320875
 11
264.96328129679114
 21
735.99357311320875
  0
LINE
  8
_0-0_計極細
  6
CONTINUOUS
 62
    2
 10
268.16328129679277
 20
484.99357311321006
 11
268.16328129679141
 21
735.99357311320875
  0
LINE
  8
_0-0_計極細
  6
CONTINUOUS
 62
    2
 10
273.16328129679277
 20
484.99357311321006
 11
273.16328129679141
 21
735.99357311320875
  0
LINE
  8
_0-1_計細線
  6
CONTINUOUS
 62
    3
 10
258.96328129679296
 20
484.99357311321006
 11
258.96328129679205
 21
735.99357311320875
  0
LINE
  8
_0-1_計細線
  6
CONTINUOUS
 62
    3
 10
247.56328129679247
 20
484.99357311321006
 11
247.56328129679133
 21
735.99357311320875
  0
LINE
  8
_0-1_計細線
  6
CONTINUOUS
 62
    3
 10
258.96328129679296
 20
484.99357311321006
 11
247.56328129679247
 21
484.99357311321006
  0
LINE
  8
_0-1_計細線
  6
CONTINUOUS
 62
    3
 10
258.96328129679205
 20
735.99357311320875
 11
247.56328129679133
 21
735.99357311320875
  0
LINE
  8
_0-0_計極細
  6
CONTINUOUS
 62
    2
 10
250.76328129679268
 20
484.99357311321006
 11
250.76328129679155
 21
735.99357311320875
  0
LINE
  8
_0-0_計極細
  6
CONTINUOUS
 62
    2
 10
255.76328129679268
 20
484.99357311321006
 11
255.76328129679155
 21
735.99357311320875
  0
LINE
  8
_0-1_計細線
  6
CONTINUOUS
 62
    3
 10
241.56328129679309
 20
484.99357311321006
 11
241.56328129679196
 21
735.99357311320875
  0
LINE
  8
_0-1_計細線
  6
CONTINUOUS
 62
    3
 10
230.16328129679252
 20
484.99357311321006
 11
230.16328129679138
 21
735.99357311320875
  0
LINE
  8
_0-1_計細線
  6
CONTINUOUS
 62
    3
 10
241.56328129679309
 20
484.99357311321006
 11
230.16328129679252
 21
484.99357311321006
  0
LINE
  8
_0-1_計細線
  6
CONTINUOUS
 62
    3
 10
241.56328129679196
 20
735.99357311320875
 11
230.16328129679138
 21
735.99357311320875
  0
LINE
  8
_0-0_計極細
  6
CONTINUOUS
 62
    2
 10
233.36328129679288
 20
484.99357311321006
 11
233.36328129679174
 21
735.99357311320875
  0
LINE
  8
_0-0_計極細
  6
CONTINUOUS
 62
    2
 10
238.36328129679288
 20
484.99357311321006
 11
238.36328129679174
 21
735.99357311320875
  0
LINE
  8
_0-0_計極細
  6
CONTINUOUS
 62
    2
 10
1200.7632812967913
 20
603.99357311320864
 11
1195.163281296791
 21
603.99357311320864
  0
LINE
  8
_0-0_計極細
  6
CONTINUOUS
 62
    2
 10
1200.7632812967913
 20
616.99357311320864
 11
1195.163281296791
 21
616.99357311320864
  0
LINE
  8
_0-0_計極細
  6
CONTINUOUS
 62
    2
 10
1183.7632812967904
 20
603.9935731132091
 11
1178.1632812967905
 21
603.9935731132091
  0
LINE
  8
_0-0_計極細
  6
CONTINUOUS
 62
    2
 10
1183.7632812967904
 20
616.9935731132091
 11
1178.1632812967905
 21
616.9935731132091
  0
LINE
  8
_0-0_計極細
  6
CONTINUOUS
 62
    2
 10
1161.1632812967946
 20
603.9935731132091
 11
1166.7632812967945
 21
603.9935731132091
  0
LINE
  8
_0-0_計極細
  6
CONTINUOUS
 62
    2
 10
1161.1632812967946
 20
616.9935731132091
 11
1166.7632812967945
 21
616.9935731132091
  0
LINE
  8
_0-0_計極細
  6
CONTINUOUS
 62
    2
 10
1144.1632812967937
 20
603.99357311320864
 11
1149.763281296794
 21
603.99357311320864
  0
LINE
  8
_0-0_計極細
  6
CONTINUOUS
 62
    2
 10
1144.1632812967941
 20
616.99357311320864
 11
1149.763281296794
 21
616.99357311320864
  0
LINE
  8
_0-0_計極細
  6
CONTINUOUS
 62
    2
 10
1127.1632812967932
 20
603.99357311320864
 11
1132.7632812967931
 21
603.99357311320864
  0
LINE
  8
_0-0_計極細
  6
CONTINUOUS
 62
    2
 10
1127.1632812967932
 20
616.99357311320864
 11
1132.7632812967936
 21
616.99357311320864
  0
LINE
  8
_0-0_計極細
  6
CONTINUOUS
 62
    2
 10
1110.1632812967923
 20
603.9935731132091
 11
1115.7632812967927
 21
603.9935731132091
  0
LINE
  8
_0-0_計極細
  6
CONTINUOUS
 62
    2
 10
1110.1632812967923
 20
616.9935731132091
 11
1115.7632812967927
 21
616.9935731132091
  0
LINE
  8
_0-0_計極細
  6
CONTINUOUS
 62
    2
 10
1081.7632812967918
 20
603.99357311320864
 11
1076.1632812967919
 21
603.99357311320864
  0
LINE
  8
_0-0_計極細
  6
CONTINUOUS
 62
    2
 10
1081.7632812967918
 20
616.99357311320864
 11
1076.1632812967919
 21
616.99357311320864
  0
LINE
  8
_0-0_計極細
  6
CONTINUOUS
 62
    2
 10
1217.7632812967934
 20
603.99357311320864
 11
1212.1632812967932
 21
603.99357311320864
  0
LINE
  8
_0-0_計極細
  6
CONTINUOUS
 62
    2
 10
1217.7632812967934
 20
616.99357311320864
 11
1212.1632812967932
 21
616.99357311320864
  0
LINE
  8
_0-0_計極細
  6
CONTINUOUS
 62
    2
 10
1064.7632812967922
 20
603.99357311320864
 11
1059.1632812967919
 21
603.99357311320864
  0
LINE
  8
_0-0_計極細
  6
CONTINUOUS
 62
    2
 10
1064.7632812967922
 20
616.99357311320864
 11
1059.1632812967919
 21
616.99357311320864
  0
LINE
  8
_0-0_計極細
  6
CONTINUOUS
 62
    2
 10
1047.7632812967922
 20
603.99357311320864
 11
1042.1632812967919
 21
603.99357311320864
  0
LINE
  8
_0-0_計極細
  6
CONTINUOUS
 62
    2
 10
1047.7632812967922
 20
616.99357311320864
 11
1042.1632812967919
 21
616.99357311320864
  0
LINE
  8
_0-0_計極細
  6
CONTINUOUS
 62
    2
 10
1030.7632812967922
 20
603.99357311320864
 11
1025.1632812967919
 21
603.99357311320864
  0
LINE
  8
_0-0_計極細
  6
CONTINUOUS
 62
    2
 10
1030.7632812967922
 20
616.99357311320864
 11
1025.1632812967919
 21
616.99357311320864
  0
LINE
  8
_0-0_計極細
  6
CONTINUOUS
 62
    2
 10
1013.7632812967922
 20
603.99357311320864
 11
1008.1632812967921
 21
603.99357311320864
  0
LINE
  8
_0-0_計極細
  6
CONTINUOUS
 62
    2
 10
1013.7632812967922
 20
616.99357311320864
 11
1008.1632812967921
 21
616.99357311320864
  0
LINE
  8
_0-0_計極細
  6
CONTINUOUS
 62
    2
 10
996.76328129679223
 20
603.99357311320864
 11
991.16328129679209
 21
603.99357311320864
  0
LINE
  8
_0-0_計極細
  6
CONTINUOUS
 62
    2
 10
996.76328129679223
 20
616.99357311320864
 11
991.16328129679209
 21
616.99357311320864
  0
LINE
  8
_0-0_計極細
  6
CONTINUOUS
 62
    2
 10
979.76328129679223
 20
603.99357311320864
 11
974.16328129679198
 21
603.99357311320864
  0
LINE
  8
_0-0_計極細
  6
CONTINUOUS
 62
    2
 10
979.76328129679223
 20
616.99357311320864
 11
974.16328129679198
 21
616.99357311320864
  0
LINE
  8
_0-0_計極細
  6
CONTINUOUS
 62
    2
 10
962.76328129679212
 20
603.99357311320864
 11
957.16328129679198
 21
603.99357311320864
  0
LINE
  8
_0-0_計極細
  6
CONTINUOUS
 62
    2
 10
962.76328129679212
 20
616.99357311320864
 11
957.16328129679198
 21
616.99357311320864
  0
LINE
  8
_0-0_計極細
  6
CONTINUOUS
 62
    2
 10
945.76328129679212
 20
603.99357311320864
 11
940.16328129679209
 21
603.99357311320864
  0
LINE
  8
_0-0_計極細
  6
CONTINUOUS
 62
    2
 10
945.76328129679212
 20
616.99357311320864
 11
940.16328129679209
 21
616.99357311320864
  0
LINE
  8
_0-0_計極細
  6
CONTINUOUS
 62
    2
 10
928.76328129679223
 20
603.99357311320864
 11
923.16328129679209
 21
603.99357311320864
  0
LINE
  8
_0-0_計極細
  6
CONTINUOUS
 62
    2
 10
928.76328129679223
 20
616.99357311320864
 11
923.16328129679209
 21
616.99357311320864
  0
LINE
  8
_0-0_計極細
  6
CONTINUOUS
 62
    2
 10
911.76328129679223
 20
603.99357311320864
 11
906.16328129679209
 21
603.99357311320864
  0
LINE
  8
_0-0_計極細
  6
CONTINUOUS
 62
    2
 10
911.76328129679223
 20
616.99357311320864
 11
906.16328129679209
 21
616.99357311320864
  0
LINE
  8
_0-0_計極細
  6
CONTINUOUS
 62
    2
 10
894.76328129679223
 20
603.99357311320864
 11
889.16328129679198
 21
603.99357311320864
  0
LINE
  8
_0-0_計極細
  6
CONTINUOUS
 62
    2
 10
894.76328129679223
 20
616.99357311320864
 11
889.16328129679198
 21
616.99357311320864
  0
LINE
  8
_0-0_計極細
  6
CONTINUOUS
 62
    2
 10
877.76328129679212
 20
603.99357311320864
 11
872.16328129679198
 21
603.99357311320864
  0
LINE
  8
_0-0_計極細
  6
CONTINUOUS
 62
    2
 10
877.76328129679212
 20
616.99357311320864
 11
872.16328129679198
 21
616.99357311320864
  0
LINE
  8
_0-0_計極細
  6
CONTINUOUS
 62
    2
 10
860.76328129679212
 20
603.99357311320864
 11
855.16328129679209
 21
603.99357311320864
  0
LINE
  8
_0-0_計極細
  6
CONTINUOUS
 62
    2
 10
860.76328129679212
 20
616.99357311320864
 11
855.16328129679209
 21
616.99357311320864
  0
LINE
  8
_0-0_計極細
  6
CONTINUOUS
 62
    2
 10
843.76328129679223
 20
603.99357311320864
 11
838.16328129679209
 21
603.99357311320864
  0
LINE
  8
_0-0_計極細
  6
CONTINUOUS
 62
    2
 10
843.76328129679223
 20
616.99357311320864
 11
838.16328129679209
 21
616.99357311320864
  0
LINE
  8
_0-0_計極細
  6
CONTINUOUS
 62
    2
 10
826.76328129679223
 20
603.99357311320864
 11
821.16328129679209
 21
603.99357311320864
  0
LINE
  8
_0-0_計極細
  6
CONTINUOUS
 62
    2
 10
826.76328129679223
 20
616.99357311320864
 11
821.16328129679209
 21
616.99357311320864
  0
LINE
  8
_0-0_計極細
  6
CONTINUOUS
 62
    2
 10
809.76328129679223
 20
603.99357311320864
 11
804.16328129679198
 21
603.99357311320864
  0
LINE
  8
_0-0_計極細
  6
CONTINUOUS
 62
    2
 10
809.76328129679223
 20
616.99357311320864
 11
804.16328129679198
 21
616.99357311320864
  0
LINE
  8
_0-0_計極細
  6
CONTINUOUS
 62
    2
 10
792.76328129679212
 20
603.99357311320864
 11
787.16328129679198
 21
603.99357311320864
  0
LINE
  8
_0-0_計極細
  6
CONTINUOUS
 62
    2
 10
792.76328129679212
 20
616.99357311320864
 11
787.16328129679198
 21
616.99357311320864
  0
LINE
  8
_0-0_計極細
  6
CONTINUOUS
 62
    2
 10
775.76328129679212
 20
603.99357311320864
 11
770.16328129679209
 21
603.99357311320864
  0
LINE
  8
_0-0_計極細
  6
CONTINUOUS
 62
    2
 10
775.76328129679212
 20
616.99357311320864
 11
770.16328129679209
 21
616.99357311320864
  0
LINE
  8
_0-0_計極細
  6
CONTINUOUS
 62
    2
 10
758.76328129679212
 20
603.99357311320864
 11
753.16328129679209
 21
603.99357311320864
  0
LINE
  8
_0-0_計極細
  6
CONTINUOUS
 62
    2
 10
758.76328129679212
 20
616.99357311320864
 11
753.16328129679209
 21
616.99357311320864
  0
LINE
  8
_0-0_計極細
  6
CONTINUOUS
 62
    2
 10
741.76328129679223
 20
603.99357311320864
 11
736.16328129679209
 21
603.99357311320864
  0
LINE
  8
_0-0_計極細
  6
CONTINUOUS
 62
    2
 10
741.76328129679223
 20
616.99357311320864
 11
736.16328129679209
 21
616.99357311320864
  0
LINE
  8
_0-0_計極細
  6
CONTINUOUS
 62
    2
 10
724.76328129679223
 20
603.99357311320864
 11
719.16328129679198
 21
603.99357311320864
  0
LINE
  8
_0-0_計極細
  6
CONTINUOUS
 62
    2
 10
724.76328129679223
 20
616.99357311320864
 11
719.16328129679198
 21
616.99357311320864
  0
LINE
  8
_0-0_計極細
  6
CONTINUOUS
 62
    2
 10
707.76328129679212
 20
603.99357311320864
 11
702.16328129679198
 21
603.99357311320864
  0
LINE
  8
_0-0_計極細
  6
CONTINUOUS
 62
    2
 10
707.76328129679212
 20
616.99357311320864
 11
702.16328129679198
 21
616.99357311320864
  0
LINE
  8
_0-0_計極細
  6
CONTINUOUS
 62
    2
 10
690.76328129679212
 20
603.99357311320864
 11
685.16328129679198
 21
603.99357311320864
  0
LINE
  8
_0-0_計極細
  6
CONTINUOUS
 62
    2
 10
690.76328129679212
 20
616.99357311320864
 11
685.16328129679198
 21
616.99357311320864
  0
LINE
  8
_0-0_計極細
  6
CONTINUOUS
 62
    2
 10
673.76328129679212
 20
603.99357311320864
 11
668.16328129679209
 21
603.99357311320864
  0
LINE
  8
_0-0_計極細
  6
CONTINUOUS
 62
    2
 10
673.76328129679212
 20
616.99357311320864
 11
668.16328129679209
 21
616.99357311320864
  0
LINE
  8
_0-0_計極細
  6
CONTINUOUS
 62
    2
 10
656.76328129679223
 20
603.99357311320864
 11
651.16328129679209
 21
603.99357311320864
  0
LINE
  8
_0-0_計極細
  6
CONTINUOUS
 62
    2
 10
656.76328129679223
 20
616.99357311320864
 11
651.16328129679209
 21
616.99357311320864
  0
LINE
  8
_0-0_計極細
  6
CONTINUOUS
 62
    2
 10
639.76328129679223
 20
603.99357311320864
 11
634.16328129679198
 21
603.99357311320864
  0
LINE
  8
_0-0_計極細
  6
CONTINUOUS
 62
    2
 10
639.76328129679223
 20
616.99357311320864
 11
634.16328129679198
 21
616.99357311320864
  0
LINE
  8
_0-0_計極細
  6
CONTINUOUS
 62
    2
 10
622.76328129679212
 20
603.99357311320864
 11
617.16328129679198
 21
603.99357311320864
  0
LINE
  8
_0-0_計極細
  6
CONTINUOUS
 62
    2
 10
622.76328129679212
 20
616.99357311320864
 11
617.16328129679198
 21
616.99357311320864
  0
LINE
  8
_0-0_計極細
  6
CONTINUOUS
 62
    2
 10
605.76328129679212
 20
603.99357311320864
 11
600.16328129679198
 21
603.99357311320864
  0
LINE
  8
_0-0_計極細
  6
CONTINUOUS
 62
    2
 10
605.76328129679212
 20
616.99357311320864
 11
600.16328129679198
 21
616.99357311320864
  0
LINE
  8
_0-0_計極細
  6
CONTINUOUS
 62
    2
 10
588.76328129679212
 20
603.99357311320864
 11
583.16328129679198
 21
603.99357311320864
  0
LINE
  8
_0-0_計極細
  6
CONTINUOUS
 62
    2
 10
588.76328129679212
 20
616.99357311320864
 11
583.16328129679198
 21
616.99357311320864
  0
LINE
  8
_0-0_計極細
  6
CONTINUOUS
 62
    2
 10
571.76328129679212
 20
603.99357311320864
 11
566.16328129679209
 21
603.99357311320864
  0
LINE
  8
_0-0_計極細
  6
CONTINUOUS
 62
    2
 10
571.76328129679212
 20
616.99357311320864
 11
566.16328129679209
 21
616.99357311320864
  0
LINE
  8
_0-0_計極細
  6
CONTINUOUS
 62
    2
 10
554.76328129679223
 20
603.99357311320864
 11
549.16328129679198
 21
603.99357311320864
  0
LINE
  8
_0-0_計極細
  6
CONTINUOUS
 62
    2
 10
554.76328129679223
 20
616.99357311320864
 11
549.16328129679198
 21
616.99357311320864
  0
LINE
  8
_0-0_計極細
  6
CONTINUOUS
 62
    2
 10
537.76328129679212
 20
603.99357311320864
 11
532.16328129679198
 21
603.99357311320864
  0
LINE
  8
_0-0_計極細
  6
CONTINUOUS
 62
    2
 10
537.76328129679212
 20
616.99357311320864
 11
532.16328129679198
 21
616.99357311320864
  0
LINE
  8
_0-0_計極細
  6
CONTINUOUS
 62
    2
 10
520.76328129679212
 20
603.99357311320864
 11
515.16328129679198
 21
603.99357311320864
  0
LINE
  8
_0-0_計極細
  6
CONTINUOUS
 62
    2
 10
520.76328129679212
 20
616.99357311320864
 11
515.16328129679198
 21
616.99357311320864
  0
LINE
  8
_0-0_計極細
  6
CONTINUOUS
 62
    2
 10
503.76328129679217
 20
603.99357311320864
 11
498.16328129679198
 21
603.99357311320864
  0
LINE
  8
_0-0_計極細
  6
CONTINUOUS
 62
    2
 10
503.76328129679217
 20
616.99357311320864
 11
498.16328129679198
 21
616.99357311320864
  0
LINE
  8
_0-0_計極細
  6
CONTINUOUS
 62
    2
 10
486.76328129679212
 20
603.99357311320864
 11
481.16328129679204
 21
603.99357311320864
  0
LINE
  8
_0-0_計極細
  6
CONTINUOUS
 62
    2
 10
486.76328129679212
 20
616.99357311320864
 11
481.16328129679204
 21
616.99357311320864
  0
LINE
  8
_0-0_計極細
  6
CONTINUOUS
 62
    2
 10
469.76328129679217
 20
603.99357311320864
 11
464.16328129679198
 21
603.99357311320864
  0
LINE
  8
_0-0_計極細
  6
CONTINUOUS
 62
    2
 10
469.76328129679217
 20
616.99357311320864
 11
464.16328129679198
 21
616.99357311320864
  0
LINE
  8
_0-0_計極細
  6
CONTINUOUS
 62
    2
 10
452.76328129679229
 20
603.99357311320864
 11
447.16328129679192
 21
603.99357311320864
  0
LINE
  8
_0-0_計極細
  6
CONTINUOUS
 62
    2
 10
452.76328129679229
 20
616.99357311320864
 11
447.16328129679192
 21
616.99357311320864
  0
LINE
  8
_0-0_計極細
  6
CONTINUOUS
 62
    2
 10
435.76328129679223
 20
603.99357311320864
 11
430.16328129679187
 21
603.99357311320864
  0
LINE
  8
_0-0_計極細
  6
CONTINUOUS
 62
    2
 10
435.76328129679223
 20
616.99357311320864
 11
430.16328129679187
 21
616.99357311320864
  0
LINE
  8
_0-0_計極細
  6
CONTINUOUS
 62
    2
 10
418.76328129679223
 20
603.99357311320864
 11
413.16328129679192
 21
603.99357311320864
  0
LINE
  8
_0-0_計極細
  6
CONTINUOUS
 62
    2
 10
418.76328129679223
 20
616.99357311320864
 11
413.16328129679192
 21
616.99357311320864
  0
LINE
  8
_0-0_計極細
  6
CONTINUOUS
 62
    2
 10
401.76328129679229
 20
603.99357311320864
 11
396.16328129679187
 21
603.99357311320864
  0
LINE
  8
_0-0_計極細
  6
CONTINUOUS
 62
    2
 10
401.76328129679229
 20
616.99357311320864
 11
396.16328129679187
 21
616.99357311320864
  0
LINE
  8
_0-0_計極細
  6
CONTINUOUS
 62
    2
 10
384.76328129679223
 20
603.99357311320864
 11
379.16328129679187
 21
603.99357311320864
  0
LINE
  8
_0-0_計極細
  6
CONTINUOUS
 62
    2
 10
384.76328129679223
 20
616.99357311320864
 11
379.16328129679187
 21
616.99357311320864
  0
LINE
  8
_0-0_計極細
  6
CONTINUOUS
 62
    2
 10
367.76328129679223
 20
603.99357311320864
 11
362.16328129679192
 21
603.99357311320864
  0
LINE
  8
_0-0_計極細
  6
CONTINUOUS
 62
    2
 10
367.76328129679223
 20
616.99357311320864
 11
362.16328129679192
 21
616.99357311320864
  0
LINE
  8
_0-0_計極細
  6
CONTINUOUS
 62
    2
 10
350.76328129679223
 20
603.99357311320864
 11
345.16328129679187
 21
603.99357311320864
  0
LINE
  8
_0-0_計極細
  6
CONTINUOUS
 62
    2
 10
350.76328129679223
 20
616.99357311320864
 11
345.16328129679187
 21
616.99357311320864
  0
LINE
  8
_0-0_計極細
  6
CONTINUOUS
 62
    2
 10
333.76328129679223
 20
603.99357311320864
 11
328.16328129679187
 21
603.99357311320864
  0
LINE
  8
_0-0_計極細
  6
CONTINUOUS
 62
    2
 10
333.76328129679223
 20
616.99357311320864
 11
328.16328129679187
 21
616.99357311320864
  0
LINE
  8
_0-0_計極細
  6
CONTINUOUS
 62
    2
 10
316.76328129679223
 20
603.99357311320864
 11
311.16328129679187
 21
603.99357311320864
  0
LINE
  8
_0-0_計極細
  6
CONTINUOUS
 62
    2
 10
316.76328129679223
 20
616.99357311320864
 11
311.16328129679187
 21
616.99357311320864
  0
LINE
  8
_0-0_計極細
  6
CONTINUOUS
 62
    2
 10
299.76328129679223
 20
603.99357311320864
 11
293.76328129679177
 21
603.99357311320864
  0
LINE
  8
_0-0_計極細
  6
CONTINUOUS
 62
    2
 10
299.76328129679223
 20
616.99357311320864
 11
293.76328129679177
 21
616.99357311320864
  0
LINE
  8
_0-0_計極細
  6
CONTINUOUS
 62
    2
 10
282.36328129679214
 20
603.99357311320864
 11
276.36328129679214
 21
603.99357311320864
  0
LINE
  8
_0-0_計極細
  6
CONTINUOUS
 62
    2
 10
282.36328129679214
 20
616.99357311320864
 11
276.36328129679214
 21
616.99357311320864
  0
LINE
  8
_0-0_計極細
  6
CONTINUOUS
 62
    2
 10
264.96328129679256
 20
603.99357311320864
 11
258.96328129679205
 21
603.99357311320864
  0
LINE
  8
_0-0_計極細
  6
CONTINUOUS
 62
    2
 10
264.96328129679256
 20
616.99357311320864
 11
258.96328129679205
 21
616.99357311320864
  0
LINE
  8
_0-0_計極細
  6
CONTINUOUS
 62
    2
 10
247.56328129679247
 20
603.99357311320864
 11
241.56328129679224
 21
603.99357311320864
  0
LINE
  8
_0-0_計極細
  6
CONTINUOUS
 62
    2
 10
247.56328129679247
 20
616.99357311320864
 11
241.56328129679224
 21
616.99357311320864
  0
LINE
  8
_0-0_計極細
  6
CONTINUOUS
 62
    2
 10
1200.7632812967915
 20
711.99357311320864
 11
1195.1632812967912
 21
711.99357311320864
  0
LINE
  8
_0-0_計極細
  6
CONTINUOUS
 62
    2
 10
1200.7632812967915
 20
724.99357311320864
 11
1195.1632812967912
 21
724.99357311320864
  0
LINE
  8
_0-0_計極細
  6
CONTINUOUS
 62
    2
 10
1183.7632812967906
 20
711.9935731132091
 11
1178.1632812967905
 21
711.9935731132091
  0
LINE
  8
_0-0_計極細
  6
CONTINUOUS
 62
    2
 10
1183.7632812967906
 20
724.9935731132091
 11
1178.1632812967905
 21
724.9935731132091
  0
LINE
  8
_0-0_計極細
  6
CONTINUOUS
 62
    2
 10
1161.1632812967946
 20
711.9935731132091
 11
1166.7632812967945
 21
711.9935731132091
  0
LINE
  8
_0-0_計極細
  6
CONTINUOUS
 62
    2
 10
1161.1632812967946
 20
724.9935731132091
 11
1166.7632812967945
 21
724.9935731132091
  0
LINE
  8
_0-0_計極細
  6
CONTINUOUS
 62
    2
 10
1127.1632812967937
 20
711.99357311320864
 11
1132.7632812967936
 21
711.99357311320864
  0
LINE
  8
_0-0_計極細
  6
CONTINUOUS
 62
    2
 10
1127.1632812967937
 20
724.99357311320864
 11
1132.7632812967936
 21
724.99357311320864
  0
LINE
  8
_0-0_計極細
  6
CONTINUOUS
 62
    2
 10
1110.1632812967923
 20
711.9935731132091
 11
1115.7632812967931
 21
711.9935731132091
  0
LINE
  8
_0-0_計極細
  6
CONTINUOUS
 62
    2
 10
1110.1632812967923
 20
724.9935731132091
 11
1115.7632812967931
 21
724.9935731132091
  0
LINE
  8
_0-0_計極細
  6
CONTINUOUS
 62
    2
 10
1144.163281296795
 20
711.99357311320864
 11
1149.763281296795
 21
711.99357311320864
  0
LINE
  8
_0-0_計極細
  6
CONTINUOUS
 62
    2
 10
1144.163281296795
 20
724.99357311320864
 11
1149.763281296795
 21
724.99357311320864
  0
LINE
  8
_0-0_計極細
  6
CONTINUOUS
 62
    2
 10
1081.7632812967922
 20
711.99357311320864
 11
1076.1632812967919
 21
711.99357311320864
  0
LINE
  8
_0-0_計極細
  6
CONTINUOUS
 62
    2
 10
1081.7632812967922
 20
724.99357311320864
 11
1076.1632812967919
 21
724.99357311320864
  0
LINE
  8
_0-0_計極細
  6
CONTINUOUS
 62
    2
 10
1217.7632812967936
 20
711.99357311320864
 11
1212.1632812967932
 21
711.99357311320864
  0
LINE
  8
_0-0_計極細
  6
CONTINUOUS
 62
    2
 10
1217.7632812967936
 20
724.99357311320864
 11
1212.1632812967932
 21
724.99357311320864
  0
LINE
  8
_0-0_計極細
  6
CONTINUOUS
 62
    2
 10
1064.7632812967922
 20
711.99357311320864
 11
1059.1632812967923
 21
711.99357311320864
  0
LINE
  8
_0-0_計極細
  6
CONTINUOUS
 62
    2
 10
1064.7632812967922
 20
724.99357311320864
 11
1059.1632812967923
 21
724.99357311320864
  0
LINE
  8
_0-0_計極細
  6
CONTINUOUS
 62
    2
 10
1047.7632812967922
 20
711.99357311320864
 11
1042.1632812967923
 21
711.99357311320864
  0
LINE
  8
_0-0_計極細
  6
CONTINUOUS
 62
    2
 10
1047.7632812967922
 20
724.99357311320864
 11
1042.1632812967923
 21
724.99357311320864
  0
LINE
  8
_0-0_計極細
  6
CONTINUOUS
 62
    2
 10
1030.7632812967922
 20
711.99357311320864
 11
1025.1632812967923
 21
711.99357311320864
  0
LINE
  8
_0-0_計極細
  6
CONTINUOUS
 62
    2
 10
1030.7632812967922
 20
724.99357311320864
 11
1025.1632812967923
 21
724.99357311320864
  0
LINE
  8
_0-0_計極細
  6
CONTINUOUS
 62
    2
 10
1013.7632812967923
 20
711.99357311320864
 11
1008.1632812967922
 21
711.99357311320864
  0
LINE
  8
_0-0_計極細
  6
CONTINUOUS
 62
    2
 10
1013.7632812967923
 20
724.99357311320864
 11
1008.1632812967922
 21
724.99357311320864
  0
LINE
  8
_0-0_計極細
  6
CONTINUOUS
 62
    2
 10
996.76328129679234
 20
711.99357311320864
 11
991.16328129679221
 21
711.99357311320864
  0
LINE
  8
_0-0_計極細
  6
CONTINUOUS
 62
    2
 10
996.76328129679234
 20
724.99357311320864
 11
991.16328129679221
 21
724.99357311320864
  0
LINE
  8
_0-0_計極細
  6
CONTINUOUS
 62
    2
 10
979.76328129679246
 20
711.99357311320864
 11
974.16328129679209
 21
711.99357311320864
  0
LINE
  8
_0-0_計極細
  6
CONTINUOUS
 62
    2
 10
979.76328129679246
 20
724.99357311320864
 11
974.16328129679209
 21
724.99357311320864
  0
LINE
  8
_0-0_計極細
  6
CONTINUOUS
 62
    2
 10
962.76328129679246
 20
711.99357311320864
 11
957.16328129679209
 21
711.99357311320864
  0
LINE
  8
_0-0_計極細
  6
CONTINUOUS
 62
    2
 10
962.76328129679246
 20
724.99357311320864
 11
957.16328129679209
 21
724.99357311320864
  0
LINE
  8
_0-0_計極細
  6
CONTINUOUS
 62
    2
 10
945.76328129679246
 20
711.99357311320864
 11
940.16328129679209
 21
711.99357311320864
  0
LINE
  8
_0-0_計極細
  6
CONTINUOUS
 62
    2
 10
945.76328129679246
 20
724.99357311320864
 11
940.16328129679209
 21
724.99357311320864
  0
LINE
  8
_0-0_計極細
  6
CONTINUOUS
 62
    2
 10
928.76328129679234
 20
711.99357311320864
 11
923.16328129679221
 21
711.99357311320864
  0
LINE
  8
_0-0_計極細
  6
CONTINUOUS
 62
    2
 10
928.76328129679234
 20
724.99357311320864
 11
923.16328129679221
 21
724.99357311320864
  0
LINE
  8
_0-0_計極細
  6
CONTINUOUS
 62
    2
 10
911.76328129679234
 20
711.99357311320864
 11
906.16328129679221
 21
711.99357311320864
  0
LINE
  8
_0-0_計極細
  6
CONTINUOUS
 62
    2
 10
911.76328129679234
 20
724.99357311320864
 11
906.16328129679221
 21
724.99357311320864
  0
LINE
  8
_0-0_計極細
  6
CONTINUOUS
 62
    2
 10
894.76328129679246
 20
711.99357311320864
 11
889.16328129679209
 21
711.99357311320864
  0
LINE
  8
_0-0_計極細
  6
CONTINUOUS
 62
    2
 10
894.76328129679246
 20
724.99357311320864
 11
889.16328129679209
 21
724.99357311320864
  0
LINE
  8
_0-0_計極細
  6
CONTINUOUS
 62
    2
 10
877.76328129679246
 20
711.99357311320864
 11
872.16328129679209
 21
711.99357311320864
  0
LINE
  8
_0-0_計極細
  6
CONTINUOUS
 62
    2
 10
877.76328129679246
 20
724.99357311320864
 11
872.16328129679209
 21
724.99357311320864
  0
LINE
  8
_0-0_計極細
  6
CONTINUOUS
 62
    2
 10
860.76328129679246
 20
711.99357311320864
 11
855.16328129679209
 21
711.99357311320864
  0
LINE
  8
_0-0_計極細
  6
CONTINUOUS
 62
    2
 10
860.76328129679246
 20
724.99357311320864
 11
855.16328129679209
 21
724.99357311320864
  0
LINE
  8
_0-0_計極細
  6
CONTINUOUS
 62
    2
 10
843.76328129679234
 20
711.99357311320864
 11
838.16328129679221
 21
711.99357311320864
  0
LINE
  8
_0-0_計極細
  6
CONTINUOUS
 62
    2
 10
843.76328129679234
 20
724.99357311320864
 11
838.16328129679221
 21
724.99357311320864
  0
LINE
  8
_0-0_計極細
  6
CONTINUOUS
 62
    2
 10
826.76328129679234
 20
711.99357311320864
 11
821.16328129679221
 21
711.99357311320864
  0
LINE
  8
_0-0_計極細
  6
CONTINUOUS
 62
    2
 10
826.76328129679234
 20
724.99357311320864
 11
821.16328129679221
 21
724.99357311320864
  0
LINE
  8
_0-0_計極細
  6
CONTINUOUS
 62
    2
 10
809.76328129679246
 20
711.99357311320864
 11
804.16328129679209
 21
711.99357311320864
  0
LINE
  8
_0-0_計極細
  6
CONTINUOUS
 62
    2
 10
809.76328129679246
 20
724.99357311320864
 11
804.16328129679209
 21
724.99357311320864
  0
LINE
  8
_0-0_計極細
  6
CONTINUOUS
 62
    2
 10
792.76328129679246
 20
711.99357311320864
 11
787.16328129679209
 21
711.99357311320864
  0
LINE
  8
_0-0_計極細
  6
CONTINUOUS
 62
    2
 10
792.76328129679246
 20
724.99357311320864
 11
787.16328129679209
 21
724.99357311320864
  0
LINE
  8
_0-0_計極細
  6
CONTINUOUS
 62
    2
 10
775.76328129679246
 20
711.99357311320864
 11
770.16328129679209
 21
711.99357311320864
  0
LINE
  8
_0-0_計極細
  6
CONTINUOUS
 62
    2
 10
775.76328129679246
 20
724.99357311320864
 11
770.16328129679209
 21
724.99357311320864
  0
LINE
  8
_0-0_計極細
  6
CONTINUOUS
 62
    2
 10
758.76328129679234
 20
711.99357311320864
 11
753.16328129679209
 21
711.99357311320864
  0
LINE
  8
_0-0_計極細
  6
CONTINUOUS
 62
    2
 10
758.76328129679234
 20
724.99357311320864
 11
753.16328129679209
 21
724.99357311320864
  0
LINE
  8
_0-0_計極細
  6
CONTINUOUS
 62
    2
 10
741.76328129679234
 20
711.99357311320864
 11
736.16328129679221
 21
711.99357311320864
  0
LINE
  8
_0-0_計極細
  6
CONTINUOUS
 62
    2
 10
741.76328129679234
 20
724.99357311320864
 11
736.16328129679221
 21
724.99357311320864
  0
LINE
  8
_0-0_計極細
  6
CONTINUOUS
 62
    2
 10
724.76328129679234
 20
711.99357311320864
 11
719.16328129679209
 21
711.99357311320864
  0
LINE
  8
_0-0_計極細
  6
CONTINUOUS
 62
    2
 10
724.76328129679234
 20
724.99357311320864
 11
719.16328129679209
 21
724.99357311320864
  0
LINE
  8
_0-0_計極細
  6
CONTINUOUS
 62
    2
 10
707.76328129679246
 20
711.99357311320864
 11
702.16328129679209
 21
711.99357311320864
  0
LINE
  8
_0-0_計極細
  6
CONTINUOUS
 62
    2
 10
707.76328129679246
 20
724.99357311320864
 11
702.16328129679209
 21
724.99357311320864
  0
LINE
  8
_0-0_計極細
  6
CONTINUOUS
 62
    2
 10
690.76328129679246
 20
711.99357311320864
 11
685.16328129679209
 21
711.99357311320864
  0
LINE
  8
_0-0_計極細
  6
CONTINUOUS
 62
    2
 10
690.76328129679246
 20
724.99357311320864
 11
685.16328129679209
 21
724.99357311320864
  0
LINE
  8
_0-0_計極細
  6
CONTINUOUS
 62
    2
 10
673.76328129679234
 20
711.99357311320864
 11
668.16328129679209
 21
711.99357311320864
  0
LINE
  8
_0-0_計極細
  6
CONTINUOUS
 62
    2
 10
673.76328129679234
 20
724.99357311320864
 11
668.16328129679209
 21
724.99357311320864
  0
LINE
  8
_0-0_計極細
  6
CONTINUOUS
 62
    2
 10
656.76328129679234
 20
711.99357311320864
 11
651.16328129679221
 21
711.99357311320864
  0
LINE
  8
_0-0_計極細
  6
CONTINUOUS
 62
    2
 10
656.76328129679234
 20
724.99357311320864
 11
651.16328129679221
 21
724.99357311320864
  0
LINE
  8
_0-0_計極細
  6
CONTINUOUS
 62
    2
 10
639.76328129679234
 20
711.99357311320864
 11
634.16328129679209
 21
711.99357311320864
  0
LINE
  8
_0-0_計極細
  6
CONTINUOUS
 62
    2
 10
639.76328129679234
 20
724.99357311320864
 11
634.16328129679209
 21
724.99357311320864
  0
LINE
  8
_0-0_計極細
  6
CONTINUOUS
 62
    2
 10
622.76328129679234
 20
711.99357311320864
 11
617.16328129679209
 21
711.99357311320864
  0
LINE
  8
_0-0_計極細
  6
CONTINUOUS
 62
    2
 10
622.76328129679234
 20
724.99357311320864
 11
617.16328129679209
 21
724.99357311320864
  0
LINE
  8
_0-0_計極細
  6
CONTINUOUS
 62
    2
 10
605.76328129679246
 20
711.99357311320864
 11
600.16328129679209
 21
711.99357311320864
  0
LINE
  8
_0-0_計極細
  6
CONTINUOUS
 62
    2
 10
605.76328129679246
 20
724.99357311320864
 11
600.16328129679209
 21
724.99357311320864
  0
LINE
  8
_0-0_計極細
  6
CONTINUOUS
 62
    2
 10
588.76328129679234
 20
711.99357311320864
 11
583.16328129679209
 21
711.99357311320864
  0
LINE
  8
_0-0_計極細
  6
CONTINUOUS
 62
    2
 10
588.76328129679234
 20
724.99357311320864
 11
583.16328129679209
 21
724.99357311320864
  0
LINE
  8
_0-0_計極細
  6
CONTINUOUS
 62
    2
 10
571.76328129679234
 20
711.99357311320864
 11
566.16328129679209
 21
711.99357311320864
  0
LINE
  8
_0-0_計極細
  6
CONTINUOUS
 62
    2
 10
571.76328129679234
 20
724.99357311320864
 11
566.16328129679209
 21
724.99357311320864
  0
LINE
  8
_0-0_計極細
  6
CONTINUOUS
 62
    2
 10
554.76328129679234
 20
711.99357311320864
 11
549.16328129679209
 21
711.99357311320864
  0
LINE
  8
_0-0_計極細
  6
CONTINUOUS
 62
    2
 10
554.76328129679234
 20
724.99357311320864
 11
549.16328129679209
 21
724.99357311320864
  0
LINE
  8
_0-0_計極細
  6
CONTINUOUS
 62
    2
 10
537.76328129679234
 20
711.99357311320864
 11
532.16328129679209
 21
711.99357311320864
  0
LINE
  8
_0-0_計極細
  6
CONTINUOUS
 62
    2
 10
537.76328129679234
 20
724.99357311320864
 11
532.16328129679209
 21
724.99357311320864
  0
LINE
  8
_0-0_計極細
  6
CONTINUOUS
 62
    2
 10
520.76328129679246
 20
711.99357311320864
 11
515.16328129679209
 21
711.99357311320864
  0
LINE
  8
_0-0_計極細
  6
CONTINUOUS
 62
    2
 10
520.76328129679246
 20
724.99357311320864
 11
515.16328129679209
 21
724.99357311320864
  0
LINE
  8
_0-0_計極細
  6
CONTINUOUS
 62
    2
 10
503.76328129679234
 20
711.99357311320864
 11
498.16328129679215
 21
711.99357311320864
  0
LINE
  8
_0-0_計極細
  6
CONTINUOUS
 62
    2
 10
503.76328129679234
 20
724.99357311320864
 11
498.16328129679215
 21
724.99357311320864
  0
LINE
  8
_0-0_計極細
  6
CONTINUOUS
 62
    2
 10
486.76328129679234
 20
711.99357311320864
 11
481.16328129679209
 21
711.99357311320864
  0
LINE
  8
_0-0_計極細
  6
CONTINUOUS
 62
    2
 10
486.76328129679234
 20
724.99357311320864
 11
481.16328129679209
 21
724.99357311320864
  0
LINE
  8
_0-0_計極細
  6
CONTINUOUS
 62
    2
 10
469.7632812967924
 20
711.99357311320864
 11
464.16328129679215
 21
711.99357311320864
  0
LINE
  8
_0-0_計極細
  6
CONTINUOUS
 62
    2
 10
469.7632812967924
 20
724.99357311320864
 11
464.16328129679215
 21
724.99357311320864
  0
LINE
  8
_0-0_計極細
  6
CONTINUOUS
 62
    2
 10
452.76328129679229
 20
711.99357311320864
 11
447.16328129679209
 21
711.99357311320864
  0
LINE
  8
_0-0_計極細
  6
CONTINUOUS
 62
    2
 10
452.76328129679229
 20
724.99357311320864
 11
447.16328129679209
 21
724.99357311320864
  0
LINE
  8
_0-0_計極細
  6
CONTINUOUS
 62
    2
 10
435.76328129679223
 20
711.99357311320864
 11
430.16328129679209
 21
711.99357311320864
  0
LINE
  8
_0-0_計極細
  6
CONTINUOUS
 62
    2
 10
435.76328129679223
 20
724.99357311320864
 11
430.16328129679209
 21
724.99357311320864
  0
LINE
  8
_0-0_計極細
  6
CONTINUOUS
 62
    2
 10
418.76328129679223
 20
711.99357311320864
 11
413.16328129679215
 21
711.99357311320864
  0
LINE
  8
_0-0_計極細
  6
CONTINUOUS
 62
    2
 10
418.76328129679223
 20
724.99357311320864
 11
413.16328129679215
 21
724.99357311320864
  0
LINE
  8
_0-0_計極細
  6
CONTINUOUS
 62
    2
 10
401.76328129679229
 20
711.99357311320864
 11
396.16328129679209
 21
711.99357311320864
  0
LINE
  8
_0-0_計極細
  6
CONTINUOUS
 62
    2
 10
401.76328129679229
 20
724.99357311320864
 11
396.16328129679209
 21
724.99357311320864
  0
LINE
  8
_0-0_計極細
  6
CONTINUOUS
 62
    2
 10
384.76328129679223
 20
711.99357311320864
 11
379.16328129679209
 21
711.99357311320864
  0
LINE
  8
_0-0_計極細
  6
CONTINUOUS
 62
    2
 10
384.76328129679223
 20
724.99357311320864
 11
379.16328129679209
 21
724.99357311320864
  0
LINE
  8
_0-0_計極細
  6
CONTINUOUS
 62
    2
 10
367.76328129679223
 20
711.99357311320864
 11
362.16328129679209
 21
711.99357311320864
  0
LINE
  8
_0-0_計極細
  6
CONTINUOUS
 62
    2
 10
367.76328129679223
 20
724.99357311320864
 11
362.16328129679209
 21
724.99357311320864
  0
LINE
  8
_0-0_計極細
  6
CONTINUOUS
 62
    2
 10
350.76328129679223
 20
711.99357311320864
 11
345.16328129679209
 21
711.99357311320864
  0
LINE
  8
_0-0_計極細
  6
CONTINUOUS
 62
    2
 10
350.76328129679223
 20
724.99357311320864
 11
345.16328129679209
 21
724.99357311320864
  0
LINE
  8
_0-0_計極細
  6
CONTINUOUS
 62
    2
 10
333.76328129679223
 20
711.99357311320864
 11
328.16328129679232
 21
711.99357311320864
  0
LINE
  8
_0-0_計極細
  6
CONTINUOUS
 62
    2
 10
333.76328129679223
 20
724.99357311320864
 11
328.16328129679232
 21
724.99357311320864
  0
LINE
  8
_0-0_計極細
  6
CONTINUOUS
 62
    2
 10
316.76328129679223
 20
711.99357311320864
 11
311.16328129679232
 21
711.99357311320864
  0
LINE
  8
_0-0_計極細
  6
CONTINUOUS
 62
    2
 10
316.76328129679223
 20
724.99357311320864
 11
311.16328129679232
 21
724.99357311320864
  0
LINE
  8
_0-0_計極細
  6
CONTINUOUS
 62
    2
 10
299.76328129679223
 20
711.99357311320864
 11
293.76328129679223
 21
711.99357311320864
  0
LINE
  8
_0-0_計極細
  6
CONTINUOUS
 62
    2
 10
299.76328129679223
 20
724.99357311320864
 11
293.76328129679223
 21
724.99357311320864
  0
LINE
  8
_0-0_計極細
  6
CONTINUOUS
 62
    2
 10
282.36328129679265
 20
711.99357311320864
 11
276.36328129679214
 21
711.99357311320864
  0
LINE
  8
_0-0_計極細
  6
CONTINUOUS
 62
    2
 10
282.36328129679265
 20
724.99357311320864
 11
276.36328129679214
 21
724.99357311320864
  0
LINE
  8
_0-0_計極細
  6
CONTINUOUS
 62
    2
 10
264.96328129679256
 20
711.99357311320864
 11
258.9632812967925
 21
711.99357311320864
  0
LINE
  8
_0-0_計極細
  6
CONTINUOUS
 62
    2
 10
264.96328129679256
 20
724.99357311320864
 11
258.9632812967925
 21
724.99357311320864
  0
LINE
  8
_0-0_計極細
  6
CONTINUOUS
 62
    2
 10
247.56328129679261
 20
711.99357311320864
 11
241.56328129679238
 21
711.99357311320864
  0
LINE
  8
_0-0_計極細
  6
CONTINUOUS
 62
    2
 10
247.56328129679261
 20
724.99357311320864
 11
241.56328129679238
 21
724.99357311320864
  0
LINE
  8
_0-0_計極細
  6
CENTER1
 62
    2
 10
228.2390925535833
 20
718.4935731132091
 11
1236.9211050378046
 21
718.49357311320875
  0
LINE
  8
_0-0_計極細
  6
CONTINUOUS
 62
    2
 10
1200.7632812967913
 20
495.99357311320864
 11
1195.163281296791
 21
495.99357311320864
  0
LINE
  8
_0-0_計極細
  6
CONTINUOUS
 62
    2
 10
1200.7632812967913
 20
508.9935731132087
 11
1195.163281296791
 21
508.9935731132087
  0
LINE
  8
_0-0_計極細
  6
CONTINUOUS
 62
    2
 10
1183.7632812967904
 20
495.99357311320915
 11
1178.1632812967905
 21
495.99357311320915
  0
LINE
  8
_0-0_計極細
  6
CONTINUOUS
 62
    2
 10
1183.7632812967904
 20
508.9935731132091
 11
1178.1632812967905
 21
508.9935731132091
  0
LINE
  8
_0-0_計極細
  6
CONTINUOUS
 62
    2
 10
1161.1632812967946
 20
495.99357311320915
 11
1166.7632812967945
 21
495.99357311320915
  0
LINE
  8
_0-0_計極細
  6
CONTINUOUS
 62
    2
 10
1161.1632812967946
 20
508.9935731132091
 11
1166.7632812967945
 21
508.9935731132091
  0
LINE
  8
_0-0_計極細
  6
CONTINUOUS
 62
    2
 10
1144.1632812967937
 20
495.99357311320864
 11
1149.763281296794
 21
495.99357311320864
  0
LINE
  8
_0-0_計極細
  6
CONTINUOUS
 62
    2
 10
1144.1632812967941
 20
508.9935731132087
 11
1149.763281296794
 21
508.9935731132087
  0
LINE
  8
_0-0_計極細
  6
CONTINUOUS
 62
    2
 10
1127.1632812967932
 20
495.99357311320864
 11
1132.7632812967931
 21
495.99357311320864
  0
LINE
  8
_0-0_計極細
  6
CONTINUOUS
 62
    2
 10
1127.1632812967932
 20
508.9935731132087
 11
1132.7632812967936
 21
508.9935731132087
  0
LINE
  8
_0-0_計極細
  6
CONTINUOUS
 62
    2
 10
1110.1632812967923
 20
495.99357311320915
 11
1115.7632812967927
 21
495.99357311320915
  0
LINE
  8
_0-0_計極細
  6
CONTINUOUS
 62
    2
 10
1110.1632812967923
 20
508.9935731132091
 11
1115.7632812967927
 21
508.9935731132091
  0
LINE
  8
_0-0_計極細
  6
CONTINUOUS
 62
    2
 10
1093.1632812967923
 20
495.99357311320915
 11
1098.7632812967927
 21
495.99357311320915
  0
LINE
  8
_0-0_計極細
  6
CONTINUOUS
 62
    2
 10
1093.1632812967923
 20
508.9935731132091
 11
1098.7632812967927
 21
508.9935731132091
  0
LINE
  8
_0-0_計極細
  6
CONTINUOUS
 62
    2
 10
1081.7632812967918
 20
495.99357311320864
 11
1076.1632812967919
 21
495.99357311320864
  0
LINE
  8
_0-0_計極細
  6
CONTINUOUS
 62
    2
 10
1081.7632812967918
 20
508.9935731132087
 11
1076.1632812967919
 21
508.9935731132087
  0
LINE
  8
_0-0_計極細
  6
CONTINUOUS
 62
    2
 10
1217.7632812967934
 20
495.99357311320864
 11
1212.1632812967932
 21
495.99357311320864
  0
LINE
  8
_0-0_計極細
  6
CONTINUOUS
 62
    2
 10
1217.7632812967934
 20
508.9935731132087
 11
1212.1632812967932
 21
508.9935731132087
  0
LINE
  8
_0-0_計極細
  6
CONTINUOUS
 62
    2
 10
1064.7632812967922
 20
495.99357311320864
 11
1059.1632812967919
 21
495.99357311320864
  0
LINE
  8
_0-0_計極細
  6
CONTINUOUS
 62
    2
 10
1064.7632812967922
 20
508.9935731132087
 11
1059.1632812967919
 21
508.9935731132087
  0
LINE
  8
_0-0_計極細
  6
CONTINUOUS
 62
    2
 10
1047.7632812967922
 20
495.99357311320864
 11
1042.1632812967919
 21
495.99357311320864
  0
LINE
  8
_0-0_計極細
  6
CONTINUOUS
 62
    2
 10
1047.7632812967922
 20
508.9935731132087
 11
1042.1632812967919
 21
508.9935731132087
  0
LINE
  8
_0-0_計極細
  6
CONTINUOUS
 62
    2
 10
1030.7632812967922
 20
495.99357311320864
 11
1025.1632812967919
 21
495.99357311320864
  0
LINE
  8
_0-0_計極細
  6
CONTINUOUS
 62
    2
 10
1030.7632812967922
 20
508.9935731132087
 11
1025.1632812967919
 21
508.9935731132087
  0
LINE
  8
_0-0_計極細
  6
CONTINUOUS
 62
    2
 10
1013.7632812967922
 20
495.99357311320864
 11
1008.1632812967921
 21
495.99357311320864
  0
LINE
  8
_0-0_計極細
  6
CONTINUOUS
 62
    2
 10
1013.7632812967922
 20
508.9935731132087
 11
1008.1632812967921
 21
508.9935731132087
  0
LINE
  8
_0-0_計極細
  6
CONTINUOUS
 62
    2
 10
996.76328129679223
 20
495.99357311320864
 11
991.16328129679209
 21
495.99357311320864
  0
LINE
  8
_0-0_計極細
  6
CONTINUOUS
 62
    2
 10
996.76328129679223
 20
508.9935731132087
 11
991.16328129679209
 21
508.9935731132087
  0
LINE
  8
_0-0_計極細
  6
CONTINUOUS
 62
    2
 10
979.76328129679223
 20
495.99357311320864
 11
974.16328129679198
 21
495.99357311320864
  0
LINE
  8
_0-0_計極細
  6
CONTINUOUS
 62
    2
 10
979.76328129679223
 20
508.9935731132087
 11
974.16328129679198
 21
508.9935731132087
  0
LINE
  8
_0-0_計極細
  6
CONTINUOUS
 62
    2
 10
962.76328129679212
 20
495.99357311320864
 11
957.16328129679198
 21
495.99357311320864
  0
LINE
  8
_0-0_計極細
  6
CONTINUOUS
 62
    2
 10
962.76328129679212
 20
508.9935731132087
 11
957.16328129679198
 21
508.9935731132087
  0
LINE
  8
_0-0_計極細
  6
CONTINUOUS
 62
    2
 10
945.76328129679212
 20
495.99357311320864
 11
940.16328129679209
 21
495.99357311320864
  0
LINE
  8
_0-0_計極細
  6
CONTINUOUS
 62
    2
 10
945.76328129679212
 20
508.9935731132087
 11
940.16328129679209
 21
508.9935731132087
  0
LINE
  8
_0-0_計極細
  6
CONTINUOUS
 62
    2
 10
928.76328129679223
 20
495.99357311320864
 11
923.16328129679209
 21
495.99357311320864
  0
LINE
  8
_0-0_計極細
  6
CONTINUOUS
 62
    2
 10
928.76328129679223
 20
508.9935731132087
 11
923.16328129679209
 21
508.9935731132087
  0
LINE
  8
_0-0_計極細
  6
CONTINUOUS
 62
    2
 10
911.76328129679223
 20
495.99357311320864
 11
906.16328129679209
 21
495.99357311320864
  0
LINE
  8
_0-0_計極細
  6
CONTINUOUS
 62
    2
 10
911.76328129679223
 20
508.9935731132087
 11
906.16328129679209
 21
508.9935731132087
  0
LINE
  8
_0-0_計極細
  6
CONTINUOUS
 62
    2
 10
894.76328129679223
 20
495.99357311320864
 11
889.16328129679198
 21
495.99357311320864
  0
LINE
  8
_0-0_計極細
  6
CONTINUOUS
 62
    2
 10
894.76328129679223
 20
508.9935731132087
 11
889.16328129679198
 21
508.9935731132087
  0
LINE
  8
_0-0_計極細
  6
CONTINUOUS
 62
    2
 10
877.76328129679212
 20
495.99357311320864
 11
872.16328129679198
 21
495.99357311320864
  0
LINE
  8
_0-0_計極細
  6
CONTINUOUS
 62
    2
 10
877.76328129679212
 20
508.9935731132087
 11
872.16328129679198
 21
508.9935731132087
  0
LINE
  8
_0-0_計極細
  6
CONTINUOUS
 62
    2
 10
860.76328129679212
 20
495.99357311320864
 11
855.16328129679209
 21
495.99357311320864
  0
LINE
  8
_0-0_計極細
  6
CONTINUOUS
 62
    2
 10
860.76328129679212
 20
508.9935731132087
 11
855.16328129679209
 21
508.9935731132087
  0
LINE
  8
_0-0_計極細
  6
CONTINUOUS
 62
    2
 10
843.76328129679223
 20
495.99357311320864
 11
838.16328129679209
 21
495.99357311320864
  0
LINE
  8
_0-0_計極細
  6
CONTINUOUS
 62
    2
 10
843.76328129679223
 20
508.9935731132087
 11
838.16328129679209
 21
508.9935731132087
  0
LINE
  8
_0-0_計極細
  6
CONTINUOUS
 62
    2
 10
826.76328129679223
 20
495.99357311320864
 11
821.16328129679209
 21
495.99357311320864
  0
LINE
  8
_0-0_計極細
  6
CONTINUOUS
 62
    2
 10
826.76328129679223
 20
508.9935731132087
 11
821.16328129679209
 21
508.9935731132087
  0
LINE
  8
_0-0_計極細
  6
CONTINUOUS
 62
    2
 10
809.76328129679223
 20
495.99357311320864
 11
804.16328129679198
 21
495.99357311320864
  0
LINE
  8
_0-0_計極細
  6
CONTINUOUS
 62
    2
 10
809.76328129679223
 20
508.9935731132087
 11
804.16328129679198
 21
508.9935731132087
  0
LINE
  8
_0-0_計極細
  6
CONTINUOUS
 62
    2
 10
792.76328129679212
 20
495.99357311320864
 11
787.16328129679198
 21
495.99357311320864
  0
LINE
  8
_0-0_計極細
  6
CONTINUOUS
 62
    2
 10
792.76328129679212
 20
508.9935731132087
 11
787.16328129679198
 21
508.9935731132087
  0
LINE
  8
_0-0_計極細
  6
CONTINUOUS
 62
    2
 10
775.76328129679212
 20
495.99357311320864
 11
770.16328129679209
 21
495.99357311320864
  0
LINE
  8
_0-0_計極細
  6
CONTINUOUS
 62
    2
 10
775.76328129679212
 20
508.9935731132087
 11
770.16328129679209
 21
508.9935731132087
  0
LINE
  8
_0-0_計極細
  6
CONTINUOUS
 62
    2
 10
758.76328129679212
 20
495.99357311320864
 11
753.16328129679209
 21
495.99357311320864
  0
LINE
  8
_0-0_計極細
  6
CONTINUOUS
 62
    2
 10
758.76328129679212
 20
508.9935731132087
 11
753.16328129679209
 21
508.9935731132087
  0
LINE
  8
_0-0_計極細
  6
CONTINUOUS
 62
    2
 10
741.76328129679223
 20
495.99357311320864
 11
736.16328129679209
 21
495.99357311320864
  0
LINE
  8
_0-0_計極細
  6
CONTINUOUS
 62
    2
 10
741.76328129679223
 20
508.9935731132087
 11
736.16328129679209
 21
508.9935731132087
  0
LINE
  8
_0-0_計極細
  6
CONTINUOUS
 62
    2
 10
724.76328129679223
 20
495.99357311320864
 11
719.16328129679198
 21
495.99357311320864
  0
LINE
  8
_0-0_計極細
  6
CONTINUOUS
 62
    2
 10
724.76328129679223
 20
508.9935731132087
 11
719.16328129679198
 21
508.9935731132087
  0
LINE
  8
_0-0_計極細
  6
CONTINUOUS
 62
    2
 10
707.76328129679212
 20
495.99357311320864
 11
702.16328129679198
 21
495.99357311320864
  0
LINE
  8
_0-0_計極細
  6
CONTINUOUS
 62
    2
 10
707.76328129679212
 20
508.9935731132087
 11
702.16328129679198
 21
508.9935731132087
  0
LINE
  8
_0-0_計極細
  6
CONTINUOUS
 62
    2
 10
690.76328129679212
 20
495.99357311320864
 11
685.16328129679198
 21
495.99357311320864
  0
LINE
  8
_0-0_計極細
  6
CONTINUOUS
 62
    2
 10
690.76328129679212
 20
508.9935731132087
 11
685.16328129679198
 21
508.9935731132087
  0
LINE
  8
_0-0_計極細
  6
CONTINUOUS
 62
    2
 10
673.76328129679212
 20
495.99357311320864
 11
668.16328129679209
 21
495.99357311320864
  0
LINE
  8
_0-0_計極細
  6
CONTINUOUS
 62
    2
 10
673.76328129679212
 20
508.9935731132087
 11
668.16328129679209
 21
508.9935731132087
  0
LINE
  8
_0-0_計極細
  6
CONTINUOUS
 62
    2
 10
656.76328129679223
 20
495.99357311320864
 11
651.16328129679209
 21
495.99357311320864
  0
LINE
  8
_0-0_計極細
  6
CONTINUOUS
 62
    2
 10
656.76328129679223
 20
508.9935731132087
 11
651.16328129679209
 21
508.9935731132087
  0
LINE
  8
_0-0_計極細
  6
CONTINUOUS
 62
    2
 10
639.76328129679223
 20
495.99357311320864
 11
634.16328129679198
 21
495.99357311320864
  0
LINE
  8
_0-0_計極細
  6
CONTINUOUS
 62
    2
 10
639.76328129679223
 20
508.9935731132087
 11
634.16328129679198
 21
508.9935731132087
  0
LINE
  8
_0-0_計極細
  6
CONTINUOUS
 62
    2
 10
622.76328129679212
 20
495.99357311320864
 11
617.16328129679198
 21
495.99357311320864
  0
LINE
  8
_0-0_計極細
  6
CONTINUOUS
 62
    2
 10
622.76328129679212
 20
508.9935731132087
 11
617.16328129679198
 21
508.9935731132087
  0
LINE
  8
_0-0_計極細
  6
CONTINUOUS
 62
    2
 10
605.76328129679212
 20
495.99357311320864
 11
600.16328129679198
 21
495.99357311320864
  0
LINE
  8
_0-0_計極細
  6
CONTINUOUS
 62
    2
 10
605.76328129679212
 20
508.9935731132087
 11
600.16328129679198
 21
508.9935731132087
  0
LINE
  8
_0-0_計極細
  6
CONTINUOUS
 62
    2
 10
588.76328129679212
 20
495.99357311320864
 11
583.16328129679198
 21
495.99357311320864
  0
LINE
  8
_0-0_計極細
  6
CONTINUOUS
 62
    2
 10
588.76328129679212
 20
508.9935731132087
 11
583.16328129679198
 21
508.9935731132087
  0
LINE
  8
_0-0_計極細
  6
CONTINUOUS
 62
    2
 10
571.76328129679212
 20
495.99357311320864
 11
566.16328129679209
 21
495.99357311320864
  0
LINE
  8
_0-0_計極細
  6
CONTINUOUS
 62
    2
 10
571.76328129679212
 20
508.9935731132087
 11
566.16328129679209
 21
508.9935731132087
  0
LINE
  8
_0-0_計極細
  6
CONTINUOUS
 62
    2
 10
554.76328129679223
 20
495.99357311320864
 11
549.16328129679198
 21
495.99357311320864
  0
LINE
  8
_0-0_計極細
  6
CONTINUOUS
 62
    2
 10
554.76328129679223
 20
508.9935731132087
 11
549.16328129679198
 21
508.9935731132087
  0
LINE
  8
_0-0_計極細
  6
CONTINUOUS
 62
    2
 10
537.76328129679212
 20
495.99357311320864
 11
532.16328129679198
 21
495.99357311320864
  0
LINE
  8
_0-0_計極細
  6
CONTINUOUS
 62
    2
 10
537.76328129679212
 20
508.9935731132087
 11
532.16328129679198
 21
508.9935731132087
  0
LINE
  8
_0-0_計極細
  6
CONTINUOUS
 62
    2
 10
520.76328129679212
 20
495.99357311320864
 11
515.16328129679198
 21
495.99357311320864
  0
LINE
  8
_0-0_計極細
  6
CONTINUOUS
 62
    2
 10
520.76328129679212
 20
508.9935731132087
 11
515.16328129679198
 21
508.9935731132087
  0
LINE
  8
_0-0_計極細
  6
CONTINUOUS
 62
    2
 10
503.76328129679217
 20
495.99357311320864
 11
498.16328129679198
 21
495.99357311320864
  0
LINE
  8
_0-0_計極細
  6
CONTINUOUS
 62
    2
 10
503.76328129679217
 20
508.9935731132087
 11
498.16328129679198
 21
508.9935731132087
  0
LINE
  8
_0-0_計極細
  6
CONTINUOUS
 62
    2
 10
486.76328129679212
 20
495.99357311320864
 11
481.16328129679204
 21
495.99357311320864
  0
LINE
  8
_0-0_計極細
  6
CONTINUOUS
 62
    2
 10
486.76328129679212
 20
508.9935731132087
 11
481.16328129679204
 21
508.9935731132087
  0
LINE
  8
_0-0_計極細
  6
CONTINUOUS
 62
    2
 10
469.76328129679217
 20
495.99357311320864
 11
464.16328129679198
 21
495.99357311320864
  0
LINE
  8
_0-0_計極細
  6
CONTINUOUS
 62
    2
 10
469.76328129679217
 20
508.9935731132087
 11
464.16328129679198
 21
508.9935731132087
  0
LINE
  8
_0-0_計極細
  6
CONTINUOUS
 62
    2
 10
452.76328129679229
 20
495.99357311320864
 11
447.16328129679192
 21
495.99357311320864
  0
LINE
  8
_0-0_計極細
  6
CONTINUOUS
 62
    2
 10
452.76328129679229
 20
508.9935731132087
 11
447.16328129679192
 21
508.9935731132087
  0
LINE
  8
_0-0_計極細
  6
CONTINUOUS
 62
    2
 10
435.76328129679223
 20
495.99357311320864
 11
430.16328129679187
 21
495.99357311320864
  0
LINE
  8
_0-0_計極細
  6
CONTINUOUS
 62
    2
 10
435.76328129679223
 20
508.9935731132087
 11
430.16328129679187
 21
508.9935731132087
  0
LINE
  8
_0-0_計極細
  6
CONTINUOUS
 62
    2
 10
418.76328129679223
 20
495.99357311320864
 11
413.16328129679192
 21
495.99357311320864
  0
LINE
  8
_0-0_計極細
  6
CONTINUOUS
 62
    2
 10
418.76328129679223
 20
508.9935731132087
 11
413.16328129679192
 21
508.9935731132087
  0
LINE
  8
_0-0_計極細
  6
CONTINUOUS
 62
    2
 10
401.76328129679229
 20
495.99357311320864
 11
396.16328129679187
 21
495.99357311320864
  0
LINE
  8
_0-0_計極細
  6
CONTINUOUS
 62
    2
 10
401.76328129679229
 20
508.9935731132087
 11
396.16328129679187
 21
508.9935731132087
  0
LINE
  8
_0-0_計極細
  6
CONTINUOUS
 62
    2
 10
384.76328129679223
 20
495.99357311320864
 11
379.16328129679187
 21
495.99357311320864
  0
LINE
  8
_0-0_計極細
  6
CONTINUOUS
 62
    2
 10
384.76328129679223
 20
508.9935731132087
 11
379.16328129679187
 21
508.9935731132087
  0
LINE
  8
_0-0_計極細
  6
CONTINUOUS
 62
    2
 10
367.76328129679223
 20
495.99357311320864
 11
362.16328129679192
 21
495.99357311320864
  0
LINE
  8
_0-0_計極細
  6
CONTINUOUS
 62
    2
 10
367.76328129679223
 20
508.9935731132087
 11
362.16328129679192
 21
508.9935731132087
  0
LINE
  8
_0-0_計極細
  6
CONTINUOUS
 62
    2
 10
350.76328129679223
 20
495.99357311320864
 11
345.16328129679187
 21
495.99357311320864
  0
LINE
  8
_0-0_計極細
  6
CONTINUOUS
 62
    2
 10
350.76328129679223
 20
508.9935731132087
 11
345.16328129679187
 21
508.9935731132087
  0
LINE
  8
_0-0_計極細
  6
CONTINUOUS
 62
    2
 10
333.76328129679223
 20
495.99357311320864
 11
328.16328129679187
 21
495.99357311320864
  0
LINE
  8
_0-0_計極細
  6
CONTINUOUS
 62
    2
 10
333.76328129679223
 20
508.9935731132087
 11
328.16328129679187
 21
508.9935731132087
  0
LINE
  8
_0-0_計極細
  6
CONTINUOUS
 62
    2
 10
316.76328129679223
 20
495.99357311320864
 11
311.16328129679187
 21
495.99357311320864
  0
LINE
  8
_0-0_計極細
  6
CONTINUOUS
 62
    2
 10
316.76328129679223
 20
508.9935731132087
 11
311.16328129679187
 21
508.9935731132087
  0
LINE
  8
_0-0_計極細
  6
CONTINUOUS
 62
    2
 10
299.76328129679223
 20
495.99357311320864
 11
293.76328129679177
 21
495.99357311320864
  0
LINE
  8
_0-0_計極細
  6
CONTINUOUS
 62
    2
 10
299.76328129679223
 20
508.9935731132087
 11
293.76328129679177
 21
508.9935731132087
  0
LINE
  8
_0-0_計極細
  6
CONTINUOUS
 62
    2
 10
282.36328129679214
 20
495.99357311320864
 11
276.36328129679214
 21
495.99357311320864
  0
LINE
  8
_0-0_計極細
  6
CONTINUOUS
 62
    2
 10
282.36328129679214
 20
508.9935731132087
 11
276.36328129679214
 21
508.9935731132087
  0
LINE
  8
_0-0_計極細
  6
CONTINUOUS
 62
    2
 10
264.96328129679256
 20
495.99357311320864
 11
258.96328129679205
 21
495.99357311320864
  0
LINE
  8
_0-0_計極細
  6
CONTINUOUS
 62
    2
 10
264.96328129679256
 20
508.9935731132087
 11
258.96328129679205
 21
508.9935731132087
  0
LINE
  8
_0-0_計極細
  6
CONTINUOUS
 62
    2
 10
247.56328129679247
 20
495.99357311320864
 11
241.56328129679224
 21
495.99357311320864
  0
LINE
  8
_0-0_計極細
  6
CONTINUOUS
 62
    2
 10
247.56328129679247
 20
508.9935731132087
 11
241.56328129679224
 21
508.9935731132087
  0
LINE
  8
_0-0_計極細
  6
CENTER1
 62
    2
 10
227.15469612011248
 20
502.49357311320915
 11
1236.9211050378044
 21
502.49357311320864
  0
LINE
  8
_0-0_計極細
  6
CONTINUOUS
 62
    2
 10
1093.1632812967914
 20
711.9935731132091
 11
1098.7632812967922
 21
711.9935731132091
  0
LINE
  8
_0-0_計極細
  6
CONTINUOUS
 62
    2
 10
1093.1632812967914
 20
724.9935731132091
 11
1098.7632812967922
 21
724.9935731132091
  0
LINE
  8
_0-1_計細線
  6
CONTINUOUS
 62
    3
 10
1132.7632812967931
 20
484.99357311321006
 11
1132.7632812967922
 21
735.99357311320875
  0
LINE
  8
_0-1_計細線
  6
CONTINUOUS
 62
    3
 10
1132.7632812967931
 20
484.99357311321006
 11
1144.1632812967937
 21
484.99357311321006
  0
LINE
  8
_0-0_計極細
  6
CONTINUOUS
 62
    2
 10
1140.9632812967934
 20
484.99357311321006
 11
1140.9632812967925
 21
735.99357311320875
  0
LINE
  8
_0-0_計極細
  6
CONTINUOUS
 62
    2
 10
1135.9632812967934
 20
484.99357311321006
 11
1135.9632812967925
 21
735.99357311320875
  0
LINE
  8
_0-1_計細線
  6
CONTINUOUS
 62
    3
 10
1132.7632812967922
 20
735.99357311320875
 11
1144.1632812967937
 21
735.99357311320875
  0
LINE
  8
_0-1_計細線
  6
CONTINUOUS
 62
    3
 10
1144.1632812967937
 20
484.99357311321006
 11
1144.1632812967937
 21
735.99357311320875
  0
LINE
  8
_0-1_計細線
  6
CONTINUOUS
 62
    3
 10
1161.1632812967946
 20
484.99357311321046
 11
1161.1632812967932
 21
735.99357311320875
  0
LINE
  8
_0-1_計細線
  6
CONTINUOUS
 62
    3
 10
1149.763281296794
 20
484.99357311321006
 11
1161.1632812967946
 21
484.99357311321046
  0
LINE
  8
_0-0_計極細
  6
CONTINUOUS
 62
    2
 10
1157.9632812967943
 20
484.99357311321006
 11
1157.963281296793
 21
735.99357311320875
  0
LINE
  8
_0-0_計極細
  6
CONTINUOUS
 62
    2
 10
1152.9632812967943
 20
484.99357311321006
 11
1152.963281296793
 21
735.99357311320875
  0
LINE
  8
_0-1_計細線
  6
CONTINUOUS
 62
    3
 10
1149.763281296794
 20
484.99357311321006
 11
1149.763281296794
 21
735.99357311320875
  0
LINE
  8
_0-1_計細線
  6
CONTINUOUS
 62
    3
 10
1149.763281296794
 20
735.99357311320875
 11
1161.1632812967932
 21
735.99357311320875
  0
LINE
  8
_0-0_計極細
  6
CONTINUOUS
 62
    2
 10
1093.1632812967919
 20
616.9935731132091
 11
1093.6132812967917
 21
616.9935731132091
  0
LINE
  8
_0-0_計極細
  6
CONTINUOUS
 62
    2
 10
1098.3132812967915
 20
616.9935731132091
 11
1098.7632812967931
 21
616.9935731132091
  0
LINE
  8
_0-0_計極細
  6
CONTINUOUS
 62
    2
 10
1093.1632812967919
 20
603.9935731132091
 11
1093.6132812967917
 21
603.9935731132091
  0
LINE
  8
_0-0_計極細
  6
CONTINUOUS
 62
    2
 10
1098.3132812967915
 20
603.9935731132091
 11
1098.7632812967931
 21
603.9935731132091
  0
LINE
  8
_0-1_計細線
  6
CONTINUOUS
 62
    3
 10
1098.313281296791
 20
571.49357311320819
 11
1098.3132812967915
 21
624.49357311320807
  0
LINE
  8
_0-1_計細線
  6
CONTINUOUS
 62
    3
 10
1093.6132812967917
 20
624.49357311320807
 11
1093.6132812967912
 21
571.49357311320819
  0
LINE
  8
_0-1_計細線
  6
CONTINUOUS
 62
    3
 10
1093.6132812967912
 20
571.49357311320819
 11
1098.313281296791
 21
571.49357311320819
  0
LINE
  8
_0-1_計細線
  6
CONTINUOUS
 62
    3
 10
1093.6132812967917
 20
614.49357311320807
 11
1098.3132812967915
 21
614.49357311320807
  0
LINE
  8
_0-1_計細線
  6
CONTINUOUS
 62
    3
 10
1093.6132812967917
 20
622.49357311320807
 11
1098.3132812967915
 21
622.49357311320807
  0
LINE
  8
_0-1_計細線
  6
CONTINUOUS
 62
    3
 10
1093.6132812967917
 20
624.49357311320807
 11
1098.3132812967915
 21
624.49357311320807
  0
LINE
  8
_0-1_計細線
  6
CONTINUOUS
 62
    3
 10
1093.6132812967917
 20
620.49357311320807
 11
1098.3132812967915
 21
620.49357311320807
  0
LINE
  8
_0-1_計細線
  6
CONTINUOUS
 62
    3
 10
1093.6132812967917
 20
618.49357311320807
 11
1098.3132812967915
 21
618.49357311320807
  0
LINE
  8
_0-1_計細線
  6
CONTINUOUS
 62
    3
 10
1093.6132812967917
 20
616.49357311320819
 11
1098.3132812967915
 21
616.49357311320819
  0
LINE
  8
_0-5_寸法線
  6
CONTINUOUS
 62
    7
 10
332.66898341129854
 20
482.46857311321037
 11
337.66898342242308
 21
473.80831908178868
  0
LINE
  8
_0-5_寸法線
  6
CONTINUOUS
 62
    7
 10
332.66898341129854
 20
482.46857311321037
 11
332.66898342414402
 21
472.46857311321037
  0
LINE
  8
_0-5_寸法線
  6
CONTINUOUS
 62
    7
 10
332.66898341129854
 20
482.46857311321037
 11
344.51035296876449
 21
438.27598052061785
  0
LINE
  8
_0-5_寸法線
  6
CONTINUOUS
 62
    7
 10
344.51035296876449
 20
438.27598052061785
 11
452.51035296876444
 21
438.27598052061785
  0
TEXT
  8
_0-5_寸法線
 62
    7
 10
344.51035296876449
 20
438.87598052061776
 40
15
 41
0.8000000000000001
 50
0
  1
ＳＵＳアングル受枠
  0
LINE
  8
_0-5_寸法線
  6
CONTINUOUS
 62
    7
 10
458.43662227002989
 20
525.44729426159256
 11
463.43662225792792
 21
516.78704021676117
  0
LINE
  8
_0-5_寸法線
  6
CONTINUOUS
 62
    7
 10
458.43662227002989
 20
525.44729426159256
 11
458.43662225605567
 21
515.44729426159256
  0
LINE
  8
_0-5_寸法線
  6
CONTINUOUS
 62
    7
 10
458.43662227002989
 20
525.44729426159256
 11
481.79410525952346
 21
438.27598052061785
  0
LINE
  8
_0-5_寸法線
  6
CONTINUOUS
 62
    7
 10
481.79410525952346
 20
438.27598052061785
 11
613.79410525952358
 21
438.27598052061785
  0
TEXT
  8
_0-5_寸法線
 62
    7
 10
481.79410525952363
 20
438.27598052061785
 40
15
 41
0.8000000000000001
 50
0
  1
セーフティグレーチング
  0
LINE
  8
_0-5_寸法線
  6
CONTINUOUS
 62
    7
 10
230.16328129679124
 20
750.49357311320819
 11
230.16328129679124
 21
830.49357311320773
  0
LINE
  8
_0-5_寸法線
  6
CONTINUOUS
 62
    7
 10
230.16328129679124
 20
825.49357311320773
 11
237.40772499395916
 21
827.43471595147662
  0
LINE
  8
_0-5_寸法線
  6
CONTINUOUS
 62
    7
 10
230.16328129679124
 20
825.49357311320773
 11
237.40772499395916
 21
823.55243027493884
  0
LINE
  8
_0-5_寸法線
  6
CONTINUOUS
 62
    7
 10
1229.1632812967914
 20
750.49357311320819
 11
1229.1632812967914
 21
830.49357311320773
  0
LINE
  8
_0-5_寸法線
  6
CONTINUOUS
 62
    7
 10
1229.1632812967914
 20
825.49357311320773
 11
1221.9188375996232
 21
823.55243027493884
  0
LINE
  8
_0-5_寸法線
  6
CONTINUOUS
 62
    7
 10
1229.1632812967914
 20
825.49357311320773
 11
1221.9188375996232
 21
827.43471595147662
  0
LINE
  8
_0-5_寸法線
  6
CONTINUOUS
 62
    7
 10
230.16328129679124
 20
825.49357311320773
 11
1229.1632812967914
 21
825.49357311320773
  0
TEXT
  8
_0-5_寸法線
 62
    7
 10
718.4132812967913
 20
825.49357311320762
 40
15
 41
1
 50
0
  1
999
  0
LINE
  8
_0-5_寸法線
  6
CONTINUOUS
 62
    7
 10
1095.0840386513687
 20
623.65025230542801
 11
1090.0840386511752
 21
632.31050634316068
  0
LINE
  8
_0-5_寸法線
  6
CONTINUOUS
 62
    7
 10
1095.0840386513687
 20
623.65025230542801
 11
1095.0840386511454
 21
633.65025230542801
  0
LINE
  8
_0-5_寸法線
  6
CONTINUOUS
 62
    7
 10
1095.0840386513687
 20
623.65025230542801
 11
1050.3785055743999
 21
790.49357311320773
  0
LINE
  8
_0-5_寸法線
  6
CONTINUOUS
 62
    7
 10
1050.3785055743999
 20
790.49357311320773
 11
990.37850557439992
 21
790.49357311320773
  0
TEXT
  8
_0-5_寸法線
 62
    7
 10
990.37850557439992
 20
790.49357311320773
 40
15
 41
0.8000000000000001
 50
0
  1
取　外　具
  0
TEXT
  8
_0-5_寸法線
 62
    7
 10
991.0527428296532
 20
773.95620191549779
 40
15
 41
0.8000000000000001
 50
-0.0000000000001357
  1
(標準付属)
  0
LINE
  8
_0-7_枠細線
  6
CONTINUOUS
 62
    5
 10
1007.2021766852923
 20
807.94062900125243
 11
999.70217668529222
 21
822.94062900125243
  0
LINE
  8
_0-7_枠細線
  6
CONTINUOUS
 62
    5
 10
992.20217668529222
 20
807.94062900125243
 11
1007.2021766852923
 21
807.94062900125243
  0
LINE
  8
_0-7_枠細線
  6
CONTINUOUS
 62
    5
 10
999.70217668529222
 20
822.94062900125243
 11
992.20217668529222
 21
807.94062900125243
  0
TEXT
  8
_0-7_枠細線
 62
    5
 10
994.56732795344021
 20
807.63362675587189
 40
12.5
 41
0.8
 50
0
  1
１
  0
LINE
  8
_0-7_枠細線
  6
CONTINUOUS
 62
    5
 10
1018.0717197125086
 20
822.94062900125243
 11
1010.5717197125086
 21
807.94062900125243
  0
LINE
  8
_0-7_枠細線
  6
CONTINUOUS
 62
    5
 10
1010.5717197125086
 20
807.94062900125243
 11
1025.5717197125086
 21
807.94062900125243
  0
LINE
  8
_0-7_枠細線
  6
CONTINUOUS
 62
    5
 10
1025.5717197125086
 20
807.94062900125243
 11
1018.0717197125086
 21
822.94062900125243
  0
TEXT
  8
_0-7_枠細線
 62
    5
 10
1013.0572118030574
 20
807.39294511107107
 40
12.5
 41
0.8
 50
0
  1
２
  0
LINE
  8
_0-7_枠細線
  6
CONTINUOUS
 62
    5
 10
1044.2857036272048
 20
807.94062900125243
 11
1036.7857036272048
 21
822.94062900125243
  0
LINE
  8
_0-7_枠細線
  6
CONTINUOUS
 62
    5
 10
1029.2857036272048
 20
807.94062900125243
 11
1044.2857036272048
 21
807.94062900125243
  0
LINE
  8
_0-7_枠細線
  6
CONTINUOUS
 62
    5
 10
1036.7857036272048
 20
822.94062900125243
 11
1029.2857036272048
 21
807.94062900125243
  0
TEXT
  8
_0-7_枠細線
 62
    5
 10
1031.6508548953529
 20
807.39294511107107
 40
12.5
 41
0.8
 50
0
  1
５
  0
LINE
  8
_0-5_寸法線
  6
CONTINUOUS
 62
    7
 10
1260.6632812967925
 20
480.49357311321
 11
1305.6632812967941
 21
480.49357311320989
  0
LINE
  8
_0-5_寸法線
  6
CONTINUOUS
 62
    7
 10
1300.6632812967941
 20
480.49357311320989
 11
1303.2514717478193
 21
470.83431485031923
  0
LINE
  8
_0-5_寸法線
  6
CONTINUOUS
 62
    7
 10
1300.6632812967941
 20
480.49357311320989
 11
1298.075090845769
 21
470.83431485031923
  0
LINE
  8
_0-5_寸法線
  6
CONTINUOUS
 62
    7
 10
1260.6632812967928
 20
483.49357311321
 11
1305.6632812967941
 21
483.49357311320995
  0
CIRCLE
  8
_0-5_寸法線
  6
CONTINUOUS
 62
    1
 10
1300.6632812967941
 20
483.49357311320995
 40
1.5000000000000002
  0
LINE
  8
_0-5_寸法線
  6
CONTINUOUS
 62
    7
 10
1300.6632812967941
 20
455.49357311320989
 11
1300.6632812967941
 21
483.49357311320995
  0
TEXT
  8
_0-5_寸法線
 62
    7
 10
1300.6632812967896
 20
460.64423121954269
 40
15
 41
1
 50
90
  1
3
  0
LINE
  8
_0-5_寸法線
  6
CONTINUOUS
 62
    7
 10
1260.6632812967928
 20
484.99357311321006
 11
1305.6632812967941
 21
484.99357311320989
  0
LINE
  8
_0-5_寸法線
  6
CONTINUOUS
 62
    7
 10
1300.6632812967941
 20
483.49357311320995
 11
1300.6632812967941
 21
484.99357311320989
  0
TEXT
  8
_0-5_寸法線
 62
    7
 10
1318.0635042010576
 20
484.99357311321006
 40
15
 41
1
 50
90
  1
1.5
  0
LINE
  8
_0-5_寸法線
  6
CONTINUOUS
 62
    7
 10
1300.6632812967941
 20
484.99357311320989
 11
1298.075090845769
 21
494.65283137610061
  0
LINE
  8
_0-5_寸法線
  6
CONTINUOUS
 62
    7
 10
1300.6632812967941
 20
484.99357311320989
 11
1303.2514717478193
 21
494.65283137610061
  0
LINE
  8
_0-5_寸法線
  6
CONTINUOUS
 62
    7
 10
1260.6632812967928
 20
735.99357311320875
 11
1305.6632812967941
 21
735.99357311320864
  0
LINE
  8
_0-5_寸法線
  6
CONTINUOUS
 62
    7
 10
1300.6632812967941
 20
735.99357311320864
 11
1303.2514717478193
 21
726.33431485031781
  0
LINE
  8
_0-5_寸法線
  6
CONTINUOUS
 62
    7
 10
1300.6632812967941
 20
735.99357311320864
 11
1298.075090845769
 21
726.33431485031781
  0
LINE
  8
_0-5_寸法線
  6
CONTINUOUS
 62
    7
 10
1300.6632812967941
 20
484.99357311320989
 11
1300.6632812967941
 21
735.99357311320864
  0
TEXT
  8
_0-5_寸法線
 62
    7
 10
1300.6632812967941
 20
599.24357311320932
 40
15
 41
1
 50
90
  1
251
  0
LINE
  8
_0-5_寸法線
  6
CONTINUOUS
 62
    7
 10
1260.6632812967928
 20
737.49357311320853
 11
1305.6632812967941
 21
737.49357311320853
  0
CIRCLE
  8
_0-5_寸法線
  6
CONTINUOUS
 62
    1
 10
1300.6632812967941
 20
737.49357311320853
 40
1.5000000000000002
  0
LINE
  8
_0-5_寸法線
  6
CONTINUOUS
 62
    7
 10
1300.6632812967941
 20
735.99357311320864
 11
1300.6632812967941
 21
737.49357311320853
  0
TEXT
  8
_0-5_寸法線
 62
    7
 10
1317.5217883991709
 20
713.49357311320875
 40
15
 41
1
 50
90
  1
1.5
  0
LINE
  8
_0-5_寸法線
  6
CONTINUOUS
 62
    7
 10
1260.6632812967941
 20
740.49357311321228
 11
1305.6632812967941
 21
740.49357311321216
  0
LINE
  8
_0-5_寸法線
  6
CONTINUOUS
 62
    7
 10
1300.6632812967941
 20
740.49357311321216
 11
1298.075090845769
 21
750.15283137610299
  0
LINE
  8
_0-5_寸法線
  6
CONTINUOUS
 62
    7
 10
1300.6632812967941
 20
740.49357311321216
 11
1303.2514717478193
 21
750.15283137610299
  0
LINE
  8
_0-5_寸法線
  6
CONTINUOUS
 62
    7
 10
1300.6632812967941
 20
737.49357311320853
 11
1300.6632812967941
 21
765.49357311321216
  0
TEXT
  8
_0-5_寸法線
 62
    7
 10
1300.6632812967896
 20
753.87539341622141
 40
15
 41
1
 50
90
  1
3
  0
TEXT
  8
_0-5_寸法線
 62
    7
 10
481.79410525952346
 20
423.27598052061785
 40
15
 41
0.8000000000000001
 50
0
  1
ＧＲＳＪ－２５Ｗ２５１
  0
TEXT
  8
_0-5_寸法線
 62
    7
 10
344.51035296876449
 20
423.27598052061785
 40
15
 41
0.8000000000000001
 50
0
  1
ＧＳＬ－２５
  0
LINE
  8
_0-7_枠細線
  6
CONTINUOUS
 62
    5
 10
1275
 20
837.5
 11
1275
 21
959.99999999999943
  0
LINE
  8
_0-7_枠細線
  6
CONTINUOUS
 62
    5
 10
1175
 20
837.5
 11
1175
 21
959.99999999999943
  0
LINE
  8
_0-7_枠細線
  6
CONTINUOUS
 62
    5
 10
925
 20
837.5
 11
925
 21
959.99999999999943
  0
LINE
  8
_0-7_枠細線
  6
CONTINUOUS
 62
    5
 10
890
 20
837.5
 11
890
 21
959.99999999999943
  0
ARC
  8
_0-a_極細3
  6
CONTINUOUS
 62
    7
 10
966.5186967582224
 20
258.35634923901364
 40
17.558839598481345
 50
150.03871396148165
 51
205.23810402387883
  0
ARC
  8
_0-a_極細3
  6
CONTINUOUS
 62
    7
 10
934.75322156832431
 20
243.38284002638295
 40
17.558839598481345
 50
330.03871396148202
 51
25.238104023878222
  0
ARC
  8
_0-a_極細3
  6
CONTINUOUS
 62
    7
 10
821.59888131988851
 20
258.35634923901364
 40
17.558839598481345
 50
150.03871396148165
 51
205.23810402387883
  0
ARC
  8
_0-a_極細3
  6
CONTINUOUS
 62
    7
 10
789.83340612999041
 20
243.38284002638295
 40
17.558839598481345
 50
330.03871396148202
 51
25.238104023878222
  0
LINE
  8
_0-a_極細3
  6
CENTER1
 62
    7
 10
956.48806042278227
 20
250.86959463269852
 11
793.90951779485647
 21
250.86959463269852
  0
ARC
  8
_0-b_細線3
  6
CONTINUOUS
 62
    7
 10
869.85596010099232
 20
266.53629839736516
 40
1.666666666666667
 50
89.999999999999915
 51
179.99999999999983
  0
ARC
  8
_0-b_細線3
  6
CONTINUOUS
 62
    7
 10
870.63587541987113
 20
269.86963173069864
 40
1.666666666666667
 50
269.99999999999977
 51
330.00000000000301
  0
ARC
  8
_0-b_細線3
  6
CONTINUOUS
 62
    7
 10
873.52262676581927
 20
268.20296506403213
 40
1.666666666666667
 50
89.999999999999915
 51
150.00000000000134
  0
LINE
  8
_0-b_細線3
  6
CONTINUOUS
 62
    7
 10
869.85596010099232
 20
268.20296506403213
 11
870.63587541987113
 21
268.20296506403213
  0
ARC
  8
_0-b_細線3
  6
CONTINUOUS
 62
    7
 10
885.52262676398027
 20
266.53629839736516
 40
1.666666666666667
 50
0
 51
89.999999999999915
  0
ARC
  8
_0-b_細線3
  6
CONTINUOUS
 62
    7
 10
884.74271144510101
 20
269.86963173069864
 40
1.666666666666667
 50
210.00000000000404
 51
269.99999999999977
  0
ARC
  8
_0-b_細線3
  6
CONTINUOUS
 62
    7
 10
881.85596009915287
 20
268.20296506403213
 40
1.666666666666667
 50
29.999999999990862
 51
89.999999999984354
  0
LINE
  8
_0-b_細線3
  6
CONTINUOUS
 62
    7
 10
885.52262676398027
 20
268.20296506403213
 11
884.74271144510101
 21
268.20296506403213
  0
ARC
  8
_0-b_細線3
  6
CONTINUOUS
 62
    7
 10
869.02262676765872
 20
264.20296506403213
 40
0.8333333333333334
 50
179.99999999999983
 51
269.99999999999977
  0
LINE
  8
_0-b_細線3
  6
CONTINUOUS
 62
    7
 10
868.18929343432524
 20
266.53629839736516
 11
868.18929343432524
 21
264.20296506403213
  0
ARC
  8
_0-b_細線3
  6
CONTINUOUS
 62
    7
 10
886.3559600973133
 20
264.20296506403213
 40
0.8333333333333334
 50
269.99999999999977
 51
359.99999999999966
  0
LINE
  8
_0-b_細線3
  6
CONTINUOUS
 62
    7
 10
887.1892934306469
 20
266.53629839736516
 11
887.1892934306469
 21
264.20296506403213
  0
ARC
  8
_0-b_細線3
  6
CONTINUOUS
 62
    7
 10
873.18929343432524
 20
261.70296506403213
 40
1.666666666666667
 50
0
 51
89.999999999999915
  0
LINE
  8
_0-b_細線3
  6
CONTINUOUS
 62
    7
 10
873.18929343432524
 20
263.36963173069864
 11
869.02262676765872
 21
263.36963173069864
  0
ARC
  8
_0-b_細線3
  6
CONTINUOUS
 62
    7
 10
882.1892934343258
 20
261.70296506403213
 40
1.666666666666667
 50
89.999999999999915
 51
179.99999999999983
  0
LINE
  8
_0-b_細線3
  6
CONTINUOUS
 62
    7
 10
882.1892934306469
 20
263.36963173069864
 11
886.3559600973133
 21
263.36963173069864
  0
LINE
  8
_0-b_細線3
  6
CONTINUOUS
 62
    7
 10
881.85596009915287
 20
269.86963173069864
 11
873.52262676581927
 21
269.86963173069864
  0
LINE
  8
_0-b_細線3
  6
CONTINUOUS
 62
    7
 10
874.85596009915287
 20
228.20296506403213
 11
874.85596010099232
 21
261.70296506403213
  0
LINE
  8
_0-b_細線3
  6
CONTINUOUS
 62
    7
 10
880.52262676581927
 20
228.20296506403213
 11
880.52262676765918
 21
261.70296506403213
  0
LINE
  8
_0-b_細線3
  6
CONTINUOUS
 62
    7
 10
880.52262676581927
 20
228.20296506403213
 11
874.85596009915287
 21
228.20296506403213
  0
ARC
  8
_0-b_細線3
  6
CONTINUOUS
 62
    7
 10
898.85596010159531
 20
266.53629839736516
 40
1.666666666666667
 50
89.999999999999915
 51
179.99999999999983
  0
ARC
  8
_0-b_細線3
  6
CONTINUOUS
 62
    7
 10
899.63587542047424
 20
269.86963173069864
 40
1.666666666666667
 50
269.99999999999977
 51
329.99999999999523
  0
ARC
  8
_0-b_細線3
  6
CONTINUOUS
 62
    7
 10
902.52262676642226
 20
268.20296506403213
 40
1.666666666666667
 50
89.999999999999915
 51
150.00000000000915
  0
LINE
  8
_0-b_細線3
  6
CONTINUOUS
 62
    7
 10
898.85596010159531
 20
268.20296506403213
 11
899.63587542047424
 21
268.20296506403213
  0
ARC
  8
_0-b_細線3
  6
CONTINUOUS
 62
    7
 10
914.52262676458326
 20
266.53629839736516
 40
1.666666666666667
 50
0
 51
89.999999999999915
  0
ARC
  8
_0-b_細線3
  6
CONTINUOUS
 62
    7
 10
913.742711445704
 20
269.86963173069864
 40
1.666666666666667
 50
209.99999999999622
 51
269.99999999999977
  0
ARC
  8
_0-b_細線3
  6
CONTINUOUS
 62
    7
 10
910.85596009975575
 20
268.20296506403213
 40
1.666666666666667
 50
29.999999999998682
 51
89.999999999999915
  0
LINE
  8
_0-b_細線3
  6
CONTINUOUS
 62
    7
 10
914.52262676458326
 20
268.20296506403213
 11
913.742711445704
 21
268.20296506403213
  0
ARC
  8
_0-b_細線3
  6
CONTINUOUS
 62
    7
 10
898.02262676826217
 20
264.20296506403213
 40
0.8333333333333334
 50
179.99999999999983
 51
269.99999999999977
  0
LINE
  8
_0-b_細線3
  6
CONTINUOUS
 62
    7
 10
897.18929343492835
 20
266.53629839736516
 11
897.18929343492835
 21
264.20296506403213
  0
ARC
  8
_0-b_細線3
  6
CONTINUOUS
 62
    7
 10
915.3559600979163
 20
264.20296506403213
 40
0.8333333333333334
 50
269.99999999999977
 51
359.99999999999966
  0
LINE
  8
_0-b_細線3
  6
CONTINUOUS
 62
    7
 10
916.18929343124989
 20
266.53629839736516
 11
916.18929343124989
 21
264.20296506403213
  0
ARC
  8
_0-b_細線3
  6
CONTINUOUS
 62
    7
 10
902.18929343492835
 20
261.70296506403213
 40
1.666666666666667
 50
0
 51
89.999999999999915
  0
LINE
  8
_0-b_細線3
  6
CONTINUOUS
 62
    7
 10
902.18929343492835
 20
263.36963173069864
 11
898.02262676826217
 21
263.36963173069864
  0
ARC
  8
_0-b_細線3
  6
CONTINUOUS
 62
    7
 10
911.1892934349288
 20
261.70296506403213
 40
1.666666666666667
 50
89.999999999999915
 51
179.99999999999983
  0
LINE
  8
_0-b_細線3
  6
CONTINUOUS
 62
    7
 10
911.18929343124989
 20
263.36963173069864
 11
915.3559600979163
 21
263.36963173069864
  0
LINE
  8
_0-b_細線3
  6
CONTINUOUS
 62
    7
 10
910.85596009975575
 20
269.86963173069864
 11
902.52262676642226
 21
269.86963173069864
  0
LINE
  8
_0-b_細線3
  6
CONTINUOUS
 62
    7
 10
903.85596009975586
 20
228.20296506403213
 11
903.85596010159531
 21
261.70296506403213
  0
LINE
  8
_0-b_細線3
  6
CONTINUOUS
 62
    7
 10
909.52262676642238
 20
228.20296506403213
 11
909.52262676826217
 21
261.70296506403213
  0
LINE
  8
_0-b_細線3
  6
CONTINUOUS
 62
    7
 10
909.52262676642238
 20
228.20296506403213
 11
903.85596009975586
 21
228.20296506403213
  0
ARC
  8
_0-b_細線3
  6
CONTINUOUS
 62
    7
 10
927.8559601021982
 20
266.53629839736516
 40
1.666666666666667
 50
89.999999999999915
 51
179.99999999999983
  0
ARC
  8
_0-b_細線3
  6
CONTINUOUS
 62
    7
 10
928.63587542107723
 20
269.86963173069864
 40
1.666666666666667
 50
269.99999999999977
 51
329.99999999999523
  0
ARC
  8
_0-b_細線3
  6
CONTINUOUS
 62
    7
 10
931.52262676702537
 20
268.20296506403213
 40
1.666666666666667
 50
89.999999999999915
 51
150.00000000000915
  0
LINE
  8
_0-b_細線3
  6
CONTINUOUS
 62
    7
 10
927.8559601021982
 20
268.20296506403213
 11
928.63587542107723
 21
268.20296506403213
  0
ARC
  8
_0-b_細線3
  6
CONTINUOUS
 62
    7
 10
943.52262676518637
 20
266.53629839736516
 40
1.666666666666667
 50
0
 51
89.999999999999915
  0
ARC
  8
_0-b_細線3
  6
CONTINUOUS
 62
    7
 10
942.74271144630688
 20
269.86963173069864
 40
1.666666666666667
 50
210.00000000000404
 51
269.99999999999977
  0
ARC
  8
_0-b_細線3
  6
CONTINUOUS
 62
    7
 10
939.85596010035874
 20
268.20296506403213
 40
1.666666666666667
 50
29.999999999990862
 51
89.999999999984354
  0
LINE
  8
_0-b_細線3
  6
CONTINUOUS
 62
    7
 10
943.52262676518637
 20
268.20296506403213
 11
942.74271144630688
 21
268.20296506403213
  0
ARC
  8
_0-b_細線3
  6
CONTINUOUS
 62
    7
 10
927.02262676886471
 20
264.20296506403213
 40
0.8333333333333334
 50
179.99999999999983
 51
269.99999999999977
  0
LINE
  8
_0-b_細線3
  6
CONTINUOUS
 62
    7
 10
926.18929343553134
 20
266.53629839736516
 11
926.18929343553134
 21
264.20296506403213
  0
ARC
  8
_0-b_細線3
  6
CONTINUOUS
 62
    7
 10
944.35596009851929
 20
264.20296506403213
 40
0.8333333333333334
 50
269.99999999999977
 51
359.99999999999966
  0
LINE
  8
_0-b_細線3
  6
CONTINUOUS
 62
    7
 10
945.18929343185278
 20
266.53629839736516
 11
945.18929343185278
 21
264.20296506403213
  0
ARC
  8
_0-b_細線3
  6
CONTINUOUS
 62
    7
 10
931.18929343553134
 20
261.70296506403213
 40
1.666666666666667
 50
0
 51
89.999999999999915
  0
LINE
  8
_0-b_細線3
  6
CONTINUOUS
 62
    7
 10
931.18929343553134
 20
263.36963173069864
 11
927.02262676886471
 21
263.36963173069864
  0
ARC
  8
_0-b_細線3
  6
CONTINUOUS
 62
    7
 10
940.18929343553123
 20
261.70296506403213
 40
1.666666666666667
 50
89.999999999999915
 51
179.99999999999983
  0
LINE
  8
_0-b_細線3
  6
CONTINUOUS
 62
    7
 10
940.18929343185232
 20
263.36963173069864
 11
944.35596009851929
 21
263.36963173069864
  0
LINE
  8
_0-b_細線3
  6
CONTINUOUS
 62
    7
 10
939.85596010035874
 20
269.86963173069864
 11
931.52262676702537
 21
269.86963173069864
  0
LINE
  8
_0-b_細線3
  6
CONTINUOUS
 62
    7
 10
932.85596010035874
 20
228.20296506403213
 11
932.8559601021982
 21
261.70296506403213
  0
LINE
  8
_0-b_細線3
  6
CONTINUOUS
 62
    7
 10
938.52262676702537
 20
228.20296506403213
 11
938.52262676886528
 21
261.70296506403213
  0
LINE
  8
_0-b_細線3
  6
CONTINUOUS
 62
    7
 10
938.52262676702537
 20
228.20296506403213
 11
932.85596010035874
 21
228.20296506403213
  0
ARC
  8
_0-b_細線3
  6
CONTINUOUS
 62
    7
 10
811.85596009946937
 20
266.53629839736516
 40
1.666666666666667
 50
89.999999999999915
 51
179.99999999999983
  0
ARC
  8
_0-b_細線3
  6
CONTINUOUS
 62
    7
 10
812.63587541834818
 20
269.86963173069864
 40
1.666666666666667
 50
269.99999999999977
 51
330.00000000000301
  0
ARC
  8
_0-b_細線3
  6
CONTINUOUS
 62
    7
 10
815.52262676429632
 20
268.20296506403213
 40
1.666666666666667
 50
89.999999999999915
 51
150.00000000000134
  0
LINE
  8
_0-b_細線3
  6
CONTINUOUS
 62
    7
 10
811.85596009946937
 20
268.20296506403213
 11
812.63587541834818
 21
268.20296506403213
  0
ARC
  8
_0-b_細線3
  6
CONTINUOUS
 62
    7
 10
827.52262676245732
 20
266.53629839736516
 40
1.666666666666667
 50
0
 51
89.999999999999915
  0
ARC
  8
_0-b_細線3
  6
CONTINUOUS
 62
    7
 10
826.7427114435784
 20
269.86963173069864
 40
1.666666666666667
 50
209.99999999999622
 51
269.99999999999977
  0
ARC
  8
_0-b_細線3
  6
CONTINUOUS
 62
    7
 10
823.85596009762992
 20
268.20296506403213
 40
1.666666666666667
 50
29.999999999990862
 51
89.999999999984354
  0
LINE
  8
_0-b_細線3
  6
CONTINUOUS
 62
    7
 10
827.52262676245732
 20
268.20296506403213
 11
826.7427114435784
 21
268.20296506403213
  0
ARC
  8
_0-b_細線3
  6
CONTINUOUS
 62
    7
 10
811.02262676613634
 20
264.20296506403213
 40
0.8333333333333334
 50
179.99999999999983
 51
269.99999999999977
  0
LINE
  8
_0-b_細線3
  6
CONTINUOUS
 62
    7
 10
810.18929343280229
 20
266.53629839736516
 11
810.18929343280229
 21
264.20296506403213
  0
ARC
  8
_0-b_細線3
  6
CONTINUOUS
 62
    7
 10
828.35596009579035
 20
264.20296506403213
 40
0.8333333333333334
 50
269.99999999999977
 51
359.99999999999966
  0
LINE
  8
_0-b_細線3
  6
CONTINUOUS
 62
    7
 10
829.18929342912429
 20
266.53629839736516
 11
829.18929342912429
 21
264.20296506403213
  0
ARC
  8
_0-b_細線3
  6
CONTINUOUS
 62
    7
 10
815.18929343280229
 20
261.70296506403213
 40
1.666666666666667
 50
0
 51
89.999999999999915
  0
LINE
  8
_0-b_細線3
  6
CONTINUOUS
 62
    7
 10
815.18929343280229
 20
263.36963173069864
 11
811.02262676613634
 21
263.36963173069864
  0
ARC
  8
_0-b_細線3
  6
CONTINUOUS
 62
    7
 10
824.18929343280286
 20
261.70296506403213
 40
1.666666666666667
 50
89.999999999999915
 51
179.99999999999983
  0
LINE
  8
_0-b_細線3
  6
CONTINUOUS
 62
    7
 10
824.18929342912395
 20
263.36963173069864
 11
828.35596009579035
 21
263.36963173069864
  0
LINE
  8
_0-b_細線3
  6
CONTINUOUS
 62
    7
 10
823.85596009762992
 20
269.86963173069864
 11
815.52262676429632
 21
269.86963173069864
  0
LINE
  8
_0-b_細線3
  6
CONTINUOUS
 62
    7
 10
816.85596009763026
 20
228.20296506403213
 11
816.85596009946937
 21
261.70296506403213
  0
LINE
  8
_0-b_細線3
  6
CONTINUOUS
 62
    7
 10
822.52262676429632
 20
228.20296506403213
 11
822.52262676613623
 21
261.70296506403213
  0
LINE
  8
_0-b_細線3
  6
CONTINUOUS
 62
    7
 10
822.52262676429632
 20
228.20296506403213
 11
816.85596009763026
 21
228.20296506403213
  0
ARC
  8
_0-b_細線3
  6
CONTINUOUS
 62
    7
 10
840.85596010007237
 20
266.53629839736516
 40
1.666666666666667
 50
89.999999999999915
 51
179.99999999999983
  0
ARC
  8
_0-b_細線3
  6
CONTINUOUS
 62
    7
 10
841.63587541895163
 20
269.86963173069864
 40
1.666666666666667
 50
269.99999999999977
 51
329.99999999998744
  0
ARC
  8
_0-b_細線3
  6
CONTINUOUS
 62
    7
 10
844.52262676489931
 20
268.20296506403213
 40
1.666666666666667
 50
89.999999999999915
 51
150.00000000000915
  0
LINE
  8
_0-b_細線3
  6
CONTINUOUS
 62
    7
 10
840.85596010007237
 20
268.20296506403213
 11
841.63587541895163
 21
268.20296506403213
  0
ARC
  8
_0-b_細線3
  6
CONTINUOUS
 62
    7
 10
856.52262676306032
 20
266.53629839736516
 40
1.666666666666667
 50
0
 51
89.999999999999915
  0
ARC
  8
_0-b_細線3
  6
CONTINUOUS
 62
    7
 10
855.74271144418105
 20
269.86963173069864
 40
1.666666666666667
 50
210.00000000000404
 51
269.99999999999977
  0
ARC
  8
_0-b_細線3
  6
CONTINUOUS
 62
    7
 10
852.85596009823337
 20
268.20296506403213
 40
1.666666666666667
 50
29.999999999998682
 51
89.999999999999915
  0
LINE
  8
_0-b_細線3
  6
CONTINUOUS
 62
    7
 10
856.52262676306032
 20
268.20296506403213
 11
855.74271144418105
 21
268.20296506403213
  0
ARC
  8
_0-b_細線3
  6
CONTINUOUS
 62
    7
 10
840.02262676673922
 20
264.20296506403213
 40
0.8333333333333334
 50
179.99999999999983
 51
269.99999999999977
  0
LINE
  8
_0-b_細線3
  6
CONTINUOUS
 62
    7
 10
839.18929343340574
 20
266.53629839736516
 11
839.18929343340574
 21
264.20296506403213
  0
ARC
  8
_0-b_細線3
  6
CONTINUOUS
 62
    7
 10
857.35596009639335
 20
264.20296506403213
 40
0.8333333333333334
 50
269.99999999999977
 51
359.99999999999966
  0
LINE
  8
_0-b_細線3
  6
CONTINUOUS
 62
    7
 10
858.18929342972694
 20
266.53629839736516
 11
858.18929342972694
 21
264.20296506403213
  0
ARC
  8
_0-b_細線3
  6
CONTINUOUS
 62
    7
 10
844.18929343340574
 20
261.70296506403213
 40
1.666666666666667
 50
0
 51
89.999999999999915
  0
LINE
  8
_0-b_細線3
  6
CONTINUOUS
 62
    7
 10
844.18929343340574
 20
263.36963173069864
 11
840.02262676673922
 21
263.36963173069864
  0
ARC
  8
_0-b_細線3
  6
CONTINUOUS
 62
    7
 10
853.18929343340585
 20
261.70296506403213
 40
1.666666666666667
 50
89.999999999999915
 51
179.99999999999983
  0
LINE
  8
_0-b_細線3
  6
CONTINUOUS
 62
    7
 10
853.18929342972694
 20
263.36963173069864
 11
857.35596009639335
 21
263.36963173069864
  0
LINE
  8
_0-b_細線3
  6
CONTINUOUS
 62
    7
 10
852.85596009823337
 20
269.86963173069864
 11
844.52262676489931
 21
269.86963173069864
  0
LINE
  8
_0-b_細線3
  6
CONTINUOUS
 62
    7
 10
845.85596009823291
 20
228.20296506403213
 11
845.85596010007237
 21
261.70296506403213
  0
LINE
  8
_0-b_細線3
  6
CONTINUOUS
 62
    7
 10
851.52262676489977
 20
228.20296506403213
 11
851.52262676673922
 21
261.70296506403213
  0
LINE
  8
_0-b_細線3
  6
CONTINUOUS
 62
    7
 10
851.52262676489977
 20
228.20296506403213
 11
845.85596009823291
 21
228.20296506403213
  0
LINE
  8
_0-d_寸法3
  6
CONTINUOUS
 62
    7
 10
943.88081387689817
 20
233.9387294275426
 11
979.23315560258379
 21
258.69270559723338
  0
LINE
  8
_0-d_寸法3
  6
CONTINUOUS
 62
    7
 10
975.13739538113884
 20
255.82482341547816
 11
972.54920493011355
 21
265.48408167836885
  0
LINE
  8
_0-d_寸法3
  6
CONTINUOUS
 62
    7
 10
975.13739538113884
 20
255.82482341547816
 11
977.72558583216392
 21
265.48408167836885
  0
LINE
  8
_0-d_寸法3
  6
CONTINUOUS
 62
    7
 10
943.88081387689817
 20
275.60539609420914
 11
979.23315560258379
 21
300.3593722638999
  0
LINE
  8
_0-d_寸法3
  6
CONTINUOUS
 62
    7
 10
975.13739538113884
 20
297.49149008214465
 11
977.72558583216392
 21
287.83223181925393
  0
LINE
  8
_0-d_寸法3
  6
CONTINUOUS
 62
    7
 10
975.13739538113884
 20
297.49149008214465
 11
972.54920493011355
 21
287.83223181925399
  0
LINE
  8
_0-d_寸法3
  6
CONTINUOUS
 62
    7
 10
975.13739538113884
 20
255.82482341547816
 11
975.13739538113884
 21
297.49149008214465
  0
TEXT
  8
_0-d_寸法3
 62
    7
 10
975.13739538113884
 20
269.15815674881253
 40
15
 41
1
 50
90
  1
25
  0
LINE
  8
_0-b_細線3
  6
CONTINUOUS
 62
    7
 10
880.52262676673934
 20
240.03626129936507
 11
903.85596010007271
 21
240.03626129936507
  0
LINE
  8
_0-b_細線3
  6
CONTINUOUS
 62
    7
 10
909.52262676734222
 20
240.03626129936507
 11
932.85596010067582
 21
240.03626129936507
  0
LINE
  8
_0-b_細線3
  6
CONTINUOUS
 62
    7
 10
822.52262676521639
 20
240.03626129936507
 11
845.85596009854976
 21
240.03626129936507
  0
LINE
  8
_0-b_細線3
  6
CONTINUOUS
 62
    7
 10
851.52262676581984
 20
240.03626129936507
 11
874.85596009915287
 21
240.03626129936507
  0
LINE
  8
_0-b_細線3
  6
CONTINUOUS
 62
    7
 10
880.52262676673934
 20
261.70292796603201
 11
903.85596010007271
 21
261.70292796603201
  0
LINE
  8
_0-b_細線3
  6
CONTINUOUS
 62
    7
 10
909.52262676734222
 20
261.70292796603201
 11
932.85596010067582
 21
261.70292796603201
  0
LINE
  8
_0-b_細線3
  6
CONTINUOUS
 62
    7
 10
822.52262676521639
 20
261.70292796603201
 11
845.85596009854976
 21
261.70292796603201
  0
LINE
  8
_0-b_細線3
  6
CONTINUOUS
 62
    7
 10
851.52262676581984
 20
261.70292796603201
 11
874.85596009915287
 21
261.70292796603201
  0
LINE
  8
_0-b_細線3
  6
CONTINUOUS
 62
    7
 10
938.52262676794521
 20
261.70292796603201
 11
949.28172315874531
 21
261.70292796603201
  0
LINE
  8
_0-b_細線3
  6
CONTINUOUS
 62
    7
 10
938.52262676794521
 20
240.03626129936507
 11
951.9901951678014
 21
240.03626129936507
  0
LINE
  8
_0-b_細線3
  6
CONTINUOUS
 62
    7
 10
804.36190772041141
 20
261.70292796603201
 11
816.85596009794676
 21
261.70292796603201
  0
LINE
  8
_0-b_細線3
  6
CONTINUOUS
 62
    7
 10
807.0703797294675
 20
240.03626129936507
 11
816.85596009794676
 21
240.03626129936507
  0
TEXT
  8
_0-7_枠細線
 62
    5
 10
832.20525292576508
 20
190.80869584167993
 40
25
 41
0.8
 50
0
  1
側面詳細図
  0
TEXT
  8
_0-7_枠細線
 62
    5
 10
947.15422267493318
 20
193.44956037587792
 40
20
 41
0.6
 50
0
  1
Ｓ＝１：３
  0
LINE
  8
_0-d_寸法3
  6
CONTINUOUS
 62
    7
 10
829.18929342912475
 20
279.86963173069864
 11
829.18929342912497
 21
324.86966882860719
  0
LINE
  8
_0-d_寸法3
  6
CONTINUOUS
 62
    7
 10
829.18929342912497
 20
319.86966882860719
 11
819.53003516623426
 21
317.281478377582
  0
LINE
  8
_0-d_寸法3
  6
CONTINUOUS
 62
    7
 10
829.18929342912497
 20
319.86966882860719
 11
819.53003516623426
 21
322.45785927963249
  0
LINE
  8
_0-d_寸法3
  6
CONTINUOUS
 62
    7
 10
839.18929343340574
 20
279.86963173069864
 11
839.18929343340596
 21
324.86966882860719
  0
LINE
  8
_0-d_寸法3
  6
CONTINUOUS
 62
    7
 10
804.81533774595732
 20
319.86966882860719
 11
839.18929343340596
 21
319.86966882860719
  0
TEXT
  8
_0-d_寸法3
 62
    7
 10
804.81533774595732
 20
304.86966882860719
 40
15
 41
1
 50
0
  1
(6)
  0
LINE
  8
_0-d_寸法3
  6
CONTINUOUS
 62
    7
 10
839.18929343340596
 20
319.86966882860719
 11
848.84855169629657
 21
322.45785927963243
  0
LINE
  8
_0-d_寸法3
  6
CONTINUOUS
 62
    7
 10
839.18929343340596
 20
319.86966882860719
 11
848.84855169629657
 21
317.281478377582
  0
LINE
  8
_0-d_寸法3
  6
CONTINUOUS
 62
    7
 10
858.18929342972694
 20
279.86963173069864
 11
858.18929342972694
 21
324.86966882860719
  0
LINE
  8
_0-d_寸法3
  6
CONTINUOUS
 62
    7
 10
858.18929342972694
 20
319.86966882860719
 11
848.53003516683634
 21
317.281478377582
  0
LINE
  8
_0-d_寸法3
  6
CONTINUOUS
 62
    7
 10
858.18929342972694
 20
319.86966882860719
 11
848.53003516683634
 21
322.45785927963249
  0
LINE
  8
_0-d_寸法3
  6
CONTINUOUS
 62
    7
 10
839.18929343340596
 20
319.86966882860719
 11
858.18929342972694
 21
319.86966882860719
  0
TEXT
  8
_0-d_寸法3
 62
    7
 10
829.92459700521636
 20
319.86966882860719
 40
15
 41
1
 50
0
  1
11.4
  0
TEXT
  8
_0-7_枠細線
 62
    5
 10
890.16995454985135
 20
375.55454176804568
 40
15
 41
1
 50
0
  1
3.1kg/枚
  0
TEXT
  8
_0-7_枠細線
 62
    5
 10
976.41995454985135
 20
375.55454176804568
 40
15
 41
1
 50
0
  1
2.6kg/m組
  0
LINE
  8
_0-5_寸法線
  6
CONTINUOUS
 62
    7
 10
860.76328129679212
 20
750.49357311320864
 11
860.76328129679212
 21
795.49357311320773
  0
LINE
  8
_0-5_寸法線
  6
CONTINUOUS
 62
    7
 10
860.76328129679212
 20
790.49357311320773
 11
851.10402303390151
 21
787.90538266218266
  0
LINE
  8
_0-5_寸法線
  6
CONTINUOUS
 62
    7
 10
860.76328129679212
 20
790.49357311320773
 11
851.10402303390151
 21
793.08176356423303
  0
LINE
  8
_0-5_寸法線
  6
CONTINUOUS
 62
    7
 10
872.16328129679255
 20
750.49357311320864
 11
872.16328129679266
 21
795.49357311320773
  0
CIRCLE
  8
_0-5_寸法線
  6
CONTINUOUS
 62
    1
 10
872.16328129679266
 20
790.49357311320773
 40
1.5000000000000002
  0
LINE
  8
_0-5_寸法線
  6
CONTINUOUS
 62
    7
 10
835.76328129679212
 20
790.49357311320773
 11
872.16328129679266
 21
790.49357311320773
  0
TEXT
  8
_0-5_寸法線
 62
    7
 10
837.86157882460759
 20
790.49357311320773
 40
15
 41
1
 50
0
  1
11.4
  0
LINE
  8
_0-5_寸法線
  6
CONTINUOUS
 62
    7
 10
877.763281296792
 20
750.49357311320864
 11
877.76328129679212
 21
795.49357311320773
  0
LINE
  8
_0-5_寸法線
  6
CONTINUOUS
 62
    7
 10
877.76328129679212
 20
790.49357311320773
 11
887.42253955968295
 21
793.08176356423303
  0
LINE
  8
_0-5_寸法線
  6
CONTINUOUS
 62
    7
 10
877.76328129679212
 20
790.49357311320773
 11
887.42253955968295
 21
787.90538266218255
  0
LINE
  8
_0-5_寸法線
  6
CONTINUOUS
 62
    7
 10
872.16328129679266
 20
790.49357311320773
 11
928.37944409376087
 21
790.49357311320773
  0
TEXT
  8
_0-5_寸法線
 62
    7
 10
890.87944409376087
 20
775.49357311320773
 40
15
 41
1
 50
0
  1
6以下
  0
LINE
  8
_0-d_寸法3
  6
CONTINUOUS
 62
    7
 10
877.68929343248624
 20
279.86963173069864
 11
877.68929343248624
 21
324.86966882860719
  0
LINE
  8
_0-d_寸法3
  6
CONTINUOUS
 62
    7
 10
877.68929343248624
 20
319.86966882860719
 11
887.34855169537695
 21
322.45785927963243
  0
LINE
  8
_0-d_寸法3
  6
CONTINUOUS
 62
    7
 10
877.68929343248624
 20
319.86966882860719
 11
887.34855169537695
 21
317.281478377582
  0
LINE
  8
_0-d_寸法3
  6
CONTINUOUS
 62
    7
 10
906.68929343308935
 20
279.86963173069864
 11
906.68929343308935
 21
324.86966882860719
  0
LINE
  8
_0-d_寸法3
  6
CONTINUOUS
 62
    7
 10
906.68929343308935
 20
319.86966882860719
 11
897.03003517019852
 21
317.281478377582
  0
LINE
  8
_0-d_寸法3
  6
CONTINUOUS
 62
    7
 10
906.68929343308935
 20
319.86966882860719
 11
897.03003517019852
 21
322.45785927963249
  0
LINE
  8
_0-d_寸法3
  6
CONTINUOUS
 62
    7
 10
877.68929343248624
 20
319.86966882860719
 11
906.68929343308935
 21
319.86966882860719
  0
TEXT
  8
_0-d_寸法3
 62
    7
 10
863.39794874806103
 20
304.86966882860719
 40
15
 41
1
 50
0
  1
(17.4)
  0
LINE
  8
_0-d_寸法3
  6
CONTINUOUS
 62
    7
 10
906.68929343308935
 20
319.86966882860719
 11
916.34855169597995
 21
322.45785927963232
  0
LINE
  8
_0-d_寸法3
  6
CONTINUOUS
 62
    7
 10
906.68929343308935
 20
319.86966882860719
 11
916.34855169597995
 21
317.28147837758195
  0
LINE
  8
_0-d_寸法3
  6
CONTINUOUS
 62
    7
 10
935.68929343369234
 20
279.86963173069864
 11
935.68929343369234
 21
324.86966882860719
  0
LINE
  8
_0-d_寸法3
  6
CONTINUOUS
 62
    7
 10
935.68929343369234
 20
319.86966882860719
 11
926.03003517080151
 21
317.281478377582
  0
LINE
  8
_0-d_寸法3
  6
CONTINUOUS
 62
    7
 10
935.68929343369234
 20
319.86966882860719
 11
926.03003517080151
 21
322.45785927963249
  0
LINE
  8
_0-d_寸法3
  6
CONTINUOUS
 62
    7
 10
906.68929343308935
 20
319.86966882860719
 11
935.68929343369234
 21
319.86966882860719
  0
TEXT
  8
_0-d_寸法3
 62
    7
 10
903.20978218951154
 20
319.86966882860719
 40
15
 41
1
 50
0
  1
(17.4)
  0
LINE
  8
_0-d_寸法3
  6
CONTINUOUS
 62
    7
 10
663.46758651983419
 20
183.20296506403258
 11
663.46758651983419
 21
166.05827316312718
  0
LINE
  8
_0-d_寸法3
  6
CONTINUOUS
 62
    7
 10
663.46758651983419
 20
171.05827316312718
 11
653.80832825694358
 21
168.470082712102
  0
LINE
  8
_0-d_寸法3
  6
CONTINUOUS
 62
    7
 10
663.46758651983419
 20
171.05827316312718
 11
653.80832825694358
 21
173.6464636141524
  0
LINE
  8
_0-d_寸法3
  6
CONTINUOUS
 62
    7
 10
613.46758651983509
 20
221.5362983973661
 11
613.46758651983509
 21
166.05827316312718
  0
LINE
  8
_0-d_寸法3
  6
CONTINUOUS
 62
    7
 10
613.46758651983509
 20
171.05827316312718
 11
623.12684478272581
 21
173.6464636141524
  0
LINE
  8
_0-d_寸法3
  6
CONTINUOUS
 62
    7
 10
613.46758651983509
 20
171.05827316312718
 11
623.12684478272581
 21
168.470082712102
  0
LINE
  8
_0-d_寸法3
  6
CONTINUOUS
 62
    7
 10
663.46758651983419
 20
171.05827316312718
 11
613.46758651983509
 21
171.05827316312718
  0
TEXT
  8
_0-d_寸法3
 62
    7
 10
630.96758651983328
 20
171.05827316312713
 40
15
 41
1
 50
0.0000000000005428
  1
30
  0
LINE
  8
_0-d_寸法3
  6
CONTINUOUS
 62
    7
 10
230.13425318650121
 20
183.20296506403258
 11
230.13425318650121
 21
166.05827316312718
  0
LINE
  8
_0-d_寸法3
  6
CONTINUOUS
 62
    7
 10
230.13425318650121
 20
171.05827316312718
 11
239.79351144939187
 21
173.6464636141524
  0
LINE
  8
_0-d_寸法3
  6
CONTINUOUS
 62
    7
 10
230.13425318650121
 20
171.05827316312718
 11
239.79351144939187
 21
168.470082712102
  0
LINE
  8
_0-d_寸法3
  6
CONTINUOUS
 62
    7
 10
280.13425318650104
 20
221.5362983973661
 11
280.13425318650025
 21
166.05827316312718
  0
LINE
  8
_0-d_寸法3
  6
CONTINUOUS
 62
    7
 10
280.13425318650036
 20
171.05827316312718
 11
270.47499492360953
 21
168.470082712102
  0
LINE
  8
_0-d_寸法3
  6
CONTINUOUS
 62
    7
 10
280.13425318650036
 20
171.05827316312718
 11
270.4749949236097
 21
173.6464636141524
  0
LINE
  8
_0-d_寸法3
  6
CONTINUOUS
 62
    7
 10
230.13425318650121
 20
171.05827316312718
 11
280.13425318650036
 21
171.05827316312718
  0
TEXT
  8
_0-d_寸法3
 62
    7
 10
247.63425318650121
 20
171.05827316312718
 40
15
 41
1
 50
0
  1
30
  0
LINE
  8
_0-d_寸法3
  6
CONTINUOUS
 62
    7
 10
280.13425318650121
 20
226.5362983973661
 11
280.13425318650121
 21
166.05827316312718
  0
LINE
  8
_0-d_寸法3
  6
CONTINUOUS
 62
    7
 10
280.13425318650121
 20
171.05827316312718
 11
289.79351144939187
 21
173.6464636141524
  0
LINE
  8
_0-d_寸法3
  6
CONTINUOUS
 62
    7
 10
280.13425318650121
 20
171.05827316312718
 11
289.79351144939187
 21
168.470082712102
  0
LINE
  8
_0-d_寸法3
  6
CONTINUOUS
 62
    7
 10
613.46758651983509
 20
226.5362983973661
 11
613.46758651983509
 21
166.05827316312718
  0
LINE
  8
_0-d_寸法3
  6
CONTINUOUS
 62
    7
 10
613.46758651983509
 20
171.05827316312718
 11
603.80832825694438
 21
168.470082712102
  0
LINE
  8
_0-d_寸法3
  6
CONTINUOUS
 62
    7
 10
613.46758651983509
 20
171.05827316312718
 11
603.80832825694438
 21
173.6464636141524
  0
LINE
  8
_0-d_寸法3
  6
CONTINUOUS
 62
    7
 10
280.13425318650121
 20
171.05827316312718
 11
613.46758651983509
 21
171.05827316312718
  0
TEXT
  8
_0-d_寸法3
 62
    7
 10
435.55091985316722
 20
171.05827316312718
 40
15
 41
1
 50
0
  1
200
  0
CIRCLE
  8
_0-a_極細3
  6
CONTINUOUS
 62
    7
 10
209.7956037610966
 20
219.42041869056914
 40
1.825531472681392
  0
CIRCLE
  8
_0-a_極細3
  6
CONTINUOUS
 62
    7
 10
144.94993228555268
 20
232.97581992513699
 40
0.5530864197530718
  0
LINE
  8
_0-a_極細3
  6
CONTINUOUS
 62
    7
 10
163.46758651983507
 20
216.53629839736564
 11
163.46758651983507
 21
148.2029650640321
  0
LINE
  8
_0-a_極細3
  6
CONTINUOUS
 62
    7
 10
246.80091985316812
 20
148.2029650640321
 11
163.46758651983507
 21
148.2029650640321
  0
LINE
  8
_0-a_極細3
  6
CONTINUOUS
 62
    7
 10
163.46758651983507
 20
216.53629839736564
 11
132.62317270805397
 21
216.53629839736564
  0
LINE
  8
_0-a_極細3
  6
CONTINUOUS
 62
    7
 10
246.80091985316812
 20
148.2029650640321
 11
246.80091985316812
 21
121.96136476925325
  0
LINE
  8
_0-a_極細3
  6
CONTINUOUS
 62
    7
 10
209.37894528817836
 20
121.96136488568996
 11
235.62054546652149
 21
148.2029650640321
  0
LINE
  8
_0-a_極細3
  6
CONTINUOUS
 62
    7
 10
138.66826738953748
 20
121.96136510570305
 11
164.90986734786659
 21
148.2029650640321
  0
LINE
  8
_0-a_極細3
  6
CONTINUOUS
 62
    7
 10
132.62317270805397
 20
186.62694854287437
 11
162.53252256254569
 21
216.53629839736564
  0
LINE
  8
_0-a_極細3
  6
CONTINUOUS
 62
    7
 10
202.30787749831421
 20
121.96136490769149
 11
228.54947765465482
 21
148.2029650640321
  0
LINE
  8
_0-a_極細3
  6
CONTINUOUS
 62
    7
 10
132.62317270805397
 20
122.98733823608529
 11
163.46758651983507
 21
153.83175204786639
  0
LINE
  8
_0-a_極細3
  6
CONTINUOUS
 62
    7
 10
132.62317270805397
 20
193.69801635474019
 11
155.46145475067897
 21
216.53629839736564
  0
LINE
  8
_0-a_極細3
  6
CONTINUOUS
 62
    7
 10
195.23680970844998
 20
121.96136492969266
 11
221.47840984278992
 21
148.2029650640321
  0
LINE
  8
_0-a_極細3
  6
CONTINUOUS
 62
    7
 10
132.62317270805397
 20
130.0584060479506
 11
163.46758651983507
 21
160.9028198597322
  0
LINE
  8
_0-a_極細3
  6
CONTINUOUS
 62
    7
 10
132.62317270805397
 20
200.76908416660592
 11
148.39038693881412
 21
216.53629839736564
  0
CIRCLE
  8
_0-a_極細3
  6
CONTINUOUS
 62
    7
 10
140.1881963536907
 20
221.78415325847041
 40
0.5530864197530718
  0
CIRCLE
  8
_0-a_極細3
  6
CONTINUOUS
 62
    7
 10
163.41782598331974
 20
224.80637548069228
 40
0.5530864197530718
  0
CIRCLE
  8
_0-a_極細3
  6
CONTINUOUS
 62
    7
 10
170.36227042776409
 20
217.55081992513681
 40
0.5530864197530718
  0
CIRCLE
  8
_0-a_極細3
  6
CONTINUOUS
 62
    7
 10
190.80671487220755
 20
216.30637548069231
 40
0.5530864197530718
  0
CIRCLE
  8
_0-a_極細3
  6
CONTINUOUS
 62
    7
 10
215.87338153887501
 20
212.57304214735916
 40
0.5530864197530718
  0
CIRCLE
  8
_0-a_極細3
  6
CONTINUOUS
 62
    7
 10
203.25115931665187
 20
206.88415325846987
 40
0.5530864197530718
  0
CIRCLE
  8
_0-a_極細3
  6
CONTINUOUS
 62
    7
 10
188.49560376109736
 20
193.37304214735894
 40
0.5530864197530718
  0
CIRCLE
  8
_0-a_極細3
  6
CONTINUOUS
 62
    7
 10
215.87338153887501
 20
200.66193103624812
 40
0.5530864197530718
  0
CIRCLE
  8
_0-a_極細3
  6
CONTINUOUS
 62
    7
 10
169.78449264998559
 20
187.23970881402565
 40
0.5530864197530718
  0
CIRCLE
  8
_0-a_極細3
  6
CONTINUOUS
 62
    7
 10
174.76227042776372
 20
173.55081992513681
 40
0.5530864197530718
  0
CIRCLE
  8
_0-a_極細3
  6
CONTINUOUS
 62
    7
 10
169.07338153887486
 20
155.59526436958151
 40
0.5530864197530718
  0
CIRCLE
  8
_0-a_極細3
  6
CONTINUOUS
 62
    7
 10
177.78449264998656
 20
162.35081992513699
 40
0.5530864197530718
  0
CIRCLE
  8
_0-a_極細3
  6
CONTINUOUS
 62
    7
 10
184.00671487220825
 20
153.81748659180417
 40
0.5530864197530718
  0
CIRCLE
  8
_0-a_極細3
  6
CONTINUOUS
 62
    7
 10
223.30671487220755
 20
171.7063754806928
 40
0.5530864197530718
  0
CIRCLE
  8
_0-a_極細3
  6
CONTINUOUS
 62
    7
 10
212.1067148722077
 20
166.19526436958188
 40
0.5530864197530718
  0
CIRCLE
  8
_0-a_極細3
  6
CONTINUOUS
 62
    7
 10
218.32893709443033
 20
163.70637548069283
 40
0.5530864197530718
  0
CIRCLE
  8
_0-a_極細3
  6
CONTINUOUS
 62
    7
 10
214.77338153887473
 20
154.4619310362483
 40
0.5530864197530718
  0
CIRCLE
  8
_0-a_極細3
  6
CONTINUOUS
 62
    7
 10
234.68449264998526
 20
155.52859770291491
 40
0.5530864197530718
  0
CIRCLE
  8
_0-a_極細3
  6
CONTINUOUS
 62
    7
 10
247.66227042776336
 20
158.72859770291518
 40
0.5530864197530718
  0
CIRCLE
  8
_0-a_極細3
  6
CONTINUOUS
 62
    7
 10
261.35115931665223
 20
143.79526436958179
 40
0.5530864197530718
  0
CIRCLE
  8
_0-a_極細3
  6
CONTINUOUS
 62
    7
 10
254.41782598331883
 20
128.86193103624839
 40
0.5530864197530718
  0
CIRCLE
  8
_0-a_極細3
  6
CONTINUOUS
 62
    7
 10
237.75115931665283
 20
172.47674585106296
 40
0.5530864197530718
  0
CIRCLE
  8
_0-a_極細3
  6
CONTINUOUS
 62
    7
 10
252.50671487220734
 20
206.61007918439611
 40
0.5530864197530718
  0
CIRCLE
  8
_0-a_極細3
  6
CONTINUOUS
 62
    7
 10
267.61782598331865
 20
196.65452362884082
 40
0.5530864197530718
  0
CIRCLE
  8
_0-a_極細3
  6
CONTINUOUS
 62
    7
 10
268.15115931665247
 20
178.69896807328558
 40
0.5530864197530718
  0
CIRCLE
  8
_0-a_極細3
  6
CONTINUOUS
 62
    7
 10
232.90671487220791
 20
208.43230140661819
 40
0.5530864197530718
  0
CIRCLE
  8
_0-a_極細3
  6
CONTINUOUS
 62
    7
 10
187.39560376109694
 20
207.61625202390235
 40
1.825531472681392
  0
CIRCLE
  8
_0-a_極細3
  6
CONTINUOUS
 62
    7
 10
167.79560376109748
 20
169.6162520239028
 40
1.825531472681392
  0
CIRCLE
  8
_0-a_極細3
  6
CONTINUOUS
 62
    7
 10
220.99560376109636
 20
156.81625202390308
 40
1.825531472681392
  0
CIRCLE
  8
_0-a_極細3
  6
CONTINUOUS
 62
    7
 10
256.97338153887358
 20
153.21625202390317
 40
1.825531472681392
  0
CIRCLE
  8
_0-a_極細3
  6
CONTINUOUS
 62
    7
 10
261.77338153887376
 20
134.54958535723662
 40
1.825531472681392
  0
LINE
  8
_0-a_極細3
  6
CONTINUOUS
 62
    7
 10
279.30091985316812
 20
223.20296506403213
 11
280.13425318650121
 21
223.20296506403213
  0
LINE
  8
_0-a_極細3
  6
CONTINUOUS
 62
    7
 10
280.13425318650121
 20
223.20296506403213
 11
280.13425318650121
 21
121.96136476925325
  0
CIRCLE
  8
_0-a_極細3
  6
CONTINUOUS
 62
    7
 10
273.24681903887267
 20
207.21625202390271
 40
1.825531472681392
  0
CIRCLE
  8
_0-a_極細3
  6
CONTINUOUS
 62
    7
 10
272.25486302035551
 20
152.50637548069301
 40
0.5530864197530718
  0
CIRCLE
  8
_0-a_極細3
  6
CONTINUOUS
 62
    7
 10
273.58819635368945
 20
129.8503044475234
 40
0.5530864197530718
  0
CIRCLE
  8
_0-a_極細3
  6
CONTINUOUS
 62
    7
 10
261.21782598331447
 20
188.10514091279188
 40
1.825531472681392
  0
LINE
  8
_0-a_極細3
  6
CONTINUOUS
 62
    7
 10
730.13425318650116
 20
216.53629839736564
 11
730.13425318650116
 21
148.2029650640321
  0
LINE
  8
_0-a_極細3
  6
CONTINUOUS
 62
    7
 10
646.80091985316824
 20
148.2029650640321
 11
730.13425318650116
 21
148.2029650640321
  0
LINE
  8
_0-a_極細3
  6
CONTINUOUS
 62
    7
 10
730.13425318650116
 20
216.53629839736564
 11
760.97866699828319
 21
216.53629839736564
  0
LINE
  8
_0-a_極細3
  6
CONTINUOUS
 62
    7
 10
646.80091985316824
 20
148.2029650640321
 11
646.80091985316824
 21
121.96136476925325
  0
LINE
  8
_0-a_極細3
  6
CONTINUOUS
 62
    7
 10
738.42425560109507
 20
121.96136476925325
 11
760.97866703982345
 21
144.51577620798219
  0
LINE
  8
_0-a_極細3
  6
CONTINUOUS
 62
    7
 10
667.71357748243918
 20
121.96136476925325
 11
693.95517777721852
 21
148.2029650640321
  0
LINE
  8
_0-a_極細3
  6
CONTINUOUS
 62
    7
 10
730.13425318650116
 20
184.38204047331482
 11
760.97866699903807
 21
215.22645428585167
  0
LINE
  8
_0-a_極細3
  6
CONTINUOUS
 62
    7
 10
731.3531877892284
 20
121.96136476925325
 11
760.97866703574527
 21
151.58684401576886
  0
LINE
  8
_0-a_極細3
  6
CONTINUOUS
 62
    7
 10
660.64250967057342
 20
121.96136476925325
 11
686.88410996535367
 21
148.2029650640321
  0
LINE
  8
_0-a_極細3
  6
CONTINUOUS
 62
    7
 10
730.13425318650116
 20
191.45310828518049
 11
755.21744311913608
 21
216.53629821781547
  0
LINE
  8
_0-a_極細3
  6
CONTINUOUS
 62
    7
 10
724.28211997736344
 20
121.96136476925325
 11
760.97866703166619
 21
158.65791182355599
  0
LINE
  8
_0-a_極細3
  6
CONTINUOUS
 62
    7
 10
653.57144185870948
 20
121.96136476925325
 11
679.81304215348803
 21
148.2029650640321
  0
LINE
  8
_0-a_極細3
  6
CONTINUOUS
 62
    7
 10
730.13425318650116
 20
198.52417609704631
 11
748.14637535788734
 21
216.53629826843158
  0
CIRCLE
  8
_0-a_極細3
  6
CONTINUOUS
 62
    7
 10
633.20671487220534
 20
207.05730140661819
 40
0.5530864197530718
  0
CIRCLE
  8
_0-a_極細3
  6
CONTINUOUS
 62
    7
 10
643.16227042776165
 20
211.85730140661838
 40
0.5530864197530718
  0
CIRCLE
  8
_0-a_極細3
  6
CONTINUOUS
 62
    7
 10
639.07338153887304
 20
186.87952362884118
 40
0.5530864197530718
  0
CIRCLE
  8
_0-a_極細3
  6
CONTINUOUS
 62
    7
 10
656.606714872206
 20
169.85730140661843
 40
0.5530864197530718
  0
CIRCLE
  8
_0-a_極細3
  6
CONTINUOUS
 62
    7
 10
638.77338153887285
 20
146.5573014066191
 40
0.5530864197530718
  0
CIRCLE
  8
_0-a_極細3
  6
CONTINUOUS
 62
    7
 10
629.44004820553982
 20
128.69063473995232
 40
0.5530864197530718
  0
CIRCLE
  8
_0-a_極細3
  6
CONTINUOUS
 62
    7
 10
640.90671487220607
 20
158.5573014066191
 40
0.5530864197530718
  0
CIRCLE
  8
_0-a_極細3
  6
CONTINUOUS
 62
    7
 10
654.77338153887206
 20
153.75730140661892
 40
0.5530864197530718
  0
CIRCLE
  8
_0-a_極細3
  6
CONTINUOUS
 62
    7
 10
681.70671487220443
 20
154.02396807328535
 40
0.5530864197530718
  0
CIRCLE
  8
_0-a_極細3
  6
CONTINUOUS
 62
    7
 10
669.70671487220625
 20
163.09063473995195
 40
0.5530864197530718
  0
CIRCLE
  8
_0-a_極細3
  6
CONTINUOUS
 62
    7
 10
680.90671487220516
 20
168.69063473995232
 40
0.5530864197530718
  0
CIRCLE
  8
_0-a_極細3
  6
CONTINUOUS
 62
    7
 10
668.92893709442706
 20
222.97952362884064
 40
0.5530864197530718
  0
CIRCLE
  8
_0-a_極細3
  6
CONTINUOUS
 62
    7
 10
689.4622704277599
 20
222.26841251772896
 40
0.5530864197530718
  0
CIRCLE
  8
_0-a_極細3
  6
CONTINUOUS
 62
    7
 10
677.86227042776045
 20
208.26841251772944
 40
0.5530864197530718
  0
CIRCLE
  8
_0-a_極細3
  6
CONTINUOUS
 62
    7
 10
717.06227042776038
 20
155.06841251773005
 40
0.5530864197530718
  0
CIRCLE
  8
_0-a_極細3
  6
CONTINUOUS
 62
    7
 10
724.26227042776009
 20
169.06841251773002
 40
0.5530864197530718
  0
CIRCLE
  8
_0-a_極細3
  6
CONTINUOUS
 62
    7
 10
722.66227042776063
 20
189.86841251772978
 40
0.5530864197530718
  0
CIRCLE
  8
_0-a_極細3
  6
CONTINUOUS
 62
    7
 10
701.86227042776056
 20
191.46841251772969
 40
0.5530864197530718
  0
CIRCLE
  8
_0-a_極細3
  6
CONTINUOUS
 62
    7
 10
682.262270427761
 20
197.06841251773005
 40
0.5530864197530718
  0
CIRCLE
  8
_0-a_極細3
  6
CONTINUOUS
 62
    7
 10
704.66227042776063
 20
211.06841251772917
 40
0.5530864197530718
  0
CIRCLE
  8
_0-a_極細3
  6
CONTINUOUS
 62
    7
 10
718.66227042776063
 20
203.86841251772978
 40
0.5530864197530718
  0
CIRCLE
  8
_0-a_極細3
  6
CONTINUOUS
 62
    7
 10
748.26227042775929
 20
225.06841251772914
 40
0.5530864197530718
  0
CIRCLE
  8
_0-a_極細3
  6
CONTINUOUS
 62
    7
 10
727.81782598331574
 20
223.37180757945785
 40
1.825531472681392
  0
CIRCLE
  8
_0-a_極細3
  6
CONTINUOUS
 62
    7
 10
704.3956037610933
 20
197.9495853572358
 40
1.825531472681392
  0
CIRCLE
  8
_0-a_極細3
  6
CONTINUOUS
 62
    7
 10
634.00115931665096
 20
153.39958535723653
 40
1.825531472681392
  0
CIRCLE
  8
_0-a_極細3
  6
CONTINUOUS
 62
    7
 10
679.42338153887158
 20
160.8662520239028
 40
1.825531472681392
  0
CIRCLE
  8
_0-a_極細3
  6
CONTINUOUS
 62
    7
 10
725.68857417415529
 20
150.6791996319331
 40
1.825531472681392
  0
CIRCLE
  8
_0-a_極細3
  6
CONTINUOUS
 62
    7
 10
675.02338153887194
 20
204.06625202390259
 40
1.825531472681392
  0
CIRCLE
  8
_0-a_極細3
  6
CONTINUOUS
 62
    7
 10
627.55733215615692
 20
198.64304661686646
 40
0.5530864197530718
  0
CIRCLE
  8
_0-a_極細3
  6
CONTINUOUS
 62
    7
 10
627.75733215615764
 20
174.68749106131114
 40
0.5530864197530718
  0
LINE
  8
_0-a_極細3
  6
CONTINUOUS
 62
    7
 10
614.30091985316722
 20
223.20296506403213
 11
613.46758651983509
 21
223.20296506403213
  0
LINE
  8
_0-a_極細3
  6
CONTINUOUS
 62
    7
 10
613.46758651983509
 20
223.20296506403213
 11
613.46758651983509
 21
121.96136476925325
  0
CIRCLE
  8
_0-a_極細3
  6
CONTINUOUS
 62
    7
 10
619.45198236191754
 20
183.14619029550761
 40
0.5530864197530718
  0
CIRCLE
  8
_0-a_極細3
  6
CONTINUOUS
 62
    7
 10
620.75856672405826
 20
143.89063473995213
 40
0.5530864197530718
  0
CIRCLE
  8
_0-a_極細3
  6
CONTINUOUS
 62
    7
 10
620.11967783516775
 20
209.8440298016809
 40
1.825531472681392
  0
CIRCLE
  8
_0-a_極細3
  6
CONTINUOUS
 62
    7
 10
623.06782598331665
 20
137.22180757945864
 40
1.825531472681392
  0
CIRCLE
  8
_0-a_極細3
  6
CONTINUOUS
 62
    7
 10
195.56639752622687
 20
232.54194646834517
 40
1.825531472681392
  0
CIRCLE
  8
_0-a_極細3
  6
CONTINUOUS
 62
    7
 10
160.85570628188364
 20
231.67294963193319
 40
1.825531472681392
  0
CIRCLE
  8
_0-a_極細3
  6
CONTINUOUS
 62
    7
 10
743.4622704277599
 20
239.40930757945776
 40
1.825531472681392
  0
CIRCLE
  8
_0-a_極細3
  6
CONTINUOUS
 62
    7
 10
700.23106065793047
 20
233.53091251772923
 40
0.5530864197530718
  0
CIRCLE
  8
_0-a_極細3
  6
CONTINUOUS
 62
    7
 10
700.36439399126368
 20
227.21208535723565
 40
1.825531472681392
  0
LINE
  8
_0-a_極細3
  6
CENTER1
 62
    7
 10
446.80091985316812
 20
212.01713557858253
 11
446.80091985316812
 21
283.80046891192217
  0
CIRCLE
  8
_0-a_極細3
  6
CONTINUOUS
 62
    7
 10
150.51906055122075
 20
240.07304214735871
 40
0.5530864197530718
  0
CIRCLE
  8
_0-a_極細3
  6
CONTINUOUS
 62
    7
 10
191.86227042776409
 20
244.87304214735889
 40
0.5530864197530718
  0
CIRCLE
  8
_0-a_極細3
  6
CONTINUOUS
 62
    7
 10
216.75115931665275
 20
254.82859770291418
 40
0.5530864197530718
  0
CIRCLE
  8
_0-a_極細3
  6
CONTINUOUS
 62
    7
 10
222.44004820554167
 20
238.65081992513672
 40
0.5530864197530718
  0
CIRCLE
  8
_0-a_極細3
  6
CONTINUOUS
 62
    7
 10
197.55115931665202
 20
238.11748659180341
 40
0.5530864197530718
  0
CIRCLE
  8
_0-a_極細3
  6
CONTINUOUS
 62
    7
 10
185.81782598331941
 20
253.05081992513681
 40
0.5530864197530718
  0
CIRCLE
  8
_0-a_極細3
  6
CONTINUOUS
 62
    7
 10
212.61782598331962
 20
238.74958535723556
 40
1.825531472681392
  0
CIRCLE
  8
_0-a_極細3
  6
CONTINUOUS
 62
    7
 10
140.65862674080472
 20
246.5718075794581
 40
1.825531472681392
  0
LINE
  8
_0-a_極細3
  6
CONTINUOUS
 62
    7
 10
221.80091985316812
 20
269.8696317306991
 11
221.80091985316812
 21
258.20296506403213
  0
LINE
  8
_0-a_極細3
  6
CONTINUOUS
 62
    7
 10
221.80091985316812
 20
269.8696317306991
 11
132.62317270805397
 21
269.8696317306991
  0
LINE
  8
_0-a_極細3
  6
CONTINUOUS
 62
    7
 10
230.13425318650121
 20
258.20296506403213
 11
132.62317270805397
 21
258.20296506403213
  0
LINE
  8
_0-a_極細3
  6
CONTINUOUS
 62
    7
 10
230.13425318650121
 20
269.8696317306991
 11
221.80091985316812
 21
269.8696317306991
  0
LINE
  8
_0-a_極細3
  6
CONTINUOUS
 62
    7
 10
230.13425318650121
 20
269.03629839736516
 11
230.13425318650121
 21
269.8696317306991
  0
LINE
  8
_0-a_極細3
  6
CONTINUOUS
 62
    7
 10
229.93616293014199
 20
258.20296506403213
 11
230.13425318650121
 21
258.40105532039127
  0
LINE
  8
_0-a_極細3
  6
CONTINUOUS
 62
    7
 10
225.69352224302293
 20
258.20296506403213
 11
230.13425318650121
 21
262.64369600751081
  0
LINE
  8
_0-a_極細3
  6
CONTINUOUS
 62
    7
 10
221.80091985316812
 20
258.55300336129687
 11
230.13425318650121
 21
266.88633669463036
  0
LINE
  8
_0-a_極細3
  6
CONTINUOUS
 62
    7
 10
221.80091985316812
 20
262.79564404841642
 11
228.8749075354508
 21
269.8696317306991
  0
LINE
  8
_0-a_極細3
  6
CONTINUOUS
 62
    7
 10
221.80091985316812
 20
267.03828473553551
 11
224.63226684833174
 21
269.8696317306991
  0
LINE
  8
_0-a_極細3
  6
CONTINUOUS
 62
    7
 10
230.13425318650121
 20
267.58866485844021
 11
227.85328631424278
 21
269.8696317306991
  0
LINE
  8
_0-a_極細3
  6
CONTINUOUS
 62
    7
 10
230.13425318650121
 20
263.34602417132066
 11
223.61064562712363
 21
269.8696317306991
  0
LINE
  8
_0-a_極細3
  6
CONTINUOUS
 62
    7
 10
221.80091985316812
 20
267.43671681753551
 11
230.13425318650121
 21
259.10338348420203
  0
LINE
  8
_0-a_極細3
  6
CONTINUOUS
 62
    7
 10
221.80091985316812
 20
263.19407613041597
 11
226.79203091955151
 21
258.20296506403213
  0
LINE
  8
_0-a_極細3
  6
CONTINUOUS
 62
    7
 10
221.80091985316812
 20
258.95143544329642
 11
222.54939023243239
 21
258.20296506403213
  0
LINE
  8
_0-a_極細3
  6
CONTINUOUS
 62
    7
 10
212.96560017553745
 20
258.20296505790486
 11
221.80091985316812
 21
267.03828473553551
  0
LINE
  8
_0-a_極細3
  6
CONTINUOUS
 62
    7
 10
191.75239672523006
 20
258.20296504319379
 11
203.41906341273534
 21
269.86963173069864
  0
LINE
  8
_0-a_極細3
  6
CONTINUOUS
 62
    7
 10
170.53919327492258
 20
258.20296502848271
 11
182.20585997713897
 21
269.8696317306991
  0
LINE
  8
_0-a_極細3
  6
CONTINUOUS
 62
    7
 10
149.32598982461423
 20
258.20296501377072
 11
160.99265654154266
 21
269.8696317306991
  0
LINE
  8
_0-a_極細3
  6
CONTINUOUS
 62
    7
 10
132.62317270805397
 20
262.71335133280684
 11
139.7794531059462
 21
269.86963173069864
  0
LINE
  8
_0-a_極細3
  6
DASHED2
 62
    7
 10
202.35899845038333
 20
258.20296505054932
 11
214.02566513053358
 21
269.8696317306991
  0
LINE
  8
_0-a_極細3
  6
DASHED2
 62
    7
 10
181.14579500007585
 20
258.20296503583779
 11
192.81246169493713
 21
269.8696317306991
  0
LINE
  8
_0-a_極細3
  6
DASHED2
 62
    7
 10
159.9325915497684
 20
258.20296502112672
 11
171.59925825933988
 21
269.8696317306991
  0
LINE
  8
_0-a_極細3
  6
DASHED2
 62
    7
 10
138.71938809946002
 20
258.20296500641564
 11
150.38605482374442
 21
269.8696317306991
  0
CIRCLE
  8
_0-a_極細3
  6
CONTINUOUS
 62
    7
 10
671.41782598331611
 20
251.04619029550724
 40
0.5530864197530718
  0
CIRCLE
  8
_0-a_極細3
  6
CONTINUOUS
 62
    7
 10
721.4622704277599
 20
239.00174585106257
 40
0.5530864197530718
  0
CIRCLE
  8
_0-a_極細3
  6
CONTINUOUS
 62
    7
 10
735.4622704277599
 20
255.13507918439575
 40
0.5530864197530718
  0
CIRCLE
  8
_0-a_極細3
  6
CONTINUOUS
 62
    7
 10
683.4622704277599
 20
256.06841251772914
 40
0.5530864197530718
  0
LINE
  8
_0-a_極細3
  6
CONTINUOUS
 62
    7
 10
671.80091985316824
 20
269.8696317306991
 11
671.80091985316824
 21
258.20296506403213
  0
LINE
  8
_0-a_極細3
  6
CONTINUOUS
 62
    7
 10
671.80091985316824
 20
269.8696317306991
 11
760.97866699828319
 21
269.8696317306991
  0
LINE
  8
_0-a_極細3
  6
CONTINUOUS
 62
    7
 10
663.46758651983419
 20
258.20296506403213
 11
760.97866699828319
 21
258.20296506403213
  0
LINE
  8
_0-a_極細3
  6
CONTINUOUS
 62
    7
 10
663.46758651983419
 20
269.8696317306991
 11
671.80091985316824
 21
269.8696317306991
  0
LINE
  8
_0-a_極細3
  6
CONTINUOUS
 62
    7
 10
663.46758651983419
 20
269.03629839736516
 11
663.46758651983419
 21
269.8696317306991
  0
LINE
  8
_0-a_極細3
  6
CONTINUOUS
 62
    7
 10
671.80091985316824
 20
261.8720513447571
 11
668.13183357244372
 21
258.20296506403213
  0
LINE
  8
_0-a_極細3
  6
CONTINUOUS
 62
    7
 10
671.80091985316824
 20
266.11469203187573
 11
663.88919288532361
 21
258.20296506403213
  0
LINE
  8
_0-a_極細3
  6
CONTINUOUS
 62
    7
 10
663.46758651983419
 20
262.02399938566271
 11
671.3132188648716
 21
269.8696317306991
  0
LINE
  8
_0-a_極細3
  6
CONTINUOUS
 62
    7
 10
663.46758651983419
 20
266.26664007278134
 11
667.07057817775149
 21
269.86963173069864
  0
LINE
  8
_0-a_極細3
  6
CONTINUOUS
 62
    7
 10
671.80091985316824
 20
268.36030952119347
 11
670.2915976436625
 21
269.8696317306991
  0
LINE
  8
_0-a_極細3
  6
CONTINUOUS
 62
    7
 10
671.80091985316824
 20
264.11766883407392
 11
666.04895695654432
 21
269.8696317306991
  0
LINE
  8
_0-a_極細3
  6
CONTINUOUS
 62
    7
 10
671.80091985316824
 20
259.87502814695529
 11
663.46758651983419
 21
268.20836148028832
  0
LINE
  8
_0-a_極細3
  6
CONTINUOUS
 62
    7
 10
669.23034224897219
 20
258.20296506403213
 11
663.46758651983419
 21
263.96572079316923
  0
LINE
  8
_0-a_極細3
  6
CONTINUOUS
 62
    7
 10
664.98770156185219
 20
258.20296506403213
 11
663.46758651983419
 21
259.72308010604968
  0
LINE
  8
_0-a_極細3
  6
CONTINUOUS
 62
    7
 10
740.2567252534709
 20
258.20296506403213
 11
751.92339129334869
 21
269.86963110390991
  0
LINE
  8
_0-a_極細3
  6
CONTINUOUS
 62
    7
 10
719.04352181787453
 20
258.20296506403213
 11
730.71018802370145
 21
269.86963126985813
  0
LINE
  8
_0-a_極細3
  6
CONTINUOUS
 62
    7
 10
697.83031838227816
 20
258.20296506403213
 11
709.4969847540533
 21
269.86963143580726
  0
LINE
  8
_0-a_極細3
  6
CONTINUOUS
 62
    7
 10
676.6171149466818
 20
258.20296506403213
 11
688.28378148440515
 21
269.86963160175549
  0
LINE
  8
_0-a_極細3
  6
DASHED2
 62
    7
 10
750.86332697126909
 20
258.20296506403213
 11
760.97866699828319
 21
268.31830509104577
  0
LINE
  8
_0-a_極細3
  6
DASHED2
 62
    7
 10
729.65012353567272
 20
258.20296506403213
 11
741.31678965852461
 21
269.86963118688402
  0
LINE
  8
_0-a_極細3
  6
DASHED2
 62
    7
 10
708.43692010007646
 20
258.20296506403213
 11
720.10358638887737
 21
269.86963135283224
  0
LINE
  8
_0-a_極細3
  6
DASHED2
 62
    7
 10
687.22371666447998
 20
258.20296506403213
 11
698.89038311922832
 21
269.86963151878138
  0
LINE
  8
_0-a_極細3
  6
DASHED2
 62
    7
 10
671.80091985316824
 20
263.99337168831664
 11
677.67717984958108
 21
269.8696316847296
  0
LINE
  8
_0-a_極細3
  6
CONTINUOUS
 62
    7
 10
655.96758651983419
 20
268.20296506403258
 11
237.63425318650121
 21
268.20296506403258
  0
CIRCLE
  8
_0-a_極細3
  6
CONTINUOUS
 62
    7
 10
266.80091985316812
 20
250.8696317306991
 40
3.333333333333333
  0
CIRCLE
  8
_0-a_極細3
  6
CONTINUOUS
 62
    7
 10
626.80091985316812
 20
250.8696317306991
 40
3.333333333333333
  0
CIRCLE
  8
_0-a_極細3
  6
CONTINUOUS
 62
    7
 10
446.80091985316812
 20
250.8696317306991
 40
3.333333333333333
  0
ARC
  8
_0-b_細線3
  6
CONTINUOUS
 62
    7
 10
235.13425318650121
 20
228.20296506403213
 40
4.9999999999999991
 50
179.99999999999983
 51
269.99999999999977
  0
LINE
  8
_0-b_細線3
  6
CONTINUOUS
 62
    7
 10
230.13425318650121
 20
228.20296506403213
 11
230.13425318650121
 21
269.03629839736516
  0
LINE
  8
_0-b_細線3
  6
CONTINUOUS
 62
    7
 10
235.13425318650121
 20
223.20296506403213
 11
279.30091985316812
 21
223.20296506403213
  0
LINE
  8
_0-b_細線3
  6
CONTINUOUS
 62
    7
 10
280.13425318650121
 20
224.03629839736564
 11
279.30091985316812
 21
223.20296506403213
  0
LINE
  8
_0-b_細線3
  6
CONTINUOUS
 62
    7
 10
280.13425318650121
 20
227.3696317306991
 11
280.13425318650121
 21
224.03629839736564
  0
LINE
  8
_0-b_細線3
  6
CONTINUOUS
 62
    7
 10
279.30091985316812
 20
228.20296506403213
 11
280.13425318650121
 21
227.3696317306991
  0
LINE
  8
_0-b_細線3
  6
CONTINUOUS
 62
    7
 10
235.13425318650121
 20
228.20296506403213
 11
279.30091985316812
 21
228.20296506403213
  0
LINE
  8
_0-b_細線3
  6
CONTINUOUS
 62
    7
 10
230.96758651983507
 20
269.8696317306991
 11
230.13425318650121
 21
269.03629839736516
  0
LINE
  8
_0-b_細線3
  6
CONTINUOUS
 62
    7
 10
234.30091985316812
 20
269.8696317306991
 11
230.96758651983507
 21
269.8696317306991
  0
LINE
  8
_0-b_細線3
  6
CONTINUOUS
 62
    7
 10
235.13425318650121
 20
269.03629839736516
 11
234.30091985316812
 21
269.8696317306991
  0
LINE
  8
_0-b_細線3
  6
CONTINUOUS
 62
    7
 10
235.13425318650121
 20
228.20296506403213
 11
235.13425318650121
 21
269.03629839736516
  0
ARC
  8
_0-b_細線3
  6
CONTINUOUS
 62
    7
 10
658.46758651983419
 20
228.20296506403213
 40
4.9999999999999991
 50
269.99999999999977
 51
359.99999999999966
  0
LINE
  8
_0-b_細線3
  6
CONTINUOUS
 62
    7
 10
663.46758651983419
 20
228.20296506403213
 11
663.46758651983419
 21
269.03629839736516
  0
LINE
  8
_0-b_細線3
  6
CONTINUOUS
 62
    7
 10
658.46758651983419
 20
223.20296506403213
 11
614.30091985316722
 21
223.20296506403213
  0
LINE
  8
_0-b_細線3
  6
CONTINUOUS
 62
    7
 10
613.46758651983509
 20
224.03629839736564
 11
614.30091985316722
 21
223.20296506403213
  0
LINE
  8
_0-b_細線3
  6
CONTINUOUS
 62
    7
 10
613.46758651983509
 20
227.3696317306991
 11
613.46758651983509
 21
224.03629839736564
  0
LINE
  8
_0-b_細線3
  6
CONTINUOUS
 62
    7
 10
614.30091985316722
 20
228.20296506403213
 11
613.46758651983509
 21
227.3696317306991
  0
LINE
  8
_0-b_細線3
  6
CONTINUOUS
 62
    7
 10
658.46758651983419
 20
228.20296506403213
 11
614.30091985316722
 21
228.20296506403213
  0
LINE
  8
_0-b_細線3
  6
CONTINUOUS
 62
    7
 10
662.63425318650116
 20
269.8696317306991
 11
663.46758651983419
 21
269.03629839736516
  0
LINE
  8
_0-b_細線3
  6
CONTINUOUS
 62
    7
 10
659.30091985316824
 20
269.8696317306991
 11
662.63425318650116
 21
269.8696317306991
  0
LINE
  8
_0-b_細線3
  6
CONTINUOUS
 62
    7
 10
658.46758651983419
 20
269.03629839736516
 11
659.30091985316824
 21
269.8696317306991
  0
LINE
  8
_0-b_細線3
  6
CONTINUOUS
 62
    7
 10
658.46758651983419
 20
228.20296506403213
 11
658.46758651983419
 21
269.03629839736516
  0
LINE
  8
_0-b_細線3
  6
CONTINUOUS
 62
    7
 10
237.63425318650121
 20
263.3696317306991
 11
655.96758651983419
 21
263.3696317306991
  0
CIRCLE
  8
_0-b_細線3
  6
CONTINUOUS
 62
    7
 10
266.80091985316812
 20
250.8696317306991
 40
10.833333333333332
  0
LINE
  8
_0-b_細線3
  6
CONTINUOUS
 62
    7
 10
273.46758651983509
 20
250.8696317306991
 11
270.13425318650121
 21
256.64313442259538
  0
LINE
  8
_0-b_細線3
  6
CONTINUOUS
 62
    7
 10
270.13425318650121
 20
256.64313442259538
 11
263.46758651983509
 21
256.64313442259538
  0
LINE
  8
_0-b_細線3
  6
CONTINUOUS
 62
    7
 10
263.46758651983509
 20
256.64313442259538
 11
260.13425318650121
 21
250.8696317306991
  0
LINE
  8
_0-b_細線3
  6
CONTINUOUS
 62
    7
 10
260.13425318650121
 20
250.8696317306991
 11
263.46758651983509
 21
245.09612903880281
  0
LINE
  8
_0-b_細線3
  6
CONTINUOUS
 62
    7
 10
263.46758651983509
 20
245.09612903880281
 11
270.13425318650121
 21
245.09612903880281
  0
LINE
  8
_0-b_細線3
  6
CONTINUOUS
 62
    7
 10
270.13425318650121
 20
245.09612903880281
 11
273.46758651983509
 21
250.8696317306991
  0
CIRCLE
  8
_0-b_細線3
  6
CONTINUOUS
 62
    7
 10
626.80091985316812
 20
250.8696317306991
 40
10.833333333333332
  0
LINE
  8
_0-b_細線3
  6
CONTINUOUS
 62
    7
 10
620.13425318650116
 20
250.8696317306991
 11
623.46758651983509
 21
256.64313442259538
  0
LINE
  8
_0-b_細線3
  6
CONTINUOUS
 62
    7
 10
623.46758651983509
 20
256.64313442259538
 11
630.13425318650116
 21
256.64313442259538
  0
LINE
  8
_0-b_細線3
  6
CONTINUOUS
 62
    7
 10
630.13425318650116
 20
256.64313442259538
 11
633.46758651983509
 21
250.8696317306991
  0
LINE
  8
_0-b_細線3
  6
CONTINUOUS
 62
    7
 10
633.46758651983509
 20
250.8696317306991
 11
630.13425318650116
 21
245.09612903880281
  0
LINE
  8
_0-b_細線3
  6
CONTINUOUS
 62
    7
 10
630.13425318650116
 20
245.09612903880281
 11
623.46758651983509
 21
245.09612903880281
  0
LINE
  8
_0-b_細線3
  6
CONTINUOUS
 62
    7
 10
623.46758651983509
 20
245.09612903880281
 11
620.13425318650116
 21
250.8696317306991
  0
CIRCLE
  8
_0-b_細線3
  6
CONTINUOUS
 62
    7
 10
446.80091985316812
 20
250.8696317306991
 40
10.833333333333332
  0
LINE
  8
_0-b_細線3
  6
CONTINUOUS
 62
    7
 10
440.13425318650121
 20
250.8696317306991
 11
443.46758651983515
 21
256.64313442259538
  0
LINE
  8
_0-b_細線3
  6
CONTINUOUS
 62
    7
 10
443.46758651983515
 20
256.64313442259538
 11
450.13425318650121
 21
256.64313442259538
  0
LINE
  8
_0-b_細線3
  6
CONTINUOUS
 62
    7
 10
450.13425318650121
 20
256.64313442259538
 11
453.46758651983515
 21
250.8696317306991
  0
LINE
  8
_0-b_細線3
  6
CONTINUOUS
 62
    7
 10
453.46758651983515
 20
250.8696317306991
 11
450.13425318650121
 21
245.09612903880281
  0
LINE
  8
_0-b_細線3
  6
CONTINUOUS
 62
    7
 10
450.13425318650121
 20
245.09612903880281
 11
443.46758651983515
 21
245.09612903880281
  0
LINE
  8
_0-b_細線3
  6
CONTINUOUS
 62
    7
 10
443.46758651983515
 20
245.09612903880281
 11
440.13425318650121
 21
250.8696317306991
  0
LINE
  8
_0-d_寸法3
  6
CONTINUOUS
 62
    7
 10
220.13425318650206
 20
223.20296506403218
 11
174.18422210791235
 21
223.20296506403218
  0
LINE
  8
_0-d_寸法3
  6
CONTINUOUS
 62
    7
 10
179.18422210791235
 20
223.20296506403213
 11
181.77241255893748
 21
213.54370680114144
  0
LINE
  8
_0-d_寸法3
  6
CONTINUOUS
 62
    7
 10
179.18422210791235
 20
223.20296506403213
 11
176.59603165688708
 21
213.54370680114147
  0
LINE
  8
_0-d_寸法3
  6
CONTINUOUS
 62
    7
 10
218.13425318650204
 20
184.86963173069867
 11
174.1842221079132
 21
184.86963173069867
  0
LINE
  8
_0-d_寸法3
  6
CONTINUOUS
 62
    7
 10
179.1842221079132
 20
184.86963173069867
 11
176.59603165688799
 21
194.52888999358933
  0
LINE
  8
_0-d_寸法3
  6
CONTINUOUS
 62
    7
 10
179.1842221079132
 20
184.86963173069867
 11
181.77241255893847
 21
194.52888999358933
  0
LINE
  8
_0-d_寸法3
  6
CONTINUOUS
 62
    7
 10
179.18422210791235
 20
223.20296506403213
 11
179.1842221079132
 21
184.86963173069867
  0
TEXT
  8
_0-d_寸法3
 62
    7
 10
179.1842221079132
 20
196.53629839736516
 40
15
 41
1
 50
90
  1
23
  0
LINE
  8
_0-d_寸法3
  6
CONTINUOUS
 62
    7
 10
220.13425318650206
 20
269.86963173069915
 11
174.18422210791235
 21
269.8696317306991
  0
LINE
  8
_0-d_寸法3
  6
CONTINUOUS
 62
    7
 10
179.18422210791235
 20
269.8696317306991
 11
181.77241255893748
 21
260.21037346780838
  0
LINE
  8
_0-d_寸法3
  6
CONTINUOUS
 62
    7
 10
179.18422210791235
 20
269.8696317306991
 11
176.59603165688708
 21
260.21037346780844
  0
LINE
  8
_0-d_寸法3
  6
CONTINUOUS
 62
    7
 10
218.13425318650204
 20
223.20296506403218
 11
174.18422210791235
 21
223.20296506403218
  0
LINE
  8
_0-d_寸法3
  6
CONTINUOUS
 62
    7
 10
179.18422210791235
 20
223.20296506403213
 11
176.59603165688708
 21
232.86222332692284
  0
LINE
  8
_0-d_寸法3
  6
CONTINUOUS
 62
    7
 10
179.18422210791235
 20
223.20296506403213
 11
181.77241255893748
 21
232.86222332692284
  0
LINE
  8
_0-d_寸法3
  6
CONTINUOUS
 62
    7
 10
179.18422210791235
 20
269.8696317306991
 11
179.18422210791235
 21
223.20296506403213
  0
TEXT
  8
_0-d_寸法3
 62
    7
 10
179.18422210791235
 20
239.03629839736516
 40
15
 41
1
 50
90
  1
28
  0
LINE
  8
_0-a_極細3
  6
CONTINUOUS
 62
    7
 10
186.49418496601584
 20
173.0846662265354
 11
181.36388281613065
 21
187.18005553832398
  0
LINE
  8
_0-a_極細3
  6
CONTINUOUS
 62
    7
 10
236.48822763981207
 20
207.24367623757064
 11
241.61852978969682
 21
193.14828692578217
  0
LINE
  8
_0-a_極細3
  6
CONTINUOUS
 62
    7
 10
181.36388281613065
 20
187.18005553832398
 11
236.48822763981207
 21
207.24367623757064
  0
LINE
  8
_0-a_極細3
  6
CONTINUOUS
 62
    7
 10
186.49418496601584
 20
173.0846662265354
 11
241.61852978969682
 21
193.14828692578217
  0
LINE
  8
_0-a_極細3
  6
CENTER1
 62
    7
 10
178.97360049908045
 20
178.3287308424002
 11
243.00462098164644
 21
201.63411632743518
  0
LINE
  8
_0-a_極細3
  6
CONTINUOUS
 62
    7
 10
205.13425318650121
 20
148.2029650640321
 11
205.13425318650121
 21
192.28852641234852
  0
LINE
  8
_0-a_極細3
  6
CONTINUOUS
 62
    7
 10
205.13425318650121
 20
192.28852641234852
 11
190.13425318650121
 21
192.28852641234852
  0
LINE
  8
_0-a_極細3
  6
CONTINUOUS
 62
    7
 10
190.13425318650121
 20
192.28852641234852
 11
190.13425318650121
 21
148.2029650640321
  0
LINE
  8
_0-a_極細3
  6
CENTER1
 62
    7
 10
197.63425318650121
 20
139.92622477957923
 11
197.63425318650121
 21
196.56424657695752
  0
LINE
  8
_0-a_極細3
  6
CONTINUOUS
 62
    7
 10
707.10765474031996
 20
173.0846662265354
 11
712.23795689020517
 21
187.18005553832398
  0
LINE
  8
_0-a_極細3
  6
CONTINUOUS
 62
    7
 10
657.11361206652327
 20
207.24367623757064
 11
651.98330991663852
 21
193.14828692578217
  0
LINE
  8
_0-a_極細3
  6
CONTINUOUS
 62
    7
 10
712.23795689020517
 20
187.18005553832398
 11
657.11361206652327
 21
207.24367623757064
  0
LINE
  8
_0-a_極細3
  6
CONTINUOUS
 62
    7
 10
707.10765474031996
 20
173.0846662265354
 11
651.98330991663852
 21
193.14828692578217
  0
LINE
  8
_0-a_極細3
  6
CENTER1
 62
    7
 10
714.62823920725543
 20
178.3287308424002
 11
650.59721872468936
 21
201.63411632743518
  0
LINE
  8
_0-a_極細3
  6
CONTINUOUS
 62
    7
 10
688.46758651983464
 20
148.2029650640321
 11
688.46758651983464
 21
192.28852641234852
  0
LINE
  8
_0-a_極細3
  6
CONTINUOUS
 62
    7
 10
688.46758651983464
 20
192.28852641234852
 11
703.46758651983464
 21
192.28852641234852
  0
LINE
  8
_0-a_極細3
  6
CONTINUOUS
 62
    7
 10
703.46758651983464
 20
192.28852641234852
 11
703.46758651983464
 21
148.2029650640321
  0
LINE
  8
_0-a_極細3
  6
CENTER1
 62
    7
 10
695.96758651983464
 20
139.92622477957923
 11
695.96758651983464
 21
196.56424657695752
  0
LINE
  8
_0-b_細線3
  6
CONTINUOUS
 62
    7
 10
230.13425318650121
 20
243.20296506403213
 11
230.13425318650121
 21
184.86963173069887
  0
LINE
  8
_0-b_細線3
  6
CONTINUOUS
 62
    7
 10
230.13425318650121
 20
184.86963173069887
 11
226.30091985316781
 21
184.86963173069887
  0
LINE
  8
_0-b_細線3
  6
CONTINUOUS
 62
    7
 10
226.30091985316781
 20
184.86963173069887
 11
226.30091985316781
 21
243.20296506403213
  0
LINE
  8
_0-b_細線3
  6
CONTINUOUS
 62
    7
 10
226.30091985316781
 20
243.20296506403213
 11
230.13425318650121
 21
243.20296506403213
  0
LINE
  8
_0-a_極細3
  6
CONTINUOUS
 62
    7
 10
226.30091985316781
 20
216.53629839736553
 11
230.13425318650121
 21
216.53629839736553
  0
LINE
  8
_0-a_極細3
  6
CONTINUOUS
 62
    7
 10
226.30091985316781
 20
219.86963173069887
 11
230.13425318650121
 21
219.86963173069887
  0
LINE
  8
_0-a_極細3
  6
CONTINUOUS
 62
    7
 10
226.30091985316781
 20
213.20296506403213
 11
230.13425318650121
 21
213.20296506403213
  0
LINE
  8
_0-a_極細3
  6
CONTINUOUS
 62
    7
 10
226.30091985316781
 20
223.20296506403213
 11
230.13425318650121
 21
223.20296506403213
  0
LINE
  8
_0-a_極細3
  6
CONTINUOUS
 62
    7
 10
230.13425318650121
 20
189.86963173069887
 11
226.30091985316781
 21
189.86963173069887
  0
LINE
  8
_0-a_極細3
  6
CONTINUOUS
 62
    7
 10
226.30091985316781
 20
239.86963173069887
 11
230.13425318650121
 21
239.86963173069887
  0
LINE
  8
_0-b_細線3
  6
CONTINUOUS
 62
    7
 10
663.46758651983453
 20
243.20296506403213
 11
663.46758651983453
 21
184.86963173069887
  0
LINE
  8
_0-b_細線3
  6
CONTINUOUS
 62
    7
 10
663.46758651983453
 20
184.86963173069887
 11
667.30091985316778
 21
184.86963173069887
  0
LINE
  8
_0-b_細線3
  6
CONTINUOUS
 62
    7
 10
667.30091985316778
 20
184.86963173069887
 11
667.30091985316778
 21
243.20296506403213
  0
LINE
  8
_0-b_細線3
  6
CONTINUOUS
 62
    7
 10
667.30091985316778
 20
243.20296506403213
 11
663.46758651983453
 21
243.20296506403213
  0
LINE
  8
_0-a_極細3
  6
CONTINUOUS
 62
    7
 10
667.30091985316778
 20
216.53629839736553
 11
663.46758651983453
 21
216.53629839736553
  0
LINE
  8
_0-a_極細3
  6
CONTINUOUS
 62
    7
 10
667.30091985316778
 20
219.86963173069887
 11
663.46758651983453
 21
219.86963173069887
  0
LINE
  8
_0-a_極細3
  6
CONTINUOUS
 62
    7
 10
667.30091985316778
 20
213.20296506403213
 11
663.46758651983453
 21
213.20296506403213
  0
LINE
  8
_0-a_極細3
  6
CONTINUOUS
 62
    7
 10
667.30091985316778
 20
223.20296506403213
 11
663.46758651983453
 21
223.20296506403213
  0
LINE
  8
_0-a_極細3
  6
CONTINUOUS
 62
    7
 10
663.46758651983453
 20
189.86963173069887
 11
667.30091985316778
 21
189.86963173069887
  0
LINE
  8
_0-a_極細3
  6
CONTINUOUS
 62
    7
 10
667.30091985316778
 20
239.86963173069887
 11
663.46758651983453
 21
239.86963173069887
  0
LINE
  8
_0-7_枠細線
  6
CONTINUOUS
 62
    5
 10
685.23163669379005
 20
232.53628686397204
 11
677.73163669379005
 21
247.53628686397204
  0
LINE
  8
_0-7_枠細線
  6
CONTINUOUS
 62
    5
 10
670.23163669379005
 20
232.53628686397204
 11
685.23163669379005
 21
232.53628686397204
  0
LINE
  8
_0-7_枠細線
  6
CONTINUOUS
 62
    5
 10
677.73163669379005
 20
247.53628686397204
 11
670.23163669379005
 21
232.53628686397204
  0
TEXT
  8
_0-7_枠細線
 62
    5
 10
672.59678796193828
 20
231.58746689912209
 40
12.5
 41
0.8
 50
0
  1
４
  0
LINE
  8
_0-d_寸法3
  6
CONTINUOUS
 62
    7
 10
230.13425318650206
 20
274.8696317306991
 11
230.13425318650206
 21
359.86963173069904
  0
LINE
  8
_0-d_寸法3
  6
CONTINUOUS
 62
    7
 10
230.13425318650206
 20
354.86963173069904
 11
239.79351144939272
 21
357.45782218172423
  0
LINE
  8
_0-d_寸法3
  6
CONTINUOUS
 62
    7
 10
230.13425318650206
 20
354.86963173069904
 11
239.79351144939272
 21
352.28144127967391
  0
LINE
  8
_0-d_寸法3
  6
CONTINUOUS
 62
    7
 10
663.46758651983509
 20
274.8696317306991
 11
663.46758651983509
 21
359.86963173069904
  0
LINE
  8
_0-d_寸法3
  6
CONTINUOUS
 62
    7
 10
663.46758651983509
 20
354.86963173069904
 11
653.80832825694438
 21
352.28144127967391
  0
LINE
  8
_0-d_寸法3
  6
CONTINUOUS
 62
    7
 10
663.46758651983509
 20
354.86963173069904
 11
653.80832825694438
 21
357.45782218172428
  0
LINE
  8
_0-d_寸法3
  6
CONTINUOUS
 62
    7
 10
230.13425318650206
 20
354.86963173069904
 11
663.46758651983509
 21
354.86963173069904
  0
TEXT
  8
_0-d_寸法3
 62
    7
 10
435.55091985316903
 20
354.86963173069904
 40
15
 41
1
 50
0
  1
260
  0
TEXT
  8
_0-7_枠細線
 62
    5
 10
396.8788722139343
 20
94.869266729020723
 40
25
 41
0.8
 50
0
  1
断面詳細図
  0
TEXT
  8
_0-7_枠細線
 62
    5
 10
511.82784196310223
 20
97.481110773832
 40
20
 41
0.6
 50
0
  1
Ｓ＝１：３
  0
LINE
  8
_0-d_寸法3
  6
CONTINUOUS
 62
    7
 10
230.13425318650121
 20
274.86963173069915
 11
230.13425318650121
 21
324.86963173069915
  0
LINE
  8
_0-d_寸法3
  6
CONTINUOUS
 62
    7
 10
230.13425318650121
 20
319.86963173069915
 11
220.47499492361055
 21
317.28144127967397
  0
LINE
  8
_0-d_寸法3
  6
CONTINUOUS
 62
    7
 10
230.13425318650121
 20
319.86963173069915
 11
220.47499492361055
 21
322.45782218172445
  0
LINE
  8
_0-d_寸法3
  6
CONTINUOUS
 62
    7
 10
235.13425318650121
 20
274.86963173069915
 11
235.13425318650121
 21
324.86963173069915
  0
CIRCLE
  8
_0-d_寸法3
  6
CONTINUOUS
 62
    1
 10
235.13425318650121
 20
319.86963173069915
 40
1.5000000000000002
  0
LINE
  8
_0-d_寸法3
  6
CONTINUOUS
 62
    7
 10
205.13425318650121
 20
319.86963173069915
 11
235.13425318650121
 21
319.86963173069915
  0
TEXT
  8
_0-d_寸法3
 62
    7
 10
209.60280316430627
 20
319.86963173069915
 40
15
 41
1
 50
0
  1
3
  0
LINE
  8
_0-d_寸法3
  6
CONTINUOUS
 62
    7
 10
237.63425318650121
 20
274.8696317306987
 11
237.63425318650121
 21
324.86963173069915
  0
LINE
  8
_0-d_寸法3
  6
CONTINUOUS
 62
    7
 10
235.13425318650121
 20
319.86963173069915
 11
237.63425318650121
 21
319.86963173069915
  0
TEXT
  8
_0-d_寸法3
 62
    7
 10
239.12299773977779
 20
303.59549163310646
 40
15
 41
1
 50
0
  1
1.5
  0
LINE
  8
_0-d_寸法3
  6
CONTINUOUS
 62
    7
 10
237.63425318650121
 20
319.86963173069915
 11
247.29351144939187
 21
322.4578221817244
  0
LINE
  8
_0-d_寸法3
  6
CONTINUOUS
 62
    7
 10
237.63425318650121
 20
319.86963173069915
 11
247.29351144939187
 21
317.28144127967397
  0
LINE
  8
_0-d_寸法3
  6
CONTINUOUS
 62
    7
 10
655.96758651983419
 20
274.8696317306987
 11
655.96758651983441
 21
324.86963173069915
  0
LINE
  8
_0-d_寸法3
  6
CONTINUOUS
 62
    7
 10
655.96758651983441
 20
319.86963173069915
 11
646.30832825694358
 21
317.28144127967397
  0
LINE
  8
_0-d_寸法3
  6
CONTINUOUS
 62
    7
 10
655.96758651983441
 20
319.86963173069915
 11
646.30832825694358
 21
322.45782218172445
  0
LINE
  8
_0-d_寸法3
  6
CONTINUOUS
 62
    7
 10
237.63425318650121
 20
319.86963173069915
 11
655.96758651983441
 21
319.86963173069915
  0
TEXT
  8
_0-d_寸法3
 62
    7
 10
435.55091985316778
 20
319.86963173069915
 40
15
 41
1
 50
0
  1
251
  0
LINE
  8
_0-d_寸法3
  6
CONTINUOUS
 62
    7
 10
658.46758651983475
 20
274.86963173069915
 11
658.46758651983487
 21
324.86963173069915
  0
CIRCLE
  8
_0-d_寸法3
  6
CONTINUOUS
 62
    1
 10
658.46758651983487
 20
319.86963173069915
 40
1.5000000000000002
  0
LINE
  8
_0-d_寸法3
  6
CONTINUOUS
 62
    7
 10
655.96758651983441
 20
319.86963173069915
 11
658.46758651983487
 21
319.86963173069915
  0
TEXT
  8
_0-d_寸法3
 62
    7
 10
630.96986782625709
 20
302.40924458121941
 40
15
 41
1
 50
0
  1
1.5
  0
LINE
  8
_0-d_寸法3
  6
CONTINUOUS
 62
    7
 10
663.46758651983419
 20
274.86963173069915
 11
663.46758651983441
 21
324.86963173069915
  0
LINE
  8
_0-d_寸法3
  6
CONTINUOUS
 62
    7
 10
663.46758651983441
 20
319.86963173069915
 11
673.12684478272502
 21
322.45782218172428
  0
LINE
  8
_0-d_寸法3
  6
CONTINUOUS
 62
    7
 10
663.46758651983441
 20
319.86963173069915
 11
673.12684478272502
 21
317.28144127967391
  0
LINE
  8
_0-d_寸法3
  6
CONTINUOUS
 62
    7
 10
658.46758651983487
 20
319.86963173069915
 11
688.46758651983441
 21
319.86963173069915
  0
TEXT
  8
_0-d_寸法3
 62
    7
 10
677.26666912342682
 20
319.86963173069915
 40
15
 41
1
 50
0
  1
3
  0
LINE
  8
_0-d_寸法3
  6
CONTINUOUS
 62
    7
 10
438.60939941027823
 20
233.9387294275426
 11
403.46909472157762
 21
258.54423566555681
  0
LINE
  8
_0-d_寸法3
  6
CONTINUOUS
 62
    7
 10
407.56485494302251
 20
255.67635348380156
 11
404.97666449199733
 21
265.33561174669222
  0
LINE
  8
_0-d_寸法3
  6
CONTINUOUS
 62
    7
 10
407.56485494302251
 20
255.67635348380156
 11
410.15304539404781
 21
265.33561174669222
  0
LINE
  8
_0-d_寸法3
  6
CONTINUOUS
 62
    7
 10
438.60939941027823
 20
275.6053960942096
 11
403.46909472157762
 21
300.21090233222378
  0
LINE
  8
_0-d_寸法3
  6
CONTINUOUS
 62
    7
 10
407.56485494302251
 20
297.34302015046853
 11
410.15304539404781
 21
287.68376188757787
  0
LINE
  8
_0-d_寸法3
  6
CONTINUOUS
 62
    7
 10
407.56485494302251
 20
297.34302015046853
 11
404.97666449199733
 21
287.68376188757787
  0
LINE
  8
_0-d_寸法3
  6
CONTINUOUS
 62
    7
 10
407.56485494302251
 20
255.67635348380156
 11
407.56485494302251
 21
297.34302015046853
  0
TEXT
  8
_0-d_寸法3
 62
    7
 10
407.56485494302251
 20
271.08599360250662
 40
15
 41
1
 50
90
  1
25
  0
LINE
  8
_0-a_極細3
  6
CENTER1
 62
    7
 10
661.58786114856139
 20
250.86959463269898
 11
232.75931390059185
 21
250.86959463269898
  0
LINE
  8
_0-b_細線3
  6
CONTINUOUS
 62
    7
 10
237.63425318650121
 20
228.20296506403213
 11
237.63425318650121
 21
269.86963173069864
  0
LINE
  8
_0-b_細線3
  6
CONTINUOUS
 62
    7
 10
237.63425318650121
 20
269.86963173069864
 11
655.96758651983419
 21
269.86963173069864
  0
LINE
  8
_0-b_細線3
  6
CONTINUOUS
 62
    7
 10
655.96758651983419
 20
269.86963173069864
 11
655.96758651983419
 21
228.20296506403213
  0
LINE
  8
_0-b_細線3
  6
CONTINUOUS
 62
    7
 10
655.96758651983419
 20
228.20296506403213
 11
237.63425318650121
 21
228.20296506403213
  0
ENDSEC
  0
EOF
