  0
SECTION
  2
HEADER
  9
$ACADVER
  1
AC1009
  9
$INSBASE
 10
0
 20
0
 30
0
  9
$EXTMIN
 10
0
 20
0
  9
$EXTMAX
 10
1782
 20
1260
  9
$LIMMIN
 10
0
 20
0
  9
$LIMMAX
 10
1782
 20
1260
  9
$LTSCALE
 40
6
  0
ENDSEC
  0
SECTION
  2
TABLES
  0
TABLE
  2
LTYPE
 70
     9
  0
LTYPE
  2
CONTINUOUS
 70
    64
  3
実線
 72
    65
 73
     0
 40
0.0
  0
LTYPE
  2
DASHED1
 70
    64
  3
--  --  --  --  --  --  --  --  
 72
    65
 73
     2
 40
2.5
 49
1.25
 49
-1.25
  0
LTYPE
  2
DASHED2
 70
    64
  3
----    ----    ----    ----    
 72
    65
 73
     2
 40
5.0
 49
2.5
 49
-2.5
  0
LTYPE
  2
DASHED3
 70
    64
  3
------  ------  ------  ------  
 72
    65
 73
     2
 40
5.0
 49
3.75
 49
-1.25
  0
LTYPE
  2
CENTER1
 70
    64
  3
----- - ----- - ----- - ----- - 
 72
    65
 73
     4
 40
10.0
 49
6.25
 49
-1.25
 49
1.25
 49
-1.25
  0
LTYPE
  2
CENTER2
 70
    64
  3
----------  --  ----------  --  
 72
    65
 73
     4
 40
20.0
 49
12.5
 49
-2.5
 49
2.5
 49
-2.5
  0
LTYPE
  2
PHANTOM1
 70
    64
  3
--- - - --- - - --- - - --- - - 
 72
    65
 73
     6
 40
10.0
 49
3.25
 49
-1.25
 49
1.25
 49
-1.25
 49
1.25
 49
-1.25
  0
LTYPE
  2
PHANTOM2
 70
    64
  3
--------  -  -  --------  -  -  
 72
    65
 73
     6
 40
20.0
 49
10.0
 49
-2.5
 49
1.25
 49
-2.5
 49
1.25
 49
-2.5
  0
LTYPE
  2
DOT
 70
    64
  3
-   -   -   -   -   -   -   -   
 72
    65
 73
     2
 40
2.5
 49
0.625
 49
-1.875
  0
LTYPE
  2
DUMMY
 70
    64
  3
ダミー
 72
    65
 73
     0
 40
0.0
  0
LTYPE
  2
RAND1
 70
    64
  3
ランダム線1
 72
    65
 73
     4
 40
10.0
 49
1.0
 49
-2.0
 49
3.0
 49
-4.0
  0
LTYPE
  2
RAND2
 70
    64
  3
ランダム線2
 72
    65
 73
     4
 40
14.0
 49
2.0
 49
-3.0
 49
4.0
 49
-5.0
  0
LTYPE
  2
RAND3
 70
    64
  3
ランダム線3
 72
    65
 73
     4
 40
18.0
 49
3.0
 49
-4.0
 49
5.0
 49
-6.0
  0
LTYPE
  2
RAND4
 70
    64
  3
ランダム線4
 72
    65
 73
     4
 40
22.0
 49
4.0
 49
-5.0
 49
6.0
 49
-7.0
  0
LTYPE
  2
RAND5
 70
    64
  3
ランダム線5
 72
    65
 73
     4
 40
26.0
 49
5.0
 49
-6.0
 49
7.0
 49
-8.0
  0
LTYPE
  2
LONG1
 70
    64
  3
----------  --  ----------  --  
 72
    65
 73
     4
 40
40.0
 49
32.5
 49
-2.5
 49
2.5
 49
-2.5
  0
LTYPE
  2
LONG2
 70
    64
  3
--------  -  -  --------  -  -  
 72
    65
 73
     6
 40
40.0
 49
30.0
 49
-2.5
 49
1.25
 49
-2.5
 49
1.25
 49
-2.5
  0
LTYPE
  2
LONG3
 70
    64
  3
+++++++++++++++..+++++++++++++++
 72
    65
 73
     2
 40
40.0
 49
37.5
 49
-2.5
  0
LTYPE
  2
LONG4
 70
    64
  3
+++++++++++++++..+++++++++++++++
 72
    65
 73
     2
 40
80.0
 49
75.0
 49
-5.0
  0
LTYPE
  2
LONG5
 70
    64
  3
----------  --  ----------  --  
 72
    65
 73
     4
 40
60.0
 49
37.5
 49
-7.5
 49
7.5
 49
-7.5
  0
LTYPE
  2
dashed
 70
   64
  3
-------   -------------   ------
 72
   65
 73
    2
 40
7.5
 49
6
 49
-1.5
  0
LTYPE
  2
dashed_spaced
 70
   64
  3
----        --------        ----
 72
   65
 73
    2
 40
12
 49
6
 49
-6
  0
LTYPE
  2
long_dashed_dotted
 70
   64
  3
------------- --- --------------
 72
   65
 73
    4
 40
15.25
 49
12
 49
-1.5
 49
0.25
 49
-1.5
  0
LTYPE
  2
long_dashed_double-dotted
 70
   64
  3
----------- --- --- ------------
 72
   65
 73
    6
 40
17
 49
12
 49
-1.5
 49
0.25
 49
-1.5
 49
0.25
 49
-1.5
  0
LTYPE
  2
long_dashed_triplicate-dotted
 70
   64
  3
--------- --- --- --- ----------
 72
   65
 73
    8
 40
18.75
 49
12
 49
-1.5
 49
0.25
 49
-1.5
 49
0.25
 49
-1.5
 49
0.25
 49
-1.5
  0
LTYPE
  2
dotted
 70
   64
  3
   -       -       -       -    
 72
   65
 73
    2
 40
1.75
 49
0.25
 49
-1.5
  0
LTYPE
  2
chain
 70
   64
  3
-------------- -- --------------
 72
   65
 73
    4
 40
18.5
 49
12
 49
-1.5
 49
3.5
 49
-1.5
  0
LTYPE
  2
chain_double_dash
 70
   64
  3
------------ -- -- -------------
 72
   65
 73
    6
 40
23.5
 49
12
 49
-1.5
 49
3.5
 49
-1.5
 49
3.5
 49
-1.5
  0
LTYPE
  2
dashed_dotted
 70
   64
  3
-----------     -     ----------
 72
   65
 73
    4
 40
9.25
 49
6
 49
-1.5
 49
0.25
 49
-1.5
  0
LTYPE
  2
double-dashed_dotted
 70
   64
  3
------   -----------   -   -----
 72
   65
 73
    6
 40
16.75
 49
6
 49
-1.5
 49
6
 49
-1.5
 49
0.25
 49
-1.5
  0
LTYPE
  2
dashed_double-dotted
 70
   64
  3
---------    -    -    ---------
 72
   65
 73
    6
 40
11
 49
6
 49
-1.5
 49
0.25
 49
-1.5
 49
0.25
 49
-1.5
  0
LTYPE
  2
double-dashed_double-dotted
 70
   64
  3
-----   ---------   -   -   ----
 72
   65
 73
    8
 40
18.5
 49
6
 49
-1.5
 49
6
 49
-1.5
 49
0.25
 49
-1.5
 49
0.25
 49
-1.5
  0
LTYPE
  2
dashed_triplicate-dotted
 70
   64
  3
-------    -    -    -    ------
 72
   65
 73
    8
 40
12.75
 49
6
 49
-1.5
 49
0.25
 49
-1.5
 49
0.25
 49
-1.5
 49
0.25
 49
-1.5
  0
LTYPE
  2
double-dashed_triplicate-dotted
 70
   64
  3
-----  ---------  -  -  -  -----
 72
   65
 73
   10
 40
20.25
 49
6
 49
-1.5
 49
6
 49
-1.5
 49
0.25
 49
-1.5
 49
0.25
 49
-1.5
 49
0.25
 49
-1.5
  0
LTYPE
  2
undefined
 70
   64
  3
--------------------------------
 72
   65
 73
    0
 40
0
  0
ENDTAB
  0
TABLE
  2
STYLE
  5
3
100
AcDbSymbolTable
 70
     1
  0
STYLE
  5
10
100
AcDbSymbolTableRecord
100
AcDbTextStyleTableRecord
  2
STANDARD
 70
     0
 40
0.0
 41
1.0
 50
0.0
 71
     0
 42
0.2
  3
txt
  4
bigfont.shx
  0
STYLE
  5
26
100
AcDbSymbolTableRecord
100
AcDbTextStyleTableRecord
  2
TATEGAKI
 70
    68
 40
0.0
 41
1.0
 50
0.0
 71
     0
 42
1.0
  3
txt
  4
bigfont.shx
  0
ENDTAB
  0
TABLE
  2
LAYER
 70
   10
  0
LAYER
  2
_0-0_計極細
 70
   64
 62
    7
  6
CONTINUOUS
  0
LAYER
  2
_0-1_計細線
 70
   64
 62
    7
  6
CONTINUOUS
  0
LAYER
  2
_0-5_寸法線
 70
   64
 62
    7
  6
CONTINUOUS
  0
LAYER
  2
_0-7_枠細線
 70
   64
 62
    7
  6
CONTINUOUS
  0
LAYER
  2
_0-8_枠中線
 70
   64
 62
    7
  6
CONTINUOUS
  0
LAYER
  2
_0-9_枠極太
 70
   64
 62
    7
  6
CONTINUOUS
  0
LAYER
  2
_0-a_極細3
 70
   64
 62
    7
  6
CONTINUOUS
  0
LAYER
  2
_0-b_細線3
 70
   64
 62
    7
  6
CONTINUOUS
  0
LAYER
  2
_0-d_寸法3
 70
   64
 62
    7
  6
CONTINUOUS
  0
LAYER
  2
ADD_LINE
 70
   64
 62
    7
  6
CONTINUOUS
  0
ENDTAB
  0
ENDSEC
  0
SECTION
  2
BLOCKS
  0
ENDSEC
  0
SECTION
  2
ENTITIES
  0
LINE
  8
_0-7_枠細線
  6
CONTINUOUS
 62
    5
 10
1422
 20
216
 11
1422
 21
120
  0
TEXT
  8
_0-7_枠細線
 62
    5
 10
1125
 20
117
 40
21
 41
1
 50
0
  1
備考
  7
TATEGAKI
  0
TEXT
  8
_0-7_枠細線
 62
    5
 10
1125
 20
165
 40
21
 41
1
 50
0
  1
品番
  7
TATEGAKI
  0
TEXT
  8
_0-7_枠細線
 62
    5
 10
1125
 20
213
 40
21
 41
1
 50
0
  1
品名
  7
TATEGAKI
  0
LINE
  8
_0-7_枠細線
  6
CONTINUOUS
 62
    5
 10
1422
 20
168
 11
1110
 21
168
  0
LINE
  8
_0-7_枠細線
  6
CONTINUOUS
 62
    5
 10
1140
 20
216
 11
1140
 21
72
  0
LINE
  8
_0-8_枠中線
  6
CONTINUOUS
 62
    5
 10
1710
 20
216
 11
1110
 21
216
  0
LINE
  8
_0-8_枠中線
  6
CONTINUOUS
 62
    5
 10
1110
 20
216
 11
1110
 21
72
  0
LINE
  8
_0-7_枠細線
  6
CONTINUOUS
 62
    5
 10
1494
 20
216
 11
1494
 21
72
  0
TEXT
  8
_0-7_枠細線
 62
    5
 10
1431
 20
192
 40
18
 41
1
 50
0
  1
縮　尺
  0
LINE
  8
_0-7_枠細線
  6
CONTINUOUS
 62
    5
 10
1422
 20
186
 11
1494
 21
186
  0
LINE
  8
_0-7_枠細線
  6
CONTINUOUS
 62
    5
 10
1494
 20
120
 11
1110
 21
120
  0
LINE
  8
_0-7_枠細線
  6
CONTINUOUS
 62
    5
 10
1710
 20
108
 11
1494
 21
108
  0
LINE
  8
_0-7_枠細線
  6
CONTINUOUS
 62
    5
 10
1494
 20
144
 11
1710
 21
144
  0
LINE
  8
_0-7_枠細線
  6
CONTINUOUS
 62
    5
 10
1710
 20
168
 11
1494
 21
168
  0
TEXT
  8
_0-7_枠細線
 62
    5
 10
1506
 20
177
 40
30
 41
0.8
 50
0
  1
株式会社シマブン
  0
TEXT
  8
_0-7_枠細線
 62
    5
 10
1503
 20
72
 40
18
 41
1
 50
0
  1
年月日
  0
TEXT
  8
_0-7_枠細線
 62
    5
 10
1503
 20
90
 40
18
 41
1
 50
0
  1
作　成
  0
TEXT
  8
_0-7_枠細線
 62
    5
 10
1500
 20
114
 40
24
 41
1
 50
0
  1
島 英
  0
TEXT
  8
_0-7_枠細線
 62
    5
 10
1507.5
 20
147
 40
18
 41
1
 50
0
  1
承 認
  0
LINE
  8
_0-7_枠細線
  6
CONTINUOUS
 62
    5
 10
1566
 20
168
 11
1566
 21
72
  0
TEXT
  8
_0-7_枠細線
 62
    5
 10
1578
 20
114
 40
24
 41
1
 50
0
  1
隠塚
  0
TEXT
  8
_0-7_枠細線
 62
    5
 10
1579.5
 20
147
 40
18
 41
1
 50
0
  1
検 図
  0
LINE
  8
_0-7_枠細線
  6
CONTINUOUS
 62
    5
 10
1638
 20
168
 11
1638
 21
108
  0
TEXT
  8
_0-7_枠細線
 62
    5
 10
1650
 20
114
 40
24
 41
1
 50
0
  1
藤戸
  0
TEXT
  8
_0-7_枠細線
 62
    5
 10
1651.5
 20
147
 40
18
 41
1
 50
0
  1
設 計
  0
TEXT
  8
_0-7_枠細線
 62
    5
 10
1158.5999999999999
 20
180
 40
24
 41
0.5999999999999998
 50
0
  1
セーフティグレーチングＨ２５タイプ
  0
TEXT
  8
_0-7_枠細線
 62
    5
 10
1158.5999999999999
 20
84
 40
24
 41
0.5999999999999997
 50
0
  1
色については品番表参照のこと
  0
TEXT
  8
_0-7_枠細線
 62
    5
 10
1572
 20
81
 40
18
 41
0.6666666666666666
 50
0
  1
２００９年０１月１６日
  0
TEXT
  8
_0-7_枠細線
 62
    5
 10
1158.5999999999999
 20
132
 40
24
 41
0.5999999999999998
 50
0
  1
ＧＲＳＪ－２５Ｗ３０１　ＳＥＴ
  0
LINE
  8
_0-7_枠細線
  6
CONTINUOUS
 62
    5
 10
1289.9999999999995
 20
344.16545012165489
 11
1650
 21
344.16545012165489
  0
LINE
  8
_0-7_枠細線
  6
CONTINUOUS
 62
    5
 10
1289.9999999999995
 20
374.16545012165489
 11
1650
 21
374.16545012165489
  0
LINE
  8
_0-7_枠細線
  6
CONTINUOUS
 62
    5
 10
1289.9999999999995
 20
404.16545012165489
 11
1650
 21
404.16545012165489
  0
LINE
  8
_0-7_枠細線
  6
CONTINUOUS
 62
    5
 10
1289.9999999999995
 20
434.165450121655
 11
1650
 21
434.165450121655
  0
LINE
  8
_0-7_枠細線
  6
CONTINUOUS
 62
    5
 10
1289.9999999999995
 20
464.16545012165489
 11
1650
 21
464.16545012165489
  0
LINE
  8
_0-7_枠細線
  6
CONTINUOUS
 62
    5
 10
1289.9999999999995
 20
494.16545012165471
 11
1650
 21
494.16545012165471
  0
LINE
  8
_0-7_枠細線
  6
CONTINUOUS
 62
    5
 10
1289.9999999999995
 20
524.16545012165466
 11
1650
 21
524.16545012165466
  0
TEXT
  8
_0-7_枠細線
 62
    5
 10
1396.4999999999995
 20
530.16545012165466
 40
21
 41
1
 50
0
  1
品番表
  0
TEXT
  8
_0-7_枠細線
 62
    5
 10
1567.1999999999998
 20
500.16545012165471
 40
18
 41
0.7999999999999998
 50
0
  1
備　　考
  0
TEXT
  8
_0-7_枠細線
 62
    5
 10
1455.6000000000001
 20
440.165450121655
 40
18
 41
0.5999999999999999
 50
0
  1
ライトグレー
  0
TEXT
  8
_0-7_枠細線
 62
    5
 10
1466.4000000000001
 20
470.16545012165471
 40
18
 41
0.5999999999999999
 50
0
  1
ベージュ
  0
TEXT
  8
_0-7_枠細線
 62
    5
 10
1480.8000000000002
 20
500.16545012165471
 40
18
 41
0.7999999999999998
 50
0
  1
色
  0
TEXT
  8
_0-7_枠細線
 62
    5
 10
1333.1999999999998
 20
500.16545012165471
 40
18
 41
0.7999999999999998
 50
0
  1
品　　番
  0
LINE
  8
_0-7_枠細線
  6
CONTINUOUS
 62
    5
 10
1289.9999999999995
 20
254.1654501216546
 11
1650
 21
254.1654501216546
  0
LINE
  8
_0-7_枠細線
  6
CONTINUOUS
 62
    5
 10
1289.9999999999995
 20
284.16545012165489
 11
1650
 21
284.16545012165489
  0
LINE
  8
_0-7_枠細線
  6
CONTINUOUS
 62
    5
 10
1289.9999999999995
 20
314.165450121655
 11
1650
 21
314.165450121655
  0
TEXT
  8
_0-7_枠細線
 62
    5
 10
1466.4000000000008
 20
410.165450121655
 40
18
 41
0.5999999999999999
 50
0
  1
ホワイト
  0
TEXT
  8
_0-7_枠細線
 62
    5
 10
1471.8
 20
380.16545012165489
 40
18
 41
0.5999999999999999
 50
0
  1
ピンク
  0
TEXT
  8
_0-7_枠細線
 62
    5
 10
1471.8
 20
350.16545012165489
 40
18
 41
0.5999999999999999
 50
0
  1
ブルー
  0
TEXT
  8
_0-7_枠細線
 62
    5
 10
1455.5999999999997
 20
320.16545012165489
 40
18
 41
0.5999999999999999
 50
0
  1
ダークグレー
  0
TEXT
  8
_0-7_枠細線
 62
    5
 10
1295.6999999999998
 20
470.16545012165471
 40
18
 41
0.5666666666666665
 50
0
  1
ＧＲＳＪ－２５Ｗ３０１－Ｂ
  0
TEXT
  8
_0-7_枠細線
 62
    5
 10
1295.7000000000003
 20
440.16545012165489
 40
18
 41
0.5666666666666665
 50
0
  1
ＧＲＳＪ－２５Ｗ３０１－Ｇ
  0
TEXT
  8
_0-7_枠細線
 62
    5
 10
1295.7000000000003
 20
410.165450121655
 40
18
 41
0.5666666666666665
 50
0
  1
ＧＲＳＪ－２５Ｗ３０１－Ｓ
  0
TEXT
  8
_0-7_枠細線
 62
    5
 10
1295.7000000000003
 20
380.16545012165489
 40
18
 41
0.5666666666666665
 50
0
  1
ＧＲＳＪ－２５Ｗ３０１－Ｐ
  0
TEXT
  8
_0-7_枠細線
 62
    5
 10
1295.7000000000003
 20
350.16545012165489
 40
18
 41
0.5666666666666665
 50
0
  1
ＧＲＳＪ－２５Ｗ３０１－Ａ
  0
TEXT
  8
_0-7_枠細線
 62
    5
 10
1295.7000000000003
 20
320.16545012165489
 40
18
 41
0.5666666666666665
 50
0
  1
ＧＲＳＪ－２５Ｗ３０１－Ｄ
  0
TEXT
  8
_0-7_枠細線
 62
    5
 10
1295.7000000000003
 20
290.16545012165477
 40
18
 41
0.5666666666666665
 50
0
  1
ＧＲＳＪ－２５Ｗ３０１－Ｍ
  0
TEXT
  8
_0-7_枠細線
 62
    5
 10
1471.8
 20
290.16545012165477
 40
18
 41
0.5999999999999999
 50
0
  1
ウッド
  0
LINE
  8
_0-7_枠細線
  6
CONTINUOUS
 62
    5
 10
1289.9999999999995
 20
224.16545012165429
 11
1650
 21
224.16545012165429
  0
TEXT
  8
_0-7_枠細線
 62
    5
 10
1466.4000000000008
 20
230.16545012165454
 40
18
 41
0.5999999999999999
 50
0
  1
ブラック
  0
TEXT
  8
_0-7_枠細線
 62
    5
 10
1295.7000000000003
 20
230.16545012165454
 40
18
 41
0.5666666666666665
 50
0
  1
ＧＲＳＪ－２５Ｗ３０１－Ｋ
  0
LINE
  8
_0-7_枠細線
  6
CONTINUOUS
 62
    5
 10
1434.0000000000002
 20
524.16545012165466
 11
1434.0000000000002
 21
224.16545012165437
  0
LINE
  8
_0-7_枠細線
  6
CONTINUOUS
 62
    5
 10
1541.9999999999995
 20
524.16545012165466
 11
1541.9999999999995
 21
224.16545012165437
  0
LINE
  8
_0-7_枠細線
  6
CONTINUOUS
 62
    5
 10
1650
 20
524.16545012165466
 11
1650
 21
224.16545012165437
  0
LINE
  8
_0-7_枠細線
  6
CONTINUOUS
 62
    5
 10
1289.9999999999995
 20
524.16545012165466
 11
1289.9999999999995
 21
224.16545012165437
  0
TEXT
  8
_0-7_枠細線
 62
    5
 10
1295.6999999999998
 20
260.16545012165477
 40
18
 41
0.5666666666666665
 50
0
  1
ＧＲＳＪ－２５Ｗ３０１－Ｃ
  0
TEXT
  8
_0-7_枠細線
 62
    5
 10
1466.4000000000001
 20
260.16545012165477
 40
18
 41
0.5999999999999999
 50
0
  1
ブラウン
  0
LINE
  8
_0-7_枠細線
  6
CONTINUOUS
 62
    5
 10
1710
 20
1131
 11
1068
 21
1131
  0
TEXT
  8
_0-7_枠細線
 62
    5
 10
1074
 20
1133.9999999999995
 40
15
 41
1
 50
0
  1
記号
  0
TEXT
  8
_0-7_枠細線
 62
    5
 10
1196.25
 20
1134
 40
15
 41
1
 50
0
  1
訂　 正　 記　 事
  0
TEXT
  8
_0-7_枠細線
 62
    5
 10
1417.5
 20
1134
 40
15
 41
1
 50
0
  1
訂 正 年 月 日
  0
TEXT
  8
_0-7_枠細線
 62
    5
 10
1567.5
 20
1134
 40
15
 41
1
 50
0
  1
備　　　　　考
  0
LINE
  8
_0-7_枠細線
  6
CONTINUOUS
 62
    5
 10
1710
 20
1110
 11
1068
 21
1110
  0
TEXT
  8
_0-7_枠細線
 62
    5
 10
1126.6204444444443
 20
1113
 40
15
 41
1
 50
0
  1
品番・色記号変更
  0
TEXT
  8
_0-7_枠細線
 62
    5
 10
1416
 20
1113
 40
15
 41
0.7199999999999999
 50
0
  1
２０１３．０３．１３
  0
LINE
  8
_0-7_枠細線
  6
CONTINUOUS
 62
    5
 10
1098
 20
1090.5
 11
1089
 21
1108.5
  0
LINE
  8
_0-7_枠細線
  6
CONTINUOUS
 62
    5
 10
1080
 20
1090.5
 11
1098
 21
1090.5
  0
LINE
  8
_0-7_枠細線
  6
CONTINUOUS
 62
    5
 10
1089
 20
1108.5
 11
1080
 21
1090.5
  0
TEXT
  8
_0-7_枠細線
 62
    5
 10
1082.8381815217776
 20
1090.1315973055432
 40
14.999999999999995
 41
0.8000000000000002
 50
0
  1
１
  0
LINE
  8
_0-7_枠細線
  6
CONTINUOUS
 62
    5
 10
942.20394545982163
 20
428.16545012165471
 11
942.20394545982163
 21
524.16545012165466
  0
TEXT
  8
_0-7_枠細線
 62
    5
 10
969.20394545982163
 20
497.16545012165471
 40
18
 41
1
 50
0
  1
耐荷重
  0
TEXT
  8
_0-7_枠細線
 62
    5
 10
960.20394545982163
 20
461.16545012165471
 40
18
 41
1
 50
0
  1
3.5kN/㎡
  0
TEXT
  8
_0-7_枠細線
 62
    5
 10
951.20394545982163
 20
437.16545012165471
 40
18
 41
1
 50
0
  1
（歩道用）
  0
LINE
  8
_0-7_枠細線
  6
CONTINUOUS
 62
    5
 10
1050.2039454598216
 20
428.16545012165471
 11
1050.2039454598216
 21
524.16545012165466
  0
TEXT
  8
_0-7_枠細線
 62
    5
 10
1077.2039454598216
 20
497.16545012165471
 40
18
 41
1
 50
0
  1
蓋重量
  0
LINE
  8
_0-7_枠細線
  6
CONTINUOUS
 62
    5
 10
1158.2039454598216
 20
428.16545012165471
 11
1158.2039454598216
 21
524.16545012165466
  0
TEXT
  8
_0-7_枠細線
 62
    5
 10
1185.2039454598216
 20
497.16545012165471
 40
18
 41
1
 50
0
  1
枠重量
  0
LINE
  8
_0-7_枠細線
  6
CONTINUOUS
 62
    5
 10
942.20394545982163
 20
488.16545012165471
 11
1266.2039454598216
 21
488.16545012165471
  0
LINE
  8
_0-7_枠細線
  6
CONTINUOUS
 62
    5
 10
942.20394545982163
 20
524.16545012165466
 11
1266.2039454598216
 21
524.16545012165466
  0
LINE
  8
_0-7_枠細線
  6
CONTINUOUS
 62
    5
 10
942.20394545982163
 20
428.16545012165471
 11
1266.2039454598216
 21
428.16545012165471
  0
LINE
  8
_0-7_枠細線
  6
CONTINUOUS
 62
    5
 10
1266.2039454598216
 20
428.16545012165471
 11
1266.2039454598216
 21
524.16545012165466
  0
LINE
  8
_0-7_枠細線
  6
CONTINUOUS
 62
    5
 10
1281.4734981572792
 20
259.85521383597302
 11
1272.4734981572792
 21
277.85521383597302
  0
LINE
  8
_0-7_枠細線
  6
CONTINUOUS
 62
    5
 10
1263.4734981572792
 20
259.85521383597302
 11
1281.4734981572792
 21
259.85521383597302
  0
LINE
  8
_0-7_枠細線
  6
CONTINUOUS
 62
    5
 10
1272.4734981572792
 20
277.85521383597302
 11
1263.4734981572792
 21
259.85521383597302
  0
TEXT
  8
_0-7_枠細線
 62
    5
 10
1266.3116796790571
 20
258.71662987815307
 40
14.999999999999995
 41
0.8000000000000002
 50
0
  1
３
  0
LINE
  8
_0-7_枠細線
  6
CONTINUOUS
 62
    5
 10
1709.9999999999993
 20
1089
 11
1068
 21
1089
  0
TEXT
  8
_0-7_枠細線
 62
    5
 10
1126.6204444444438
 20
1092
 40
15
 41
1
 50
0
  1
取外具形状変更
  0
TEXT
  8
_0-7_枠細線
 62
    5
 10
1416
 20
1092
 40
15
 41
0.7199999999999999
 50
0
  1
２０１５．１１．２０
  0
LINE
  8
_0-7_枠細線
  6
CONTINUOUS
 62
    5
 10
1710
 20
1068
 11
1067.9999999999995
 21
1068
  0
TEXT
  8
_0-7_枠細線
 62
    5
 10
1416
 20
1071
 40
15
 41
0.7199999999999999
 50
0
  1
２０１７．０４．０１
  0
LINE
  8
_0-7_枠細線
  6
CONTINUOUS
 62
    5
 10
1097.9999999999995
 20
1048.7308007660961
 11
1088.9999999999995
 21
1066.7308007660961
  0
LINE
  8
_0-7_枠細線
  6
CONTINUOUS
 62
    5
 10
1079.9999999999995
 20
1048.7308007660961
 11
1097.9999999999995
 21
1048.7308007660961
  0
LINE
  8
_0-7_枠細線
  6
CONTINUOUS
 62
    5
 10
1088.9999999999995
 20
1066.7308007660961
 11
1079.9999999999995
 21
1048.7308007660961
  0
TEXT
  8
_0-7_枠細線
 62
    5
 10
1416
 20
1050
 40
15
 41
0.7199999999999999
 50
0
  1
２０１７．０４．０１
  0
TEXT
  8
_0-7_枠細線
 62
    5
 10
1126.6204444444438
 20
1050
 40
15
 41
1
 50
0
  1
ブラウン色（Ｃ）追加
  0
LINE
  8
_0-7_枠細線
  6
CONTINUOUS
 62
    5
 10
1710
 20
1047
 11
1067.9999999999995
 21
1047
  0
LINE
  8
_0-7_枠細線
  6
CONTINUOUS
 62
    5
 10
1088.9999999999995
 20
1087.7308007660961
 11
1079.9999999999995
 21
1069.7308007660961
  0
LINE
  8
_0-7_枠細線
  6
CONTINUOUS
 62
    5
 10
1079.9999999999995
 20
1069.7308007660961
 11
1097.9999999999995
 21
1069.7308007660961
  0
LINE
  8
_0-7_枠細線
  6
CONTINUOUS
 62
    5
 10
1097.9999999999995
 20
1069.7308007660961
 11
1088.9999999999995
 21
1087.7308007660961
  0
TEXT
  8
_0-7_枠細線
 62
    5
 10
1126.6204444444438
 20
1071
 40
15
 41
1
 50
0
  1
取外具形状変更
  0
TEXT
  8
_0-7_枠細線
 62
    5
 10
1082.9825905086579
 20
1069.0735800978784
 40
14.999999999999995
 41
0.8000000000000002
 50
0
  1
２
  0
TEXT
  8
_0-7_枠細線
 62
    5
 10
1082.8381815217776
 20
1047.5922168082761
 40
14.999999999999995
 41
0.8000000000000002
 50
0
  1
３
  0
LINE
  8
_0-7_枠細線
  6
CONTINUOUS
 62
    5
 10
1098
 20
1027.7308007660961
 11
1089
 21
1045.7308007660961
  0
LINE
  8
_0-7_枠細線
  6
CONTINUOUS
 62
    5
 10
1080
 20
1027.7308007660961
 11
1098
 21
1027.7308007660961
  0
LINE
  8
_0-7_枠細線
  6
CONTINUOUS
 62
    5
 10
1089
 20
1045.7308007660961
 11
1080
 21
1027.7308007660961
  0
LINE
  8
_0-7_枠細線
  6
CONTINUOUS
 62
    5
 10
1710
 20
1026
 11
1068
 21
1026
  0
TEXT
  8
_0-7_枠細線
 62
    5
 10
1416
 20
1029
 40
15
 41
0.7199999999999999
 50
0
  1
２０１９．０９．０１
  0
TEXT
  8
_0-7_枠細線
 62
    5
 10
1082.8381815217776
 20
1026.5922168082761
 40
14.999999999999995
 41
0.8000000000000002
 50
0
  1
４
  0
LINE
  8
_0-9_枠極太
  6
CONTINUOUS
 62
    5
 10
72
 20
72
 11
72
 21
1152
  0
LINE
  8
_0-9_枠極太
  6
CONTINUOUS
 62
    5
 10
72
 20
1152
 11
1710
 21
1152
  0
LINE
  8
_0-9_枠極太
  6
CONTINUOUS
 62
    5
 10
1710
 20
1152
 11
1710
 21
72
  0
LINE
  8
_0-9_枠極太
  6
CONTINUOUS
 62
    5
 10
1710
 20
72
 11
72
 21
72
  0
TEXT
  8
_0-7_枠細線
 62
    5
 10
1126.6204444444443
 20
1029
 40
15
 41
1
 50
0
  1
アンカー材質･厚み変更
  0
LINE
  8
_0-7_枠細線
  6
CONTINUOUS
 62
    5
 10
1710
 20
1005
 11
1068
 21
1005
  0
TEXT
  8
_0-7_枠細線
 62
    5
 10
1126.6204444444443
 20
1008
 40
15
 41
1
 50
0
  1
取外具形状変更
  0
LINE
  8
_0-7_枠細線
  6
CONTINUOUS
 62
    5
 10
1089
 20
1024.7308007660961
 11
1080
 21
1006.7308007660961
  0
LINE
  8
_0-7_枠細線
  6
CONTINUOUS
 62
    5
 10
1080
 20
1006.7308007660961
 11
1098
 21
1006.7308007660961
  0
LINE
  8
_0-7_枠細線
  6
CONTINUOUS
 62
    5
 10
1098
 20
1006.7308007660961
 11
1089
 21
1024.7308007660961
  0
TEXT
  8
_0-7_枠細線
 62
    5
 10
1416
 20
1008
 40
15
 41
0.7199999999999999
 50
0
  1
２０２１．０５．０６
  0
TEXT
  8
_0-7_枠細線
 62
    5
 10
1082.8381815217776
 20
1006.3623980716396
 40
14.999999999999995
 41
0.8000000000000002
 50
0
  1
５
  0
LINE
  8
_0-7_枠細線
  6
CONTINUOUS
 62
    5
 10
1530
 20
1005
 11
1530
 21
1151.9999999999993
  0
LINE
  8
_0-7_枠細線
  6
CONTINUOUS
 62
    5
 10
1410
 20
1005
 11
1410
 21
1151.9999999999993
  0
LINE
  8
_0-7_枠細線
  6
CONTINUOUS
 62
    5
 10
1110
 20
1005
 11
1110
 21
1151.9999999999993
  0
LINE
  8
_0-7_枠細線
  6
CONTINUOUS
 62
    5
 10
1068
 20
1005
 11
1068
 21
1151.9999999999993
  0
ARC
  8
_0-a_極細3
  6
CONTINUOUS
 62
    7
 10
1209.864228144655
 20
310.02766360430729
 40
21.070607518177614
 50
150.03871396148165
 51
205.23810402387917
  0
ARC
  8
_0-a_極細3
  6
CONTINUOUS
 62
    7
 10
1171.7456579167774
 20
292.05945254915048
 40
21.070607518177614
 50
330.0387139614819
 51
25.238104023878019
  0
ARC
  8
_0-a_極細3
  6
CONTINUOUS
 62
    7
 10
1035.9604496186544
 20
310.02766360430729
 40
21.070607518177614
 50
150.03871396148165
 51
205.23810402387917
  0
ARC
  8
_0-a_極細3
  6
CONTINUOUS
 62
    7
 10
997.84187939077663
 20
292.05945254915048
 40
21.070607518177614
 50
330.0387139614819
 51
25.238104023878019
  0
LINE
  8
_0-a_極細3
  6
CENTER1
 62
    7
 10
1197.827464542127
 20
301.04355807672914
 11
1002.7332133886159
 21
301.04355807672914
  0
ARC
  8
_0-b_細線3
  6
CONTINUOUS
 62
    7
 10
1093.8689441559791
 20
319.84360259432913
 40
2
 50
89.999999999999915
 51
179.99999999999983
  0
ARC
  8
_0-b_細線3
  6
CONTINUOUS
 62
    7
 10
1094.8048425386337
 20
323.8436025943293
 40
2
 50
269.99999999999977
 51
330.0000000000046
  0
ARC
  8
_0-b_細線3
  6
CONTINUOUS
 62
    7
 10
1098.2689441537714
 20
321.84360259432947
 40
2
 50
89.999999999999915
 51
149.99999999999815
  0
LINE
  8
_0-b_細線3
  6
CONTINUOUS
 62
    7
 10
1093.8689441559791
 20
321.84360259432947
 11
1094.8048425386337
 21
321.84360259432947
  0
ARC
  8
_0-b_細線3
  6
CONTINUOUS
 62
    7
 10
1112.6689441515646
 20
319.84360259432913
 40
2
 50
0
 51
89.999999999999915
  0
ARC
  8
_0-b_細線3
  6
CONTINUOUS
 62
    7
 10
1111.7330457689095
 20
323.8436025943293
 40
2
 50
210.00000000000117
 51
269.99999999999977
  0
ARC
  8
_0-b_細線3
  6
CONTINUOUS
 62
    7
 10
1108.2689441537714
 20
321.84360259432947
 40
2
 50
29.999999999988827
 51
89.999999999973952
  0
LINE
  8
_0-b_細線3
  6
CONTINUOUS
 62
    7
 10
1112.6689441515646
 20
321.84360259432947
 11
1111.7330457689095
 21
321.84360259432947
  0
ARC
  8
_0-b_細線3
  6
CONTINUOUS
 62
    7
 10
1092.8689441559786
 20
317.04360259432946
 40
1
 50
179.99999999999983
 51
269.99999999999977
  0
LINE
  8
_0-b_細線3
  6
CONTINUOUS
 62
    7
 10
1091.8689441559786
 20
319.84360259432913
 11
1091.8689441559786
 21
317.04360259432946
  0
ARC
  8
_0-b_細線3
  6
CONTINUOUS
 62
    7
 10
1113.6689441515641
 20
317.04360259432946
 40
1
 50
269.99999999999977
 51
359.99999999999966
  0
LINE
  8
_0-b_細線3
  6
CONTINUOUS
 62
    7
 10
1114.6689441515646
 20
319.84360259432913
 11
1114.6689441515646
 21
317.04360259432946
  0
ARC
  8
_0-b_細線3
  6
CONTINUOUS
 62
    7
 10
1097.8689441559786
 20
314.04360259432946
 40
2
 50
0
 51
89.999999999999915
  0
LINE
  8
_0-b_細線3
  6
CONTINUOUS
 62
    7
 10
1097.8689441559786
 20
316.04360259432929
 11
1092.8689441559786
 21
316.04360259432929
  0
ARC
  8
_0-b_細線3
  6
CONTINUOUS
 62
    7
 10
1108.6689441559793
 20
314.04360259432946
 40
2
 50
89.999999999999915
 51
179.99999999999983
  0
LINE
  8
_0-b_細線3
  6
CONTINUOUS
 62
    7
 10
1108.6689441515646
 20
316.04360259432929
 11
1113.6689441515641
 21
316.04360259432929
  0
LINE
  8
_0-b_細線3
  6
CONTINUOUS
 62
    7
 10
1108.2689441537714
 20
323.8436025943293
 11
1098.2689441537714
 21
323.8436025943293
  0
LINE
  8
_0-b_細線3
  6
CONTINUOUS
 62
    7
 10
1099.8689441537717
 20
273.84360259432947
 11
1099.8689441559791
 21
314.04360259432946
  0
LINE
  8
_0-b_細線3
  6
CONTINUOUS
 62
    7
 10
1106.6689441537715
 20
273.84360259432947
 11
1106.6689441559793
 21
314.04360259432946
  0
LINE
  8
_0-b_細線3
  6
CONTINUOUS
 62
    7
 10
1106.6689441537715
 20
273.84360259432947
 11
1099.8689441537717
 21
273.84360259432947
  0
ARC
  8
_0-b_細線3
  6
CONTINUOUS
 62
    7
 10
1128.6689441567023
 20
319.84360259432913
 40
2
 50
89.999999999999915
 51
179.99999999999983
  0
ARC
  8
_0-b_細線3
  6
CONTINUOUS
 62
    7
 10
1129.6048425393574
 20
323.8436025943293
 40
2
 50
269.99999999999977
 51
329.99999999999159
  0
ARC
  8
_0-b_細線3
  6
CONTINUOUS
 62
    7
 10
1133.0689441544951
 20
321.84360259432947
 40
2
 50
89.999999999999915
 51
150.00000000001117
  0
LINE
  8
_0-b_細線3
  6
CONTINUOUS
 62
    7
 10
1128.6689441567023
 20
321.84360259432947
 11
1129.6048425393574
 21
321.84360259432947
  0
ARC
  8
_0-b_細線3
  6
CONTINUOUS
 62
    7
 10
1147.4689441522883
 20
319.84360259432913
 40
2
 50
0
 51
89.999999999999915
  0
ARC
  8
_0-b_細線3
  6
CONTINUOUS
 62
    7
 10
1146.5330457696327
 20
323.8436025943293
 40
2
 50
210.00000000000117
 51
269.99999999999977
  0
ARC
  8
_0-b_細線3
  6
CONTINUOUS
 62
    7
 10
1143.0689441544951
 20
321.84360259432947
 40
2
 50
29.999999999995342
 51
89.999999999999901
  0
LINE
  8
_0-b_細線3
  6
CONTINUOUS
 62
    7
 10
1147.4689441522883
 20
321.84360259432947
 11
1146.5330457696327
 21
321.84360259432947
  0
ARC
  8
_0-b_細線3
  6
CONTINUOUS
 62
    7
 10
1127.6689441567028
 20
317.04360259432946
 40
1
 50
179.99999999999983
 51
269.99999999999977
  0
LINE
  8
_0-b_細線3
  6
CONTINUOUS
 62
    7
 10
1126.6689441567023
 20
319.84360259432913
 11
1126.6689441567023
 21
317.04360259432946
  0
ARC
  8
_0-b_細線3
  6
CONTINUOUS
 62
    7
 10
1148.4689441522878
 20
317.04360259432946
 40
1
 50
269.99999999999977
 51
359.99999999999966
  0
LINE
  8
_0-b_細線3
  6
CONTINUOUS
 62
    7
 10
1149.4689441522878
 20
319.84360259432913
 11
1149.4689441522878
 21
317.04360259432946
  0
ARC
  8
_0-b_細線3
  6
CONTINUOUS
 62
    7
 10
1132.6689441567023
 20
314.04360259432946
 40
2
 50
0
 51
89.999999999999915
  0
LINE
  8
_0-b_細線3
  6
CONTINUOUS
 62
    7
 10
1132.6689441567023
 20
316.04360259432929
 11
1127.6689441567028
 21
316.04360259432929
  0
ARC
  8
_0-b_細線3
  6
CONTINUOUS
 62
    7
 10
1143.4689441567025
 20
314.04360259432946
 40
2
 50
89.999999999999915
 51
179.99999999999983
  0
LINE
  8
_0-b_細線3
  6
CONTINUOUS
 62
    7
 10
1143.4689441522878
 20
316.04360259432929
 11
1148.4689441522878
 21
316.04360259432929
  0
LINE
  8
_0-b_細線3
  6
CONTINUOUS
 62
    7
 10
1143.0689441544951
 20
323.8436025943293
 11
1133.0689441544951
 21
323.8436025943293
  0
LINE
  8
_0-b_細線3
  6
CONTINUOUS
 62
    7
 10
1134.668944154495
 20
273.84360259432947
 11
1134.6689441567023
 21
314.04360259432946
  0
LINE
  8
_0-b_細線3
  6
CONTINUOUS
 62
    7
 10
1141.4689441544951
 20
273.84360259432947
 11
1141.4689441567029
 21
314.04360259432946
  0
LINE
  8
_0-b_細線3
  6
CONTINUOUS
 62
    7
 10
1141.4689441544951
 20
273.84360259432947
 11
1134.668944154495
 21
273.84360259432947
  0
ARC
  8
_0-b_細線3
  6
CONTINUOUS
 62
    7
 10
1163.468944157426
 20
319.84360259432913
 40
2
 50
89.999999999999915
 51
179.99999999999983
  0
ARC
  8
_0-b_細線3
  6
CONTINUOUS
 62
    7
 10
1164.4048425400806
 20
323.8436025943293
 40
2
 50
269.99999999999977
 51
329.99999999999812
  0
ARC
  8
_0-b_細線3
  6
CONTINUOUS
 62
    7
 10
1167.8689441552187
 20
321.84360259432947
 40
2
 50
89.999999999999915
 51
150.00000000001117
  0
LINE
  8
_0-b_細線3
  6
CONTINUOUS
 62
    7
 10
1163.468944157426
 20
321.84360259432947
 11
1164.4048425400806
 21
321.84360259432947
  0
ARC
  8
_0-b_細線3
  6
CONTINUOUS
 62
    7
 10
1182.2689441530119
 20
319.84360259432913
 40
2
 50
0
 51
89.999999999999915
  0
ARC
  8
_0-b_細線3
  6
CONTINUOUS
 62
    7
 10
1181.3330457703564
 20
323.8436025943293
 40
2
 50
210.00000000000767
 51
269.99999999999977
  0
ARC
  8
_0-b_細線3
  6
CONTINUOUS
 62
    7
 10
1177.8689441552187
 20
321.84360259432947
 40
2
 50
29.999999999988827
 51
89.999999999986969
  0
LINE
  8
_0-b_細線3
  6
CONTINUOUS
 62
    7
 10
1182.2689441530119
 20
321.84360259432947
 11
1181.3330457703564
 21
321.84360259432947
  0
ARC
  8
_0-b_細線3
  6
CONTINUOUS
 62
    7
 10
1162.468944157426
 20
317.04360259432946
 40
1
 50
179.99999999999983
 51
269.99999999999977
  0
LINE
  8
_0-b_細線3
  6
CONTINUOUS
 62
    7
 10
1161.4689441574255
 20
319.84360259432913
 11
1161.4689441574255
 21
317.04360259432946
  0
ARC
  8
_0-b_細線3
  6
CONTINUOUS
 62
    7
 10
1183.2689441530115
 20
317.04360259432946
 40
1
 50
269.99999999999977
 51
359.99999999999966
  0
LINE
  8
_0-b_細線3
  6
CONTINUOUS
 62
    7
 10
1184.2689441530115
 20
319.84360259432913
 11
1184.2689441530115
 21
317.04360259432946
  0
ARC
  8
_0-b_細線3
  6
CONTINUOUS
 62
    7
 10
1167.4689441574255
 20
314.04360259432946
 40
2
 50
0
 51
89.999999999999915
  0
LINE
  8
_0-b_細線3
  6
CONTINUOUS
 62
    7
 10
1167.4689441574255
 20
316.04360259432929
 11
1162.468944157426
 21
316.04360259432929
  0
ARC
  8
_0-b_細線3
  6
CONTINUOUS
 62
    7
 10
1178.2689441574257
 20
314.04360259432946
 40
2
 50
89.999999999999915
 51
179.99999999999983
  0
LINE
  8
_0-b_細線3
  6
CONTINUOUS
 62
    7
 10
1178.268944153011
 20
316.04360259432929
 11
1183.2689441530115
 21
316.04360259432929
  0
LINE
  8
_0-b_細線3
  6
CONTINUOUS
 62
    7
 10
1177.8689441552187
 20
323.8436025943293
 11
1167.8689441552187
 21
323.8436025943293
  0
LINE
  8
_0-b_細線3
  6
CONTINUOUS
 62
    7
 10
1169.4689441552187
 20
273.84360259432947
 11
1169.468944157426
 21
314.04360259432946
  0
LINE
  8
_0-b_細線3
  6
CONTINUOUS
 62
    7
 10
1176.2689441552184
 20
273.84360259432947
 11
1176.2689441574266
 21
314.04360259432946
  0
LINE
  8
_0-b_細線3
  6
CONTINUOUS
 62
    7
 10
1176.2689441552184
 20
273.84360259432947
 11
1169.4689441552187
 21
273.84360259432947
  0
ARC
  8
_0-b_細線3
  6
CONTINUOUS
 62
    7
 10
1024.2689441541515
 20
319.84360259432913
 40
2
 50
89.999999999999915
 51
179.99999999999983
  0
ARC
  8
_0-b_細線3
  6
CONTINUOUS
 62
    7
 10
1025.2048425368062
 20
323.8436025943293
 40
2
 50
269.99999999999977
 51
330.0000000000046
  0
ARC
  8
_0-b_細線3
  6
CONTINUOUS
 62
    7
 10
1028.6689441519438
 20
321.84360259432947
 40
2
 50
89.999999999999915
 51
149.99999999999815
  0
LINE
  8
_0-b_細線3
  6
CONTINUOUS
 62
    7
 10
1024.2689441541515
 20
321.84360259432947
 11
1025.2048425368062
 21
321.84360259432947
  0
ARC
  8
_0-b_細線3
  6
CONTINUOUS
 62
    7
 10
1043.068944149737
 20
319.84360259432913
 40
2
 50
0
 51
89.999999999999915
  0
ARC
  8
_0-b_細線3
  6
CONTINUOUS
 62
    7
 10
1042.1330457670824
 20
323.8436025943293
 40
2
 50
209.99999999999466
 51
269.99999999999977
  0
ARC
  8
_0-b_細線3
  6
CONTINUOUS
 62
    7
 10
1038.6689441519441
 20
321.84360259432947
 40
2
 50
29.999999999992085
 51
89.99999999998046
  0
LINE
  8
_0-b_細線3
  6
CONTINUOUS
 62
    7
 10
1043.068944149737
 20
321.84360259432947
 11
1042.1330457670824
 21
321.84360259432947
  0
ARC
  8
_0-b_細線3
  6
CONTINUOUS
 62
    7
 10
1023.2689441541518
 20
317.04360259432946
 40
1
 50
179.99999999999983
 51
269.99999999999977
  0
LINE
  8
_0-b_細線3
  6
CONTINUOUS
 62
    7
 10
1022.2689441541511
 20
319.84360259432913
 11
1022.2689441541511
 21
317.04360259432946
  0
ARC
  8
_0-b_細線3
  6
CONTINUOUS
 62
    7
 10
1044.0689441497366
 20
317.04360259432946
 40
1
 50
269.99999999999977
 51
359.99999999999966
  0
LINE
  8
_0-b_細線3
  6
CONTINUOUS
 62
    7
 10
1045.0689441497375
 20
319.84360259432913
 11
1045.0689441497375
 21
317.04360259432946
  0
ARC
  8
_0-b_細線3
  6
CONTINUOUS
 62
    7
 10
1028.2689441541511
 20
314.04360259432946
 40
2
 50
0
 51
89.999999999999915
  0
LINE
  8
_0-b_細線3
  6
CONTINUOUS
 62
    7
 10
1028.2689441541511
 20
316.04360259432929
 11
1023.2689441541518
 21
316.04360259432929
  0
ARC
  8
_0-b_細線3
  6
CONTINUOUS
 62
    7
 10
1039.0689441541517
 20
314.04360259432946
 40
2
 50
89.999999999999915
 51
179.99999999999983
  0
LINE
  8
_0-b_細線3
  6
CONTINUOUS
 62
    7
 10
1039.068944149737
 20
316.04360259432929
 11
1044.0689441497366
 21
316.04360259432929
  0
LINE
  8
_0-b_細線3
  6
CONTINUOUS
 62
    7
 10
1038.6689441519441
 20
323.8436025943293
 11
1028.6689441519438
 21
323.8436025943293
  0
LINE
  8
_0-b_細線3
  6
CONTINUOUS
 62
    7
 10
1030.2689441519447
 20
273.84360259432947
 11
1030.2689441541515
 21
314.04360259432946
  0
LINE
  8
_0-b_細線3
  6
CONTINUOUS
 62
    7
 10
1037.0689441519439
 20
273.84360259432947
 11
1037.0689441541517
 21
314.04360259432946
  0
LINE
  8
_0-b_細線3
  6
CONTINUOUS
 62
    7
 10
1037.0689441519439
 20
273.84360259432947
 11
1030.2689441519447
 21
273.84360259432947
  0
ARC
  8
_0-b_細線3
  6
CONTINUOUS
 62
    7
 10
1059.0689441548748
 20
319.84360259432913
 40
2
 50
89.999999999999915
 51
179.99999999999983
  0
ARC
  8
_0-b_細線3
  6
CONTINUOUS
 62
    7
 10
1060.0048425375303
 20
323.8436025943293
 40
2
 50
269.99999999999977
 51
329.99999999998505
  0
ARC
  8
_0-b_細線3
  6
CONTINUOUS
 62
    7
 10
1063.4689441526675
 20
321.84360259432947
 40
2
 50
89.999999999999915
 51
150.00000000001117
  0
LINE
  8
_0-b_細線3
  6
CONTINUOUS
 62
    7
 10
1059.0689441548748
 20
321.84360259432947
 11
1060.0048425375303
 21
321.84360259432947
  0
ARC
  8
_0-b_細線3
  6
CONTINUOUS
 62
    7
 10
1077.8689441504607
 20
319.84360259432913
 40
2
 50
0
 51
89.999999999999915
  0
ARC
  8
_0-b_細線3
  6
CONTINUOUS
 62
    7
 10
1076.9330457678052
 20
323.8436025943293
 40
2
 50
210.00000000000767
 51
269.99999999999977
  0
ARC
  8
_0-b_細線3
  6
CONTINUOUS
 62
    7
 10
1073.468944152668
 20
321.84360259432947
 40
2
 50
29.999999999995342
 51
89.999999999999901
  0
LINE
  8
_0-b_細線3
  6
CONTINUOUS
 62
    7
 10
1077.8689441504607
 20
321.84360259432947
 11
1076.9330457678052
 21
321.84360259432947
  0
ARC
  8
_0-b_細線3
  6
CONTINUOUS
 62
    7
 10
1058.0689441548752
 20
317.04360259432946
 40
1
 50
179.99999999999983
 51
269.99999999999977
  0
LINE
  8
_0-b_細線3
  6
CONTINUOUS
 62
    7
 10
1057.0689441548752
 20
319.84360259432913
 11
1057.0689441548752
 21
317.04360259432946
  0
ARC
  8
_0-b_細線3
  6
CONTINUOUS
 62
    7
 10
1078.8689441504603
 20
317.04360259432946
 40
1
 50
269.99999999999977
 51
359.99999999999966
  0
LINE
  8
_0-b_細線3
  6
CONTINUOUS
 62
    7
 10
1079.8689441504603
 20
319.84360259432913
 11
1079.8689441504603
 21
317.04360259432946
  0
ARC
  8
_0-b_細線3
  6
CONTINUOUS
 62
    7
 10
1063.0689441548752
 20
314.04360259432946
 40
2
 50
0
 51
89.999999999999915
  0
LINE
  8
_0-b_細線3
  6
CONTINUOUS
 62
    7
 10
1063.0689441548752
 20
316.04360259432929
 11
1058.0689441548752
 21
316.04360259432929
  0
ARC
  8
_0-b_細線3
  6
CONTINUOUS
 62
    7
 10
1073.868944154875
 20
314.04360259432946
 40
2
 50
89.999999999999915
 51
179.99999999999983
  0
LINE
  8
_0-b_細線3
  6
CONTINUOUS
 62
    7
 10
1073.8689441504603
 20
316.04360259432929
 11
1078.8689441504603
 21
316.04360259432929
  0
LINE
  8
_0-b_細線3
  6
CONTINUOUS
 62
    7
 10
1073.468944152668
 20
323.8436025943293
 11
1063.4689441526675
 21
323.8436025943293
  0
LINE
  8
_0-b_細線3
  6
CONTINUOUS
 62
    7
 10
1065.0689441526674
 20
273.84360259432947
 11
1065.0689441548748
 21
314.04360259432946
  0
LINE
  8
_0-b_細線3
  6
CONTINUOUS
 62
    7
 10
1071.8689441526681
 20
273.84360259432947
 11
1071.8689441548754
 21
314.04360259432946
  0
LINE
  8
_0-b_細線3
  6
CONTINUOUS
 62
    7
 10
1071.8689441526681
 20
273.84360259432947
 11
1065.0689441526674
 21
273.84360259432947
  0
LINE
  8
_0-d_寸法3
  6
CONTINUOUS
 62
    7
 10
1182.6987686870657
 20
280.72651983054197
 11
1225.1215787578888
 21
310.43129123417089
  0
LINE
  8
_0-d_寸法3
  6
CONTINUOUS
 62
    7
 10
1220.2066664921549
 20
306.98983261606469
 11
1217.1008379509244
 21
318.58094253153354
  0
LINE
  8
_0-d_寸法3
  6
CONTINUOUS
 62
    7
 10
1220.2066664921549
 20
306.98983261606469
 11
1223.3124950333852
 21
318.58094253153348
  0
LINE
  8
_0-d_寸法3
  6
CONTINUOUS
 62
    7
 10
1182.6987686870657
 20
330.72651983054186
 11
1225.1215787578888
 21
360.43129123417077
  0
LINE
  8
_0-d_寸法3
  6
CONTINUOUS
 62
    7
 10
1220.2066664921549
 20
356.98983261606452
 11
1223.3124950333852
 21
345.39872270059561
  0
LINE
  8
_0-d_寸法3
  6
CONTINUOUS
 62
    7
 10
1220.2066664921549
 20
356.98983261606452
 11
1217.1008379509244
 21
345.39872270059573
  0
LINE
  8
_0-d_寸法3
  6
CONTINUOUS
 62
    7
 10
1220.2066664921549
 20
306.98983261606469
 11
1220.2066664921549
 21
356.98983261606452
  0
TEXT
  8
_0-d_寸法3
 62
    7
 10
1220.2066664921549
 20
322.98983261606594
 40
18
 41
1
 50
90
  1
25
  0
LINE
  8
_0-b_細線3
  6
CONTINUOUS
 62
    7
 10
1106.6689441548751
 20
288.04355807672897
 11
1134.6689441548756
 21
288.04355807672897
  0
LINE
  8
_0-b_細線3
  6
CONTINUOUS
 62
    7
 10
1141.4689441555988
 20
288.04355807672897
 11
1169.4689441555993
 21
288.04355807672897
  0
LINE
  8
_0-b_細線3
  6
CONTINUOUS
 62
    7
 10
1037.0689441530478
 20
288.04355807672897
 11
1065.0689441530481
 21
288.04355807672897
  0
LINE
  8
_0-b_細線3
  6
CONTINUOUS
 62
    7
 10
1071.8689441537717
 20
288.04355807672897
 11
1099.8689441537717
 21
288.04355807672897
  0
LINE
  8
_0-b_細線3
  6
CONTINUOUS
 62
    7
 10
1106.6689441548751
 20
314.04355807672931
 11
1134.6689441548756
 21
314.04355807672931
  0
LINE
  8
_0-b_細線3
  6
CONTINUOUS
 62
    7
 10
1141.4689441555988
 20
314.04355807672931
 11
1169.4689441555993
 21
314.04355807672931
  0
LINE
  8
_0-b_細線3
  6
CONTINUOUS
 62
    7
 10
1037.0689441530478
 20
314.04355807672931
 11
1065.0689441530481
 21
314.04355807672931
  0
LINE
  8
_0-b_細線3
  6
CONTINUOUS
 62
    7
 10
1071.8689441537717
 20
314.04355807672931
 11
1099.8689441537717
 21
314.04355807672931
  0
LINE
  8
_0-b_細線3
  6
CONTINUOUS
 62
    7
 10
1176.2689441563225
 20
314.04355807672931
 11
1189.1798598252826
 21
314.04355807672931
  0
LINE
  8
_0-b_細線3
  6
CONTINUOUS
 62
    7
 10
1176.2689441563225
 20
288.04355807672897
 11
1192.4300262361498
 21
288.04355807672897
  0
LINE
  8
_0-b_細線3
  6
CONTINUOUS
 62
    7
 10
1015.2760812992818
 20
314.04355807672931
 11
1030.2689441523244
 21
314.04355807672931
  0
LINE
  8
_0-b_細線3
  6
CONTINUOUS
 62
    7
 10
1018.5262477101492
 20
288.04355807672897
 11
1030.2689441523244
 21
288.04355807672897
  0
LINE
  8
_0-d_寸法3
  6
CONTINUOUS
 62
    7
 10
1045.0689441497375
 20
335.8436025943293
 11
1045.0689441497377
 21
389.84360259432924
  0
LINE
  8
_0-d_寸法3
  6
CONTINUOUS
 62
    7
 10
1045.0689441497377
 20
383.8436025943293
 11
1033.4778342342688
 21
380.73777405309909
  0
LINE
  8
_0-d_寸法3
  6
CONTINUOUS
 62
    7
 10
1045.0689441497377
 20
383.8436025943293
 11
1033.4778342342688
 21
386.94943113555956
  0
LINE
  8
_0-d_寸法3
  6
CONTINUOUS
 62
    7
 10
1057.0689441548752
 20
335.8436025943293
 11
1057.0689441548755
 21
389.84360259432924
  0
LINE
  8
_0-d_寸法3
  6
CONTINUOUS
 62
    7
 10
1015.8201973299369
 20
383.8436025943293
 11
1057.0689441548755
 21
383.8436025943293
  0
TEXT
  8
_0-d_寸法3
 62
    7
 10
1015.8201973299369
 20
365.8436025943293
 40
18
 41
1
 50
0
  1
(6)
  0
LINE
  8
_0-d_寸法3
  6
CONTINUOUS
 62
    7
 10
1057.0689441548755
 20
383.8436025943293
 11
1068.6600540703444
 21
386.94943113555956
  0
LINE
  8
_0-d_寸法3
  6
CONTINUOUS
 62
    7
 10
1057.0689441548755
 20
383.8436025943293
 11
1068.6600540703444
 21
380.73777405309897
  0
LINE
  8
_0-d_寸法3
  6
CONTINUOUS
 62
    7
 10
1079.8689441504603
 20
335.8436025943293
 11
1079.8689441504605
 21
389.84360259432924
  0
LINE
  8
_0-d_寸法3
  6
CONTINUOUS
 62
    7
 10
1079.8689441504605
 20
383.8436025943293
 11
1068.2778342349916
 21
380.73777405309909
  0
LINE
  8
_0-d_寸法3
  6
CONTINUOUS
 62
    7
 10
1079.8689441504605
 20
383.8436025943293
 11
1068.2778342349916
 21
386.94943113555956
  0
LINE
  8
_0-d_寸法3
  6
CONTINUOUS
 62
    7
 10
1057.0689441548755
 20
383.8436025943293
 11
1079.8689441504605
 21
383.8436025943293
  0
TEXT
  8
_0-d_寸法3
 62
    7
 10
1045.9513084410478
 20
383.8436025943293
 40
18
 41
1
 50
0
  1
11.4
  0
TEXT
  8
_0-7_枠細線
 62
    5
 10
1432.8
 20
141
 40
24
 41
0.6999999999999999
 50
0
  1
１：６
  0
LINE
  8
_0-0_計極細
  6
CENTER2
 62
    2
 10
360.20733801912945
 20
739.61003832546248
 11
1391.1406713525066
 21
739.61003832546248
  0
LINE
  8
_0-0_計極細
  6
CONTINUOUS
 62
    2
 10
1346.6959375561496
 20
733.11003832546203
 11
1341.0959375561492
 21
733.11003832546203
  0
LINE
  8
_0-0_計極細
  6
CONTINUOUS
 62
    2
 10
1346.6959375561496
 20
746.11003832546226
 11
1341.0959375561492
 21
746.11003832546226
  0
LINE
  8
_0-0_計極細
  6
CONTINUOUS
 62
    2
 10
1329.6959375561487
 20
733.11003832546248
 11
1324.0959375561483
 21
733.11003832546248
  0
LINE
  8
_0-0_計極細
  6
CONTINUOUS
 62
    2
 10
1329.6959375561487
 20
746.11003832546226
 11
1324.0959375561483
 21
746.11003832546226
  0
LINE
  8
_0-0_計極細
  6
CONTINUOUS
 62
    2
 10
1307.0959375561524
 20
733.11003832546248
 11
1312.6959375561523
 21
733.11003832546248
  0
LINE
  8
_0-0_計極細
  6
CONTINUOUS
 62
    2
 10
1307.0959375561524
 20
746.11003832546226
 11
1312.6959375561523
 21
746.11003832546226
  0
LINE
  8
_0-0_計極細
  6
CONTINUOUS
 62
    2
 10
1290.095937556152
 20
733.11003832546203
 11
1295.6959375561519
 21
733.11003832546203
  0
LINE
  8
_0-0_計極細
  6
CONTINUOUS
 62
    2
 10
1290.095937556152
 20
746.11003832546226
 11
1295.6959375561519
 21
746.11003832546226
  0
LINE
  8
_0-0_計極細
  6
CONTINUOUS
 62
    2
 10
1273.0959375561515
 20
733.11003832546203
 11
1278.6959375561514
 21
733.11003832546203
  0
LINE
  8
_0-0_計極細
  6
CONTINUOUS
 62
    2
 10
1273.0959375561515
 20
746.11003832546226
 11
1278.6959375561514
 21
746.11003832546226
  0
LINE
  8
_0-0_計極細
  6
CONTINUOUS
 62
    2
 10
1256.0959375561501
 20
733.11003832546248
 11
1261.695937556151
 21
733.11003832546248
  0
LINE
  8
_0-0_計極細
  6
CONTINUOUS
 62
    2
 10
1256.0959375561501
 20
746.11003832546226
 11
1261.695937556151
 21
746.11003832546226
  0
LINE
  8
_0-0_計極細
  6
CONTINUOUS
 62
    2
 10
1227.6959375561501
 20
733.11003832546203
 11
1222.0959375561497
 21
733.11003832546203
  0
LINE
  8
_0-0_計極細
  6
CONTINUOUS
 62
    2
 10
1227.6959375561501
 20
746.11003832546226
 11
1222.0959375561497
 21
746.11003832546226
  0
LINE
  8
_0-0_計極細
  6
CONTINUOUS
 62
    2
 10
1363.6959375561514
 20
733.11003832546203
 11
1358.0959375561511
 21
733.11003832546203
  0
LINE
  8
_0-0_計極細
  6
CONTINUOUS
 62
    2
 10
1363.6959375561514
 20
746.11003832546226
 11
1358.0959375561511
 21
746.11003832546226
  0
LINE
  8
_0-0_計極細
  6
CONTINUOUS
 62
    2
 10
1210.6959375561501
 20
733.11003832546203
 11
1205.0959375561501
 21
733.11003832546203
  0
LINE
  8
_0-0_計極細
  6
CONTINUOUS
 62
    2
 10
1210.6959375561501
 20
746.11003832546226
 11
1205.0959375561501
 21
746.11003832546226
  0
LINE
  8
_0-0_計極細
  6
CONTINUOUS
 62
    2
 10
1193.6959375561501
 20
733.11003832546203
 11
1188.0959375561501
 21
733.11003832546203
  0
LINE
  8
_0-0_計極細
  6
CONTINUOUS
 62
    2
 10
1193.6959375561501
 20
746.11003832546226
 11
1188.0959375561501
 21
746.11003832546226
  0
LINE
  8
_0-0_計極細
  6
CONTINUOUS
 62
    2
 10
1176.6959375561501
 20
733.11003832546203
 11
1171.0959375561501
 21
733.11003832546203
  0
LINE
  8
_0-0_計極細
  6
CONTINUOUS
 62
    2
 10
1176.6959375561501
 20
746.11003832546226
 11
1171.0959375561501
 21
746.11003832546226
  0
LINE
  8
_0-0_計極細
  6
CONTINUOUS
 62
    2
 10
1159.6959375561501
 20
733.11003832546203
 11
1154.0959375561501
 21
733.11003832546203
  0
LINE
  8
_0-0_計極細
  6
CONTINUOUS
 62
    2
 10
1159.6959375561501
 20
746.11003832546226
 11
1154.0959375561501
 21
746.11003832546226
  0
LINE
  8
_0-0_計極細
  6
CONTINUOUS
 62
    2
 10
1142.6959375561501
 20
733.11003832546203
 11
1137.0959375561501
 21
733.11003832546203
  0
LINE
  8
_0-0_計極細
  6
CONTINUOUS
 62
    2
 10
1142.6959375561501
 20
746.11003832546226
 11
1137.0959375561501
 21
746.11003832546226
  0
LINE
  8
_0-0_計極細
  6
CONTINUOUS
 62
    2
 10
1125.6959375561501
 20
733.11003832546203
 11
1120.0959375561501
 21
733.11003832546203
  0
LINE
  8
_0-0_計極細
  6
CONTINUOUS
 62
    2
 10
1125.6959375561501
 20
746.11003832546226
 11
1120.0959375561501
 21
746.11003832546226
  0
LINE
  8
_0-0_計極細
  6
CONTINUOUS
 62
    2
 10
1108.6959375561501
 20
733.11003832546203
 11
1103.0959375561501
 21
733.11003832546203
  0
LINE
  8
_0-0_計極細
  6
CONTINUOUS
 62
    2
 10
1108.6959375561501
 20
746.11003832546226
 11
1103.0959375561501
 21
746.11003832546226
  0
LINE
  8
_0-0_計極細
  6
CONTINUOUS
 62
    2
 10
1091.6959375561501
 20
733.11003832546203
 11
1086.0959375561501
 21
733.11003832546203
  0
LINE
  8
_0-0_計極細
  6
CONTINUOUS
 62
    2
 10
1091.6959375561501
 20
746.11003832546226
 11
1086.0959375561501
 21
746.11003832546226
  0
LINE
  8
_0-0_計極細
  6
CONTINUOUS
 62
    2
 10
1074.6959375561501
 20
733.11003832546203
 11
1069.0959375561501
 21
733.11003832546203
  0
LINE
  8
_0-0_計極細
  6
CONTINUOUS
 62
    2
 10
1074.6959375561501
 20
746.11003832546226
 11
1069.0959375561501
 21
746.11003832546226
  0
LINE
  8
_0-0_計極細
  6
CONTINUOUS
 62
    2
 10
1057.6959375561501
 20
733.11003832546203
 11
1052.0959375561501
 21
733.11003832546203
  0
LINE
  8
_0-0_計極細
  6
CONTINUOUS
 62
    2
 10
1057.6959375561501
 20
746.11003832546226
 11
1052.0959375561501
 21
746.11003832546226
  0
LINE
  8
_0-0_計極細
  6
CONTINUOUS
 62
    2
 10
1040.6959375561501
 20
733.11003832546203
 11
1035.0959375561501
 21
733.11003832546203
  0
LINE
  8
_0-0_計極細
  6
CONTINUOUS
 62
    2
 10
1040.6959375561501
 20
746.11003832546226
 11
1035.0959375561501
 21
746.11003832546226
  0
LINE
  8
_0-0_計極細
  6
CONTINUOUS
 62
    2
 10
1023.6959375561501
 20
733.11003832546203
 11
1018.09593755615
 21
733.11003832546203
  0
LINE
  8
_0-0_計極細
  6
CONTINUOUS
 62
    2
 10
1023.6959375561501
 20
746.11003832546226
 11
1018.09593755615
 21
746.11003832546226
  0
LINE
  8
_0-0_計極細
  6
CONTINUOUS
 62
    2
 10
1006.6959375561502
 20
733.11003832546203
 11
1001.0959375561499
 21
733.11003832546203
  0
LINE
  8
_0-0_計極細
  6
CONTINUOUS
 62
    2
 10
1006.6959375561502
 20
746.11003832546226
 11
1001.0959375561499
 21
746.11003832546226
  0
LINE
  8
_0-0_計極細
  6
CONTINUOUS
 62
    2
 10
989.69593755615006
 20
733.11003832546203
 11
984.09593755614992
 21
733.11003832546203
  0
LINE
  8
_0-0_計極細
  6
CONTINUOUS
 62
    2
 10
989.69593755615006
 20
746.11003832546226
 11
984.09593755614992
 21
746.11003832546226
  0
LINE
  8
_0-0_計極細
  6
CONTINUOUS
 62
    2
 10
972.69593755615006
 20
733.11003832546203
 11
967.09593755615003
 21
733.11003832546203
  0
LINE
  8
_0-0_計極細
  6
CONTINUOUS
 62
    2
 10
972.69593755615006
 20
746.11003832546226
 11
967.09593755615003
 21
746.11003832546226
  0
LINE
  8
_0-0_計極細
  6
CONTINUOUS
 62
    2
 10
955.69593755615017
 20
733.11003832546203
 11
950.09593755614992
 21
733.11003832546203
  0
LINE
  8
_0-0_計極細
  6
CONTINUOUS
 62
    2
 10
955.69593755615017
 20
746.11003832546226
 11
950.09593755614992
 21
746.11003832546226
  0
LINE
  8
_0-0_計極細
  6
CONTINUOUS
 62
    2
 10
938.69593755615006
 20
733.11003832546203
 11
933.09593755614992
 21
733.11003832546203
  0
LINE
  8
_0-0_計極細
  6
CONTINUOUS
 62
    2
 10
938.69593755615006
 20
746.11003832546226
 11
933.09593755614992
 21
746.11003832546226
  0
LINE
  8
_0-0_計極細
  6
CONTINUOUS
 62
    2
 10
921.69593755615006
 20
733.11003832546203
 11
916.09593755615003
 21
733.11003832546203
  0
LINE
  8
_0-0_計極細
  6
CONTINUOUS
 62
    2
 10
921.69593755615006
 20
746.11003832546226
 11
916.09593755615003
 21
746.11003832546226
  0
LINE
  8
_0-0_計極細
  6
CONTINUOUS
 62
    2
 10
904.69593755615017
 20
733.11003832546203
 11
899.09593755614992
 21
733.11003832546203
  0
LINE
  8
_0-0_計極細
  6
CONTINUOUS
 62
    2
 10
904.69593755615017
 20
746.11003832546226
 11
899.09593755614992
 21
746.11003832546226
  0
LINE
  8
_0-0_計極細
  6
CONTINUOUS
 62
    2
 10
887.69593755615006
 20
733.11003832546203
 11
882.09593755614992
 21
733.11003832546203
  0
LINE
  8
_0-0_計極細
  6
CONTINUOUS
 62
    2
 10
887.69593755615006
 20
746.11003832546226
 11
882.09593755614992
 21
746.11003832546226
  0
LINE
  8
_0-0_計極細
  6
CONTINUOUS
 62
    2
 10
870.69593755615006
 20
733.11003832546203
 11
865.09593755615003
 21
733.11003832546203
  0
LINE
  8
_0-0_計極細
  6
CONTINUOUS
 62
    2
 10
870.69593755615006
 20
746.11003832546226
 11
865.09593755615003
 21
746.11003832546226
  0
LINE
  8
_0-0_計極細
  6
CONTINUOUS
 62
    2
 10
853.69593755615017
 20
733.11003832546203
 11
848.09593755614992
 21
733.11003832546203
  0
LINE
  8
_0-0_計極細
  6
CONTINUOUS
 62
    2
 10
853.69593755615017
 20
746.11003832546226
 11
848.09593755614992
 21
746.11003832546226
  0
LINE
  8
_0-0_計極細
  6
CONTINUOUS
 62
    2
 10
836.69593755615006
 20
733.11003832546203
 11
831.09593755614992
 21
733.11003832546203
  0
LINE
  8
_0-0_計極細
  6
CONTINUOUS
 62
    2
 10
836.69593755615006
 20
746.11003832546226
 11
831.09593755614992
 21
746.11003832546226
  0
LINE
  8
_0-0_計極細
  6
CONTINUOUS
 62
    2
 10
819.69593755615006
 20
733.11003832546203
 11
814.09593755615003
 21
733.11003832546203
  0
LINE
  8
_0-0_計極細
  6
CONTINUOUS
 62
    2
 10
819.69593755615006
 20
746.11003832546226
 11
814.09593755615003
 21
746.11003832546226
  0
LINE
  8
_0-0_計極細
  6
CONTINUOUS
 62
    2
 10
802.69593755615017
 20
733.11003832546203
 11
797.09593755614992
 21
733.11003832546203
  0
LINE
  8
_0-0_計極細
  6
CONTINUOUS
 62
    2
 10
802.69593755615017
 20
746.11003832546226
 11
797.09593755614992
 21
746.11003832546226
  0
LINE
  8
_0-0_計極細
  6
CONTINUOUS
 62
    2
 10
785.69593755615006
 20
733.11003832546203
 11
780.09593755614992
 21
733.11003832546203
  0
LINE
  8
_0-0_計極細
  6
CONTINUOUS
 62
    2
 10
785.69593755615006
 20
746.11003832546226
 11
780.09593755614992
 21
746.11003832546226
  0
LINE
  8
_0-0_計極細
  6
CONTINUOUS
 62
    2
 10
768.69593755615006
 20
733.11003832546203
 11
763.09593755615003
 21
733.11003832546203
  0
LINE
  8
_0-0_計極細
  6
CONTINUOUS
 62
    2
 10
768.69593755615006
 20
746.11003832546226
 11
763.09593755615003
 21
746.11003832546226
  0
LINE
  8
_0-0_計極細
  6
CONTINUOUS
 62
    2
 10
751.69593755615017
 20
733.11003832546203
 11
746.09593755614992
 21
733.11003832546203
  0
LINE
  8
_0-0_計極細
  6
CONTINUOUS
 62
    2
 10
751.69593755615017
 20
746.11003832546226
 11
746.09593755614992
 21
746.11003832546226
  0
LINE
  8
_0-0_計極細
  6
CONTINUOUS
 62
    2
 10
734.69593755615006
 20
733.11003832546203
 11
729.09593755615003
 21
733.11003832546203
  0
LINE
  8
_0-0_計極細
  6
CONTINUOUS
 62
    2
 10
734.69593755615006
 20
746.11003832546226
 11
729.09593755615003
 21
746.11003832546226
  0
LINE
  8
_0-0_計極細
  6
CONTINUOUS
 62
    2
 10
717.69593755615017
 20
733.11003832546203
 11
712.09593755615003
 21
733.11003832546203
  0
LINE
  8
_0-0_計極細
  6
CONTINUOUS
 62
    2
 10
717.69593755615017
 20
746.11003832546226
 11
712.09593755615003
 21
746.11003832546226
  0
LINE
  8
_0-0_計極細
  6
CONTINUOUS
 62
    2
 10
700.69593755615017
 20
733.11003832546203
 11
695.09593755614992
 21
733.11003832546203
  0
LINE
  8
_0-0_計極細
  6
CONTINUOUS
 62
    2
 10
700.69593755615017
 20
746.11003832546226
 11
695.09593755614992
 21
746.11003832546226
  0
LINE
  8
_0-0_計極細
  6
CONTINUOUS
 62
    2
 10
683.69593755615006
 20
733.11003832546203
 11
678.09593755615003
 21
733.11003832546203
  0
LINE
  8
_0-0_計極細
  6
CONTINUOUS
 62
    2
 10
683.69593755615006
 20
746.11003832546226
 11
678.09593755615003
 21
746.11003832546226
  0
LINE
  8
_0-0_計極細
  6
CONTINUOUS
 62
    2
 10
666.69593755615017
 20
733.11003832546203
 11
661.09593755615003
 21
733.11003832546203
  0
LINE
  8
_0-0_計極細
  6
CONTINUOUS
 62
    2
 10
666.69593755615017
 20
746.11003832546226
 11
661.09593755615003
 21
746.11003832546226
  0
LINE
  8
_0-0_計極細
  6
CONTINUOUS
 62
    2
 10
649.69593755615017
 20
733.11003832546203
 11
644.09593755614992
 21
733.11003832546203
  0
LINE
  8
_0-0_計極細
  6
CONTINUOUS
 62
    2
 10
649.69593755615017
 20
746.11003832546226
 11
644.09593755614992
 21
746.11003832546226
  0
LINE
  8
_0-0_計極細
  6
CONTINUOUS
 62
    2
 10
632.69593755615006
 20
733.11003832546203
 11
627.09593755615003
 21
733.11003832546203
  0
LINE
  8
_0-0_計極細
  6
CONTINUOUS
 62
    2
 10
632.69593755615006
 20
746.11003832546226
 11
627.09593755615003
 21
746.11003832546226
  0
LINE
  8
_0-0_計極細
  6
CONTINUOUS
 62
    2
 10
615.69593755615017
 20
733.11003832546203
 11
610.09593755615003
 21
733.11003832546203
  0
LINE
  8
_0-0_計極細
  6
CONTINUOUS
 62
    2
 10
615.69593755615017
 20
746.11003832546226
 11
610.09593755615003
 21
746.11003832546226
  0
LINE
  8
_0-0_計極細
  6
CONTINUOUS
 62
    2
 10
598.69593755615017
 20
733.11003832546203
 11
593.09593755614992
 21
733.11003832546203
  0
LINE
  8
_0-0_計極細
  6
CONTINUOUS
 62
    2
 10
598.69593755615017
 20
746.11003832546226
 11
593.09593755614992
 21
746.11003832546226
  0
LINE
  8
_0-0_計極細
  6
CONTINUOUS
 62
    2
 10
581.69593755615006
 20
733.11003832546203
 11
576.09593755615003
 21
733.11003832546203
  0
LINE
  8
_0-0_計極細
  6
CONTINUOUS
 62
    2
 10
581.69593755615006
 20
746.11003832546226
 11
576.09593755615003
 21
746.11003832546226
  0
LINE
  8
_0-0_計極細
  6
CONTINUOUS
 62
    2
 10
564.69593755615017
 20
733.11003832546203
 11
559.09593755615003
 21
733.11003832546203
  0
LINE
  8
_0-0_計極細
  6
CONTINUOUS
 62
    2
 10
564.69593755615017
 20
746.11003832546226
 11
559.09593755615003
 21
746.11003832546226
  0
LINE
  8
_0-0_計極細
  6
CONTINUOUS
 62
    2
 10
547.69593755615017
 20
733.11003832546203
 11
542.09593755614992
 21
733.11003832546203
  0
LINE
  8
_0-0_計極細
  6
CONTINUOUS
 62
    2
 10
547.69593755615017
 20
746.11003832546226
 11
542.09593755614992
 21
746.11003832546226
  0
LINE
  8
_0-0_計極細
  6
CONTINUOUS
 62
    2
 10
530.69593755615006
 20
733.11003832546203
 11
525.09593755615003
 21
733.11003832546203
  0
LINE
  8
_0-0_計極細
  6
CONTINUOUS
 62
    2
 10
530.69593755615006
 20
746.11003832546226
 11
525.09593755615003
 21
746.11003832546226
  0
LINE
  8
_0-0_計極細
  6
CONTINUOUS
 62
    2
 10
513.69593755615017
 20
733.11003832546203
 11
508.09593755615003
 21
733.11003832546203
  0
LINE
  8
_0-0_計極細
  6
CONTINUOUS
 62
    2
 10
513.69593755615017
 20
746.11003832546226
 11
508.09593755615003
 21
746.11003832546226
  0
LINE
  8
_0-0_計極細
  6
CONTINUOUS
 62
    2
 10
496.69593755615017
 20
733.11003832546203
 11
491.09593755614998
 21
733.11003832546203
  0
LINE
  8
_0-0_計極細
  6
CONTINUOUS
 62
    2
 10
496.69593755615017
 20
746.11003832546226
 11
491.09593755614998
 21
746.11003832546226
  0
LINE
  8
_0-0_計極細
  6
CONTINUOUS
 62
    2
 10
479.69593755615011
 20
733.11003832546203
 11
474.09593755615003
 21
733.11003832546203
  0
LINE
  8
_0-0_計極細
  6
CONTINUOUS
 62
    2
 10
479.69593755615011
 20
746.11003832546226
 11
474.09593755615003
 21
746.11003832546226
  0
LINE
  8
_0-0_計極細
  6
CONTINUOUS
 62
    2
 10
462.69593755615017
 20
733.11003832546203
 11
457.09593755615003
 21
733.11003832546203
  0
LINE
  8
_0-0_計極細
  6
CONTINUOUS
 62
    2
 10
462.69593755615017
 20
746.11003832546226
 11
457.09593755615003
 21
746.11003832546226
  0
LINE
  8
_0-0_計極細
  6
CONTINUOUS
 62
    2
 10
445.69593755615017
 20
733.11003832546203
 11
439.69593755614994
 21
733.11003832546203
  0
LINE
  8
_0-0_計極細
  6
CONTINUOUS
 62
    2
 10
445.69593755615017
 20
746.11003832546226
 11
439.69593755614994
 21
746.11003832546226
  0
LINE
  8
_0-0_計極細
  6
CONTINUOUS
 62
    2
 10
428.29593755615031
 20
733.11003832546203
 11
422.29593755615008
 21
733.11003832546203
  0
LINE
  8
_0-0_計極細
  6
CONTINUOUS
 62
    2
 10
428.29593755615031
 20
746.11003832546226
 11
422.29593755615008
 21
746.11003832546226
  0
LINE
  8
_0-0_計極細
  6
CONTINUOUS
 62
    2
 10
410.89593755615044
 20
733.11003832546203
 11
404.89593755615022
 21
733.11003832546203
  0
LINE
  8
_0-0_計極細
  6
CONTINUOUS
 62
    2
 10
410.89593755615044
 20
746.11003832546226
 11
404.89593755615022
 21
746.11003832546226
  0
LINE
  8
_0-0_計極細
  6
CONTINUOUS
 62
    2
 10
393.49593755615058
 20
733.11003832546203
 11
387.49593755615035
 21
733.11003832546203
  0
LINE
  8
_0-0_計極細
  6
CONTINUOUS
 62
    2
 10
393.49593755615058
 20
746.11003832546226
 11
387.49593755615035
 21
746.11003832546226
  0
LINE
  8
_0-0_計極細
  6
CONTINUOUS
 62
    2
 10
1346.6959375561496
 20
841.11003832546226
 11
1341.0959375561492
 21
841.11003832546226
  0
LINE
  8
_0-0_計極細
  6
CONTINUOUS
 62
    2
 10
1329.6959375561487
 20
841.11003832546226
 11
1324.0959375561488
 21
841.11003832546226
  0
LINE
  8
_0-0_計極細
  6
CONTINUOUS
 62
    2
 10
1307.0959375561524
 20
841.11003832546226
 11
1312.6959375561528
 21
841.11003832546226
  0
LINE
  8
_0-0_計極細
  6
CONTINUOUS
 62
    2
 10
1273.0959375561515
 20
841.11003832546226
 11
1278.6959375561514
 21
841.11003832546226
  0
LINE
  8
_0-0_計極細
  6
CONTINUOUS
 62
    2
 10
1256.0959375561506
 20
841.11003832546226
 11
1261.695937556151
 21
841.11003832546226
  0
LINE
  8
_0-0_計極細
  6
CONTINUOUS
 62
    2
 10
1290.0959375561529
 20
841.11003832546226
 11
1295.6959375561528
 21
841.11003832546226
  0
LINE
  8
_0-0_計極細
  6
CONTINUOUS
 62
    2
 10
1227.6959375561501
 20
841.11003832546226
 11
1222.0959375561497
 21
841.11003832546226
  0
LINE
  8
_0-0_計極細
  6
CONTINUOUS
 62
    2
 10
1363.6959375561519
 20
841.11003832546226
 11
1358.0959375561515
 21
841.11003832546226
  0
LINE
  8
_0-0_計極細
  6
CONTINUOUS
 62
    2
 10
1210.6959375561505
 20
841.11003832546226
 11
1205.0959375561501
 21
841.11003832546226
  0
LINE
  8
_0-0_計極細
  6
CONTINUOUS
 62
    2
 10
1193.6959375561505
 20
841.11003832546226
 11
1188.0959375561501
 21
841.11003832546226
  0
LINE
  8
_0-0_計極細
  6
CONTINUOUS
 62
    2
 10
1176.6959375561505
 20
841.11003832546226
 11
1171.0959375561501
 21
841.11003832546226
  0
LINE
  8
_0-0_計極細
  6
CONTINUOUS
 62
    2
 10
1159.6959375561505
 20
841.11003832546226
 11
1154.0959375561501
 21
841.11003832546226
  0
LINE
  8
_0-0_計極細
  6
CONTINUOUS
 62
    2
 10
1142.6959375561505
 20
841.11003832546226
 11
1137.0959375561501
 21
841.11003832546226
  0
LINE
  8
_0-0_計極細
  6
CONTINUOUS
 62
    2
 10
1125.6959375561505
 20
841.11003832546226
 11
1120.0959375561501
 21
841.11003832546226
  0
LINE
  8
_0-0_計極細
  6
CONTINUOUS
 62
    2
 10
1108.6959375561505
 20
841.11003832546226
 11
1103.0959375561501
 21
841.11003832546226
  0
LINE
  8
_0-0_計極細
  6
CONTINUOUS
 62
    2
 10
1091.6959375561505
 20
841.11003832546226
 11
1086.0959375561501
 21
841.11003832546226
  0
LINE
  8
_0-0_計極細
  6
CONTINUOUS
 62
    2
 10
1074.6959375561505
 20
841.11003832546226
 11
1069.0959375561501
 21
841.11003832546226
  0
LINE
  8
_0-0_計極細
  6
CONTINUOUS
 62
    2
 10
1057.6959375561505
 20
841.11003832546226
 11
1052.0959375561501
 21
841.11003832546226
  0
LINE
  8
_0-0_計極細
  6
CONTINUOUS
 62
    2
 10
1040.6959375561505
 20
841.11003832546226
 11
1035.0959375561501
 21
841.11003832546226
  0
LINE
  8
_0-0_計極細
  6
CONTINUOUS
 62
    2
 10
1023.6959375561504
 20
841.11003832546226
 11
1018.09593755615
 21
841.11003832546226
  0
LINE
  8
_0-0_計極細
  6
CONTINUOUS
 62
    2
 10
1006.6959375561503
 20
841.11003832546226
 11
1001.0959375561501
 21
841.11003832546226
  0
LINE
  8
_0-0_計極細
  6
CONTINUOUS
 62
    2
 10
989.69593755615028
 20
841.11003832546226
 11
984.09593755615015
 21
841.11003832546226
  0
LINE
  8
_0-0_計極細
  6
CONTINUOUS
 62
    2
 10
972.6959375561504
 20
841.11003832546226
 11
967.09593755615003
 21
841.11003832546226
  0
LINE
  8
_0-0_計極細
  6
CONTINUOUS
 62
    2
 10
955.69593755615028
 20
841.11003832546226
 11
950.09593755615015
 21
841.11003832546226
  0
LINE
  8
_0-0_計極細
  6
CONTINUOUS
 62
    2
 10
938.69593755615028
 20
841.11003832546226
 11
933.09593755615015
 21
841.11003832546226
  0
LINE
  8
_0-0_計極細
  6
CONTINUOUS
 62
    2
 10
921.6959375561504
 20
841.11003832546226
 11
916.09593755615003
 21
841.11003832546226
  0
LINE
  8
_0-0_計極細
  6
CONTINUOUS
 62
    2
 10
904.69593755615028
 20
841.11003832546226
 11
899.09593755615015
 21
841.11003832546226
  0
LINE
  8
_0-0_計極細
  6
CONTINUOUS
 62
    2
 10
887.69593755615028
 20
841.11003832546226
 11
882.09593755615015
 21
841.11003832546226
  0
LINE
  8
_0-0_計極細
  6
CONTINUOUS
 62
    2
 10
870.6959375561504
 20
841.11003832546226
 11
865.09593755615003
 21
841.11003832546226
  0
LINE
  8
_0-0_計極細
  6
CONTINUOUS
 62
    2
 10
853.69593755615028
 20
841.11003832546226
 11
848.09593755615015
 21
841.11003832546226
  0
LINE
  8
_0-0_計極細
  6
CONTINUOUS
 62
    2
 10
836.69593755615028
 20
841.11003832546226
 11
831.09593755615015
 21
841.11003832546226
  0
LINE
  8
_0-0_計極細
  6
CONTINUOUS
 62
    2
 10
819.6959375561504
 20
841.11003832546226
 11
814.09593755615003
 21
841.11003832546226
  0
LINE
  8
_0-0_計極細
  6
CONTINUOUS
 62
    2
 10
802.69593755615028
 20
841.11003832546226
 11
797.09593755615015
 21
841.11003832546226
  0
LINE
  8
_0-0_計極細
  6
CONTINUOUS
 62
    2
 10
785.69593755615028
 20
841.11003832546226
 11
780.09593755615015
 21
841.11003832546226
  0
LINE
  8
_0-0_計極細
  6
CONTINUOUS
 62
    2
 10
768.6959375561504
 20
841.11003832546226
 11
763.09593755615015
 21
841.11003832546226
  0
LINE
  8
_0-0_計極細
  6
CONTINUOUS
 62
    2
 10
751.69593755615028
 20
841.11003832546226
 11
746.09593755615015
 21
841.11003832546226
  0
LINE
  8
_0-0_計極細
  6
CONTINUOUS
 62
    2
 10
734.6959375561504
 20
841.11003832546226
 11
729.09593755615015
 21
841.11003832546226
  0
LINE
  8
_0-0_計極細
  6
CONTINUOUS
 62
    2
 10
717.6959375561504
 20
841.11003832546226
 11
712.09593755615015
 21
841.11003832546226
  0
LINE
  8
_0-0_計極細
  6
CONTINUOUS
 62
    2
 10
700.69593755615028
 20
841.11003832546226
 11
695.09593755615015
 21
841.11003832546226
  0
LINE
  8
_0-0_計極細
  6
CONTINUOUS
 62
    2
 10
683.6959375561504
 20
841.11003832546226
 11
678.09593755615015
 21
841.11003832546226
  0
LINE
  8
_0-0_計極細
  6
CONTINUOUS
 62
    2
 10
666.6959375561504
 20
841.11003832546226
 11
661.09593755615015
 21
841.11003832546226
  0
LINE
  8
_0-0_計極細
  6
CONTINUOUS
 62
    2
 10
649.69593755615028
 20
841.11003832546226
 11
644.09593755615015
 21
841.11003832546226
  0
LINE
  8
_0-0_計極細
  6
CONTINUOUS
 62
    2
 10
632.6959375561504
 20
841.11003832546226
 11
627.09593755615015
 21
841.11003832546226
  0
LINE
  8
_0-0_計極細
  6
CONTINUOUS
 62
    2
 10
615.6959375561504
 20
841.11003832546226
 11
610.09593755615015
 21
841.11003832546226
  0
LINE
  8
_0-0_計極細
  6
CONTINUOUS
 62
    2
 10
598.69593755615028
 20
841.11003832546226
 11
593.09593755615015
 21
841.11003832546226
  0
LINE
  8
_0-0_計極細
  6
CONTINUOUS
 62
    2
 10
581.6959375561504
 20
841.11003832546226
 11
576.09593755615015
 21
841.11003832546226
  0
LINE
  8
_0-0_計極細
  6
CONTINUOUS
 62
    2
 10
564.6959375561504
 20
841.11003832546226
 11
559.09593755615015
 21
841.11003832546226
  0
LINE
  8
_0-0_計極細
  6
CONTINUOUS
 62
    2
 10
547.69593755615028
 20
841.11003832546226
 11
542.09593755614992
 21
841.11003832546226
  0
LINE
  8
_0-0_計極細
  6
CONTINUOUS
 62
    2
 10
530.6959375561504
 20
841.11003832546226
 11
525.09593755615003
 21
841.11003832546226
  0
LINE
  8
_0-0_計極細
  6
CONTINUOUS
 62
    2
 10
513.6959375561504
 20
841.11003832546226
 11
508.09593755615003
 21
841.11003832546226
  0
LINE
  8
_0-0_計極細
  6
CONTINUOUS
 62
    2
 10
496.69593755615034
 20
841.11003832546226
 11
491.09593755614998
 21
841.11003832546226
  0
LINE
  8
_0-0_計極細
  6
CONTINUOUS
 62
    2
 10
479.6959375561504
 20
841.11003832546226
 11
474.09593755615003
 21
841.11003832546226
  0
LINE
  8
_0-0_計極細
  6
CONTINUOUS
 62
    2
 10
462.6959375561504
 20
841.11003832546226
 11
457.09593755615003
 21
841.11003832546226
  0
LINE
  8
_0-0_計極細
  6
CONTINUOUS
 62
    2
 10
445.69593755615034
 20
841.11003832546226
 11
439.69593755615017
 21
841.11003832546226
  0
LINE
  8
_0-0_計極細
  6
CONTINUOUS
 62
    2
 10
428.29593755615048
 20
841.11003832546226
 11
422.29593755615031
 21
841.11003832546226
  0
LINE
  8
_0-0_計極細
  6
CONTINUOUS
 62
    2
 10
410.89593755615061
 20
841.11003832546226
 11
404.89593755615044
 21
841.11003832546226
  0
LINE
  8
_0-0_計極細
  6
CONTINUOUS
 62
    2
 10
393.49593755615075
 20
841.11003832546226
 11
387.49593755615058
 21
841.11003832546226
  0
LINE
  8
_0-0_計極細
  6
CENTER1
 62
    2
 10
374.17174881294147
 20
847.61003832546226
 11
1382.8537612971627
 21
847.61003832546226
  0
LINE
  8
_0-0_計極細
  6
CONTINUOUS
 62
    2
 10
1346.6959375561496
 20
625.11003832546203
 11
1341.0959375561492
 21
625.11003832546203
  0
LINE
  8
_0-0_計極細
  6
CONTINUOUS
 62
    2
 10
1346.6959375561496
 20
638.11003832546203
 11
1341.0959375561492
 21
638.11003832546203
  0
LINE
  8
_0-0_計極細
  6
CONTINUOUS
 62
    2
 10
1329.6959375561487
 20
625.11003832546248
 11
1324.0959375561483
 21
625.11003832546248
  0
LINE
  8
_0-0_計極細
  6
CONTINUOUS
 62
    2
 10
1329.6959375561487
 20
638.11003832546248
 11
1324.0959375561483
 21
638.11003832546248
  0
LINE
  8
_0-0_計極細
  6
CONTINUOUS
 62
    2
 10
1307.0959375561524
 20
625.11003832546248
 11
1312.6959375561523
 21
625.11003832546248
  0
LINE
  8
_0-0_計極細
  6
CONTINUOUS
 62
    2
 10
1307.0959375561524
 20
638.11003832546248
 11
1312.6959375561523
 21
638.11003832546248
  0
LINE
  8
_0-0_計極細
  6
CONTINUOUS
 62
    2
 10
1290.095937556152
 20
625.11003832546203
 11
1295.6959375561519
 21
625.11003832546203
  0
LINE
  8
_0-0_計極細
  6
CONTINUOUS
 62
    2
 10
1290.095937556152
 20
638.11003832546203
 11
1295.6959375561519
 21
638.11003832546203
  0
LINE
  8
_0-0_計極細
  6
CONTINUOUS
 62
    2
 10
1273.0959375561515
 20
625.11003832546203
 11
1278.6959375561514
 21
625.11003832546203
  0
LINE
  8
_0-0_計極細
  6
CONTINUOUS
 62
    2
 10
1273.0959375561515
 20
638.11003832546203
 11
1278.6959375561514
 21
638.11003832546203
  0
LINE
  8
_0-0_計極細
  6
CONTINUOUS
 62
    2
 10
1256.0959375561501
 20
625.11003832546248
 11
1261.695937556151
 21
625.11003832546248
  0
LINE
  8
_0-0_計極細
  6
CONTINUOUS
 62
    2
 10
1256.0959375561501
 20
638.11003832546248
 11
1261.695937556151
 21
638.11003832546248
  0
LINE
  8
_0-0_計極細
  6
CONTINUOUS
 62
    2
 10
1239.0959375561506
 20
625.11003832546248
 11
1244.6959375561505
 21
625.11003832546248
  0
LINE
  8
_0-0_計極細
  6
CONTINUOUS
 62
    2
 10
1239.0959375561506
 20
638.11003832546248
 11
1244.6959375561505
 21
638.11003832546248
  0
LINE
  8
_0-0_計極細
  6
CONTINUOUS
 62
    2
 10
1227.6959375561501
 20
625.11003832546203
 11
1222.0959375561497
 21
625.11003832546203
  0
LINE
  8
_0-0_計極細
  6
CONTINUOUS
 62
    2
 10
1227.6959375561501
 20
638.11003832546203
 11
1222.0959375561497
 21
638.11003832546203
  0
LINE
  8
_0-0_計極細
  6
CONTINUOUS
 62
    2
 10
1363.6959375561514
 20
625.11003832546203
 11
1358.0959375561511
 21
625.11003832546203
  0
LINE
  8
_0-0_計極細
  6
CONTINUOUS
 62
    2
 10
1363.6959375561514
 20
638.11003832546203
 11
1358.0959375561511
 21
638.11003832546203
  0
LINE
  8
_0-0_計極細
  6
CONTINUOUS
 62
    2
 10
1210.6959375561501
 20
625.11003832546203
 11
1205.0959375561501
 21
625.11003832546203
  0
LINE
  8
_0-0_計極細
  6
CONTINUOUS
 62
    2
 10
1210.6959375561501
 20
638.11003832546203
 11
1205.0959375561501
 21
638.11003832546203
  0
LINE
  8
_0-0_計極細
  6
CONTINUOUS
 62
    2
 10
1193.6959375561501
 20
625.11003832546203
 11
1188.0959375561501
 21
625.11003832546203
  0
LINE
  8
_0-0_計極細
  6
CONTINUOUS
 62
    2
 10
1193.6959375561501
 20
638.11003832546203
 11
1188.0959375561501
 21
638.11003832546203
  0
LINE
  8
_0-0_計極細
  6
CONTINUOUS
 62
    2
 10
1176.6959375561501
 20
625.11003832546203
 11
1171.0959375561501
 21
625.11003832546203
  0
LINE
  8
_0-0_計極細
  6
CONTINUOUS
 62
    2
 10
1176.6959375561501
 20
638.11003832546203
 11
1171.0959375561501
 21
638.11003832546203
  0
LINE
  8
_0-0_計極細
  6
CONTINUOUS
 62
    2
 10
1159.6959375561501
 20
625.11003832546203
 11
1154.0959375561501
 21
625.11003832546203
  0
LINE
  8
_0-0_計極細
  6
CONTINUOUS
 62
    2
 10
1159.6959375561501
 20
638.11003832546203
 11
1154.0959375561501
 21
638.11003832546203
  0
LINE
  8
_0-0_計極細
  6
CONTINUOUS
 62
    2
 10
1142.6959375561501
 20
625.11003832546203
 11
1137.0959375561501
 21
625.11003832546203
  0
LINE
  8
_0-0_計極細
  6
CONTINUOUS
 62
    2
 10
1142.6959375561501
 20
638.11003832546203
 11
1137.0959375561501
 21
638.11003832546203
  0
LINE
  8
_0-0_計極細
  6
CONTINUOUS
 62
    2
 10
1125.6959375561501
 20
625.11003832546203
 11
1120.0959375561501
 21
625.11003832546203
  0
LINE
  8
_0-0_計極細
  6
CONTINUOUS
 62
    2
 10
1125.6959375561501
 20
638.11003832546203
 11
1120.0959375561501
 21
638.11003832546203
  0
LINE
  8
_0-0_計極細
  6
CONTINUOUS
 62
    2
 10
1108.6959375561501
 20
625.11003832546203
 11
1103.0959375561501
 21
625.11003832546203
  0
LINE
  8
_0-0_計極細
  6
CONTINUOUS
 62
    2
 10
1108.6959375561501
 20
638.11003832546203
 11
1103.0959375561501
 21
638.11003832546203
  0
LINE
  8
_0-0_計極細
  6
CONTINUOUS
 62
    2
 10
1091.6959375561501
 20
625.11003832546203
 11
1086.0959375561501
 21
625.11003832546203
  0
LINE
  8
_0-0_計極細
  6
CONTINUOUS
 62
    2
 10
1091.6959375561501
 20
638.11003832546203
 11
1086.0959375561501
 21
638.11003832546203
  0
LINE
  8
_0-0_計極細
  6
CONTINUOUS
 62
    2
 10
1074.6959375561501
 20
625.11003832546203
 11
1069.0959375561501
 21
625.11003832546203
  0
LINE
  8
_0-0_計極細
  6
CONTINUOUS
 62
    2
 10
1074.6959375561501
 20
638.11003832546203
 11
1069.0959375561501
 21
638.11003832546203
  0
LINE
  8
_0-0_計極細
  6
CONTINUOUS
 62
    2
 10
1057.6959375561501
 20
625.11003832546203
 11
1052.0959375561501
 21
625.11003832546203
  0
LINE
  8
_0-0_計極細
  6
CONTINUOUS
 62
    2
 10
1057.6959375561501
 20
638.11003832546203
 11
1052.0959375561501
 21
638.11003832546203
  0
LINE
  8
_0-0_計極細
  6
CONTINUOUS
 62
    2
 10
1040.6959375561501
 20
625.11003832546203
 11
1035.0959375561501
 21
625.11003832546203
  0
LINE
  8
_0-0_計極細
  6
CONTINUOUS
 62
    2
 10
1040.6959375561501
 20
638.11003832546203
 11
1035.0959375561501
 21
638.11003832546203
  0
LINE
  8
_0-0_計極細
  6
CONTINUOUS
 62
    2
 10
1023.6959375561501
 20
625.11003832546203
 11
1018.09593755615
 21
625.11003832546203
  0
LINE
  8
_0-0_計極細
  6
CONTINUOUS
 62
    2
 10
1023.6959375561501
 20
638.11003832546203
 11
1018.09593755615
 21
638.11003832546203
  0
LINE
  8
_0-0_計極細
  6
CONTINUOUS
 62
    2
 10
1006.6959375561502
 20
625.11003832546203
 11
1001.0959375561499
 21
625.11003832546203
  0
LINE
  8
_0-0_計極細
  6
CONTINUOUS
 62
    2
 10
1006.6959375561502
 20
638.11003832546203
 11
1001.0959375561499
 21
638.11003832546203
  0
LINE
  8
_0-0_計極細
  6
CONTINUOUS
 62
    2
 10
989.69593755615006
 20
625.11003832546203
 11
984.09593755614992
 21
625.11003832546203
  0
LINE
  8
_0-0_計極細
  6
CONTINUOUS
 62
    2
 10
989.69593755615006
 20
638.11003832546203
 11
984.09593755614992
 21
638.11003832546203
  0
LINE
  8
_0-0_計極細
  6
CONTINUOUS
 62
    2
 10
972.69593755615006
 20
625.11003832546203
 11
967.09593755615003
 21
625.11003832546203
  0
LINE
  8
_0-0_計極細
  6
CONTINUOUS
 62
    2
 10
972.69593755615006
 20
638.11003832546203
 11
967.09593755615003
 21
638.11003832546203
  0
LINE
  8
_0-0_計極細
  6
CONTINUOUS
 62
    2
 10
955.69593755615017
 20
625.11003832546203
 11
950.09593755614992
 21
625.11003832546203
  0
LINE
  8
_0-0_計極細
  6
CONTINUOUS
 62
    2
 10
955.69593755615017
 20
638.11003832546203
 11
950.09593755614992
 21
638.11003832546203
  0
LINE
  8
_0-0_計極細
  6
CONTINUOUS
 62
    2
 10
938.69593755615006
 20
625.11003832546203
 11
933.09593755614992
 21
625.11003832546203
  0
LINE
  8
_0-0_計極細
  6
CONTINUOUS
 62
    2
 10
938.69593755615006
 20
638.11003832546203
 11
933.09593755614992
 21
638.11003832546203
  0
LINE
  8
_0-0_計極細
  6
CONTINUOUS
 62
    2
 10
921.69593755615006
 20
625.11003832546203
 11
916.09593755615003
 21
625.11003832546203
  0
LINE
  8
_0-0_計極細
  6
CONTINUOUS
 62
    2
 10
921.69593755615006
 20
638.11003832546203
 11
916.09593755615003
 21
638.11003832546203
  0
LINE
  8
_0-0_計極細
  6
CONTINUOUS
 62
    2
 10
904.69593755615017
 20
625.11003832546203
 11
899.09593755614992
 21
625.11003832546203
  0
LINE
  8
_0-0_計極細
  6
CONTINUOUS
 62
    2
 10
904.69593755615017
 20
638.11003832546203
 11
899.09593755614992
 21
638.11003832546203
  0
LINE
  8
_0-0_計極細
  6
CONTINUOUS
 62
    2
 10
887.69593755615006
 20
625.11003832546203
 11
882.09593755614992
 21
625.11003832546203
  0
LINE
  8
_0-0_計極細
  6
CONTINUOUS
 62
    2
 10
887.69593755615006
 20
638.11003832546203
 11
882.09593755614992
 21
638.11003832546203
  0
LINE
  8
_0-0_計極細
  6
CONTINUOUS
 62
    2
 10
870.69593755615006
 20
625.11003832546203
 11
865.09593755615003
 21
625.11003832546203
  0
LINE
  8
_0-0_計極細
  6
CONTINUOUS
 62
    2
 10
870.69593755615006
 20
638.11003832546203
 11
865.09593755615003
 21
638.11003832546203
  0
LINE
  8
_0-0_計極細
  6
CONTINUOUS
 62
    2
 10
853.69593755615017
 20
625.11003832546203
 11
848.09593755614992
 21
625.11003832546203
  0
LINE
  8
_0-0_計極細
  6
CONTINUOUS
 62
    2
 10
853.69593755615017
 20
638.11003832546203
 11
848.09593755614992
 21
638.11003832546203
  0
LINE
  8
_0-0_計極細
  6
CONTINUOUS
 62
    2
 10
836.69593755615006
 20
625.11003832546203
 11
831.09593755614992
 21
625.11003832546203
  0
LINE
  8
_0-0_計極細
  6
CONTINUOUS
 62
    2
 10
836.69593755615006
 20
638.11003832546203
 11
831.09593755614992
 21
638.11003832546203
  0
LINE
  8
_0-0_計極細
  6
CONTINUOUS
 62
    2
 10
819.69593755615006
 20
625.11003832546203
 11
814.09593755615003
 21
625.11003832546203
  0
LINE
  8
_0-0_計極細
  6
CONTINUOUS
 62
    2
 10
819.69593755615006
 20
638.11003832546203
 11
814.09593755615003
 21
638.11003832546203
  0
LINE
  8
_0-0_計極細
  6
CONTINUOUS
 62
    2
 10
802.69593755615017
 20
625.11003832546203
 11
797.09593755614992
 21
625.11003832546203
  0
LINE
  8
_0-0_計極細
  6
CONTINUOUS
 62
    2
 10
802.69593755615017
 20
638.11003832546203
 11
797.09593755614992
 21
638.11003832546203
  0
LINE
  8
_0-0_計極細
  6
CONTINUOUS
 62
    2
 10
785.69593755615006
 20
625.11003832546203
 11
780.09593755614992
 21
625.11003832546203
  0
LINE
  8
_0-0_計極細
  6
CONTINUOUS
 62
    2
 10
785.69593755615006
 20
638.11003832546203
 11
780.09593755614992
 21
638.11003832546203
  0
LINE
  8
_0-0_計極細
  6
CONTINUOUS
 62
    2
 10
768.69593755615006
 20
625.11003832546203
 11
763.09593755615003
 21
625.11003832546203
  0
LINE
  8
_0-0_計極細
  6
CONTINUOUS
 62
    2
 10
768.69593755615006
 20
638.11003832546203
 11
763.09593755615003
 21
638.11003832546203
  0
LINE
  8
_0-0_計極細
  6
CONTINUOUS
 62
    2
 10
751.69593755615017
 20
625.11003832546203
 11
746.09593755614992
 21
625.11003832546203
  0
LINE
  8
_0-0_計極細
  6
CONTINUOUS
 62
    2
 10
751.69593755615017
 20
638.11003832546203
 11
746.09593755614992
 21
638.11003832546203
  0
LINE
  8
_0-0_計極細
  6
CONTINUOUS
 62
    2
 10
734.69593755615006
 20
625.11003832546203
 11
729.09593755615003
 21
625.11003832546203
  0
LINE
  8
_0-0_計極細
  6
CONTINUOUS
 62
    2
 10
734.69593755615006
 20
638.11003832546203
 11
729.09593755615003
 21
638.11003832546203
  0
LINE
  8
_0-0_計極細
  6
CONTINUOUS
 62
    2
 10
717.69593755615017
 20
625.11003832546203
 11
712.09593755615003
 21
625.11003832546203
  0
LINE
  8
_0-0_計極細
  6
CONTINUOUS
 62
    2
 10
717.69593755615017
 20
638.11003832546203
 11
712.09593755615003
 21
638.11003832546203
  0
LINE
  8
_0-0_計極細
  6
CONTINUOUS
 62
    2
 10
700.69593755615017
 20
625.11003832546203
 11
695.09593755614992
 21
625.11003832546203
  0
LINE
  8
_0-0_計極細
  6
CONTINUOUS
 62
    2
 10
700.69593755615017
 20
638.11003832546203
 11
695.09593755614992
 21
638.11003832546203
  0
LINE
  8
_0-0_計極細
  6
CONTINUOUS
 62
    2
 10
683.69593755615006
 20
625.11003832546203
 11
678.09593755615003
 21
625.11003832546203
  0
LINE
  8
_0-0_計極細
  6
CONTINUOUS
 62
    2
 10
683.69593755615006
 20
638.11003832546203
 11
678.09593755615003
 21
638.11003832546203
  0
LINE
  8
_0-0_計極細
  6
CONTINUOUS
 62
    2
 10
666.69593755615017
 20
625.11003832546203
 11
661.09593755615003
 21
625.11003832546203
  0
LINE
  8
_0-0_計極細
  6
CONTINUOUS
 62
    2
 10
666.69593755615017
 20
638.11003832546203
 11
661.09593755615003
 21
638.11003832546203
  0
LINE
  8
_0-0_計極細
  6
CONTINUOUS
 62
    2
 10
649.69593755615017
 20
625.11003832546203
 11
644.09593755614992
 21
625.11003832546203
  0
LINE
  8
_0-0_計極細
  6
CONTINUOUS
 62
    2
 10
649.69593755615017
 20
638.11003832546203
 11
644.09593755614992
 21
638.11003832546203
  0
LINE
  8
_0-0_計極細
  6
CONTINUOUS
 62
    2
 10
632.69593755615006
 20
625.11003832546203
 11
627.09593755615003
 21
625.11003832546203
  0
LINE
  8
_0-0_計極細
  6
CONTINUOUS
 62
    2
 10
632.69593755615006
 20
638.11003832546203
 11
627.09593755615003
 21
638.11003832546203
  0
LINE
  8
_0-0_計極細
  6
CONTINUOUS
 62
    2
 10
615.69593755615017
 20
625.11003832546203
 11
610.09593755615003
 21
625.11003832546203
  0
LINE
  8
_0-0_計極細
  6
CONTINUOUS
 62
    2
 10
615.69593755615017
 20
638.11003832546203
 11
610.09593755615003
 21
638.11003832546203
  0
LINE
  8
_0-0_計極細
  6
CONTINUOUS
 62
    2
 10
598.69593755615017
 20
625.11003832546203
 11
593.09593755614992
 21
625.11003832546203
  0
LINE
  8
_0-0_計極細
  6
CONTINUOUS
 62
    2
 10
598.69593755615017
 20
638.11003832546203
 11
593.09593755614992
 21
638.11003832546203
  0
LINE
  8
_0-0_計極細
  6
CONTINUOUS
 62
    2
 10
581.69593755615006
 20
625.11003832546203
 11
576.09593755615003
 21
625.11003832546203
  0
LINE
  8
_0-0_計極細
  6
CONTINUOUS
 62
    2
 10
581.69593755615006
 20
638.11003832546203
 11
576.09593755615003
 21
638.11003832546203
  0
LINE
  8
_0-0_計極細
  6
CONTINUOUS
 62
    2
 10
564.69593755615017
 20
625.11003832546203
 11
559.09593755615003
 21
625.11003832546203
  0
LINE
  8
_0-0_計極細
  6
CONTINUOUS
 62
    2
 10
564.69593755615017
 20
638.11003832546203
 11
559.09593755615003
 21
638.11003832546203
  0
LINE
  8
_0-0_計極細
  6
CONTINUOUS
 62
    2
 10
547.69593755615017
 20
625.11003832546203
 11
542.09593755614992
 21
625.11003832546203
  0
LINE
  8
_0-0_計極細
  6
CONTINUOUS
 62
    2
 10
547.69593755615017
 20
638.11003832546203
 11
542.09593755614992
 21
638.11003832546203
  0
LINE
  8
_0-0_計極細
  6
CONTINUOUS
 62
    2
 10
530.69593755615006
 20
625.11003832546203
 11
525.09593755615003
 21
625.11003832546203
  0
LINE
  8
_0-0_計極細
  6
CONTINUOUS
 62
    2
 10
530.69593755615006
 20
638.11003832546203
 11
525.09593755615003
 21
638.11003832546203
  0
LINE
  8
_0-0_計極細
  6
CONTINUOUS
 62
    2
 10
513.69593755615017
 20
625.11003832546203
 11
508.09593755615003
 21
625.11003832546203
  0
LINE
  8
_0-0_計極細
  6
CONTINUOUS
 62
    2
 10
513.69593755615017
 20
638.11003832546203
 11
508.09593755615003
 21
638.11003832546203
  0
LINE
  8
_0-0_計極細
  6
CONTINUOUS
 62
    2
 10
496.69593755615017
 20
625.11003832546203
 11
491.09593755614998
 21
625.11003832546203
  0
LINE
  8
_0-0_計極細
  6
CONTINUOUS
 62
    2
 10
496.69593755615017
 20
638.11003832546203
 11
491.09593755614998
 21
638.11003832546203
  0
LINE
  8
_0-0_計極細
  6
CONTINUOUS
 62
    2
 10
479.69593755615011
 20
625.11003832546203
 11
474.09593755615003
 21
625.11003832546203
  0
LINE
  8
_0-0_計極細
  6
CONTINUOUS
 62
    2
 10
479.69593755615011
 20
638.11003832546203
 11
474.09593755615003
 21
638.11003832546203
  0
LINE
  8
_0-0_計極細
  6
CONTINUOUS
 62
    2
 10
462.69593755615017
 20
625.11003832546203
 11
457.09593755615003
 21
625.11003832546203
  0
LINE
  8
_0-0_計極細
  6
CONTINUOUS
 62
    2
 10
462.69593755615017
 20
638.11003832546203
 11
457.09593755615003
 21
638.11003832546203
  0
LINE
  8
_0-0_計極細
  6
CONTINUOUS
 62
    2
 10
445.69593755615017
 20
625.11003832546203
 11
439.69593755614994
 21
625.11003832546203
  0
LINE
  8
_0-0_計極細
  6
CONTINUOUS
 62
    2
 10
445.69593755615017
 20
638.11003832546203
 11
439.69593755614994
 21
638.11003832546203
  0
LINE
  8
_0-0_計極細
  6
CONTINUOUS
 62
    2
 10
428.29593755615031
 20
625.11003832546203
 11
422.29593755615008
 21
625.11003832546203
  0
LINE
  8
_0-0_計極細
  6
CONTINUOUS
 62
    2
 10
428.29593755615031
 20
638.11003832546203
 11
422.29593755615008
 21
638.11003832546203
  0
LINE
  8
_0-0_計極細
  6
CONTINUOUS
 62
    2
 10
410.89593755615044
 20
625.11003832546203
 11
404.89593755615022
 21
625.11003832546203
  0
LINE
  8
_0-0_計極細
  6
CONTINUOUS
 62
    2
 10
410.89593755615044
 20
638.11003832546203
 11
404.89593755615022
 21
638.11003832546203
  0
LINE
  8
_0-0_計極細
  6
CONTINUOUS
 62
    2
 10
393.49593755615058
 20
625.11003832546203
 11
387.49593755615035
 21
625.11003832546203
  0
LINE
  8
_0-0_計極細
  6
CONTINUOUS
 62
    2
 10
393.49593755615058
 20
638.11003832546203
 11
387.49593755615035
 21
638.11003832546203
  0
LINE
  8
_0-0_計極細
  6
CENTER1
 62
    2
 10
373.08735237947064
 20
631.61003832546248
 11
1382.8537612971627
 21
631.61003832546203
  0
LINE
  8
_0-0_計極細
  6
CONTINUOUS
 62
    2
 10
1244.6959375561501
 20
841.11003832546226
 11
1239.0959375561497
 21
841.11003832546226
  0
ARC
  8
_0-0_計極細
  6
CONTINUOUS
 62
    2
 10
363.04215871283293
 20
607.11003832546066
 40
11.295514677412786
 50
138.39585046827415
 51
221.60414953172548
  0
ARC
  8
_0-0_計極細
  6
CONTINUOUS
 62
    2
 10
346.14971639946253
 20
592.11003832545885
 40
11.295514677412786
 50
318.39585046827534
 51
41.604149531723962
  0
LINE
  8
_0-1_計細線
  6
CONTINUOUS
 62
    3
 10
1396.5959375561488
 20
584.61003832546157
 11
354.59593755614776
 21
584.61003832546157
  0
ARC
  8
_0-0_計極細
  6
CONTINUOUS
 62
    2
 10
1405.0421587128344
 20
607.11003832546066
 40
11.295514677412786
 50
138.39585046827571
 51
221.60414953172395
  0
ARC
  8
_0-0_計極細
  6
CONTINUOUS
 62
    2
 10
1388.1497163994636
 20
592.11003832545885
 40
11.295514677412786
 50
318.39585046827534
 51
41.604149531723962
  0
LINE
  8
_0-1_計細線
  6
CONTINUOUS
 62
    3
 10
1398.5101532545232
 20
587.61003832546157
 11
356.51015325452346
 21
587.61003832546157
  0
LINE
  8
_0-1_計細線
  6
CONTINUOUS
 62
    3
 10
1375.0959375561488
 20
614.61003832546157
 11
1396.5959375561488
 21
614.61003832546157
  0
LINE
  8
_0-1_計細線
  6
CONTINUOUS
 62
    3
 10
354.59593755614776
 20
614.61003832546157
 11
376.09593755614867
 21
614.61003832546157
  0
ARC
  8
_0-0_計極細
  6
CONTINUOUS
 62
    2
 10
363.04215871283293
 20
887.11003832546214
 40
11.295514677412786
 50
138.39585046827571
 51
221.60414953172395
  0
ARC
  8
_0-0_計極細
  6
CONTINUOUS
 62
    2
 10
346.14971639946253
 20
872.11003832546044
 40
11.295514677412786
 50
318.39585046827227
 51
41.60414953172549
  0
LINE
  8
_0-1_計細線
  6
CONTINUOUS
 62
    3
 10
354.59593755614685
 20
894.61003832546214
 11
1396.5959375561483
 21
894.61003832546214
  0
ARC
  8
_0-0_計極細
  6
CONTINUOUS
 62
    2
 10
1405.042158712834
 20
887.11003832546214
 40
11.295514677412786
 50
138.39585046827571
 51
221.60414953172395
  0
ARC
  8
_0-0_計極細
  6
CONTINUOUS
 62
    2
 10
1388.1497163994632
 20
872.11003832546044
 40
11.295514677412786
 50
318.39585046827534
 51
41.604149531723962
  0
LINE
  8
_0-1_計細線
  6
CONTINUOUS
 62
    3
 10
352.68172185777428
 20
891.61003832546214
 11
1394.6817218577758
 21
891.61003832546214
  0
LINE
  8
_0-1_計細線
  6
CONTINUOUS
 62
    3
 10
1375.0959375561474
 20
864.61003832546044
 11
1396.595937556147
 21
864.61003832546044
  0
LINE
  8
_0-1_計細線
  6
CONTINUOUS
 62
    3
 10
354.59593755614503
 20
864.61003832546044
 11
376.09593755614679
 21
864.61003832546044
  0
LINE
  8
_0-1_計細線
  6
CONTINUOUS
 62
    3
 10
1375.0959375561497
 20
589.11003832546203
 11
1375.0959375561488
 21
890.11003832546214
  0
LINE
  8
_0-1_計細線
  6
CONTINUOUS
 62
    3
 10
1363.6959375561491
 20
589.11003832546203
 11
1363.6959375561482
 21
890.11003832546214
  0
LINE
  8
_0-1_計細線
  6
CONTINUOUS
 62
    3
 10
1375.0959375561497
 20
589.11003832546203
 11
1363.6959375561491
 21
589.11003832546203
  0
LINE
  8
_0-1_計細線
  6
CONTINUOUS
 62
    3
 10
1375.0959375561488
 20
890.11003832546214
 11
1363.6959375561482
 21
890.11003832546214
  0
LINE
  8
_0-0_計極細
  6
CONTINUOUS
 62
    2
 10
1366.8959375561494
 20
589.11003832546203
 11
1366.8959375561485
 21
890.11003832546214
  0
LINE
  8
_0-0_計極細
  6
CONTINUOUS
 62
    2
 10
1371.8959375561494
 20
589.11003832546203
 11
1371.8959375561485
 21
890.11003832546214
  0
LINE
  8
_0-1_計細線
  6
CONTINUOUS
 62
    3
 10
1341.0959375561488
 20
589.11003832546203
 11
1341.0959375561479
 21
890.11003832546214
  0
LINE
  8
_0-1_計細線
  6
CONTINUOUS
 62
    3
 10
1329.6959375561482
 20
589.11003832546248
 11
1329.6959375561473
 21
890.11003832546214
  0
LINE
  8
_0-1_計細線
  6
CONTINUOUS
 62
    3
 10
1341.0959375561488
 20
589.11003832546203
 11
1329.6959375561482
 21
589.11003832546248
  0
LINE
  8
_0-1_計細線
  6
CONTINUOUS
 62
    3
 10
1341.0959375561479
 20
890.11003832546214
 11
1329.6959375561473
 21
890.11003832546214
  0
LINE
  8
_0-0_計極細
  6
CONTINUOUS
 62
    2
 10
1332.895937556149
 20
589.11003832546248
 11
1332.8959375561481
 21
890.11003832546214
  0
LINE
  8
_0-0_計極細
  6
CONTINUOUS
 62
    2
 10
1337.895937556149
 20
589.11003832546203
 11
1337.8959375561481
 21
890.11003832546214
  0
LINE
  8
_0-1_計細線
  6
CONTINUOUS
 62
    3
 10
1324.0959375561483
 20
589.11003832546248
 11
1324.0959375561474
 21
890.11003832546214
  0
LINE
  8
_0-1_計細線
  6
CONTINUOUS
 62
    3
 10
1312.6959375561478
 20
589.11003832546248
 11
1312.6959375561469
 21
890.11003832546214
  0
LINE
  8
_0-1_計細線
  6
CONTINUOUS
 62
    3
 10
1324.0959375561483
 20
589.11003832546248
 11
1312.6959375561478
 21
589.11003832546248
  0
LINE
  8
_0-1_計細線
  6
CONTINUOUS
 62
    3
 10
1324.0959375561474
 20
890.11003832546214
 11
1312.6959375561469
 21
890.11003832546214
  0
LINE
  8
_0-0_計極細
  6
CONTINUOUS
 62
    2
 10
1315.8959375561481
 20
589.11003832546248
 11
1315.8959375561471
 21
890.11003832546214
  0
LINE
  8
_0-0_計極細
  6
CONTINUOUS
 62
    2
 10
1320.8959375561481
 20
589.11003832546248
 11
1320.8959375561471
 21
890.11003832546214
  0
LINE
  8
_0-1_計細線
  6
CONTINUOUS
 62
    3
 10
1261.6959375561505
 20
589.11003832546248
 11
1261.6959375561496
 21
890.11003832546214
  0
LINE
  8
_0-1_計細線
  6
CONTINUOUS
 62
    3
 10
1273.0959375561511
 20
589.11003832546203
 11
1273.0959375561501
 21
890.11003832546214
  0
LINE
  8
_0-1_計細線
  6
CONTINUOUS
 62
    3
 10
1261.6959375561505
 20
589.11003832546248
 11
1273.0959375561511
 21
589.11003832546203
  0
LINE
  8
_0-1_計細線
  6
CONTINUOUS
 62
    3
 10
1261.6959375561496
 20
890.11003832546214
 11
1273.0959375561501
 21
890.11003832546214
  0
LINE
  8
_0-0_計極細
  6
CONTINUOUS
 62
    2
 10
1269.8959375561503
 20
589.11003832546203
 11
1269.8959375561494
 21
890.11003832546214
  0
LINE
  8
_0-0_計極細
  6
CONTINUOUS
 62
    2
 10
1264.8959375561503
 20
589.11003832546248
 11
1264.8959375561494
 21
890.11003832546214
  0
LINE
  8
_0-1_計細線
  6
CONTINUOUS
 62
    3
 10
1244.6959375561496
 20
589.11003832546248
 11
1244.6959375561487
 21
890.11003832546214
  0
LINE
  8
_0-1_計細線
  6
CONTINUOUS
 62
    3
 10
1256.0959375561501
 20
589.11003832546248
 11
1256.0959375561492
 21
890.11003832546214
  0
LINE
  8
_0-1_計細線
  6
CONTINUOUS
 62
    3
 10
1244.6959375561496
 20
589.11003832546248
 11
1256.0959375561501
 21
589.11003832546248
  0
LINE
  8
_0-1_計細線
  6
CONTINUOUS
 62
    3
 10
1244.6959375561487
 20
890.11003832546214
 11
1256.0959375561492
 21
890.11003832546214
  0
LINE
  8
_0-0_計極細
  6
CONTINUOUS
 62
    2
 10
1252.8959375561499
 20
589.11003832546248
 11
1252.895937556149
 21
890.11003832546214
  0
LINE
  8
_0-0_計極細
  6
CONTINUOUS
 62
    2
 10
1247.8959375561499
 20
589.11003832546248
 11
1247.895937556149
 21
890.11003832546214
  0
LINE
  8
_0-1_計細線
  6
CONTINUOUS
 62
    3
 10
1227.6959375561496
 20
589.11003832546248
 11
1227.6959375561487
 21
890.11003832546214
  0
LINE
  8
_0-1_計細線
  6
CONTINUOUS
 62
    3
 10
1239.0959375561501
 20
589.11003832546248
 11
1239.0959375561492
 21
890.11003832546214
  0
LINE
  8
_0-1_計細線
  6
CONTINUOUS
 62
    3
 10
1227.6959375561496
 20
589.11003832546248
 11
1239.0959375561501
 21
589.11003832546248
  0
LINE
  8
_0-1_計細線
  6
CONTINUOUS
 62
    3
 10
1227.6959375561487
 20
890.11003832546214
 11
1239.0959375561492
 21
890.11003832546214
  0
LINE
  8
_0-0_計極細
  6
CONTINUOUS
 62
    2
 10
1235.8959375561499
 20
589.11003832546248
 11
1235.895937556149
 21
890.11003832546214
  0
LINE
  8
_0-0_計極細
  6
CONTINUOUS
 62
    2
 10
1230.8959375561499
 20
589.11003832546248
 11
1230.895937556149
 21
890.11003832546214
  0
LINE
  8
_0-1_計細線
  6
CONTINUOUS
 62
    3
 10
1222.0959375561506
 20
589.11003832546203
 11
1222.0959375561497
 21
890.11003832546214
  0
LINE
  8
_0-1_計細線
  6
CONTINUOUS
 62
    3
 10
1210.6959375561501
 20
589.11003832546203
 11
1210.6959375561491
 21
890.11003832546214
  0
LINE
  8
_0-1_計細線
  6
CONTINUOUS
 62
    3
 10
1222.0959375561506
 20
589.11003832546203
 11
1210.6959375561501
 21
589.11003832546203
  0
LINE
  8
_0-1_計細線
  6
CONTINUOUS
 62
    3
 10
1222.0959375561497
 20
890.11003832546214
 11
1210.6959375561491
 21
890.11003832546214
  0
LINE
  8
_0-0_計極細
  6
CONTINUOUS
 62
    2
 10
1213.8959375561503
 20
589.11003832546203
 11
1213.8959375561494
 21
890.11003832546214
  0
LINE
  8
_0-0_計極細
  6
CONTINUOUS
 62
    2
 10
1218.8959375561503
 20
589.11003832546203
 11
1218.8959375561494
 21
890.11003832546214
  0
LINE
  8
_0-1_計細線
  6
CONTINUOUS
 62
    3
 10
1358.0959375561511
 20
589.11003832546203
 11
1358.0959375561501
 21
890.11003832546214
  0
LINE
  8
_0-1_計細線
  6
CONTINUOUS
 62
    3
 10
1346.6959375561505
 20
589.11003832546248
 11
1346.6959375561496
 21
890.11003832546214
  0
LINE
  8
_0-1_計細線
  6
CONTINUOUS
 62
    3
 10
1358.0959375561511
 20
589.11003832546203
 11
1346.6959375561505
 21
589.11003832546248
  0
LINE
  8
_0-1_計細線
  6
CONTINUOUS
 62
    3
 10
1358.0959375561501
 20
890.11003832546214
 11
1346.6959375561496
 21
890.11003832546214
  0
LINE
  8
_0-0_計極細
  6
CONTINUOUS
 62
    2
 10
1349.8959375561512
 20
589.11003832546248
 11
1349.8959375561503
 21
890.11003832546214
  0
LINE
  8
_0-0_計極細
  6
CONTINUOUS
 62
    2
 10
1354.8959375561512
 20
589.11003832546203
 11
1354.8959375561503
 21
890.11003832546214
  0
LINE
  8
_0-1_計細線
  6
CONTINUOUS
 62
    3
 10
1205.0959375561506
 20
589.11003832546203
 11
1205.0959375561497
 21
890.11003832546214
  0
LINE
  8
_0-1_計細線
  6
CONTINUOUS
 62
    3
 10
1193.6959375561501
 20
589.11003832546203
 11
1193.6959375561491
 21
890.11003832546214
  0
LINE
  8
_0-1_計細線
  6
CONTINUOUS
 62
    3
 10
1205.0959375561506
 20
589.11003832546203
 11
1193.6959375561501
 21
589.11003832546203
  0
LINE
  8
_0-1_計細線
  6
CONTINUOUS
 62
    3
 10
1205.0959375561497
 20
890.11003832546214
 11
1193.6959375561491
 21
890.11003832546214
  0
LINE
  8
_0-0_計極細
  6
CONTINUOUS
 62
    2
 10
1196.8959375561503
 20
589.11003832546203
 11
1196.8959375561494
 21
890.11003832546214
  0
LINE
  8
_0-0_計極細
  6
CONTINUOUS
 62
    2
 10
1201.8959375561503
 20
589.11003832546203
 11
1201.8959375561494
 21
890.11003832546214
  0
LINE
  8
_0-1_計細線
  6
CONTINUOUS
 62
    3
 10
1188.0959375561506
 20
589.11003832546203
 11
1188.0959375561497
 21
890.11003832546214
  0
LINE
  8
_0-1_計細線
  6
CONTINUOUS
 62
    3
 10
1176.6959375561501
 20
589.11003832546203
 11
1176.6959375561491
 21
890.11003832546214
  0
LINE
  8
_0-1_計細線
  6
CONTINUOUS
 62
    3
 10
1188.0959375561506
 20
589.11003832546203
 11
1176.6959375561501
 21
589.11003832546203
  0
LINE
  8
_0-1_計細線
  6
CONTINUOUS
 62
    3
 10
1188.0959375561497
 20
890.11003832546214
 11
1176.6959375561491
 21
890.11003832546214
  0
LINE
  8
_0-0_計極細
  6
CONTINUOUS
 62
    2
 10
1179.8959375561503
 20
589.11003832546203
 11
1179.8959375561494
 21
890.11003832546214
  0
LINE
  8
_0-0_計極細
  6
CONTINUOUS
 62
    2
 10
1184.8959375561503
 20
589.11003832546203
 11
1184.8959375561494
 21
890.11003832546214
  0
LINE
  8
_0-1_計細線
  6
CONTINUOUS
 62
    3
 10
1171.0959375561506
 20
589.11003832546203
 11
1171.0959375561497
 21
890.11003832546214
  0
LINE
  8
_0-1_計細線
  6
CONTINUOUS
 62
    3
 10
1159.6959375561501
 20
589.11003832546203
 11
1159.6959375561491
 21
890.11003832546214
  0
LINE
  8
_0-1_計細線
  6
CONTINUOUS
 62
    3
 10
1171.0959375561506
 20
589.11003832546203
 11
1159.6959375561501
 21
589.11003832546203
  0
LINE
  8
_0-1_計細線
  6
CONTINUOUS
 62
    3
 10
1171.0959375561497
 20
890.11003832546214
 11
1159.6959375561491
 21
890.11003832546214
  0
LINE
  8
_0-0_計極細
  6
CONTINUOUS
 62
    2
 10
1162.8959375561503
 20
589.11003832546203
 11
1162.8959375561494
 21
890.11003832546214
  0
LINE
  8
_0-0_計極細
  6
CONTINUOUS
 62
    2
 10
1167.8959375561503
 20
589.11003832546203
 11
1167.8959375561494
 21
890.11003832546214
  0
LINE
  8
_0-1_計細線
  6
CONTINUOUS
 62
    3
 10
1154.0959375561506
 20
589.11003832546203
 11
1154.0959375561497
 21
890.11003832546214
  0
LINE
  8
_0-1_計細線
  6
CONTINUOUS
 62
    3
 10
1142.6959375561501
 20
589.11003832546203
 11
1142.6959375561491
 21
890.11003832546214
  0
LINE
  8
_0-1_計細線
  6
CONTINUOUS
 62
    3
 10
1154.0959375561506
 20
589.11003832546203
 11
1142.6959375561501
 21
589.11003832546203
  0
LINE
  8
_0-1_計細線
  6
CONTINUOUS
 62
    3
 10
1154.0959375561497
 20
890.11003832546214
 11
1142.6959375561491
 21
890.11003832546214
  0
LINE
  8
_0-0_計極細
  6
CONTINUOUS
 62
    2
 10
1145.8959375561503
 20
589.11003832546203
 11
1145.8959375561494
 21
890.11003832546214
  0
LINE
  8
_0-0_計極細
  6
CONTINUOUS
 62
    2
 10
1150.8959375561503
 20
589.11003832546203
 11
1150.8959375561494
 21
890.11003832546214
  0
LINE
  8
_0-1_計細線
  6
CONTINUOUS
 62
    3
 10
1137.0959375561506
 20
589.11003832546203
 11
1137.0959375561497
 21
890.11003832546214
  0
LINE
  8
_0-1_計細線
  6
CONTINUOUS
 62
    3
 10
1125.6959375561501
 20
589.11003832546203
 11
1125.6959375561491
 21
890.11003832546214
  0
LINE
  8
_0-1_計細線
  6
CONTINUOUS
 62
    3
 10
1137.0959375561506
 20
589.11003832546203
 11
1125.6959375561501
 21
589.11003832546203
  0
LINE
  8
_0-1_計細線
  6
CONTINUOUS
 62
    3
 10
1137.0959375561497
 20
890.11003832546214
 11
1125.6959375561491
 21
890.11003832546214
  0
LINE
  8
_0-0_計極細
  6
CONTINUOUS
 62
    2
 10
1128.8959375561503
 20
589.11003832546203
 11
1128.8959375561494
 21
890.11003832546214
  0
LINE
  8
_0-0_計極細
  6
CONTINUOUS
 62
    2
 10
1133.8959375561503
 20
589.11003832546203
 11
1133.8959375561494
 21
890.11003832546214
  0
LINE
  8
_0-1_計細線
  6
CONTINUOUS
 62
    3
 10
1120.0959375561506
 20
589.11003832546203
 11
1120.0959375561497
 21
890.11003832546214
  0
LINE
  8
_0-1_計細線
  6
CONTINUOUS
 62
    3
 10
1108.6959375561501
 20
589.11003832546203
 11
1108.6959375561491
 21
890.11003832546214
  0
LINE
  8
_0-1_計細線
  6
CONTINUOUS
 62
    3
 10
1120.0959375561506
 20
589.11003832546203
 11
1108.6959375561501
 21
589.11003832546203
  0
LINE
  8
_0-1_計細線
  6
CONTINUOUS
 62
    3
 10
1120.0959375561497
 20
890.11003832546214
 11
1108.6959375561491
 21
890.11003832546214
  0
LINE
  8
_0-0_計極細
  6
CONTINUOUS
 62
    2
 10
1111.8959375561503
 20
589.11003832546203
 11
1111.8959375561494
 21
890.11003832546214
  0
LINE
  8
_0-0_計極細
  6
CONTINUOUS
 62
    2
 10
1116.8959375561503
 20
589.11003832546203
 11
1116.8959375561494
 21
890.11003832546214
  0
LINE
  8
_0-1_計細線
  6
CONTINUOUS
 62
    3
 10
1103.0959375561506
 20
589.11003832546203
 11
1103.0959375561497
 21
890.11003832546214
  0
LINE
  8
_0-1_計細線
  6
CONTINUOUS
 62
    3
 10
1091.6959375561501
 20
589.11003832546203
 11
1091.6959375561491
 21
890.11003832546214
  0
LINE
  8
_0-1_計細線
  6
CONTINUOUS
 62
    3
 10
1103.0959375561506
 20
589.11003832546203
 11
1091.6959375561501
 21
589.11003832546203
  0
LINE
  8
_0-1_計細線
  6
CONTINUOUS
 62
    3
 10
1103.0959375561497
 20
890.11003832546214
 11
1091.6959375561491
 21
890.11003832546214
  0
LINE
  8
_0-0_計極細
  6
CONTINUOUS
 62
    2
 10
1094.8959375561503
 20
589.11003832546203
 11
1094.8959375561494
 21
890.11003832546214
  0
LINE
  8
_0-0_計極細
  6
CONTINUOUS
 62
    2
 10
1099.8959375561503
 20
589.11003832546203
 11
1099.8959375561494
 21
890.11003832546214
  0
LINE
  8
_0-1_計細線
  6
CONTINUOUS
 62
    3
 10
1086.0959375561506
 20
589.11003832546203
 11
1086.0959375561497
 21
890.11003832546214
  0
LINE
  8
_0-1_計細線
  6
CONTINUOUS
 62
    3
 10
1074.6959375561501
 20
589.11003832546203
 11
1074.6959375561491
 21
890.11003832546214
  0
LINE
  8
_0-1_計細線
  6
CONTINUOUS
 62
    3
 10
1086.0959375561506
 20
589.11003832546203
 11
1074.6959375561501
 21
589.11003832546203
  0
LINE
  8
_0-1_計細線
  6
CONTINUOUS
 62
    3
 10
1086.0959375561497
 20
890.11003832546214
 11
1074.6959375561491
 21
890.11003832546214
  0
LINE
  8
_0-0_計極細
  6
CONTINUOUS
 62
    2
 10
1077.8959375561503
 20
589.11003832546203
 11
1077.8959375561494
 21
890.11003832546214
  0
LINE
  8
_0-0_計極細
  6
CONTINUOUS
 62
    2
 10
1082.8959375561503
 20
589.11003832546203
 11
1082.8959375561494
 21
890.11003832546214
  0
LINE
  8
_0-1_計細線
  6
CONTINUOUS
 62
    3
 10
1069.0959375561506
 20
589.11003832546203
 11
1069.0959375561497
 21
890.11003832546214
  0
LINE
  8
_0-1_計細線
  6
CONTINUOUS
 62
    3
 10
1057.6959375561501
 20
589.11003832546203
 11
1057.6959375561491
 21
890.11003832546214
  0
LINE
  8
_0-1_計細線
  6
CONTINUOUS
 62
    3
 10
1069.0959375561506
 20
589.11003832546203
 11
1057.6959375561501
 21
589.11003832546203
  0
LINE
  8
_0-1_計細線
  6
CONTINUOUS
 62
    3
 10
1069.0959375561497
 20
890.11003832546214
 11
1057.6959375561491
 21
890.11003832546214
  0
LINE
  8
_0-0_計極細
  6
CONTINUOUS
 62
    2
 10
1060.8959375561503
 20
589.11003832546203
 11
1060.8959375561494
 21
890.11003832546214
  0
LINE
  8
_0-0_計極細
  6
CONTINUOUS
 62
    2
 10
1065.8959375561503
 20
589.11003832546203
 11
1065.8959375561494
 21
890.11003832546214
  0
LINE
  8
_0-1_計細線
  6
CONTINUOUS
 62
    3
 10
1052.0959375561506
 20
589.11003832546203
 11
1052.0959375561497
 21
890.11003832546214
  0
LINE
  8
_0-1_計細線
  6
CONTINUOUS
 62
    3
 10
1040.6959375561501
 20
589.11003832546203
 11
1040.6959375561491
 21
890.11003832546214
  0
LINE
  8
_0-1_計細線
  6
CONTINUOUS
 62
    3
 10
1052.0959375561506
 20
589.11003832546203
 11
1040.6959375561501
 21
589.11003832546203
  0
LINE
  8
_0-1_計細線
  6
CONTINUOUS
 62
    3
 10
1052.0959375561497
 20
890.11003832546214
 11
1040.6959375561491
 21
890.11003832546214
  0
LINE
  8
_0-0_計極細
  6
CONTINUOUS
 62
    2
 10
1043.8959375561503
 20
589.11003832546203
 11
1043.8959375561494
 21
890.11003832546214
  0
LINE
  8
_0-0_計極細
  6
CONTINUOUS
 62
    2
 10
1048.8959375561503
 20
589.11003832546203
 11
1048.8959375561494
 21
890.11003832546214
  0
LINE
  8
_0-1_計細線
  6
CONTINUOUS
 62
    3
 10
1035.0959375561506
 20
589.11003832546203
 11
1035.0959375561497
 21
890.11003832546214
  0
LINE
  8
_0-1_計細線
  6
CONTINUOUS
 62
    3
 10
1023.6959375561501
 20
589.11003832546203
 11
1023.6959375561491
 21
890.11003832546214
  0
LINE
  8
_0-1_計細線
  6
CONTINUOUS
 62
    3
 10
1035.0959375561506
 20
589.11003832546203
 11
1023.6959375561501
 21
589.11003832546203
  0
LINE
  8
_0-1_計細線
  6
CONTINUOUS
 62
    3
 10
1035.0959375561497
 20
890.11003832546214
 11
1023.6959375561491
 21
890.11003832546214
  0
LINE
  8
_0-0_計極細
  6
CONTINUOUS
 62
    2
 10
1026.8959375561503
 20
589.11003832546203
 11
1026.8959375561494
 21
890.11003832546214
  0
LINE
  8
_0-0_計極細
  6
CONTINUOUS
 62
    2
 10
1031.8959375561503
 20
589.11003832546203
 11
1031.8959375561494
 21
890.11003832546214
  0
LINE
  8
_0-1_計細線
  6
CONTINUOUS
 62
    3
 10
1018.0959375561507
 20
589.11003832546203
 11
1018.0959375561497
 21
890.11003832546214
  0
LINE
  8
_0-1_計細線
  6
CONTINUOUS
 62
    3
 10
1006.6959375561502
 20
589.11003832546203
 11
1006.6959375561491
 21
890.11003832546214
  0
LINE
  8
_0-1_計細線
  6
CONTINUOUS
 62
    3
 10
1018.0959375561507
 20
589.11003832546203
 11
1006.6959375561502
 21
589.11003832546203
  0
LINE
  8
_0-1_計細線
  6
CONTINUOUS
 62
    3
 10
1018.0959375561497
 20
890.11003832546214
 11
1006.6959375561491
 21
890.11003832546214
  0
LINE
  8
_0-0_計極細
  6
CONTINUOUS
 62
    2
 10
1009.8959375561503
 20
589.11003832546203
 11
1009.8959375561494
 21
890.11003832546214
  0
LINE
  8
_0-0_計極細
  6
CONTINUOUS
 62
    2
 10
1014.8959375561503
 20
589.11003832546203
 11
1014.8959375561495
 21
890.11003832546214
  0
LINE
  8
_0-1_計細線
  6
CONTINUOUS
 62
    3
 10
1001.0959375561506
 20
589.11003832546203
 11
1001.0959375561498
 21
890.11003832546214
  0
LINE
  8
_0-1_計細線
  6
CONTINUOUS
 62
    3
 10
989.69593755615006
 20
589.11003832546203
 11
989.69593755614926
 21
890.11003832546214
  0
LINE
  8
_0-1_計細線
  6
CONTINUOUS
 62
    3
 10
1001.0959375561506
 20
589.11003832546203
 11
989.69593755615006
 21
589.11003832546203
  0
LINE
  8
_0-1_計細線
  6
CONTINUOUS
 62
    3
 10
1001.0959375561498
 20
890.11003832546214
 11
989.69593755614926
 21
890.11003832546214
  0
LINE
  8
_0-0_計極細
  6
CONTINUOUS
 62
    2
 10
992.89593755615044
 20
589.11003832546203
 11
992.89593755614942
 21
890.11003832546214
  0
LINE
  8
_0-0_計極細
  6
CONTINUOUS
 62
    2
 10
997.89593755615033
 20
589.11003832546203
 11
997.89593755614942
 21
890.11003832546214
  0
LINE
  8
_0-1_計細線
  6
CONTINUOUS
 62
    3
 10
984.0959375561506
 20
589.11003832546203
 11
984.09593755614969
 21
890.11003832546214
  0
LINE
  8
_0-1_計細線
  6
CONTINUOUS
 62
    3
 10
972.69593755615006
 20
589.11003832546203
 11
972.69593755614915
 21
890.11003832546214
  0
LINE
  8
_0-1_計細線
  6
CONTINUOUS
 62
    3
 10
984.0959375561506
 20
589.11003832546203
 11
972.69593755615006
 21
589.11003832546203
  0
LINE
  8
_0-1_計細線
  6
CONTINUOUS
 62
    3
 10
984.09593755614969
 20
890.11003832546214
 11
972.69593755614915
 21
890.11003832546214
  0
LINE
  8
_0-0_計極細
  6
CONTINUOUS
 62
    2
 10
975.89593755615033
 20
589.11003832546203
 11
975.89593755614953
 21
890.11003832546214
  0
LINE
  8
_0-0_計極細
  6
CONTINUOUS
 62
    2
 10
980.89593755615044
 20
589.11003832546203
 11
980.89593755614942
 21
890.11003832546214
  0
LINE
  8
_0-1_計細線
  6
CONTINUOUS
 62
    3
 10
967.09593755615072
 20
589.11003832546203
 11
967.09593755614969
 21
890.11003832546214
  0
LINE
  8
_0-1_計細線
  6
CONTINUOUS
 62
    3
 10
955.69593755615017
 20
589.11003832546203
 11
955.69593755614915
 21
890.11003832546214
  0
LINE
  8
_0-1_計細線
  6
CONTINUOUS
 62
    3
 10
967.09593755615072
 20
589.11003832546203
 11
955.69593755615017
 21
589.11003832546203
  0
LINE
  8
_0-1_計細線
  6
CONTINUOUS
 62
    3
 10
967.09593755614969
 20
890.11003832546214
 11
955.69593755614915
 21
890.11003832546214
  0
LINE
  8
_0-0_計極細
  6
CONTINUOUS
 62
    2
 10
958.89593755615033
 20
589.11003832546203
 11
958.89593755614942
 21
890.11003832546214
  0
LINE
  8
_0-0_計極細
  6
CONTINUOUS
 62
    2
 10
963.89593755615033
 20
589.11003832546203
 11
963.89593755614953
 21
890.11003832546214
  0
LINE
  8
_0-1_計細線
  6
CONTINUOUS
 62
    3
 10
950.0959375561506
 20
589.11003832546203
 11
950.09593755614981
 21
890.11003832546214
  0
LINE
  8
_0-1_計細線
  6
CONTINUOUS
 62
    3
 10
938.69593755615006
 20
589.11003832546203
 11
938.69593755614926
 21
890.11003832546214
  0
LINE
  8
_0-1_計細線
  6
CONTINUOUS
 62
    3
 10
950.0959375561506
 20
589.11003832546203
 11
938.69593755615006
 21
589.11003832546203
  0
LINE
  8
_0-1_計細線
  6
CONTINUOUS
 62
    3
 10
950.09593755614981
 20
890.11003832546214
 11
938.69593755614926
 21
890.11003832546214
  0
LINE
  8
_0-0_計極細
  6
CONTINUOUS
 62
    2
 10
941.89593755615044
 20
589.11003832546203
 11
941.89593755614942
 21
890.11003832546214
  0
LINE
  8
_0-0_計極細
  6
CONTINUOUS
 62
    2
 10
946.89593755615033
 20
589.11003832546203
 11
946.89593755614942
 21
890.11003832546214
  0
LINE
  8
_0-1_計細線
  6
CONTINUOUS
 62
    3
 10
933.0959375561506
 20
589.11003832546203
 11
933.09593755614969
 21
890.11003832546214
  0
LINE
  8
_0-1_計細線
  6
CONTINUOUS
 62
    3
 10
921.69593755615006
 20
589.11003832546203
 11
921.69593755614915
 21
890.11003832546214
  0
LINE
  8
_0-1_計細線
  6
CONTINUOUS
 62
    3
 10
933.0959375561506
 20
589.11003832546203
 11
921.69593755615006
 21
589.11003832546203
  0
LINE
  8
_0-1_計細線
  6
CONTINUOUS
 62
    3
 10
933.09593755614969
 20
890.11003832546214
 11
921.69593755614915
 21
890.11003832546214
  0
LINE
  8
_0-0_計極細
  6
CONTINUOUS
 62
    2
 10
924.89593755615033
 20
589.11003832546203
 11
924.89593755614953
 21
890.11003832546214
  0
LINE
  8
_0-0_計極細
  6
CONTINUOUS
 62
    2
 10
929.89593755615044
 20
589.11003832546203
 11
929.89593755614942
 21
890.11003832546214
  0
LINE
  8
_0-1_計細線
  6
CONTINUOUS
 62
    3
 10
916.09593755615072
 20
589.11003832546203
 11
916.09593755614969
 21
890.11003832546214
  0
LINE
  8
_0-1_計細線
  6
CONTINUOUS
 62
    3
 10
904.69593755615017
 20
589.11003832546203
 11
904.69593755614915
 21
890.11003832546214
  0
LINE
  8
_0-1_計細線
  6
CONTINUOUS
 62
    3
 10
916.09593755615072
 20
589.11003832546203
 11
904.69593755615017
 21
589.11003832546203
  0
LINE
  8
_0-1_計細線
  6
CONTINUOUS
 62
    3
 10
916.09593755614969
 20
890.11003832546214
 11
904.69593755614915
 21
890.11003832546214
  0
LINE
  8
_0-0_計極細
  6
CONTINUOUS
 62
    2
 10
907.89593755615033
 20
589.11003832546203
 11
907.89593755614942
 21
890.11003832546214
  0
LINE
  8
_0-0_計極細
  6
CONTINUOUS
 62
    2
 10
912.89593755615033
 20
589.11003832546203
 11
912.89593755614953
 21
890.11003832546214
  0
LINE
  8
_0-1_計細線
  6
CONTINUOUS
 62
    3
 10
899.0959375561506
 20
589.11003832546203
 11
899.09593755614981
 21
890.11003832546214
  0
LINE
  8
_0-1_計細線
  6
CONTINUOUS
 62
    3
 10
887.69593755615006
 20
589.11003832546203
 11
887.69593755614926
 21
890.11003832546214
  0
LINE
  8
_0-1_計細線
  6
CONTINUOUS
 62
    3
 10
899.0959375561506
 20
589.11003832546203
 11
887.69593755615006
 21
589.11003832546203
  0
LINE
  8
_0-1_計細線
  6
CONTINUOUS
 62
    3
 10
899.09593755614981
 20
890.11003832546214
 11
887.69593755614926
 21
890.11003832546214
  0
LINE
  8
_0-0_計極細
  6
CONTINUOUS
 62
    2
 10
890.89593755615044
 20
589.11003832546203
 11
890.89593755614942
 21
890.11003832546214
  0
LINE
  8
_0-0_計極細
  6
CONTINUOUS
 62
    2
 10
895.89593755615033
 20
589.11003832546203
 11
895.89593755614942
 21
890.11003832546214
  0
LINE
  8
_0-1_計細線
  6
CONTINUOUS
 62
    3
 10
882.0959375561506
 20
589.11003832546203
 11
882.09593755614969
 21
890.11003832546214
  0
LINE
  8
_0-1_計細線
  6
CONTINUOUS
 62
    3
 10
870.69593755615006
 20
589.11003832546203
 11
870.69593755614915
 21
890.11003832546214
  0
LINE
  8
_0-1_計細線
  6
CONTINUOUS
 62
    3
 10
882.0959375561506
 20
589.11003832546203
 11
870.69593755615006
 21
589.11003832546203
  0
LINE
  8
_0-1_計細線
  6
CONTINUOUS
 62
    3
 10
882.09593755614969
 20
890.11003832546214
 11
870.69593755614915
 21
890.11003832546214
  0
LINE
  8
_0-0_計極細
  6
CONTINUOUS
 62
    2
 10
873.89593755615033
 20
589.11003832546203
 11
873.89593755614953
 21
890.11003832546214
  0
LINE
  8
_0-0_計極細
  6
CONTINUOUS
 62
    2
 10
878.89593755615044
 20
589.11003832546203
 11
878.89593755614942
 21
890.11003832546214
  0
LINE
  8
_0-1_計細線
  6
CONTINUOUS
 62
    3
 10
865.09593755615072
 20
589.11003832546203
 11
865.09593755614969
 21
890.11003832546214
  0
LINE
  8
_0-1_計細線
  6
CONTINUOUS
 62
    3
 10
853.69593755615017
 20
589.11003832546203
 11
853.69593755614915
 21
890.11003832546214
  0
LINE
  8
_0-1_計細線
  6
CONTINUOUS
 62
    3
 10
865.09593755615072
 20
589.11003832546203
 11
853.69593755615017
 21
589.11003832546203
  0
LINE
  8
_0-1_計細線
  6
CONTINUOUS
 62
    3
 10
865.09593755614969
 20
890.11003832546214
 11
853.69593755614915
 21
890.11003832546214
  0
LINE
  8
_0-0_計極細
  6
CONTINUOUS
 62
    2
 10
856.89593755615033
 20
589.11003832546203
 11
856.89593755614942
 21
890.11003832546214
  0
LINE
  8
_0-0_計極細
  6
CONTINUOUS
 62
    2
 10
861.89593755615033
 20
589.11003832546203
 11
861.89593755614953
 21
890.11003832546214
  0
LINE
  8
_0-1_計細線
  6
CONTINUOUS
 62
    3
 10
848.0959375561506
 20
589.11003832546203
 11
848.09593755614981
 21
890.11003832546214
  0
LINE
  8
_0-1_計細線
  6
CONTINUOUS
 62
    3
 10
836.69593755615006
 20
589.11003832546203
 11
836.69593755614926
 21
890.11003832546214
  0
LINE
  8
_0-1_計細線
  6
CONTINUOUS
 62
    3
 10
848.0959375561506
 20
589.11003832546203
 11
836.69593755615006
 21
589.11003832546203
  0
LINE
  8
_0-1_計細線
  6
CONTINUOUS
 62
    3
 10
848.09593755614981
 20
890.11003832546214
 11
836.69593755614926
 21
890.11003832546214
  0
LINE
  8
_0-0_計極細
  6
CONTINUOUS
 62
    2
 10
839.89593755615044
 20
589.11003832546203
 11
839.89593755614942
 21
890.11003832546214
  0
LINE
  8
_0-0_計極細
  6
CONTINUOUS
 62
    2
 10
844.89593755615033
 20
589.11003832546203
 11
844.89593755614942
 21
890.11003832546214
  0
LINE
  8
_0-1_計細線
  6
CONTINUOUS
 62
    3
 10
831.0959375561506
 20
589.11003832546203
 11
831.09593755614969
 21
890.11003832546214
  0
LINE
  8
_0-1_計細線
  6
CONTINUOUS
 62
    3
 10
819.69593755615006
 20
589.11003832546203
 11
819.69593755614915
 21
890.11003832546214
  0
LINE
  8
_0-1_計細線
  6
CONTINUOUS
 62
    3
 10
831.0959375561506
 20
589.11003832546203
 11
819.69593755615006
 21
589.11003832546203
  0
LINE
  8
_0-1_計細線
  6
CONTINUOUS
 62
    3
 10
831.09593755614969
 20
890.11003832546214
 11
819.69593755614915
 21
890.11003832546214
  0
LINE
  8
_0-0_計極細
  6
CONTINUOUS
 62
    2
 10
822.89593755615033
 20
589.11003832546203
 11
822.89593755614953
 21
890.11003832546214
  0
LINE
  8
_0-0_計極細
  6
CONTINUOUS
 62
    2
 10
827.89593755615044
 20
589.11003832546203
 11
827.89593755614942
 21
890.11003832546214
  0
LINE
  8
_0-1_計細線
  6
CONTINUOUS
 62
    3
 10
814.09593755615072
 20
589.11003832546203
 11
814.09593755614969
 21
890.11003832546214
  0
LINE
  8
_0-1_計細線
  6
CONTINUOUS
 62
    3
 10
802.69593755615017
 20
589.11003832546203
 11
802.69593755614915
 21
890.11003832546214
  0
LINE
  8
_0-1_計細線
  6
CONTINUOUS
 62
    3
 10
814.09593755615072
 20
589.11003832546203
 11
802.69593755615017
 21
589.11003832546203
  0
LINE
  8
_0-1_計細線
  6
CONTINUOUS
 62
    3
 10
814.09593755614969
 20
890.11003832546214
 11
802.69593755614915
 21
890.11003832546214
  0
LINE
  8
_0-0_計極細
  6
CONTINUOUS
 62
    2
 10
805.89593755615033
 20
589.11003832546203
 11
805.89593755614942
 21
890.11003832546214
  0
LINE
  8
_0-0_計極細
  6
CONTINUOUS
 62
    2
 10
810.89593755615033
 20
589.11003832546203
 11
810.89593755614953
 21
890.11003832546214
  0
LINE
  8
_0-1_計細線
  6
CONTINUOUS
 62
    3
 10
797.0959375561506
 20
589.11003832546203
 11
797.09593755614981
 21
890.11003832546214
  0
LINE
  8
_0-1_計細線
  6
CONTINUOUS
 62
    3
 10
785.69593755615006
 20
589.11003832546203
 11
785.69593755614926
 21
890.11003832546214
  0
LINE
  8
_0-1_計細線
  6
CONTINUOUS
 62
    3
 10
797.0959375561506
 20
589.11003832546203
 11
785.69593755615006
 21
589.11003832546203
  0
LINE
  8
_0-1_計細線
  6
CONTINUOUS
 62
    3
 10
797.09593755614981
 20
890.11003832546214
 11
785.69593755614926
 21
890.11003832546214
  0
LINE
  8
_0-0_計極細
  6
CONTINUOUS
 62
    2
 10
788.89593755615044
 20
589.11003832546203
 11
788.89593755614942
 21
890.11003832546214
  0
LINE
  8
_0-0_計極細
  6
CONTINUOUS
 62
    2
 10
793.89593755615033
 20
589.11003832546203
 11
793.89593755614942
 21
890.11003832546214
  0
LINE
  8
_0-1_計細線
  6
CONTINUOUS
 62
    3
 10
780.0959375561506
 20
589.11003832546203
 11
780.09593755614969
 21
890.11003832546214
  0
LINE
  8
_0-1_計細線
  6
CONTINUOUS
 62
    3
 10
768.69593755615006
 20
589.11003832546203
 11
768.69593755614915
 21
890.11003832546214
  0
LINE
  8
_0-1_計細線
  6
CONTINUOUS
 62
    3
 10
780.0959375561506
 20
589.11003832546203
 11
768.69593755615006
 21
589.11003832546203
  0
LINE
  8
_0-1_計細線
  6
CONTINUOUS
 62
    3
 10
780.09593755614969
 20
890.11003832546214
 11
768.69593755614915
 21
890.11003832546214
  0
LINE
  8
_0-0_計極細
  6
CONTINUOUS
 62
    2
 10
771.89593755615033
 20
589.11003832546203
 11
771.89593755614953
 21
890.11003832546214
  0
LINE
  8
_0-0_計極細
  6
CONTINUOUS
 62
    2
 10
776.89593755615044
 20
589.11003832546203
 11
776.89593755614942
 21
890.11003832546214
  0
LINE
  8
_0-1_計細線
  6
CONTINUOUS
 62
    3
 10
763.09593755615072
 20
589.11003832546203
 11
763.09593755614981
 21
890.11003832546214
  0
LINE
  8
_0-1_計細線
  6
CONTINUOUS
 62
    3
 10
751.69593755615017
 20
589.11003832546203
 11
751.69593755614926
 21
890.11003832546214
  0
LINE
  8
_0-1_計細線
  6
CONTINUOUS
 62
    3
 10
763.09593755615072
 20
589.11003832546203
 11
751.69593755615017
 21
589.11003832546203
  0
LINE
  8
_0-1_計細線
  6
CONTINUOUS
 62
    3
 10
763.09593755614981
 20
890.11003832546214
 11
751.69593755614926
 21
890.11003832546214
  0
LINE
  8
_0-0_計極細
  6
CONTINUOUS
 62
    2
 10
754.89593755615044
 20
589.11003832546203
 11
754.89593755614942
 21
890.11003832546214
  0
LINE
  8
_0-0_計極細
  6
CONTINUOUS
 62
    2
 10
759.89593755615033
 20
589.11003832546203
 11
759.89593755614953
 21
890.11003832546214
  0
LINE
  8
_0-1_計細線
  6
CONTINUOUS
 62
    3
 10
746.0959375561506
 20
589.11003832546203
 11
746.09593755614981
 21
890.11003832546214
  0
LINE
  8
_0-1_計細線
  6
CONTINUOUS
 62
    3
 10
734.69593755615006
 20
589.11003832546203
 11
734.69593755614926
 21
890.11003832546214
  0
LINE
  8
_0-1_計細線
  6
CONTINUOUS
 62
    3
 10
746.0959375561506
 20
589.11003832546203
 11
734.69593755615006
 21
589.11003832546203
  0
LINE
  8
_0-1_計細線
  6
CONTINUOUS
 62
    3
 10
746.09593755614981
 20
890.11003832546214
 11
734.69593755614926
 21
890.11003832546214
  0
LINE
  8
_0-0_計極細
  6
CONTINUOUS
 62
    2
 10
737.89593755615044
 20
589.11003832546203
 11
737.89593755614953
 21
890.11003832546214
  0
LINE
  8
_0-0_計極細
  6
CONTINUOUS
 62
    2
 10
742.89593755615044
 20
589.11003832546203
 11
742.89593755614942
 21
890.11003832546214
  0
LINE
  8
_0-1_計細線
  6
CONTINUOUS
 62
    3
 10
729.09593755615072
 20
589.11003832546203
 11
729.09593755614969
 21
890.11003832546214
  0
LINE
  8
_0-1_計細線
  6
CONTINUOUS
 62
    3
 10
717.69593755615017
 20
589.11003832546203
 11
717.69593755614915
 21
890.11003832546214
  0
LINE
  8
_0-1_計細線
  6
CONTINUOUS
 62
    3
 10
729.09593755615072
 20
589.11003832546203
 11
717.69593755615017
 21
589.11003832546203
  0
LINE
  8
_0-1_計細線
  6
CONTINUOUS
 62
    3
 10
729.09593755614969
 20
890.11003832546214
 11
717.69593755614915
 21
890.11003832546214
  0
LINE
  8
_0-0_計極細
  6
CONTINUOUS
 62
    2
 10
720.89593755615033
 20
589.11003832546203
 11
720.89593755614953
 21
890.11003832546214
  0
LINE
  8
_0-0_計極細
  6
CONTINUOUS
 62
    2
 10
725.89593755615044
 20
589.11003832546203
 11
725.89593755614953
 21
890.11003832546214
  0
LINE
  8
_0-1_計細線
  6
CONTINUOUS
 62
    3
 10
712.09593755615072
 20
589.11003832546203
 11
712.09593755614981
 21
890.11003832546214
  0
LINE
  8
_0-1_計細線
  6
CONTINUOUS
 62
    3
 10
700.69593755615017
 20
589.11003832546203
 11
700.69593755614926
 21
890.11003832546214
  0
LINE
  8
_0-1_計細線
  6
CONTINUOUS
 62
    3
 10
712.09593755615072
 20
589.11003832546203
 11
700.69593755615017
 21
589.11003832546203
  0
LINE
  8
_0-1_計細線
  6
CONTINUOUS
 62
    3
 10
712.09593755614981
 20
890.11003832546214
 11
700.69593755614926
 21
890.11003832546214
  0
LINE
  8
_0-0_計極細
  6
CONTINUOUS
 62
    2
 10
703.89593755615044
 20
589.11003832546203
 11
703.89593755614942
 21
890.11003832546214
  0
LINE
  8
_0-0_計極細
  6
CONTINUOUS
 62
    2
 10
708.89593755615033
 20
589.11003832546203
 11
708.89593755614953
 21
890.11003832546214
  0
LINE
  8
_0-1_計細線
  6
CONTINUOUS
 62
    3
 10
695.0959375561506
 20
589.11003832546203
 11
695.09593755614981
 21
890.11003832546214
  0
LINE
  8
_0-1_計細線
  6
CONTINUOUS
 62
    3
 10
683.69593755615006
 20
589.11003832546203
 11
683.69593755614926
 21
890.11003832546214
  0
LINE
  8
_0-1_計細線
  6
CONTINUOUS
 62
    3
 10
695.0959375561506
 20
589.11003832546203
 11
683.69593755615006
 21
589.11003832546203
  0
LINE
  8
_0-1_計細線
  6
CONTINUOUS
 62
    3
 10
695.09593755614981
 20
890.11003832546214
 11
683.69593755614926
 21
890.11003832546214
  0
LINE
  8
_0-0_計極細
  6
CONTINUOUS
 62
    2
 10
686.89593755615044
 20
589.11003832546203
 11
686.89593755614953
 21
890.11003832546214
  0
LINE
  8
_0-0_計極細
  6
CONTINUOUS
 62
    2
 10
691.89593755615044
 20
589.11003832546203
 11
691.89593755614942
 21
890.11003832546214
  0
LINE
  8
_0-1_計細線
  6
CONTINUOUS
 62
    3
 10
678.09593755615072
 20
589.11003832546203
 11
678.09593755614969
 21
890.11003832546214
  0
LINE
  8
_0-1_計細線
  6
CONTINUOUS
 62
    3
 10
666.69593755615017
 20
589.11003832546203
 11
666.69593755614915
 21
890.11003832546214
  0
LINE
  8
_0-1_計細線
  6
CONTINUOUS
 62
    3
 10
678.09593755615072
 20
589.11003832546203
 11
666.69593755615017
 21
589.11003832546203
  0
LINE
  8
_0-1_計細線
  6
CONTINUOUS
 62
    3
 10
678.09593755614969
 20
890.11003832546214
 11
666.69593755614915
 21
890.11003832546214
  0
LINE
  8
_0-0_計極細
  6
CONTINUOUS
 62
    2
 10
669.89593755615033
 20
589.11003832546203
 11
669.89593755614953
 21
890.11003832546214
  0
LINE
  8
_0-0_計極細
  6
CONTINUOUS
 62
    2
 10
674.89593755615044
 20
589.11003832546203
 11
674.89593755614953
 21
890.11003832546214
  0
LINE
  8
_0-1_計細線
  6
CONTINUOUS
 62
    3
 10
661.09593755615072
 20
589.11003832546203
 11
661.09593755614981
 21
890.11003832546214
  0
LINE
  8
_0-1_計細線
  6
CONTINUOUS
 62
    3
 10
649.69593755615017
 20
589.11003832546203
 11
649.69593755614926
 21
890.11003832546214
  0
LINE
  8
_0-1_計細線
  6
CONTINUOUS
 62
    3
 10
661.09593755615072
 20
589.11003832546203
 11
649.69593755615017
 21
589.11003832546203
  0
LINE
  8
_0-1_計細線
  6
CONTINUOUS
 62
    3
 10
661.09593755614981
 20
890.11003832546214
 11
649.69593755614926
 21
890.11003832546214
  0
LINE
  8
_0-0_計極細
  6
CONTINUOUS
 62
    2
 10
652.89593755615044
 20
589.11003832546203
 11
652.89593755614942
 21
890.11003832546214
  0
LINE
  8
_0-0_計極細
  6
CONTINUOUS
 62
    2
 10
657.89593755615033
 20
589.11003832546203
 11
657.89593755614953
 21
890.11003832546214
  0
LINE
  8
_0-1_計細線
  6
CONTINUOUS
 62
    3
 10
644.0959375561506
 20
589.11003832546203
 11
644.09593755614981
 21
890.11003832546214
  0
LINE
  8
_0-1_計細線
  6
CONTINUOUS
 62
    3
 10
632.69593755615006
 20
589.11003832546203
 11
632.69593755614926
 21
890.11003832546214
  0
LINE
  8
_0-1_計細線
  6
CONTINUOUS
 62
    3
 10
644.0959375561506
 20
589.11003832546203
 11
632.69593755615006
 21
589.11003832546203
  0
LINE
  8
_0-1_計細線
  6
CONTINUOUS
 62
    3
 10
644.09593755614981
 20
890.11003832546214
 11
632.69593755614926
 21
890.11003832546214
  0
LINE
  8
_0-0_計極細
  6
CONTINUOUS
 62
    2
 10
635.89593755615044
 20
589.11003832546203
 11
635.89593755614953
 21
890.11003832546214
  0
LINE
  8
_0-0_計極細
  6
CONTINUOUS
 62
    2
 10
640.89593755615044
 20
589.11003832546203
 11
640.89593755614942
 21
890.11003832546214
  0
LINE
  8
_0-1_計細線
  6
CONTINUOUS
 62
    3
 10
627.09593755615072
 20
589.11003832546203
 11
627.09593755614969
 21
890.11003832546214
  0
LINE
  8
_0-1_計細線
  6
CONTINUOUS
 62
    3
 10
615.69593755615017
 20
589.11003832546203
 11
615.69593755614915
 21
890.11003832546214
  0
LINE
  8
_0-1_計細線
  6
CONTINUOUS
 62
    3
 10
627.09593755615072
 20
589.11003832546203
 11
615.69593755615017
 21
589.11003832546203
  0
LINE
  8
_0-1_計細線
  6
CONTINUOUS
 62
    3
 10
627.09593755614969
 20
890.11003832546214
 11
615.69593755614915
 21
890.11003832546214
  0
LINE
  8
_0-0_計極細
  6
CONTINUOUS
 62
    2
 10
618.89593755615033
 20
589.11003832546203
 11
618.89593755614953
 21
890.11003832546214
  0
LINE
  8
_0-0_計極細
  6
CONTINUOUS
 62
    2
 10
623.89593755615044
 20
589.11003832546203
 11
623.89593755614953
 21
890.11003832546214
  0
LINE
  8
_0-1_計細線
  6
CONTINUOUS
 62
    3
 10
610.09593755615072
 20
589.11003832546203
 11
610.09593755614981
 21
890.11003832546214
  0
LINE
  8
_0-1_計細線
  6
CONTINUOUS
 62
    3
 10
598.69593755615017
 20
589.11003832546203
 11
598.69593755614926
 21
890.11003832546214
  0
LINE
  8
_0-1_計細線
  6
CONTINUOUS
 62
    3
 10
610.09593755615072
 20
589.11003832546203
 11
598.69593755615017
 21
589.11003832546203
  0
LINE
  8
_0-1_計細線
  6
CONTINUOUS
 62
    3
 10
610.09593755614981
 20
890.11003832546214
 11
598.69593755614926
 21
890.11003832546214
  0
LINE
  8
_0-0_計極細
  6
CONTINUOUS
 62
    2
 10
601.89593755615044
 20
589.11003832546203
 11
601.89593755614942
 21
890.11003832546214
  0
LINE
  8
_0-0_計極細
  6
CONTINUOUS
 62
    2
 10
606.89593755615033
 20
589.11003832546203
 11
606.89593755614953
 21
890.11003832546214
  0
LINE
  8
_0-1_計細線
  6
CONTINUOUS
 62
    3
 10
593.0959375561506
 20
589.11003832546203
 11
593.09593755614981
 21
890.11003832546214
  0
LINE
  8
_0-1_計細線
  6
CONTINUOUS
 62
    3
 10
581.69593755615006
 20
589.11003832546203
 11
581.69593755614926
 21
890.11003832546214
  0
LINE
  8
_0-1_計細線
  6
CONTINUOUS
 62
    3
 10
593.0959375561506
 20
589.11003832546203
 11
581.69593755615006
 21
589.11003832546203
  0
LINE
  8
_0-1_計細線
  6
CONTINUOUS
 62
    3
 10
593.09593755614981
 20
890.11003832546214
 11
581.69593755614926
 21
890.11003832546214
  0
LINE
  8
_0-0_計極細
  6
CONTINUOUS
 62
    2
 10
584.89593755615044
 20
589.11003832546203
 11
584.89593755614953
 21
890.11003832546214
  0
LINE
  8
_0-0_計極細
  6
CONTINUOUS
 62
    2
 10
589.89593755615044
 20
589.11003832546203
 11
589.89593755614942
 21
890.11003832546214
  0
LINE
  8
_0-1_計細線
  6
CONTINUOUS
 62
    3
 10
576.09593755615072
 20
589.11003832546203
 11
576.09593755614969
 21
890.11003832546214
  0
LINE
  8
_0-1_計細線
  6
CONTINUOUS
 62
    3
 10
564.69593755615017
 20
589.11003832546203
 11
564.69593755614915
 21
890.11003832546214
  0
LINE
  8
_0-1_計細線
  6
CONTINUOUS
 62
    3
 10
576.09593755615072
 20
589.11003832546203
 11
564.69593755615017
 21
589.11003832546203
  0
LINE
  8
_0-1_計細線
  6
CONTINUOUS
 62
    3
 10
576.09593755614969
 20
890.11003832546214
 11
564.69593755614915
 21
890.11003832546214
  0
LINE
  8
_0-0_計極細
  6
CONTINUOUS
 62
    2
 10
567.89593755615033
 20
589.11003832546203
 11
567.89593755614953
 21
890.11003832546214
  0
LINE
  8
_0-0_計極細
  6
CONTINUOUS
 62
    2
 10
572.89593755615044
 20
589.11003832546203
 11
572.89593755614953
 21
890.11003832546214
  0
LINE
  8
_0-1_計細線
  6
CONTINUOUS
 62
    3
 10
559.09593755615072
 20
589.11003832546203
 11
559.09593755614981
 21
890.11003832546214
  0
LINE
  8
_0-1_計細線
  6
CONTINUOUS
 62
    3
 10
547.69593755615017
 20
589.11003832546203
 11
547.69593755614926
 21
890.11003832546214
  0
LINE
  8
_0-1_計細線
  6
CONTINUOUS
 62
    3
 10
559.09593755615072
 20
589.11003832546203
 11
547.69593755615017
 21
589.11003832546203
  0
LINE
  8
_0-1_計細線
  6
CONTINUOUS
 62
    3
 10
559.09593755614981
 20
890.11003832546214
 11
547.69593755614926
 21
890.11003832546214
  0
LINE
  8
_0-0_計極細
  6
CONTINUOUS
 62
    2
 10
550.89593755615044
 20
589.11003832546203
 11
550.89593755614942
 21
890.11003832546214
  0
LINE
  8
_0-0_計極細
  6
CONTINUOUS
 62
    2
 10
555.89593755615033
 20
589.11003832546203
 11
555.89593755614953
 21
890.11003832546214
  0
LINE
  8
_0-1_計細線
  6
CONTINUOUS
 62
    3
 10
542.0959375561506
 20
589.11003832546203
 11
542.09593755614981
 21
890.11003832546214
  0
LINE
  8
_0-1_計細線
  6
CONTINUOUS
 62
    3
 10
530.69593755615006
 20
589.11003832546203
 11
530.69593755614926
 21
890.11003832546214
  0
LINE
  8
_0-1_計細線
  6
CONTINUOUS
 62
    3
 10
542.0959375561506
 20
589.11003832546203
 11
530.69593755615006
 21
589.11003832546203
  0
LINE
  8
_0-1_計細線
  6
CONTINUOUS
 62
    3
 10
542.09593755614981
 20
890.11003832546214
 11
530.69593755614926
 21
890.11003832546214
  0
LINE
  8
_0-0_計極細
  6
CONTINUOUS
 62
    2
 10
533.89593755615044
 20
589.11003832546203
 11
533.89593755614953
 21
890.11003832546214
  0
LINE
  8
_0-0_計極細
  6
CONTINUOUS
 62
    2
 10
538.89593755615044
 20
589.11003832546203
 11
538.89593755614942
 21
890.11003832546214
  0
LINE
  8
_0-1_計細線
  6
CONTINUOUS
 62
    3
 10
525.09593755615072
 20
589.11003832546203
 11
525.09593755614969
 21
890.11003832546214
  0
LINE
  8
_0-1_計細線
  6
CONTINUOUS
 62
    3
 10
513.69593755615017
 20
589.11003832546203
 11
513.69593755614915
 21
890.11003832546214
  0
LINE
  8
_0-1_計細線
  6
CONTINUOUS
 62
    3
 10
525.09593755615072
 20
589.11003832546203
 11
513.69593755615017
 21
589.11003832546203
  0
LINE
  8
_0-1_計細線
  6
CONTINUOUS
 62
    3
 10
525.09593755614969
 20
890.11003832546214
 11
513.69593755614915
 21
890.11003832546214
  0
LINE
  8
_0-0_計極細
  6
CONTINUOUS
 62
    2
 10
516.89593755615033
 20
589.11003832546203
 11
516.89593755614953
 21
890.11003832546214
  0
LINE
  8
_0-0_計極細
  6
CONTINUOUS
 62
    2
 10
521.89593755615044
 20
589.11003832546203
 11
521.89593755614953
 21
890.11003832546214
  0
LINE
  8
_0-1_計細線
  6
CONTINUOUS
 62
    3
 10
508.09593755615072
 20
589.11003832546203
 11
508.09593755614981
 21
890.11003832546214
  0
LINE
  8
_0-1_計細線
  6
CONTINUOUS
 62
    3
 10
496.69593755615017
 20
589.11003832546203
 11
496.69593755614926
 21
890.11003832546214
  0
LINE
  8
_0-1_計細線
  6
CONTINUOUS
 62
    3
 10
508.09593755615072
 20
589.11003832546203
 11
496.69593755615017
 21
589.11003832546203
  0
LINE
  8
_0-1_計細線
  6
CONTINUOUS
 62
    3
 10
508.09593755614981
 20
890.11003832546214
 11
496.69593755614926
 21
890.11003832546214
  0
LINE
  8
_0-0_計極細
  6
CONTINUOUS
 62
    2
 10
499.89593755615044
 20
589.11003832546203
 11
499.89593755614948
 21
890.11003832546214
  0
LINE
  8
_0-0_計極細
  6
CONTINUOUS
 62
    2
 10
504.89593755615039
 20
589.11003832546203
 11
504.89593755614953
 21
890.11003832546214
  0
LINE
  8
_0-1_計細線
  6
CONTINUOUS
 62
    3
 10
491.09593755615066
 20
589.11003832546203
 11
491.09593755614981
 21
890.11003832546214
  0
LINE
  8
_0-1_計細線
  6
CONTINUOUS
 62
    3
 10
479.69593755615011
 20
589.11003832546203
 11
479.69593755614926
 21
890.11003832546214
  0
LINE
  8
_0-1_計細線
  6
CONTINUOUS
 62
    3
 10
491.09593755615066
 20
589.11003832546203
 11
479.69593755615011
 21
589.11003832546203
  0
LINE
  8
_0-1_計細線
  6
CONTINUOUS
 62
    3
 10
491.09593755614981
 20
890.11003832546214
 11
479.69593755614926
 21
890.11003832546214
  0
LINE
  8
_0-0_計極細
  6
CONTINUOUS
 62
    2
 10
482.89593755615044
 20
589.11003832546203
 11
482.89593755614953
 21
890.11003832546214
  0
LINE
  8
_0-0_計極細
  6
CONTINUOUS
 62
    2
 10
487.89593755615044
 20
589.11003832546203
 11
487.89593755614948
 21
890.11003832546214
  0
LINE
  8
_0-1_計細線
  6
CONTINUOUS
 62
    3
 10
474.09593755615072
 20
589.11003832546203
 11
474.09593755614975
 21
890.11003832546214
  0
LINE
  8
_0-1_計細線
  6
CONTINUOUS
 62
    3
 10
462.69593755615017
 20
589.11003832546203
 11
462.6959375561492
 21
890.11003832546214
  0
LINE
  8
_0-1_計細線
  6
CONTINUOUS
 62
    3
 10
474.09593755615072
 20
589.11003832546203
 11
462.69593755615017
 21
589.11003832546203
  0
LINE
  8
_0-1_計細線
  6
CONTINUOUS
 62
    3
 10
474.09593755614975
 20
890.11003832546214
 11
462.6959375561492
 21
890.11003832546214
  0
LINE
  8
_0-0_計極細
  6
CONTINUOUS
 62
    2
 10
465.89593755615039
 20
589.11003832546203
 11
465.89593755614953
 21
890.11003832546214
  0
LINE
  8
_0-0_計極細
  6
CONTINUOUS
 62
    2
 10
470.89593755615044
 20
589.11003832546203
 11
470.89593755614953
 21
890.11003832546214
  0
LINE
  8
_0-1_計細線
  6
CONTINUOUS
 62
    3
 10
457.09593755615072
 20
589.11003832546203
 11
457.09593755614981
 21
890.11003832546214
  0
LINE
  8
_0-1_計細線
  6
CONTINUOUS
 62
    3
 10
445.69593755615017
 20
589.11003832546203
 11
445.69593755614926
 21
890.11003832546214
  0
LINE
  8
_0-1_計細線
  6
CONTINUOUS
 62
    3
 10
457.09593755615072
 20
589.11003832546203
 11
445.69593755615017
 21
589.11003832546203
  0
LINE
  8
_0-1_計細線
  6
CONTINUOUS
 62
    3
 10
457.09593755614981
 20
890.11003832546214
 11
445.69593755614926
 21
890.11003832546214
  0
LINE
  8
_0-0_計極細
  6
CONTINUOUS
 62
    2
 10
448.89593755615044
 20
589.11003832546203
 11
448.89593755614948
 21
890.11003832546214
  0
LINE
  8
_0-0_計極細
  6
CONTINUOUS
 62
    2
 10
453.89593755615039
 20
589.11003832546203
 11
453.89593755614953
 21
890.11003832546214
  0
LINE
  8
_0-1_計細線
  6
CONTINUOUS
 62
    3
 10
439.69593755615085
 20
589.11003832546203
 11
439.69593755614966
 21
890.11003832546214
  0
LINE
  8
_0-1_計細線
  6
CONTINUOUS
 62
    3
 10
428.29593755615031
 20
589.11003832546203
 11
428.29593755614911
 21
890.11003832546214
  0
LINE
  8
_0-1_計細線
  6
CONTINUOUS
 62
    3
 10
439.69593755615085
 20
589.11003832546203
 11
428.29593755615031
 21
589.11003832546203
  0
LINE
  8
_0-1_計細線
  6
CONTINUOUS
 62
    3
 10
439.69593755614966
 20
890.11003832546214
 11
428.29593755614911
 21
890.11003832546214
  0
LINE
  8
_0-0_計極細
  6
CONTINUOUS
 62
    2
 10
431.49593755615058
 20
589.11003832546203
 11
431.49593755614944
 21
890.11003832546214
  0
LINE
  8
_0-0_計極細
  6
CONTINUOUS
 62
    2
 10
436.49593755615052
 20
589.11003832546203
 11
436.49593755614944
 21
890.11003832546214
  0
LINE
  8
_0-1_計細線
  6
CONTINUOUS
 62
    3
 10
422.29593755615099
 20
589.11003832546203
 11
422.2959375561498
 21
890.11003832546214
  0
LINE
  8
_0-1_計細線
  6
CONTINUOUS
 62
    3
 10
410.89593755615044
 20
589.11003832546203
 11
410.89593755614925
 21
890.11003832546214
  0
LINE
  8
_0-1_計細線
  6
CONTINUOUS
 62
    3
 10
422.29593755615099
 20
589.11003832546203
 11
410.89593755615044
 21
589.11003832546203
  0
LINE
  8
_0-1_計細線
  6
CONTINUOUS
 62
    3
 10
422.2959375561498
 20
890.11003832546214
 11
410.89593755614925
 21
890.11003832546214
  0
LINE
  8
_0-0_計極細
  6
CONTINUOUS
 62
    2
 10
414.09593755615072
 20
589.11003832546203
 11
414.09593755614958
 21
890.11003832546214
  0
LINE
  8
_0-0_計極細
  6
CONTINUOUS
 62
    2
 10
419.09593755615066
 20
589.11003832546203
 11
419.09593755614958
 21
890.11003832546214
  0
LINE
  8
_0-1_計細線
  6
CONTINUOUS
 62
    3
 10
404.89593755615113
 20
589.11003832546203
 11
404.89593755614993
 21
890.11003832546214
  0
LINE
  8
_0-1_計細線
  6
CONTINUOUS
 62
    3
 10
393.49593755615058
 20
589.11003832546203
 11
393.49593755614939
 21
890.11003832546214
  0
LINE
  8
_0-1_計細線
  6
CONTINUOUS
 62
    3
 10
404.89593755615113
 20
589.11003832546203
 11
393.49593755615058
 21
589.11003832546203
  0
LINE
  8
_0-1_計細線
  6
CONTINUOUS
 62
    3
 10
404.89593755614993
 20
890.11003832546214
 11
393.49593755614939
 21
890.11003832546214
  0
LINE
  8
_0-0_計極細
  6
CONTINUOUS
 62
    2
 10
396.69593755615085
 20
589.11003832546203
 11
396.69593755614972
 21
890.11003832546214
  0
LINE
  8
_0-0_計極細
  6
CONTINUOUS
 62
    2
 10
401.6959375561508
 20
589.11003832546203
 11
401.69593755614972
 21
890.11003832546214
  0
LINE
  8
_0-1_計細線
  6
CONTINUOUS
 62
    3
 10
387.49593755615126
 20
589.11003832546203
 11
387.49593755615007
 21
890.11003832546214
  0
LINE
  8
_0-1_計細線
  6
CONTINUOUS
 62
    3
 10
376.09593755615072
 20
589.11003832546203
 11
376.09593755614952
 21
890.11003832546214
  0
LINE
  8
_0-1_計細線
  6
CONTINUOUS
 62
    3
 10
387.49593755615126
 20
589.11003832546203
 11
376.09593755615072
 21
589.11003832546203
  0
LINE
  8
_0-1_計細線
  6
CONTINUOUS
 62
    3
 10
387.49593755615007
 20
890.11003832546214
 11
376.09593755614952
 21
890.11003832546214
  0
LINE
  8
_0-0_計極細
  6
CONTINUOUS
 62
    2
 10
379.29593755615099
 20
589.11003832546203
 11
379.29593755614985
 21
890.11003832546214
  0
LINE
  8
_0-0_計極細
  6
CONTINUOUS
 62
    2
 10
384.29593755615093
 20
589.11003832546203
 11
384.29593755614985
 21
890.11003832546214
  0
LINE
  8
_0-0_計極細
  6
CONTINUOUS
 62
    2
 10
1346.6959375561496
 20
854.11003832546214
 11
1341.0959375561492
 21
854.11003832546214
  0
LINE
  8
_0-0_計極細
  6
CONTINUOUS
 62
    2
 10
1329.6959375561487
 20
854.11003832546214
 11
1324.0959375561488
 21
854.11003832546214
  0
LINE
  8
_0-0_計極細
  6
CONTINUOUS
 62
    2
 10
1307.0959375561524
 20
854.11003832546214
 11
1312.6959375561528
 21
854.11003832546214
  0
LINE
  8
_0-0_計極細
  6
CONTINUOUS
 62
    2
 10
1273.0959375561515
 20
854.11003832546214
 11
1278.6959375561514
 21
854.11003832546214
  0
LINE
  8
_0-0_計極細
  6
CONTINUOUS
 62
    2
 10
1256.0959375561506
 20
854.11003832546214
 11
1261.695937556151
 21
854.11003832546214
  0
LINE
  8
_0-0_計極細
  6
CONTINUOUS
 62
    2
 10
1290.0959375561529
 20
854.11003832546214
 11
1295.6959375561528
 21
854.11003832546214
  0
LINE
  8
_0-0_計極細
  6
CONTINUOUS
 62
    2
 10
1227.6959375561501
 20
854.11003832546214
 11
1222.0959375561497
 21
854.11003832546214
  0
LINE
  8
_0-0_計極細
  6
CONTINUOUS
 62
    2
 10
1363.6959375561519
 20
854.11003832546214
 11
1358.0959375561515
 21
854.11003832546214
  0
LINE
  8
_0-0_計極細
  6
CONTINUOUS
 62
    2
 10
1210.6959375561505
 20
854.11003832546214
 11
1205.0959375561501
 21
854.11003832546214
  0
LINE
  8
_0-0_計極細
  6
CONTINUOUS
 62
    2
 10
1193.6959375561505
 20
854.11003832546214
 11
1188.0959375561501
 21
854.11003832546214
  0
LINE
  8
_0-0_計極細
  6
CONTINUOUS
 62
    2
 10
1176.6959375561505
 20
854.11003832546214
 11
1171.0959375561501
 21
854.11003832546214
  0
LINE
  8
_0-0_計極細
  6
CONTINUOUS
 62
    2
 10
1159.6959375561505
 20
854.11003832546214
 11
1154.0959375561501
 21
854.11003832546214
  0
LINE
  8
_0-0_計極細
  6
CONTINUOUS
 62
    2
 10
1142.6959375561505
 20
854.11003832546214
 11
1137.0959375561501
 21
854.11003832546214
  0
LINE
  8
_0-0_計極細
  6
CONTINUOUS
 62
    2
 10
1125.6959375561505
 20
854.11003832546214
 11
1120.0959375561501
 21
854.11003832546214
  0
LINE
  8
_0-0_計極細
  6
CONTINUOUS
 62
    2
 10
1108.6959375561505
 20
854.11003832546214
 11
1103.0959375561501
 21
854.11003832546214
  0
LINE
  8
_0-0_計極細
  6
CONTINUOUS
 62
    2
 10
1091.6959375561505
 20
854.11003832546214
 11
1086.0959375561501
 21
854.11003832546214
  0
LINE
  8
_0-0_計極細
  6
CONTINUOUS
 62
    2
 10
1074.6959375561505
 20
854.11003832546214
 11
1069.0959375561501
 21
854.11003832546214
  0
LINE
  8
_0-0_計極細
  6
CONTINUOUS
 62
    2
 10
1057.6959375561505
 20
854.11003832546214
 11
1052.0959375561501
 21
854.11003832546214
  0
LINE
  8
_0-0_計極細
  6
CONTINUOUS
 62
    2
 10
1040.6959375561505
 20
854.11003832546214
 11
1035.0959375561501
 21
854.11003832546214
  0
LINE
  8
_0-0_計極細
  6
CONTINUOUS
 62
    2
 10
1023.6959375561504
 20
854.11003832546214
 11
1018.09593755615
 21
854.11003832546214
  0
LINE
  8
_0-0_計極細
  6
CONTINUOUS
 62
    2
 10
1006.6959375561503
 20
854.11003832546214
 11
1001.0959375561501
 21
854.11003832546214
  0
LINE
  8
_0-0_計極細
  6
CONTINUOUS
 62
    2
 10
989.69593755615028
 20
854.11003832546214
 11
984.09593755615015
 21
854.11003832546214
  0
LINE
  8
_0-0_計極細
  6
CONTINUOUS
 62
    2
 10
972.6959375561504
 20
854.11003832546214
 11
967.09593755615003
 21
854.11003832546214
  0
LINE
  8
_0-0_計極細
  6
CONTINUOUS
 62
    2
 10
955.69593755615028
 20
854.11003832546214
 11
950.09593755615015
 21
854.11003832546214
  0
LINE
  8
_0-0_計極細
  6
CONTINUOUS
 62
    2
 10
938.69593755615028
 20
854.11003832546214
 11
933.09593755615015
 21
854.11003832546214
  0
LINE
  8
_0-0_計極細
  6
CONTINUOUS
 62
    2
 10
921.6959375561504
 20
854.11003832546214
 11
916.09593755615003
 21
854.11003832546214
  0
LINE
  8
_0-0_計極細
  6
CONTINUOUS
 62
    2
 10
904.69593755615028
 20
854.11003832546214
 11
899.09593755615015
 21
854.11003832546214
  0
LINE
  8
_0-0_計極細
  6
CONTINUOUS
 62
    2
 10
887.69593755615028
 20
854.11003832546214
 11
882.09593755615015
 21
854.11003832546214
  0
LINE
  8
_0-0_計極細
  6
CONTINUOUS
 62
    2
 10
870.6959375561504
 20
854.11003832546214
 11
865.09593755615003
 21
854.11003832546214
  0
LINE
  8
_0-0_計極細
  6
CONTINUOUS
 62
    2
 10
853.69593755615028
 20
854.11003832546214
 11
848.09593755615015
 21
854.11003832546214
  0
LINE
  8
_0-0_計極細
  6
CONTINUOUS
 62
    2
 10
836.69593755615028
 20
854.11003832546214
 11
831.09593755615015
 21
854.11003832546214
  0
LINE
  8
_0-0_計極細
  6
CONTINUOUS
 62
    2
 10
819.6959375561504
 20
854.11003832546214
 11
814.09593755615003
 21
854.11003832546214
  0
LINE
  8
_0-0_計極細
  6
CONTINUOUS
 62
    2
 10
802.69593755615028
 20
854.11003832546214
 11
797.09593755615015
 21
854.11003832546214
  0
LINE
  8
_0-0_計極細
  6
CONTINUOUS
 62
    2
 10
785.69593755615028
 20
854.11003832546214
 11
780.09593755615015
 21
854.11003832546214
  0
LINE
  8
_0-0_計極細
  6
CONTINUOUS
 62
    2
 10
768.6959375561504
 20
854.11003832546214
 11
763.09593755615015
 21
854.11003832546214
  0
LINE
  8
_0-0_計極細
  6
CONTINUOUS
 62
    2
 10
751.69593755615028
 20
854.11003832546214
 11
746.09593755615015
 21
854.11003832546214
  0
LINE
  8
_0-0_計極細
  6
CONTINUOUS
 62
    2
 10
734.6959375561504
 20
854.11003832546214
 11
729.09593755615015
 21
854.11003832546214
  0
LINE
  8
_0-0_計極細
  6
CONTINUOUS
 62
    2
 10
717.6959375561504
 20
854.11003832546214
 11
712.09593755615015
 21
854.11003832546214
  0
LINE
  8
_0-0_計極細
  6
CONTINUOUS
 62
    2
 10
700.69593755615028
 20
854.11003832546214
 11
695.09593755615015
 21
854.11003832546214
  0
LINE
  8
_0-0_計極細
  6
CONTINUOUS
 62
    2
 10
683.6959375561504
 20
854.11003832546214
 11
678.09593755615015
 21
854.11003832546214
  0
LINE
  8
_0-0_計極細
  6
CONTINUOUS
 62
    2
 10
666.6959375561504
 20
854.11003832546214
 11
661.09593755615015
 21
854.11003832546214
  0
LINE
  8
_0-0_計極細
  6
CONTINUOUS
 62
    2
 10
649.69593755615028
 20
854.11003832546214
 11
644.09593755615015
 21
854.11003832546214
  0
LINE
  8
_0-0_計極細
  6
CONTINUOUS
 62
    2
 10
632.6959375561504
 20
854.11003832546214
 11
627.09593755615015
 21
854.11003832546214
  0
LINE
  8
_0-0_計極細
  6
CONTINUOUS
 62
    2
 10
615.6959375561504
 20
854.11003832546214
 11
610.09593755615015
 21
854.11003832546214
  0
LINE
  8
_0-0_計極細
  6
CONTINUOUS
 62
    2
 10
598.69593755615028
 20
854.11003832546214
 11
593.09593755615015
 21
854.11003832546214
  0
LINE
  8
_0-0_計極細
  6
CONTINUOUS
 62
    2
 10
581.6959375561504
 20
854.11003832546214
 11
576.09593755615015
 21
854.11003832546214
  0
LINE
  8
_0-0_計極細
  6
CONTINUOUS
 62
    2
 10
564.6959375561504
 20
854.11003832546214
 11
559.09593755615015
 21
854.11003832546214
  0
LINE
  8
_0-0_計極細
  6
CONTINUOUS
 62
    2
 10
547.69593755615028
 20
854.11003832546214
 11
542.09593755614992
 21
854.11003832546214
  0
LINE
  8
_0-0_計極細
  6
CONTINUOUS
 62
    2
 10
530.6959375561504
 20
854.11003832546214
 11
525.09593755615003
 21
854.11003832546214
  0
LINE
  8
_0-0_計極細
  6
CONTINUOUS
 62
    2
 10
513.6959375561504
 20
854.11003832546214
 11
508.09593755615003
 21
854.11003832546214
  0
LINE
  8
_0-0_計極細
  6
CONTINUOUS
 62
    2
 10
496.69593755615034
 20
854.11003832546214
 11
491.09593755614998
 21
854.11003832546214
  0
LINE
  8
_0-0_計極細
  6
CONTINUOUS
 62
    2
 10
479.6959375561504
 20
854.11003832546214
 11
474.09593755615003
 21
854.11003832546214
  0
LINE
  8
_0-0_計極細
  6
CONTINUOUS
 62
    2
 10
462.6959375561504
 20
854.11003832546214
 11
457.09593755615003
 21
854.11003832546214
  0
LINE
  8
_0-0_計極細
  6
CONTINUOUS
 62
    2
 10
445.69593755615034
 20
854.11003832546214
 11
439.69593755615017
 21
854.11003832546214
  0
LINE
  8
_0-0_計極細
  6
CONTINUOUS
 62
    2
 10
428.29593755615048
 20
854.11003832546214
 11
422.29593755615031
 21
854.11003832546214
  0
LINE
  8
_0-0_計極細
  6
CONTINUOUS
 62
    2
 10
410.89593755615061
 20
854.11003832546214
 11
404.89593755615044
 21
854.11003832546214
  0
LINE
  8
_0-0_計極細
  6
CONTINUOUS
 62
    2
 10
393.49593755615075
 20
854.11003832546214
 11
387.49593755615058
 21
854.11003832546214
  0
LINE
  8
_0-0_計極細
  6
CONTINUOUS
 62
    2
 10
1244.6959375561501
 20
854.11003832546214
 11
1239.0959375561497
 21
854.11003832546214
  0
LINE
  8
_0-1_計細線
  6
CONTINUOUS
 62
    3
 10
1278.6959375561514
 20
589.11003832546203
 11
1278.6959375561501
 21
890.11003832546214
  0
LINE
  8
_0-1_計細線
  6
CONTINUOUS
 62
    3
 10
1278.6959375561514
 20
589.11003832546203
 11
1290.095937556152
 21
589.11003832546203
  0
LINE
  8
_0-0_計極細
  6
CONTINUOUS
 62
    2
 10
1286.8959375561517
 20
589.11003832546203
 11
1286.8959375561503
 21
890.11003832546214
  0
LINE
  8
_0-0_計極細
  6
CONTINUOUS
 62
    2
 10
1281.8959375561517
 20
589.11003832546203
 11
1281.8959375561503
 21
890.11003832546214
  0
LINE
  8
_0-1_計細線
  6
CONTINUOUS
 62
    3
 10
1307.0959375561524
 20
589.11003832546248
 11
1307.0959375561515
 21
890.11003832546214
  0
LINE
  8
_0-1_計細線
  6
CONTINUOUS
 62
    3
 10
1295.6959375561519
 20
589.11003832546203
 11
1307.0959375561524
 21
589.11003832546248
  0
LINE
  8
_0-0_計極細
  6
CONTINUOUS
 62
    2
 10
1303.8959375561521
 20
589.11003832546203
 11
1303.8959375561512
 21
890.11003832546214
  0
LINE
  8
_0-0_計極細
  6
CONTINUOUS
 62
    2
 10
1298.8959375561521
 20
589.11003832546203
 11
1298.8959375561512
 21
890.11003832546214
  0
LINE
  8
_0-1_計細線
  6
CONTINUOUS
 62
    3
 10
1278.6959375561501
 20
890.11003832546214
 11
1290.095937556152
 21
890.11003832546214
  0
LINE
  8
_0-1_計細線
  6
CONTINUOUS
 62
    3
 10
1290.095937556152
 20
589.11003832546203
 11
1290.095937556152
 21
890.11003832546214
  0
LINE
  8
_0-1_計細線
  6
CONTINUOUS
 62
    3
 10
1295.6959375561519
 20
589.11003832546203
 11
1295.6959375561519
 21
890.11003832546214
  0
LINE
  8
_0-1_計細線
  6
CONTINUOUS
 62
    3
 10
1295.6959375561519
 20
890.11003832546214
 11
1307.0959375561515
 21
890.11003832546214
  0
LINE
  8
_0-0_計極細
  6
CONTINUOUS
 62
    2
 10
1239.0959375561497
 20
746.11003832546226
 11
1239.5459375561491
 21
746.11003832546226
  0
LINE
  8
_0-0_計極細
  6
CONTINUOUS
 62
    2
 10
1244.2459375561489
 20
746.11003832546226
 11
1244.695937556151
 21
746.11003832546226
  0
LINE
  8
_0-0_計極細
  6
CONTINUOUS
 62
    2
 10
1239.0959375561497
 20
733.11003832546248
 11
1239.5459375561491
 21
733.11003832546248
  0
LINE
  8
_0-0_計極細
  6
CONTINUOUS
 62
    2
 10
1244.2459375561489
 20
733.11003832546248
 11
1244.695937556151
 21
733.11003832546248
  0
LINE
  8
_0-5_寸法線
  6
CONTINUOUS
 62
    7
 10
1241.895937556149
 20
752.24467771112563
 11
1235.895937556149
 21
762.6369825565389
  0
LINE
  8
_0-5_寸法線
  6
CONTINUOUS
 62
    7
 10
1241.895937556149
 20
752.24467771112563
 11
1241.895937556149
 21
764.24467771112563
  0
LINE
  8
_0-5_寸法線
  6
CONTINUOUS
 62
    7
 10
1241.895937556149
 20
752.24467771112563
 11
1194.371032414283
 21
929.61003832546226
  0
LINE
  8
_0-5_寸法線
  6
CONTINUOUS
 62
    7
 10
1194.371032414283
 20
929.61003832546226
 11
1122.3710324142833
 21
929.61003832546226
  0
TEXT
  8
_0-5_寸法線
 62
    7
 10
1122.371032414283
 20
929.61003832546226
 40
18
 41
0.7999999999999998
 50
0
  1
取　外　具
  0
LINE
  8
_0-5_寸法線
  6
CONTINUOUS
 62
    7
 10
376.09593755614884
 20
906.61003832546214
 11
376.09593755615003
 21
1002.6100383254621
  0
LINE
  8
_0-5_寸法線
  6
CONTINUOUS
 62
    7
 10
376.09593755615003
 20
996.61003832546214
 11
384.78926999275166
 21
998.93940973138479
  0
LINE
  8
_0-5_寸法線
  6
CONTINUOUS
 62
    7
 10
376.09593755615003
 20
996.61003832546214
 11
384.78926999275166
 21
994.28066691953961
  0
LINE
  8
_0-5_寸法線
  6
CONTINUOUS
 62
    7
 10
1375.095937556149
 20
906.61003832546214
 11
1375.0959375561501
 21
1002.6100383254621
  0
LINE
  8
_0-5_寸法線
  6
CONTINUOUS
 62
    7
 10
1375.0959375561501
 20
996.61003832546214
 11
1366.4026051195485
 21
994.28066691953961
  0
LINE
  8
_0-5_寸法線
  6
CONTINUOUS
 62
    7
 10
1375.0959375561501
 20
996.61003832546214
 11
1366.4026051195485
 21
998.93940973138501
  0
LINE
  8
_0-5_寸法線
  6
CONTINUOUS
 62
    7
 10
376.09593755615003
 20
996.61003832546214
 11
1375.0959375561501
 21
996.61003832546214
  0
TEXT
  8
_0-5_寸法線
 62
    7
 10
862.09593755615003
 20
996.61003832546214
 40
18
 41
1
 50
0
  1
999
  0
LINE
  8
_0-5_寸法線
  6
CONTINUOUS
 62
    7
 10
1408.5959375561483
 20
894.61003832546214
 11
1504.5959375561479
 21
894.61003832546214
  0
LINE
  8
_0-5_寸法線
  6
CONTINUOUS
 62
    7
 10
1498.5959375561479
 20
894.61003832546214
 11
1501.7017660973779
 21
883.01892840999335
  0
LINE
  8
_0-5_寸法線
  6
CONTINUOUS
 62
    7
 10
1498.5959375561479
 20
894.61003832546214
 11
1495.4901090149176
 21
883.01892840999335
  0
LINE
  8
_0-5_寸法線
  6
CONTINUOUS
 62
    7
 10
1408.5959375561479
 20
584.61003832545703
 11
1504.5959375561488
 21
584.61003832545703
  0
LINE
  8
_0-5_寸法線
  6
CONTINUOUS
 62
    7
 10
1498.5959375561488
 20
584.61003832545703
 11
1495.4901090149183
 21
596.20114824092582
  0
LINE
  8
_0-5_寸法線
  6
CONTINUOUS
 62
    7
 10
1498.5959375561488
 20
584.61003832545703
 11
1501.701766097379
 21
596.20114824092582
  0
LINE
  8
_0-5_寸法線
  6
CONTINUOUS
 62
    7
 10
1498.5959375561479
 20
894.61003832546214
 11
1498.5959375561488
 21
584.61003832545703
  0
TEXT
  8
_0-5_寸法線
 62
    7
 10
1498.5959375561483
 20
726.11003832545975
 40
18
 41
1
 50
90
  1
310
  0
LINE
  8
_0-5_寸法線
  6
CONTINUOUS
 62
    7
 10
342.59593755614685
 20
894.61003832546214
 11
288.59593755614793
 21
894.61003832546214
  0
LINE
  8
_0-5_寸法線
  6
CONTINUOUS
 62
    7
 10
294.59593755614793
 20
894.61003832546214
 11
297.70176609737814
 21
883.01892840999335
  0
LINE
  8
_0-5_寸法線
  6
CONTINUOUS
 62
    7
 10
294.59593755614793
 20
894.61003832546214
 11
291.49010901491761
 21
883.01892840999335
  0
LINE
  8
_0-5_寸法線
  6
CONTINUOUS
 62
    7
 10
342.59593755614958
 20
864.61003832546214
 11
288.59593755614844
 21
864.61003832546214
  0
LINE
  8
_0-5_寸法線
  6
CONTINUOUS
 62
    7
 10
294.59593755614844
 20
864.61003832546214
 11
291.49010901491812
 21
876.20114824093093
  0
LINE
  8
_0-5_寸法線
  6
CONTINUOUS
 62
    7
 10
294.59593755614844
 20
864.61003832546214
 11
297.7017660973786
 21
876.20114824093093
  0
LINE
  8
_0-5_寸法線
  6
CONTINUOUS
 62
    7
 10
294.59593755614793
 20
894.61003832546214
 11
294.59593755614844
 21
864.61003832546214
  0
TEXT
  8
_0-5_寸法線
 62
    7
 10
294.59593755614793
 20
870.61003832546214
 40
18
 41
1
 50
90
  1
30
  0
LINE
  8
_0-5_寸法線
  6
CONTINUOUS
 62
    7
 10
294.59593755614844
 20
864.61003832546214
 11
297.7017660973786
 21
853.01892840999335
  0
LINE
  8
_0-5_寸法線
  6
CONTINUOUS
 62
    7
 10
294.59593755614844
 20
864.61003832546214
 11
291.49010901491812
 21
853.01892840999335
  0
LINE
  8
_0-5_寸法線
  6
CONTINUOUS
 62
    7
 10
342.59593755614776
 20
614.61003832546066
 11
288.59593755614844
 21
614.61003832546066
  0
LINE
  8
_0-5_寸法線
  6
CONTINUOUS
 62
    7
 10
294.59593755614844
 20
614.61003832546066
 11
291.49010901491812
 21
626.20114824092946
  0
LINE
  8
_0-5_寸法線
  6
CONTINUOUS
 62
    7
 10
294.59593755614844
 20
614.61003832546066
 11
297.7017660973786
 21
626.20114824092946
  0
LINE
  8
_0-5_寸法線
  6
CONTINUOUS
 62
    7
 10
294.59593755614844
 20
864.61003832546214
 11
294.59593755614844
 21
614.61003832546066
  0
TEXT
  8
_0-5_寸法線
 62
    7
 10
294.59593755614844
 20
726.11003832546157
 40
18
 41
1
 50
90
  1
250
  0
LINE
  8
_0-5_寸法線
  6
CONTINUOUS
 62
    7
 10
294.59593755614844
 20
614.61003832546066
 11
297.7017660973786
 21
603.01892840999187
  0
LINE
  8
_0-5_寸法線
  6
CONTINUOUS
 62
    7
 10
294.59593755614844
 20
614.61003832546066
 11
291.49010901491812
 21
603.01892840999187
  0
LINE
  8
_0-5_寸法線
  6
CONTINUOUS
 62
    7
 10
342.59593755615231
 20
584.61003832546339
 11
288.59593755614844
 21
584.61003832546339
  0
LINE
  8
_0-5_寸法線
  6
CONTINUOUS
 62
    7
 10
294.59593755614844
 20
584.61003832546339
 11
291.49010901491812
 21
596.20114824093218
  0
LINE
  8
_0-5_寸法線
  6
CONTINUOUS
 62
    7
 10
294.59593755614844
 20
584.61003832546339
 11
297.7017660973786
 21
596.20114824093218
  0
LINE
  8
_0-5_寸法線
  6
CONTINUOUS
 62
    7
 10
294.59593755614844
 20
614.61003832546066
 11
294.59593755614844
 21
584.61003832546339
  0
TEXT
  8
_0-5_寸法線
 62
    7
 10
294.59593755614844
 20
590.61003832546203
 40
18
 41
1
 50
90
  1
30
  0
LINE
  8
_0-5_寸法線
  6
CONTINUOUS
 62
    7
 10
499.10278009355869
 20
585.98003832546397
 11
505.10278011814171
 21
575.58773349424382
  0
LINE
  8
_0-5_寸法線
  6
CONTINUOUS
 62
    7
 10
499.10278009355869
 20
585.98003832546397
 11
499.10278012194476
 21
573.98003832546397
  0
LINE
  8
_0-5_寸法線
  6
CONTINUOUS
 62
    7
 10
499.10278009355869
 20
585.98003832546397
 11
513.31242362395778
 21
532.94892721435303
  0
LINE
  8
_0-5_寸法線
  6
CONTINUOUS
 62
    7
 10
513.31242362395778
 20
532.94892721435303
 11
642.91242362395792
 21
532.94892721435303
  0
TEXT
  8
_0-5_寸法線
 62
    7
 10
513.31242362395778
 20
533.66892721435283
 40
18
 41
0.7999999999999998
 50
0
  1
ＳＵＳアングル受枠
  0
LINE
  8
_0-5_寸法線
  6
CONTINUOUS
 62
    7
 10
655.12925194226716
 20
637.55450370352276
 11
661.12925192204978
 21
627.16219884643692
  0
LINE
  8
_0-5_寸法線
  6
CONTINUOUS
 62
    7
 10
655.12925194226716
 20
637.55450370352276
 11
655.12925191892214
 21
625.55450370352276
  0
LINE
  8
_0-5_寸法線
  6
CONTINUOUS
 62
    7
 10
655.12925194226716
 20
637.55450370352276
 11
683.1582314682197
 21
532.94892721435315
  0
LINE
  8
_0-5_寸法線
  6
CONTINUOUS
 62
    7
 10
683.1582314682197
 20
532.94892721435315
 11
841.55823146821979
 21
532.94892721435315
  0
TEXT
  8
_0-5_寸法線
 62
    7
 10
683.1582314682197
 20
532.94892721435315
 40
18
 41
0.7999999999999998
 50
0
  1
セーフティグレーチング
  0
TEXT
  8
_0-5_寸法線
 62
    7
 10
513.31242362395778
 20
514.94892721435303
 40
18
 41
0.7999999999999998
 50
0
  1
ＧＳＬ－２５
  0
TEXT
  8
_0-5_寸法線
 62
    7
 10
683.1582314682197
 20
514.94892721435315
 40
18
 41
0.7999999999999998
 50
0
  1
ＧＲＳＪ－２５Ｗ３０１
  0
TEXT
  8
_0-5_寸法線
 62
    7
 10
1122.7426357222773
 20
910.95919947153607
 40
18
 41
0.7999999999999998
 50
-0.0000000000001357
  1
(標準付属)
  0
LINE
  8
_0-7_枠細線
  6
CONTINUOUS
 62
    5
 10
1143.5599413000502
 20
950.86917638168745
 11
1134.5599413000502
 21
968.86917638168745
  0
LINE
  8
_0-7_枠細線
  6
CONTINUOUS
 62
    5
 10
1125.5599413000502
 20
950.86917638168745
 11
1143.5599413000502
 21
950.86917638168745
  0
LINE
  8
_0-7_枠細線
  6
CONTINUOUS
 62
    5
 10
1134.5599413000502
 20
968.86917638168745
 11
1125.5599413000502
 21
950.86917638168745
  0
TEXT
  8
_0-7_枠細線
 62
    5
 10
1128.3981228218279
 20
950.50077368723078
 40
14.999999999999995
 41
0.8000000000000002
 50
0
  1
１
  0
LINE
  8
_0-7_枠細線
  6
CONTINUOUS
 62
    5
 10
1156.60339293271
 20
968.86917638168745
 11
1147.60339293271
 21
950.86917638168745
  0
LINE
  8
_0-7_枠細線
  6
CONTINUOUS
 62
    5
 10
1147.60339293271
 20
950.86917638168745
 11
1165.60339293271
 21
950.86917638168745
  0
LINE
  8
_0-7_枠細線
  6
CONTINUOUS
 62
    5
 10
1165.60339293271
 20
950.86917638168745
 11
1156.60339293271
 21
968.86917638168745
  0
TEXT
  8
_0-7_枠細線
 62
    5
 10
1150.5859834413682
 20
950.21195571346982
 40
14.999999999999995
 41
0.8000000000000002
 50
0
  1
２
  0
LINE
  8
_0-7_枠細線
  6
CONTINUOUS
 62
    5
 10
1188.0601736303454
 20
950.86917638168745
 11
1179.0601736303454
 21
968.86917638168745
  0
LINE
  8
_0-7_枠細線
  6
CONTINUOUS
 62
    5
 10
1170.0601736303454
 20
950.86917638168745
 11
1188.0601736303454
 21
950.86917638168745
  0
LINE
  8
_0-7_枠細線
  6
CONTINUOUS
 62
    5
 10
1179.0601736303454
 20
968.86917638168745
 11
1170.0601736303454
 21
950.86917638168745
  0
TEXT
  8
_0-7_枠細線
 62
    5
 10
1172.8983551521233
 20
950.21195571346982
 40
14.999999999999995
 41
0.8000000000000002
 50
0
  1
５
  0
LINE
  8
_0-1_計細線
  6
CONTINUOUS
 62
    3
 10
1244.2459375561489
 20
700.61003832546135
 11
1244.2459375561489
 21
753.61003832546135
  0
LINE
  8
_0-1_計細線
  6
CONTINUOUS
 62
    3
 10
1239.5459375561491
 20
753.61003832546135
 11
1239.5459375561491
 21
700.61003832546135
  0
LINE
  8
_0-1_計細線
  6
CONTINUOUS
 62
    3
 10
1239.5459375561491
 20
700.61003832546135
 11
1244.2459375561489
 21
700.61003832546135
  0
LINE
  8
_0-1_計細線
  6
CONTINUOUS
 62
    3
 10
1239.5459375561491
 20
743.61003832546135
 11
1244.2459375561489
 21
743.61003832546135
  0
LINE
  8
_0-1_計細線
  6
CONTINUOUS
 62
    3
 10
1239.5459375561491
 20
751.61003832546135
 11
1244.2459375561489
 21
751.61003832546135
  0
LINE
  8
_0-1_計細線
  6
CONTINUOUS
 62
    3
 10
1239.5459375561491
 20
753.61003832546135
 11
1244.2459375561489
 21
753.61003832546135
  0
LINE
  8
_0-1_計細線
  6
CONTINUOUS
 62
    3
 10
1239.5459375561491
 20
749.61003832546135
 11
1244.2459375561489
 21
749.61003832546135
  0
LINE
  8
_0-1_計細線
  6
CONTINUOUS
 62
    3
 10
1239.5459375561491
 20
747.61003832546135
 11
1244.2459375561489
 21
747.61003832546135
  0
LINE
  8
_0-1_計細線
  6
CONTINUOUS
 62
    3
 10
1239.5459375561491
 20
745.61003832546135
 11
1244.2459375561489
 21
745.61003832546135
  0
LINE
  8
_0-5_寸法線
  6
CONTINUOUS
 62
    7
 10
1408.5959375561479
 20
894.61003832546214
 11
1462.5959375561479
 21
894.61003832546214
  0
LINE
  8
_0-5_寸法線
  6
CONTINUOUS
 62
    7
 10
1456.5959375561479
 20
894.61003832546214
 11
1453.4901090149176
 21
906.20114824093093
  0
LINE
  8
_0-5_寸法線
  6
CONTINUOUS
 62
    7
 10
1456.5959375561479
 20
894.61003832546214
 11
1459.7017660973779
 21
906.20114824093093
  0
LINE
  8
_0-5_寸法線
  6
CONTINUOUS
 62
    7
 10
1408.5959375561479
 20
891.61003832546214
 11
1462.5959375561479
 21
891.61003832546214
  0
CIRCLE
  8
_0-5_寸法線
  6
CONTINUOUS
 62
    1
 10
1456.5959375561479
 20
891.61003832546214
 40
1.7999999999999996
  0
LINE
  8
_0-5_寸法線
  6
CONTINUOUS
 62
    7
 10
1456.5959375561479
 20
924.61003832546214
 11
1456.5959375561479
 21
891.61003832546214
  0
TEXT
  8
_0-5_寸法線
 62
    7
 10
1456.5959375561465
 20
910.60147406337023
 40
18
 41
1
 50
90
  1
3
  0
LINE
  8
_0-5_寸法線
  6
CONTINUOUS
 62
    7
 10
1408.5959375561479
 20
890.11003832546214
 11
1462.5959375561479
 21
890.11003832546214
  0
LINE
  8
_0-5_寸法線
  6
CONTINUOUS
 62
    7
 10
1456.5959375561479
 20
891.61003832546214
 11
1456.5959375561479
 21
890.11003832546214
  0
TEXT
  8
_0-5_寸法線
 62
    7
 10
1477.0805571933986
 20
863.11003832546214
 40
18
 41
1
 50
90
  1
1.5
  0
LINE
  8
_0-5_寸法線
  6
CONTINUOUS
 62
    7
 10
1456.5959375561479
 20
890.11003832546214
 11
1459.7017660973779
 21
878.51892840999335
  0
LINE
  8
_0-5_寸法線
  6
CONTINUOUS
 62
    7
 10
1456.5959375561479
 20
890.11003832546214
 11
1453.4901090149176
 21
878.51892840999335
  0
LINE
  8
_0-5_寸法線
  6
CONTINUOUS
 62
    7
 10
1408.5959375561492
 20
589.11003832546203
 11
1462.5959375561483
 21
589.11003832546203
  0
LINE
  8
_0-5_寸法線
  6
CONTINUOUS
 62
    7
 10
1456.5959375561483
 20
589.11003832546203
 11
1453.4901090149181
 21
600.70114824093082
  0
LINE
  8
_0-5_寸法線
  6
CONTINUOUS
 62
    7
 10
1456.5959375561483
 20
589.11003832546203
 11
1459.7017660973786
 21
600.70114824093082
  0
LINE
  8
_0-5_寸法線
  6
CONTINUOUS
 62
    7
 10
1456.5959375561479
 20
890.11003832546214
 11
1456.5959375561483
 21
589.11003832546203
  0
TEXT
  8
_0-5_寸法線
 62
    7
 10
1456.5959375561479
 20
726.11003832546226
 40
18
 41
1
 50
90
  1
301
  0
LINE
  8
_0-5_寸法線
  6
CONTINUOUS
 62
    7
 10
1408.5959375561479
 20
587.61003832546157
 11
1462.5959375561483
 21
587.61003832546157
  0
CIRCLE
  8
_0-5_寸法線
  6
CONTINUOUS
 62
    1
 10
1456.5959375561483
 20
587.61003832546157
 40
1.7999999999999996
  0
LINE
  8
_0-5_寸法線
  6
CONTINUOUS
 62
    7
 10
1456.5959375561483
 20
589.11003832546203
 11
1456.5959375561483
 21
587.61003832546157
  0
TEXT
  8
_0-5_寸法線
 62
    7
 10
1477.2662883254748
 20
588.17046285376114
 40
18
 41
1
 50
90
  1
1.5
  0
LINE
  8
_0-5_寸法線
  6
CONTINUOUS
 62
    7
 10
1408.5959375561479
 20
584.61003832546157
 11
1462.5959375561483
 21
584.61003832546157
  0
LINE
  8
_0-5_寸法線
  6
CONTINUOUS
 62
    7
 10
1456.5959375561483
 20
584.61003832546157
 11
1459.7017660973786
 21
573.01892840999267
  0
LINE
  8
_0-5_寸法線
  6
CONTINUOUS
 62
    7
 10
1456.5959375561483
 20
584.61003832546157
 11
1453.4901090149181
 21
573.01892840999267
  0
LINE
  8
_0-5_寸法線
  6
CONTINUOUS
 62
    7
 10
1456.5959375561483
 20
587.61003832546157
 11
1456.5959375561483
 21
554.61003832546157
  0
TEXT
  8
_0-5_寸法線
 62
    7
 10
1456.5959375561465
 20
560.0812526925738
 40
18
 41
1
 50
90
  1
3
  0
TEXT
  8
_0-7_枠細線
 62
    5
 10
1043.3723325650919
 20
228.87074196498543
 40
30
 41
0.8
 50
0
  1
側面詳細図
  0
TEXT
  8
_0-7_枠細線
 62
    5
 10
1176.3786965635607
 20
232.77109573857035
 40
24
 41
0.5999999999999998
 50
0
  1
Ｓ＝１：３
  0
TEXT
  8
_0-7_枠細線
 62
    5
 10
1068.2039454598216
 20
450.66545012165471
 40
18
 41
1
 50
0
  1
3.7kg/枚
  0
TEXT
  8
_0-7_枠細線
 62
    5
 10
1171.7039454598216
 20
450.66545012165471
 40
18
 41
1
 50
0
  1
2.6kg/m組
  0
LINE
  8
_0-5_寸法線
  6
CONTINUOUS
 62
    7
 10
1006.6959375561488
 20
906.61003832546214
 11
1006.6959375561489
 21
960.61003832546214
  0
LINE
  8
_0-5_寸法線
  6
CONTINUOUS
 62
    7
 10
1006.6959375561489
 20
954.61003832546214
 11
995.10482764068024
 21
951.50420978423199
  0
LINE
  8
_0-5_寸法線
  6
CONTINUOUS
 62
    7
 10
1006.6959375561489
 20
954.61003832546214
 11
995.10482764068024
 21
957.71586686669252
  0
LINE
  8
_0-5_寸法線
  6
CONTINUOUS
 62
    7
 10
1018.0959375561494
 20
906.61003832546214
 11
1018.0959375561495
 21
960.61003832546214
  0
CIRCLE
  8
_0-5_寸法線
  6
CONTINUOUS
 62
    1
 10
1018.0959375561495
 20
954.61003832546214
 40
1.7999999999999996
  0
LINE
  8
_0-5_寸法線
  6
CONTINUOUS
 62
    7
 10
976.69593755614892
 20
954.61003832546214
 11
1018.0959375561495
 21
954.61003832546214
  0
TEXT
  8
_0-5_寸法線
 62
    7
 10
977.59717757128305
 20
954.61003832546214
 40
18
 41
1
 50
0
  1
11.4
  0
LINE
  8
_0-5_寸法線
  6
CONTINUOUS
 62
    7
 10
1023.6959375561487
 20
906.61003832546214
 11
1023.695937556149
 21
960.61003832546214
  0
LINE
  8
_0-5_寸法線
  6
CONTINUOUS
 62
    7
 10
1023.695937556149
 20
954.61003832546214
 11
1035.2870474716178
 21
957.71586686669229
  0
LINE
  8
_0-5_寸法線
  6
CONTINUOUS
 62
    7
 10
1023.695937556149
 20
954.61003832546214
 11
1035.2870474716178
 21
951.50420978423199
  0
LINE
  8
_0-5_寸法線
  6
CONTINUOUS
 62
    7
 10
1018.0959375561495
 20
954.61003832546214
 11
1081.3081379701807
 21
954.61003832546214
  0
TEXT
  8
_0-5_寸法線
 62
    7
 10
1036.3081379701807
 20
936.61003832546214
 40
18
 41
1
 50
0
  1
6以下
  0
LINE
  8
_0-d_寸法3
  6
CONTINUOUS
 62
    7
 10
1103.2689441537718
 20
335.8436025943293
 11
1103.2689441537718
 21
389.84360259432924
  0
LINE
  8
_0-d_寸法3
  6
CONTINUOUS
 62
    7
 10
1103.2689441537718
 20
383.8436025943293
 11
1114.8600540692405
 21
386.94943113555956
  0
LINE
  8
_0-d_寸法3
  6
CONTINUOUS
 62
    7
 10
1103.2689441537718
 20
383.8436025943293
 11
1114.8600540692405
 21
380.73777405309897
  0
LINE
  8
_0-d_寸法3
  6
CONTINUOUS
 62
    7
 10
1138.0689441544955
 20
335.8436025943293
 11
1138.0689441544955
 21
389.84360259432924
  0
LINE
  8
_0-d_寸法3
  6
CONTINUOUS
 62
    7
 10
1138.0689441544955
 20
383.8436025943293
 11
1126.4778342390264
 21
380.73777405309909
  0
LINE
  8
_0-d_寸法3
  6
CONTINUOUS
 62
    7
 10
1138.0689441544955
 20
383.8436025943293
 11
1126.4778342390264
 21
386.94943113555956
  0
LINE
  8
_0-d_寸法3
  6
CONTINUOUS
 62
    7
 10
1103.2689441537718
 20
383.8436025943293
 11
1138.0689441544955
 21
383.8436025943293
  0
TEXT
  8
_0-d_寸法3
 62
    7
 10
1085.5524189799521
 20
365.8436025943293
 40
18
 41
1
 50
0
  1
(17.4)
  0
LINE
  8
_0-d_寸法3
  6
CONTINUOUS
 62
    7
 10
1138.0689441544955
 20
383.8436025943293
 11
1149.6600540699644
 21
386.94943113555939
  0
LINE
  8
_0-d_寸法3
  6
CONTINUOUS
 62
    7
 10
1138.0689441544955
 20
383.8436025943293
 11
1149.6600540699644
 21
380.73777405309897
  0
LINE
  8
_0-d_寸法3
  6
CONTINUOUS
 62
    7
 10
1172.8689441552187
 20
335.8436025943293
 11
1172.8689441552187
 21
389.84360259432924
  0
LINE
  8
_0-d_寸法3
  6
CONTINUOUS
 62
    7
 10
1172.8689441552187
 20
383.8436025943293
 11
1161.2778342397498
 21
380.73777405309909
  0
LINE
  8
_0-d_寸法3
  6
CONTINUOUS
 62
    7
 10
1172.8689441552187
 20
383.8436025943293
 11
1161.2778342397498
 21
386.94943113555956
  0
LINE
  8
_0-d_寸法3
  6
CONTINUOUS
 62
    7
 10
1138.0689441544955
 20
383.8436025943293
 11
1172.8689441552187
 21
383.8436025943293
  0
TEXT
  8
_0-d_寸法3
 62
    7
 10
1133.893530662202
 20
383.8436025943293
 40
18
 41
1
 50
0
  1
(17.4)
  0
CIRCLE
  8
_0-a_極細3
  6
CONTINUOUS
 62
    7
 10
209.09254280037629
 20
264.40269509432221
 40
0.6637037037036861
  0
CIRCLE
  8
_0-a_極細3
  6
CONTINUOUS
 62
    7
 10
193.94587613370854
 20
257.57602842765448
 40
0.6637037037036861
  0
LINE
  8
_0-a_極細3
  6
CONTINUOUS
 62
    7
 10
926.20558877752785
 20
259.84360259432964
 11
926.20558877752785
 21
177.84360259432944
  0
LINE
  8
_0-a_極細3
  6
CONTINUOUS
 62
    7
 10
826.20558877752819
 20
177.84360259432944
 11
926.20558877752785
 21
177.84360259432944
  0
LINE
  8
_0-a_極細3
  6
CONTINUOUS
 62
    7
 10
926.20558877752785
 20
259.84360259432964
 11
963.21888535166636
 21
259.84360259432964
  0
LINE
  8
_0-a_極細3
  6
CONTINUOUS
 62
    7
 10
826.20558877752819
 20
177.84360259432944
 11
826.20558877752819
 21
146.35368224059482
  0
LINE
  8
_0-a_極細3
  6
CONTINUOUS
 62
    7
 10
936.15359167504027
 20
146.35368224059482
 11
963.21888540151463
 21
173.41897596706954
  0
LINE
  8
_0-a_極細3
  6
CONTINUOUS
 62
    7
 10
851.300777932654
 20
146.35368224059482
 11
882.79069828638922
 21
177.84360259432944
  0
LINE
  8
_0-a_極細3
  6
CONTINUOUS
 62
    7
 10
926.20558877752785
 20
221.25849308546861
 11
963.21888535257256
 21
258.27178966051292
  0
LINE
  8
_0-a_極細3
  6
CONTINUOUS
 62
    7
 10
927.66831030080095
 20
146.35368224059482
 11
963.21888539662086
 21
181.90425733641354
  0
LINE
  8
_0-a_極細3
  6
CONTINUOUS
 62
    7
 10
842.81549655841457
 20
146.35368224059482
 11
874.3054169121508
 21
177.84360259432944
  0
LINE
  8
_0-a_極細3
  6
CONTINUOUS
 62
    7
 10
926.20558877752785
 20
229.74377445970751
 11
956.30541669668969
 21
259.84360237886892
  0
LINE
  8
_0-a_極細3
  6
CONTINUOUS
 62
    7
 10
919.18302892656311
 20
146.35368224059482
 11
963.21888539172596
 21
190.38953870575813
  0
LINE
  8
_0-a_極細3
  6
CONTINUOUS
 62
    7
 10
834.33021518417786
 20
146.35368224059482
 11
865.82013553791194
 21
177.84360259432944
  0
LINE
  8
_0-a_極細3
  6
CONTINUOUS
 62
    7
 10
926.20558877752785
 20
238.22905583394589
 11
947.8201353831912
 21
259.84360243960822
  0
CIRCLE
  8
_0-a_極細3
  6
CONTINUOUS
 62
    7
 10
809.89254280037289
 20
248.46880620543268
 40
0.6637037037036861
  0
CIRCLE
  8
_0-a_極細3
  6
CONTINUOUS
 62
    7
 10
821.83920946704029
 20
254.22880620543299
 40
0.6637037037036861
  0
CIRCLE
  8
_0-a_極細3
  6
CONTINUOUS
 62
    7
 10
816.93254280037411
 20
224.25547287209974
 40
0.6637037037036861
  0
CIRCLE
  8
_0-a_極細3
  6
CONTINUOUS
 62
    7
 10
837.9725428003735
 20
203.82880620543295
 40
0.6637037037036861
  0
CIRCLE
  8
_0-a_極細3
  6
CONTINUOUS
 62
    7
 10
816.57254280037387
 20
175.86880620543383
 40
0.6637037037036861
  0
CIRCLE
  8
_0-a_極細3
  6
CONTINUOUS
 62
    7
 10
805.37254280037428
 20
154.42880620543372
 40
0.6637037037036861
  0
CIRCLE
  8
_0-a_極細3
  6
CONTINUOUS
 62
    7
 10
819.13254280037381
 20
190.26880620543326
 40
0.6637037037036861
  0
CIRCLE
  8
_0-a_極細3
  6
CONTINUOUS
 62
    7
 10
835.77254280037278
 20
184.50880620543364
 40
0.6637037037036861
  0
CIRCLE
  8
_0-a_極細3
  6
CONTINUOUS
 62
    7
 10
868.09254280037226
 20
184.82880620543335
 40
0.6637037037036861
  0
CIRCLE
  8
_0-a_極細3
  6
CONTINUOUS
 62
    7
 10
853.69254280037399
 20
195.70880620543326
 40
0.6637037037036861
  0
CIRCLE
  8
_0-a_極細3
  6
CONTINUOUS
 62
    7
 10
867.13254280037268
 20
202.42880620543312
 40
0.6637037037036861
  0
CIRCLE
  8
_0-a_極細3
  6
CONTINUOUS
 62
    7
 10
852.75920946703945
 20
267.57547287209968
 40
0.6637037037036861
  0
CIRCLE
  8
_0-a_極細3
  6
CONTINUOUS
 62
    7
 10
877.39920946703887
 20
266.72213953876565
 40
0.6637037037036861
  0
CIRCLE
  8
_0-a_極細3
  6
CONTINUOUS
 62
    7
 10
863.47920946703903
 20
249.9221395387662
 40
0.6637037037036861
  0
CIRCLE
  8
_0-a_極細3
  6
CONTINUOUS
 62
    7
 10
910.51920946703876
 20
186.08213953876697
 40
0.6637037037036861
  0
CIRCLE
  8
_0-a_極細3
  6
CONTINUOUS
 62
    7
 10
919.15920946703864
 20
202.88213953876695
 40
0.6637037037036861
  0
CIRCLE
  8
_0-a_極細3
  6
CONTINUOUS
 62
    7
 10
917.23920946703925
 20
227.84213953876667
 40
0.6637037037036861
  0
CIRCLE
  8
_0-a_極細3
  6
CONTINUOUS
 62
    7
 10
892.27920946703898
 20
229.76213953876655
 40
0.6637037037036861
  0
CIRCLE
  8
_0-a_極細3
  6
CONTINUOUS
 62
    7
 10
868.75920946703968
 20
236.4821395387664
 40
0.6637037037036861
  0
CIRCLE
  8
_0-a_極細3
  6
CONTINUOUS
 62
    7
 10
895.63920946703922
 20
253.28213953876588
 40
0.6637037037036861
  0
CIRCLE
  8
_0-a_極細3
  6
CONTINUOUS
 62
    7
 10
912.43920946703929
 20
244.64213953876666
 40
0.6637037037036861
  0
CIRCLE
  8
_0-a_極細3
  6
CONTINUOUS
 62
    7
 10
947.95920946703802
 20
270.08213953876589
 40
0.6637037037036861
  0
CIRCLE
  8
_0-a_極細3
  6
CONTINUOUS
 62
    7
 10
923.42587613370529
 20
268.04621361284029
 40
2.1906377672176696
  0
CIRCLE
  8
_0-a_極細3
  6
CONTINUOUS
 62
    7
 10
895.31920946703849
 20
237.53954694617389
 40
2.1906377672176696
  0
CIRCLE
  8
_0-a_極細3
  6
CONTINUOUS
 62
    7
 10
810.84587613370763
 20
184.07954694617476
 40
2.1906377672176696
  0
CIRCLE
  8
_0-a_極細3
  6
CONTINUOUS
 62
    7
 10
823.11254280037258
 20
219.91954694617439
 40
2.1906377672176696
  0
CIRCLE
  8
_0-a_極細3
  6
CONTINUOUS
 62
    7
 10
865.35254280037293
 20
193.03954694617428
 40
2.1906377672176696
  0
CIRCLE
  8
_0-a_極細3
  6
CONTINUOUS
 62
    7
 10
920.87077396271275
 20
180.81508407581066
 40
2.1906377672176696
  0
CIRCLE
  8
_0-a_極細3
  6
CONTINUOUS
 62
    7
 10
860.07254280037273
 20
244.87954694617403
 40
2.1906377672176696
  0
CIRCLE
  8
_0-a_極細3
  6
CONTINUOUS
 62
    7
 10
803.1132835411147
 20
238.37170045772999
 40
0.6637037037036861
  0
CIRCLE
  8
_0-a_極細3
  6
CONTINUOUS
 62
    7
 10
803.35328354111562
 20
209.62503379106369
 40
0.6637037037036861
  0
LINE
  8
_0-a_極細3
  6
CONTINUOUS
 62
    7
 10
787.20558877752705
 20
267.84360259432947
 11
786.20558877752865
 21
267.84360259432947
  0
LINE
  8
_0-a_極細3
  6
CONTINUOUS
 62
    7
 10
786.20558877752865
 20
267.84360259432947
 11
786.20558877752865
 21
146.35368224059482
  0
CIRCLE
  8
_0-a_極細3
  6
CONTINUOUS
 62
    7
 10
793.38686378802754
 20
219.77547287209947
 40
0.6637037037036861
  0
CIRCLE
  8
_0-a_極細3
  6
CONTINUOUS
 62
    7
 10
794.95476502259635
 20
172.6688062054335
 40
0.6637037037036861
  0
CIRCLE
  8
_0-a_極細3
  6
CONTINUOUS
 62
    7
 10
794.18809835592776
 20
251.81288027950743
 40
2.1906377672176696
  0
CIRCLE
  8
_0-a_極細3
  6
CONTINUOUS
 62
    7
 10
797.72587613370638
 20
164.66621361284069
 40
2.1906377672176696
  0
LINE
  8
_0-a_極細3
  6
CONTINUOUS
 62
    7
 10
146.20558877752836
 20
259.84360259432964
 11
146.20558877752836
 21
177.84360259432944
  0
LINE
  8
_0-a_極細3
  6
CONTINUOUS
 62
    7
 10
246.20558877752805
 20
177.84360259432944
 11
146.20558877752836
 21
177.84360259432944
  0
LINE
  8
_0-a_極細3
  6
CONTINUOUS
 62
    7
 10
146.20558877752836
 20
259.84360259432964
 11
109.19229220339105
 21
259.84360259432964
  0
LINE
  8
_0-a_極細3
  6
CONTINUOUS
 62
    7
 10
246.20558877752805
 20
177.84360259432944
 11
246.20558877752805
 21
146.35368224059482
  0
LINE
  8
_0-a_極細3
  6
CONTINUOUS
 62
    7
 10
201.29921929954031
 20
146.35368238031879
 11
232.78913951355207
 21
177.84360259432944
  0
LINE
  8
_0-a_極細3
  6
CONTINUOUS
 62
    7
 10
116.44640582117142
 20
146.35368264433458
 11
147.9363257711662
 21
177.84360259432944
  0
LINE
  8
_0-a_極細3
  6
CONTINUOUS
 62
    7
 10
109.19229220339105
 20
223.95238276894017
 11
145.08351202878112
 21
259.84360259432964
  0
LINE
  8
_0-a_極細3
  6
CONTINUOUS
 62
    7
 10
192.81393795170334
 20
146.35368240672071
 11
224.30385813931207
 21
177.84360259432944
  0
LINE
  8
_0-a_極細3
  6
CONTINUOUS
 62
    7
 10
109.19229220339105
 20
147.58485040079327
 11
146.20558877752836
 21
184.59814697493059
  0
LINE
  8
_0-a_極細3
  6
CONTINUOUS
 62
    7
 10
109.19229220339105
 20
232.43766414317855
 11
136.59823065454111
 21
259.84360259432964
  0
LINE
  8
_0-a_極細3
  6
CONTINUOUS
 62
    7
 10
184.32865660386628
 20
146.35368243312212
 11
215.8185767650742
 21
177.84360259432944
  0
LINE
  8
_0-a_極細3
  6
CONTINUOUS
 62
    7
 10
109.19229220339105
 20
156.07013177503165
 11
146.20558877752836
 21
193.08342834916897
  0
LINE
  8
_0-a_極細3
  6
CONTINUOUS
 62
    7
 10
109.19229220339105
 20
240.92294551741745
 11
128.11294928030324
 21
259.84360259432964
  0
CIRCLE
  8
_0-a_極細3
  6
CONTINUOUS
 62
    7
 10
118.27032057815529
 20
266.14102842765482
 40
0.6637037037036861
  0
CIRCLE
  8
_0-a_極細3
  6
CONTINUOUS
 62
    7
 10
130.99920946704333
 20
267.4210284276553
 40
0.6637037037036861
  0
CIRCLE
  8
_0-a_極細3
  6
CONTINUOUS
 62
    7
 10
146.14587613370998
 20
269.76769509432165
 40
0.6637037037036861
  0
CIRCLE
  8
_0-a_極細3
  6
CONTINUOUS
 62
    7
 10
154.4792094670432
 20
261.06102842765455
 40
0.6637037037036861
  0
CIRCLE
  8
_0-a_極細3
  6
CONTINUOUS
 62
    7
 10
179.01254280037534
 20
259.5676950943211
 40
0.6637037037036861
  0
CIRCLE
  8
_0-a_極細3
  6
CONTINUOUS
 62
    7
 10
176.23920946704311
 20
232.04769509432157
 40
0.6637037037036861
  0
CIRCLE
  8
_0-a_極細3
  6
CONTINUOUS
 62
    7
 10
209.09254280037629
 20
240.79436176098807
 40
0.6637037037036861
  0
CIRCLE
  8
_0-a_極細3
  6
CONTINUOUS
 62
    7
 10
153.785876133709
 20
224.6876950943217
 40
0.6637037037036861
  0
CIRCLE
  8
_0-a_極細3
  6
CONTINUOUS
 62
    7
 10
159.75920946704275
 20
208.26102842765511
 40
0.6637037037036861
  0
CIRCLE
  8
_0-a_極細3
  6
CONTINUOUS
 62
    7
 10
152.93254280037613
 20
186.71436176098874
 40
0.6637037037036861
  0
CIRCLE
  8
_0-a_極細3
  6
CONTINUOUS
 62
    7
 10
163.38587613371016
 20
194.82102842765531
 40
0.6637037037036861
  0
CIRCLE
  8
_0-a_極細3
  6
CONTINUOUS
 62
    7
 10
170.8525428003762
 20
184.58102842765533
 40
0.6637037037036861
  0
CIRCLE
  8
_0-a_極細3
  6
CONTINUOUS
 62
    7
 10
218.01254280037534
 20
206.04769509432228
 40
0.6637037037036861
  0
CIRCLE
  8
_0-a_極細3
  6
CONTINUOUS
 62
    7
 10
204.57254280037554
 20
199.43436176098859
 40
0.6637037037036861
  0
CIRCLE
  8
_0-a_極細3
  6
CONTINUOUS
 62
    7
 10
212.0392094670427
 20
196.44769509432231
 40
0.6637037037036861
  0
CIRCLE
  8
_0-a_極細3
  6
CONTINUOUS
 62
    7
 10
207.77254280037596
 20
185.35436176098887
 40
0.6637037037036861
  0
CIRCLE
  8
_0-a_極細3
  6
CONTINUOUS
 62
    7
 10
231.66587613370859
 20
186.63436176098881
 40
0.6637037037036861
  0
CIRCLE
  8
_0-a_極細3
  6
CONTINUOUS
 62
    7
 10
247.23920946704231
 20
190.47436176098915
 40
0.6637037037036861
  0
CIRCLE
  8
_0-a_極細3
  6
CONTINUOUS
 62
    7
 10
263.66587613370899
 20
172.55436176098908
 40
0.6637037037036861
  0
CIRCLE
  8
_0-a_極細3
  6
CONTINUOUS
 62
    7
 10
255.34587613370888
 20
154.63436176098901
 40
0.6637037037036861
  0
CIRCLE
  8
_0-a_極細3
  6
CONTINUOUS
 62
    7
 10
235.34587613370968
 20
206.97213953876638
 40
0.6637037037036861
  0
CIRCLE
  8
_0-a_極細3
  6
CONTINUOUS
 62
    7
 10
253.05254280037511
 20
247.93213953876622
 40
0.6637037037036861
  0
CIRCLE
  8
_0-a_極細3
  6
CONTINUOUS
 62
    7
 10
271.18587613370869
 20
235.98547287209931
 40
0.6637037037036861
  0
CIRCLE
  8
_0-a_極細3
  6
CONTINUOUS
 62
    7
 10
271.82587613370924
 20
214.43880620543302
 40
0.6637037037036861
  0
CIRCLE
  8
_0-a_極細3
  6
CONTINUOUS
 62
    7
 10
229.53254280037578
 20
250.11880620543272
 40
0.6637037037036861
  0
CIRCLE
  8
_0-a_極細3
  6
CONTINUOUS
 62
    7
 10
201.7992094670422
 20
236.97954694617388
 40
2.1906377672176696
  0
CIRCLE
  8
_0-a_極細3
  6
CONTINUOUS
 62
    7
 10
174.91920946704261
 20
249.13954694617374
 40
2.1906377672176696
  0
CIRCLE
  8
_0-a_極細3
  6
CONTINUOUS
 62
    7
 10
151.39920946704328
 20
203.53954694617428
 40
2.1906377672176696
  0
CIRCLE
  8
_0-a_極細3
  6
CONTINUOUS
 62
    7
 10
215.23920946704192
 20
188.17954694617461
 40
2.1906377672176696
  0
CIRCLE
  8
_0-a_極細3
  6
CONTINUOUS
 62
    7
 10
258.41254280037458
 20
183.8595469461747
 40
2.1906377672176696
  0
CIRCLE
  8
_0-a_極細3
  6
CONTINUOUS
 62
    7
 10
264.1725428003748
 20
161.45954694617487
 40
2.1906377672176696
  0
LINE
  8
_0-a_極細3
  6
CONTINUOUS
 62
    7
 10
285.20558877752808
 20
267.84360259432947
 11
286.20558877752774
 21
267.84360259432947
  0
LINE
  8
_0-a_極細3
  6
CONTINUOUS
 62
    7
 10
286.20558877752774
 20
267.84360259432947
 11
286.20558877752774
 21
146.35368224059482
  0
CIRCLE
  8
_0-a_極細3
  6
CONTINUOUS
 62
    7
 10
277.94066780037349
 20
248.65954694617417
 40
2.1906377672176696
  0
CIRCLE
  8
_0-a_極細3
  6
CONTINUOUS
 62
    7
 10
276.75032057815292
 20
183.00769509432251
 40
0.6637037037036861
  0
CIRCLE
  8
_0-a_極細3
  6
CONTINUOUS
 62
    7
 10
278.35032057815363
 20
155.8204098545184
 40
0.6637037037036861
  0
CIRCLE
  8
_0-a_極細3
  6
CONTINUOUS
 62
    7
 10
263.50587613370368
 20
225.72621361284109
 40
2.1906377672176696
  0
CIRCLE
  8
_0-a_極細3
  6
CONTINUOUS
 62
    7
 10
193.13441726263017
 20
290.18788027950455
 40
2.1906377672176696
  0
CIRCLE
  8
_0-a_極細3
  6
CONTINUOUS
 62
    7
 10
187.1058761337087
 20
275.22859520453045
 40
0.6637037037036861
  0
CIRCLE
  8
_0-a_極細3
  6
CONTINUOUS
 62
    7
 10
205.18587613370983
 20
275.98711372304899
 40
2.1906377672176696
  0
CIRCLE
  8
_0-a_極細3
  6
CONTINUOUS
 62
    7
 10
130.66735761519118
 20
282.41769509432146
 40
0.6637037037036861
  0
CIRCLE
  8
_0-a_極細3
  6
CONTINUOUS
 62
    7
 10
118.83483704269202
 20
290.21621361284019
 40
2.1906377672176696
  0
CIRCLE
  8
_0-a_極細3
  6
CONTINUOUS
 62
    7
 10
939.37770447073854
 20
286.07621361284043
 40
2.1906377672176696
  0
CIRCLE
  8
_0-a_極細3
  6
CONTINUOUS
 62
    7
 10
890.97287428085087
 20
282.66713953876609
 40
0.6637037037036861
  0
CIRCLE
  8
_0-a_極細3
  6
CONTINUOUS
 62
    7
 10
891.13287428085073
 20
275.08454694617325
 40
2.1906377672176696
  0
CIRCLE
  8
_0-a_極細3
  6
CONTINUOUS
 62
    7
 10
752.20558877752956
 20
301.04360259432985
 40
3.9999999999999991
  0
CIRCLE
  8
_0-a_極細3
  6
CONTINUOUS
 62
    7
 10
320.20558877752842
 20
301.04360259432985
 40
3.9999999999999991
  0
LINE
  8
_0-a_極細3
  6
CONTINUOUS
 62
    7
 10
837.20558877752796
 20
321.84360259433004
 11
235.20558877752774
 21
321.84360259433004
  0
CIRCLE
  8
_0-a_極細3
  6
CONTINUOUS
 62
    7
 10
855.74587613370636
 20
301.25547287209906
 40
0.6637037037036861
  0
CIRCLE
  8
_0-a_極細3
  6
CONTINUOUS
 62
    7
 10
915.79920946703896
 20
286.8021395387654
 40
0.6637037037036861
  0
CIRCLE
  8
_0-a_極細3
  6
CONTINUOUS
 62
    7
 10
932.59920946703892
 20
306.16213953876581
 40
0.6637037037036861
  0
CIRCLE
  8
_0-a_極細3
  6
CONTINUOUS
 62
    7
 10
870.19920946703883
 20
307.28213953876588
 40
0.6637037037036861
  0
LINE
  8
_0-a_極細3
  6
CONTINUOUS
 62
    7
 10
856.20558877752819
 20
323.8436025943293
 11
856.20558877752819
 21
309.84360259432947
  0
LINE
  8
_0-a_極細3
  6
CONTINUOUS
 62
    7
 10
856.20558877752819
 20
323.8436025943293
 11
963.21888535166636
 21
323.8436025943293
  0
LINE
  8
_0-a_極細3
  6
CONTINUOUS
 62
    7
 10
846.20558877752796
 20
309.84360259432947
 11
963.21888535166636
 21
309.84360259432947
  0
LINE
  8
_0-a_極細3
  6
CONTINUOUS
 62
    7
 10
846.20558877752796
 20
323.8436025943293
 11
856.20558877752819
 21
323.8436025943293
  0
LINE
  8
_0-a_極細3
  6
CONTINUOUS
 62
    7
 10
846.20558877752796
 20
322.84360259432913
 11
846.20558877752796
 21
323.8436025943293
  0
LINE
  8
_0-a_極細3
  6
CONTINUOUS
 62
    7
 10
856.20558877752819
 20
314.24650613119945
 11
851.80268524065878
 21
309.84360259432947
  0
LINE
  8
_0-a_極細3
  6
CONTINUOUS
 62
    7
 10
856.20558877752819
 20
319.33767495574182
 11
846.71151641611527
 21
309.84360259432947
  0
LINE
  8
_0-a_極細3
  6
CONTINUOUS
 62
    7
 10
846.20558877752796
 20
314.4288437802856
 11
855.62034759157223
 21
323.8436025943293
  0
LINE
  8
_0-a_極細3
  6
CONTINUOUS
 62
    7
 10
846.20558877752796
 20
319.52001260482854
 11
850.52917876702872
 21
323.8436025943293
  0
LINE
  8
_0-a_極細3
  6
CONTINUOUS
 62
    7
 10
856.20558877752819
 20
322.03241594292251
 11
854.39440212612203
 21
323.8436025943293
  0
LINE
  8
_0-a_極細3
  6
CONTINUOUS
 62
    7
 10
856.20558877752819
 20
316.94124711837964
 11
849.30323330157967
 21
323.8436025943293
  0
LINE
  8
_0-a_極細3
  6
CONTINUOUS
 62
    7
 10
856.20558877752819
 20
311.8500782938367
 11
846.20558877752796
 21
321.85007829383636
  0
LINE
  8
_0-a_極細3
  6
CONTINUOUS
 62
    7
 10
853.12089565249312
 20
309.84360259432947
 11
846.20558877752796
 21
316.75890946929343
  0
LINE
  8
_0-a_極細3
  6
CONTINUOUS
 62
    7
 10
848.02972682794962
 20
309.84360259432947
 11
846.20558877752796
 21
311.66774064475055
  0
LINE
  8
_0-a_極細3
  6
CONTINUOUS
 62
    7
 10
938.35255525789216
 20
309.84360259432947
 11
952.35255450574482
 21
323.84360184218224
  0
LINE
  8
_0-a_極細3
  6
CONTINUOUS
 62
    7
 10
912.89671113517647
 20
309.84360259432947
 11
926.89671058216823
 21
323.84360204132065
  0
LINE
  8
_0-a_極細3
  6
CONTINUOUS
 62
    7
 10
887.44086701246079
 20
309.84360259432947
 11
901.44086665859049
 21
323.84360224045906
  0
LINE
  8
_0-a_極細3
  6
CONTINUOUS
 62
    7
 10
861.98502288974464
 20
309.84360259432947
 11
875.98502273501322
 21
323.84360243959748
  0
LINE
  8
_0-a_極細3
  6
DASHED2
 62
    7
 10
951.08047731924978
 20
309.84360259432947
 11
963.21888535166636
 21
321.98201062674582
  0
LINE
  8
_0-a_極細3
  6
DASHED2
 62
    7
 10
925.62463319653375
 20
309.84360259432947
 11
939.62463254395641
 21
323.84360194175173
  0
LINE
  8
_0-a_極細3
  6
DASHED2
 62
    7
 10
900.16878907381806
 20
309.84360259432947
 11
914.16878862037925
 21
323.84360214088963
  0
LINE
  8
_0-a_極細3
  6
DASHED2
 62
    7
 10
874.71294495110305
 20
309.84360259432947
 11
888.71294469680106
 21
323.84360234002804
  0
LINE
  8
_0-a_極細3
  6
DASHED2
 62
    7
 10
856.20558877752819
 20
316.79209054347035
 11
863.25710077322378
 21
323.84360253916645
  0
CIRCLE
  8
_0-a_極細3
  6
CONTINUOUS
 62
    7
 10
180.27920946704319
 20
293.84769509432158
 40
0.6637037037036861
  0
CIRCLE
  8
_0-a_極細3
  6
CONTINUOUS
 62
    7
 10
210.14587613370958
 20
305.79436176098795
 40
0.6637037037036861
  0
CIRCLE
  8
_0-a_極細3
  6
CONTINUOUS
 62
    7
 10
216.97254280037629
 20
286.381028427655
 40
0.6637037037036861
  0
CIRCLE
  8
_0-a_極細3
  6
CONTINUOUS
 62
    7
 10
173.02587613370957
 20
303.66102842765508
 40
0.6637037037036861
  0
CIRCLE
  8
_0-a_極細3
  6
CONTINUOUS
 62
    7
 10
143.07133249198665
 20
294.81508407581066
 40
2.1906377672176696
  0
LINE
  8
_0-a_極細3
  6
CONTINUOUS
 62
    7
 10
216.20558877752805
 20
323.8436025943293
 11
216.20558877752805
 21
309.84360259432947
  0
LINE
  8
_0-a_極細3
  6
CONTINUOUS
 62
    7
 10
216.20558877752805
 20
323.8436025943293
 11
109.19229220339105
 21
323.8436025943293
  0
LINE
  8
_0-a_極細3
  6
CONTINUOUS
 62
    7
 10
226.20558877752774
 20
309.84360259432947
 11
109.19229220339105
 21
309.84360259432947
  0
LINE
  8
_0-a_極細3
  6
CONTINUOUS
 62
    7
 10
226.20558877752774
 20
323.8436025943293
 11
216.20558877752805
 21
323.8436025943293
  0
LINE
  8
_0-a_極細3
  6
CONTINUOUS
 62
    7
 10
226.20558877752774
 20
322.84360259432913
 11
226.20558877752774
 21
323.8436025943293
  0
LINE
  8
_0-a_極細3
  6
CONTINUOUS
 62
    7
 10
225.96788046989667
 20
309.84360259432947
 11
226.20558877752774
 21
310.08131090196042
  0
LINE
  8
_0-a_極細3
  6
CONTINUOUS
 62
    7
 10
220.87671164535379
 20
309.84360259432947
 11
226.20558877752774
 21
315.17247972650387
  0
LINE
  8
_0-a_極細3
  6
CONTINUOUS
 62
    7
 10
216.20558877752805
 20
310.26364855104714
 11
226.20558877752774
 21
320.2636485510468
  0
LINE
  8
_0-a_極細3
  6
CONTINUOUS
 62
    7
 10
216.20558877752805
 20
315.35481737559007
 11
224.69437399626725
 21
323.8436025943293
  0
LINE
  8
_0-a_極細3
  6
CONTINUOUS
 62
    7
 10
216.20558877752805
 20
320.44598620013352
 11
219.60320517172437
 21
323.8436025943293
  0
LINE
  8
_0-a_極細3
  6
CONTINUOUS
 62
    7
 10
226.20558877752774
 20
321.10644234761918
 11
223.46842853081762
 21
323.8436025943293
  0
LINE
  8
_0-a_極細3
  6
CONTINUOUS
 62
    7
 10
226.20558877752774
 20
316.01527352307573
 11
218.37725970627466
 21
323.8436025943293
  0
LINE
  8
_0-a_極細3
  6
CONTINUOUS
 62
    7
 10
216.20558877752805
 20
320.92410469853297
 11
226.20558877752774
 21
310.92410469853337
  0
LINE
  8
_0-a_極細3
  6
CONTINUOUS
 62
    7
 10
216.20558877752805
 20
315.8329358739901
 11
222.19492205718811
 21
309.84360259432947
  0
LINE
  8
_0-a_極細3
  6
CONTINUOUS
 62
    7
 10
216.20558877752805
 20
310.74176704944659
 11
217.10375323264515
 21
309.84360259432947
  0
LINE
  8
_0-a_極細3
  6
CONTINUOUS
 62
    7
 10
205.60320516437122
 20
309.84360258697677
 11
216.20558877752805
 21
320.44598620013352
  0
LINE
  8
_0-a_極細3
  6
CONTINUOUS
 62
    7
 10
180.14736102400235
 20
309.84360256932291
 11
194.14736104900871
 21
323.8436025943293
  0
LINE
  8
_0-a_極細3
  6
CONTINUOUS
 62
    7
 10
154.6915168836334
 20
309.84360255166962
 11
168.69151692629305
 21
323.8436025943293
  0
LINE
  8
_0-a_極細3
  6
CONTINUOUS
 62
    7
 10
129.23567274326342
 20
309.84360253401576
 11
143.23567280357747
 21
323.8436025943293
  0
LINE
  8
_0-a_極細3
  6
CONTINUOUS
 62
    7
 10
109.19229220339105
 20
315.25606611685856
 11
117.7798286808619
 21
323.8436025943293
  0
LINE
  8
_0-a_極細3
  6
DASHED2
 62
    7
 10
192.87528309418627
 20
309.84360257815013
 11
206.87528311036658
 21
323.84360259432981
  0
LINE
  8
_0-a_極細3
  6
DASHED2
 62
    7
 10
167.41943895381732
 20
309.84360256049627
 11
181.41943898765084
 21
323.8436025943293
  0
LINE
  8
_0-a_極細3
  6
DASHED2
 62
    7
 10
141.96359481344837
 20
309.84360254284297
 11
155.96359486493415
 21
323.8436025943293
  0
LINE
  8
_0-a_極細3
  6
DASHED2
 62
    7
 10
116.50775067307848
 20
309.84360252518968
 11
130.5077507422196
 21
323.8436025943293
  0
LINE
  8
_0-a_極細3
  6
CENTER1
 62
    7
 10
536.20558877752842
 20
254.4206072117899
 11
536.20558877752842
 21
340.5606072117975
  0
CIRCLE
  8
_0-a_極細3
  6
CONTINUOUS
 62
    7
 10
536.20558877752842
 20
301.04360259432985
 40
3.9999999999999991
  0
CIRCLE
  8
_0-b_細線3
  6
CONTINUOUS
 62
    7
 10
752.20558877752956
 20
301.04360259432985
 40
12.999999999999996
  0
LINE
  8
_0-b_細線3
  6
CONTINUOUS
 62
    7
 10
744.20558877752808
 20
301.04360259432985
 11
748.20558877752876
 21
307.97180582460481
  0
LINE
  8
_0-b_細線3
  6
CONTINUOUS
 62
    7
 10
748.20558877752876
 20
307.97180582460481
 11
756.20558877752808
 21
307.97180582460481
  0
LINE
  8
_0-b_細線3
  6
CONTINUOUS
 62
    7
 10
756.20558877752808
 20
307.97180582460481
 11
760.20558877752876
 21
301.04360259432985
  0
LINE
  8
_0-b_細線3
  6
CONTINUOUS
 62
    7
 10
760.20558877752876
 20
301.04360259432985
 11
756.20558877752808
 21
294.11539936405376
  0
LINE
  8
_0-b_細線3
  6
CONTINUOUS
 62
    7
 10
756.20558877752808
 20
294.11539936405376
 11
748.20558877752876
 21
294.11539936405376
  0
LINE
  8
_0-b_細線3
  6
CONTINUOUS
 62
    7
 10
748.20558877752876
 20
294.11539936405376
 11
744.20558877752808
 21
301.04360259432985
  0
CIRCLE
  8
_0-b_細線3
  6
CONTINUOUS
 62
    7
 10
320.20558877752842
 20
301.04360259432985
 40
12.999999999999996
  0
LINE
  8
_0-b_細線3
  6
CONTINUOUS
 62
    7
 10
328.20558877752876
 20
301.04360259432985
 11
324.20558877752808
 21
307.97180582460481
  0
LINE
  8
_0-b_細線3
  6
CONTINUOUS
 62
    7
 10
324.20558877752808
 20
307.97180582460481
 11
316.20558877752876
 21
307.97180582460481
  0
LINE
  8
_0-b_細線3
  6
CONTINUOUS
 62
    7
 10
316.20558877752876
 20
307.97180582460481
 11
312.20558877752808
 21
301.04360259432985
  0
LINE
  8
_0-b_細線3
  6
CONTINUOUS
 62
    7
 10
312.20558877752808
 20
301.04360259432985
 11
316.20558877752876
 21
294.11539936405376
  0
LINE
  8
_0-b_細線3
  6
CONTINUOUS
 62
    7
 10
316.20558877752876
 20
294.11539936405376
 11
324.20558877752808
 21
294.11539936405376
  0
LINE
  8
_0-b_細線3
  6
CONTINUOUS
 62
    7
 10
324.20558877752808
 20
294.11539936405376
 11
328.20558877752876
 21
301.04360259432985
  0
LINE
  8
_0-b_細線3
  6
CONTINUOUS
 62
    7
 10
235.20558877752774
 20
316.04360259432985
 11
837.20558877752796
 21
316.04360259432985
  0
ARC
  8
_0-b_細線3
  6
CONTINUOUS
 62
    7
 10
840.20558877752796
 20
273.84360259432947
 40
5.9999999999999982
 50
269.99999999999977
 51
359.99999999999966
  0
LINE
  8
_0-b_細線3
  6
CONTINUOUS
 62
    7
 10
846.20558877752796
 20
273.84360259432947
 11
846.20558877752796
 21
322.84360259432913
  0
LINE
  8
_0-b_細線3
  6
CONTINUOUS
 62
    7
 10
840.20558877752796
 20
267.84360259432947
 11
787.20558877752705
 21
267.84360259432947
  0
LINE
  8
_0-b_細線3
  6
CONTINUOUS
 62
    7
 10
786.20558877752865
 20
268.84360259432964
 11
787.20558877752705
 21
267.84360259432947
  0
LINE
  8
_0-b_細線3
  6
CONTINUOUS
 62
    7
 10
786.20558877752865
 20
272.8436025943293
 11
786.20558877752865
 21
268.84360259432964
  0
LINE
  8
_0-b_細線3
  6
CONTINUOUS
 62
    7
 10
787.20558877752705
 20
273.84360259432947
 11
786.20558877752865
 21
272.8436025943293
  0
LINE
  8
_0-b_細線3
  6
CONTINUOUS
 62
    7
 10
840.20558877752796
 20
273.84360259432947
 11
787.20558877752705
 21
273.84360259432947
  0
LINE
  8
_0-b_細線3
  6
CONTINUOUS
 62
    7
 10
845.20558877752785
 20
323.8436025943293
 11
846.20558877752796
 21
322.84360259432913
  0
LINE
  8
_0-b_細線3
  6
CONTINUOUS
 62
    7
 10
841.20558877752819
 20
323.8436025943293
 11
845.20558877752785
 21
323.8436025943293
  0
LINE
  8
_0-b_細線3
  6
CONTINUOUS
 62
    7
 10
840.20558877752796
 20
322.84360259432913
 11
841.20558877752819
 21
323.8436025943293
  0
LINE
  8
_0-b_細線3
  6
CONTINUOUS
 62
    7
 10
840.20558877752796
 20
273.84360259432947
 11
840.20558877752796
 21
322.84360259432913
  0
ARC
  8
_0-b_細線3
  6
CONTINUOUS
 62
    7
 10
232.20558877752774
 20
273.84360259432947
 40
5.9999999999999982
 50
179.99999999999983
 51
269.99999999999977
  0
LINE
  8
_0-b_細線3
  6
CONTINUOUS
 62
    7
 10
226.20558877752774
 20
273.84360259432947
 11
226.20558877752774
 21
322.84360259432913
  0
LINE
  8
_0-b_細線3
  6
CONTINUOUS
 62
    7
 10
232.20558877752774
 20
267.84360259432947
 11
285.20558877752808
 21
267.84360259432947
  0
LINE
  8
_0-b_細線3
  6
CONTINUOUS
 62
    7
 10
286.20558877752774
 20
268.84360259432964
 11
285.20558877752808
 21
267.84360259432947
  0
LINE
  8
_0-b_細線3
  6
CONTINUOUS
 62
    7
 10
286.20558877752774
 20
272.8436025943293
 11
286.20558877752774
 21
268.84360259432964
  0
LINE
  8
_0-b_細線3
  6
CONTINUOUS
 62
    7
 10
285.20558877752808
 20
273.84360259432947
 11
286.20558877752774
 21
272.8436025943293
  0
LINE
  8
_0-b_細線3
  6
CONTINUOUS
 62
    7
 10
232.20558877752774
 20
273.84360259432947
 11
285.20558877752808
 21
273.84360259432947
  0
LINE
  8
_0-b_細線3
  6
CONTINUOUS
 62
    7
 10
227.20558877752836
 20
323.8436025943293
 11
226.20558877752774
 21
322.84360259432913
  0
LINE
  8
_0-b_細線3
  6
CONTINUOUS
 62
    7
 10
231.20558877752805
 20
323.8436025943293
 11
227.20558877752836
 21
323.8436025943293
  0
LINE
  8
_0-b_細線3
  6
CONTINUOUS
 62
    7
 10
232.20558877752774
 20
322.84360259432913
 11
231.20558877752805
 21
323.8436025943293
  0
LINE
  8
_0-b_細線3
  6
CONTINUOUS
 62
    7
 10
232.20558877752774
 20
273.84360259432947
 11
232.20558877752774
 21
322.84360259432913
  0
CIRCLE
  8
_0-b_細線3
  6
CONTINUOUS
 62
    7
 10
536.20558877752842
 20
301.04360259432985
 40
12.999999999999996
  0
LINE
  8
_0-b_細線3
  6
CONTINUOUS
 62
    7
 10
528.20558877752808
 20
301.04360259432985
 11
532.20558877752876
 21
307.97180582460481
  0
LINE
  8
_0-b_細線3
  6
CONTINUOUS
 62
    7
 10
532.20558877752876
 20
307.97180582460481
 11
540.20558877752808
 21
307.97180582460481
  0
LINE
  8
_0-b_細線3
  6
CONTINUOUS
 62
    7
 10
540.20558877752808
 20
307.97180582460481
 11
544.20558877752876
 21
301.04360259432985
  0
LINE
  8
_0-b_細線3
  6
CONTINUOUS
 62
    7
 10
544.20558877752876
 20
301.04360259432985
 11
540.20558877752808
 21
294.11539936405376
  0
LINE
  8
_0-b_細線3
  6
CONTINUOUS
 62
    7
 10
540.20558877752808
 20
294.11539936405376
 11
532.20558877752876
 21
294.11539936405376
  0
LINE
  8
_0-b_細線3
  6
CONTINUOUS
 62
    7
 10
532.20558877752876
 20
294.11539936405376
 11
528.20558877752808
 21
301.04360259432985
  0
LINE
  8
_0-d_寸法3
  6
CONTINUOUS
 62
    7
 10
214.20558877752876
 20
267.84360259432952
 11
159.0655514832211
 21
267.84360259432947
  0
LINE
  8
_0-d_寸法3
  6
CONTINUOUS
 62
    7
 10
165.0655514832211
 20
267.84360259432947
 11
168.17138002445134
 21
256.25249267886062
  0
LINE
  8
_0-d_寸法3
  6
CONTINUOUS
 62
    7
 10
165.0655514832211
 20
267.84360259432947
 11
161.95972294199086
 21
256.25249267886068
  0
LINE
  8
_0-d_寸法3
  6
CONTINUOUS
 62
    7
 10
211.80558877752873
 20
221.84360259432873
 11
159.06555148322212
 21
221.84360259432873
  0
LINE
  8
_0-d_寸法3
  6
CONTINUOUS
 62
    7
 10
165.06555148322212
 20
221.84360259432873
 11
161.95972294199188
 21
233.43471250979752
  0
LINE
  8
_0-d_寸法3
  6
CONTINUOUS
 62
    7
 10
165.06555148322212
 20
221.84360259432873
 11
168.17138002445236
 21
233.43471250979752
  0
LINE
  8
_0-d_寸法3
  6
CONTINUOUS
 62
    7
 10
165.0655514832211
 20
267.84360259432947
 11
165.06555148322212
 21
221.84360259432873
  0
TEXT
  8
_0-d_寸法3
 62
    7
 10
165.06555148322212
 20
235.84360259432904
 40
18
 41
1
 50
90
  1
23
  0
LINE
  8
_0-d_寸法3
  6
CONTINUOUS
 62
    7
 10
214.20558877752876
 20
323.84360259432935
 11
159.0655514832211
 21
323.8436025943293
  0
LINE
  8
_0-d_寸法3
  6
CONTINUOUS
 62
    7
 10
165.0655514832211
 20
323.8436025943293
 11
168.17138002445134
 21
312.25249267886045
  0
LINE
  8
_0-d_寸法3
  6
CONTINUOUS
 62
    7
 10
165.0655514832211
 20
323.8436025943293
 11
161.95972294199086
 21
312.25249267886051
  0
LINE
  8
_0-d_寸法3
  6
CONTINUOUS
 62
    7
 10
211.80558877752873
 20
267.84360259432952
 11
159.0655514832211
 21
267.84360259432947
  0
LINE
  8
_0-d_寸法3
  6
CONTINUOUS
 62
    7
 10
165.0655514832211
 20
267.84360259432947
 11
161.95972294199086
 21
279.43471250979826
  0
LINE
  8
_0-d_寸法3
  6
CONTINUOUS
 62
    7
 10
165.0655514832211
 20
267.84360259432947
 11
168.17138002445134
 21
279.43471250979832
  0
LINE
  8
_0-d_寸法3
  6
CONTINUOUS
 62
    7
 10
165.0655514832211
 20
323.8436025943293
 11
165.0655514832211
 21
267.84360259432947
  0
TEXT
  8
_0-d_寸法3
 62
    7
 10
165.0655514832211
 20
286.84360259432901
 40
18
 41
1
 50
90
  1
28
  0
LINE
  8
_0-a_極細3
  6
CONTINUOUS
 62
    7
 10
173.83750691294529
 20
207.70164398933341
 11
167.68114433308307
 21
224.61611116348013
  0
LINE
  8
_0-a_極細3
  6
CONTINUOUS
 62
    7
 10
233.83035812150138
 20
248.69245600257565
 11
239.98672070136308
 21
231.77798882842944
  0
LINE
  8
_0-a_極細3
  6
CONTINUOUS
 62
    7
 10
167.68114433308307
 20
224.61611116348013
 11
233.83035812150138
 21
248.69245600257565
  0
LINE
  8
_0-a_極細3
  6
CONTINUOUS
 62
    7
 10
173.83750691294529
 20
207.70164398933341
 11
239.98672070136308
 21
231.77798882842944
  0
LINE
  8
_0-a_極細3
  6
CENTER1
 62
    7
 10
164.81280555262282
 20
213.99452152837117
 11
241.65003013170201
 21
241.96098411041314
  0
LINE
  8
_0-a_極細3
  6
CONTINUOUS
 62
    7
 10
196.20558877752774
 20
177.84360259432944
 11
196.20558877752774
 21
230.74627621230906
  0
LINE
  8
_0-a_極細3
  6
CONTINUOUS
 62
    7
 10
196.20558877752774
 20
230.74627621230906
 11
178.20558877752774
 21
230.74627621230906
  0
LINE
  8
_0-a_極細3
  6
CONTINUOUS
 62
    7
 10
178.20558877752774
 20
230.74627621230906
 11
178.20558877752774
 21
177.84360259432944
  0
LINE
  8
_0-a_極細3
  6
CENTER1
 62
    7
 10
187.20558877752774
 20
167.911514252986
 11
187.20558877752774
 21
235.87714040983994
  0
LINE
  8
_0-a_極細3
  6
CONTINUOUS
 62
    7
 10
898.57367064211041
 20
207.70164398933341
 11
904.73003322197269
 21
224.61611116348013
  0
LINE
  8
_0-a_極細3
  6
CONTINUOUS
 62
    7
 10
838.58081943355501
 20
248.69245600257565
 11
832.4244568536933
 21
231.77798882842944
  0
LINE
  8
_0-a_極細3
  6
CONTINUOUS
 62
    7
 10
904.73003322197269
 20
224.61611116348013
 11
838.58081943355501
 21
248.69245600257565
  0
LINE
  8
_0-a_極細3
  6
CONTINUOUS
 62
    7
 10
898.57367064211041
 20
207.70164398933341
 11
832.4244568536933
 21
231.77798882842944
  0
LINE
  8
_0-a_極細3
  6
CENTER1
 62
    7
 10
907.59837200243282
 20
213.99452152837117
 11
830.76114742335369
 21
241.96098411041314
  0
LINE
  8
_0-a_極細3
  6
CONTINUOUS
 62
    7
 10
876.20558877752796
 20
177.84360259432944
 11
876.20558877752796
 21
230.74627621230906
  0
LINE
  8
_0-a_極細3
  6
CONTINUOUS
 62
    7
 10
876.20558877752796
 20
230.74627621230906
 11
894.20558877752796
 21
230.74627621230906
  0
LINE
  8
_0-a_極細3
  6
CONTINUOUS
 62
    7
 10
894.20558877752796
 20
230.74627621230906
 11
894.20558877752796
 21
177.84360259432944
  0
LINE
  8
_0-a_極細3
  6
CENTER1
 62
    7
 10
885.20558877752796
 20
167.911514252986
 11
885.20558877752796
 21
235.87714040983994
  0
LINE
  8
_0-b_細線3
  6
CONTINUOUS
 62
    7
 10
226.20558877752774
 20
291.84360259432952
 11
226.20558877752774
 21
221.84360259432958
  0
LINE
  8
_0-b_細線3
  6
CONTINUOUS
 62
    7
 10
226.20558877752774
 20
221.84360259432958
 11
221.60558877752766
 21
221.84360259432958
  0
LINE
  8
_0-b_細線3
  6
CONTINUOUS
 62
    7
 10
221.60558877752766
 20
221.84360259432958
 11
221.60558877752766
 21
291.84360259432952
  0
LINE
  8
_0-b_細線3
  6
CONTINUOUS
 62
    7
 10
221.60558877752766
 20
291.84360259432952
 11
226.20558877752774
 21
291.84360259432952
  0
LINE
  8
_0-a_極細3
  6
CONTINUOUS
 62
    7
 10
221.60558877752766
 20
259.84360259432952
 11
226.20558877752774
 21
259.84360259432952
  0
LINE
  8
_0-a_極細3
  6
CONTINUOUS
 62
    7
 10
221.60558877752766
 20
263.84360259432958
 11
226.20558877752774
 21
263.84360259432958
  0
LINE
  8
_0-a_極細3
  6
CONTINUOUS
 62
    7
 10
221.60558877752766
 20
255.84360259432944
 11
226.20558877752774
 21
255.84360259432944
  0
LINE
  8
_0-a_極細3
  6
CONTINUOUS
 62
    7
 10
221.60558877752766
 20
267.84360259432947
 11
226.20558877752774
 21
267.84360259432947
  0
LINE
  8
_0-a_極細3
  6
CONTINUOUS
 62
    7
 10
226.20558877752774
 20
227.84360259432958
 11
221.60558877752766
 21
227.84360259432958
  0
LINE
  8
_0-a_極細3
  6
CONTINUOUS
 62
    7
 10
221.60558877752766
 20
287.84360259432958
 11
226.20558877752774
 21
287.84360259432958
  0
LINE
  8
_0-b_細線3
  6
CONTINUOUS
 62
    7
 10
846.20558877752831
 20
291.84360259432952
 11
846.20558877752831
 21
221.84360259432958
  0
LINE
  8
_0-b_細線3
  6
CONTINUOUS
 62
    7
 10
846.20558877752831
 20
221.84360259432958
 11
850.80558877752833
 21
221.84360259432958
  0
LINE
  8
_0-b_細線3
  6
CONTINUOUS
 62
    7
 10
850.80558877752833
 20
221.84360259432958
 11
850.80558877752833
 21
291.84360259432952
  0
LINE
  8
_0-b_細線3
  6
CONTINUOUS
 62
    7
 10
850.80558877752833
 20
291.84360259432952
 11
846.20558877752831
 21
291.84360259432952
  0
LINE
  8
_0-a_極細3
  6
CONTINUOUS
 62
    7
 10
850.80558877752833
 20
259.84360259432952
 11
846.20558877752831
 21
259.84360259432952
  0
LINE
  8
_0-a_極細3
  6
CONTINUOUS
 62
    7
 10
850.80558877752833
 20
263.84360259432958
 11
846.20558877752831
 21
263.84360259432958
  0
LINE
  8
_0-a_極細3
  6
CONTINUOUS
 62
    7
 10
850.80558877752833
 20
255.84360259432944
 11
846.20558877752831
 21
255.84360259432944
  0
LINE
  8
_0-a_極細3
  6
CONTINUOUS
 62
    7
 10
850.80558877752833
 20
267.84360259432947
 11
846.20558877752831
 21
267.84360259432947
  0
LINE
  8
_0-a_極細3
  6
CONTINUOUS
 62
    7
 10
846.20558877752831
 20
227.84360259432958
 11
850.80558877752833
 21
227.84360259432958
  0
LINE
  8
_0-a_極細3
  6
CONTINUOUS
 62
    7
 10
850.80558877752833
 20
287.84360259432958
 11
846.20558877752831
 21
287.84360259432958
  0
LINE
  8
_0-7_枠細線
  6
CONTINUOUS
 62
    5
 10
872.32244898627505
 20
279.04358875425737
 11
863.32244898627505
 21
297.04358875425737
  0
LINE
  8
_0-7_枠細線
  6
CONTINUOUS
 62
    5
 10
854.32244898627505
 20
279.04358875425737
 11
872.32244898627505
 21
279.04358875425737
  0
LINE
  8
_0-7_枠細線
  6
CONTINUOUS
 62
    5
 10
863.32244898627505
 20
297.04358875425737
 11
854.32244898627505
 21
279.04358875425737
  0
TEXT
  8
_0-7_枠細線
 62
    5
 10
857.1606305080528
 20
277.90500479643748
 40
14.999999999999995
 41
0.8000000000000002
 50
0
  1
４
  0
TEXT
  8
_0-7_枠細線
 62
    5
 10
476.25464665672092
 20
113.84316459231579
 40
30
 41
0.8
 50
0
  1
断面詳細図
  0
TEXT
  8
_0-7_枠細線
 62
    5
 10
614.19341035572256
 20
116.97737744608932
 40
24
 41
0.5999999999999998
 50
0
  1
Ｓ＝１：３
  0
LINE
  8
_0-d_寸法3
  6
CONTINUOUS
 62
    7
 10
226.20558877752876
 20
329.84360259432981
 11
226.20558877752876
 21
431.84360259432873
  0
LINE
  8
_0-d_寸法3
  6
CONTINUOUS
 62
    7
 10
226.20558877752876
 20
425.84360259432873
 11
237.79669869299764
 21
428.94943113555905
  0
LINE
  8
_0-d_寸法3
  6
CONTINUOUS
 62
    7
 10
226.20558877752876
 20
425.84360259432873
 11
237.79669869299764
 21
422.73777405309852
  0
LINE
  8
_0-d_寸法3
  6
CONTINUOUS
 62
    7
 10
846.20558877752865
 20
329.84360259432981
 11
846.20558877752865
 21
431.84360259432873
  0
LINE
  8
_0-d_寸法3
  6
CONTINUOUS
 62
    7
 10
846.20558877752865
 20
425.84360259432873
 11
834.61447886205985
 21
422.73777405309858
  0
LINE
  8
_0-d_寸法3
  6
CONTINUOUS
 62
    7
 10
846.20558877752865
 20
425.84360259432873
 11
834.61447886205985
 21
428.94943113555905
  0
LINE
  8
_0-d_寸法3
  6
CONTINUOUS
 62
    7
 10
226.20558877752876
 20
425.84360259432873
 11
846.20558877752865
 21
425.84360259432873
  0
TEXT
  8
_0-d_寸法3
 62
    7
 10
522.70558877752842
 20
425.84360259432873
 40
18
 41
1
 50
0
  1
310
  0
LINE
  8
_0-d_寸法3
  6
CONTINUOUS
 62
    7
 10
226.20558877752774
 20
219.84360259433004
 11
226.20558877752774
 21
191.84360259432941
  0
LINE
  8
_0-d_寸法3
  6
CONTINUOUS
 62
    7
 10
226.20558877752774
 20
197.84360259432941
 11
237.79669869299653
 21
200.94943113555973
  0
LINE
  8
_0-d_寸法3
  6
CONTINUOUS
 62
    7
 10
226.20558877752774
 20
197.84360259432941
 11
237.79669869299653
 21
194.73777405309926
  0
LINE
  8
_0-d_寸法3
  6
CONTINUOUS
 62
    7
 10
286.20558877752757
 20
265.84360259432964
 11
286.20558877752637
 21
191.84360259432941
  0
LINE
  8
_0-d_寸法3
  6
CONTINUOUS
 62
    7
 10
286.20558877752654
 20
197.84360259432941
 11
274.61447886205769
 21
194.73777405309926
  0
LINE
  8
_0-d_寸法3
  6
CONTINUOUS
 62
    7
 10
286.20558877752654
 20
197.84360259432941
 11
274.61447886205775
 21
200.94943113555973
  0
LINE
  8
_0-d_寸法3
  6
CONTINUOUS
 62
    7
 10
226.20558877752774
 20
197.84360259432941
 11
286.20558877752654
 21
197.84360259432941
  0
TEXT
  8
_0-d_寸法3
 62
    7
 10
247.20558877752663
 20
197.84360259432941
 40
18
 41
1
 50
0
  1
30
  0
LINE
  8
_0-d_寸法3
  6
CONTINUOUS
 62
    7
 10
846.20558877752796
 20
219.84360259433004
 11
846.20558877752796
 21
191.84360259432941
  0
LINE
  8
_0-d_寸法3
  6
CONTINUOUS
 62
    7
 10
846.20558877752796
 20
197.84360259432941
 11
834.61447886205917
 21
194.73777405309926
  0
LINE
  8
_0-d_寸法3
  6
CONTINUOUS
 62
    7
 10
846.20558877752796
 20
197.84360259432941
 11
834.61447886205917
 21
200.94943113555973
  0
LINE
  8
_0-d_寸法3
  6
CONTINUOUS
 62
    7
 10
786.20558877752865
 20
265.84360259432964
 11
786.20558877752865
 21
191.84360259432941
  0
LINE
  8
_0-d_寸法3
  6
CONTINUOUS
 62
    7
 10
786.20558877752865
 20
197.84360259432941
 11
797.79669869299744
 21
200.94943113555973
  0
LINE
  8
_0-d_寸法3
  6
CONTINUOUS
 62
    7
 10
786.20558877752865
 20
197.84360259432941
 11
797.79669869299744
 21
194.73777405309926
  0
LINE
  8
_0-d_寸法3
  6
CONTINUOUS
 62
    7
 10
846.20558877752796
 20
197.84360259432941
 11
786.20558877752865
 21
197.84360259432941
  0
TEXT
  8
_0-d_寸法3
 62
    7
 10
807.20558877752592
 20
197.84360259432941
 40
18
 41
1
 50
0.0000000000002714
  1
30
  0
LINE
  8
_0-d_寸法3
  6
CONTINUOUS
 62
    7
 10
286.20558877752774
 20
271.84360259432964
 11
286.20558877752774
 21
191.84360259432941
  0
LINE
  8
_0-d_寸法3
  6
CONTINUOUS
 62
    7
 10
286.20558877752774
 20
197.84360259432941
 11
297.79669869299653
 21
200.94943113555973
  0
LINE
  8
_0-d_寸法3
  6
CONTINUOUS
 62
    7
 10
286.20558877752774
 20
197.84360259432941
 11
297.79669869299653
 21
194.73777405309926
  0
LINE
  8
_0-d_寸法3
  6
CONTINUOUS
 62
    7
 10
786.20558877752865
 20
271.84360259432964
 11
786.20558877752865
 21
191.84360259432941
  0
LINE
  8
_0-d_寸法3
  6
CONTINUOUS
 62
    7
 10
786.20558877752865
 20
197.84360259432941
 11
774.61447886205985
 21
194.73777405309926
  0
LINE
  8
_0-d_寸法3
  6
CONTINUOUS
 62
    7
 10
786.20558877752865
 20
197.84360259432941
 11
774.61447886205985
 21
200.94943113555973
  0
LINE
  8
_0-d_寸法3
  6
CONTINUOUS
 62
    7
 10
286.20558877752774
 20
197.84360259432941
 11
786.20558877752865
 21
197.84360259432941
  0
TEXT
  8
_0-d_寸法3
 62
    7
 10
522.70558877752728
 20
197.84360259432941
 40
18
 41
1
 50
0
  1
250
  0
LINE
  8
_0-d_寸法3
  6
CONTINUOUS
 62
    7
 10
226.20558877752774
 20
329.8436025943293
 11
226.20558877752774
 21
389.84360259432924
  0
LINE
  8
_0-d_寸法3
  6
CONTINUOUS
 62
    7
 10
226.20558877752774
 20
383.8436025943293
 11
214.61447886205895
 21
380.73777405309909
  0
LINE
  8
_0-d_寸法3
  6
CONTINUOUS
 62
    7
 10
226.20558877752774
 20
383.8436025943293
 11
214.61447886205895
 21
386.94943113555956
  0
LINE
  8
_0-d_寸法3
  6
CONTINUOUS
 62
    7
 10
232.20558877752774
 20
329.8436025943293
 11
232.20558877752774
 21
389.84360259432924
  0
CIRCLE
  8
_0-d_寸法3
  6
CONTINUOUS
 62
    1
 10
232.20558877752774
 20
383.8436025943293
 40
1.7999999999999996
  0
LINE
  8
_0-d_寸法3
  6
CONTINUOUS
 62
    7
 10
196.20558877752774
 20
383.8436025943293
 11
232.20558877752774
 21
383.8436025943293
  0
TEXT
  8
_0-d_寸法3
 62
    7
 10
201.5678487508938
 20
383.8436025943293
 40
18
 41
1
 50
0
  1
3
  0
LINE
  8
_0-d_寸法3
  6
CONTINUOUS
 62
    7
 10
235.20558877752774
 20
329.84360259432873
 11
235.20558877752774
 21
389.84360259432924
  0
LINE
  8
_0-d_寸法3
  6
CONTINUOUS
 62
    7
 10
232.20558877752774
 20
383.8436025943293
 11
235.20558877752774
 21
383.8436025943293
  0
TEXT
  8
_0-d_寸法3
 62
    7
 10
236.99208224145963
 20
364.31463447721808
 40
18
 41
1
 50
0
  1
1.5
  0
LINE
  8
_0-d_寸法3
  6
CONTINUOUS
 62
    7
 10
235.20558877752774
 20
383.8436025943293
 11
246.79669869299661
 21
386.94943113555956
  0
LINE
  8
_0-d_寸法3
  6
CONTINUOUS
 62
    7
 10
235.20558877752774
 20
383.8436025943293
 11
246.79669869299661
 21
380.73777405309897
  0
LINE
  8
_0-d_寸法3
  6
CONTINUOUS
 62
    7
 10
837.20558877752796
 20
329.84360259432873
 11
837.20558877752831
 21
389.84360259432924
  0
LINE
  8
_0-d_寸法3
  6
CONTINUOUS
 62
    7
 10
837.20558877752831
 20
383.8436025943293
 11
825.61447886205951
 21
380.73777405309909
  0
LINE
  8
_0-d_寸法3
  6
CONTINUOUS
 62
    7
 10
837.20558877752831
 20
383.8436025943293
 11
825.61447886205951
 21
386.94943113555956
  0
LINE
  8
_0-d_寸法3
  6
CONTINUOUS
 62
    7
 10
235.20558877752774
 20
383.8436025943293
 11
837.20558877752831
 21
383.8436025943293
  0
TEXT
  8
_0-d_寸法3
 62
    7
 10
522.70558877752796
 20
383.8436025943293
 40
18
 41
1
 50
0
  1
301
  0
LINE
  8
_0-d_寸法3
  6
CONTINUOUS
 62
    7
 10
840.20558877752865
 20
329.8436025943293
 11
840.20558877752899
 21
389.84360259432924
  0
CIRCLE
  8
_0-d_寸法3
  6
CONTINUOUS
 62
    1
 10
840.20558877752899
 20
383.8436025943293
 40
1.7999999999999996
  0
LINE
  8
_0-d_寸法3
  6
CONTINUOUS
 62
    7
 10
837.20558877752831
 20
383.8436025943293
 11
840.20558877752899
 21
383.8436025943293
  0
TEXT
  8
_0-d_寸法3
 62
    7
 10
807.20832634523549
 20
362.89113801495358
 40
18
 41
1
 50
0
  1
1.5
  0
LINE
  8
_0-d_寸法3
  6
CONTINUOUS
 62
    7
 10
846.20558877752796
 20
329.8436025943293
 11
846.20558877752831
 21
389.84360259432924
  0
LINE
  8
_0-d_寸法3
  6
CONTINUOUS
 62
    7
 10
846.20558877752831
 20
383.8436025943293
 11
857.7966986929971
 21
386.94943113555939
  0
LINE
  8
_0-d_寸法3
  6
CONTINUOUS
 62
    7
 10
846.20558877752831
 20
383.8436025943293
 11
857.7966986929971
 21
380.73777405309897
  0
LINE
  8
_0-d_寸法3
  6
CONTINUOUS
 62
    7
 10
840.20558877752899
 20
383.8436025943293
 11
876.20558877752831
 21
383.8436025943293
  0
TEXT
  8
_0-d_寸法3
 62
    7
 10
862.76448790183917
 20
383.8436025943293
 40
18
 41
1
 50
0
  1
3
  0
LINE
  8
_0-d_寸法3
  6
CONTINUOUS
 62
    7
 10
526.3757642460605
 20
280.72651983054197
 11
484.20739861961977
 21
310.25312731615907
  0
LINE
  8
_0-d_寸法3
  6
CONTINUOUS
 62
    7
 10
489.12231088535373
 20
306.81166869805281
 11
486.01648234412346
 21
318.40277861352166
  0
LINE
  8
_0-d_寸法3
  6
CONTINUOUS
 62
    7
 10
489.12231088535373
 20
306.81166869805281
 11
492.22813942658399
 21
318.4027786135216
  0
LINE
  8
_0-d_寸法3
  6
CONTINUOUS
 62
    7
 10
526.3757642460605
 20
330.72651983054237
 11
484.20739861961977
 21
360.25312731615941
  0
LINE
  8
_0-d_寸法3
  6
CONTINUOUS
 62
    7
 10
489.12231088535373
 20
356.81166869805315
 11
492.22813942658399
 21
345.22055878258436
  0
LINE
  8
_0-d_寸法3
  6
CONTINUOUS
 62
    7
 10
489.12231088535373
 20
356.81166869805315
 11
486.01648234412346
 21
345.22055878258431
  0
LINE
  8
_0-d_寸法3
  6
CONTINUOUS
 62
    7
 10
489.12231088535373
 20
306.81166869805281
 11
489.12231088535373
 21
356.81166869805315
  0
TEXT
  8
_0-d_寸法3
 62
    7
 10
489.12231088535373
 20
325.80675264326158
 40
18
 41
1
 50
90
  1
25
  0
LINE
  8
_0-a_極細3
  6
CENTER1
 62
    7
 10
843.94991833200061
 20
301.04355807672971
 11
229.08187881367957
 21
301.04355807672971
  0
LINE
  8
_0-b_細線3
  6
CONTINUOUS
 62
    7
 10
235.20558877752774
 20
273.84360259432947
 11
235.20558877752774
 21
323.8436025943293
  0
LINE
  8
_0-b_細線3
  6
CONTINUOUS
 62
    7
 10
235.20558877752774
 20
323.8436025943293
 11
837.20558877752796
 21
323.8436025943293
  0
LINE
  8
_0-b_細線3
  6
CONTINUOUS
 62
    7
 10
837.20558877752796
 20
323.8436025943293
 11
837.20558877752796
 21
273.84360259432947
  0
LINE
  8
_0-b_細線3
  6
CONTINUOUS
 62
    7
 10
837.20558877752796
 20
273.84360259432947
 11
235.20558877752774
 21
273.84360259432947
  0
ENDSEC
  0
EOF
