  0
SECTION
  2
HEADER
  9
$ACADVER
  1
AC1009
  9
$INSBASE
 10
0
 20
0
 30
0
  9
$EXTMIN
 10
0
 20
0
  9
$EXTMAX
 10
1485
 20
1050
  9
$LIMMIN
 10
0
 20
0
  9
$LIMMAX
 10
1485
 20
1050
  9
$LTSCALE
 40
5
  0
ENDSEC
  0
SECTION
  2
TABLES
  0
TABLE
  2
LTYPE
 70
     9
  0
LTYPE
  2
CONTINUOUS
 70
    64
  3
実線
 72
    65
 73
     0
 40
0.0
  0
LTYPE
  2
DASHED1
 70
    64
  3
--  --  --  --  --  --  --  --  
 72
    65
 73
     2
 40
2.5
 49
1.25
 49
-1.25
  0
LTYPE
  2
DASHED2
 70
    64
  3
----    ----    ----    ----    
 72
    65
 73
     2
 40
5.0
 49
2.5
 49
-2.5
  0
LTYPE
  2
DASHED3
 70
    64
  3
------  ------  ------  ------  
 72
    65
 73
     2
 40
5.0
 49
3.75
 49
-1.25
  0
LTYPE
  2
CENTER1
 70
    64
  3
----- - ----- - ----- - ----- - 
 72
    65
 73
     4
 40
10.0
 49
6.25
 49
-1.25
 49
1.25
 49
-1.25
  0
LTYPE
  2
CENTER2
 70
    64
  3
----------  --  ----------  --  
 72
    65
 73
     4
 40
20.0
 49
12.5
 49
-2.5
 49
2.5
 49
-2.5
  0
LTYPE
  2
PHANTOM1
 70
    64
  3
--- - - --- - - --- - - --- - - 
 72
    65
 73
     6
 40
10.0
 49
3.25
 49
-1.25
 49
1.25
 49
-1.25
 49
1.25
 49
-1.25
  0
LTYPE
  2
PHANTOM2
 70
    64
  3
--------  -  -  --------  -  -  
 72
    65
 73
     6
 40
20.0
 49
10.0
 49
-2.5
 49
1.25
 49
-2.5
 49
1.25
 49
-2.5
  0
LTYPE
  2
DOT
 70
    64
  3
-   -   -   -   -   -   -   -   
 72
    65
 73
     2
 40
2.5
 49
0.625
 49
-1.875
  0
LTYPE
  2
DUMMY
 70
    64
  3
ダミー
 72
    65
 73
     0
 40
0.0
  0
LTYPE
  2
RAND1
 70
    64
  3
ランダム線1
 72
    65
 73
     4
 40
10.0
 49
1.0
 49
-2.0
 49
3.0
 49
-4.0
  0
LTYPE
  2
RAND2
 70
    64
  3
ランダム線2
 72
    65
 73
     4
 40
14.0
 49
2.0
 49
-3.0
 49
4.0
 49
-5.0
  0
LTYPE
  2
RAND3
 70
    64
  3
ランダム線3
 72
    65
 73
     4
 40
18.0
 49
3.0
 49
-4.0
 49
5.0
 49
-6.0
  0
LTYPE
  2
RAND4
 70
    64
  3
ランダム線4
 72
    65
 73
     4
 40
22.0
 49
4.0
 49
-5.0
 49
6.0
 49
-7.0
  0
LTYPE
  2
RAND5
 70
    64
  3
ランダム線5
 72
    65
 73
     4
 40
26.0
 49
5.0
 49
-6.0
 49
7.0
 49
-8.0
  0
LTYPE
  2
LONG1
 70
    64
  3
----------  --  ----------  --  
 72
    65
 73
     4
 40
40.0
 49
32.5
 49
-2.5
 49
2.5
 49
-2.5
  0
LTYPE
  2
LONG2
 70
    64
  3
--------  -  -  --------  -  -  
 72
    65
 73
     6
 40
40.0
 49
30.0
 49
-2.5
 49
1.25
 49
-2.5
 49
1.25
 49
-2.5
  0
LTYPE
  2
LONG3
 70
    64
  3
+++++++++++++++..+++++++++++++++
 72
    65
 73
     2
 40
40.0
 49
37.5
 49
-2.5
  0
LTYPE
  2
LONG4
 70
    64
  3
+++++++++++++++..+++++++++++++++
 72
    65
 73
     2
 40
80.0
 49
75.0
 49
-5.0
  0
LTYPE
  2
LONG5
 70
    64
  3
----------  --  ----------  --  
 72
    65
 73
     4
 40
60.0
 49
37.5
 49
-7.5
 49
7.5
 49
-7.5
  0
LTYPE
  2
dashed
 70
   64
  3
-------   -------------   ------
 72
   65
 73
    2
 40
7.5
 49
6
 49
-1.5
  0
LTYPE
  2
dashed_spaced
 70
   64
  3
----        --------        ----
 72
   65
 73
    2
 40
12
 49
6
 49
-6
  0
LTYPE
  2
long_dashed_dotted
 70
   64
  3
------------- --- --------------
 72
   65
 73
    4
 40
15.25
 49
12
 49
-1.5
 49
0.25
 49
-1.5
  0
LTYPE
  2
long_dashed_double-dotted
 70
   64
  3
----------- --- --- ------------
 72
   65
 73
    6
 40
17
 49
12
 49
-1.5
 49
0.25
 49
-1.5
 49
0.25
 49
-1.5
  0
LTYPE
  2
long_dashed_triplicate-dotted
 70
   64
  3
--------- --- --- --- ----------
 72
   65
 73
    8
 40
18.75
 49
12
 49
-1.5
 49
0.25
 49
-1.5
 49
0.25
 49
-1.5
 49
0.25
 49
-1.5
  0
LTYPE
  2
dotted
 70
   64
  3
   -       -       -       -    
 72
   65
 73
    2
 40
1.75
 49
0.25
 49
-1.5
  0
LTYPE
  2
chain
 70
   64
  3
-------------- -- --------------
 72
   65
 73
    4
 40
18.5
 49
12
 49
-1.5
 49
3.5
 49
-1.5
  0
LTYPE
  2
chain_double_dash
 70
   64
  3
------------ -- -- -------------
 72
   65
 73
    6
 40
23.5
 49
12
 49
-1.5
 49
3.5
 49
-1.5
 49
3.5
 49
-1.5
  0
LTYPE
  2
dashed_dotted
 70
   64
  3
-----------     -     ----------
 72
   65
 73
    4
 40
9.25
 49
6
 49
-1.5
 49
0.25
 49
-1.5
  0
LTYPE
  2
double-dashed_dotted
 70
   64
  3
------   -----------   -   -----
 72
   65
 73
    6
 40
16.75
 49
6
 49
-1.5
 49
6
 49
-1.5
 49
0.25
 49
-1.5
  0
LTYPE
  2
dashed_double-dotted
 70
   64
  3
---------    -    -    ---------
 72
   65
 73
    6
 40
11
 49
6
 49
-1.5
 49
0.25
 49
-1.5
 49
0.25
 49
-1.5
  0
LTYPE
  2
double-dashed_double-dotted
 70
   64
  3
-----   ---------   -   -   ----
 72
   65
 73
    8
 40
18.5
 49
6
 49
-1.5
 49
6
 49
-1.5
 49
0.25
 49
-1.5
 49
0.25
 49
-1.5
  0
LTYPE
  2
dashed_triplicate-dotted
 70
   64
  3
-------    -    -    -    ------
 72
   65
 73
    8
 40
12.75
 49
6
 49
-1.5
 49
0.25
 49
-1.5
 49
0.25
 49
-1.5
 49
0.25
 49
-1.5
  0
LTYPE
  2
double-dashed_triplicate-dotted
 70
   64
  3
-----  ---------  -  -  -  -----
 72
   65
 73
   10
 40
20.25
 49
6
 49
-1.5
 49
6
 49
-1.5
 49
0.25
 49
-1.5
 49
0.25
 49
-1.5
 49
0.25
 49
-1.5
  0
LTYPE
  2
undefined
 70
   64
  3
--------------------------------
 72
   65
 73
    0
 40
0
  0
ENDTAB
  0
TABLE
  2
STYLE
  5
3
100
AcDbSymbolTable
 70
     1
  0
STYLE
  5
10
100
AcDbSymbolTableRecord
100
AcDbTextStyleTableRecord
  2
STANDARD
 70
     0
 40
0.0
 41
1.0
 50
0.0
 71
     0
 42
0.2
  3
txt
  4
bigfont.shx
  0
STYLE
  5
26
100
AcDbSymbolTableRecord
100
AcDbTextStyleTableRecord
  2
TATEGAKI
 70
    68
 40
0.0
 41
1.0
 50
0.0
 71
     0
 42
1.0
  3
txt
  4
bigfont.shx
  0
ENDTAB
  0
TABLE
  2
LAYER
 70
    7
  0
LAYER
  2
_0-0_計極細
 70
   64
 62
    7
  6
CONTINUOUS
  0
LAYER
  2
_0-1_計細線
 70
   64
 62
    7
  6
CONTINUOUS
  0
LAYER
  2
_0-5_寸法線
 70
   64
 62
    7
  6
CONTINUOUS
  0
LAYER
  2
_0-7_枠細線
 70
   64
 62
    7
  6
CONTINUOUS
  0
LAYER
  2
_0-8_枠中線
 70
   64
 62
    7
  6
CONTINUOUS
  0
LAYER
  2
_0-9_枠極太
 70
   64
 62
    7
  6
CONTINUOUS
  0
LAYER
  2
ADD_LINE
 70
   64
 62
    7
  6
CONTINUOUS
  0
ENDTAB
  0
ENDSEC
  0
SECTION
  2
BLOCKS
  0
ENDSEC
  0
SECTION
  2
ENTITIES
  0
LINE
  8
_0-7_枠細線
  6
CONTINUOUS
 62
    5
 10
1185
 20
180
 11
1185
 21
100
  0
TEXT
  8
_0-7_枠細線
 62
    5
 10
937.5
 20
97.5
 40
17.5
 41
1
 50
0
  1
備考
  7
TATEGAKI
  0
TEXT
  8
_0-7_枠細線
 62
    5
 10
937.5
 20
137.5
 40
17.5
 41
1
 50
0
  1
品番
  7
TATEGAKI
  0
TEXT
  8
_0-7_枠細線
 62
    5
 10
937.5
 20
177.5
 40
17.5
 41
1
 50
0
  1
品名
  7
TATEGAKI
  0
LINE
  8
_0-7_枠細線
  6
CONTINUOUS
 62
    5
 10
1185
 20
140
 11
925
 21
140
  0
LINE
  8
_0-7_枠細線
  6
CONTINUOUS
 62
    5
 10
950
 20
180
 11
950
 21
60
  0
LINE
  8
_0-8_枠中線
  6
CONTINUOUS
 62
    5
 10
1425
 20
180
 11
925
 21
180
  0
LINE
  8
_0-8_枠中線
  6
CONTINUOUS
 62
    5
 10
925
 20
180
 11
925
 21
60
  0
LINE
  8
_0-7_枠細線
  6
CONTINUOUS
 62
    5
 10
1245
 20
180
 11
1245
 21
60
  0
TEXT
  8
_0-7_枠細線
 62
    5
 10
1192.5
 20
160
 40
15
 41
1
 50
0
  1
縮　尺
  0
LINE
  8
_0-7_枠細線
  6
CONTINUOUS
 62
    5
 10
1185
 20
155
 11
1245
 21
155
  0
LINE
  8
_0-7_枠細線
  6
CONTINUOUS
 62
    5
 10
1245
 20
100
 11
925
 21
100
  0
LINE
  8
_0-7_枠細線
  6
CONTINUOUS
 62
    5
 10
1425
 20
90
 11
1245
 21
90
  0
LINE
  8
_0-7_枠細線
  6
CONTINUOUS
 62
    5
 10
1245
 20
120
 11
1425
 21
120
  0
LINE
  8
_0-7_枠細線
  6
CONTINUOUS
 62
    5
 10
1425
 20
140
 11
1245
 21
140
  0
TEXT
  8
_0-7_枠細線
 62
    5
 10
1255
 20
147.5
 40
25
 41
0.8
 50
0
  1
株式会社シマブン
  0
TEXT
  8
_0-7_枠細線
 62
    5
 10
1252.5
 20
60
 40
15
 41
1
 50
0
  1
年月日
  0
TEXT
  8
_0-7_枠細線
 62
    5
 10
1252.5
 20
75
 40
15
 41
1
 50
0
  1
作　成
  0
TEXT
  8
_0-7_枠細線
 62
    5
 10
1256.25
 20
122.5
 40
15
 41
1
 50
0
  1
承 認
  0
LINE
  8
_0-7_枠細線
  6
CONTINUOUS
 62
    5
 10
1305
 20
140
 11
1305
 21
60
  0
TEXT
  8
_0-7_枠細線
 62
    5
 10
1316.25
 20
122.5
 40
15
 41
1
 50
0
  1
検 図
  0
LINE
  8
_0-7_枠細線
  6
CONTINUOUS
 62
    5
 10
1365
 20
140
 11
1365
 21
90
  0
TEXT
  8
_0-7_枠細線
 62
    5
 10
1375
 20
95
 40
20
 41
1
 50
0
  1
藤戸
  0
TEXT
  8
_0-7_枠細線
 62
    5
 10
1376.25
 20
122.5
 40
15
 41
1
 50
0
  1
設 計
  0
TEXT
  8
_0-7_枠細線
 62
    5
 10
1193.9999999999998
 20
117.5
 40
20
 41
0.7000000000000001
 50
0
  1
１：５
  0
TEXT
  8
_0-7_枠細線
 62
    5
 10
960.5
 20
158.74999999999994
 40
20.000000000000007
 41
0.5999999999999998
 50
0
  1
セーフティグレーチングＨ２０タイプ
  0
TEXT
  8
_0-7_枠細線
 62
    5
 10
1068.5
 20
141.25
 40
20.000000000000007
 41
0.5999999999999998
 50
0
  1
集水マス　補強仕様
  0
LINE
  8
_0-7_枠細線
  6
CONTINUOUS
 62
    5
 10
1425
 20
942.5
 11
890
 21
942.5
  0
TEXT
  8
_0-7_枠細線
 62
    5
 10
895
 20
945
 40
12.5
 41
1
 50
0
  1
記号
  0
TEXT
  8
_0-7_枠細線
 62
    5
 10
996.875
 20
945
 40
12.5
 41
1
 50
0
  1
訂　 正　 記　 事
  0
TEXT
  8
_0-7_枠細線
 62
    5
 10
1181.25
 20
945
 40
12.5
 41
1
 50
0
  1
訂 正 年 月 日
  0
TEXT
  8
_0-7_枠細線
 62
    5
 10
1306.25
 20
945
 40
12.5
 41
1
 50
0
  1
備　　　　　考
  0
LINE
  8
_0-7_枠細線
  6
CONTINUOUS
 62
    5
 10
1425
 20
925
 11
890
 21
925
  0
TEXT
  8
_0-7_枠細線
 62
    5
 10
960.5
 20
69.999999999999858
 40
20
 41
0.5999999999999998
 50
0
  1
色については表参照のこと
  0
TEXT
  8
_0-7_枠細線
 62
    5
 10
960.5
 20
109.99999999999993
 40
20.000000000000007
 41
0.5999999999999998
 50
0
  1
ＧＲＳＫ－２０Ｋ２００
  0
TEXT
  8
_0-7_枠細線
 62
    5
 10
961.00000000000023
 20
453.73352999148574
 40
15
 41
0.8000000000000001
 50
0
  1
品　　番
  0
LINE
  8
_0-7_枠細線
  6
CONTINUOUS
 62
    5
 10
925
 20
398.73352999148574
 11
1245.0000000000002
 21
398.73352999148574
  0
LINE
  8
_0-7_枠細線
  6
CONTINUOUS
 62
    5
 10
925
 20
423.73352999148574
 11
1245.0000000000002
 21
423.73352999148574
  0
LINE
  8
_0-7_枠細線
  6
CONTINUOUS
 62
    5
 10
925
 20
448.73352999148574
 11
1245.0000000000002
 21
448.73352999148574
  0
TEXT
  8
_0-7_枠細線
 62
    5
 10
1089.0000000000005
 20
453.73352999148574
 40
15
 41
0.8000000000000001
 50
0
  1
色
  0
TEXT
  8
_0-7_枠細線
 62
    5
 10
1171.0000000000005
 20
453.73352999148574
 40
15
 41
0.8000000000000001
 50
0
  1
備　　考
  0
LINE
  8
_0-7_枠細線
  6
CONTINUOUS
 62
    5
 10
925
 20
473.73352999148574
 11
1245.0000000000002
 21
473.73352999148574
  0
LINE
  8
_0-7_枠細線
  6
CONTINUOUS
 62
    5
 10
925
 20
248.73352999148568
 11
1245.0000000000002
 21
248.73352999148568
  0
LINE
  8
_0-7_枠細線
  6
CONTINUOUS
 62
    5
 10
925
 20
373.73352999148574
 11
1245.0000000000002
 21
373.73352999148574
  0
LINE
  8
_0-7_枠細線
  6
CONTINUOUS
 62
    5
 10
925
 20
348.73352999148574
 11
1245.0000000000002
 21
348.73352999148574
  0
LINE
  8
_0-7_枠細線
  6
CONTINUOUS
 62
    5
 10
925
 20
323.73352999148574
 11
1245.0000000000002
 21
323.73352999148574
  0
LINE
  8
_0-7_枠細線
  6
CONTINUOUS
 62
    5
 10
925
 20
298.73352999148568
 11
1245.0000000000002
 21
298.73352999148568
  0
LINE
  8
_0-7_枠細線
  6
CONTINUOUS
 62
    5
 10
925
 20
273.73352999148568
 11
1245.0000000000002
 21
273.73352999148568
  0
TEXT
  8
_0-7_枠細線
 62
    5
 10
1023.75
 20
478.73352999148574
 40
17.5
 41
1
 50
0
  1
品番表
  0
LINE
  8
_0-7_枠細線
  6
CONTINUOUS
 62
    5
 10
925
 20
223.73352999148568
 11
1245.0000000000002
 21
223.73352999148568
  0
LINE
  8
_0-7_枠細線
  6
CONTINUOUS
 62
    5
 10
1245.0000000000002
 20
473.73352999148574
 11
1245.0000000000002
 21
223.73352999148568
  0
LINE
  8
_0-7_枠細線
  6
CONTINUOUS
 62
    5
 10
1145
 20
473.73352999148574
 11
1145
 21
223.73352999148568
  0
LINE
  8
_0-7_枠細線
  6
CONTINUOUS
 62
    5
 10
1045.0000000000005
 20
473.73352999148574
 11
1045.0000000000005
 21
223.73352999148568
  0
LINE
  8
_0-7_枠細線
  6
CONTINUOUS
 62
    5
 10
925
 20
473.73352999148574
 11
925
 21
223.73352999148568
  0
TEXT
  8
_0-7_枠細線
 62
    5
 10
929.75000000000045
 20
428.73352999148574
 40
15
 41
0.5666666666666667
 50
0
  1
ＧＲＳＫ－２０Ｋ２００－Ｂ
  0
TEXT
  8
_0-7_枠細線
 62
    5
 10
929.75000000000045
 20
403.73352999148574
 40
15
 41
0.5666666666666667
 50
0
  1
ＧＲＳＫ－２０Ｋ２００－Ｇ
  0
TEXT
  8
_0-7_枠細線
 62
    5
 10
929.75000000000045
 20
378.73352999148574
 40
15
 41
0.5666666666666667
 50
0
  1
ＧＲＳＫ－２０Ｋ２００－Ｓ
  0
TEXT
  8
_0-7_枠細線
 62
    5
 10
929.75000000000045
 20
353.73352999148574
 40
15
 41
0.5666666666666667
 50
0
  1
ＧＲＳＫ－２０Ｋ２００－Ｐ
  0
TEXT
  8
_0-7_枠細線
 62
    5
 10
929.75000000000045
 20
328.73352999148574
 40
15
 41
0.5666666666666667
 50
0
  1
ＧＲＳＫ－２０Ｋ２００－Ａ
  0
TEXT
  8
_0-7_枠細線
 62
    5
 10
929.75000000000045
 20
303.73352999148568
 40
15
 41
0.5666666666666667
 50
0
  1
ＧＲＳＫ－２０Ｋ２００－Ｄ
  0
TEXT
  8
_0-7_枠細線
 62
    5
 10
929.75000000000045
 20
278.73352999148568
 40
15
 41
0.5666666666666667
 50
0
  1
ＧＲＳＫ－２０Ｋ２００－Ｍ
  0
TEXT
  8
_0-7_枠細線
 62
    5
 10
929.75000000000045
 20
253.73352999148568
 40
15
 41
0.5666666666666667
 50
0
  1
ＧＲＳＫ－２０Ｋ２００－Ｃ
  0
TEXT
  8
_0-7_枠細線
 62
    5
 10
929.75000000000045
 20
228.73352999148568
 40
15
 41
0.5666666666666667
 50
0
  1
ＧＲＳＫ－２０Ｋ２００－Ｋ
  0
LINE
  8
_0-7_枠細線
  6
CONTINUOUS
 62
    5
 10
1290.7925839968264
 20
393.73352999148574
 11
1290.7925839968264
 21
473.73352999148574
  0
TEXT
  8
_0-7_枠細線
 62
    5
 10
1313.2925839968264
 20
451.23352999148574
 40
15.000000000000004
 41
1
 50
0
  1
耐荷重
  0
TEXT
  8
_0-7_枠細線
 62
    5
 10
1298.2925839968264
 20
401.23352999148574
 40
15.000000000000004
 41
1
 50
0
  1
（歩道用）
  0
LINE
  8
_0-7_枠細線
  6
CONTINUOUS
 62
    5
 10
1380.7925839968264
 20
393.73352999148574
 11
1380.7925839968264
 21
473.73352999148574
  0
LINE
  8
_0-7_枠細線
  6
CONTINUOUS
 62
    5
 10
1290.7925839968264
 20
473.73352999148574
 11
1380.7925839968264
 21
473.73352999148574
  0
LINE
  8
_0-7_枠細線
  6
CONTINUOUS
 62
    5
 10
1290.7925839968264
 20
443.73352999148574
 11
1380.7925839968264
 21
443.73352999148574
  0
LINE
  8
_0-7_枠細線
  6
CONTINUOUS
 62
    5
 10
1290.7925839968264
 20
393.73352999148574
 11
1380.7925839968264
 21
393.73352999148574
  0
TEXT
  8
_0-7_枠細線
 62
    5
 10
1305.7925839968264
 20
421.23352999148574
 40
15.000000000000004
 41
1
 50
0
  1
5.0kN/㎡
  0
TEXT
  8
_0-7_枠細線
 62
    5
 10
1255
 20
95
 40
20
 41
1
 50
0
  1
大野
  0
TEXT
  8
_0-7_枠細線
 62
    5
 10
1315
 20
95
 40
20
 41
1
 50
0
  1
深川
  0
TEXT
  8
_0-7_枠細線
 62
    5
 10
1309.9999999999998
 20
67.499999999999929
 40
15.000000000000009
 41
0.6666666666666665
 50
0
  1
２０１７年０４月０１日
  0
LINE
  8
_0-9_枠極太
  6
CONTINUOUS
 62
    5
 10
60
 20
60
 11
60
 21
960
  0
LINE
  8
_0-9_枠極太
  6
CONTINUOUS
 62
    5
 10
60
 20
960
 11
1425
 21
960
  0
LINE
  8
_0-9_枠極太
  6
CONTINUOUS
 62
    5
 10
1425
 20
960
 11
1425
 21
60
  0
LINE
  8
_0-9_枠極太
  6
CONTINUOUS
 62
    5
 10
1425
 20
60
 11
60
 21
60
  0
LINE
  8
_0-7_枠細線
  6
CONTINUOUS
 62
    5
 10
915
 20
926.44233397174685
 11
907.5
 21
941.44233397174685
  0
LINE
  8
_0-7_枠細線
  6
CONTINUOUS
 62
    5
 10
900
 20
926.44233397174685
 11
915
 21
926.44233397174685
  0
LINE
  8
_0-7_枠細線
  6
CONTINUOUS
 62
    5
 10
907.5
 20
941.44233397174685
 11
900
 21
926.44233397174685
  0
TEXT
  8
_0-7_枠細線
 62
    5
 10
1180
 20
927.5
 40
12.5
 41
0.7199999999999999
 50
0
  1
２０１９．０９．０１
  0
TEXT
  8
_0-7_枠細線
 62
    5
 10
938.85037037037023
 20
927.5
 40
12.5
 41
1
 50
0
  1
アンカー材質･厚み変更
  0
TEXT
  8
_0-7_枠細線
 62
    5
 10
902.36515126814822
 20
925.49351400689704
 40
12.5
 41
0.8
 50
0
  1
１
  0
LINE
  8
_0-7_枠細線
  6
CONTINUOUS
 62
    5
 10
1425
 20
907.5
 11
890
 21
907.5
  0
LINE
  8
_0-7_枠細線
  6
CONTINUOUS
 62
    5
 10
1425
 20
890
 11
890
 21
890
  0
TEXT
  8
_0-7_枠細線
 62
    5
 10
902.36515126814822
 20
908.63533172636664
 40
12.5
 41
0.8
 50
0
  1
２
  0
LINE
  8
_0-7_枠細線
  6
CONTINUOUS
 62
    5
 10
907.5
 20
923.94233397174685
 11
900
 21
908.94233397174685
  0
LINE
  8
_0-7_枠細線
  6
CONTINUOUS
 62
    5
 10
900
 20
908.94233397174685
 11
915
 21
908.94233397174685
  0
LINE
  8
_0-7_枠細線
  6
CONTINUOUS
 62
    5
 10
915
 20
908.94233397174685
 11
907.5
 21
923.94233397174685
  0
TEXT
  8
_0-7_枠細線
 62
    5
 10
902.36515126814822
 20
890.89465008156549
 40
12.5
 41
0.8
 50
0
  1
３
  0
LINE
  8
_0-7_枠細線
  6
CONTINUOUS
 62
    5
 10
907.5
 20
906.44233397174685
 11
900
 21
891.44233397174685
  0
LINE
  8
_0-7_枠細線
  6
CONTINUOUS
 62
    5
 10
900
 20
891.44233397174685
 11
915
 21
891.44233397174685
  0
LINE
  8
_0-7_枠細線
  6
CONTINUOUS
 62
    5
 10
915
 20
891.44233397174685
 11
907.5
 21
906.44233397174685
  0
LINE
  8
_0-7_枠細線
  6
CONTINUOUS
 62
    5
 10
1275
 20
890
 11
1275
 21
959.99999999999909
  0
LINE
  8
_0-7_枠細線
  6
CONTINUOUS
 62
    5
 10
1175
 20
890
 11
1175
 21
959.99999999999909
  0
LINE
  8
_0-7_枠細線
  6
CONTINUOUS
 62
    5
 10
925
 20
890
 11
925
 21
959.99999999999909
  0
LINE
  8
_0-7_枠細線
  6
CONTINUOUS
 62
    5
 10
890
 20
890
 11
890
 21
959.99999999999909
  0
TEXT
  8
_0-7_枠細線
 62
    5
 10
1059.0000000000005
 20
403.73352999148574
 40
15
 41
0.8000000000000001
 50
0
  1
ライトグレー
  0
TEXT
  8
_0-7_枠細線
 62
    5
 10
1071.0000000000005
 20
428.73352999148574
 40
15
 41
0.8000000000000001
 50
0
  1
ベージュ
  0
TEXT
  8
_0-7_枠細線
 62
    5
 10
1071.0000000000005
 20
378.73352999148574
 40
15
 41
0.8000000000000001
 50
0
  1
ホワイト
  0
TEXT
  8
_0-7_枠細線
 62
    5
 10
1077.0000000000005
 20
353.73352999148574
 40
15
 41
0.8000000000000001
 50
0
  1
ピンク
  0
TEXT
  8
_0-7_枠細線
 62
    5
 10
1077.0000000000005
 20
328.73352999148574
 40
15
 41
0.8000000000000001
 50
0
  1
ブルー
  0
TEXT
  8
_0-7_枠細線
 62
    5
 10
1059.0000000000005
 20
303.73352999148568
 40
15
 41
0.8000000000000001
 50
0
  1
ダークグレー
  0
TEXT
  8
_0-7_枠細線
 62
    5
 10
1077.0000000000005
 20
278.73352999148568
 40
15
 41
0.8000000000000001
 50
0
  1
ウッド
  0
TEXT
  8
_0-7_枠細線
 62
    5
 10
1071.0000000000005
 20
228.73352999148568
 40
15
 41
0.8000000000000001
 50
0
  1
ブラック
  0
TEXT
  8
_0-7_枠細線
 62
    5
 10
1071.0000000000005
 20
253.73352999148568
 40
15
 41
0.8000000000000001
 50
0
  1
ブラウン
  0
LINE
  8
_0-0_計極細
  6
CENTER1
 62
    2
 10
1220.2698338223793
 20
693.74877127353318
 11
1010.4052735784185
 21
693.74877127353318
  0
CIRCLE
  8
_0-0_計極細
  6
CONTINUOUS
 62
    2
 10
1238.4932996916818
 20
671.26535065348025
 40
0.3318518518518431
  0
CIRCLE
  8
_0-0_計極細
  6
CONTINUOUS
 62
    2
 10
1250.2532996916816
 20
667.90535065348013
 40
0.3318518518518431
  0
LINE
  8
_0-0_計極細
  6
CONTINUOUS
 62
    2
 10
1236.3976690451429
 20
663.40032708352965
 11
1245.3976690451429
 21
663.40032708352965
  0
LINE
  8
_0-0_計極細
  6
CENTER1
 62
    2
 10
1240.8976690451432
 20
631.98294610386824
 11
1240.8976690451432
 21
665.96575918229541
  0
LINE
  8
_0-0_計極細
  6
CONTINUOUS
 62
    2
 10
1245.3976690451429
 20
663.40032708352965
 11
1245.3976690451429
 21
636.94899027454005
  0
LINE
  8
_0-0_計極細
  6
CONTINUOUS
 62
    2
 10
1236.3976690451429
 20
636.94899027454005
 11
1236.3976690451429
 21
663.40032708352965
  0
LINE
  8
_0-0_計極細
  6
CENTER1
 62
    2
 10
1252.0940606575955
 20
655.02444974156094
 11
1213.6754483680556
 21
669.00768103258201
  0
LINE
  8
_0-0_計極細
  6
CONTINUOUS
 62
    2
 10
1247.581709977434
 20
651.87801097204215
 11
1214.5071030832253
 21
663.91618339158981
  0
LINE
  8
_0-0_計極細
  6
CONTINUOUS
 62
    2
 10
1250.6598912673653
 20
660.33524455911549
 11
1217.5852843731561
 21
672.37341697866316
  0
LINE
  8
_0-0_計極細
  6
CONTINUOUS
 62
    2
 10
1217.5852843731561
 20
672.37341697866316
 11
1214.5071030832253
 21
663.91618339158981
  0
LINE
  8
_0-0_計極細
  6
CONTINUOUS
 62
    2
 10
1247.581709977434
 20
651.87801097204215
 11
1250.6598912673653
 21
660.33524455911549
  0
LINE
  8
_0-0_計極細
  6
CENTER1
 62
    2
 10
991.89766904514272
 20
631.98294610386824
 11
991.89766904514272
 21
665.96575918229541
  0
LINE
  8
_0-0_計極細
  6
CONTINUOUS
 62
    2
 10
987.39766904514283
 20
663.40032708352965
 11
987.39766904514283
 21
636.94899027454005
  0
LINE
  8
_0-0_計極細
  6
CONTINUOUS
 62
    2
 10
996.39766904514272
 20
663.40032708352965
 11
987.39766904514283
 21
663.40032708352965
  0
LINE
  8
_0-0_計極細
  6
CONTINUOUS
 62
    2
 10
996.39766904514272
 20
636.94899027454005
 11
996.39766904514272
 21
663.40032708352965
  0
LINE
  8
_0-0_計極細
  6
CENTER1
 62
    2
 10
980.7012774326904
 20
655.02444974156094
 11
1019.1198897222298
 21
669.00768103258201
  0
LINE
  8
_0-0_計極細
  6
CONTINUOUS
 62
    2
 10
985.21362811285144
 20
651.87801097204215
 11
1018.2882350070605
 21
663.91618339158981
  0
LINE
  8
_0-0_計極細
  6
CONTINUOUS
 62
    2
 10
982.13544682292036
 20
660.33524455911549
 11
1015.2100537171295
 21
672.37341697866316
  0
LINE
  8
_0-0_計極細
  6
CONTINUOUS
 62
    2
 10
1015.2100537171295
 20
672.37341697866316
 11
1018.2882350070605
 21
663.91618339158981
  0
LINE
  8
_0-0_計極細
  6
CONTINUOUS
 62
    2
 10
985.21362811285144
 20
651.87801097204215
 11
982.13544682292036
 21
660.33524455911549
  0
LINE
  8
_0-0_計極細
  6
CONTINUOUS
 62
    2
 10
1267.4711522853247
 20
697.94899027453994
 11
1274.4711519092511
 21
704.94898989846661
  0
LINE
  8
_0-0_計極細
  6
CONTINUOUS
 62
    2
 10
1254.7432302239667
 20
697.94899027453994
 11
1261.7432299474626
 21
704.94898999803581
  0
LINE
  8
_0-0_計極細
  6
CONTINUOUS
 62
    2
 10
1242.0153081626088
 20
697.94899027453994
 11
1249.0153079856739
 21
704.94899009760491
  0
LINE
  8
_0-0_計極細
  6
CONTINUOUS
 62
    2
 10
1229.2873861012508
 20
697.94899027453994
 11
1236.2873860238851
 21
704.94899019717411
  0
LINE
  8
_0-0_計極細
  6
DASHED2
 62
    2
 10
1273.835113316004
 20
697.94899027453994
 11
1279.9043173322118
 21
704.01819429074817
  0
LINE
  8
_0-0_計極細
  6
DASHED2
 62
    2
 10
1261.1071912546454
 20
697.94899027453994
 11
1268.1071909283569
 21
704.9489899482511
  0
LINE
  8
_0-0_計極細
  6
DASHED2
 62
    2
 10
1248.3792691932877
 20
697.94899027453994
 11
1255.3792689665684
 21
704.9489900478203
  0
LINE
  8
_0-0_計極細
  6
DASHED2
 62
    2
 10
1235.6513471319299
 20
697.94899027453994
 11
1242.6513470047794
 21
704.94899014738917
  0
LINE
  8
_0-0_計極細
  6
DASHED2
 62
    2
 10
1226.3976690451427
 20
701.42323424911069
 11
1229.9234250429904
 21
704.94899024695837
  0
LINE
  8
_0-0_計極細
  6
CONTINUOUS
 62
    2
 10
1226.3976690451427
 20
700.15044204297499
 11
1224.196217276708
 21
697.94899027453994
  0
LINE
  8
_0-0_計極細
  6
CONTINUOUS
 62
    2
 10
1226.3976690451427
 20
702.69602645524628
 11
1221.6506328644366
 21
697.94899027453994
  0
LINE
  8
_0-0_計極細
  6
CONTINUOUS
 62
    2
 10
1221.3976690451429
 20
700.24161086751792
 11
1226.1050484521647
 21
704.94899027454028
  0
LINE
  8
_0-0_計極細
  6
CONTINUOUS
 62
    2
 10
1221.3976690451429
 20
702.78719527978956
 11
1223.5594640398933
 21
704.94899027453982
  0
LINE
  8
_0-0_計極細
  6
CONTINUOUS
 62
    2
 10
1226.3976690451427
 20
704.04339694883674
 11
1225.4920757194395
 21
704.94899027454028
  0
LINE
  8
_0-0_計極細
  6
CONTINUOUS
 62
    2
 10
1226.3976690451427
 20
701.49781253656499
 11
1222.9464913071679
 21
704.94899027454028
  0
LINE
  8
_0-0_計極細
  6
CONTINUOUS
 62
    2
 10
1226.3976690451427
 20
698.95222812429347
 11
1221.3976690451429
 21
703.9522281242937
  0
LINE
  8
_0-0_計極細
  6
CONTINUOUS
 62
    2
 10
1224.8553224826246
 20
697.94899027453994
 11
1221.3976690451429
 21
701.40664371202195
  0
LINE
  8
_0-0_計極細
  6
CONTINUOUS
 62
    2
 10
1222.3097380703532
 20
697.94899027453994
 11
1221.3976690451429
 21
698.86105929975042
  0
LINE
  8
_0-0_計極細
  6
CONTINUOUS
 62
    2
 10
1221.3976690451429
 20
704.44899027453994
 11
1221.3976690451429
 21
704.94899027454028
  0
LINE
  8
_0-0_計極細
  6
CONTINUOUS
 62
    2
 10
1221.3976690451429
 20
704.94899027454028
 11
1226.3976690451427
 21
704.94899027454028
  0
LINE
  8
_0-0_計極細
  6
CONTINUOUS
 62
    2
 10
1221.3976690451429
 20
697.94899027453994
 11
1279.9043173322118
 21
697.94899027453994
  0
LINE
  8
_0-0_計極細
  6
CONTINUOUS
 62
    2
 10
1226.3976690451427
 20
704.94899027454028
 11
1279.9043173322118
 21
704.94899027454028
  0
LINE
  8
_0-0_計極細
  6
CONTINUOUS
 62
    2
 10
1226.3976690451427
 20
704.94899027454028
 11
1226.3976690451427
 21
697.94899027453994
  0
CIRCLE
  8
_0-0_計極細
  6
CONTINUOUS
 62
    2
 10
1197.1578127232315
 20
630.36029578379566
 40
1.0953188836088352
  0
CIRCLE
  8
_0-0_計極細
  6
CONTINUOUS
 62
    2
 10
1195.3889238343427
 20
673.93362911712893
 40
1.0953188836088352
  0
CIRCLE
  8
_0-0_計極細
  6
CONTINUOUS
 62
    2
 10
1195.7722571676766
 20
634.36159208009201
 40
0.3318518518518431
  0
CIRCLE
  8
_0-0_計極細
  6
CONTINUOUS
 62
    2
 10
1194.9883065503927
 20
657.91492541342495
 40
0.3318518518518431
  0
LINE
  8
_0-0_計極細
  6
CONTINUOUS
 62
    2
 10
1191.3976690451427
 20
681.94899027453994
 11
1191.3976690451427
 21
621.20403009767256
  0
LINE
  8
_0-0_計極細
  6
CONTINUOUS
 62
    2
 10
1191.8976690451425
 20
681.94899027453994
 11
1191.3976690451427
 21
681.94899027453994
  0
CIRCLE
  8
_0-0_計極細
  6
CONTINUOUS
 62
    2
 10
1233.3944793898986
 20
696.66825874675806
 40
0.3318518518518431
  0
CIRCLE
  8
_0-0_計極細
  6
CONTINUOUS
 62
    2
 10
1246.1944793898983
 20
689.27696245046195
 40
1.0953188836088352
  0
CIRCLE
  8
_0-0_計極細
  6
CONTINUOUS
 62
    2
 10
1246.1144793898984
 20
693.06825874675826
 40
0.3318518518518431
  0
CIRCLE
  8
_0-0_計極細
  6
CONTINUOUS
 62
    2
 10
1264.594479389898
 20
696.10825874675811
 40
0.3318518518518431
  0
CIRCLE
  8
_0-0_計極細
  6
CONTINUOUS
 62
    2
 10
1199.9715164269362
 20
652.83970587290719
 40
0.3318518518518431
  0
CIRCLE
  8
_0-0_計極細
  6
CONTINUOUS
 62
    2
 10
1199.8515164269356
 20
667.21303920624041
 40
0.3318518518518431
  0
CIRCLE
  8
_0-0_計極細
  6
CONTINUOUS
 62
    2
 10
1228.3311460565651
 20
670.46696245046201
 40
1.0953188836088352
  0
CIRCLE
  8
_0-0_計極細
  6
CONTINUOUS
 62
    2
 10
1258.7302616377351
 20
638.43473101528059
 40
1.0953188836088352
  0
CIRCLE
  8
_0-0_計極細
  6
CONTINUOUS
 62
    2
 10
1230.971146056565
 20
644.54696245046239
 40
1.0953188836088352
  0
CIRCLE
  8
_0-0_計極細
  6
CONTINUOUS
 62
    2
 10
1209.8511460565651
 20
657.98696245046233
 40
1.0953188836088352
  0
CIRCLE
  8
_0-0_計極細
  6
CONTINUOUS
 62
    2
 10
1203.7178127232323
 20
640.06696245046237
 40
1.0953188836088352
  0
CIRCLE
  8
_0-0_計極細
  6
CONTINUOUS
 62
    2
 10
1245.9544793898979
 20
666.79696245046216
 40
1.0953188836088352
  0
CIRCLE
  8
_0-0_計極細
  6
CONTINUOUS
 62
    2
 10
1226.7544793898983
 20
685.99696245046198
 40
1.0953188836088352
  0
CIRCLE
  8
_0-0_計極細
  6
CONTINUOUS
 62
    2
 10
1260.0078127232314
 20
682.05029578379549
 40
1.0953188836088352
  0
CIRCLE
  8
_0-0_計極細
  6
CONTINUOUS
 62
    2
 10
1269.3944793898977
 20
691.33029578379524
 40
1.0953188836088352
  0
CIRCLE
  8
_0-0_計極細
  6
CONTINUOUS
 62
    2
 10
1272.2744793898978
 20
683.06825874675826
 40
0.3318518518518431
  0
CIRCLE
  8
_0-0_計極細
  6
CONTINUOUS
 62
    2
 10
1254.514479389898
 20
670.34825874675835
 40
0.3318518518518431
  0
CIRCLE
  8
_0-0_計極細
  6
CONTINUOUS
 62
    2
 10
1256.1944793898979
 20
686.42825874675827
 40
0.3318518518518431
  0
CIRCLE
  8
_0-0_計極細
  6
CONTINUOUS
 62
    2
 10
1246.1144793898984
 20
674.66825874675828
 40
0.3318518518518431
  0
CIRCLE
  8
_0-0_計極細
  6
CONTINUOUS
 62
    2
 10
1256.9144793898981
 20
661.94825874675826
 40
0.3318518518518431
  0
CIRCLE
  8
_0-0_計極細
  6
CONTINUOUS
 62
    2
 10
1257.8744793898979
 20
649.46825874675847
 40
0.3318518518518431
  0
CIRCLE
  8
_0-0_計極細
  6
CONTINUOUS
 62
    2
 10
1253.554479389898
 20
641.06825874675894
 40
0.3318518518518431
  0
CIRCLE
  8
_0-0_計極細
  6
CONTINUOUS
 62
    2
 10
1230.034479389898
 20
672.98825874675845
 40
0.3318518518518431
  0
CIRCLE
  8
_0-0_計極細
  6
CONTINUOUS
 62
    2
 10
1224.6744793898984
 20
681.81492541342482
 40
0.3318518518518431
  0
CIRCLE
  8
_0-0_計極細
  6
CONTINUOUS
 62
    2
 10
1226.1678127232317
 20
693.65492541342473
 40
0.3318518518518431
  0
CIRCLE
  8
_0-0_計極細
  6
CONTINUOUS
 62
    2
 10
1231.8611460565648
 20
649.24159208009189
 40
0.3318518518518431
  0
CIRCLE
  8
_0-0_計極細
  6
CONTINUOUS
 62
    2
 10
1225.141146056565
 20
645.88159208009188
 40
0.3318518518518431
  0
CIRCLE
  8
_0-0_計極細
  6
CONTINUOUS
 62
    2
 10
1232.3411460565651
 20
640.44159208009194
 40
0.3318518518518431
  0
CIRCLE
  8
_0-0_計極細
  6
CONTINUOUS
 62
    2
 10
1216.181146056565
 20
640.2815920800922
 40
0.3318518518518431
  0
CIRCLE
  8
_0-0_計極細
  6
CONTINUOUS
 62
    2
 10
1207.8611460565653
 20
643.16159208009196
 40
0.3318518518518431
  0
CIRCLE
  8
_0-0_計極細
  6
CONTINUOUS
 62
    2
 10
1200.9811460565656
 20
625.24159208009212
 40
0.3318518518518431
  0
CIRCLE
  8
_0-0_計極細
  6
CONTINUOUS
 62
    2
 10
1206.5811460565653
 20
635.96159208009203
 40
0.3318518518518431
  0
CIRCLE
  8
_0-0_計極細
  6
CONTINUOUS
 62
    2
 10
1217.2811460565654
 20
649.94159208009182
 40
0.3318518518518431
  0
CIRCLE
  8
_0-0_計極細
  6
CONTINUOUS
 62
    2
 10
1206.7611460565654
 20
660.15492541342519
 40
0.3318518518518431
  0
CIRCLE
  8
_0-0_計極細
  6
CONTINUOUS
 62
    2
 10
1209.2144793898985
 20
675.14159208009175
 40
0.3318518518518431
  0
CIRCLE
  8
_0-0_計極細
  6
CONTINUOUS
 62
    2
 10
1203.2411460565654
 20
672.26159208009165
 40
0.3318518518518431
  0
LINE
  8
_0-0_計極細
  6
CONTINUOUS
 62
    2
 10
1266.3716704938988
 20
621.20403009767256
 11
1279.9043173571358
 21
634.73667696091002
  0
LINE
  8
_0-0_計極細
  6
CONTINUOUS
 62
    2
 10
1223.9452636227061
 20
621.20403009767256
 11
1239.690223799573
 21
636.94899027454005
  0
LINE
  8
_0-0_計極細
  6
CONTINUOUS
 62
    2
 10
1261.3976690451427
 20
658.65643552010965
 11
1279.904317332665
 21
677.16308380763166
  0
LINE
  8
_0-0_計極細
  6
CONTINUOUS
 62
    2
 10
1262.1290298067793
 20
621.20403009767256
 11
1279.9043173546893
 21
638.97931764558211
  0
LINE
  8
_0-0_計極細
  6
CONTINUOUS
 62
    2
 10
1219.7026229355865
 20
621.20403009767256
 11
1235.4475831124541
 21
636.94899027454005
  0
LINE
  8
_0-0_計極細
  6
CONTINUOUS
 62
    2
 10
1261.3976690451427
 20
662.89907620722897
 11
1276.4475830047236
 21
677.94899016680972
  0
LINE
  8
_0-0_計極細
  6
CONTINUOUS
 62
    2
 10
1257.88638911966
 20
621.20403009767256
 11
1279.9043173522416
 21
643.22195833025432
  0
LINE
  8
_0-0_計極細
  6
CONTINUOUS
 62
    2
 10
1215.459982248467
 20
621.20403009767256
 11
1231.2049424253346
 21
636.94899027454005
  0
LINE
  8
_0-0_計極細
  6
CONTINUOUS
 62
    2
 10
1261.3976690451427
 20
667.14171689434829
 11
1272.2049423479743
 21
677.94899019717946
  0
LINE
  8
_0-0_計極細
  6
CONTINUOUS
 62
    2
 10
1211.3976690451429
 20
636.94899027454005
 11
1211.3976690451429
 21
621.20403009767256
  0
LINE
  8
_0-0_計極細
  6
CONTINUOUS
 62
    2
 10
1261.3976690451427
 20
677.94899027454017
 11
1279.9043173322118
 21
677.94899027454017
  0
LINE
  8
_0-0_計極細
  6
CONTINUOUS
 62
    2
 10
1211.3976690451429
 20
636.94899027454005
 11
1261.3976690451427
 21
636.94899027454005
  0
LINE
  8
_0-0_計極細
  6
CONTINUOUS
 62
    2
 10
1261.3976690451427
 20
677.94899027454017
 11
1261.3976690451427
 21
636.94899027454005
  0
CIRCLE
  8
_0-0_計極細
  6
CONTINUOUS
 62
    2
 10
993.5055905010114
 20
693.18362911712779
 40
1.0953188836088352
  0
LINE
  8
_0-0_計極細
  6
CONTINUOUS
 62
    2
 10
1001.0964772385643
 20
697.94899027086353
 11
1006.3976690451427
 21
703.25018207744188
  0
LINE
  8
_0-0_計極細
  6
CONTINUOUS
 62
    2
 10
988.36855516837988
 20
697.94899026203689
 11
995.36855518088316
 21
704.94899027453982
  0
LINE
  8
_0-0_計極細
  6
CONTINUOUS
 62
    2
 10
975.64063309819505
 20
697.94899025321001
 11
982.64063311952498
 21
704.94899027454028
  0
LINE
  8
_0-0_計極細
  6
CONTINUOUS
 62
    2
 10
962.91271102801022
 20
697.94899024438337
 11
969.91271105816725
 21
704.94899027454028
  0
LINE
  8
_0-0_計極細
  6
CONTINUOUS
 62
    2
 10
952.89102075807386
 20
700.6552220358044
 11
957.18478899680917
 21
704.94899027453982
  0
LINE
  8
_0-0_計極細
  6
DASHED2
 62
    2
 10
994.73251620347196
 20
697.94899026645021
 11
1001.7325162115617
 21
704.94899027454028
  0
LINE
  8
_0-0_計極細
  6
DASHED2
 62
    2
 10
982.00459413328747
 20
697.94899025762334
 11
989.00459415020407
 21
704.94899027454028
  0
LINE
  8
_0-0_計極細
  6
DASHED2
 62
    2
 10
969.27667206310275
 20
697.94899024879669
 11
976.27667208884588
 21
704.94899027454028
  0
LINE
  8
_0-0_計極細
  6
DASHED2
 62
    2
 10
956.54874999291815
 20
697.94899023997004
 11
963.54875002748815
 21
704.94899027454028
  0
LINE
  8
_0-0_計極細
  6
CONTINUOUS
 62
    2
 10
1011.2788148913269
 20
697.94899027453994
 11
1011.3976690451423
 21
698.06784442835567
  0
LINE
  8
_0-0_計極細
  6
CONTINUOUS
 62
    2
 10
1008.7332304790556
 20
697.94899027453994
 11
1011.3976690451427
 21
700.61342884062719
  0
LINE
  8
_0-0_計極細
  6
CONTINUOUS
 62
    2
 10
1006.3976690451427
 20
698.15901325289883
 11
1011.3976690451427
 21
703.1590132528986
  0
LINE
  8
_0-0_計極細
  6
CONTINUOUS
 62
    2
 10
1006.3976690451427
 20
700.70459766517035
 11
1010.6420616545122
 21
704.94899027454028
  0
LINE
  8
_0-0_計極細
  6
CONTINUOUS
 62
    2
 10
1006.3976690451427
 20
703.25018207744188
 11
1008.0964772422408
 21
704.94899027454028
  0
LINE
  8
_0-0_計極細
  6
CONTINUOUS
 62
    2
 10
1011.3976690451427
 20
703.58041015118476
 11
1010.0290889217877
 21
704.94899027454028
  0
LINE
  8
_0-0_計極細
  6
CONTINUOUS
 62
    2
 10
1011.3976690451427
 20
701.03482573891324
 11
1007.483504509516
 21
704.94899027454028
  0
LINE
  8
_0-0_計極細
  6
CONTINUOUS
 62
    2
 10
1006.3976690451427
 20
703.4892413266416
 11
1011.3976690451427
 21
698.48924132664183
  0
LINE
  8
_0-0_計極細
  6
CONTINUOUS
 62
    2
 10
1006.3976690451427
 20
700.94365691437019
 11
1009.3923356849729
 21
697.94899027453994
  0
LINE
  8
_0-0_計極細
  6
CONTINUOUS
 62
    2
 10
1006.3976690451427
 20
698.39807250209856
 11
1006.8467512727011
 21
697.94899027453994
  0
LINE
  8
_0-0_計極細
  6
CONTINUOUS
 62
    2
 10
1011.3976690451427
 20
704.44899027453994
 11
1011.3976690451427
 21
704.94899027454028
  0
LINE
  8
_0-0_計極細
  6
CONTINUOUS
 62
    2
 10
1011.3976690451427
 20
704.94899027454028
 11
1006.3976690451427
 21
704.94899027454028
  0
LINE
  8
_0-0_計極細
  6
CONTINUOUS
 62
    2
 10
1011.3976690451427
 20
697.94899027453994
 11
952.89102075807386
 21
697.94899027453994
  0
LINE
  8
_0-0_計極細
  6
CONTINUOUS
 62
    2
 10
1006.3976690451427
 20
704.94899027454028
 11
952.89102075807386
 21
704.94899027454028
  0
LINE
  8
_0-0_計極細
  6
CONTINUOUS
 62
    2
 10
1006.3976690451427
 20
704.94899027454028
 11
1006.3976690451427
 21
697.94899027453994
  0
CIRCLE
  8
_0-0_計極細
  6
CONTINUOUS
 62
    2
 10
1030.0478127232304
 20
660.89029578379598
 40
1.0953188836088352
  0
CIRCLE
  8
_0-0_計極細
  6
CONTINUOUS
 62
    2
 10
1037.4700349454554
 20
625.9373939046344
 40
0.3318518518518431
  0
CIRCLE
  8
_0-0_計極細
  6
CONTINUOUS
 62
    2
 10
1036.670034945455
 20
639.53103652453626
 40
0.3318518518518431
  0
CIRCLE
  8
_0-0_計極細
  6
CONTINUOUS
 62
    2
 10
1037.2652085565653
 20
672.35696245046245
 40
1.0953188836088352
  0
LINE
  8
_0-0_計極細
  6
CONTINUOUS
 62
    2
 10
1041.3976690451427
 20
681.94899027453994
 11
1041.3976690451427
 21
621.20403009767256
  0
LINE
  8
_0-0_計極細
  6
CONTINUOUS
 62
    2
 10
1040.8976690451427
 20
681.94899027453994
 11
1041.3976690451427
 21
681.94899027453994
  0
CIRCLE
  8
_0-0_計極細
  6
CONTINUOUS
 62
    2
 10
957.71229317772452
 20
690.97029578379522
 40
1.0953188836088352
  0
CIRCLE
  8
_0-0_計極細
  6
CONTINUOUS
 62
    2
 10
1030.381146056566
 20
628.75696245046277
 40
1.0953188836088352
  0
CIRCLE
  8
_0-0_計極細
  6
CONTINUOUS
 62
    2
 10
1027.5011460565661
 20
639.95696245046236
 40
1.0953188836088352
  0
CIRCLE
  8
_0-0_計極細
  6
CONTINUOUS
 62
    2
 10
1005.9144793898996
 20
642.11696245046244
 40
1.0953188836088352
  0
CIRCLE
  8
_0-0_計極細
  6
CONTINUOUS
 62
    2
 10
973.99447938989988
 20
649.79696245046239
 40
1.0953188836088352
  0
CIRCLE
  8
_0-0_計極細
  6
CONTINUOUS
 62
    2
 10
985.75447938989998
 20
672.59696245046212
 40
1.0953188836088352
  0
CIRCLE
  8
_0-0_計極細
  6
CONTINUOUS
 62
    2
 10
999.19447938990004
 20
666.51696245046219
 40
1.0953188836088352
  0
CIRCLE
  8
_0-0_計極細
  6
CONTINUOUS
 62
    2
 10
969.83054090237215
 20
690.43473101528082
 40
1.0953188836088352
  0
CIRCLE
  8
_0-0_計極細
  6
CONTINUOUS
 62
    2
 10
1000.8878127232333
 20
686.27696245046195
 40
1.0953188836088352
  0
CIRCLE
  8
_0-0_計極細
  6
CONTINUOUS
 62
    2
 10
1013.0611460565666
 20
673.08659208009158
 40
0.3318518518518431
  0
CIRCLE
  8
_0-0_計極細
  6
CONTINUOUS
 62
    2
 10
1034.207812723233
 20
655.24659208009189
 40
0.3318518518518431
  0
CIRCLE
  8
_0-0_計極細
  6
CONTINUOUS
 62
    2
 10
1033.8878127232329
 20
666.01992541342497
 40
0.3318518518518431
  0
CIRCLE
  8
_0-0_計極細
  6
CONTINUOUS
 62
    2
 10
1024.8211460565662
 20
671.99325874675833
 40
0.3318518518518431
  0
CIRCLE
  8
_0-0_計極細
  6
CONTINUOUS
 62
    2
 10
1015.9678127232332
 20
651.51325874675865
 40
0.3318518518518431
  0
CIRCLE
  8
_0-0_計極細
  6
CONTINUOUS
 62
    2
 10
1025.9678127232332
 20
625.34436985786988
 40
0.3318518518518431
  0
CIRCLE
  8
_0-0_計極細
  6
CONTINUOUS
 62
    2
 10
1030.1278127232331
 20
634.3043698578698
 40
0.3318518518518431
  0
CIRCLE
  8
_0-0_計極細
  6
CONTINUOUS
 62
    2
 10
1021.9144793898998
 20
643.26436985786972
 40
0.3318518518518431
  0
CIRCLE
  8
_0-0_計極細
  6
CONTINUOUS
 62
    2
 10
1014.1278127232331
 20
641.34436985786965
 40
0.3318518518518431
  0
CIRCLE
  8
_0-0_計極細
  6
CONTINUOUS
 62
    2
 10
1002.1811460565664
 20
640.70436985786978
 40
0.3318518518518431
  0
CIRCLE
  8
_0-0_計極細
  6
CONTINUOUS
 62
    2
 10
1004.3144793899
 20
646.2510365245364
 40
0.3318518518518431
  0
CIRCLE
  8
_0-0_計極細
  6
CONTINUOUS
 62
    2
 10
1000.5811460565666
 20
647.74436985786951
 40
0.3318518518518431
  0
CIRCLE
  8
_0-0_計極細
  6
CONTINUOUS
 62
    2
 10
1007.3011460565665
 20
651.05103652453636
 40
0.3318518518518431
  0
CIRCLE
  8
_0-0_計極細
  6
CONTINUOUS
 62
    2
 10
983.72114605656691
 20
640.31770319120301
 40
0.3318518518518431
  0
CIRCLE
  8
_0-0_計極細
  6
CONTINUOUS
 62
    2
 10
979.98781272323322
 20
645.43770319120301
 40
0.3318518518518431
  0
CIRCLE
  8
_0-0_計極細
  6
CONTINUOUS
 62
    2
 10
974.76114605656676
 20
641.38436985786961
 40
0.3318518518518431
  0
CIRCLE
  8
_0-0_計極細
  6
CONTINUOUS
 62
    2
 10
978.17447938989994
 20
652.15770319120281
 40
0.3318518518518431
  0
CIRCLE
  8
_0-0_計極細
  6
CONTINUOUS
 62
    2
 10
1002.8411460565666
 20
668.42436985786935
 40
0.3318518518518431
  0
CIRCLE
  8
_0-0_計極細
  6
CONTINUOUS
 62
    2
 10
986.41447938989995
 20
664.05103652453613
 40
0.3318518518518431
  0
CIRCLE
  8
_0-0_計極細
  6
CONTINUOUS
 62
    2
 10
995.26781272323308
 20
672.1577031912027
 40
0.3318518518518431
  0
CIRCLE
  8
_0-0_計極細
  6
CONTINUOUS
 62
    2
 10
1002.8411460565666
 20
675.57103652453588
 40
0.3318518518518431
  0
CIRCLE
  8
_0-0_計極細
  6
CONTINUOUS
 62
    2
 10
987.80114605656649
 20
677.81103652453612
 40
0.3318518518518431
  0
CIRCLE
  8
_0-0_計極細
  6
CONTINUOUS
 62
    2
 10
975.5344793899003
 20
678.55770319120256
 40
0.3318518518518431
  0
CIRCLE
  8
_0-0_計極細
  6
CONTINUOUS
 62
    2
 10
984.80781272323338
 20
694.85770319120252
 40
0.3318518518518431
  0
CIRCLE
  8
_0-0_計極細
  6
CONTINUOUS
 62
    2
 10
991.84781272323335
 20
685.89770319120271
 40
0.3318518518518431
  0
CIRCLE
  8
_0-0_計極細
  6
CONTINUOUS
 62
    2
 10
1006.7811460565663
 20
686.21770319120276
 40
0.3318518518518431
  0
CIRCLE
  8
_0-0_計極細
  6
CONTINUOUS
 62
    2
 10
1003.3678127232332
 20
695.92436985786912
 40
0.3318518518518431
  0
CIRCLE
  8
_0-0_計極細
  6
CONTINUOUS
 62
    2
 10
988.43447938989993
 20
689.95103652453611
 40
0.3318518518518431
  0
CIRCLE
  8
_0-0_計極細
  6
CONTINUOUS
 62
    2
 10
971.36781272323356
 20
682.91103652453603
 40
0.3318518518518431
  0
CIRCLE
  8
_0-0_計極細
  6
CONTINUOUS
 62
    2
 10
963.79447938990006
 20
681.73770319120263
 40
0.3318518518518431
  0
CIRCLE
  8
_0-0_計極細
  6
CONTINUOUS
 62
    2
 10
957.43003494545587
 20
681.09770319120275
 40
0.3318518518518431
  0
CIRCLE
  8
_0-0_計極細
  6
CONTINUOUS
 62
    2
 10
963.62855346397419
 20
687.071036524536
 40
0.3318518518518431
  0
LINE
  8
_0-0_計極細
  6
CONTINUOUS
 62
    2
 10
998.94448430614887
 20
621.2040301675346
 11
1014.6894444131544
 21
636.94899027454005
  0
LINE
  8
_0-0_計極細
  6
CONTINUOUS
 62
    2
 10
956.51807756696394
 20
621.20403029954264
 11
972.26303754196124
 21
636.94899027454005
  0
LINE
  8
_0-0_計極細
  6
CONTINUOUS
 62
    2
 10
952.89102075807386
 20
660.0033803618453
 11
970.8366306707685
 21
677.94899027454017
  0
LINE
  8
_0-0_計極細
  6
CONTINUOUS
 62
    2
 10
994.70184363223007
 20
621.20403018073534
 11
1010.4468037260349
 21
636.94899027454005
  0
LINE
  8
_0-0_計極細
  6
CONTINUOUS
 62
    2
 10
952.89102075807386
 20
621.81961417777177
 11
971.39766904514261
 21
640.32626246484074
  0
LINE
  8
_0-0_計極細
  6
CONTINUOUS
 62
    2
 10
952.89102075807386
 20
664.24602104896462
 11
966.59398998364907
 21
677.94899027454017
  0
LINE
  8
_0-0_計極細
  6
CONTINUOUS
 62
    2
 10
990.45920295831195
 20
621.20403019393621
 11
1006.2041630389159
 21
636.94899027454005
  0
LINE
  8
_0-0_計極細
  6
CONTINUOUS
 62
    2
 10
952.89102075807386
 20
626.06225486489097
 11
971.39766904514261
 21
644.56890315195994
  0
LINE
  8
_0-0_計極細
  6
CONTINUOUS
 62
    2
 10
952.89102075807386
 20
668.48866173608394
 11
962.35134929652986
 21
677.94899027454017
  0
LINE
  8
_0-0_計極細
  6
CONTINUOUS
 62
    2
 10
1021.3976690451427
 20
636.94899027454005
 11
1021.3976690451427
 21
621.20403009767256
  0
LINE
  8
_0-0_計極細
  6
CONTINUOUS
 62
    2
 10
971.39766904514261
 20
677.94899027454017
 11
952.89102075807386
 21
677.94899027454017
  0
LINE
  8
_0-0_計極細
  6
CONTINUOUS
 62
    2
 10
1021.3976690451427
 20
636.94899027454005
 11
971.39766904514261
 21
636.94899027454005
  0
LINE
  8
_0-0_計極細
  6
CONTINUOUS
 62
    2
 10
971.39766904514261
 20
677.94899027454017
 11
971.39766904514261
 21
636.94899027454005
  0
LINE
  8
_0-0_計極細
  6
CENTER1
 62
    2
 10
1116.3976690451429
 20
675.2374925832703
 11
1116.3976690451429
 21
713.30749258327387
  0
LINE
  8
_0-1_計細線
  6
CONTINUOUS
 62
    3
 10
1109.5976690452962
 20
687.24877127353295
 11
1114.0476690451428
 21
687.24877127353295
  0
LINE
  8
_0-1_計細線
  6
CONTINUOUS
 62
    3
 10
1118.7476690451431
 20
687.24877127353295
 11
1123.1976690456945
 21
687.24877127353295
  0
LINE
  8
_0-1_計細線
  6
CONTINUOUS
 62
    3
 10
1109.5976690462612
 20
700.24877127353295
 11
1114.0476690451428
 21
700.24877127353295
  0
LINE
  8
_0-1_計細線
  6
CONTINUOUS
 62
    3
 10
1118.7476690451431
 20
700.24877127353295
 11
1123.1976690456947
 21
700.24877127353295
  0
LINE
  8
_0-1_計細線
  6
CONTINUOUS
 62
    3
 10
1118.7476690451431
 20
705.14901253334028
 11
1118.7476690451431
 21
685.14901253333983
  0
LINE
  8
_0-1_計細線
  6
CONTINUOUS
 62
    3
 10
1114.0476690451428
 20
685.14901253333983
 11
1114.0476690451428
 21
705.14901253334028
  0
LINE
  8
_0-1_計細線
  6
CONTINUOUS
 62
    3
 10
1118.7476690451431
 20
685.14901253333983
 11
1114.0476690451428
 21
685.14901253333983
  0
LINE
  8
_0-1_計細線
  6
CONTINUOUS
 62
    3
 10
1114.0476690451428
 20
705.14901253334028
 11
1118.7476690451431
 21
705.14901253334028
  0
LINE
  8
_0-1_計細線
  6
DASHED2
 62
    3
 10
1114.0476690451428
 20
688.14901253333983
 11
1118.7476690451431
 21
688.14901253333983
  0
LINE
  8
_0-1_計細線
  6
DASHED2
 62
    3
 10
1114.0476690451428
 20
702.14901253334028
 11
1118.7476690451431
 21
702.14901253334028
  0
ARC
  8
_0-1_計細線
  6
CONTINUOUS
 62
    3
 10
1103.1976690462463
 20
702.948771273533
 40
1
 50
89.999999999999915
 51
179.99999999999983
  0
ARC
  8
_0-1_計細線
  6
CONTINUOUS
 62
    3
 10
1103.6656182375741
 20
704.94877127353323
 40
1
 50
269.99999999999977
 51
329.99999999999022
  0
ARC
  8
_0-1_計細線
  6
CONTINUOUS
 62
    3
 10
1105.3976690451427
 20
703.94877127353311
 40
1
 50
89.999999999999915
 51
150.00000000000185
  0
LINE
  8
_0-1_計細線
  6
CONTINUOUS
 62
    3
 10
1103.1976690462463
 20
703.94877127353311
 11
1103.6656182375741
 21
703.94877127353311
  0
ARC
  8
_0-1_計細線
  6
CONTINUOUS
 62
    3
 10
1112.5976690440393
 20
702.948771273533
 40
1
 50
0
 51
89.999999999999915
  0
ARC
  8
_0-1_計細線
  6
CONTINUOUS
 62
    3
 10
1112.1297198527118
 20
704.94877127353323
 40
1
 50
210.00000000000256
 51
269.99999999999977
  0
ARC
  8
_0-1_計細線
  6
CONTINUOUS
 62
    3
 10
1110.3976690451429
 20
703.94877127353311
 40
1
 50
29.99999999999816
 51
89.999999999999915
  0
LINE
  8
_0-1_計細線
  6
CONTINUOUS
 62
    3
 10
1112.5976690440393
 20
703.94877127353311
 11
1112.1297198527118
 21
703.94877127353311
  0
ARC
  8
_0-1_計細線
  6
CONTINUOUS
 62
    3
 10
1102.6976690462466
 20
701.54877127353325
 40
0.5
 50
179.99999999999983
 51
269.99999999999977
  0
LINE
  8
_0-1_計細線
  6
CONTINUOUS
 62
    3
 10
1102.1976690462466
 20
702.948771273533
 11
1102.1976690462466
 21
701.54877127353325
  0
ARC
  8
_0-1_計細線
  6
CONTINUOUS
 62
    3
 10
1113.0976690440395
 20
701.54877127353325
 40
0.5
 50
269.99999999999977
 51
359.99999999999966
  0
LINE
  8
_0-1_計細線
  6
CONTINUOUS
 62
    3
 10
1113.5976690440393
 20
702.948771273533
 11
1113.5976690440393
 21
701.54877127353325
  0
ARC
  8
_0-1_計細線
  6
CONTINUOUS
 62
    3
 10
1105.1976690462466
 20
700.04877127353325
 40
1
 50
0
 51
89.999999999999915
  0
LINE
  8
_0-1_計細線
  6
CONTINUOUS
 62
    3
 10
1105.1976690462466
 20
701.04877127353302
 11
1102.6976690462466
 21
701.04877127353302
  0
ARC
  8
_0-1_計細線
  6
CONTINUOUS
 62
    3
 10
1110.5976690462464
 20
700.04877127353325
 40
1
 50
89.999999999999915
 51
179.99999999999983
  0
LINE
  8
_0-1_計細線
  6
CONTINUOUS
 62
    3
 10
1110.5976690440391
 20
701.04877127353302
 11
1113.0976690440395
 21
701.04877127353302
  0
LINE
  8
_0-1_計細線
  6
CONTINUOUS
 62
    3
 10
1110.3976690451429
 20
704.94877127353323
 11
1105.3976690451427
 21
704.94877127353323
  0
LINE
  8
_0-1_計細線
  6
CONTINUOUS
 62
    3
 10
1106.1976690451429
 20
684.94877127353311
 11
1106.1976690462463
 21
700.04877127353325
  0
LINE
  8
_0-1_計細線
  6
CONTINUOUS
 62
    3
 10
1109.597669045143
 20
684.94877127353311
 11
1109.5976690462467
 21
700.04877127353325
  0
LINE
  8
_0-1_計細線
  6
CONTINUOUS
 62
    3
 10
1109.597669045143
 20
684.94877127353311
 11
1106.1976690451429
 21
684.94877127353311
  0
LINE
  8
_0-1_計細線
  6
CONTINUOUS
 62
    3
 10
1213.8944170471423
 20
693.74877127353284
 11
1216.8989330471425
 21
693.74877127353284
  0
LINE
  8
_0-1_計細線
  6
CONTINUOUS
 62
    3
 10
1213.8944170471423
 20
690.24877127353329
 11
1216.8989450471418
 21
690.24877127353329
  0
ARC
  8
_0-1_計細線
  6
CONTINUOUS
 62
    3
 10
1216.8989450471418
 20
690.44877127353311
 40
0.2000000000000001
 50
269.99999999999977
 51
359.99999999999966
  0
ARC
  8
_0-1_計細線
  6
CONTINUOUS
 62
    3
 10
1209.3409650471422
 20
691.99862527353343
 40
7.7579560000000001
 50
346.96432999999968
 51
13.038021999994573
  0
ARC
  8
_0-1_計細線
  6
CONTINUOUS
 62
    3
 10
1216.8989450471418
 20
697.04877127353359
 40
0.2000000000000001
 50
0
 51
89.999999999999915
  0
ARC
  8
_0-1_計細線
  6
CONTINUOUS
 62
    3
 10
1209.3409650471422
 20
695.49891527353293
 40
7.7579560000000001
 50
346.96197800000141
 51
13.035669999999625
  0
LINE
  8
_0-1_計細線
  6
CONTINUOUS
 62
    3
 10
1213.8944170471423
 20
697.24877127353341
 11
1216.8989450471418
 21
697.24877127353341
  0
LINE
  8
_0-1_計細線
  6
CONTINUOUS
 62
    3
 10
1217.098945047142
 20
690.44877127353311
 11
1217.098945047142
 21
697.04877127353359
  0
ARC
  8
_0-1_計細線
  6
CONTINUOUS
 62
    3
 10
1213.694417047142
 20
687.44877127353323
 40
0.2000000000000001
 50
269.99999999999977
 51
359.99999999999966
  0
LINE
  8
_0-1_計細線
  6
CONTINUOUS
 62
    3
 10
1212.3976690471418
 20
687.24877127353307
 11
1213.694417047142
 21
687.24877127353307
  0
ARC
  8
_0-1_計細線
  6
CONTINUOUS
 62
    3
 10
1213.694417047142
 20
700.04877127353302
 40
0.2000000000000001
 50
0
 51
89.999999999999915
  0
LINE
  8
_0-1_計細線
  6
CONTINUOUS
 62
    3
 10
1212.3976690471418
 20
700.24877127353329
 11
1213.694417047142
 21
700.24877127353329
  0
LINE
  8
_0-1_計細線
  6
CONTINUOUS
 62
    3
 10
1213.8944170471423
 20
693.24877127353307
 11
1213.8944170471423
 21
687.44877127353323
  0
LINE
  8
_0-1_計細線
  6
CONTINUOUS
 62
    3
 10
1213.8944170471423
 20
700.04877127353302
 11
1213.8944170471423
 21
693.24877127353307
  0
LINE
  8
_0-1_計細線
  6
CONTINUOUS
 62
    3
 10
1018.9009210431436
 20
693.74877127353284
 11
1015.8964050431434
 21
693.74877127353284
  0
LINE
  8
_0-1_計細線
  6
CONTINUOUS
 62
    3
 10
1018.9009210431436
 20
690.24877127353329
 11
1015.8963930431441
 21
690.24877127353329
  0
ARC
  8
_0-1_計細線
  6
CONTINUOUS
 62
    3
 10
1015.8963930431441
 20
690.44877127353311
 40
0.2000000000000001
 50
179.99999999999983
 51
269.99999999999977
  0
ARC
  8
_0-1_計細線
  6
CONTINUOUS
 62
    3
 10
1023.4543730431437
 20
691.99862527353343
 40
7.7579560000000001
 50
166.96197800000505
 51
193.03566999999961
  0
ARC
  8
_0-1_計細線
  6
CONTINUOUS
 62
    3
 10
1015.8963930431441
 20
697.04877127353359
 40
0.2000000000000001
 50
89.999999999999915
 51
179.99999999999983
  0
ARC
  8
_0-1_計細線
  6
CONTINUOUS
 62
    3
 10
1023.4543730431437
 20
695.49891527353293
 40
7.7579560000000001
 50
166.96433000000002
 51
193.03802199999785
  0
LINE
  8
_0-1_計細線
  6
CONTINUOUS
 62
    3
 10
1018.9009210431436
 20
697.24877127353341
 11
1015.8963930431441
 21
697.24877127353341
  0
LINE
  8
_0-1_計細線
  6
CONTINUOUS
 62
    3
 10
1015.6963930431436
 20
690.44877127353311
 11
1015.6963930431436
 21
697.04877127353359
  0
ARC
  8
_0-1_計細線
  6
CONTINUOUS
 62
    3
 10
1019.100921043144
 20
687.44877127353323
 40
0.2000000000000001
 50
179.99999999999983
 51
269.99999999999977
  0
LINE
  8
_0-1_計細線
  6
CONTINUOUS
 62
    3
 10
1020.3976690431442
 20
687.24877127353307
 11
1019.100921043144
 21
687.24877127353307
  0
ARC
  8
_0-1_計細線
  6
CONTINUOUS
 62
    3
 10
1019.100921043144
 20
700.04877127353302
 40
0.2000000000000001
 50
89.999999999999915
 51
179.99999999999983
  0
LINE
  8
_0-1_計細線
  6
CONTINUOUS
 62
    3
 10
1020.3976690431442
 20
700.24877127353329
 11
1019.100921043144
 21
700.24877127353329
  0
LINE
  8
_0-1_計細線
  6
CONTINUOUS
 62
    3
 10
1018.9009210431436
 20
693.24877127353307
 11
1018.9009210431436
 21
687.44877127353323
  0
LINE
  8
_0-1_計細線
  6
CONTINUOUS
 62
    3
 10
1018.9009210431436
 20
700.04877127353302
 11
1018.9009210431436
 21
693.24877127353307
  0
LINE
  8
_0-1_計細線
  6
CONTINUOUS
 62
    3
 10
1194.9976690471235
 20
700.24877127353295
 11
1208.9976690471235
 21
700.24877127353295
  0
LINE
  8
_0-1_計細線
  6
CONTINUOUS
 62
    3
 10
1177.5976690469515
 20
700.24877127353295
 11
1191.5976690469518
 21
700.24877127353295
  0
LINE
  8
_0-1_計細線
  6
CONTINUOUS
 62
    3
 10
1023.7976690442476
 20
700.24877127353295
 11
1037.7976690446094
 21
700.24877127353295
  0
LINE
  8
_0-1_計細線
  6
CONTINUOUS
 62
    3
 10
1041.197669044609
 20
700.24877127353295
 11
1055.1976690446095
 21
700.24877127353295
  0
LINE
  8
_0-1_計細線
  6
CONTINUOUS
 62
    3
 10
1160.5976690465898
 20
700.24877127353295
 11
1174.1976690465899
 21
700.24877127353295
  0
LINE
  8
_0-1_計細線
  6
CONTINUOUS
 62
    3
 10
1058.5976690446091
 20
700.24877127353295
 11
1072.1976690446095
 21
700.24877127353295
  0
LINE
  8
_0-1_計細線
  6
CONTINUOUS
 62
    3
 10
1075.5976690449713
 20
700.24877127353295
 11
1089.1976690449712
 21
700.24877127353295
  0
LINE
  8
_0-1_計細線
  6
CONTINUOUS
 62
    3
 10
1092.5976690453331
 20
700.24877127353295
 11
1106.197669045333
 21
700.24877127353295
  0
LINE
  8
_0-1_計細線
  6
CONTINUOUS
 62
    3
 10
1126.5976690460566
 20
700.24877127353295
 11
1140.1976690460565
 21
700.24877127353295
  0
LINE
  8
_0-1_計細線
  6
CONTINUOUS
 62
    3
 10
1143.5976690464186
 20
700.24877127353295
 11
1157.1976690464182
 21
700.24877127353295
  0
LINE
  8
_0-1_計細線
  6
CONTINUOUS
 62
    3
 10
1194.9976690471235
 20
687.24877127353295
 11
1208.997669047124
 21
687.24877127353295
  0
LINE
  8
_0-1_計細線
  6
CONTINUOUS
 62
    3
 10
1177.5976690469515
 20
687.24877127353295
 11
1191.597669046952
 21
687.24877127353295
  0
LINE
  8
_0-1_計細線
  6
CONTINUOUS
 62
    3
 10
1023.7976690442474
 20
687.24877127353295
 11
1037.7976690446094
 21
687.24877127353295
  0
LINE
  8
_0-1_計細線
  6
CONTINUOUS
 62
    3
 10
1041.197669044609
 20
687.24877127353295
 11
1055.197669044609
 21
687.24877127353295
  0
LINE
  8
_0-1_計細線
  6
CONTINUOUS
 62
    3
 10
1160.59766904659
 20
687.24877127353295
 11
1174.1976690465901
 21
687.24877127353295
  0
LINE
  8
_0-1_計細線
  6
CONTINUOUS
 62
    3
 10
1058.5976690446091
 20
687.24877127353295
 11
1072.1976690446093
 21
687.24877127353295
  0
LINE
  8
_0-1_計細線
  6
CONTINUOUS
 62
    3
 10
1075.5976690449711
 20
687.24877127353295
 11
1089.197669044971
 21
687.24877127353295
  0
LINE
  8
_0-1_計細線
  6
CONTINUOUS
 62
    3
 10
1092.5976690453329
 20
687.24877127353295
 11
1106.1976690453328
 21
687.24877127353295
  0
LINE
  8
_0-1_計細線
  6
CONTINUOUS
 62
    3
 10
1126.5976690460566
 20
687.24877127353295
 11
1140.1976690460563
 21
687.24877127353295
  0
LINE
  8
_0-1_計細線
  6
CONTINUOUS
 62
    3
 10
1143.5976690464181
 20
687.24877127353295
 11
1157.1976690464185
 21
687.24877127353295
  0
ARC
  8
_0-1_計細線
  6
CONTINUOUS
 62
    3
 10
1205.9976690476933
 20
702.948771273533
 40
1
 50
89.999999999999915
 51
179.99999999999983
  0
ARC
  8
_0-1_計細線
  6
CONTINUOUS
 62
    3
 10
1206.4656182390208
 20
704.94877127353323
 40
1
 50
269.99999999999977
 51
329.9999999999967
  0
ARC
  8
_0-1_計細線
  6
CONTINUOUS
 62
    3
 10
1208.1976690465899
 20
703.94877127353311
 40
1
 50
89.999999999999915
 51
150.00000000000836
  0
LINE
  8
_0-1_計細線
  6
CONTINUOUS
 62
    3
 10
1205.9976690476933
 20
703.94877127353311
 11
1206.4656182390208
 21
703.94877127353311
  0
ARC
  8
_0-1_計細線
  6
CONTINUOUS
 62
    3
 10
1215.3976690454861
 20
702.948771273533
 40
1
 50
0
 51
89.999999999999915
  0
ARC
  8
_0-1_計細線
  6
CONTINUOUS
 62
    3
 10
1214.929719854159
 20
704.94877127353323
 40
1
 50
209.99999999998954
 51
269.99999999999977
  0
ARC
  8
_0-1_計細線
  6
CONTINUOUS
 62
    3
 10
1213.1976690465899
 20
703.94877127353311
 40
1
 50
30.000000000004672
 51
89.999999999999915
  0
LINE
  8
_0-1_計細線
  6
CONTINUOUS
 62
    3
 10
1215.3976690454861
 20
703.94877127353311
 11
1214.929719854159
 21
703.94877127353311
  0
ARC
  8
_0-1_計細線
  6
CONTINUOUS
 62
    3
 10
1205.4976690476935
 20
701.54877127353325
 40
0.5
 50
179.99999999999983
 51
269.99999999999977
  0
LINE
  8
_0-1_計細線
  6
CONTINUOUS
 62
    3
 10
1204.9976690476933
 20
702.948771273533
 11
1204.9976690476933
 21
701.54877127353325
  0
ARC
  8
_0-1_計細線
  6
CONTINUOUS
 62
    3
 10
1215.8976690454865
 20
701.54877127353325
 40
0.5
 50
269.99999999999977
 51
359.99999999999966
  0
LINE
  8
_0-1_計細線
  6
CONTINUOUS
 62
    3
 10
1216.3976690454865
 20
702.948771273533
 11
1216.3976690454865
 21
701.54877127353325
  0
ARC
  8
_0-1_計細線
  6
CONTINUOUS
 62
    3
 10
1207.9976690476933
 20
700.04877127353325
 40
1
 50
0
 51
89.999999999999915
  0
LINE
  8
_0-1_計細線
  6
CONTINUOUS
 62
    3
 10
1207.9976690476933
 20
701.04877127353302
 11
1205.4976690476935
 21
701.04877127353302
  0
ARC
  8
_0-1_計細線
  6
CONTINUOUS
 62
    3
 10
1213.3976690476934
 20
700.04877127353325
 40
1
 50
89.999999999999915
 51
179.99999999999983
  0
LINE
  8
_0-1_計細線
  6
CONTINUOUS
 62
    3
 10
1213.3976690454861
 20
701.04877127353302
 11
1215.8976690454865
 21
701.04877127353302
  0
LINE
  8
_0-1_計細線
  6
CONTINUOUS
 62
    3
 10
1213.1976690465899
 20
704.94877127353323
 11
1208.1976690465899
 21
704.94877127353323
  0
LINE
  8
_0-1_計細線
  6
CONTINUOUS
 62
    3
 10
1208.9976690465901
 20
684.94877127353311
 11
1208.9976690476933
 21
700.04877127353325
  0
LINE
  8
_0-1_計細線
  6
CONTINUOUS
 62
    3
 10
1212.3976690465897
 20
684.94877127353311
 11
1212.3976690476934
 21
700.04877127353325
  0
LINE
  8
_0-1_計細線
  6
CONTINUOUS
 62
    3
 10
1212.3976690465897
 20
684.94877127353311
 11
1208.9976690465901
 21
684.94877127353311
  0
ARC
  8
_0-1_計細線
  6
CONTINUOUS
 62
    3
 10
1188.5976690478651
 20
702.948771273533
 40
1
 50
89.999999999999915
 51
179.99999999999983
  0
ARC
  8
_0-1_計細線
  6
CONTINUOUS
 62
    3
 10
1189.0656182391929
 20
704.94877127353323
 40
1
 50
269.99999999999977
 51
329.99999999999022
  0
ARC
  8
_0-1_計細線
  6
CONTINUOUS
 62
    3
 10
1190.7976690467615
 20
703.94877127353311
 40
1
 50
89.999999999999915
 51
150.00000000000185
  0
LINE
  8
_0-1_計細線
  6
CONTINUOUS
 62
    3
 10
1188.5976690478651
 20
703.94877127353311
 11
1189.0656182391929
 21
703.94877127353311
  0
ARC
  8
_0-1_計細線
  6
CONTINUOUS
 62
    3
 10
1197.9976690456581
 20
702.948771273533
 40
1
 50
0
 51
89.999999999999915
  0
ARC
  8
_0-1_計細線
  6
CONTINUOUS
 62
    3
 10
1197.5297198543303
 20
704.94877127353323
 40
1
 50
210.00000000000907
 51
269.99999999999977
  0
ARC
  8
_0-1_計細線
  6
CONTINUOUS
 62
    3
 10
1195.7976690467617
 20
703.94877127353311
 40
1
 50
29.99999999999816
 51
89.999999999999915
  0
LINE
  8
_0-1_計細線
  6
CONTINUOUS
 62
    3
 10
1197.9976690456581
 20
703.94877127353311
 11
1197.5297198543303
 21
703.94877127353311
  0
ARC
  8
_0-1_計細線
  6
CONTINUOUS
 62
    3
 10
1188.0976690478651
 20
701.54877127353325
 40
0.5
 50
179.99999999999983
 51
269.99999999999977
  0
LINE
  8
_0-1_計細線
  6
CONTINUOUS
 62
    3
 10
1187.5976690478656
 20
702.948771273533
 11
1187.5976690478656
 21
701.54877127353325
  0
ARC
  8
_0-1_計細線
  6
CONTINUOUS
 62
    3
 10
1198.4976690456583
 20
701.54877127353325
 40
0.5
 50
269.99999999999977
 51
359.99999999999966
  0
LINE
  8
_0-1_計細線
  6
CONTINUOUS
 62
    3
 10
1198.9976690456579
 20
702.948771273533
 11
1198.9976690456579
 21
701.54877127353325
  0
ARC
  8
_0-1_計細線
  6
CONTINUOUS
 62
    3
 10
1190.5976690478653
 20
700.04877127353325
 40
1
 50
0
 51
89.999999999999915
  0
LINE
  8
_0-1_計細線
  6
CONTINUOUS
 62
    3
 10
1190.5976690478653
 20
701.04877127353302
 11
1188.0976690478651
 21
701.04877127353302
  0
ARC
  8
_0-1_計細線
  6
CONTINUOUS
 62
    3
 10
1195.9976690478652
 20
700.04877127353325
 40
1
 50
89.999999999999915
 51
179.99999999999983
  0
LINE
  8
_0-1_計細線
  6
CONTINUOUS
 62
    3
 10
1195.9976690456579
 20
701.04877127353302
 11
1198.4976690456583
 21
701.04877127353302
  0
LINE
  8
_0-1_計細線
  6
CONTINUOUS
 62
    3
 10
1195.7976690467617
 20
704.94877127353323
 11
1190.7976690467615
 21
704.94877127353323
  0
LINE
  8
_0-1_計細線
  6
CONTINUOUS
 62
    3
 10
1191.5976690467614
 20
684.94877127353311
 11
1191.5976690478651
 21
700.04877127353325
  0
LINE
  8
_0-1_計細線
  6
CONTINUOUS
 62
    3
 10
1194.9976690467618
 20
684.94877127353311
 11
1194.9976690478657
 21
700.04877127353325
  0
LINE
  8
_0-1_計細線
  6
CONTINUOUS
 62
    3
 10
1194.9976690467618
 20
684.94877127353311
 11
1191.5976690467614
 21
684.94877127353311
  0
ARC
  8
_0-1_計細線
  6
CONTINUOUS
 62
    3
 10
1017.3976690447995
 20
702.948771273533
 40
1
 50
89.999999999999915
 51
179.99999999999983
  0
ARC
  8
_0-1_計細線
  6
CONTINUOUS
 62
    3
 10
1017.865618236127
 20
704.94877127353323
 40
1
 50
269.99999999999977
 51
329.99999999999022
  0
ARC
  8
_0-1_計細線
  6
CONTINUOUS
 62
    3
 10
1019.5976690436955
 20
703.94877127353311
 40
1
 50
89.999999999999915
 51
150.00000000000185
  0
LINE
  8
_0-1_計細線
  6
CONTINUOUS
 62
    3
 10
1017.3976690447995
 20
703.94877127353311
 11
1017.865618236127
 21
703.94877127353311
  0
ARC
  8
_0-1_計細線
  6
CONTINUOUS
 62
    3
 10
1026.7976690425921
 20
702.948771273533
 40
1
 50
0
 51
89.999999999999915
  0
ARC
  8
_0-1_計細線
  6
CONTINUOUS
 62
    3
 10
1026.3297198512646
 20
704.94877127353323
 40
1
 50
210.00000000000256
 51
269.99999999999977
  0
ARC
  8
_0-1_計細線
  6
CONTINUOUS
 62
    3
 10
1024.597669043696
 20
703.94877127353311
 40
1
 50
29.99999999999816
 51
89.999999999999915
  0
LINE
  8
_0-1_計細線
  6
CONTINUOUS
 62
    3
 10
1026.7976690425921
 20
703.94877127353311
 11
1026.3297198512646
 21
703.94877127353311
  0
ARC
  8
_0-1_計細線
  6
CONTINUOUS
 62
    3
 10
1016.8976690447994
 20
701.54877127353325
 40
0.5
 50
179.99999999999983
 51
269.99999999999977
  0
LINE
  8
_0-1_計細線
  6
CONTINUOUS
 62
    3
 10
1016.3976690447994
 20
702.948771273533
 11
1016.3976690447994
 21
701.54877127353325
  0
ARC
  8
_0-1_計細線
  6
CONTINUOUS
 62
    3
 10
1027.2976690425924
 20
701.54877127353325
 40
0.5
 50
269.99999999999977
 51
359.99999999999966
  0
LINE
  8
_0-1_計細線
  6
CONTINUOUS
 62
    3
 10
1027.7976690425921
 20
702.948771273533
 11
1027.7976690425921
 21
701.54877127353325
  0
ARC
  8
_0-1_計細線
  6
CONTINUOUS
 62
    3
 10
1019.3976690447994
 20
700.04877127353325
 40
1
 50
0
 51
89.999999999999915
  0
LINE
  8
_0-1_計細線
  6
CONTINUOUS
 62
    3
 10
1019.3976690447994
 20
701.04877127353302
 11
1016.8976690447994
 21
701.04877127353302
  0
ARC
  8
_0-1_計細線
  6
CONTINUOUS
 62
    3
 10
1024.7976690447995
 20
700.04877127353325
 40
1
 50
89.999999999999915
 51
179.99999999999983
  0
LINE
  8
_0-1_計細線
  6
CONTINUOUS
 62
    3
 10
1024.7976690425921
 20
701.04877127353302
 11
1027.2976690425924
 21
701.04877127353302
  0
LINE
  8
_0-1_計細線
  6
CONTINUOUS
 62
    3
 10
1024.597669043696
 20
704.94877127353323
 11
1019.5976690436955
 21
704.94877127353323
  0
LINE
  8
_0-1_計細線
  6
CONTINUOUS
 62
    3
 10
1020.3976690436957
 20
684.94877127353311
 11
1020.3976690447995
 21
700.04877127353325
  0
LINE
  8
_0-1_計細線
  6
CONTINUOUS
 62
    3
 10
1023.7976690436959
 20
684.94877127353311
 11
1023.7976690447995
 21
700.04877127353325
  0
LINE
  8
_0-1_計細線
  6
CONTINUOUS
 62
    3
 10
1023.7976690436959
 20
684.94877127353311
 11
1020.3976690436957
 21
684.94877127353311
  0
ARC
  8
_0-1_計細線
  6
CONTINUOUS
 62
    3
 10
1034.797669045161
 20
702.948771273533
 40
1
 50
89.999999999999915
 51
179.99999999999983
  0
ARC
  8
_0-1_計細線
  6
CONTINUOUS
 62
    3
 10
1035.2656182364885
 20
704.94877127353323
 40
1
 50
269.99999999999977
 51
329.9999999999967
  0
ARC
  8
_0-1_計細線
  6
CONTINUOUS
 62
    3
 10
1036.9976690440576
 20
703.94877127353311
 40
1
 50
89.999999999999915
 51
150.00000000000836
  0
LINE
  8
_0-1_計細線
  6
CONTINUOUS
 62
    3
 10
1034.797669045161
 20
703.94877127353311
 11
1035.2656182364885
 21
703.94877127353311
  0
ARC
  8
_0-1_計細線
  6
CONTINUOUS
 62
    3
 10
1044.1976690429537
 20
702.948771273533
 40
1
 50
0
 51
89.999999999999915
  0
ARC
  8
_0-1_計細線
  6
CONTINUOUS
 62
    3
 10
1043.7297198516264
 20
704.94877127353323
 40
1
 50
209.99999999999605
 51
269.99999999999977
  0
ARC
  8
_0-1_計細線
  6
CONTINUOUS
 62
    3
 10
1041.9976690440571
 20
703.94877127353311
 40
1
 50
29.999999999991644
 51
89.999999999973952
  0
LINE
  8
_0-1_計細線
  6
CONTINUOUS
 62
    3
 10
1044.1976690429537
 20
703.94877127353311
 11
1043.7297198516264
 21
703.94877127353311
  0
ARC
  8
_0-1_計細線
  6
CONTINUOUS
 62
    3
 10
1034.297669045161
 20
701.54877127353325
 40
0.5
 50
179.99999999999983
 51
269.99999999999977
  0
LINE
  8
_0-1_計細線
  6
CONTINUOUS
 62
    3
 10
1033.797669045161
 20
702.948771273533
 11
1033.797669045161
 21
701.54877127353325
  0
ARC
  8
_0-1_計細線
  6
CONTINUOUS
 62
    3
 10
1044.6976690429537
 20
701.54877127353325
 40
0.5
 50
269.99999999999977
 51
359.99999999999966
  0
LINE
  8
_0-1_計細線
  6
CONTINUOUS
 62
    3
 10
1045.1976690429542
 20
702.948771273533
 11
1045.1976690429542
 21
701.54877127353325
  0
ARC
  8
_0-1_計細線
  6
CONTINUOUS
 62
    3
 10
1036.797669045161
 20
700.04877127353325
 40
1
 50
0
 51
89.999999999999915
  0
LINE
  8
_0-1_計細線
  6
CONTINUOUS
 62
    3
 10
1036.797669045161
 20
701.04877127353302
 11
1034.297669045161
 21
701.04877127353302
  0
ARC
  8
_0-1_計細線
  6
CONTINUOUS
 62
    3
 10
1042.1976690451611
 20
700.04877127353325
 40
1
 50
89.999999999999915
 51
179.99999999999983
  0
LINE
  8
_0-1_計細線
  6
CONTINUOUS
 62
    3
 10
1042.1976690429537
 20
701.04877127353302
 11
1044.6976690429537
 21
701.04877127353302
  0
LINE
  8
_0-1_計細線
  6
CONTINUOUS
 62
    3
 10
1041.9976690440571
 20
704.94877127353323
 11
1036.9976690440576
 21
704.94877127353323
  0
LINE
  8
_0-1_計細線
  6
CONTINUOUS
 62
    3
 10
1037.7976690440576
 20
684.94877127353311
 11
1037.797669045161
 21
700.04877127353325
  0
LINE
  8
_0-1_計細線
  6
CONTINUOUS
 62
    3
 10
1041.1976690440574
 20
684.94877127353311
 11
1041.1976690451611
 21
700.04877127353325
  0
LINE
  8
_0-1_計細線
  6
CONTINUOUS
 62
    3
 10
1041.1976690440574
 20
684.94877127353311
 11
1037.7976690440576
 21
684.94877127353311
  0
ARC
  8
_0-1_計細線
  6
CONTINUOUS
 62
    3
 10
1171.1976690475035
 20
702.948771273533
 40
1
 50
89.999999999999915
 51
179.99999999999983
  0
ARC
  8
_0-1_計細線
  6
CONTINUOUS
 62
    3
 10
1171.6656182388308
 20
704.94877127353323
 40
1
 50
269.99999999999977
 51
329.99999999999022
  0
ARC
  8
_0-1_計細線
  6
CONTINUOUS
 62
    3
 10
1173.3976690463996
 20
703.94877127353311
 40
1
 50
89.999999999999915
 51
150.00000000000836
  0
LINE
  8
_0-1_計細線
  6
CONTINUOUS
 62
    3
 10
1171.1976690475035
 20
703.94877127353311
 11
1171.6656182388308
 21
703.94877127353311
  0
ARC
  8
_0-1_計細線
  6
CONTINUOUS
 62
    3
 10
1180.5976690452962
 20
702.948771273533
 40
1
 50
0
 51
89.999999999999915
  0
ARC
  8
_0-1_計細線
  6
CONTINUOUS
 62
    3
 10
1180.1297198539687
 20
704.94877127353323
 40
1
 50
210.00000000000256
 51
269.99999999999977
  0
ARC
  8
_0-1_計細線
  6
CONTINUOUS
 62
    3
 10
1178.3976690463996
 20
703.94877127353311
 40
1
 50
29.999999999991644
 51
89.999999999999915
  0
LINE
  8
_0-1_計細線
  6
CONTINUOUS
 62
    3
 10
1180.5976690452962
 20
703.94877127353311
 11
1180.1297198539687
 21
703.94877127353311
  0
ARC
  8
_0-1_計細線
  6
CONTINUOUS
 62
    3
 10
1170.6976690475035
 20
701.54877127353325
 40
0.5
 50
179.99999999999983
 51
269.99999999999977
  0
LINE
  8
_0-1_計細線
  6
CONTINUOUS
 62
    3
 10
1170.1976690475033
 20
702.948771273533
 11
1170.1976690475033
 21
701.54877127353325
  0
ARC
  8
_0-1_計細線
  6
CONTINUOUS
 62
    3
 10
1181.0976690452962
 20
701.54877127353325
 40
0.5
 50
269.99999999999977
 51
359.99999999999966
  0
LINE
  8
_0-1_計細線
  6
CONTINUOUS
 62
    3
 10
1181.5976690452962
 20
702.948771273533
 11
1181.5976690452962
 21
701.54877127353325
  0
ARC
  8
_0-1_計細線
  6
CONTINUOUS
 62
    3
 10
1173.1976690475035
 20
700.04877127353325
 40
1
 50
0
 51
89.999999999999915
  0
LINE
  8
_0-1_計細線
  6
CONTINUOUS
 62
    3
 10
1173.1976690475035
 20
701.04877127353302
 11
1170.6976690475035
 21
701.04877127353302
  0
ARC
  8
_0-1_計細線
  6
CONTINUOUS
 62
    3
 10
1178.5976690475036
 20
700.04877127353325
 40
1
 50
89.999999999999915
 51
179.99999999999983
  0
LINE
  8
_0-1_計細線
  6
CONTINUOUS
 62
    3
 10
1178.5976690452962
 20
701.04877127353302
 11
1181.0976690452962
 21
701.04877127353302
  0
LINE
  8
_0-1_計細線
  6
CONTINUOUS
 62
    3
 10
1178.3976690463996
 20
704.94877127353323
 11
1173.3976690463996
 21
704.94877127353323
  0
LINE
  8
_0-1_計細線
  6
CONTINUOUS
 62
    3
 10
1174.1976690464001
 20
684.94877127353311
 11
1174.1976690475035
 21
700.04877127353325
  0
LINE
  8
_0-1_計細線
  6
CONTINUOUS
 62
    3
 10
1177.5976690463999
 20
684.94877127353311
 11
1177.5976690475036
 21
700.04877127353325
  0
LINE
  8
_0-1_計細線
  6
CONTINUOUS
 62
    3
 10
1177.5976690463999
 20
684.94877127353311
 11
1174.1976690464001
 21
684.94877127353311
  0
ARC
  8
_0-1_計細線
  6
CONTINUOUS
 62
    3
 10
1052.1976690451611
 20
702.948771273533
 40
1
 50
89.999999999999915
 51
179.99999999999983
  0
ARC
  8
_0-1_計細線
  6
CONTINUOUS
 62
    3
 10
1052.6656182364886
 20
704.94877127353323
 40
1
 50
269.99999999999977
 51
329.9999999999967
  0
ARC
  8
_0-1_計細線
  6
CONTINUOUS
 62
    3
 10
1054.3976690440577
 20
703.94877127353311
 40
1
 50
89.999999999999915
 51
150.00000000000185
  0
LINE
  8
_0-1_計細線
  6
CONTINUOUS
 62
    3
 10
1052.1976690451611
 20
703.94877127353311
 11
1052.6656182364886
 21
703.94877127353311
  0
ARC
  8
_0-1_計細線
  6
CONTINUOUS
 62
    3
 10
1061.5976690429538
 20
702.948771273533
 40
1
 50
0
 51
89.999999999999915
  0
ARC
  8
_0-1_計細線
  6
CONTINUOUS
 62
    3
 10
1061.1297198516263
 20
704.94877127353323
 40
1
 50
210.00000000000256
 51
269.99999999999977
  0
ARC
  8
_0-1_計細線
  6
CONTINUOUS
 62
    3
 10
1059.3976690440572
 20
703.94877127353311
 40
1
 50
29.999999999991644
 51
89.999999999973952
  0
LINE
  8
_0-1_計細線
  6
CONTINUOUS
 62
    3
 10
1061.5976690429538
 20
703.94877127353311
 11
1061.1297198516263
 21
703.94877127353311
  0
ARC
  8
_0-1_計細線
  6
CONTINUOUS
 62
    3
 10
1051.6976690451611
 20
701.54877127353325
 40
0.5
 50
179.99999999999983
 51
269.99999999999977
  0
LINE
  8
_0-1_計細線
  6
CONTINUOUS
 62
    3
 10
1051.1976690451611
 20
702.948771273533
 11
1051.1976690451611
 21
701.54877127353325
  0
ARC
  8
_0-1_計細線
  6
CONTINUOUS
 62
    3
 10
1062.0976690429538
 20
701.54877127353325
 40
0.5
 50
269.99999999999977
 51
359.99999999999966
  0
LINE
  8
_0-1_計細線
  6
CONTINUOUS
 62
    3
 10
1062.5976690429538
 20
702.948771273533
 11
1062.5976690429538
 21
701.54877127353325
  0
ARC
  8
_0-1_計細線
  6
CONTINUOUS
 62
    3
 10
1054.1976690451611
 20
700.04877127353325
 40
1
 50
0
 51
89.999999999999915
  0
LINE
  8
_0-1_計細線
  6
CONTINUOUS
 62
    3
 10
1054.1976690451611
 20
701.04877127353302
 11
1051.6976690451611
 21
701.04877127353302
  0
ARC
  8
_0-1_計細線
  6
CONTINUOUS
 62
    3
 10
1059.5976690451612
 20
700.04877127353325
 40
1
 50
89.999999999999915
 51
179.99999999999983
  0
LINE
  8
_0-1_計細線
  6
CONTINUOUS
 62
    3
 10
1059.5976690429538
 20
701.04877127353302
 11
1062.0976690429538
 21
701.04877127353302
  0
LINE
  8
_0-1_計細線
  6
CONTINUOUS
 62
    3
 10
1059.3976690440572
 20
704.94877127353323
 11
1054.3976690440577
 21
704.94877127353323
  0
LINE
  8
_0-1_計細線
  6
CONTINUOUS
 62
    3
 10
1055.1976690440574
 20
684.94877127353311
 11
1055.1976690451611
 21
700.04877127353325
  0
LINE
  8
_0-1_計細線
  6
CONTINUOUS
 62
    3
 10
1058.5976690440575
 20
684.94877127353311
 11
1058.5976690451612
 21
700.04877127353325
  0
LINE
  8
_0-1_計細線
  6
CONTINUOUS
 62
    3
 10
1058.5976690440575
 20
684.94877127353311
 11
1055.1976690440574
 21
684.94877127353311
  0
ARC
  8
_0-1_計細線
  6
CONTINUOUS
 62
    3
 10
1069.1976690455228
 20
702.948771273533
 40
1
 50
89.999999999999915
 51
179.99999999999983
  0
ARC
  8
_0-1_計細線
  6
CONTINUOUS
 62
    3
 10
1069.6656182368506
 20
704.94877127353323
 40
1
 50
269.99999999999977
 51
329.99999999999022
  0
ARC
  8
_0-1_計細線
  6
CONTINUOUS
 62
    3
 10
1071.3976690444192
 20
703.94877127353311
 40
1
 50
89.999999999999915
 51
150.00000000000185
  0
LINE
  8
_0-1_計細線
  6
CONTINUOUS
 62
    3
 10
1069.1976690455228
 20
703.94877127353311
 11
1069.6656182368506
 21
703.94877127353311
  0
ARC
  8
_0-1_計細線
  6
CONTINUOUS
 62
    3
 10
1078.5976690433158
 20
702.948771273533
 40
1
 50
0
 51
89.999999999999915
  0
ARC
  8
_0-1_計細線
  6
CONTINUOUS
 62
    3
 10
1078.1297198519881
 20
704.94877127353323
 40
1
 50
210.00000000000907
 51
269.99999999999977
  0
ARC
  8
_0-1_計細線
  6
CONTINUOUS
 62
    3
 10
1076.3976690444197
 20
703.94877127353311
 40
1
 50
29.99999999999816
 51
89.999999999999915
  0
LINE
  8
_0-1_計細線
  6
CONTINUOUS
 62
    3
 10
1078.5976690433158
 20
703.94877127353311
 11
1078.1297198519881
 21
703.94877127353311
  0
ARC
  8
_0-1_計細線
  6
CONTINUOUS
 62
    3
 10
1068.6976690455231
 20
701.54877127353325
 40
0.5
 50
179.99999999999983
 51
269.99999999999977
  0
LINE
  8
_0-1_計細線
  6
CONTINUOUS
 62
    3
 10
1068.1976690455231
 20
702.948771273533
 11
1068.1976690455231
 21
701.54877127353325
  0
ARC
  8
_0-1_計細線
  6
CONTINUOUS
 62
    3
 10
1079.0976690433158
 20
701.54877127353325
 40
0.5
 50
269.99999999999977
 51
359.99999999999966
  0
LINE
  8
_0-1_計細線
  6
CONTINUOUS
 62
    3
 10
1079.5976690433156
 20
702.948771273533
 11
1079.5976690433156
 21
701.54877127353325
  0
ARC
  8
_0-1_計細線
  6
CONTINUOUS
 62
    3
 10
1071.1976690455231
 20
700.04877127353325
 40
1
 50
0
 51
89.999999999999915
  0
LINE
  8
_0-1_計細線
  6
CONTINUOUS
 62
    3
 10
1071.1976690455231
 20
701.04877127353302
 11
1068.6976690455231
 21
701.04877127353302
  0
ARC
  8
_0-1_計細線
  6
CONTINUOUS
 62
    3
 10
1076.5976690455229
 20
700.04877127353325
 40
1
 50
89.999999999999915
 51
179.99999999999983
  0
LINE
  8
_0-1_計細線
  6
CONTINUOUS
 62
    3
 10
1076.5976690433156
 20
701.04877127353302
 11
1079.0976690433158
 21
701.04877127353302
  0
LINE
  8
_0-1_計細線
  6
CONTINUOUS
 62
    3
 10
1076.3976690444197
 20
704.94877127353323
 11
1071.3976690444192
 21
704.94877127353323
  0
LINE
  8
_0-1_計細線
  6
CONTINUOUS
 62
    3
 10
1072.1976690444192
 20
684.94877127353311
 11
1072.1976690455228
 21
700.04877127353325
  0
LINE
  8
_0-1_計細線
  6
CONTINUOUS
 62
    3
 10
1075.5976690444195
 20
684.94877127353311
 11
1075.5976690455232
 21
700.04877127353325
  0
LINE
  8
_0-1_計細線
  6
CONTINUOUS
 62
    3
 10
1075.5976690444195
 20
684.94877127353311
 11
1072.1976690444192
 21
684.94877127353311
  0
ARC
  8
_0-1_計細線
  6
CONTINUOUS
 62
    3
 10
1086.1976690458846
 20
702.948771273533
 40
1
 50
89.999999999999915
 51
179.99999999999983
  0
ARC
  8
_0-1_計細線
  6
CONTINUOUS
 62
    3
 10
1086.6656182372124
 20
704.94877127353323
 40
1
 50
269.99999999999977
 51
329.99999999999022
  0
ARC
  8
_0-1_計細線
  6
CONTINUOUS
 62
    3
 10
1088.3976690447812
 20
703.94877127353311
 40
1
 50
89.999999999999915
 51
150.00000000000836
  0
LINE
  8
_0-1_計細線
  6
CONTINUOUS
 62
    3
 10
1086.1976690458846
 20
703.94877127353311
 11
1086.6656182372124
 21
703.94877127353311
  0
ARC
  8
_0-1_計細線
  6
CONTINUOUS
 62
    3
 10
1095.5976690436776
 20
702.948771273533
 40
1
 50
0
 51
89.999999999999915
  0
ARC
  8
_0-1_計細線
  6
CONTINUOUS
 62
    3
 10
1095.1297198523503
 20
704.94877127353323
 40
1
 50
209.99999999999605
 51
269.99999999999977
  0
ARC
  8
_0-1_計細線
  6
CONTINUOUS
 62
    3
 10
1093.3976690447812
 20
703.94877127353311
 40
1
 50
29.99999999999816
 51
89.999999999999915
  0
LINE
  8
_0-1_計細線
  6
CONTINUOUS
 62
    3
 10
1095.5976690436776
 20
703.94877127353311
 11
1095.1297198523503
 21
703.94877127353311
  0
ARC
  8
_0-1_計細線
  6
CONTINUOUS
 62
    3
 10
1085.6976690458846
 20
701.54877127353325
 40
0.5
 50
179.99999999999983
 51
269.99999999999977
  0
LINE
  8
_0-1_計細線
  6
CONTINUOUS
 62
    3
 10
1085.197669045885
 20
702.948771273533
 11
1085.197669045885
 21
701.54877127353325
  0
ARC
  8
_0-1_計細線
  6
CONTINUOUS
 62
    3
 10
1096.0976690436778
 20
701.54877127353325
 40
0.5
 50
269.99999999999977
 51
359.99999999999966
  0
LINE
  8
_0-1_計細線
  6
CONTINUOUS
 62
    3
 10
1096.5976690436778
 20
702.948771273533
 11
1096.5976690436778
 21
701.54877127353325
  0
ARC
  8
_0-1_計細線
  6
CONTINUOUS
 62
    3
 10
1088.1976690458848
 20
700.04877127353325
 40
1
 50
0
 51
89.999999999999915
  0
LINE
  8
_0-1_計細線
  6
CONTINUOUS
 62
    3
 10
1088.1976690458848
 20
701.04877127353302
 11
1085.6976690458846
 21
701.04877127353302
  0
ARC
  8
_0-1_計細線
  6
CONTINUOUS
 62
    3
 10
1093.5976690458847
 20
700.04877127353325
 40
1
 50
89.999999999999915
 51
179.99999999999983
  0
LINE
  8
_0-1_計細線
  6
CONTINUOUS
 62
    3
 10
1093.5976690436773
 20
701.04877127353302
 11
1096.0976690436778
 21
701.04877127353302
  0
LINE
  8
_0-1_計細線
  6
CONTINUOUS
 62
    3
 10
1093.3976690447812
 20
704.94877127353323
 11
1088.3976690447812
 21
704.94877127353323
  0
LINE
  8
_0-1_計細線
  6
CONTINUOUS
 62
    3
 10
1089.1976690447814
 20
684.94877127353311
 11
1089.1976690458846
 21
700.04877127353325
  0
LINE
  8
_0-1_計細線
  6
CONTINUOUS
 62
    3
 10
1092.5976690447812
 20
684.94877127353311
 11
1092.5976690458851
 21
700.04877127353325
  0
LINE
  8
_0-1_計細線
  6
CONTINUOUS
 62
    3
 10
1092.5976690447812
 20
684.94877127353311
 11
1089.1976690447814
 21
684.94877127353311
  0
ARC
  8
_0-1_計細線
  6
CONTINUOUS
 62
    3
 10
1120.1976690466081
 20
702.948771273533
 40
1
 50
89.999999999999915
 51
179.99999999999983
  0
ARC
  8
_0-1_計細線
  6
CONTINUOUS
 62
    3
 10
1120.6656182379359
 20
704.94877127353323
 40
1
 50
269.99999999999977
 51
329.99999999999022
  0
ARC
  8
_0-1_計細線
  6
CONTINUOUS
 62
    3
 10
1122.3976690455047
 20
703.94877127353311
 40
1
 50
89.999999999999915
 51
150.00000000000836
  0
LINE
  8
_0-1_計細線
  6
CONTINUOUS
 62
    3
 10
1120.1976690466081
 20
703.94877127353311
 11
1120.6656182379359
 21
703.94877127353311
  0
ARC
  8
_0-1_計細線
  6
CONTINUOUS
 62
    3
 10
1129.5976690444011
 20
702.948771273533
 40
1
 50
0
 51
89.999999999999915
  0
ARC
  8
_0-1_計細線
  6
CONTINUOUS
 62
    3
 10
1129.1297198530733
 20
704.94877127353323
 40
1
 50
210.00000000000907
 51
269.99999999999977
  0
ARC
  8
_0-1_計細線
  6
CONTINUOUS
 62
    3
 10
1127.3976690455047
 20
703.94877127353311
 40
1
 50
29.99999999999816
 51
89.999999999999915
  0
LINE
  8
_0-1_計細線
  6
CONTINUOUS
 62
    3
 10
1129.5976690444011
 20
703.94877127353311
 11
1129.1297198530733
 21
703.94877127353311
  0
ARC
  8
_0-1_計細線
  6
CONTINUOUS
 62
    3
 10
1119.6976690466081
 20
701.54877127353325
 40
0.5
 50
179.99999999999983
 51
269.99999999999977
  0
LINE
  8
_0-1_計細線
  6
CONTINUOUS
 62
    3
 10
1119.1976690466083
 20
702.948771273533
 11
1119.1976690466083
 21
701.54877127353325
  0
ARC
  8
_0-1_計細線
  6
CONTINUOUS
 62
    3
 10
1130.0976690444013
 20
701.54877127353325
 40
0.5
 50
269.99999999999977
 51
359.99999999999966
  0
LINE
  8
_0-1_計細線
  6
CONTINUOUS
 62
    3
 10
1130.5976690444008
 20
702.948771273533
 11
1130.5976690444008
 21
701.54877127353325
  0
ARC
  8
_0-1_計細線
  6
CONTINUOUS
 62
    3
 10
1122.1976690466086
 20
700.04877127353325
 40
1
 50
0
 51
89.999999999999915
  0
LINE
  8
_0-1_計細線
  6
CONTINUOUS
 62
    3
 10
1122.1976690466086
 20
701.04877127353302
 11
1119.6976690466081
 21
701.04877127353302
  0
ARC
  8
_0-1_計細線
  6
CONTINUOUS
 62
    3
 10
1127.5976690466082
 20
700.04877127353325
 40
1
 50
89.999999999999915
 51
179.99999999999983
  0
LINE
  8
_0-1_計細線
  6
CONTINUOUS
 62
    3
 10
1127.5976690444008
 20
701.04877127353302
 11
1130.0976690444013
 21
701.04877127353302
  0
LINE
  8
_0-1_計細線
  6
CONTINUOUS
 62
    3
 10
1127.3976690455047
 20
704.94877127353323
 11
1122.3976690455047
 21
704.94877127353323
  0
LINE
  8
_0-1_計細線
  6
CONTINUOUS
 62
    3
 10
1123.1976690455044
 20
684.94877127353311
 11
1123.1976690466081
 21
700.04877127353325
  0
LINE
  8
_0-1_計細線
  6
CONTINUOUS
 62
    3
 10
1126.5976690455047
 20
684.94877127353311
 11
1126.5976690466084
 21
700.04877127353325
  0
LINE
  8
_0-1_計細線
  6
CONTINUOUS
 62
    3
 10
1126.5976690455047
 20
684.94877127353311
 11
1123.1976690455044
 21
684.94877127353311
  0
ARC
  8
_0-1_計細線
  6
CONTINUOUS
 62
    3
 10
1137.1976690469701
 20
702.948771273533
 40
1
 50
89.999999999999915
 51
179.99999999999983
  0
ARC
  8
_0-1_計細線
  6
CONTINUOUS
 62
    3
 10
1137.6656182382976
 20
704.94877127353323
 40
1
 50
269.99999999999977
 51
329.99999999999022
  0
ARC
  8
_0-1_計細線
  6
CONTINUOUS
 62
    3
 10
1139.3976690458662
 20
703.94877127353311
 40
1
 50
89.999999999999915
 51
150.00000000000185
  0
LINE
  8
_0-1_計細線
  6
CONTINUOUS
 62
    3
 10
1137.1976690469701
 20
703.94877127353311
 11
1137.6656182382976
 21
703.94877127353311
  0
ARC
  8
_0-1_計細線
  6
CONTINUOUS
 62
    3
 10
1146.5976690447628
 20
702.948771273533
 40
1
 50
0
 51
89.999999999999915
  0
ARC
  8
_0-1_計細線
  6
CONTINUOUS
 62
    3
 10
1146.1297198534353
 20
704.94877127353323
 40
1
 50
210.00000000000256
 51
269.99999999999977
  0
ARC
  8
_0-1_計細線
  6
CONTINUOUS
 62
    3
 10
1144.3976690458665
 20
703.94877127353311
 40
1
 50
29.99999999999816
 51
89.999999999999915
  0
LINE
  8
_0-1_計細線
  6
CONTINUOUS
 62
    3
 10
1146.5976690447628
 20
703.94877127353311
 11
1146.1297198534353
 21
703.94877127353311
  0
ARC
  8
_0-1_計細線
  6
CONTINUOUS
 62
    3
 10
1136.6976690469701
 20
701.54877127353325
 40
0.5
 50
179.99999999999983
 51
269.99999999999977
  0
LINE
  8
_0-1_計細線
  6
CONTINUOUS
 62
    3
 10
1136.1976690469701
 20
702.948771273533
 11
1136.1976690469701
 21
701.54877127353325
  0
ARC
  8
_0-1_計細線
  6
CONTINUOUS
 62
    3
 10
1147.0976690447628
 20
701.54877127353325
 40
0.5
 50
269.99999999999977
 51
359.99999999999966
  0
LINE
  8
_0-1_計細線
  6
CONTINUOUS
 62
    3
 10
1147.5976690447628
 20
702.948771273533
 11
1147.5976690447628
 21
701.54877127353325
  0
ARC
  8
_0-1_計細線
  6
CONTINUOUS
 62
    3
 10
1139.1976690469701
 20
700.04877127353325
 40
1
 50
0
 51
89.999999999999915
  0
LINE
  8
_0-1_計細線
  6
CONTINUOUS
 62
    3
 10
1139.1976690469701
 20
701.04877127353302
 11
1136.6976690469701
 21
701.04877127353302
  0
ARC
  8
_0-1_計細線
  6
CONTINUOUS
 62
    3
 10
1144.5976690469702
 20
700.04877127353325
 40
1
 50
89.999999999999915
 51
179.99999999999983
  0
LINE
  8
_0-1_計細線
  6
CONTINUOUS
 62
    3
 10
1144.5976690447628
 20
701.04877127353302
 11
1147.0976690447628
 21
701.04877127353302
  0
LINE
  8
_0-1_計細線
  6
CONTINUOUS
 62
    3
 10
1144.3976690458665
 20
704.94877127353323
 11
1139.3976690458662
 21
704.94877127353323
  0
LINE
  8
_0-1_計細線
  6
CONTINUOUS
 62
    3
 10
1140.1976690458664
 20
684.94877127353311
 11
1140.1976690469701
 21
700.04877127353325
  0
LINE
  8
_0-1_計細線
  6
CONTINUOUS
 62
    3
 10
1143.5976690458665
 20
684.94877127353311
 11
1143.5976690469702
 21
700.04877127353325
  0
LINE
  8
_0-1_計細線
  6
CONTINUOUS
 62
    3
 10
1143.5976690458665
 20
684.94877127353311
 11
1140.1976690458664
 21
684.94877127353311
  0
ARC
  8
_0-1_計細線
  6
CONTINUOUS
 62
    3
 10
1154.1976690473316
 20
702.948771273533
 40
1
 50
89.999999999999915
 51
179.99999999999983
  0
ARC
  8
_0-1_計細線
  6
CONTINUOUS
 62
    3
 10
1154.6656182386594
 20
704.94877127353323
 40
1
 50
269.99999999999977
 51
329.99999999999022
  0
ARC
  8
_0-1_計細線
  6
CONTINUOUS
 62
    3
 10
1156.397669046228
 20
703.94877127353311
 40
1
 50
89.999999999999915
 51
150.00000000000185
  0
LINE
  8
_0-1_計細線
  6
CONTINUOUS
 62
    3
 10
1154.1976690473316
 20
703.94877127353311
 11
1154.6656182386594
 21
703.94877127353311
  0
ARC
  8
_0-1_計細線
  6
CONTINUOUS
 62
    3
 10
1163.5976690451248
 20
702.948771273533
 40
1
 50
0
 51
89.999999999999915
  0
ARC
  8
_0-1_計細線
  6
CONTINUOUS
 62
    3
 10
1163.1297198537973
 20
704.94877127353323
 40
1
 50
210.00000000000256
 51
269.99999999999977
  0
ARC
  8
_0-1_計細線
  6
CONTINUOUS
 62
    3
 10
1161.3976690462282
 20
703.94877127353311
 40
1
 50
29.999999999991644
 51
89.999999999999915
  0
LINE
  8
_0-1_計細線
  6
CONTINUOUS
 62
    3
 10
1163.5976690451248
 20
703.94877127353311
 11
1163.1297198537973
 21
703.94877127353311
  0
ARC
  8
_0-1_計細線
  6
CONTINUOUS
 62
    3
 10
1153.6976690473321
 20
701.54877127353325
 40
0.5
 50
179.99999999999983
 51
269.99999999999977
  0
LINE
  8
_0-1_計細線
  6
CONTINUOUS
 62
    3
 10
1153.1976690473318
 20
702.948771273533
 11
1153.1976690473318
 21
701.54877127353325
  0
ARC
  8
_0-1_計細線
  6
CONTINUOUS
 62
    3
 10
1164.0976690451248
 20
701.54877127353325
 40
0.5
 50
269.99999999999977
 51
359.99999999999966
  0
LINE
  8
_0-1_計細線
  6
CONTINUOUS
 62
    3
 10
1164.5976690451248
 20
702.948771273533
 11
1164.5976690451248
 21
701.54877127353325
  0
ARC
  8
_0-1_計細線
  6
CONTINUOUS
 62
    3
 10
1156.1976690473318
 20
700.04877127353325
 40
1
 50
0
 51
89.999999999999915
  0
LINE
  8
_0-1_計細線
  6
CONTINUOUS
 62
    3
 10
1156.1976690473318
 20
701.04877127353302
 11
1153.6976690473321
 21
701.04877127353302
  0
ARC
  8
_0-1_計細線
  6
CONTINUOUS
 62
    3
 10
1161.5976690473317
 20
700.04877127353325
 40
1
 50
89.999999999999915
 51
179.99999999999983
  0
LINE
  8
_0-1_計細線
  6
CONTINUOUS
 62
    3
 10
1161.5976690451243
 20
701.04877127353302
 11
1164.0976690451248
 21
701.04877127353302
  0
LINE
  8
_0-1_計細線
  6
CONTINUOUS
 62
    3
 10
1161.3976690462282
 20
704.94877127353323
 11
1156.397669046228
 21
704.94877127353323
  0
LINE
  8
_0-1_計細線
  6
CONTINUOUS
 62
    3
 10
1157.1976690462284
 20
684.94877127353311
 11
1157.1976690473316
 21
700.04877127353325
  0
LINE
  8
_0-1_計細線
  6
CONTINUOUS
 62
    3
 10
1160.5976690462282
 20
684.94877127353311
 11
1160.5976690473319
 21
700.04877127353325
  0
LINE
  8
_0-1_計細線
  6
CONTINUOUS
 62
    3
 10
1160.5976690462282
 20
684.94877127353311
 11
1157.1976690462284
 21
684.94877127353311
  0
ARC
  8
_0-1_計細線
  6
CONTINUOUS
 62
    3
 10
1218.3976690451432
 20
684.94899027453994
 40
3.0000000000000004
 50
269.99999999999977
 51
359.99999999999966
  0
LINE
  8
_0-1_計細線
  6
CONTINUOUS
 62
    3
 10
1221.3976690451429
 20
684.94899027453994
 11
1221.3976690451429
 21
704.44899027453994
  0
LINE
  8
_0-1_計細線
  6
CONTINUOUS
 62
    3
 10
1218.3976690451432
 20
681.94899027453994
 11
1191.8976690451425
 21
681.94899027453994
  0
LINE
  8
_0-1_計細線
  6
CONTINUOUS
 62
    3
 10
1191.3976690451427
 20
682.44899027454028
 11
1191.8976690451425
 21
681.94899027453994
  0
LINE
  8
_0-1_計細線
  6
CONTINUOUS
 62
    3
 10
1191.3976690451427
 20
684.44899027453994
 11
1191.3976690451427
 21
682.44899027454028
  0
LINE
  8
_0-1_計細線
  6
CONTINUOUS
 62
    3
 10
1191.8976690451425
 20
684.94899027453994
 11
1191.3976690451427
 21
684.44899027453994
  0
LINE
  8
_0-1_計細線
  6
CONTINUOUS
 62
    3
 10
1218.3976690451432
 20
684.94899027453994
 11
1191.8976690451425
 21
684.94899027453994
  0
LINE
  8
_0-1_計細線
  6
CONTINUOUS
 62
    3
 10
1220.8976690451432
 20
704.94899027454028
 11
1221.3976690451429
 21
704.44899027453994
  0
LINE
  8
_0-1_計細線
  6
CONTINUOUS
 62
    3
 10
1218.8976690451427
 20
704.94899027454028
 11
1220.8976690451432
 21
704.94899027454028
  0
LINE
  8
_0-1_計細線
  6
CONTINUOUS
 62
    3
 10
1218.3976690451432
 20
704.44899027453994
 11
1218.8976690451427
 21
704.94899027454028
  0
LINE
  8
_0-1_計細線
  6
CONTINUOUS
 62
    3
 10
1218.3976690451432
 20
684.94899027453994
 11
1218.3976690451432
 21
704.44899027453994
  0
ARC
  8
_0-1_計細線
  6
CONTINUOUS
 62
    3
 10
1014.3976690451427
 20
684.94899027453994
 40
3.0000000000000004
 50
179.99999999999983
 51
269.99999999999977
  0
LINE
  8
_0-1_計細線
  6
CONTINUOUS
 62
    3
 10
1011.3976690451427
 20
684.94899027453994
 11
1011.3976690451427
 21
704.44899027453994
  0
LINE
  8
_0-1_計細線
  6
CONTINUOUS
 62
    3
 10
1014.3976690451427
 20
681.94899027453994
 11
1040.8976690451427
 21
681.94899027453994
  0
LINE
  8
_0-1_計細線
  6
CONTINUOUS
 62
    3
 10
1041.3976690451427
 20
682.44899027454028
 11
1040.8976690451427
 21
681.94899027453994
  0
LINE
  8
_0-1_計細線
  6
CONTINUOUS
 62
    3
 10
1041.3976690451427
 20
684.44899027453994
 11
1041.3976690451427
 21
682.44899027454028
  0
LINE
  8
_0-1_計細線
  6
CONTINUOUS
 62
    3
 10
1040.8976690451427
 20
684.94899027453994
 11
1041.3976690451427
 21
684.44899027453994
  0
LINE
  8
_0-1_計細線
  6
CONTINUOUS
 62
    3
 10
1014.3976690451427
 20
684.94899027453994
 11
1040.8976690451427
 21
684.94899027453994
  0
LINE
  8
_0-1_計細線
  6
CONTINUOUS
 62
    3
 10
1011.8976690451426
 20
704.94899027454028
 11
1011.3976690451427
 21
704.44899027453994
  0
LINE
  8
_0-1_計細線
  6
CONTINUOUS
 62
    3
 10
1013.8976690451427
 20
704.94899027454028
 11
1011.8976690451426
 21
704.94899027454028
  0
LINE
  8
_0-1_計細線
  6
CONTINUOUS
 62
    3
 10
1014.3976690451427
 20
704.44899027453994
 11
1013.8976690451427
 21
704.94899027454028
  0
LINE
  8
_0-1_計細線
  6
CONTINUOUS
 62
    3
 10
1014.3976690451427
 20
684.94899027453994
 11
1014.3976690451427
 21
704.44899027453994
  0
LINE
  8
_0-5_寸法線
  6
CONTINUOUS
 62
    7
 10
1041.3976690451427
 20
676.94899027453994
 11
1041.3976690451427
 21
584.62627132142302
  0
LINE
  8
_0-5_寸法線
  6
CONTINUOUS
 62
    7
 10
1041.3976690451427
 20
589.62627132142302
 11
1051.0569273080337
 21
592.2144617724482
  0
LINE
  8
_0-5_寸法線
  6
CONTINUOUS
 62
    7
 10
1041.3976690451427
 20
589.62627132142302
 11
1051.0569273080337
 21
587.03808087039783
  0
LINE
  8
_0-5_寸法線
  6
CONTINUOUS
 62
    7
 10
1191.3976690451427
 20
676.94899027453994
 11
1191.3976690451427
 21
584.62627132142302
  0
LINE
  8
_0-5_寸法線
  6
CONTINUOUS
 62
    7
 10
1191.3976690451427
 20
589.62627132142302
 11
1181.738410782252
 21
587.03808087039783
  0
LINE
  8
_0-5_寸法線
  6
CONTINUOUS
 62
    7
 10
1191.3976690451427
 20
589.62627132142302
 11
1181.738410782252
 21
592.2144617724482
  0
LINE
  8
_0-5_寸法線
  6
CONTINUOUS
 62
    7
 10
1041.3976690451427
 20
589.62627132142302
 11
1191.3976690451427
 21
589.62627132142302
  0
TEXT
  8
_0-5_寸法線
 62
    7
 10
1105.1476690451427
 20
589.62627132142302
 40
15
 41
1
 50
0
  1
150
  0
LINE
  8
_0-5_寸法線
  6
CONTINUOUS
 62
    7
 10
1011.3976690451426
 20
648.94899027454005
 11
1011.3976690451415
 21
584.62627132142302
  0
LINE
  8
_0-5_寸法線
  6
CONTINUOUS
 62
    7
 10
1011.3976690451416
 20
589.62627132142302
 11
1021.0569273080324
 21
592.2144617724482
  0
LINE
  8
_0-5_寸法線
  6
CONTINUOUS
 62
    7
 10
1011.3976690451416
 20
589.62627132142302
 11
1021.0569273080324
 21
587.03808087039783
  0
LINE
  8
_0-5_寸法線
  6
CONTINUOUS
 62
    7
 10
1041.3976690451427
 20
671.94899027453994
 11
1041.3976690451416
 21
584.62627132142302
  0
LINE
  8
_0-5_寸法線
  6
CONTINUOUS
 62
    7
 10
1041.3976690451416
 20
589.62627132142302
 11
1031.7384107822509
 21
587.03808087039783
  0
LINE
  8
_0-5_寸法線
  6
CONTINUOUS
 62
    7
 10
1041.3976690451416
 20
589.62627132142302
 11
1031.7384107822509
 21
592.2144617724482
  0
LINE
  8
_0-5_寸法線
  6
CONTINUOUS
 62
    7
 10
1011.3976690451416
 20
589.62627132142302
 11
1041.3976690451416
 21
589.62627132142302
  0
TEXT
  8
_0-5_寸法線
 62
    7
 10
1018.8976690451416
 20
589.62627132142302
 40
15
 41
1
 50
0
  1
30
  0
LINE
  8
_0-5_寸法線
  6
CONTINUOUS
 62
    7
 10
1221.3976690451429
 20
648.94899027454005
 11
1221.3976690451429
 21
584.62627132142302
  0
LINE
  8
_0-5_寸法線
  6
CONTINUOUS
 62
    7
 10
1221.3976690451429
 20
589.62627132142302
 11
1211.7384107822522
 21
587.03808087039783
  0
LINE
  8
_0-5_寸法線
  6
CONTINUOUS
 62
    7
 10
1221.3976690451429
 20
589.62627132142302
 11
1211.7384107822522
 21
592.2144617724482
  0
LINE
  8
_0-5_寸法線
  6
CONTINUOUS
 62
    7
 10
1191.3976690451429
 20
671.94899027453994
 11
1191.3976690451436
 21
584.62627132142302
  0
LINE
  8
_0-5_寸法線
  6
CONTINUOUS
 62
    7
 10
1191.3976690451436
 20
589.62627132142302
 11
1201.0569273080343
 21
592.2144617724482
  0
LINE
  8
_0-5_寸法線
  6
CONTINUOUS
 62
    7
 10
1191.3976690451436
 20
589.62627132142302
 11
1201.0569273080343
 21
587.03808087039783
  0
LINE
  8
_0-5_寸法線
  6
CONTINUOUS
 62
    7
 10
1221.3976690451429
 20
589.62627132142302
 11
1191.3976690451436
 21
589.62627132142302
  0
TEXT
  8
_0-5_寸法線
 62
    7
 10
1198.8976690451432
 20
589.62627132142302
 40
15
 41
1
 50
0
  1
30
  0
LINE
  8
_0-5_寸法線
  6
CONTINUOUS
 62
    7
 10
1000.197669045143
 20
681.94899027453994
 11
922.16437521994931
 21
681.94899027454017
  0
LINE
  8
_0-5_寸法線
  6
CONTINUOUS
 62
    7
 10
927.16437521994931
 20
681.94899027454017
 11
929.7525656709746
 21
672.28973201164945
  0
LINE
  8
_0-5_寸法線
  6
CONTINUOUS
 62
    7
 10
927.16437521994931
 20
681.94899027454017
 11
924.57618476892424
 21
672.28973201164945
  0
LINE
  8
_0-5_寸法線
  6
CONTINUOUS
 62
    7
 10
1000.197669045143
 20
658.94899027454017
 11
922.16437521994931
 21
658.94899027454017
  0
LINE
  8
_0-5_寸法線
  6
CONTINUOUS
 62
    7
 10
927.16437521994931
 20
658.94899027454017
 11
924.57618476892424
 21
668.608248537431
  0
LINE
  8
_0-5_寸法線
  6
CONTINUOUS
 62
    7
 10
927.16437521994931
 20
658.94899027454017
 11
929.7525656709746
 21
668.608248537431
  0
LINE
  8
_0-5_寸法線
  6
CONTINUOUS
 62
    7
 10
927.16437521994931
 20
681.94899027454017
 11
927.16437521994931
 21
658.94899027454017
  0
TEXT
  8
_0-5_寸法線
 62
    7
 10
927.16437521994931
 20
662.94899027454017
 40
15
 41
1
 50
90
  1
23
  0
LINE
  8
_0-5_寸法線
  6
CONTINUOUS
 62
    7
 10
942.89102075807386
 20
704.94899027453971
 11
922.16437521994931
 21
704.94899027453971
  0
LINE
  8
_0-5_寸法線
  6
CONTINUOUS
 62
    7
 10
927.16437521994931
 20
704.94899027453971
 11
929.7525656709746
 21
695.28973201164899
  0
LINE
  8
_0-5_寸法線
  6
CONTINUOUS
 62
    7
 10
927.16437521994931
 20
704.94899027453971
 11
924.57618476892424
 21
695.28973201164899
  0
LINE
  8
_0-5_寸法線
  6
CONTINUOUS
 62
    7
 10
1000.197669045143
 20
681.94899027453994
 11
922.16437521994931
 21
681.94899027454017
  0
LINE
  8
_0-5_寸法線
  6
CONTINUOUS
 62
    7
 10
927.16437521994931
 20
681.94899027454017
 11
924.57618476892424
 21
691.60824853743088
  0
LINE
  8
_0-5_寸法線
  6
CONTINUOUS
 62
    7
 10
927.16437521994931
 20
681.94899027454017
 11
929.7525656709746
 21
691.60824853743088
  0
LINE
  8
_0-5_寸法線
  6
CONTINUOUS
 62
    7
 10
927.16437521994931
 20
704.94899027453971
 11
927.16437521994931
 21
681.94899027454017
  0
TEXT
  8
_0-5_寸法線
 62
    7
 10
927.16437521994931
 20
685.94899027454017
 40
15
 41
1
 50
90
  1
23
  0
LINE
  8
_0-1_計細線
  6
CONTINUOUS
 62
    3
 10
1011.3976690451427
 20
693.948771273533
 11
1011.3976690451427
 21
658.948771273533
  0
LINE
  8
_0-1_計細線
  6
CONTINUOUS
 62
    3
 10
1011.3976690451427
 20
658.948771273533
 11
1009.0976690451429
 21
658.948771273533
  0
LINE
  8
_0-1_計細線
  6
CONTINUOUS
 62
    3
 10
1009.0976690451429
 20
658.948771273533
 11
1009.0976690451429
 21
693.948771273533
  0
LINE
  8
_0-1_計細線
  6
CONTINUOUS
 62
    3
 10
1009.0976690451429
 20
693.948771273533
 11
1011.3976690451427
 21
693.948771273533
  0
LINE
  8
_0-0_計極細
  6
CONTINUOUS
 62
    2
 10
1009.0976690451429
 20
677.948771273533
 11
1011.3976690451427
 21
677.948771273533
  0
LINE
  8
_0-0_計極細
  6
CONTINUOUS
 62
    2
 10
1009.0976690451429
 20
679.94877127353311
 11
1011.3976690451427
 21
679.94877127353311
  0
LINE
  8
_0-0_計極細
  6
CONTINUOUS
 62
    2
 10
1009.0976690451429
 20
675.948771273533
 11
1011.3976690451427
 21
675.948771273533
  0
LINE
  8
_0-0_計極細
  6
CONTINUOUS
 62
    2
 10
1009.0976690451429
 20
681.94877127353311
 11
1011.3976690451427
 21
681.94877127353311
  0
LINE
  8
_0-0_計極細
  6
CONTINUOUS
 62
    2
 10
1011.3976690451427
 20
661.94877127353311
 11
1009.0976690451429
 21
661.94877127353311
  0
LINE
  8
_0-0_計極細
  6
CONTINUOUS
 62
    2
 10
1009.0976690451429
 20
691.94877127353311
 11
1011.3976690451427
 21
691.94877127353311
  0
LINE
  8
_0-1_計細線
  6
CONTINUOUS
 62
    3
 10
1221.3976690451432
 20
693.94899027454005
 11
1221.3976690451432
 21
658.94899027454005
  0
LINE
  8
_0-1_計細線
  6
CONTINUOUS
 62
    3
 10
1221.3976690451432
 20
658.94899027454005
 11
1223.6976690451431
 21
658.94899027454005
  0
LINE
  8
_0-1_計細線
  6
CONTINUOUS
 62
    3
 10
1223.6976690451431
 20
658.94899027454005
 11
1223.6976690451431
 21
693.94899027454005
  0
LINE
  8
_0-1_計細線
  6
CONTINUOUS
 62
    3
 10
1223.6976690451431
 20
693.94899027454005
 11
1221.3976690451432
 21
693.94899027454005
  0
LINE
  8
_0-0_計極細
  6
CONTINUOUS
 62
    2
 10
1223.6976690451431
 20
677.94899027453994
 11
1221.3976690451432
 21
677.94899027453994
  0
LINE
  8
_0-0_計極細
  6
CONTINUOUS
 62
    2
 10
1223.6976690451431
 20
679.94899027453994
 11
1221.3976690451432
 21
679.94899027453994
  0
LINE
  8
_0-0_計極細
  6
CONTINUOUS
 62
    2
 10
1223.6976690451431
 20
675.94899027453994
 11
1221.3976690451432
 21
675.94899027453994
  0
LINE
  8
_0-0_計極細
  6
CONTINUOUS
 62
    2
 10
1223.6976690451431
 20
681.94899027453994
 11
1221.3976690451432
 21
681.94899027453994
  0
LINE
  8
_0-0_計極細
  6
CONTINUOUS
 62
    2
 10
1221.3976690451432
 20
661.94899027453994
 11
1223.6976690451431
 21
661.94899027453994
  0
LINE
  8
_0-0_計極細
  6
CONTINUOUS
 62
    2
 10
1223.6976690451431
 20
691.94899027453994
 11
1221.3976690451432
 21
691.94899027453994
  0
LINE
  8
_0-7_枠細線
  6
CONTINUOUS
 62
    5
 10
1240.3116978659637
 20
679.09707410560441
 11
1232.8116978659637
 21
694.09707410560441
  0
LINE
  8
_0-7_枠細線
  6
CONTINUOUS
 62
    5
 10
1225.3116978659637
 20
679.09707410560441
 11
1240.3116978659637
 21
679.09707410560441
  0
LINE
  8
_0-7_枠細線
  6
CONTINUOUS
 62
    5
 10
1232.8116978659637
 20
694.09707410560441
 11
1225.3116978659637
 21
679.09707410560441
  0
TEXT
  8
_0-7_枠細線
 62
    5
 10
1227.6768491341118
 20
678.1482541407546
 40
12.5
 41
0.8
 50
0
  1
１
  0
TEXT
  8
_0-7_枠細線
 62
    5
 10
1066.6894272843072
 20
547.96679242918015
 40
25
 41
0.8
 50
0
  1
断面詳細図
  0
TEXT
  8
_0-7_枠細線
 62
    5
 10
1181.638397033475
 20
550.46255451644424
 40
20
 41
0.6
 50
0
  1
Ｓ＝１：５
  0
LINE
  8
_0-0_計極細
  6
CONTINUOUS
 62
    2
 10
372.18632075471794
 20
388.81981132075487
 11
372.18632075471794
 21
394.41981132075523
  0
LINE
  8
_0-0_計極細
  6
CONTINUOUS
 62
    2
 10
385.186320754718
 20
388.81981132075487
 11
385.186320754718
 21
394.41981132075523
  0
LINE
  8
_0-0_計極細
  6
CONTINUOUS
 62
    2
 10
372.18632075471794
 20
405.81981132075583
 11
372.18632075471794
 21
411.41981132075614
  0
LINE
  8
_0-0_計極細
  6
CONTINUOUS
 62
    2
 10
385.186320754718
 20
405.81981132075583
 11
385.186320754718
 21
411.41981132075614
  0
LINE
  8
_0-0_計極細
  6
CONTINUOUS
 62
    2
 10
372.18632075471794
 20
428.41981132075159
 11
372.18632075471794
 21
422.81981132075214
  0
LINE
  8
_0-0_計極細
  6
CONTINUOUS
 62
    2
 10
385.186320754718
 20
428.41981132075159
 11
385.186320754718
 21
422.81981132075214
  0
LINE
  8
_0-0_計極細
  6
CONTINUOUS
 62
    2
 10
372.18632075471794
 20
445.4198113207525
 11
372.18632075471794
 21
439.81981132075219
  0
LINE
  8
_0-0_計極細
  6
CONTINUOUS
 62
    2
 10
385.186320754718
 20
445.4198113207525
 11
385.186320754718
 21
439.81981132075219
  0
LINE
  8
_0-0_計極細
  6
CONTINUOUS
 62
    2
 10
372.18632075471794
 20
513.81981132075396
 11
372.18632075471794
 21
507.81981132075401
  0
LINE
  8
_0-0_計極細
  6
CONTINUOUS
 62
    2
 10
385.186320754718
 20
513.81981132075396
 11
385.186320754718
 21
507.81981132075401
  0
LINE
  8
_0-0_計極細
  6
CONTINUOUS
 62
    2
 10
372.18632075471794
 20
531.21981132075359
 11
372.18632075471794
 21
525.21981132075359
  0
LINE
  8
_0-0_計極細
  6
CONTINUOUS
 62
    2
 10
385.186320754718
 20
531.21981132075359
 11
385.186320754718
 21
525.21981132075359
  0
LINE
  8
_0-0_計極細
  6
CONTINUOUS
 62
    2
 10
372.18632075471794
 20
462.41981132075347
 11
372.18632075471794
 21
456.81981132075305
  0
LINE
  8
_0-0_計極細
  6
CONTINUOUS
 62
    2
 10
385.186320754718
 20
462.41981132075347
 11
385.186320754718
 21
456.81981132075305
  0
LINE
  8
_0-0_計極細
  6
CONTINUOUS
 62
    2
 10
372.18632075471794
 20
479.41981132075432
 11
372.18632075471794
 21
473.81981132075396
  0
LINE
  8
_0-0_計極細
  6
CONTINUOUS
 62
    2
 10
385.186320754718
 20
479.41981132075432
 11
385.186320754718
 21
473.81981132075396
  0
LINE
  8
_0-0_計極細
  6
CONTINUOUS
 62
    2
 10
372.18632075471794
 20
496.41981132075438
 11
372.18632075471794
 21
490.81981132075492
  0
LINE
  8
_0-0_計極細
  6
CONTINUOUS
 62
    2
 10
385.186320754718
 20
496.41981132075438
 11
385.186320754718
 21
490.81981132075492
  0
LINE
  8
_0-0_計極細
  6
CONTINUOUS
 62
    2
 10
372.18632075471794
 20
371.41981132075438
 11
372.18632075471794
 21
377.41981132075432
  0
LINE
  8
_0-0_計極細
  6
CONTINUOUS
 62
    2
 10
385.186320754718
 20
371.41981132075438
 11
385.186320754718
 21
377.41981132075432
  0
LINE
  8
_0-0_計極細
  6
CENTER1
 62
    2
 10
378.68632075471794
 20
551.3705307452168
 11
378.68632075471794
 21
334.8619875797425
  0
LINE
  8
_0-0_計極細
  6
CONTINUOUS
 62
    2
 10
372.18632075471794
 20
354.01981132075377
 11
372.18632075471794
 21
360.01981132075377
  0
LINE
  8
_0-0_計極細
  6
CONTINUOUS
 62
    2
 10
385.186320754718
 20
354.01981132075377
 11
385.186320754718
 21
360.01981132075377
  0
LINE
  8
_0-1_計細線
  6
CONTINUOUS
 62
    3
 10
371.686320754718
 20
377.41981132075432
 11
571.68632075471794
 21
377.41981132075432
  0
LINE
  8
_0-1_計細線
  6
CONTINUOUS
 62
    3
 10
371.686320754718
 20
388.81981132075487
 11
571.68632075471794
 21
388.81981132075487
  0
LINE
  8
_0-1_計細線
  6
CONTINUOUS
 62
    3
 10
371.686320754718
 20
377.41981132075432
 11
371.686320754718
 21
388.81981132075487
  0
LINE
  8
_0-1_計細線
  6
CONTINUOUS
 62
    3
 10
571.68632075471794
 20
377.41981132075432
 11
571.68632075471794
 21
388.81981132075487
  0
LINE
  8
_0-0_計極細
  6
CONTINUOUS
 62
    2
 10
371.686320754718
 20
385.6198113207551
 11
571.68632075471794
 21
385.6198113207551
  0
LINE
  8
_0-0_計極細
  6
CONTINUOUS
 62
    2
 10
371.686320754718
 20
380.6198113207551
 11
571.68632075471794
 21
380.6198113207551
  0
LINE
  8
_0-1_計細線
  6
CONTINUOUS
 62
    3
 10
371.686320754718
 20
394.41981132075523
 11
571.68632075471794
 21
394.41981132075523
  0
LINE
  8
_0-1_計細線
  6
CONTINUOUS
 62
    3
 10
371.686320754718
 20
405.81981132075583
 11
571.68632075471794
 21
405.81981132075583
  0
LINE
  8
_0-1_計細線
  6
CONTINUOUS
 62
    3
 10
371.686320754718
 20
394.41981132075523
 11
371.686320754718
 21
405.81981132075583
  0
LINE
  8
_0-1_計細線
  6
CONTINUOUS
 62
    3
 10
571.68632075471794
 20
394.41981132075523
 11
571.68632075471794
 21
405.81981132075583
  0
LINE
  8
_0-0_計極細
  6
CONTINUOUS
 62
    2
 10
371.686320754718
 20
402.61981132075505
 11
571.68632075471794
 21
402.61981132075505
  0
LINE
  8
_0-0_計極細
  6
CONTINUOUS
 62
    2
 10
371.686320754718
 20
397.61981132075505
 11
571.68632075471794
 21
397.61981132075505
  0
LINE
  8
_0-1_計細線
  6
CONTINUOUS
 62
    3
 10
371.686320754718
 20
411.41981132075614
 11
571.68632075471794
 21
411.41981132075614
  0
LINE
  8
_0-1_計細線
  6
CONTINUOUS
 62
    3
 10
371.686320754718
 20
422.81981132075668
 11
571.68632075471794
 21
422.81981132075668
  0
LINE
  8
_0-1_計細線
  6
CONTINUOUS
 62
    3
 10
371.686320754718
 20
411.41981132075614
 11
371.686320754718
 21
422.81981132075668
  0
LINE
  8
_0-1_計細線
  6
CONTINUOUS
 62
    3
 10
571.68632075471794
 20
411.41981132075614
 11
571.68632075471794
 21
422.81981132075668
  0
LINE
  8
_0-0_計極細
  6
CONTINUOUS
 62
    2
 10
371.686320754718
 20
419.61981132075601
 11
571.68632075471794
 21
419.61981132075601
  0
LINE
  8
_0-0_計極細
  6
CONTINUOUS
 62
    2
 10
371.686320754718
 20
414.61981132075601
 11
571.68632075471794
 21
414.61981132075601
  0
LINE
  8
_0-0_計極細
  6
CENTER2
 62
    2
 10
355.79772121769872
 20
442.6198113207542
 11
587.73105455107589
 21
442.6198113207542
  0
LINE
  8
_0-1_計細線
  6
CONTINUOUS
 62
    3
 10
371.686320754718
 20
507.81981132075401
 11
571.68632075471794
 21
507.81981132075401
  0
LINE
  8
_0-1_計細線
  6
CONTINUOUS
 62
    3
 10
371.686320754718
 20
496.41981132075341
 11
571.68632075471794
 21
496.41981132075341
  0
LINE
  8
_0-1_計細線
  6
CONTINUOUS
 62
    3
 10
371.686320754718
 20
507.81981132075401
 11
371.686320754718
 21
496.41981132075341
  0
LINE
  8
_0-1_計細線
  6
CONTINUOUS
 62
    3
 10
571.68632075471794
 20
507.81981132075401
 11
571.68632075471794
 21
496.41981132075341
  0
LINE
  8
_0-0_計極細
  6
CONTINUOUS
 62
    2
 10
371.686320754718
 20
499.61981132075323
 11
571.68632075471794
 21
499.61981132075323
  0
LINE
  8
_0-0_計極細
  6
CONTINUOUS
 62
    2
 10
371.686320754718
 20
504.61981132075323
 11
571.68632075471794
 21
504.61981132075323
  0
LINE
  8
_0-1_計細線
  6
CONTINUOUS
 62
    3
 10
371.686320754718
 20
525.2198113207545
 11
571.68632075471794
 21
525.2198113207545
  0
LINE
  8
_0-1_計細線
  6
CONTINUOUS
 62
    3
 10
371.686320754718
 20
513.81981132075396
 11
571.68632075471794
 21
513.81981132075396
  0
LINE
  8
_0-1_計細線
  6
CONTINUOUS
 62
    3
 10
371.686320754718
 20
525.2198113207545
 11
371.686320754718
 21
513.81981132075396
  0
LINE
  8
_0-1_計細線
  6
CONTINUOUS
 62
    3
 10
571.68632075471794
 20
525.2198113207545
 11
571.68632075471794
 21
513.81981132075396
  0
LINE
  8
_0-0_計極細
  6
CONTINUOUS
 62
    2
 10
371.686320754718
 20
517.01981132075377
 11
571.68632075471794
 21
517.01981132075377
  0
LINE
  8
_0-0_計極細
  6
CONTINUOUS
 62
    2
 10
371.686320754718
 20
522.01981132075377
 11
571.68632075471794
 21
522.01981132075377
  0
LINE
  8
_0-1_計細線
  6
CONTINUOUS
 62
    3
 10
371.686320754718
 20
542.61981132075425
 11
571.68632075471794
 21
542.61981132075425
  0
LINE
  8
_0-1_計細線
  6
CONTINUOUS
 62
    3
 10
371.686320754718
 20
531.21981132075359
 11
571.68632075471794
 21
531.21981132075359
  0
LINE
  8
_0-1_計細線
  6
CONTINUOUS
 62
    3
 10
371.686320754718
 20
542.61981132075425
 11
371.686320754718
 21
531.21981132075359
  0
LINE
  8
_0-1_計細線
  6
CONTINUOUS
 62
    3
 10
571.68632075471794
 20
542.61981132075425
 11
571.68632075471794
 21
531.21981132075359
  0
LINE
  8
_0-0_計極細
  6
CONTINUOUS
 62
    2
 10
371.686320754718
 20
534.41981132075432
 11
571.68632075471794
 21
534.41981132075432
  0
LINE
  8
_0-0_計極細
  6
CONTINUOUS
 62
    2
 10
371.686320754718
 20
539.41981132075432
 11
571.68632075471794
 21
539.41981132075432
  0
LINE
  8
_0-1_計細線
  6
CONTINUOUS
 62
    3
 10
371.686320754718
 20
473.81981132075396
 11
571.68632075471794
 21
473.81981132075396
  0
LINE
  8
_0-1_計細線
  6
CONTINUOUS
 62
    3
 10
371.686320754718
 20
462.41981132075347
 11
571.68632075471794
 21
462.41981132075347
  0
LINE
  8
_0-1_計細線
  6
CONTINUOUS
 62
    3
 10
371.686320754718
 20
473.81981132075396
 11
371.686320754718
 21
462.41981132075347
  0
LINE
  8
_0-1_計細線
  6
CONTINUOUS
 62
    3
 10
571.68632075471794
 20
473.81981132075396
 11
571.68632075471794
 21
462.41981132075347
  0
LINE
  8
_0-0_計極細
  6
CONTINUOUS
 62
    2
 10
371.686320754718
 20
465.61981132075323
 11
571.68632075471794
 21
465.61981132075323
  0
LINE
  8
_0-0_計極細
  6
CONTINUOUS
 62
    2
 10
371.686320754718
 20
470.61981132075323
 11
571.68632075471794
 21
470.61981132075323
  0
LINE
  8
_0-1_計細線
  6
CONTINUOUS
 62
    3
 10
371.686320754718
 20
490.81981132075492
 11
571.68632075471794
 21
490.81981132075492
  0
LINE
  8
_0-1_計細線
  6
CONTINUOUS
 62
    3
 10
371.686320754718
 20
479.41981132075432
 11
571.68632075471794
 21
479.41981132075432
  0
LINE
  8
_0-1_計細線
  6
CONTINUOUS
 62
    3
 10
371.686320754718
 20
490.81981132075492
 11
371.686320754718
 21
479.41981132075432
  0
LINE
  8
_0-1_計細線
  6
CONTINUOUS
 62
    3
 10
571.68632075471794
 20
490.81981132075492
 11
571.68632075471794
 21
479.41981132075432
  0
LINE
  8
_0-0_計極細
  6
CONTINUOUS
 62
    2
 10
371.686320754718
 20
482.6198113207542
 11
571.68632075471794
 21
482.6198113207542
  0
LINE
  8
_0-0_計極細
  6
CONTINUOUS
 62
    2
 10
371.686320754718
 20
487.6198113207542
 11
571.68632075471794
 21
487.6198113207542
  0
LINE
  8
_0-1_計細線
  6
CONTINUOUS
 62
    3
 10
371.686320754718
 20
360.01981132075377
 11
571.68632075471794
 21
360.01981132075377
  0
LINE
  8
_0-1_計細線
  6
CONTINUOUS
 62
    3
 10
371.686320754718
 20
371.41981132075438
 11
571.68632075471794
 21
371.41981132075438
  0
LINE
  8
_0-1_計細線
  6
CONTINUOUS
 62
    3
 10
371.686320754718
 20
360.01981132075377
 11
371.686320754718
 21
371.41981132075438
  0
LINE
  8
_0-1_計細線
  6
CONTINUOUS
 62
    3
 10
571.68632075471794
 20
360.01981132075377
 11
571.68632075471794
 21
371.41981132075438
  0
LINE
  8
_0-0_計極細
  6
CONTINUOUS
 62
    2
 10
371.686320754718
 20
368.2198113207545
 11
571.68632075471794
 21
368.2198113207545
  0
LINE
  8
_0-0_計極細
  6
CONTINUOUS
 62
    2
 10
371.686320754718
 20
363.2198113207545
 11
571.68632075471794
 21
363.2198113207545
  0
LINE
  8
_0-1_計細線
  6
CONTINUOUS
 62
    3
 10
371.686320754718
 20
342.61981132075414
 11
571.68632075471794
 21
342.61981132075414
  0
LINE
  8
_0-1_計細線
  6
CONTINUOUS
 62
    3
 10
371.686320754718
 20
354.01981132075468
 11
571.68632075471794
 21
354.01981132075468
  0
LINE
  8
_0-1_計細線
  6
CONTINUOUS
 62
    3
 10
371.686320754718
 20
342.61981132075414
 11
371.686320754718
 21
354.01981132075468
  0
LINE
  8
_0-1_計細線
  6
CONTINUOUS
 62
    3
 10
571.68632075471794
 20
342.61981132075414
 11
571.68632075471794
 21
354.01981132075468
  0
LINE
  8
_0-0_計極細
  6
CONTINUOUS
 62
    2
 10
371.686320754718
 20
350.81981132075492
 11
571.68632075471794
 21
350.81981132075492
  0
LINE
  8
_0-0_計極細
  6
CONTINUOUS
 62
    2
 10
371.686320754718
 20
345.81981132075492
 11
571.68632075471794
 21
345.81981132075492
  0
LINE
  8
_0-1_計細線
  6
CONTINUOUS
 62
    3
 10
371.686320754718
 20
456.81981132075305
 11
571.68632075471794
 21
456.81981132075305
  0
LINE
  8
_0-1_計細線
  6
CONTINUOUS
 62
    3
 10
571.68632075471794
 20
456.81981132075305
 11
571.68632075471794
 21
445.4198113207525
  0
LINE
  8
_0-0_計極細
  6
CONTINUOUS
 62
    2
 10
371.686320754718
 20
448.61981132075329
 11
571.68632075471794
 21
448.61981132075329
  0
LINE
  8
_0-0_計極細
  6
CONTINUOUS
 62
    2
 10
371.686320754718
 20
453.61981132075329
 11
571.68632075471794
 21
453.61981132075329
  0
LINE
  8
_0-1_計細線
  6
CONTINUOUS
 62
    3
 10
371.686320754718
 20
445.4198113207525
 11
571.68632075471794
 21
445.4198113207525
  0
LINE
  8
_0-1_計細線
  6
CONTINUOUS
 62
    3
 10
371.686320754718
 20
456.81981132075305
 11
371.686320754718
 21
445.4198113207525
  0
LINE
  8
_0-1_計細線
  6
CONTINUOUS
 62
    3
 10
371.686320754718
 20
428.41981132075159
 11
571.68632075471794
 21
428.41981132075159
  0
LINE
  8
_0-1_計細線
  6
CONTINUOUS
 62
    3
 10
571.68632075471794
 20
439.81981132075219
 11
571.68632075471794
 21
428.41981132075159
  0
LINE
  8
_0-0_計極細
  6
CONTINUOUS
 62
    2
 10
371.686320754718
 20
431.61981132075232
 11
571.68632075471794
 21
431.61981132075232
  0
LINE
  8
_0-0_計極細
  6
CONTINUOUS
 62
    2
 10
371.686320754718
 20
436.61981132075232
 11
571.68632075471794
 21
436.61981132075232
  0
LINE
  8
_0-1_計細線
  6
CONTINUOUS
 62
    3
 10
371.686320754718
 20
439.81981132075219
 11
371.686320754718
 21
428.41981132075159
  0
LINE
  8
_0-1_計細線
  6
CONTINUOUS
 62
    3
 10
371.686320754718
 20
439.81981132075219
 11
571.68632075471794
 21
439.81981132075219
  0
LINE
  8
_0-0_計極細
  6
CONTINUOUS
 62
    2
 10
558.18632075471794
 20
388.81981132075487
 11
558.18632075471794
 21
394.41981132075523
  0
LINE
  8
_0-0_計極細
  6
CONTINUOUS
 62
    2
 10
571.18632075471794
 20
388.81981132075487
 11
571.18632075471794
 21
394.41981132075523
  0
LINE
  8
_0-0_計極細
  6
CONTINUOUS
 62
    2
 10
558.18632075471794
 20
405.81981132075583
 11
558.18632075471794
 21
411.41981132075614
  0
LINE
  8
_0-0_計極細
  6
CONTINUOUS
 62
    2
 10
571.18632075471794
 20
405.81981132075583
 11
571.18632075471794
 21
411.41981132075614
  0
LINE
  8
_0-0_計極細
  6
CONTINUOUS
 62
    2
 10
558.18632075471794
 20
428.41981132075159
 11
558.18632075471794
 21
422.81981132075214
  0
LINE
  8
_0-0_計極細
  6
CONTINUOUS
 62
    2
 10
571.18632075471794
 20
428.41981132075159
 11
571.18632075471794
 21
422.81981132075214
  0
LINE
  8
_0-0_計極細
  6
CONTINUOUS
 62
    2
 10
558.18632075471794
 20
445.4198113207525
 11
558.18632075471794
 21
439.81981132075219
  0
LINE
  8
_0-0_計極細
  6
CONTINUOUS
 62
    2
 10
571.18632075471794
 20
445.4198113207525
 11
571.18632075471794
 21
439.81981132075219
  0
LINE
  8
_0-0_計極細
  6
CONTINUOUS
 62
    2
 10
558.18632075471794
 20
513.81981132075396
 11
558.18632075471794
 21
507.81981132075401
  0
LINE
  8
_0-0_計極細
  6
CONTINUOUS
 62
    2
 10
571.18632075471794
 20
513.81981132075396
 11
571.18632075471794
 21
507.81981132075401
  0
LINE
  8
_0-0_計極細
  6
CONTINUOUS
 62
    2
 10
558.18632075471794
 20
531.21981132075359
 11
558.18632075471794
 21
525.21981132075359
  0
LINE
  8
_0-0_計極細
  6
CONTINUOUS
 62
    2
 10
571.18632075471794
 20
531.21981132075359
 11
571.18632075471794
 21
525.21981132075359
  0
LINE
  8
_0-0_計極細
  6
CONTINUOUS
 62
    2
 10
558.18632075471794
 20
462.41981132075347
 11
558.18632075471794
 21
456.81981132075305
  0
LINE
  8
_0-0_計極細
  6
CONTINUOUS
 62
    2
 10
571.18632075471794
 20
462.41981132075347
 11
571.18632075471794
 21
456.81981132075305
  0
LINE
  8
_0-0_計極細
  6
CONTINUOUS
 62
    2
 10
558.18632075471794
 20
479.41981132075432
 11
558.18632075471794
 21
473.81981132075396
  0
LINE
  8
_0-0_計極細
  6
CONTINUOUS
 62
    2
 10
571.18632075471794
 20
479.41981132075432
 11
571.18632075471794
 21
473.81981132075396
  0
LINE
  8
_0-0_計極細
  6
CONTINUOUS
 62
    2
 10
558.18632075471794
 20
496.41981132075438
 11
558.18632075471794
 21
490.81981132075492
  0
LINE
  8
_0-0_計極細
  6
CONTINUOUS
 62
    2
 10
571.18632075471794
 20
496.41981132075438
 11
571.18632075471794
 21
490.81981132075492
  0
LINE
  8
_0-0_計極細
  6
CONTINUOUS
 62
    2
 10
558.18632075471794
 20
371.41981132075438
 11
558.18632075471794
 21
377.41981132075432
  0
LINE
  8
_0-0_計極細
  6
CONTINUOUS
 62
    2
 10
571.18632075471794
 20
371.41981132075438
 11
571.18632075471794
 21
377.41981132075432
  0
LINE
  8
_0-0_計極細
  6
CENTER1
 62
    2
 10
564.68632075471794
 20
551.3705307452168
 11
564.68632075471794
 21
334.8619875797425
  0
LINE
  8
_0-0_計極細
  6
CONTINUOUS
 62
    2
 10
558.18632075471794
 20
354.01981132075377
 11
558.18632075471794
 21
360.01981132075377
  0
LINE
  8
_0-0_計極細
  6
CONTINUOUS
 62
    2
 10
571.18632075471794
 20
354.01981132075377
 11
571.18632075471794
 21
360.01981132075377
  0
LINE
  8
_0-1_計細線
  6
CONTINUOUS
 62
    3
 10
366.686320754718
 20
547.61981132075323
 11
366.686320754718
 21
337.61981132075505
  0
LINE
  8
_0-1_計細線
  6
CONTINUOUS
 62
    3
 10
366.686320754718
 20
337.61981132075505
 11
576.68632075471794
 21
337.61981132075505
  0
LINE
  8
_0-1_計細線
  6
CONTINUOUS
 62
    3
 10
576.68632075471794
 20
337.61981132075505
 11
576.68632075471794
 21
547.61981132075323
  0
LINE
  8
_0-1_計細線
  6
CONTINUOUS
 62
    3
 10
576.68632075471794
 20
547.61981132075323
 11
366.686320754718
 21
547.61981132075323
  0
LINE
  8
_0-1_計細線
  6
CONTINUOUS
 62
    3
 10
573.68632075471794
 20
340.6198113207551
 11
573.68632075471794
 21
544.61981132075323
  0
LINE
  8
_0-1_計細線
  6
CONTINUOUS
 62
    3
 10
573.68632075471794
 20
544.61981132075323
 11
369.68632075471794
 21
544.61981132075323
  0
LINE
  8
_0-1_計細線
  6
CONTINUOUS
 62
    3
 10
369.68632075471794
 20
544.61981132075323
 11
369.68632075471794
 21
340.6198113207551
  0
LINE
  8
_0-1_計細線
  6
CONTINUOUS
 62
    3
 10
369.68632075471794
 20
340.6198113207551
 11
573.68632075471794
 21
340.6198113207551
  0
LINE
  8
_0-0_計極細
  6
CONTINUOUS
 62
    2
 10
469.186320754718
 20
388.81981132075487
 11
469.186320754718
 21
394.41981132075523
  0
LINE
  8
_0-0_計極細
  6
CONTINUOUS
 62
    2
 10
482.18632075471794
 20
388.81981132075487
 11
482.18632075471794
 21
394.41981132075523
  0
LINE
  8
_0-0_計極細
  6
CONTINUOUS
 62
    2
 10
469.186320754718
 20
405.81981132075583
 11
469.186320754718
 21
411.41981132075614
  0
LINE
  8
_0-0_計極細
  6
CONTINUOUS
 62
    2
 10
482.18632075471794
 20
405.81981132075583
 11
482.18632075471794
 21
411.41981132075614
  0
LINE
  8
_0-0_計極細
  6
CONTINUOUS
 62
    2
 10
469.186320754718
 20
428.41981132075159
 11
469.186320754718
 21
422.81981132075214
  0
LINE
  8
_0-0_計極細
  6
CONTINUOUS
 62
    2
 10
482.18632075471794
 20
428.41981132075159
 11
482.18632075471794
 21
422.81981132075214
  0
LINE
  8
_0-0_計極細
  6
CONTINUOUS
 62
    2
 10
469.186320754718
 20
513.81981132075396
 11
469.186320754718
 21
507.81981132075401
  0
LINE
  8
_0-0_計極細
  6
CONTINUOUS
 62
    2
 10
482.18632075471794
 20
513.81981132075396
 11
482.18632075471794
 21
507.81981132075401
  0
LINE
  8
_0-0_計極細
  6
CONTINUOUS
 62
    2
 10
469.186320754718
 20
531.21981132075359
 11
469.186320754718
 21
525.21981132075359
  0
LINE
  8
_0-0_計極細
  6
CONTINUOUS
 62
    2
 10
482.18632075471794
 20
531.21981132075359
 11
482.18632075471794
 21
525.21981132075359
  0
LINE
  8
_0-0_計極細
  6
CONTINUOUS
 62
    2
 10
469.186320754718
 20
462.41981132075347
 11
469.186320754718
 21
456.81981132075305
  0
LINE
  8
_0-0_計極細
  6
CONTINUOUS
 62
    2
 10
482.18632075471794
 20
462.41981132075347
 11
482.18632075471794
 21
456.81981132075305
  0
LINE
  8
_0-0_計極細
  6
CONTINUOUS
 62
    2
 10
469.186320754718
 20
479.41981132075432
 11
469.186320754718
 21
473.81981132075396
  0
LINE
  8
_0-0_計極細
  6
CONTINUOUS
 62
    2
 10
482.18632075471794
 20
479.41981132075432
 11
482.18632075471794
 21
473.81981132075396
  0
LINE
  8
_0-0_計極細
  6
CONTINUOUS
 62
    2
 10
469.186320754718
 20
496.41981132075438
 11
469.186320754718
 21
490.81981132075492
  0
LINE
  8
_0-0_計極細
  6
CONTINUOUS
 62
    2
 10
482.18632075471794
 20
496.41981132075438
 11
482.18632075471794
 21
490.81981132075492
  0
LINE
  8
_0-0_計極細
  6
CONTINUOUS
 62
    2
 10
469.186320754718
 20
371.41981132075438
 11
469.186320754718
 21
377.41981132075432
  0
LINE
  8
_0-0_計極細
  6
CONTINUOUS
 62
    2
 10
482.18632075471794
 20
371.41981132075438
 11
482.18632075471794
 21
377.41981132075432
  0
LINE
  8
_0-0_計極細
  6
CENTER1
 62
    2
 10
475.68632075471794
 20
551.3705307452168
 11
475.68632075471794
 21
334.8619875797425
  0
LINE
  8
_0-0_計極細
  6
CONTINUOUS
 62
    2
 10
469.186320754718
 20
354.01981132075377
 11
469.186320754718
 21
360.01981132075377
  0
LINE
  8
_0-0_計極細
  6
CONTINUOUS
 62
    2
 10
482.18632075471794
 20
354.01981132075377
 11
482.18632075471794
 21
360.01981132075377
  0
LINE
  8
_0-0_計極細
  6
CONTINUOUS
 62
    2
 10
469.186320754718
 20
445.4198113207525
 11
469.186320754718
 21
444.96981132075456
  0
LINE
  8
_0-0_計極細
  6
CONTINUOUS
 62
    2
 10
469.186320754718
 20
440.26981132075468
 11
469.186320754718
 21
439.81981132075219
  0
LINE
  8
_0-0_計極細
  6
CONTINUOUS
 62
    2
 10
482.18632075471794
 20
445.4198113207525
 11
482.18632075471794
 21
444.96981132075456
  0
LINE
  8
_0-0_計極細
  6
CONTINUOUS
 62
    2
 10
482.18632075471794
 20
440.26981132075468
 11
482.18632075471794
 21
439.81981132075219
  0
LINE
  8
_0-0_計極細
  6
CONTINUOUS
 62
    2
 10
420.68632075471794
 20
388.81981132075487
 11
420.68632075471794
 21
394.41981132075523
  0
LINE
  8
_0-0_計極細
  6
CONTINUOUS
 62
    2
 10
433.68632075471794
 20
388.81981132075487
 11
433.68632075471794
 21
394.41981132075523
  0
LINE
  8
_0-0_計極細
  6
CONTINUOUS
 62
    2
 10
420.68632075471794
 20
405.81981132075583
 11
420.68632075471794
 21
411.41981132075614
  0
LINE
  8
_0-0_計極細
  6
CONTINUOUS
 62
    2
 10
433.68632075471794
 20
405.81981132075583
 11
433.68632075471794
 21
411.41981132075614
  0
LINE
  8
_0-0_計極細
  6
CONTINUOUS
 62
    2
 10
420.68632075471794
 20
428.41981132075159
 11
420.68632075471794
 21
422.81981132075214
  0
LINE
  8
_0-0_計極細
  6
CONTINUOUS
 62
    2
 10
433.68632075471794
 20
428.41981132075159
 11
433.68632075471794
 21
422.81981132075214
  0
LINE
  8
_0-0_計極細
  6
CONTINUOUS
 62
    2
 10
420.68632075471794
 20
445.4198113207525
 11
420.68632075471794
 21
439.81981132075219
  0
LINE
  8
_0-0_計極細
  6
CONTINUOUS
 62
    2
 10
433.68632075471794
 20
445.4198113207525
 11
433.68632075471794
 21
439.81981132075219
  0
LINE
  8
_0-0_計極細
  6
CONTINUOUS
 62
    2
 10
420.68632075471794
 20
513.81981132075396
 11
420.68632075471794
 21
507.81981132075401
  0
LINE
  8
_0-0_計極細
  6
CONTINUOUS
 62
    2
 10
433.68632075471794
 20
513.81981132075396
 11
433.68632075471794
 21
507.81981132075401
  0
LINE
  8
_0-0_計極細
  6
CONTINUOUS
 62
    2
 10
420.68632075471794
 20
531.21981132075359
 11
420.68632075471794
 21
525.21981132075359
  0
LINE
  8
_0-0_計極細
  6
CONTINUOUS
 62
    2
 10
433.68632075471794
 20
531.21981132075359
 11
433.68632075471794
 21
525.21981132075359
  0
LINE
  8
_0-0_計極細
  6
CONTINUOUS
 62
    2
 10
420.68632075471794
 20
462.41981132075347
 11
420.68632075471794
 21
456.81981132075305
  0
LINE
  8
_0-0_計極細
  6
CONTINUOUS
 62
    2
 10
433.68632075471794
 20
462.41981132075347
 11
433.68632075471794
 21
456.81981132075305
  0
LINE
  8
_0-0_計極細
  6
CONTINUOUS
 62
    2
 10
420.68632075471794
 20
479.41981132075432
 11
420.68632075471794
 21
473.81981132075396
  0
LINE
  8
_0-0_計極細
  6
CONTINUOUS
 62
    2
 10
433.68632075471794
 20
479.41981132075432
 11
433.68632075471794
 21
473.81981132075396
  0
LINE
  8
_0-0_計極細
  6
CONTINUOUS
 62
    2
 10
420.68632075471794
 20
496.41981132075438
 11
420.68632075471794
 21
490.81981132075492
  0
LINE
  8
_0-0_計極細
  6
CONTINUOUS
 62
    2
 10
433.68632075471794
 20
496.41981132075438
 11
433.68632075471794
 21
490.81981132075492
  0
LINE
  8
_0-0_計極細
  6
CONTINUOUS
 62
    2
 10
420.68632075471794
 20
371.41981132075438
 11
420.68632075471794
 21
377.41981132075432
  0
LINE
  8
_0-0_計極細
  6
CONTINUOUS
 62
    2
 10
433.68632075471794
 20
371.41981132075438
 11
433.68632075471794
 21
377.41981132075432
  0
LINE
  8
_0-0_計極細
  6
CENTER1
 62
    2
 10
427.18632075471794
 20
551.3705307452168
 11
427.18632075471794
 21
334.8619875797425
  0
LINE
  8
_0-0_計極細
  6
CONTINUOUS
 62
    2
 10
420.68632075471794
 20
354.01981132075377
 11
420.68632075471794
 21
360.01981132075377
  0
LINE
  8
_0-0_計極細
  6
CONTINUOUS
 62
    2
 10
433.68632075471794
 20
354.01981132075377
 11
433.68632075471794
 21
360.01981132075377
  0
LINE
  8
_0-0_計極細
  6
CONTINUOUS
 62
    2
 10
509.68632075471794
 20
388.81981132075487
 11
509.68632075471794
 21
394.41981132075523
  0
LINE
  8
_0-0_計極細
  6
CONTINUOUS
 62
    2
 10
522.68632075471805
 20
388.81981132075487
 11
522.68632075471805
 21
394.41981132075523
  0
LINE
  8
_0-0_計極細
  6
CONTINUOUS
 62
    2
 10
509.68632075471794
 20
405.81981132075583
 11
509.68632075471794
 21
411.41981132075614
  0
LINE
  8
_0-0_計極細
  6
CONTINUOUS
 62
    2
 10
522.68632075471805
 20
405.81981132075583
 11
522.68632075471805
 21
411.41981132075614
  0
LINE
  8
_0-0_計極細
  6
CONTINUOUS
 62
    2
 10
509.68632075471794
 20
428.41981132075159
 11
509.68632075471794
 21
422.81981132075214
  0
LINE
  8
_0-0_計極細
  6
CONTINUOUS
 62
    2
 10
522.68632075471805
 20
428.41981132075159
 11
522.68632075471805
 21
422.81981132075214
  0
LINE
  8
_0-0_計極細
  6
CONTINUOUS
 62
    2
 10
509.68632075471794
 20
445.4198113207525
 11
509.68632075471794
 21
439.81981132075219
  0
LINE
  8
_0-0_計極細
  6
CONTINUOUS
 62
    2
 10
522.68632075471805
 20
445.4198113207525
 11
522.68632075471805
 21
439.81981132075219
  0
LINE
  8
_0-0_計極細
  6
CONTINUOUS
 62
    2
 10
509.68632075471794
 20
513.81981132075396
 11
509.68632075471794
 21
507.81981132075401
  0
LINE
  8
_0-0_計極細
  6
CONTINUOUS
 62
    2
 10
522.68632075471805
 20
513.81981132075396
 11
522.68632075471805
 21
507.81981132075401
  0
LINE
  8
_0-0_計極細
  6
CONTINUOUS
 62
    2
 10
509.68632075471794
 20
531.21981132075359
 11
509.68632075471794
 21
525.21981132075359
  0
LINE
  8
_0-0_計極細
  6
CONTINUOUS
 62
    2
 10
522.68632075471805
 20
531.21981132075359
 11
522.68632075471805
 21
525.21981132075359
  0
LINE
  8
_0-0_計極細
  6
CONTINUOUS
 62
    2
 10
509.68632075471794
 20
462.41981132075347
 11
509.68632075471794
 21
456.81981132075305
  0
LINE
  8
_0-0_計極細
  6
CONTINUOUS
 62
    2
 10
522.68632075471805
 20
462.41981132075347
 11
522.68632075471805
 21
456.81981132075305
  0
LINE
  8
_0-0_計極細
  6
CONTINUOUS
 62
    2
 10
509.68632075471794
 20
479.41981132075432
 11
509.68632075471794
 21
473.81981132075396
  0
LINE
  8
_0-0_計極細
  6
CONTINUOUS
 62
    2
 10
522.68632075471805
 20
479.41981132075432
 11
522.68632075471805
 21
473.81981132075396
  0
LINE
  8
_0-0_計極細
  6
CONTINUOUS
 62
    2
 10
509.68632075471794
 20
496.41981132075438
 11
509.68632075471794
 21
490.81981132075492
  0
LINE
  8
_0-0_計極細
  6
CONTINUOUS
 62
    2
 10
522.68632075471805
 20
496.41981132075438
 11
522.68632075471805
 21
490.81981132075492
  0
LINE
  8
_0-0_計極細
  6
CONTINUOUS
 62
    2
 10
509.68632075471794
 20
371.41981132075438
 11
509.68632075471794
 21
377.41981132075432
  0
LINE
  8
_0-0_計極細
  6
CONTINUOUS
 62
    2
 10
522.68632075471805
 20
371.41981132075438
 11
522.68632075471805
 21
377.41981132075432
  0
LINE
  8
_0-0_計極細
  6
CENTER1
 62
    2
 10
516.18632075471794
 20
551.3705307452168
 11
516.18632075471794
 21
334.8619875797425
  0
LINE
  8
_0-0_計極細
  6
CONTINUOUS
 62
    2
 10
509.68632075471794
 20
354.01981132075377
 11
509.68632075471794
 21
360.01981132075377
  0
LINE
  8
_0-0_計極細
  6
CONTINUOUS
 62
    2
 10
522.68632075471805
 20
354.01981132075377
 11
522.68632075471805
 21
360.01981132075377
  0
LINE
  8
_0-5_寸法線
  6
CONTINUOUS
 62
    7
 10
366.686320754718
 20
557.61981132075323
 11
366.686320754718
 21
707.61981132075323
  0
LINE
  8
_0-5_寸法線
  6
CONTINUOUS
 62
    7
 10
366.686320754718
 20
702.61981132075323
 11
376.34557901760866
 21
705.20800177177853
  0
LINE
  8
_0-5_寸法線
  6
CONTINUOUS
 62
    7
 10
366.686320754718
 20
702.61981132075323
 11
376.34557901760866
 21
700.03162086972804
  0
LINE
  8
_0-5_寸法線
  6
CONTINUOUS
 62
    7
 10
576.68632075471805
 20
557.61981132075323
 11
576.68632075471896
 21
707.61981132075323
  0
LINE
  8
_0-5_寸法線
  6
CONTINUOUS
 62
    7
 10
576.68632075471896
 20
702.61981132075323
 11
567.02706249182813
 21
700.03162086972804
  0
LINE
  8
_0-5_寸法線
  6
CONTINUOUS
 62
    7
 10
576.68632075471896
 20
702.61981132075323
 11
567.02706249182813
 21
705.20800177177853
  0
LINE
  8
_0-5_寸法線
  6
CONTINUOUS
 62
    7
 10
366.686320754718
 20
702.61981132075323
 11
576.68632075471896
 21
702.61981132075323
  0
TEXT
  8
_0-5_寸法線
 62
    7
 10
460.436320754718
 20
702.61981132075323
 40
15
 41
1
 50
0
  1
210
  0
LINE
  8
_0-5_寸法線
  6
CONTINUOUS
 62
    7
 10
571.68632075471896
 20
557.61981132075323
 11
571.68632075471896
 21
637.61981132075323
  0
LINE
  8
_0-5_寸法線
  6
CONTINUOUS
 62
    7
 10
571.68632075471896
 20
632.61981132075323
 11
562.02706249182813
 21
630.03162086972804
  0
LINE
  8
_0-5_寸法線
  6
CONTINUOUS
 62
    7
 10
571.68632075471896
 20
632.61981132075323
 11
562.02706249182813
 21
635.20800177177853
  0
LINE
  8
_0-5_寸法線
  6
CONTINUOUS
 62
    7
 10
371.68632075471805
 20
557.61981132075323
 11
371.68632075471891
 21
637.61981132075323
  0
LINE
  8
_0-5_寸法線
  6
CONTINUOUS
 62
    7
 10
371.68632075471885
 20
632.61981132075323
 11
381.34557901760951
 21
635.20800177177853
  0
LINE
  8
_0-5_寸法線
  6
CONTINUOUS
 62
    7
 10
371.68632075471885
 20
632.61981132075323
 11
381.34557901760951
 21
630.03162086972804
  0
LINE
  8
_0-5_寸法線
  6
CONTINUOUS
 62
    7
 10
571.68632075471896
 20
632.61981132075323
 11
371.68632075471885
 21
632.61981132075323
  0
TEXT
  8
_0-5_寸法線
 62
    7
 10
460.43632075471891
 20
632.61981132075323
 40
15
 41
1
 50
0
  1
200
  0
LINE
  8
_0-5_寸法線
  6
CONTINUOUS
 62
    7
 10
366.686320754718
 20
557.61981132075323
 11
366.686320754718
 21
672.61981132075323
  0
LINE
  8
_0-5_寸法線
  6
CONTINUOUS
 62
    7
 10
366.686320754718
 20
667.61981132075323
 11
357.02706249182722
 21
665.03162086972804
  0
LINE
  8
_0-5_寸法線
  6
CONTINUOUS
 62
    7
 10
366.686320754718
 20
667.61981132075323
 11
357.02706249182734
 21
670.20800177177853
  0
LINE
  8
_0-5_寸法線
  6
CONTINUOUS
 62
    7
 10
369.68632075471794
 20
557.61981132075323
 11
369.68632075471794
 21
672.61981132075323
  0
LINE
  8
_0-5_寸法線
  6
CONTINUOUS
 62
    7
 10
341.686320754718
 20
667.61981132075323
 11
369.68632075471794
 21
667.61981132075323
  0
TEXT
  8
_0-5_寸法線
 62
    7
 10
343.49743051657094
 20
667.61981132075323
 40
15
 41
1
 50
0
  1
3
  0
LINE
  8
_0-5_寸法線
  6
CONTINUOUS
 62
    7
 10
369.68632075471794
 20
667.61981132075323
 11
379.34557901760866
 21
670.20800177177853
  0
LINE
  8
_0-5_寸法線
  6
CONTINUOUS
 62
    7
 10
369.68632075471794
 20
667.61981132075323
 11
379.3455790176086
 21
665.03162086972793
  0
LINE
  8
_0-5_寸法線
  6
CONTINUOUS
 62
    7
 10
573.68632075471805
 20
557.61981132075323
 11
573.68632075471885
 21
672.61981132075323
  0
LINE
  8
_0-5_寸法線
  6
CONTINUOUS
 62
    7
 10
573.68632075471885
 20
667.61981132075323
 11
564.02706249182813
 21
665.03162086972804
  0
LINE
  8
_0-5_寸法線
  6
CONTINUOUS
 62
    7
 10
573.68632075471885
 20
667.61981132075323
 11
564.02706249182813
 21
670.20800177177853
  0
LINE
  8
_0-5_寸法線
  6
CONTINUOUS
 62
    7
 10
369.68632075471794
 20
667.61981132075323
 11
573.68632075471885
 21
667.61981132075323
  0
TEXT
  8
_0-5_寸法線
 62
    7
 10
460.43632075471891
 20
667.61981132075323
 40
15
 41
1
 50
0
  1
204
  0
LINE
  8
_0-5_寸法線
  6
CONTINUOUS
 62
    7
 10
576.68632075471805
 20
557.61981132075323
 11
576.68632075471896
 21
672.61981132075323
  0
LINE
  8
_0-5_寸法線
  6
CONTINUOUS
 62
    7
 10
576.68632075471896
 20
667.61981132075323
 11
586.34557901760957
 21
670.20800177177853
  0
LINE
  8
_0-5_寸法線
  6
CONTINUOUS
 62
    7
 10
576.68632075471896
 20
667.61981132075323
 11
586.34557901760957
 21
665.03162086972793
  0
LINE
  8
_0-5_寸法線
  6
CONTINUOUS
 62
    7
 10
573.68632075471885
 20
667.61981132075323
 11
601.68632075471896
 21
667.61981132075323
  0
TEXT
  8
_0-5_寸法線
 62
    7
 10
592.95792579959061
 20
667.61981132075323
 40
15
 41
1
 50
0
  1
3
  0
LINE
  8
_0-5_寸法線
  6
CONTINUOUS
 62
    7
 10
356.686320754718
 20
337.61981132075471
 11
276.68632075471794
 21
337.61981132075505
  0
LINE
  8
_0-5_寸法線
  6
CONTINUOUS
 62
    7
 10
281.68632075471794
 20
337.61981132075505
 11
279.09813030369276
 21
347.27906958364571
  0
LINE
  8
_0-5_寸法線
  6
CONTINUOUS
 62
    7
 10
281.68632075471794
 20
337.61981132075505
 11
284.27451120574318
 21
347.27906958364571
  0
LINE
  8
_0-5_寸法線
  6
CONTINUOUS
 62
    7
 10
356.686320754718
 20
547.61981132075323
 11
276.68632075471794
 21
547.61981132075368
  0
LINE
  8
_0-5_寸法線
  6
CONTINUOUS
 62
    7
 10
281.68632075471794
 20
547.61981132075368
 11
284.27451120574318
 21
537.96055305786297
  0
LINE
  8
_0-5_寸法線
  6
CONTINUOUS
 62
    7
 10
281.68632075471794
 20
547.61981132075368
 11
279.09813030369276
 21
537.96055305786297
  0
LINE
  8
_0-5_寸法線
  6
CONTINUOUS
 62
    7
 10
281.68632075471794
 20
337.61981132075505
 11
281.68632075471794
 21
547.61981132075368
  0
TEXT
  8
_0-5_寸法線
 62
    7
 10
281.68632075471794
 20
431.3698113207542
 40
15
 41
1
 50
90
  1
210
  0
LINE
  8
_0-5_寸法線
  6
CONTINUOUS
 62
    7
 10
356.686320754718
 20
337.61981132075471
 11
311.68632075471794
 21
337.6198113207551
  0
LINE
  8
_0-5_寸法線
  6
CONTINUOUS
 62
    7
 10
316.68632075471794
 20
337.61981132075505
 11
319.27451120574318
 21
327.96055305786433
  0
LINE
  8
_0-5_寸法線
  6
CONTINUOUS
 62
    7
 10
316.68632075471794
 20
337.61981132075505
 11
314.0981303036927
 21
327.96055305786439
  0
LINE
  8
_0-5_寸法線
  6
CONTINUOUS
 62
    7
 10
356.686320754718
 20
340.61981132075471
 11
311.68632075471794
 21
340.6198113207551
  0
CIRCLE
  8
_0-5_寸法線
  6
CONTINUOUS
 62
    1
 10
316.68632075471794
 20
340.6198113207551
 40
1.5000000000000002
  0
LINE
  8
_0-5_寸法線
  6
CONTINUOUS
 62
    7
 10
316.68632075471794
 20
312.61981132075505
 11
316.68632075471794
 21
340.6198113207551
  0
TEXT
  8
_0-5_寸法線
 62
    7
 10
316.68632075471794
 20
315.9786921501526
 40
15
 41
1
 50
90
  1
3
  0
LINE
  8
_0-5_寸法線
  6
CONTINUOUS
 62
    7
 10
356.686320754718
 20
342.61981132075425
 11
311.68632075471794
 21
342.61981132075471
  0
LINE
  8
_0-5_寸法線
  6
CONTINUOUS
 62
    7
 10
316.68632075471794
 20
340.6198113207551
 11
316.68632075471794
 21
342.61981132075459
  0
TEXT
  8
_0-5_寸法線
 62
    7
 10
334.11358617694754
 20
345.77247163128953
 40
15
 41
1
 50
90
  1
2
  0
LINE
  8
_0-5_寸法線
  6
CONTINUOUS
 62
    7
 10
316.68632075471794
 20
342.61981132075459
 11
314.09813030369276
 21
352.27906958364531
  0
LINE
  8
_0-5_寸法線
  6
CONTINUOUS
 62
    7
 10
316.68632075471794
 20
342.61981132075459
 11
319.27451120574318
 21
352.27906958364531
  0
LINE
  8
_0-5_寸法線
  6
CONTINUOUS
 62
    7
 10
356.686320754718
 20
542.61981132075425
 11
311.68632075471794
 21
542.61981132075459
  0
LINE
  8
_0-5_寸法線
  6
CONTINUOUS
 62
    7
 10
316.68632075471794
 20
542.61981132075459
 11
319.27451120574318
 21
532.96055305786388
  0
LINE
  8
_0-5_寸法線
  6
CONTINUOUS
 62
    7
 10
316.68632075471794
 20
542.61981132075459
 11
314.0981303036927
 21
532.96055305786388
  0
LINE
  8
_0-5_寸法線
  6
CONTINUOUS
 62
    7
 10
316.68632075471794
 20
342.61981132075459
 11
316.68632075471794
 21
542.61981132075459
  0
TEXT
  8
_0-5_寸法線
 62
    7
 10
316.68632075471794
 20
431.36981132075459
 40
15
 41
1
 50
90
  1
200
  0
LINE
  8
_0-5_寸法線
  6
CONTINUOUS
 62
    7
 10
356.686320754718
 20
544.61981132075334
 11
311.68632075471794
 21
544.61981132075368
  0
CIRCLE
  8
_0-5_寸法線
  6
CONTINUOUS
 62
    1
 10
316.68632075471794
 20
544.61981132075368
 40
1.5000000000000002
  0
LINE
  8
_0-5_寸法線
  6
CONTINUOUS
 62
    7
 10
316.68632075471794
 20
542.61981132075459
 11
316.68632075471794
 21
544.61981132075368
  0
TEXT
  8
_0-5_寸法線
 62
    7
 10
333.10754254487199
 20
534.0589545322232
 40
15
 41
1
 50
90
  1
2
  0
LINE
  8
_0-5_寸法線
  6
CONTINUOUS
 62
    7
 10
356.686320754718
 20
547.61981132075334
 11
311.68632075471794
 21
547.61981132075368
  0
LINE
  8
_0-5_寸法線
  6
CONTINUOUS
 62
    7
 10
316.68632075471794
 20
547.61981132075368
 11
314.09813030369276
 21
557.2790695836444
  0
LINE
  8
_0-5_寸法線
  6
CONTINUOUS
 62
    7
 10
316.68632075471794
 20
547.61981132075368
 11
319.27451120574318
 21
557.2790695836444
  0
LINE
  8
_0-5_寸法線
  6
CONTINUOUS
 62
    7
 10
316.68632075471794
 20
544.61981132075368
 11
316.68632075471794
 21
572.61981132075368
  0
TEXT
  8
_0-5_寸法線
 62
    7
 10
316.68632075471794
 20
561.72456479166101
 40
15
 41
1
 50
90
  1
3
  0
LINE
  8
_0-5_寸法線
  6
CONTINUOUS
 62
    7
 10
371.686320754718
 20
557.61981132075323
 11
371.686320754718
 21
602.61981132075323
  0
LINE
  8
_0-5_寸法線
  6
CONTINUOUS
 62
    7
 10
371.686320754718
 20
597.61981132075323
 11
381.34557901760866
 21
600.20800177177853
  0
LINE
  8
_0-5_寸法線
  6
CONTINUOUS
 62
    7
 10
371.686320754718
 20
597.61981132075323
 11
381.34557901760866
 21
595.03162086972804
  0
LINE
  8
_0-5_寸法線
  6
CONTINUOUS
 62
    7
 10
378.68632075471794
 20
557.61981132075323
 11
378.68632075471794
 21
602.61981132075323
  0
LINE
  8
_0-5_寸法線
  6
CONTINUOUS
 62
    7
 10
378.68632075471794
 20
597.61981132075323
 11
369.02706249182722
 21
595.03162086972804
  0
LINE
  8
_0-5_寸法線
  6
CONTINUOUS
 62
    7
 10
378.68632075471794
 20
597.61981132075323
 11
369.02706249182728
 21
600.20800177177853
  0
LINE
  8
_0-5_寸法線
  6
CONTINUOUS
 62
    7
 10
371.686320754718
 20
597.61981132075323
 11
386.18632075471794
 21
597.61981132075323
  0
TEXT
  8
_0-5_寸法線
 62
    7
 10
378.68632075471794
 20
580.99051766754781
 40
15
 41
1
 50
0
  1
7
  0
LINE
  8
_0-5_寸法線
  6
CONTINUOUS
 62
    7
 10
378.68632075471794
 20
597.61981132075323
 11
388.34557901760866
 21
600.20800177177853
  0
LINE
  8
_0-5_寸法線
  6
CONTINUOUS
 62
    7
 10
378.68632075471794
 20
597.61981132075323
 11
388.3455790176086
 21
595.03162086972793
  0
LINE
  8
_0-5_寸法線
  6
CONTINUOUS
 62
    7
 10
475.68632075471794
 20
557.61981132075323
 11
475.68632075471794
 21
602.61981132075323
  0
LINE
  8
_0-5_寸法線
  6
CONTINUOUS
 62
    7
 10
475.68632075471794
 20
597.61981132075323
 11
466.02706249182722
 21
595.03162086972804
  0
LINE
  8
_0-5_寸法線
  6
CONTINUOUS
 62
    7
 10
475.68632075471794
 20
597.61981132075323
 11
466.02706249182734
 21
600.20800177177853
  0
LINE
  8
_0-5_寸法線
  6
CONTINUOUS
 62
    7
 10
378.68632075471794
 20
597.61981132075323
 11
475.68632075471794
 21
597.61981132075323
  0
TEXT
  8
_0-5_寸法線
 62
    7
 10
393.43632075471794
 20
597.61981132075323
 40
15
 41
1
 50
0
  1
2@48.5=97
  0
LINE
  8
_0-5_寸法線
  6
CONTINUOUS
 62
    7
 10
475.68632075471794
 20
597.61981132075323
 11
485.34557901760871
 21
600.20800177177853
  0
LINE
  8
_0-5_寸法線
  6
CONTINUOUS
 62
    7
 10
475.68632075471794
 20
597.61981132075323
 11
485.34557901760866
 21
595.03162086972793
  0
LINE
  8
_0-5_寸法線
  6
CONTINUOUS
 62
    7
 10
516.18632075471828
 20
557.61981132075323
 11
516.18632075471896
 21
602.61981132075323
  0
LINE
  8
_0-5_寸法線
  6
CONTINUOUS
 62
    7
 10
516.18632075471885
 20
597.61981132075323
 11
506.52706249182813
 21
595.03162086972804
  0
LINE
  8
_0-5_寸法線
  6
CONTINUOUS
 62
    7
 10
516.18632075471885
 20
597.61981132075323
 11
506.52706249182819
 21
600.20800177177853
  0
LINE
  8
_0-5_寸法線
  6
CONTINUOUS
 62
    7
 10
475.68632075471794
 20
597.61981132075323
 11
516.18632075471885
 21
597.61981132075323
  0
TEXT
  8
_0-5_寸法線
 62
    7
 10
480.93632075471885
 20
597.61981132075323
 40
15
 41
1
 50
0
  1
40.5
  0
LINE
  8
_0-5_寸法線
  6
CONTINUOUS
 62
    7
 10
516.18632075471885
 20
597.61981132075323
 11
525.84557901760957
 21
600.20800177177853
  0
LINE
  8
_0-5_寸法線
  6
CONTINUOUS
 62
    7
 10
516.18632075471885
 20
597.61981132075323
 11
525.84557901760957
 21
595.03162086972793
  0
LINE
  8
_0-5_寸法線
  6
CONTINUOUS
 62
    7
 10
564.68632075471817
 20
557.61981132075323
 11
564.68632075471896
 21
602.61981132075323
  0
LINE
  8
_0-5_寸法線
  6
CONTINUOUS
 62
    7
 10
564.68632075471885
 20
597.61981132075323
 11
555.02706249182813
 21
595.03162086972804
  0
LINE
  8
_0-5_寸法線
  6
CONTINUOUS
 62
    7
 10
564.68632075471885
 20
597.61981132075323
 11
555.02706249182813
 21
600.20800177177853
  0
LINE
  8
_0-5_寸法線
  6
CONTINUOUS
 62
    7
 10
516.18632075471885
 20
597.61981132075323
 11
564.68632075471885
 21
597.61981132075323
  0
TEXT
  8
_0-5_寸法線
 62
    7
 10
525.43632075471896
 20
597.61981132075323
 40
15
 41
1
 50
0
  1
48.5
  0
LINE
  8
_0-5_寸法線
  6
CONTINUOUS
 62
    7
 10
564.68632075471885
 20
597.61981132075323
 11
574.34557901760957
 21
600.20800177177853
  0
LINE
  8
_0-5_寸法線
  6
CONTINUOUS
 62
    7
 10
564.68632075471885
 20
597.61981132075323
 11
574.34557901760957
 21
595.03162086972793
  0
LINE
  8
_0-5_寸法線
  6
CONTINUOUS
 62
    7
 10
571.68632075471817
 20
557.61981132075323
 11
571.68632075471896
 21
602.61981132075323
  0
LINE
  8
_0-5_寸法線
  6
CONTINUOUS
 62
    7
 10
571.68632075471896
 20
597.61981132075323
 11
562.02706249182813
 21
595.03162086972804
  0
LINE
  8
_0-5_寸法線
  6
CONTINUOUS
 62
    7
 10
571.68632075471896
 20
597.61981132075323
 11
562.02706249182813
 21
600.20800177177853
  0
LINE
  8
_0-5_寸法線
  6
CONTINUOUS
 62
    7
 10
556.32221408340445
 20
597.61981132075323
 11
571.68632075471896
 21
597.61981132075323
  0
TEXT
  8
_0-5_寸法線
 62
    7
 10
556.32221408340445
 20
581.06790563924596
 40
15
 41
1
 50
0
  1
7
  0
LINE
  8
_0-7_枠細線
  6
CONTINUOUS
 62
    5
 10
280.34335540952941
 20
632.56785947116077
 11
272.84335540952941
 21
647.56785947116077
  0
LINE
  8
_0-7_枠細線
  6
CONTINUOUS
 62
    5
 10
265.34335540952941
 20
632.56785947116077
 11
280.34335540952941
 21
632.56785947116077
  0
LINE
  8
_0-7_枠細線
  6
CONTINUOUS
 62
    5
 10
272.84335540952941
 20
647.56785947116077
 11
265.34335540952941
 21
632.56785947116077
  0
LINE
  8
_0-7_枠細線
  6
CONTINUOUS
 62
    5
 10
407.58653034071028
 20
615.42252270675033
 11
400.08653034071028
 21
630.42252270675033
  0
LINE
  8
_0-7_枠細線
  6
CONTINUOUS
 62
    5
 10
392.58653034071028
 20
615.42252270675033
 11
407.58653034071028
 21
615.42252270675033
  0
LINE
  8
_0-7_枠細線
  6
CONTINUOUS
 62
    5
 10
400.08653034071028
 20
630.42252270675033
 11
392.58653034071028
 21
615.42252270675033
  0
LINE
  8
_0-5_寸法線
  6
CONTINUOUS
 62
    7
 10
469.09420015966077
 20
443.72335755780057
 11
460.91422473802885
 21
449.47557470438829
  0
LINE
  8
_0-5_寸法線
  6
CONTINUOUS
 62
    7
 10
469.09420015966077
 20
443.72335755780057
 11
464.88624221548912
 21
452.79491144564594
  0
LINE
  8
_0-5_寸法線
  6
CONTINUOUS
 62
    7
 10
469.09420015966077
 20
443.72335755780057
 11
326.33347726338468
 21
614.55510216230221
  0
LINE
  8
_0-5_寸法線
  6
CONTINUOUS
 62
    7
 10
326.33347726338468
 20
614.55510216230221
 11
266.33347726338468
 21
614.55510216230221
  0
TEXT
  8
_0-5_寸法線
 62
    7
 10
266.33347726338468
 20
614.55510216230221
 40
15
 41
0.8000000000000001
 50
0
  1
取　外　具
  0
LINE
  8
_0-1_計細線
  6
CONTINUOUS
 62
    3
 10
436.686320754718
 20
440.26981132075468
 11
489.68632075471794
 21
440.26981132075468
  0
LINE
  8
_0-1_計細線
  6
CONTINUOUS
 62
    3
 10
489.68632075471794
 20
444.96981132075456
 11
436.686320754718
 21
444.96981132075456
  0
LINE
  8
_0-1_計細線
  6
CONTINUOUS
 62
    3
 10
436.686320754718
 20
444.96981132075456
 11
436.686320754718
 21
440.26981132075468
  0
LINE
  8
_0-1_計細線
  6
CONTINUOUS
 62
    3
 10
479.68632075471794
 20
444.96981132075456
 11
479.68632075471794
 21
440.26981132075468
  0
LINE
  8
_0-1_計細線
  6
CONTINUOUS
 62
    3
 10
487.686320754718
 20
444.96981132075456
 11
487.686320754718
 21
440.26981132075468
  0
LINE
  8
_0-1_計細線
  6
CONTINUOUS
 62
    3
 10
489.68632075471794
 20
444.96981132075456
 11
489.68632075471794
 21
440.26981132075468
  0
LINE
  8
_0-1_計細線
  6
CONTINUOUS
 62
    3
 10
485.68632075471794
 20
444.96981132075456
 11
485.68632075471794
 21
440.26981132075468
  0
LINE
  8
_0-1_計細線
  6
CONTINUOUS
 62
    3
 10
483.68632075471794
 20
444.96981132075456
 11
483.68632075471794
 21
440.26981132075468
  0
LINE
  8
_0-1_計細線
  6
CONTINUOUS
 62
    3
 10
481.686320754718
 20
444.96981132075456
 11
481.686320754718
 21
440.26981132075468
  0
TEXT
  8
_0-7_枠細線
 62
    5
 10
1180
 20
910
 40
12.5
 41
0.7199999999999999
 50
0
  1
２０２０．０９．０１
  0
LINE
  8
_0-5_寸法線
  6
CONTINUOUS
 62
    7
 10
1011.3976690451427
 20
709.94896772675577
 11
1011.3976690451427
 21
829.94877127353323
  0
LINE
  8
_0-5_寸法線
  6
CONTINUOUS
 62
    7
 10
1011.3976690451427
 20
824.94877127353323
 11
1021.0569273080336
 21
827.5369617245583
  0
LINE
  8
_0-5_寸法線
  6
CONTINUOUS
 62
    7
 10
1011.3976690451427
 20
824.94877127353323
 11
1021.0569273080336
 21
822.36058082250793
  0
LINE
  8
_0-5_寸法線
  6
CONTINUOUS
 62
    7
 10
1221.3976690451429
 20
709.94896772675577
 11
1221.3976690451429
 21
829.94877127353323
  0
LINE
  8
_0-5_寸法線
  6
CONTINUOUS
 62
    7
 10
1221.3976690451429
 20
824.94877127353323
 11
1211.7384107822522
 21
822.36058082250793
  0
LINE
  8
_0-5_寸法線
  6
CONTINUOUS
 62
    7
 10
1221.3976690451429
 20
824.94877127353323
 11
1211.7384107822522
 21
827.5369617245583
  0
LINE
  8
_0-5_寸法線
  6
CONTINUOUS
 62
    7
 10
1011.3976690451427
 20
824.94877127353323
 11
1221.3976690451429
 21
824.94877127353323
  0
TEXT
  8
_0-5_寸法線
 62
    7
 10
1105.1476690451429
 20
824.94877127353323
 40
15
 41
1
 50
0
  1
210
  0
LINE
  8
_0-5_寸法線
  6
CONTINUOUS
 62
    7
 10
1011.3976690451427
 20
789.94877127353323
 11
1001.7384107822521
 21
787.36058082250793
  0
LINE
  8
_0-5_寸法線
  6
CONTINUOUS
 62
    7
 10
1011.3976690451427
 20
789.94877127353323
 11
1001.7384107822521
 21
792.5369617245583
  0
LINE
  8
_0-5_寸法線
  6
CONTINUOUS
 62
    7
 10
1014.3976690451427
 20
709.44896772675577
 11
1014.3976690451427
 21
794.94877127353323
  0
CIRCLE
  8
_0-5_寸法線
  6
CONTINUOUS
 62
    1
 10
1014.3976690451427
 20
789.94877127353323
 40
1.5000000000000002
  0
LINE
  8
_0-5_寸法線
  6
CONTINUOUS
 62
    7
 10
986.39766904514272
 20
789.94877127353323
 11
1014.3976690451427
 21
789.94877127353323
  0
TEXT
  8
_0-5_寸法線
 62
    7
 10
989.16075804477043
 20
789.94877127353323
 40
15
 41
1
 50
0
  1
3
  0
LINE
  8
_0-5_寸法線
  6
CONTINUOUS
 62
    7
 10
1016.3976690451426
 20
707.94896672574896
 11
1016.3976690451432
 21
794.94877127353323
  0
LINE
  8
_0-5_寸法線
  6
CONTINUOUS
 62
    7
 10
1014.3976690451427
 20
789.94877127353323
 11
1016.3976690451432
 21
789.94877127353323
  0
TEXT
  8
_0-5_寸法線
 62
    7
 10
1016.5136718749643
 20
789.94877127353323
 40
15
 41
1
 50
0
  1
2
  0
LINE
  8
_0-5_寸法線
  6
CONTINUOUS
 62
    7
 10
1016.3976690451432
 20
789.94877127353323
 11
1026.0569273080337
 21
792.5369617245583
  0
LINE
  8
_0-5_寸法線
  6
CONTINUOUS
 62
    7
 10
1016.3976690451432
 20
789.94877127353323
 11
1026.0569273080337
 21
787.36058082250793
  0
LINE
  8
_0-5_寸法線
  6
CONTINUOUS
 62
    7
 10
1216.3976690451432
 20
707.94896672574896
 11
1216.3976690451432
 21
794.94877127353323
  0
LINE
  8
_0-5_寸法線
  6
CONTINUOUS
 62
    7
 10
1216.3976690451432
 20
789.94877127353323
 11
1206.7384107822525
 21
787.36058082250793
  0
LINE
  8
_0-5_寸法線
  6
CONTINUOUS
 62
    7
 10
1216.3976690451432
 20
789.94877127353323
 11
1206.7384107822525
 21
792.5369617245583
  0
LINE
  8
_0-5_寸法線
  6
CONTINUOUS
 62
    7
 10
1016.3976690451432
 20
789.94877127353323
 11
1216.3976690451432
 21
789.94877127353323
  0
TEXT
  8
_0-5_寸法線
 62
    7
 10
1105.1476690451432
 20
789.94877127353323
 40
15
 41
1
 50
0
  1
200
  0
LINE
  8
_0-5_寸法線
  6
CONTINUOUS
 62
    7
 10
1218.3976690451432
 20
709.44896772675577
 11
1218.3976690451432
 21
794.94877127353323
  0
CIRCLE
  8
_0-5_寸法線
  6
CONTINUOUS
 62
    1
 10
1218.3976690451432
 20
789.94877127353323
 40
1.5000000000000002
  0
LINE
  8
_0-5_寸法線
  6
CONTINUOUS
 62
    7
 10
1216.3976690451432
 20
789.94877127353323
 11
1218.3976690451432
 21
789.94877127353323
  0
TEXT
  8
_0-5_寸法線
 62
    7
 10
1209.1903744103452
 20
789.94877127353323
 40
15
 41
1
 50
0
  1
2
  0
LINE
  8
_0-5_寸法線
  6
CONTINUOUS
 62
    7
 10
1221.3976690451429
 20
789.94877127353323
 11
1231.0569273080337
 21
792.5369617245583
  0
LINE
  8
_0-5_寸法線
  6
CONTINUOUS
 62
    7
 10
1221.3976690451429
 20
789.94877127353323
 11
1231.0569273080337
 21
787.36058082250793
  0
LINE
  8
_0-5_寸法線
  6
CONTINUOUS
 62
    7
 10
1218.3976690451432
 20
789.94877127353323
 11
1246.3976690451429
 21
789.94877127353323
  0
TEXT
  8
_0-5_寸法線
 62
    7
 10
1235.5441664895479
 20
789.94877127353323
 40
15
 41
1
 50
0
  1
3
  0
LINE
  8
_0-5_寸法線
  6
CONTINUOUS
 62
    7
 10
576.68632075471794
 20
395.52862359982839
 11
583.75738856658347
 21
402.59969141169393
  0
LINE
  8
_0-5_寸法線
  6
CONTINUOUS
 62
    7
 10
576.68632075471794
 20
395.52862359982839
 11
586.34557901760877
 21
398.11681405085358
  0
LINE
  8
_0-5_寸法線
  6
CONTINUOUS
 62
    7
 10
576.68632075471794
 20
395.52862359982839
 11
618.08632075471803
 21
419.43092474427897
  0
LINE
  8
_0-5_寸法線
  6
CONTINUOUS
 62
    7
 10
618.08632075471803
 20
419.43092474427897
 11
726.08632075471803
 21
419.43092474427897
  0
TEXT
  8
_0-5_寸法線
 62
    7
 10
618.08632075471803
 20
419.43092474427897
 40
15
 41
0.8000000000000001
 50
0
  1
ＳＵＳアングル受枠
  0
TEXT
  8
_0-5_寸法線
 62
    7
 10
618.08632075471803
 20
404.43092474427897
 40
15
 41
0.8000000000000001
 50
0
  1
ＧＳＬ－２０
  0
LINE
  8
_0-5_寸法線
  6
CONTINUOUS
 62
    7
 10
538.20586915429237
 20
468.12236655874472
 11
545.2769369661579
 21
475.19343437061025
  0
LINE
  8
_0-5_寸法線
  6
CONTINUOUS
 62
    7
 10
538.20586915429237
 20
468.12236655874472
 11
547.86512741718309
 21
470.7105570097699
  0
LINE
  8
_0-5_寸法線
  6
CONTINUOUS
 62
    7
 10
538.20586915429237
 20
468.12236655874472
 11
618.08632075471803
 21
514.24136679323942
  0
LINE
  8
_0-5_寸法線
  6
CONTINUOUS
 62
    7
 10
618.08632075471803
 20
514.24136679323942
 11
750.08632075471814
 21
514.24136679323942
  0
TEXT
  8
_0-5_寸法線
 62
    7
 10
618.08632075471803
 20
514.24136679323942
 40
15
 41
0.8000000000000001
 50
0
  1
セーフティグレーチング
  0
TEXT
  8
_0-5_寸法線
 62
    7
 10
621.60091154219833
 20
496.76230156146283
 40
15
 41
0.8000000000000001
 50
0
  1
補強仕様
  0
LINE
  8
_0-5_寸法線
  6
CONTINUOUS
 62
    7
 10
1099.7061486022528
 20
690.68453563704361
 11
1080.1330476554194
 21
704.38976846615583
  0
LINE
  8
_0-5_寸法線
  6
CONTINUOUS
 62
    7
 10
1084.2288078768645
 20
701.52188628440058
 11
1081.6406174258393
 21
711.18114454729141
  0
LINE
  8
_0-5_寸法線
  6
CONTINUOUS
 62
    7
 10
1084.2288078768645
 20
701.52188628440058
 11
1086.8169983278899
 21
711.18114454729141
  0
LINE
  8
_0-5_寸法線
  6
CONTINUOUS
 62
    7
 10
1099.7061486022528
 20
710.68453563704361
 11
1080.1330476554197
 21
724.38976846615606
  0
LINE
  8
_0-5_寸法線
  6
CONTINUOUS
 62
    7
 10
1084.2288078768645
 20
721.52188628440081
 11
1086.8169983278899
 21
711.86262802151009
  0
LINE
  8
_0-5_寸法線
  6
CONTINUOUS
 62
    7
 10
1084.2288078768645
 20
721.52188628440081
 11
1081.6406174258393
 21
711.86262802151009
  0
LINE
  8
_0-5_寸法線
  6
CONTINUOUS
 62
    7
 10
1084.2288078768645
 20
701.52188628440058
 11
1084.2288078768645
 21
721.52188628440081
  0
TEXT
  8
_0-5_寸法線
 62
    7
 10
1084.2288078768645
 20
704.02188628440047
 40
15
 41
1
 50
90
  1
20
  0
LINE
  8
_0-5_寸法線
  6
CONTINUOUS
 62
    7
 10
1141.8976690458662
 20
714.94877127353323
 11
1141.8976690458662
 21
759.94899027454028
  0
LINE
  8
_0-5_寸法線
  6
CONTINUOUS
 62
    7
 10
1141.8976690458662
 20
754.94899027454028
 11
1151.5569273087569
 21
757.53718072556535
  0
LINE
  8
_0-5_寸法線
  6
CONTINUOUS
 62
    7
 10
1141.8976690458662
 20
754.94899027454028
 11
1151.5569273087569
 21
752.36079982351498
  0
LINE
  8
_0-5_寸法線
  6
CONTINUOUS
 62
    7
 10
1158.897669046228
 20
714.94877127353323
 11
1158.897669046228
 21
759.94899027454028
  0
LINE
  8
_0-5_寸法線
  6
CONTINUOUS
 62
    7
 10
1158.897669046228
 20
754.94899027454028
 11
1149.2384107833373
 21
752.36079982351498
  0
LINE
  8
_0-5_寸法線
  6
CONTINUOUS
 62
    7
 10
1158.897669046228
 20
754.94899027454028
 11
1149.2384107833373
 21
757.53718072556535
  0
LINE
  8
_0-5_寸法線
  6
CONTINUOUS
 62
    7
 10
1141.8976690458662
 20
754.94899027454028
 11
1158.897669046228
 21
754.94899027454028
  0
TEXT
  8
_0-5_寸法線
 62
    7
 10
1134.2416917534422
 20
739.94899027454028
 40
15
 41
1
 50
0
  1
(17)
  0
LINE
  8
_0-5_寸法線
  6
CONTINUOUS
 62
    7
 10
1158.897669046228
 20
754.94899027454028
 11
1168.5569273091187
 21
757.53718072556535
  0
LINE
  8
_0-5_寸法線
  6
CONTINUOUS
 62
    7
 10
1158.897669046228
 20
754.94899027454028
 11
1168.5569273091187
 21
752.36079982351487
  0
LINE
  8
_0-5_寸法線
  6
CONTINUOUS
 62
    7
 10
1175.89766904659
 20
714.94877127353323
 11
1175.89766904659
 21
759.94899027454028
  0
LINE
  8
_0-5_寸法線
  6
CONTINUOUS
 62
    7
 10
1175.89766904659
 20
754.94899027454028
 11
1166.2384107836992
 21
752.36079982351498
  0
LINE
  8
_0-5_寸法線
  6
CONTINUOUS
 62
    7
 10
1175.89766904659
 20
754.94899027454028
 11
1166.2384107836992
 21
757.53718072556535
  0
LINE
  8
_0-5_寸法線
  6
CONTINUOUS
 62
    7
 10
1158.897669046228
 20
754.94899027454028
 11
1175.89766904659
 21
754.94899027454028
  0
TEXT
  8
_0-5_寸法線
 62
    7
 10
1153.3083584198675
 20
754.94899027454028
 40
15
 41
1
 50
0
  1
(17)
  0
LINE
  8
_0-5_寸法線
  6
CONTINUOUS
 62
    7
 10
1062.5976690429538
 20
712.94877127353311
 11
1062.5976690429538
 21
759.94899027454028
  0
LINE
  8
_0-5_寸法線
  6
CONTINUOUS
 62
    7
 10
1062.5976690429538
 20
754.94899027454028
 11
1052.9384107800634
 21
752.36079982351498
  0
LINE
  8
_0-5_寸法線
  6
CONTINUOUS
 62
    7
 10
1062.5976690429538
 20
754.94899027454028
 11
1052.9384107800634
 21
757.53718072556535
  0
LINE
  8
_0-5_寸法線
  6
CONTINUOUS
 62
    7
 10
1068.1976690455231
 20
712.94877127353311
 11
1068.1976690455231
 21
759.94899027454028
  0
LINE
  8
_0-5_寸法線
  6
CONTINUOUS
 62
    7
 10
1023.2237133597869
 20
754.94899027454028
 11
1068.1976690455231
 21
754.94899027454028
  0
TEXT
  8
_0-5_寸法線
 62
    7
 10
1023.2237133597869
 20
739.94899027454028
 40
15
 41
1
 50
0
  1
(5.6)
  0
LINE
  8
_0-5_寸法線
  6
CONTINUOUS
 62
    7
 10
1068.1976690455231
 20
754.94899027454028
 11
1077.8569273084136
 21
757.53718072556535
  0
LINE
  8
_0-5_寸法線
  6
CONTINUOUS
 62
    7
 10
1068.1976690455231
 20
754.94899027454028
 11
1077.8569273084136
 21
752.36079982351498
  0
LINE
  8
_0-5_寸法線
  6
CONTINUOUS
 62
    7
 10
1079.5976690433156
 20
712.94877127353311
 11
1079.5976690433156
 21
759.94899027454028
  0
LINE
  8
_0-5_寸法線
  6
CONTINUOUS
 62
    7
 10
1079.5976690433156
 20
754.94899027454028
 11
1069.9384107804249
 21
752.36079982351498
  0
LINE
  8
_0-5_寸法線
  6
CONTINUOUS
 62
    7
 10
1079.5976690433156
 20
754.94899027454028
 11
1069.9384107804249
 21
757.53718072556535
  0
LINE
  8
_0-5_寸法線
  6
CONTINUOUS
 62
    7
 10
1068.1976690455231
 20
754.94899027454028
 11
1079.5976690433156
 21
754.94899027454028
  0
TEXT
  8
_0-5_寸法線
 62
    7
 10
1055.1329726180693
 20
754.94899027454028
 40
15
 41
1
 50
0
  1
11.4
  0
TEXT
  8
_0-5_寸法線
 62
    7
 10
266.6374271074514
 20
599.55510216230221
 40
15
 41
0.8000000000000001
 50
0
  1
(標準付属)
  0
TEXT
  8
_0-7_枠細線
 62
    5
 10
1180
 20
892.5
 40
12.5
 41
0.7199999999999999
 50
0
  1
２０２０．１０．０１
  0
TEXT
  8
_0-7_枠細線
 62
    5
 10
938.85037037037023
 20
910
 40
12.5
 41
1
 50
0
  1
クロスバーピッチ変更
  0
TEXT
  8
_0-7_枠細線
 62
    5
 10
938.85037037037023
 20
892.5
 40
12.5
 41
1
 50
0
  1
取外具形状変更
  0
TEXT
  8
_0-7_枠細線
 62
    5
 10
394.95168160885839
 20
615.11552046136956
 40
12.5
 41
0.8
 50
0
  1
２
  0
TEXT
  8
_0-7_枠細線
 62
    5
 10
267.70850667767752
 20
632.26085722577989
 40
12.5
 41
0.8
 50
0
  1
３
  0
ENDSEC
  0
EOF
