  0
SECTION
  2
HEADER
  9
$ACADVER
  1
AC1009
  9
$INSBASE
 10
0
 20
0
 30
0
  9
$EXTMIN
 10
0
 20
0
  9
$EXTMAX
 10
2376
 20
1680
  9
$LIMMIN
 10
0
 20
0
  9
$LIMMAX
 10
2376
 20
1680
  9
$LTSCALE
 40
8
  0
ENDSEC
  0
SECTION
  2
TABLES
  0
TABLE
  2
LTYPE
 70
     9
  0
LTYPE
  2
CONTINUOUS
 70
    64
  3
実線
 72
    65
 73
     0
 40
0.0
  0
LTYPE
  2
DASHED1
 70
    64
  3
--  --  --  --  --  --  --  --  
 72
    65
 73
     2
 40
2.5
 49
1.25
 49
-1.25
  0
LTYPE
  2
DASHED2
 70
    64
  3
----    ----    ----    ----    
 72
    65
 73
     2
 40
5.0
 49
2.5
 49
-2.5
  0
LTYPE
  2
DASHED3
 70
    64
  3
------  ------  ------  ------  
 72
    65
 73
     2
 40
5.0
 49
3.75
 49
-1.25
  0
LTYPE
  2
CENTER1
 70
    64
  3
----- - ----- - ----- - ----- - 
 72
    65
 73
     4
 40
10.0
 49
6.25
 49
-1.25
 49
1.25
 49
-1.25
  0
LTYPE
  2
CENTER2
 70
    64
  3
----------  --  ----------  --  
 72
    65
 73
     4
 40
20.0
 49
12.5
 49
-2.5
 49
2.5
 49
-2.5
  0
LTYPE
  2
PHANTOM1
 70
    64
  3
--- - - --- - - --- - - --- - - 
 72
    65
 73
     6
 40
10.0
 49
3.25
 49
-1.25
 49
1.25
 49
-1.25
 49
1.25
 49
-1.25
  0
LTYPE
  2
PHANTOM2
 70
    64
  3
--------  -  -  --------  -  -  
 72
    65
 73
     6
 40
20.0
 49
10.0
 49
-2.5
 49
1.25
 49
-2.5
 49
1.25
 49
-2.5
  0
LTYPE
  2
DOT
 70
    64
  3
-   -   -   -   -   -   -   -   
 72
    65
 73
     2
 40
2.5
 49
0.625
 49
-1.875
  0
LTYPE
  2
DUMMY
 70
    64
  3
ダミー
 72
    65
 73
     0
 40
0.0
  0
LTYPE
  2
RAND1
 70
    64
  3
ランダム線1
 72
    65
 73
     4
 40
10.0
 49
1.0
 49
-2.0
 49
3.0
 49
-4.0
  0
LTYPE
  2
RAND2
 70
    64
  3
ランダム線2
 72
    65
 73
     4
 40
14.0
 49
2.0
 49
-3.0
 49
4.0
 49
-5.0
  0
LTYPE
  2
RAND3
 70
    64
  3
ランダム線3
 72
    65
 73
     4
 40
18.0
 49
3.0
 49
-4.0
 49
5.0
 49
-6.0
  0
LTYPE
  2
RAND4
 70
    64
  3
ランダム線4
 72
    65
 73
     4
 40
22.0
 49
4.0
 49
-5.0
 49
6.0
 49
-7.0
  0
LTYPE
  2
RAND5
 70
    64
  3
ランダム線5
 72
    65
 73
     4
 40
26.0
 49
5.0
 49
-6.0
 49
7.0
 49
-8.0
  0
LTYPE
  2
LONG1
 70
    64
  3
----------  --  ----------  --  
 72
    65
 73
     4
 40
40.0
 49
32.5
 49
-2.5
 49
2.5
 49
-2.5
  0
LTYPE
  2
LONG2
 70
    64
  3
--------  -  -  --------  -  -  
 72
    65
 73
     6
 40
40.0
 49
30.0
 49
-2.5
 49
1.25
 49
-2.5
 49
1.25
 49
-2.5
  0
LTYPE
  2
LONG3
 70
    64
  3
+++++++++++++++..+++++++++++++++
 72
    65
 73
     2
 40
40.0
 49
37.5
 49
-2.5
  0
LTYPE
  2
LONG4
 70
    64
  3
+++++++++++++++..+++++++++++++++
 72
    65
 73
     2
 40
80.0
 49
75.0
 49
-5.0
  0
LTYPE
  2
LONG5
 70
    64
  3
----------  --  ----------  --  
 72
    65
 73
     4
 40
60.0
 49
37.5
 49
-7.5
 49
7.5
 49
-7.5
  0
LTYPE
  2
dashed
 70
   64
  3
-------   -------------   ------
 72
   65
 73
    2
 40
7.5
 49
6
 49
-1.5
  0
LTYPE
  2
dashed_spaced
 70
   64
  3
----        --------        ----
 72
   65
 73
    2
 40
12
 49
6
 49
-6
  0
LTYPE
  2
long_dashed_dotted
 70
   64
  3
------------- --- --------------
 72
   65
 73
    4
 40
15.25
 49
12
 49
-1.5
 49
0.25
 49
-1.5
  0
LTYPE
  2
long_dashed_double-dotted
 70
   64
  3
----------- --- --- ------------
 72
   65
 73
    6
 40
17
 49
12
 49
-1.5
 49
0.25
 49
-1.5
 49
0.25
 49
-1.5
  0
LTYPE
  2
long_dashed_triplicate-dotted
 70
   64
  3
--------- --- --- --- ----------
 72
   65
 73
    8
 40
18.75
 49
12
 49
-1.5
 49
0.25
 49
-1.5
 49
0.25
 49
-1.5
 49
0.25
 49
-1.5
  0
LTYPE
  2
dotted
 70
   64
  3
   -       -       -       -    
 72
   65
 73
    2
 40
1.75
 49
0.25
 49
-1.5
  0
LTYPE
  2
chain
 70
   64
  3
-------------- -- --------------
 72
   65
 73
    4
 40
18.5
 49
12
 49
-1.5
 49
3.5
 49
-1.5
  0
LTYPE
  2
chain_double_dash
 70
   64
  3
------------ -- -- -------------
 72
   65
 73
    6
 40
23.5
 49
12
 49
-1.5
 49
3.5
 49
-1.5
 49
3.5
 49
-1.5
  0
LTYPE
  2
dashed_dotted
 70
   64
  3
-----------     -     ----------
 72
   65
 73
    4
 40
9.25
 49
6
 49
-1.5
 49
0.25
 49
-1.5
  0
LTYPE
  2
double-dashed_dotted
 70
   64
  3
------   -----------   -   -----
 72
   65
 73
    6
 40
16.75
 49
6
 49
-1.5
 49
6
 49
-1.5
 49
0.25
 49
-1.5
  0
LTYPE
  2
dashed_double-dotted
 70
   64
  3
---------    -    -    ---------
 72
   65
 73
    6
 40
11
 49
6
 49
-1.5
 49
0.25
 49
-1.5
 49
0.25
 49
-1.5
  0
LTYPE
  2
double-dashed_double-dotted
 70
   64
  3
-----   ---------   -   -   ----
 72
   65
 73
    8
 40
18.5
 49
6
 49
-1.5
 49
6
 49
-1.5
 49
0.25
 49
-1.5
 49
0.25
 49
-1.5
  0
LTYPE
  2
dashed_triplicate-dotted
 70
   64
  3
-------    -    -    -    ------
 72
   65
 73
    8
 40
12.75
 49
6
 49
-1.5
 49
0.25
 49
-1.5
 49
0.25
 49
-1.5
 49
0.25
 49
-1.5
  0
LTYPE
  2
double-dashed_triplicate-dotted
 70
   64
  3
-----  ---------  -  -  -  -----
 72
   65
 73
   10
 40
20.25
 49
6
 49
-1.5
 49
6
 49
-1.5
 49
0.25
 49
-1.5
 49
0.25
 49
-1.5
 49
0.25
 49
-1.5
  0
LTYPE
  2
undefined
 70
   64
  3
--------------------------------
 72
   65
 73
    0
 40
0
  0
ENDTAB
  0
TABLE
  2
STYLE
  5
3
100
AcDbSymbolTable
 70
     1
  0
STYLE
  5
10
100
AcDbSymbolTableRecord
100
AcDbTextStyleTableRecord
  2
STANDARD
 70
     0
 40
0.0
 41
1.0
 50
0.0
 71
     0
 42
0.2
  3
txt
  4
bigfont.shx
  0
STYLE
  5
26
100
AcDbSymbolTableRecord
100
AcDbTextStyleTableRecord
  2
TATEGAKI
 70
    68
 40
0.0
 41
1.0
 50
0.0
 71
     0
 42
1.0
  3
txt
  4
bigfont.shx
  0
ENDTAB
  0
TABLE
  2
LAYER
 70
   10
  0
LAYER
  2
_0-0_計極細
 70
   64
 62
    7
  6
CONTINUOUS
  0
LAYER
  2
_0-1_計細線
 70
   64
 62
    7
  6
CONTINUOUS
  0
LAYER
  2
_0-5_寸法線
 70
   64
 62
    7
  6
CONTINUOUS
  0
LAYER
  2
_0-7_枠細線
 70
   64
 62
    7
  6
CONTINUOUS
  0
LAYER
  2
_0-8_枠中線
 70
   64
 62
    7
  6
CONTINUOUS
  0
LAYER
  2
_0-9_枠極太
 70
   64
 62
    7
  6
CONTINUOUS
  0
LAYER
  2
_0-a_極細3
 70
   64
 62
    7
  6
CONTINUOUS
  0
LAYER
  2
_0-b_細線3
 70
   64
 62
    7
  6
CONTINUOUS
  0
LAYER
  2
_0-d_寸法3
 70
   64
 62
    7
  6
CONTINUOUS
  0
LAYER
  2
ADD_LINE
 70
   64
 62
    7
  6
CONTINUOUS
  0
ENDTAB
  0
ENDSEC
  0
SECTION
  2
BLOCKS
  0
ENDSEC
  0
SECTION
  2
ENTITIES
  0
LINE
  8
_0-7_枠細線
  6
CONTINUOUS
 62
    5
 10
1896
 20
288
 11
1896
 21
160
  0
TEXT
  8
_0-7_枠細線
 62
    5
 10
1500
 20
156
 40
28
 41
1
 50
0
  1
備考
  7
TATEGAKI
  0
TEXT
  8
_0-7_枠細線
 62
    5
 10
1500
 20
220
 40
28
 41
1
 50
0
  1
品番
  7
TATEGAKI
  0
TEXT
  8
_0-7_枠細線
 62
    5
 10
1500
 20
284
 40
28
 41
1
 50
0
  1
品名
  7
TATEGAKI
  0
LINE
  8
_0-7_枠細線
  6
CONTINUOUS
 62
    5
 10
1896
 20
224
 11
1480
 21
224
  0
LINE
  8
_0-7_枠細線
  6
CONTINUOUS
 62
    5
 10
1520
 20
288
 11
1520
 21
96
  0
LINE
  8
_0-8_枠中線
  6
CONTINUOUS
 62
    5
 10
2280
 20
288
 11
1480
 21
288
  0
LINE
  8
_0-8_枠中線
  6
CONTINUOUS
 62
    5
 10
1480
 20
288
 11
1480
 21
96
  0
LINE
  8
_0-7_枠細線
  6
CONTINUOUS
 62
    5
 10
1992
 20
288
 11
1992
 21
96
  0
TEXT
  8
_0-7_枠細線
 62
    5
 10
1908
 20
256
 40
24
 41
1
 50
0
  1
縮　尺
  0
LINE
  8
_0-7_枠細線
  6
CONTINUOUS
 62
    5
 10
1896
 20
248
 11
1992
 21
248
  0
LINE
  8
_0-7_枠細線
  6
CONTINUOUS
 62
    5
 10
1992
 20
160
 11
1480
 21
160
  0
LINE
  8
_0-7_枠細線
  6
CONTINUOUS
 62
    5
 10
2280
 20
144
 11
1992
 21
144
  0
LINE
  8
_0-7_枠細線
  6
CONTINUOUS
 62
    5
 10
1992
 20
192
 11
2280
 21
192
  0
LINE
  8
_0-7_枠細線
  6
CONTINUOUS
 62
    5
 10
2280
 20
224
 11
1992
 21
224
  0
TEXT
  8
_0-7_枠細線
 62
    5
 10
2008
 20
236
 40
40
 41
0.8
 50
0
  1
株式会社シマブン
  0
TEXT
  8
_0-7_枠細線
 62
    5
 10
2004
 20
96
 40
24
 41
1
 50
0
  1
年月日
  0
TEXT
  8
_0-7_枠細線
 62
    5
 10
2004
 20
120
 40
24
 41
1
 50
0
  1
作　成
  0
TEXT
  8
_0-7_枠細線
 62
    5
 10
2010
 20
196
 40
24
 41
1
 50
0
  1
承 認
  0
LINE
  8
_0-7_枠細線
  6
CONTINUOUS
 62
    5
 10
2088
 20
224
 11
2088
 21
96
  0
TEXT
  8
_0-7_枠細線
 62
    5
 10
2106
 20
196
 40
24
 41
1
 50
0
  1
検 図
  0
LINE
  8
_0-7_枠細線
  6
CONTINUOUS
 62
    5
 10
2184
 20
224
 11
2184
 21
144
  0
TEXT
  8
_0-7_枠細線
 62
    5
 10
2200
 20
152
 40
32
 41
1
 50
0
  1
藤戸
  0
TEXT
  8
_0-7_枠細線
 62
    5
 10
2202
 20
196
 40
24
 41
1
 50
0
  1
設 計
  0
TEXT
  8
_0-7_枠細線
 62
    5
 10
2008
 20
152
 40
32
 41
1
 50
0
  1
隠塚
  0
TEXT
  8
_0-7_枠細線
 62
    5
 10
2104
 20
152
 40
32
 41
1
 50
0
  1
渋田
  0
TEXT
  8
_0-7_枠細線
 62
    5
 10
1536.8000000000002
 20
240
 40
32
 41
0.5
 50
0
  1
セーフティグレーチング補強仕様Ｈ２０タイプ
  0
TEXT
  8
_0-7_枠細線
 62
    5
 10
2096
 20
108
 40
24
 41
0.6666666666666666
 50
0
  1
２０１０年０３月０１日
  0
TEXT
  8
_0-7_枠細線
 62
    5
 10
1536.8000000000002
 20
112
 40
32
 41
0.5999999999999998
 50
0
  1
色については品番表参照のこと
  0
TEXT
  8
_0-7_枠細線
 62
    5
 10
1536.8000000000002
 20
176
 40
32
 41
0.6
 50
0
  1
ＧＲＳＫ－２０Ｗ１５０　ＳＥＴ
  0
LINE
  8
_0-9_枠極太
  6
CONTINUOUS
 62
    5
 10
96
 20
96
 11
96
 21
1536
  0
LINE
  8
_0-9_枠極太
  6
CONTINUOUS
 62
    5
 10
96
 20
1536
 11
2280
 21
1536
  0
LINE
  8
_0-9_枠極太
  6
CONTINUOUS
 62
    5
 10
2280
 20
1536
 11
2280
 21
96
  0
LINE
  8
_0-9_枠極太
  6
CONTINUOUS
 62
    5
 10
2280
 20
96
 11
96
 21
96
  0
LINE
  8
_0-7_枠細線
  6
CONTINUOUS
 62
    5
 10
2280.0000000000009
 20
1508
 11
1424.0000000000009
 21
1508
  0
TEXT
  8
_0-7_枠細線
 62
    5
 10
1432.0000000000009
 20
1512
 40
20
 41
1
 50
0
  1
記号
  0
TEXT
  8
_0-7_枠細線
 62
    5
 10
1595.0000000000009
 20
1512
 40
20
 41
1
 50
0
  1
訂　 正　 記　 事
  0
TEXT
  8
_0-7_枠細線
 62
    5
 10
1890.0000000000009
 20
1512
 40
20
 41
1
 50
0
  1
訂 正 年 月 日
  0
TEXT
  8
_0-7_枠細線
 62
    5
 10
2090.0000000000009
 20
1512
 40
20
 41
1
 50
0
  1
備　　　　　考
  0
LINE
  8
_0-7_枠細線
  6
CONTINUOUS
 62
    5
 10
2280.0000000000009
 20
1480
 11
1424.0000000000009
 21
1480
  0
TEXT
  8
_0-7_枠細線
 62
    5
 10
1502.1605925925933
 20
1484
 40
20
 41
1
 50
0
  1
品番・色記号変更
  0
TEXT
  8
_0-7_枠細線
 62
    5
 10
1888.0000000000009
 20
1484
 40
20
 41
0.7199999999999999
 50
0
  1
２０１３．０３．１３
  0
LINE
  8
_0-7_枠細線
  6
CONTINUOUS
 62
    5
 10
2280.0000000000009
 20
1452
 11
1424.0000000000009
 21
1452
  0
LINE
  8
_0-7_枠細線
  6
CONTINUOUS
 62
    5
 10
2280.0000000000009
 20
1424
 11
1424.0000000000009
 21
1424
  0
TEXT
  8
_0-7_枠細線
 62
    5
 10
1502.1605925925933
 20
1456
 40
20
 41
1
 50
0
  1
クロスバーピッチ変更
  0
TEXT
  8
_0-7_枠細線
 62
    5
 10
1502.1605925925933
 20
1428
 40
20
 41
1
 50
0
  1
取外具形状変更
  0
TEXT
  8
_0-7_枠細線
 62
    5
 10
1888.0000000000009
 20
1456
 40
20
 41
0.7199999999999999
 50
0
  1
２０１５．１１．２０
  0
LINE
  8
_0-7_枠細線
  6
CONTINUOUS
 62
    5
 10
1464.0000000000009
 20
1454.307734354795
 11
1452.0000000000009
 21
1478.307734354795
  0
LINE
  8
_0-7_枠細線
  6
CONTINUOUS
 62
    5
 10
1440.0000000000009
 20
1454.307734354795
 11
1464.0000000000009
 21
1454.307734354795
  0
LINE
  8
_0-7_枠細線
  6
CONTINUOUS
 62
    5
 10
1452.0000000000009
 20
1478.307734354795
 11
1440.0000000000009
 21
1454.307734354795
  0
TEXT
  8
_0-7_枠細線
 62
    5
 10
1443.7842420290381
 20
1453.8165307621866
 40
20
 41
0.8
 50
0
  1
１
  0
TEXT
  8
_0-7_枠細線
 62
    5
 10
1443.7842420290381
 20
1425.8165307621866
 40
20
 41
0.8
 50
0
  1
２
  0
LINE
  8
_0-7_枠細線
  6
CONTINUOUS
 62
    5
 10
2280.0000000000009
 20
1396
 11
1424.0000000000009
 21
1396
  0
LINE
  8
_0-7_枠細線
  6
CONTINUOUS
 62
    5
 10
1452.0000000000009
 20
1450.307734354795
 11
1440.0000000000009
 21
1426.307734354795
  0
LINE
  8
_0-7_枠細線
  6
CONTINUOUS
 62
    5
 10
1440.0000000000009
 20
1426.307734354795
 11
1464.0000000000009
 21
1426.307734354795
  0
LINE
  8
_0-7_枠細線
  6
CONTINUOUS
 62
    5
 10
1464.0000000000009
 20
1426.307734354795
 11
1452.0000000000009
 21
1450.307734354795
  0
TEXT
  8
_0-7_枠細線
 62
    5
 10
1443.7842420290381
 20
1397.4314401305048
 40
20
 41
0.8
 50
0
  1
３
  0
TEXT
  8
_0-7_枠細線
 62
    5
 10
1888.0000000000009
 20
1400
 40
20
 41
0.7199999999999999
 50
0
  1
２０１７．０４．０１
  0
LINE
  8
_0-7_枠細線
  6
CONTINUOUS
 62
    5
 10
1464.0000000000009
 20
1370.307734354795
 11
1452.0000000000009
 21
1394.307734354795
  0
LINE
  8
_0-7_枠細線
  6
CONTINUOUS
 62
    5
 10
1440.0000000000009
 20
1370.307734354795
 11
1464.0000000000009
 21
1370.307734354795
  0
LINE
  8
_0-7_枠細線
  6
CONTINUOUS
 62
    5
 10
1452.0000000000009
 20
1394.307734354795
 11
1440.0000000000009
 21
1370.307734354795
  0
TEXT
  8
_0-7_枠細線
 62
    5
 10
1888.0000000000009
 20
1372
 40
20
 41
0.7199999999999999
 50
0
  1
２０１７．０４．０１
  0
TEXT
  8
_0-7_枠細線
 62
    5
 10
1502.1605925925933
 20
1372
 40
20
 41
1
 50
0
  1
ブラウン色（Ｃ）追加
  0
LINE
  8
_0-7_枠細線
  6
CONTINUOUS
 62
    5
 10
2280.0000000000009
 20
1368
 11
1424.0000000000009
 21
1368
  0
LINE
  8
_0-7_枠細線
  6
CONTINUOUS
 62
    5
 10
1452.0000000000009
 20
1422.307734354795
 11
1440.0000000000009
 21
1398.307734354795
  0
LINE
  8
_0-7_枠細線
  6
CONTINUOUS
 62
    5
 10
1440.0000000000009
 20
1398.307734354795
 11
1464.0000000000009
 21
1398.307734354795
  0
LINE
  8
_0-7_枠細線
  6
CONTINUOUS
 62
    5
 10
1464.0000000000009
 20
1398.307734354795
 11
1452.0000000000009
 21
1422.307734354795
  0
TEXT
  8
_0-7_枠細線
 62
    5
 10
1443.7842420290381
 20
1368.7896224110355
 40
20
 41
0.8
 50
0
  1
４
  0
TEXT
  8
_0-7_枠細線
 62
    5
 10
1502.1605925925933
 20
1400
 40
20
 41
1
 50
0
  1
取外具形状変更
  0
TEXT
  8
_0-7_枠細線
 62
    5
 10
1888.0000000000009
 20
1428
 40
20
 41
0.7199999999999999
 50
0
  1
２０１５．１１．２０
  0
LINE
  8
_0-7_枠細線
  6
CONTINUOUS
 62
    5
 10
1464.0000000000009
 20
1342.307734354795
 11
1452.0000000000009
 21
1366.307734354795
  0
LINE
  8
_0-7_枠細線
  6
CONTINUOUS
 62
    5
 10
1440.0000000000009
 20
1342.307734354795
 11
1464.0000000000009
 21
1342.307734354795
  0
LINE
  8
_0-7_枠細線
  6
CONTINUOUS
 62
    5
 10
1452.0000000000009
 20
1366.307734354795
 11
1440.0000000000009
 21
1342.307734354795
  0
LINE
  8
_0-7_枠細線
  6
CONTINUOUS
 62
    5
 10
2280.0000000000009
 20
1340
 11
1424.0000000000009
 21
1340
  0
TEXT
  8
_0-7_枠細線
 62
    5
 10
1888.0000000000009
 20
1344
 40
20
 41
0.7199999999999999
 50
0
  1
２０１９．０９．０１
  0
TEXT
  8
_0-7_枠細線
 62
    5
 10
1443.7842420290381
 20
1340.7896224110352
 40
20
 41
0.8
 50
0
  1
５
  0
TEXT
  8
_0-7_枠細線
 62
    5
 10
1910.4000000000001
 20
188
 40
32
 41
0.7
 50
0
  1
１：８
  0
LINE
  8
_0-7_枠細線
  6
CONTINUOUS
 62
    5
 10
1668.445396090538
 20
768
 11
1668.445396090538
 21
896
  0
TEXT
  8
_0-7_枠細線
 62
    5
 10
1704.445396090538
 20
860
 40
24
 41
1
 50
0
  1
耐荷重
  0
LINE
  8
_0-7_枠細線
  6
CONTINUOUS
 62
    5
 10
1812.445396090538
 20
768
 11
1812.445396090538
 21
896
  0
TEXT
  8
_0-7_枠細線
 62
    5
 10
1848.445396090538
 20
860
 40
24
 41
1
 50
0
  1
蓋重量
  0
LINE
  8
_0-7_枠細線
  6
CONTINUOUS
 62
    5
 10
1956.445396090538
 20
768
 11
1956.445396090538
 21
896
  0
TEXT
  8
_0-7_枠細線
 62
    5
 10
1992.445396090538
 20
860
 40
24
 41
1
 50
0
  1
枠重量
  0
LINE
  8
_0-7_枠細線
  6
CONTINUOUS
 62
    5
 10
1668.445396090538
 20
848
 11
2100.4453960905375
 21
848
  0
LINE
  8
_0-7_枠細線
  6
CONTINUOUS
 62
    5
 10
1668.445396090538
 20
896
 11
2100.4453960905375
 21
896
  0
LINE
  8
_0-7_枠細線
  6
CONTINUOUS
 62
    5
 10
1668.445396090538
 20
768
 11
2100.4453960905375
 21
768
  0
LINE
  8
_0-7_枠細線
  6
CONTINUOUS
 62
    5
 10
2100.4453960905375
 20
768
 11
2100.4453960905375
 21
896
  0
TEXT
  8
_0-7_枠細線
 62
    5
 10
1980.445396090538
 20
798
 40
24
 41
0.8000000000000001
 50
0
  1
2.4kg/ｍ組
  0
TEXT
  8
_0-7_枠細線
 62
    5
 10
1846.0453960905379
 20
798
 40
24
 41
0.8000000000000001
 50
0
  1
2.3kg/ｍ
  0
TEXT
  8
_0-7_枠細線
 62
    5
 10
1712.7197380930338
 20
811.0416819459723
 40
24
 41
1
 50
0
  1
2.0kN
  0
TEXT
  8
_0-7_枠細線
 62
    5
 10
1682.7197380930338
 20
784.48258159149248
 40
24
 41
1
 50
0
  1
（200kgf）
  0
TEXT
  8
_0-7_枠細線
 62
    5
 10
1726.0453960905381
 20
688
 40
24
 41
0.8000000000000001
 50
0
  1
品　　番
  0
LINE
  8
_0-7_枠細線
  6
CONTINUOUS
 62
    5
 10
1668.4453960905378
 20
600
 11
2180.4453960905385
 21
600
  0
LINE
  8
_0-7_枠細線
  6
CONTINUOUS
 62
    5
 10
1668.4453960905378
 20
640
 11
2180.4453960905385
 21
640
  0
LINE
  8
_0-7_枠細線
  6
CONTINUOUS
 62
    5
 10
1668.4453960905378
 20
680
 11
2180.4453960905385
 21
680
  0
TEXT
  8
_0-7_枠細線
 62
    5
 10
1930.8453960905385
 20
688
 40
24
 41
0.8000000000000001
 50
0
  1
色
  0
TEXT
  8
_0-7_枠細線
 62
    5
 10
2062.0453960905388
 20
688
 40
24
 41
0.8000000000000001
 50
0
  1
備　　考
  0
LINE
  8
_0-7_枠細線
  6
CONTINUOUS
 62
    5
 10
1668.4453960905378
 20
720
 11
2180.4453960905385
 21
720
  0
LINE
  8
_0-7_枠細線
  6
CONTINUOUS
 62
    5
 10
1668.4453960905378
 20
359.99999999999994
 11
2180.4453960905385
 21
359.99999999999994
  0
LINE
  8
_0-7_枠細線
  6
CONTINUOUS
 62
    5
 10
1668.4453960905378
 20
560
 11
2180.4453960905385
 21
560
  0
LINE
  8
_0-7_枠細線
  6
CONTINUOUS
 62
    5
 10
1668.4453960905378
 20
520
 11
2180.4453960905385
 21
520
  0
LINE
  8
_0-7_枠細線
  6
CONTINUOUS
 62
    5
 10
1668.4453960905378
 20
479.99999999999994
 11
2180.4453960905385
 21
479.99999999999994
  0
LINE
  8
_0-7_枠細線
  6
CONTINUOUS
 62
    5
 10
1668.4453960905378
 20
439.99999999999994
 11
2180.4453960905385
 21
439.99999999999994
  0
LINE
  8
_0-7_枠細線
  6
CONTINUOUS
 62
    5
 10
1668.4453960905378
 20
399.99999999999994
 11
2180.4453960905385
 21
399.99999999999994
  0
TEXT
  8
_0-7_枠細線
 62
    5
 10
1826.4453960905378
 20
728
 40
28
 41
1
 50
0
  1
品番表
  0
TEXT
  8
_0-7_枠細線
 62
    5
 10
1676.0453960905386
 20
648
 40
24
 41
0.5666666666666667
 50
0
  1
ＧＲＳＫ－２０Ｗ１５０－Ｂ
  0
TEXT
  8
_0-7_枠細線
 62
    5
 10
1676.045396090539
 20
608
 40
24
 41
0.5666666666666667
 50
0
  1
ＧＲＳＫ－２０Ｗ１５０－Ｇ
  0
TEXT
  8
_0-7_枠細線
 62
    5
 10
1676.045396090539
 20
568
 40
24
 41
0.5666666666666667
 50
0
  1
ＧＲＳＫ－２０Ｗ１５０－Ｓ
  0
TEXT
  8
_0-7_枠細線
 62
    5
 10
1676.045396090539
 20
528
 40
24
 41
0.5666666666666667
 50
0
  1
ＧＲＳＫ－２０Ｗ１５０－Ｐ
  0
TEXT
  8
_0-7_枠細線
 62
    5
 10
1676.045396090539
 20
487.99999999999994
 40
24
 41
0.5666666666666667
 50
0
  1
ＧＲＳＫ－２０Ｗ１５０－Ａ
  0
TEXT
  8
_0-7_枠細線
 62
    5
 10
1676.045396090539
 20
447.99999999999994
 40
24
 41
0.5666666666666667
 50
0
  1
ＧＲＳＫ－２０Ｗ１５０－Ｄ
  0
TEXT
  8
_0-7_枠細線
 62
    5
 10
1676.045396090539
 20
407.99999999999994
 40
24
 41
0.5666666666666667
 50
0
  1
ＧＲＳＫ－２０Ｗ１５０－Ｍ
  0
LINE
  8
_0-7_枠細線
  6
CONTINUOUS
 62
    5
 10
1668.4453960905378
 20
320
 11
2180.4453960905385
 21
320
  0
TEXT
  8
_0-7_枠細線
 62
    5
 10
1676.045396090539
 20
328
 40
24
 41
0.5666666666666667
 50
0
  1
ＧＲＳＫ－２０Ｗ１５０－Ｋ
  0
LINE
  8
_0-7_枠細線
  6
CONTINUOUS
 62
    5
 10
2180.4453960905385
 20
720
 11
2180.4453960905385
 21
320
  0
LINE
  8
_0-7_枠細線
  6
CONTINUOUS
 62
    5
 10
2020.4453960905378
 20
720
 11
2020.4453960905378
 21
320
  0
LINE
  8
_0-7_枠細線
  6
CONTINUOUS
 62
    5
 10
1860.4453960905387
 20
720
 11
1860.4453960905387
 21
320
  0
LINE
  8
_0-7_枠細線
  6
CONTINUOUS
 62
    5
 10
1668.4453960905378
 20
720
 11
1668.4453960905378
 21
320
  0
TEXT
  8
_0-7_枠細線
 62
    5
 10
1676.0453960905386
 20
367.99999999999994
 40
24
 41
0.5666666666666667
 50
0
  1
ＧＲＳＫ－２０Ｗ１５０－Ｃ
  0
LINE
  8
_0-7_枠細線
  6
CONTINUOUS
 62
    5
 10
1663.9957483157664
 20
368.25005390401572
 11
1651.9957483157664
 21
392.25005390401572
  0
LINE
  8
_0-7_枠細線
  6
CONTINUOUS
 62
    5
 10
1639.9957483157664
 20
368.25005390401572
 11
1663.9957483157664
 21
368.25005390401572
  0
LINE
  8
_0-7_枠細線
  6
CONTINUOUS
 62
    5
 10
1651.9957483157664
 20
392.25005390401572
 11
1639.9957483157664
 21
368.25005390401572
  0
TEXT
  8
_0-7_枠細線
 62
    5
 10
1643.7799903448033
 20
366.73194196025582
 40
20
 41
0.8
 50
0
  1
４
  0
TEXT
  8
_0-7_枠細線
 62
    5
 10
1502.1605925925933
 20
1344
 40
20
 41
1
 50
0
  1
アンカー材質･厚み変更
  0
LINE
  8
_0-7_枠細線
  6
CONTINUOUS
 62
    5
 10
1464.0000000000009
 20
1314.307734354795
 11
1452.0000000000009
 21
1338.307734354795
  0
LINE
  8
_0-7_枠細線
  6
CONTINUOUS
 62
    5
 10
1440.0000000000009
 20
1314.307734354795
 11
1464.0000000000009
 21
1314.307734354795
  0
LINE
  8
_0-7_枠細線
  6
CONTINUOUS
 62
    5
 10
1452.0000000000009
 20
1338.307734354795
 11
1440.0000000000009
 21
1314.307734354795
  0
LINE
  8
_0-7_枠細線
  6
CONTINUOUS
 62
    5
 10
2280.0000000000009
 20
1312
 11
1424.0000000000009
 21
1312
  0
LINE
  8
_0-7_枠細線
  6
CONTINUOUS
 62
    5
 10
1464.0000000000009
 20
1286.307734354795
 11
1452.0000000000009
 21
1310.307734354795
  0
LINE
  8
_0-7_枠細線
  6
CONTINUOUS
 62
    5
 10
1440.0000000000009
 20
1286.307734354795
 11
1464.0000000000009
 21
1286.307734354795
  0
LINE
  8
_0-7_枠細線
  6
CONTINUOUS
 62
    5
 10
1452.0000000000009
 20
1310.307734354795
 11
1440.0000000000009
 21
1286.307734354795
  0
LINE
  8
_0-7_枠細線
  6
CONTINUOUS
 62
    5
 10
2280.0000000000009
 20
1284
 11
1424.0000000000009
 21
1284
  0
LINE
  8
_0-7_枠細線
  6
CONTINUOUS
 62
    5
 10
1424.0000000000009
 20
1284
 11
1424.0000000000009
 21
1535.9999999999986
  0
LINE
  8
_0-7_枠細線
  6
CONTINUOUS
 62
    5
 10
1480.0000000000009
 20
1284
 11
1480.0000000000009
 21
1535.9999999999986
  0
LINE
  8
_0-7_枠細線
  6
CONTINUOUS
 62
    5
 10
1880.0000000000009
 20
1284
 11
1880.0000000000009
 21
1535.9999999999986
  0
LINE
  8
_0-7_枠細線
  6
CONTINUOUS
 62
    5
 10
2040.0000000000009
 20
1284
 11
2040.0000000000009
 21
1535.9999999999986
  0
TEXT
  8
_0-7_枠細線
 62
    5
 10
1443.7842420290381
 20
1312.7896224110355
 40
20
 41
0.8
 50
0
  1
６
  0
TEXT
  8
_0-7_枠細線
 62
    5
 10
1443.7842420290381
 20
1284.7896224110352
 40
20
 41
0.8
 50
0
  1
７
  0
TEXT
  8
_0-7_枠細線
 62
    5
 10
1882.8453960905388
 20
608
 40
24
 41
0.7999999999999999
 50
0
  1
ライトグレー
  0
TEXT
  8
_0-7_枠細線
 62
    5
 10
1902.0453960905386
 20
648
 40
24
 41
0.7999999999999999
 50
0
  1
ベージュ
  0
TEXT
  8
_0-7_枠細線
 62
    5
 10
1902.0453960905386
 20
568
 40
24
 41
0.7999999999999999
 50
0
  1
ホワイト
  0
TEXT
  8
_0-7_枠細線
 62
    5
 10
1911.6453960905387
 20
528
 40
24
 41
0.7999999999999999
 50
0
  1
ピンク
  0
TEXT
  8
_0-7_枠細線
 62
    5
 10
1911.6453960905387
 20
487.99999999999994
 40
24
 41
0.7999999999999999
 50
0
  1
ブルー
  0
TEXT
  8
_0-7_枠細線
 62
    5
 10
1882.8453960905388
 20
447.99999999999994
 40
24
 41
0.7999999999999999
 50
0
  1
ダークグレー
  0
TEXT
  8
_0-7_枠細線
 62
    5
 10
1911.6453960905387
 20
407.99999999999994
 40
24
 41
0.7999999999999999
 50
0
  1
ウッド
  0
TEXT
  8
_0-7_枠細線
 62
    5
 10
1902.0453960905386
 20
328
 40
24
 41
0.7999999999999999
 50
0
  1
ブラック
  0
TEXT
  8
_0-7_枠細線
 62
    5
 10
1902.0453960905386
 20
367.99999999999994
 40
24
 41
0.7999999999999999
 50
0
  1
ブラウン
  0
LINE
  8
_0-7_枠細線
  6
CONTINUOUS
 62
    5
 10
1668.445396090538
 20
1133.8946910356817
 11
1668.445396090538
 21
1013.8946910356817
  0
TEXT
  8
_0-7_枠細線
 62
    5
 10
1671.7225259619299
 20
980.73377816458571
 40
24
 41
0.8000000000000001
 50
0
  1
※ 特寸品はAが20以下となるようBにて調整
  0
TEXT
  8
_0-7_枠細線
 62
    5
 10
1671.7225259619299
 20
949.54143699835424
 40
24
 41
0.8000000000000001
 50
0
  1
※ 角型の場合は、集水マス補強仕様による
  0
TEXT
  8
_0-7_枠細線
 62
    5
 10
1709.6453960905401
 20
1101.8946910356817
 40
24
 41
0.8000000000000001
 50
0
  1
種　別
  0
TEXT
  8
_0-7_枠細線
 62
    5
 10
1709.6453960905394
 20
1061.8946910356817
 40
24
 41
0.8000000000000001
 50
0
  1
定尺品
  0
TEXT
  8
_0-7_枠細線
 62
    5
 10
1709.6453960905394
 20
1021.8946910356817
 40
24
 41
0.8000000000000001
 50
0
  1
特寸品
  0
LINE
  8
_0-7_枠細線
  6
CONTINUOUS
 62
    5
 10
1808.4453960905403
 20
1133.8946910356817
 11
1808.4453960905403
 21
1013.8946910356817
  0
TEXT
  8
_0-7_枠細線
 62
    5
 10
1856.8453960905424
 20
1061.8946910356817
 40
24
 41
0.5999999999999999
 50
0
  1
９９９
  0
TEXT
  8
_0-7_枠細線
 62
    5
 10
1868.8453960905424
 20
1101.8946910356817
 40
24
 41
0.8000000000000001
 50
0
  1
Ｌ
  0
TEXT
  8
_0-7_枠細線
 62
    5
 10
1820.8453960905408
 20
1021.8946910356817
 40
24
 41
0.5999999999999999
 50
0
  1
３０５～１３０５
  0
LINE
  8
_0-7_枠細線
  6
CONTINUOUS
 62
    5
 10
1948.4453960905403
 20
1133.8946910356817
 11
1948.4453960905403
 21
1013.8946910356817
  0
TEXT
  8
_0-7_枠細線
 62
    5
 10
1849.254021948771
 20
1141.8946910356817
 40
28
 41
1
 50
0
  1
寸法表
  0
LINE
  8
_0-7_枠細線
  6
CONTINUOUS
 62
    5
 10
2228.4453960905416
 20
1133.8946910356817
 11
2228.4453960905416
 21
1013.8946910356817
  0
LINE
  8
_0-7_枠細線
  6
CONTINUOUS
 62
    5
 10
1668.445396090538
 20
1133.8946910356817
 11
2228.4453960905416
 21
1133.8946910356817
  0
LINE
  8
_0-7_枠細線
  6
CONTINUOUS
 62
    5
 10
1668.445396090538
 20
1093.8946910356817
 11
2228.4453960905416
 21
1093.8946910356817
  0
LINE
  8
_0-7_枠細線
  6
CONTINUOUS
 62
    5
 10
1668.445396090538
 20
1053.8946910356817
 11
2228.4453960905416
 21
1053.8946910356817
  0
LINE
  8
_0-7_枠細線
  6
CONTINUOUS
 62
    5
 10
1668.445396090538
 20
1013.8946910356817
 11
2228.4453960905416
 21
1013.8946910356817
  0
LINE
  8
_0-7_枠細線
  6
CONTINUOUS
 62
    5
 10
2088.4453960905412
 20
1133.8946910356817
 11
2088.4453960905412
 21
1013.8946910356817
  0
TEXT
  8
_0-7_枠細線
 62
    5
 10
1989.6453960905446
 20
1021.8946910356817
 40
24
 41
0.5999999999999999
 50
0
  1
７～２０
  0
TEXT
  8
_0-7_枠細線
 62
    5
 10
2008.8453960905458
 20
1101.8946910356817
 40
24
 41
0.8000000000000001
 50
0
  1
Ａ
  0
TEXT
  8
_0-7_枠細線
 62
    5
 10
2148.8453960905431
 20
1101.8946910356817
 40
24
 41
0.8000000000000001
 50
0
  1
Ｂ
  0
TEXT
  8
_0-7_枠細線
 62
    5
 10
2129.6453960905396
 20
1061.8946910356817
 40
24
 41
0.5999999999999999
 50
0
  1
４８．５
  0
TEXT
  8
_0-7_枠細線
 62
    5
 10
1989.6453960905405
 20
1061.8946910356817
 40
24
 41
0.5999999999999999
 50
0
  1
１４．５
  0
TEXT
  8
_0-7_枠細線
 62
    5
 10
2093.6453960905415
 20
1021.8946910356817
 40
24
 41
0.5999999999999999
 50
0
  1
２６．５～４８．５
  0
LINE
  8
_0-1_計細線
  6
CONTINUOUS
 62
    3
 10
337.73722627737197
 20
1070.3867850222434
 11
1336.737226277372
 21
1070.3867850222434
  0
LINE
  8
_0-1_計細線
  6
CONTINUOUS
 62
    3
 10
337.73722627737197
 20
1058.9867850222429
 11
1336.737226277372
 21
1058.9867850222429
  0
LINE
  8
_0-1_計細線
  6
CONTINUOUS
 62
    3
 10
337.73722627737197
 20
1070.3867850222434
 11
337.73722627737197
 21
1058.9867850222429
  0
LINE
  8
_0-1_計細線
  6
CONTINUOUS
 62
    3
 10
1336.737226277372
 20
1070.3867850222434
 11
1336.737226277372
 21
1058.9867850222429
  0
LINE
  8
_0-0_計極細
  6
CONTINUOUS
 62
    2
 10
337.73722627737197
 20
1062.1867850222432
 11
1336.737226277372
 21
1062.1867850222432
  0
LINE
  8
_0-0_計極細
  6
CONTINUOUS
 62
    2
 10
337.73722627737197
 20
1067.1867850222432
 11
1336.737226277372
 21
1067.1867850222432
  0
LINE
  8
_0-1_計細線
  6
CONTINUOUS
 62
    3
 10
337.73722627737197
 20
1053.2867850222435
 11
1336.737226277372
 21
1053.2867850222435
  0
LINE
  8
_0-1_計細線
  6
CONTINUOUS
 62
    3
 10
337.73722627737197
 20
1041.886785022243
 11
1336.737226277372
 21
1041.886785022243
  0
LINE
  8
_0-1_計細線
  6
CONTINUOUS
 62
    3
 10
337.73722627737197
 20
1053.2867850222435
 11
337.73722627737197
 21
1041.886785022243
  0
LINE
  8
_0-1_計細線
  6
CONTINUOUS
 62
    3
 10
1336.737226277372
 20
1053.2867850222435
 11
1336.737226277372
 21
1041.886785022243
  0
LINE
  8
_0-0_計極細
  6
CONTINUOUS
 62
    2
 10
337.73722627737197
 20
1045.0867850222432
 11
1336.737226277372
 21
1045.0867850222432
  0
LINE
  8
_0-0_計極細
  6
CONTINUOUS
 62
    2
 10
337.73722627737197
 20
1050.0867850222432
 11
1336.737226277372
 21
1050.0867850222432
  0
LINE
  8
_0-1_計細線
  6
CONTINUOUS
 62
    3
 10
337.73722627737197
 20
1035.8867850222425
 11
1336.737226277372
 21
1035.8867850222425
  0
LINE
  8
_0-1_計細線
  6
CONTINUOUS
 62
    3
 10
337.73722627737197
 20
1024.486785022242
 11
1336.737226277372
 21
1024.486785022242
  0
LINE
  8
_0-1_計細線
  6
CONTINUOUS
 62
    3
 10
337.73722627737197
 20
1035.8867850222425
 11
337.73722627737197
 21
1024.486785022242
  0
LINE
  8
_0-1_計細線
  6
CONTINUOUS
 62
    3
 10
1336.737226277372
 20
1035.8867850222425
 11
1336.737226277372
 21
1024.486785022242
  0
LINE
  8
_0-0_計極細
  6
CONTINUOUS
 62
    2
 10
337.73722627737197
 20
1027.6867850222427
 11
1336.737226277372
 21
1027.6867850222427
  0
LINE
  8
_0-0_計極細
  6
CONTINUOUS
 62
    2
 10
337.73722627737197
 20
1032.6867850222427
 11
1336.737226277372
 21
1032.6867850222427
  0
LINE
  8
_0-1_計細線
  6
CONTINUOUS
 62
    3
 10
337.73722627737197
 20
920.38678502224343
 11
1336.737226277372
 21
920.38678502224343
  0
LINE
  8
_0-1_計細線
  6
CONTINUOUS
 62
    3
 10
337.73722627737197
 20
931.78678502224398
 11
1336.737226277372
 21
931.78678502224398
  0
LINE
  8
_0-1_計細線
  6
CONTINUOUS
 62
    3
 10
337.73722627737197
 20
920.38678502224343
 11
337.73722627737197
 21
931.78678502224398
  0
LINE
  8
_0-1_計細線
  6
CONTINUOUS
 62
    3
 10
1336.737226277372
 20
920.38678502224343
 11
1336.737226277372
 21
931.78678502224398
  0
LINE
  8
_0-0_計極細
  6
CONTINUOUS
 62
    2
 10
337.73722627737197
 20
928.5867850222437
 11
1336.737226277372
 21
928.5867850222437
  0
LINE
  8
_0-0_計極細
  6
CONTINUOUS
 62
    2
 10
337.73722627737197
 20
923.5867850222437
 11
1336.737226277372
 21
923.5867850222437
  0
LINE
  8
_0-1_計細線
  6
CONTINUOUS
 62
    3
 10
337.73722627737197
 20
937.48678502224334
 11
1336.737226277372
 21
937.48678502224334
  0
LINE
  8
_0-1_計細線
  6
CONTINUOUS
 62
    3
 10
337.73722627737197
 20
948.88678502224388
 11
1336.737226277372
 21
948.88678502224388
  0
LINE
  8
_0-1_計細線
  6
CONTINUOUS
 62
    3
 10
337.73722627737197
 20
937.48678502224334
 11
337.73722627737197
 21
948.88678502224388
  0
LINE
  8
_0-1_計細線
  6
CONTINUOUS
 62
    3
 10
1336.737226277372
 20
937.48678502224334
 11
1336.737226277372
 21
948.88678502224388
  0
LINE
  8
_0-0_計極細
  6
CONTINUOUS
 62
    2
 10
337.73722627737197
 20
945.68678502224361
 11
1336.737226277372
 21
945.68678502224361
  0
LINE
  8
_0-0_計極細
  6
CONTINUOUS
 62
    2
 10
337.73722627737197
 20
940.68678502224361
 11
1336.737226277372
 21
940.68678502224361
  0
LINE
  8
_0-1_計細線
  6
CONTINUOUS
 62
    3
 10
337.73722627737197
 20
954.88678502224434
 11
1336.737226277372
 21
954.88678502224434
  0
LINE
  8
_0-1_計細線
  6
CONTINUOUS
 62
    3
 10
337.73722627737197
 20
966.28678502224489
 11
1336.737226277372
 21
966.28678502224489
  0
LINE
  8
_0-1_計細線
  6
CONTINUOUS
 62
    3
 10
337.73722627737197
 20
954.88678502224434
 11
337.73722627737197
 21
966.28678502224489
  0
LINE
  8
_0-1_計細線
  6
CONTINUOUS
 62
    3
 10
1336.737226277372
 20
954.88678502224434
 11
1336.737226277372
 21
966.28678502224489
  0
LINE
  8
_0-0_計極細
  6
CONTINUOUS
 62
    2
 10
337.73722627737197
 20
963.08678502224416
 11
1336.737226277372
 21
963.08678502224416
  0
LINE
  8
_0-0_計極細
  6
CONTINUOUS
 62
    2
 10
337.73722627737197
 20
958.08678502224416
 11
1336.737226277372
 21
958.08678502224416
  0
LINE
  8
_0-1_計細線
  6
CONTINUOUS
 62
    3
 10
337.73722627737197
 20
972.28678502224489
 11
1336.737226277372
 21
972.28678502224489
  0
LINE
  8
_0-1_計細線
  6
CONTINUOUS
 62
    3
 10
337.73722627737197
 20
983.68678502224543
 11
1336.737226277372
 21
983.68678502224543
  0
LINE
  8
_0-1_計細線
  6
CONTINUOUS
 62
    3
 10
337.73722627737197
 20
972.28678502224489
 11
337.73722627737197
 21
983.68678502224543
  0
LINE
  8
_0-1_計細線
  6
CONTINUOUS
 62
    3
 10
1336.737226277372
 20
972.28678502224489
 11
1336.737226277372
 21
983.68678502224543
  0
LINE
  8
_0-0_計極細
  6
CONTINUOUS
 62
    2
 10
337.73722627737197
 20
980.48678502224516
 11
1336.737226277372
 21
980.48678502224516
  0
LINE
  8
_0-0_計極細
  6
CONTINUOUS
 62
    2
 10
337.73722627737197
 20
975.48678502224516
 11
1336.737226277372
 21
975.48678502224516
  0
LINE
  8
_0-0_計極細
  6
CENTER2
 62
    2
 10
321.84862674035276
 20
995.38678502224343
 11
1352.7819600737298
 21
995.38678502224343
  0
ARC
  8
_0-0_計極細
  6
CONTINUOUS
 62
    2
 10
324.68344743405623
 20
1067.8867850222434
 40
11.295514677412786
 50
138.39585046827571
 51
221.60414953172395
  0
ARC
  8
_0-0_計極細
  6
CONTINUOUS
 62
    2
 10
307.7910051206859
 20
1052.8867850222421
 40
11.295514677412786
 50
318.39585046827381
 51
41.604149531723962
  0
ARC
  8
_0-0_計極細
  6
CONTINUOUS
 62
    2
 10
324.68344743405623
 20
937.88678502224207
 40
11.295514677412786
 50
138.39585046827571
 51
221.60414953172395
  0
ARC
  8
_0-0_計極細
  6
CONTINUOUS
 62
    2
 10
307.7910051206859
 20
922.8867850222407
 40
11.295514677412786
 50
318.39585046827381
 51
41.604149531723962
  0
LINE
  8
_0-1_計細線
  6
CONTINUOUS
 62
    3
 10
316.23722627737061
 20
1075.3867850222434
 11
1358.237226277372
 21
1075.3867850222434
  0
LINE
  8
_0-1_計細線
  6
CONTINUOUS
 62
    3
 10
1358.237226277372
 20
915.38678502224343
 11
316.23722627737061
 21
915.38678502224343
  0
ARC
  8
_0-0_計極細
  6
CONTINUOUS
 62
    2
 10
1366.6834474340571
 20
1067.8867850222434
 40
11.295514677412786
 50
138.39585046827264
 51
221.60414953172702
  0
ARC
  8
_0-0_計極細
  6
CONTINUOUS
 62
    2
 10
1349.7910051206868
 20
1052.8867850222421
 40
11.295514677412786
 50
318.39585046827534
 51
41.604149531723962
  0
ARC
  8
_0-0_計極細
  6
CONTINUOUS
 62
    2
 10
1366.6834474340571
 20
937.88678502224207
 40
11.295514677412786
 50
138.39585046827264
 51
221.60414953172702
  0
ARC
  8
_0-0_計極細
  6
CONTINUOUS
 62
    2
 10
1349.7910051206868
 20
922.8867850222407
 40
11.295514677412786
 50
318.39585046827534
 51
41.604149531723962
  0
LINE
  8
_0-1_計細線
  6
CONTINUOUS
 62
    3
 10
314.32301057899804
 20
1072.3867850222434
 11
1356.3230105789994
 21
1072.3867850222434
  0
LINE
  8
_0-1_計細線
  6
CONTINUOUS
 62
    3
 10
1360.1514419757464
 20
918.38678502224343
 11
318.15144197574637
 21
918.38678502224343
  0
LINE
  8
_0-1_計細線
  6
CONTINUOUS
 62
    3
 10
1336.737226277372
 20
945.38678502224343
 11
1358.237226277372
 21
945.38678502224343
  0
LINE
  8
_0-1_計細線
  6
CONTINUOUS
 62
    3
 10
1336.737226277372
 20
1045.3867850222434
 11
1358.237226277372
 21
1045.3867850222434
  0
LINE
  8
_0-1_計細線
  6
CONTINUOUS
 62
    3
 10
316.23722627737061
 20
1045.3867850222434
 11
337.73722627737197
 21
1045.3867850222434
  0
LINE
  8
_0-1_計細線
  6
CONTINUOUS
 62
    3
 10
316.23722627737061
 20
945.38678502224343
 11
337.73722627737197
 21
945.38678502224343
  0
LINE
  8
_0-0_計極細
  6
CONTINUOUS
 62
    2
 10
345.73722627737197
 20
1058.9867850222429
 11
345.73722627737197
 21
1053.2867850222426
  0
LINE
  8
_0-0_計極細
  6
CONTINUOUS
 62
    2
 10
358.73722627737197
 20
1058.9867850222429
 11
358.73722627737197
 21
1053.2867850222426
  0
LINE
  8
_0-0_計極細
  6
CONTINUOUS
 62
    2
 10
345.73722627737197
 20
1041.886785022243
 11
345.73722627737197
 21
1035.8867850222425
  0
LINE
  8
_0-0_計極細
  6
CONTINUOUS
 62
    2
 10
358.73722627737197
 20
1041.886785022243
 11
358.73722627737197
 21
1035.8867850222425
  0
LINE
  8
_0-0_計極細
  6
CONTINUOUS
 62
    2
 10
345.73722627737197
 20
1024.486785022242
 11
345.73722627737197
 21
1018.486785022242
  0
LINE
  8
_0-0_計極細
  6
CONTINUOUS
 62
    2
 10
358.73722627737197
 20
1024.486785022242
 11
358.73722627737197
 21
1018.486785022242
  0
LINE
  8
_0-0_計極細
  6
CONTINUOUS
 62
    2
 10
345.73722627737197
 20
1007.0867850222414
 11
345.73722627737197
 21
1001.0867850222414
  0
LINE
  8
_0-0_計極細
  6
CONTINUOUS
 62
    2
 10
358.73722627737197
 20
1007.0867850222414
 11
358.73722627737197
 21
1001.0867850222414
  0
LINE
  8
_0-0_計極細
  6
CONTINUOUS
 62
    2
 10
345.73722627737197
 20
989.68678502224088
 11
345.73722627737197
 21
983.68678502224088
  0
LINE
  8
_0-0_計極細
  6
CONTINUOUS
 62
    2
 10
358.73722627737197
 20
989.68678502224088
 11
358.73722627737197
 21
983.68678502224088
  0
LINE
  8
_0-0_計極細
  6
CONTINUOUS
 62
    2
 10
345.73722627737197
 20
931.78678502224398
 11
345.73722627737197
 21
937.48678502224425
  0
LINE
  8
_0-0_計極細
  6
CONTINUOUS
 62
    2
 10
358.73722627737197
 20
931.78678502224398
 11
358.73722627737197
 21
937.48678502224425
  0
LINE
  8
_0-0_計極細
  6
CONTINUOUS
 62
    2
 10
345.73722627737197
 20
948.88678502224388
 11
345.73722627737197
 21
954.88678502224434
  0
LINE
  8
_0-0_計極細
  6
CONTINUOUS
 62
    2
 10
358.73722627737197
 20
948.88678502224388
 11
358.73722627737197
 21
954.88678502224434
  0
LINE
  8
_0-0_計極細
  6
CONTINUOUS
 62
    2
 10
345.73722627737197
 20
966.28678502224489
 11
345.73722627737197
 21
972.28678502224489
  0
LINE
  8
_0-0_計極細
  6
CONTINUOUS
 62
    2
 10
358.73722627737197
 20
966.28678502224489
 11
358.73722627737197
 21
972.28678502224489
  0
LINE
  8
_0-0_計極細
  6
CENTER1
 62
    2
 10
352.23722627737197
 20
1079.1375044467056
 11
352.23722627737197
 21
912.62896128123089
  0
LINE
  8
_0-0_計極細
  6
CONTINUOUS
 62
    2
 10
1315.737226277372
 20
1058.9867850222429
 11
1315.737226277372
 21
1053.2867850222426
  0
LINE
  8
_0-0_計極細
  6
CONTINUOUS
 62
    2
 10
1328.737226277372
 20
1058.9867850222429
 11
1328.737226277372
 21
1053.2867850222426
  0
LINE
  8
_0-0_計極細
  6
CONTINUOUS
 62
    2
 10
1315.737226277372
 20
1041.886785022243
 11
1315.737226277372
 21
1035.8867850222425
  0
LINE
  8
_0-0_計極細
  6
CONTINUOUS
 62
    2
 10
1328.737226277372
 20
1041.886785022243
 11
1328.737226277372
 21
1035.8867850222425
  0
LINE
  8
_0-0_計極細
  6
CONTINUOUS
 62
    2
 10
1315.737226277372
 20
1024.486785022242
 11
1315.737226277372
 21
1018.486785022242
  0
LINE
  8
_0-0_計極細
  6
CONTINUOUS
 62
    2
 10
1328.737226277372
 20
1024.486785022242
 11
1328.737226277372
 21
1018.486785022242
  0
LINE
  8
_0-0_計極細
  6
CONTINUOUS
 62
    2
 10
1315.737226277372
 20
1007.0867850222414
 11
1315.737226277372
 21
1001.0867850222414
  0
LINE
  8
_0-0_計極細
  6
CONTINUOUS
 62
    2
 10
1328.737226277372
 20
1007.0867850222414
 11
1328.737226277372
 21
1001.0867850222414
  0
LINE
  8
_0-0_計極細
  6
CONTINUOUS
 62
    2
 10
1315.737226277372
 20
989.68678502224088
 11
1315.737226277372
 21
983.68678502224088
  0
LINE
  8
_0-0_計極細
  6
CONTINUOUS
 62
    2
 10
1328.737226277372
 20
989.68678502224088
 11
1328.737226277372
 21
983.68678502224088
  0
LINE
  8
_0-0_計極細
  6
CONTINUOUS
 62
    2
 10
1315.737226277372
 20
931.78678502224398
 11
1315.737226277372
 21
937.48678502224425
  0
LINE
  8
_0-0_計極細
  6
CONTINUOUS
 62
    2
 10
1328.737226277372
 20
931.78678502224398
 11
1328.737226277372
 21
937.48678502224425
  0
LINE
  8
_0-0_計極細
  6
CONTINUOUS
 62
    2
 10
1315.737226277372
 20
948.88678502224388
 11
1315.737226277372
 21
954.88678502224434
  0
LINE
  8
_0-0_計極細
  6
CONTINUOUS
 62
    2
 10
1328.737226277372
 20
948.88678502224388
 11
1328.737226277372
 21
954.88678502224434
  0
LINE
  8
_0-0_計極細
  6
CONTINUOUS
 62
    2
 10
1315.737226277372
 20
966.28678502224489
 11
1315.737226277372
 21
972.28678502224489
  0
LINE
  8
_0-0_計極細
  6
CONTINUOUS
 62
    2
 10
1328.737226277372
 20
966.28678502224489
 11
1328.737226277372
 21
972.28678502224489
  0
LINE
  8
_0-0_計極細
  6
CENTER1
 62
    2
 10
1322.237226277372
 20
1079.1375044467056
 11
1322.237226277372
 21
912.62896128123089
  0
LINE
  8
_0-0_計極細
  6
CONTINUOUS
 62
    2
 10
442.73722627737197
 20
1058.9867850222429
 11
442.73722627737197
 21
1053.2867850222426
  0
LINE
  8
_0-0_計極細
  6
CONTINUOUS
 62
    2
 10
455.73722627737197
 20
1058.9867850222429
 11
455.73722627737197
 21
1053.2867850222426
  0
LINE
  8
_0-0_計極細
  6
CONTINUOUS
 62
    2
 10
442.73722627737197
 20
1041.886785022243
 11
442.73722627737197
 21
1035.8867850222425
  0
LINE
  8
_0-0_計極細
  6
CONTINUOUS
 62
    2
 10
455.73722627737197
 20
1041.886785022243
 11
455.73722627737197
 21
1035.8867850222425
  0
LINE
  8
_0-0_計極細
  6
CONTINUOUS
 62
    2
 10
442.73722627737197
 20
1024.486785022242
 11
442.73722627737197
 21
1018.486785022242
  0
LINE
  8
_0-0_計極細
  6
CONTINUOUS
 62
    2
 10
455.73722627737197
 20
1024.486785022242
 11
455.73722627737197
 21
1018.486785022242
  0
LINE
  8
_0-0_計極細
  6
CONTINUOUS
 62
    2
 10
442.73722627737197
 20
989.68678502224088
 11
442.73722627737197
 21
983.68678502224088
  0
LINE
  8
_0-0_計極細
  6
CONTINUOUS
 62
    2
 10
455.73722627737197
 20
989.68678502224088
 11
455.73722627737197
 21
983.68678502224088
  0
LINE
  8
_0-0_計極細
  6
CONTINUOUS
 62
    2
 10
442.73722627737197
 20
931.78678502224398
 11
442.73722627737197
 21
937.48678502224425
  0
LINE
  8
_0-0_計極細
  6
CONTINUOUS
 62
    2
 10
455.73722627737197
 20
931.78678502224398
 11
455.73722627737197
 21
937.48678502224425
  0
LINE
  8
_0-0_計極細
  6
CONTINUOUS
 62
    2
 10
442.73722627737197
 20
948.88678502224388
 11
442.73722627737197
 21
954.88678502224434
  0
LINE
  8
_0-0_計極細
  6
CONTINUOUS
 62
    2
 10
455.73722627737197
 20
948.88678502224388
 11
455.73722627737197
 21
954.88678502224434
  0
LINE
  8
_0-0_計極細
  6
CONTINUOUS
 62
    2
 10
442.73722627737197
 20
966.28678502224489
 11
442.73722627737197
 21
972.28678502224489
  0
LINE
  8
_0-0_計極細
  6
CONTINUOUS
 62
    2
 10
455.73722627737197
 20
966.28678502224489
 11
455.73722627737197
 21
972.28678502224489
  0
LINE
  8
_0-0_計極細
  6
CENTER1
 62
    2
 10
449.23722627737197
 20
1079.1375044467056
 11
449.23722627737197
 21
912.62896128123089
  0
LINE
  8
_0-0_計極細
  6
CONTINUOUS
 62
    2
 10
1218.737226277372
 20
1058.9867850222429
 11
1218.737226277372
 21
1053.2867850222426
  0
LINE
  8
_0-0_計極細
  6
CONTINUOUS
 62
    2
 10
1231.737226277372
 20
1058.9867850222429
 11
1231.737226277372
 21
1053.2867850222426
  0
LINE
  8
_0-0_計極細
  6
CONTINUOUS
 62
    2
 10
1218.737226277372
 20
1041.886785022243
 11
1218.737226277372
 21
1035.8867850222425
  0
LINE
  8
_0-0_計極細
  6
CONTINUOUS
 62
    2
 10
1231.737226277372
 20
1041.886785022243
 11
1231.737226277372
 21
1035.8867850222425
  0
LINE
  8
_0-0_計極細
  6
CONTINUOUS
 62
    2
 10
1218.737226277372
 20
1024.486785022242
 11
1218.737226277372
 21
1018.486785022242
  0
LINE
  8
_0-0_計極細
  6
CONTINUOUS
 62
    2
 10
1231.737226277372
 20
1024.486785022242
 11
1231.737226277372
 21
1018.486785022242
  0
LINE
  8
_0-0_計極細
  6
CONTINUOUS
 62
    2
 10
1218.737226277372
 20
1007.0867850222414
 11
1218.737226277372
 21
1001.0867850222414
  0
LINE
  8
_0-0_計極細
  6
CONTINUOUS
 62
    2
 10
1231.737226277372
 20
1007.0867850222414
 11
1231.737226277372
 21
1001.0867850222414
  0
LINE
  8
_0-0_計極細
  6
CONTINUOUS
 62
    2
 10
1218.737226277372
 20
989.68678502224088
 11
1218.737226277372
 21
983.68678502224088
  0
LINE
  8
_0-0_計極細
  6
CONTINUOUS
 62
    2
 10
1231.737226277372
 20
989.68678502224088
 11
1231.737226277372
 21
983.68678502224088
  0
LINE
  8
_0-0_計極細
  6
CONTINUOUS
 62
    2
 10
1218.737226277372
 20
931.78678502224398
 11
1218.737226277372
 21
937.48678502224425
  0
LINE
  8
_0-0_計極細
  6
CONTINUOUS
 62
    2
 10
1231.737226277372
 20
931.78678502224398
 11
1231.737226277372
 21
937.48678502224425
  0
LINE
  8
_0-0_計極細
  6
CONTINUOUS
 62
    2
 10
1218.737226277372
 20
948.88678502224388
 11
1218.737226277372
 21
954.88678502224434
  0
LINE
  8
_0-0_計極細
  6
CONTINUOUS
 62
    2
 10
1231.737226277372
 20
948.88678502224388
 11
1231.737226277372
 21
954.88678502224434
  0
LINE
  8
_0-0_計極細
  6
CONTINUOUS
 62
    2
 10
1218.737226277372
 20
966.28678502224489
 11
1218.737226277372
 21
972.28678502224489
  0
LINE
  8
_0-0_計極細
  6
CONTINUOUS
 62
    2
 10
1231.737226277372
 20
966.28678502224489
 11
1231.737226277372
 21
972.28678502224489
  0
LINE
  8
_0-0_計極細
  6
CENTER1
 62
    2
 10
1225.237226277372
 20
1079.1375044467056
 11
1225.237226277372
 21
912.62896128123089
  0
LINE
  8
_0-0_計極細
  6
CONTINUOUS
 62
    2
 10
491.23722627737197
 20
1058.9867850222429
 11
491.23722627737197
 21
1053.2867850222426
  0
LINE
  8
_0-0_計極細
  6
CONTINUOUS
 62
    2
 10
504.23722627737197
 20
1058.9867850222429
 11
504.23722627737197
 21
1053.2867850222426
  0
LINE
  8
_0-0_計極細
  6
CONTINUOUS
 62
    2
 10
491.23722627737197
 20
1041.886785022243
 11
491.23722627737197
 21
1035.8867850222425
  0
LINE
  8
_0-0_計極細
  6
CONTINUOUS
 62
    2
 10
504.23722627737197
 20
1041.886785022243
 11
504.23722627737197
 21
1035.8867850222425
  0
LINE
  8
_0-0_計極細
  6
CONTINUOUS
 62
    2
 10
491.23722627737197
 20
1024.486785022242
 11
491.23722627737197
 21
1018.486785022242
  0
LINE
  8
_0-0_計極細
  6
CONTINUOUS
 62
    2
 10
504.23722627737197
 20
1024.486785022242
 11
504.23722627737197
 21
1018.486785022242
  0
LINE
  8
_0-0_計極細
  6
CONTINUOUS
 62
    2
 10
491.23722627737197
 20
1007.0867850222414
 11
491.23722627737197
 21
1001.0867850222414
  0
LINE
  8
_0-0_計極細
  6
CONTINUOUS
 62
    2
 10
504.23722627737197
 20
1007.0867850222414
 11
504.23722627737197
 21
1001.0867850222414
  0
LINE
  8
_0-0_計極細
  6
CONTINUOUS
 62
    2
 10
491.23722627737197
 20
989.68678502224088
 11
491.23722627737197
 21
983.68678502224088
  0
LINE
  8
_0-0_計極細
  6
CONTINUOUS
 62
    2
 10
504.23722627737197
 20
989.68678502224088
 11
504.23722627737197
 21
983.68678502224088
  0
LINE
  8
_0-0_計極細
  6
CONTINUOUS
 62
    2
 10
491.23722627737197
 20
931.78678502224398
 11
491.23722627737197
 21
937.48678502224425
  0
LINE
  8
_0-0_計極細
  6
CONTINUOUS
 62
    2
 10
504.23722627737197
 20
931.78678502224398
 11
504.23722627737197
 21
937.48678502224425
  0
LINE
  8
_0-0_計極細
  6
CONTINUOUS
 62
    2
 10
491.23722627737197
 20
948.88678502224388
 11
491.23722627737197
 21
954.88678502224434
  0
LINE
  8
_0-0_計極細
  6
CONTINUOUS
 62
    2
 10
504.23722627737197
 20
948.88678502224388
 11
504.23722627737197
 21
954.88678502224434
  0
LINE
  8
_0-0_計極細
  6
CONTINUOUS
 62
    2
 10
491.23722627737197
 20
966.28678502224489
 11
491.23722627737197
 21
972.28678502224489
  0
LINE
  8
_0-0_計極細
  6
CONTINUOUS
 62
    2
 10
504.23722627737197
 20
966.28678502224489
 11
504.23722627737197
 21
972.28678502224489
  0
LINE
  8
_0-0_計極細
  6
CENTER1
 62
    2
 10
497.73722627737197
 20
1079.1375044467056
 11
497.73722627737197
 21
912.62896128123089
  0
LINE
  8
_0-0_計極細
  6
CONTINUOUS
 62
    2
 10
539.73722627737197
 20
1058.9867850222429
 11
539.73722627737197
 21
1053.2867850222426
  0
LINE
  8
_0-0_計極細
  6
CONTINUOUS
 62
    2
 10
552.73722627737197
 20
1058.9867850222429
 11
552.73722627737197
 21
1053.2867850222426
  0
LINE
  8
_0-0_計極細
  6
CONTINUOUS
 62
    2
 10
539.73722627737197
 20
1041.886785022243
 11
539.73722627737197
 21
1035.8867850222425
  0
LINE
  8
_0-0_計極細
  6
CONTINUOUS
 62
    2
 10
552.73722627737197
 20
1041.886785022243
 11
552.73722627737197
 21
1035.8867850222425
  0
LINE
  8
_0-0_計極細
  6
CONTINUOUS
 62
    2
 10
539.73722627737197
 20
1024.486785022242
 11
539.73722627737197
 21
1018.486785022242
  0
LINE
  8
_0-0_計極細
  6
CONTINUOUS
 62
    2
 10
552.73722627737197
 20
1024.486785022242
 11
552.73722627737197
 21
1018.486785022242
  0
LINE
  8
_0-0_計極細
  6
CONTINUOUS
 62
    2
 10
539.73722627737197
 20
1007.0867850222414
 11
539.73722627737197
 21
1001.0867850222414
  0
LINE
  8
_0-0_計極細
  6
CONTINUOUS
 62
    2
 10
552.73722627737197
 20
1007.0867850222414
 11
552.73722627737197
 21
1001.0867850222414
  0
LINE
  8
_0-0_計極細
  6
CONTINUOUS
 62
    2
 10
539.73722627737197
 20
989.68678502224088
 11
539.73722627737197
 21
983.68678502224088
  0
LINE
  8
_0-0_計極細
  6
CONTINUOUS
 62
    2
 10
552.73722627737197
 20
989.68678502224088
 11
552.73722627737197
 21
983.68678502224088
  0
LINE
  8
_0-0_計極細
  6
CONTINUOUS
 62
    2
 10
539.73722627737197
 20
931.78678502224398
 11
539.73722627737197
 21
937.48678502224425
  0
LINE
  8
_0-0_計極細
  6
CONTINUOUS
 62
    2
 10
552.73722627737197
 20
931.78678502224398
 11
552.73722627737197
 21
937.48678502224425
  0
LINE
  8
_0-0_計極細
  6
CONTINUOUS
 62
    2
 10
539.73722627737197
 20
948.88678502224388
 11
539.73722627737197
 21
954.88678502224434
  0
LINE
  8
_0-0_計極細
  6
CONTINUOUS
 62
    2
 10
552.73722627737197
 20
948.88678502224388
 11
552.73722627737197
 21
954.88678502224434
  0
LINE
  8
_0-0_計極細
  6
CONTINUOUS
 62
    2
 10
539.73722627737197
 20
966.28678502224489
 11
539.73722627737197
 21
972.28678502224489
  0
LINE
  8
_0-0_計極細
  6
CONTINUOUS
 62
    2
 10
552.73722627737197
 20
966.28678502224489
 11
552.73722627737197
 21
972.28678502224489
  0
LINE
  8
_0-0_計極細
  6
CENTER1
 62
    2
 10
546.23722627737197
 20
1079.1375044467056
 11
546.23722627737197
 21
912.62896128123089
  0
LINE
  8
_0-0_計極細
  6
CONTINUOUS
 62
    2
 10
588.23722627737197
 20
1058.9867850222429
 11
588.23722627737197
 21
1053.2867850222426
  0
LINE
  8
_0-0_計極細
  6
CONTINUOUS
 62
    2
 10
601.23722627737197
 20
1058.9867850222429
 11
601.23722627737197
 21
1053.2867850222426
  0
LINE
  8
_0-0_計極細
  6
CONTINUOUS
 62
    2
 10
588.23722627737197
 20
1041.886785022243
 11
588.23722627737197
 21
1035.8867850222425
  0
LINE
  8
_0-0_計極細
  6
CONTINUOUS
 62
    2
 10
601.23722627737197
 20
1041.886785022243
 11
601.23722627737197
 21
1035.8867850222425
  0
LINE
  8
_0-0_計極細
  6
CONTINUOUS
 62
    2
 10
588.23722627737197
 20
1024.486785022242
 11
588.23722627737197
 21
1018.486785022242
  0
LINE
  8
_0-0_計極細
  6
CONTINUOUS
 62
    2
 10
601.23722627737197
 20
1024.486785022242
 11
601.23722627737197
 21
1018.486785022242
  0
LINE
  8
_0-0_計極細
  6
CONTINUOUS
 62
    2
 10
588.23722627737197
 20
1007.0867850222414
 11
588.23722627737197
 21
1001.0867850222414
  0
LINE
  8
_0-0_計極細
  6
CONTINUOUS
 62
    2
 10
601.23722627737197
 20
1007.0867850222414
 11
601.23722627737197
 21
1001.0867850222414
  0
LINE
  8
_0-0_計極細
  6
CONTINUOUS
 62
    2
 10
588.23722627737197
 20
989.68678502224088
 11
588.23722627737197
 21
983.68678502224088
  0
LINE
  8
_0-0_計極細
  6
CONTINUOUS
 62
    2
 10
601.23722627737197
 20
989.68678502224088
 11
601.23722627737197
 21
983.68678502224088
  0
LINE
  8
_0-0_計極細
  6
CONTINUOUS
 62
    2
 10
588.23722627737197
 20
931.78678502224398
 11
588.23722627737197
 21
937.48678502224425
  0
LINE
  8
_0-0_計極細
  6
CONTINUOUS
 62
    2
 10
601.23722627737197
 20
931.78678502224398
 11
601.23722627737197
 21
937.48678502224425
  0
LINE
  8
_0-0_計極細
  6
CONTINUOUS
 62
    2
 10
588.23722627737197
 20
948.88678502224388
 11
588.23722627737197
 21
954.88678502224434
  0
LINE
  8
_0-0_計極細
  6
CONTINUOUS
 62
    2
 10
601.23722627737197
 20
948.88678502224388
 11
601.23722627737197
 21
954.88678502224434
  0
LINE
  8
_0-0_計極細
  6
CONTINUOUS
 62
    2
 10
588.23722627737197
 20
966.28678502224489
 11
588.23722627737197
 21
972.28678502224489
  0
LINE
  8
_0-0_計極細
  6
CONTINUOUS
 62
    2
 10
601.23722627737197
 20
966.28678502224489
 11
601.23722627737197
 21
972.28678502224489
  0
LINE
  8
_0-0_計極細
  6
CENTER1
 62
    2
 10
594.73722627737197
 20
1079.1375044467056
 11
594.73722627737197
 21
912.62896128123089
  0
LINE
  8
_0-0_計極細
  6
CONTINUOUS
 62
    2
 10
636.73722627737197
 20
1058.9867850222429
 11
636.73722627737197
 21
1053.2867850222426
  0
LINE
  8
_0-0_計極細
  6
CONTINUOUS
 62
    2
 10
649.73722627737197
 20
1058.9867850222429
 11
649.73722627737197
 21
1053.2867850222426
  0
LINE
  8
_0-0_計極細
  6
CONTINUOUS
 62
    2
 10
636.73722627737197
 20
1041.886785022243
 11
636.73722627737197
 21
1035.8867850222425
  0
LINE
  8
_0-0_計極細
  6
CONTINUOUS
 62
    2
 10
649.73722627737197
 20
1041.886785022243
 11
649.73722627737197
 21
1035.8867850222425
  0
LINE
  8
_0-0_計極細
  6
CONTINUOUS
 62
    2
 10
636.73722627737197
 20
1024.486785022242
 11
636.73722627737197
 21
1018.486785022242
  0
LINE
  8
_0-0_計極細
  6
CONTINUOUS
 62
    2
 10
649.73722627737197
 20
1024.486785022242
 11
649.73722627737197
 21
1018.486785022242
  0
LINE
  8
_0-0_計極細
  6
CONTINUOUS
 62
    2
 10
636.73722627737197
 20
1007.0867850222414
 11
636.73722627737197
 21
1001.0867850222414
  0
LINE
  8
_0-0_計極細
  6
CONTINUOUS
 62
    2
 10
649.73722627737197
 20
1007.0867850222414
 11
649.73722627737197
 21
1001.0867850222414
  0
LINE
  8
_0-0_計極細
  6
CONTINUOUS
 62
    2
 10
636.73722627737197
 20
989.68678502224088
 11
636.73722627737197
 21
983.68678502224088
  0
LINE
  8
_0-0_計極細
  6
CONTINUOUS
 62
    2
 10
649.73722627737197
 20
989.68678502224088
 11
649.73722627737197
 21
983.68678502224088
  0
LINE
  8
_0-0_計極細
  6
CONTINUOUS
 62
    2
 10
636.73722627737197
 20
931.78678502224398
 11
636.73722627737197
 21
937.48678502224425
  0
LINE
  8
_0-0_計極細
  6
CONTINUOUS
 62
    2
 10
649.73722627737197
 20
931.78678502224398
 11
649.73722627737197
 21
937.48678502224425
  0
LINE
  8
_0-0_計極細
  6
CONTINUOUS
 62
    2
 10
636.73722627737197
 20
948.88678502224388
 11
636.73722627737197
 21
954.88678502224434
  0
LINE
  8
_0-0_計極細
  6
CONTINUOUS
 62
    2
 10
649.73722627737197
 20
948.88678502224388
 11
649.73722627737197
 21
954.88678502224434
  0
LINE
  8
_0-0_計極細
  6
CONTINUOUS
 62
    2
 10
636.73722627737197
 20
966.28678502224489
 11
636.73722627737197
 21
972.28678502224489
  0
LINE
  8
_0-0_計極細
  6
CONTINUOUS
 62
    2
 10
649.73722627737197
 20
966.28678502224489
 11
649.73722627737197
 21
972.28678502224489
  0
LINE
  8
_0-0_計極細
  6
CENTER1
 62
    2
 10
643.23722627737197
 20
1079.1375044467056
 11
643.23722627737197
 21
912.62896128123089
  0
LINE
  8
_0-0_計極細
  6
CONTINUOUS
 62
    2
 10
685.23722627737197
 20
1058.9867850222429
 11
685.23722627737197
 21
1053.2867850222426
  0
LINE
  8
_0-0_計極細
  6
CONTINUOUS
 62
    2
 10
698.23722627737197
 20
1058.9867850222429
 11
698.23722627737197
 21
1053.2867850222426
  0
LINE
  8
_0-0_計極細
  6
CONTINUOUS
 62
    2
 10
685.23722627737197
 20
1041.886785022243
 11
685.23722627737197
 21
1035.8867850222425
  0
LINE
  8
_0-0_計極細
  6
CONTINUOUS
 62
    2
 10
698.23722627737197
 20
1041.886785022243
 11
698.23722627737197
 21
1035.8867850222425
  0
LINE
  8
_0-0_計極細
  6
CONTINUOUS
 62
    2
 10
685.23722627737197
 20
1024.486785022242
 11
685.23722627737197
 21
1018.486785022242
  0
LINE
  8
_0-0_計極細
  6
CONTINUOUS
 62
    2
 10
698.23722627737197
 20
1024.486785022242
 11
698.23722627737197
 21
1018.486785022242
  0
LINE
  8
_0-0_計極細
  6
CONTINUOUS
 62
    2
 10
685.23722627737197
 20
1007.0867850222414
 11
685.23722627737197
 21
1001.0867850222414
  0
LINE
  8
_0-0_計極細
  6
CONTINUOUS
 62
    2
 10
698.23722627737197
 20
1007.0867850222414
 11
698.23722627737197
 21
1001.0867850222414
  0
LINE
  8
_0-0_計極細
  6
CONTINUOUS
 62
    2
 10
685.23722627737197
 20
989.68678502224088
 11
685.23722627737197
 21
983.68678502224088
  0
LINE
  8
_0-0_計極細
  6
CONTINUOUS
 62
    2
 10
698.23722627737197
 20
989.68678502224088
 11
698.23722627737197
 21
983.68678502224088
  0
LINE
  8
_0-0_計極細
  6
CONTINUOUS
 62
    2
 10
685.23722627737197
 20
931.78678502224398
 11
685.23722627737197
 21
937.48678502224425
  0
LINE
  8
_0-0_計極細
  6
CONTINUOUS
 62
    2
 10
698.23722627737197
 20
931.78678502224398
 11
698.23722627737197
 21
937.48678502224425
  0
LINE
  8
_0-0_計極細
  6
CONTINUOUS
 62
    2
 10
685.23722627737197
 20
948.88678502224388
 11
685.23722627737197
 21
954.88678502224434
  0
LINE
  8
_0-0_計極細
  6
CONTINUOUS
 62
    2
 10
698.23722627737197
 20
948.88678502224388
 11
698.23722627737197
 21
954.88678502224434
  0
LINE
  8
_0-0_計極細
  6
CONTINUOUS
 62
    2
 10
685.23722627737197
 20
966.28678502224489
 11
685.23722627737197
 21
972.28678502224489
  0
LINE
  8
_0-0_計極細
  6
CONTINUOUS
 62
    2
 10
698.23722627737197
 20
966.28678502224489
 11
698.23722627737197
 21
972.28678502224489
  0
LINE
  8
_0-0_計極細
  6
CENTER1
 62
    2
 10
691.73722627737197
 20
1079.1375044467056
 11
691.73722627737197
 21
912.62896128123089
  0
LINE
  8
_0-0_計極細
  6
CONTINUOUS
 62
    2
 10
733.73722627737197
 20
1058.9867850222429
 11
733.73722627737197
 21
1053.2867850222426
  0
LINE
  8
_0-0_計極細
  6
CONTINUOUS
 62
    2
 10
746.73722627737197
 20
1058.9867850222429
 11
746.73722627737197
 21
1053.2867850222426
  0
LINE
  8
_0-0_計極細
  6
CONTINUOUS
 62
    2
 10
733.73722627737197
 20
1041.886785022243
 11
733.73722627737197
 21
1035.8867850222425
  0
LINE
  8
_0-0_計極細
  6
CONTINUOUS
 62
    2
 10
746.73722627737197
 20
1041.886785022243
 11
746.73722627737197
 21
1035.8867850222425
  0
LINE
  8
_0-0_計極細
  6
CONTINUOUS
 62
    2
 10
733.73722627737197
 20
1024.486785022242
 11
733.73722627737197
 21
1018.486785022242
  0
LINE
  8
_0-0_計極細
  6
CONTINUOUS
 62
    2
 10
746.73722627737197
 20
1024.486785022242
 11
746.73722627737197
 21
1018.486785022242
  0
LINE
  8
_0-0_計極細
  6
CONTINUOUS
 62
    2
 10
733.73722627737197
 20
1007.0867850222414
 11
733.73722627737197
 21
1001.0867850222414
  0
LINE
  8
_0-0_計極細
  6
CONTINUOUS
 62
    2
 10
746.73722627737197
 20
1007.0867850222414
 11
746.73722627737197
 21
1001.0867850222414
  0
LINE
  8
_0-0_計極細
  6
CONTINUOUS
 62
    2
 10
733.73722627737197
 20
989.68678502224088
 11
733.73722627737197
 21
983.68678502224088
  0
LINE
  8
_0-0_計極細
  6
CONTINUOUS
 62
    2
 10
746.73722627737197
 20
989.68678502224088
 11
746.73722627737197
 21
983.68678502224088
  0
LINE
  8
_0-0_計極細
  6
CONTINUOUS
 62
    2
 10
733.73722627737197
 20
931.78678502224398
 11
733.73722627737197
 21
937.48678502224425
  0
LINE
  8
_0-0_計極細
  6
CONTINUOUS
 62
    2
 10
746.73722627737197
 20
931.78678502224398
 11
746.73722627737197
 21
937.48678502224425
  0
LINE
  8
_0-0_計極細
  6
CONTINUOUS
 62
    2
 10
733.73722627737197
 20
948.88678502224388
 11
733.73722627737197
 21
954.88678502224434
  0
LINE
  8
_0-0_計極細
  6
CONTINUOUS
 62
    2
 10
746.73722627737197
 20
948.88678502224388
 11
746.73722627737197
 21
954.88678502224434
  0
LINE
  8
_0-0_計極細
  6
CONTINUOUS
 62
    2
 10
733.73722627737197
 20
966.28678502224489
 11
733.73722627737197
 21
972.28678502224489
  0
LINE
  8
_0-0_計極細
  6
CONTINUOUS
 62
    2
 10
746.73722627737197
 20
966.28678502224489
 11
746.73722627737197
 21
972.28678502224489
  0
LINE
  8
_0-0_計極細
  6
CENTER1
 62
    2
 10
740.23722627737197
 20
1079.1375044467056
 11
740.23722627737197
 21
912.62896128123089
  0
LINE
  8
_0-0_計極細
  6
CONTINUOUS
 62
    2
 10
782.23722627737197
 20
1058.9867850222429
 11
782.23722627737197
 21
1053.2867850222426
  0
LINE
  8
_0-0_計極細
  6
CONTINUOUS
 62
    2
 10
795.23722627737197
 20
1058.9867850222429
 11
795.23722627737197
 21
1053.2867850222426
  0
LINE
  8
_0-0_計極細
  6
CONTINUOUS
 62
    2
 10
782.23722627737197
 20
1041.886785022243
 11
782.23722627737197
 21
1035.8867850222425
  0
LINE
  8
_0-0_計極細
  6
CONTINUOUS
 62
    2
 10
795.23722627737197
 20
1041.886785022243
 11
795.23722627737197
 21
1035.8867850222425
  0
LINE
  8
_0-0_計極細
  6
CONTINUOUS
 62
    2
 10
782.23722627737197
 20
1024.486785022242
 11
782.23722627737197
 21
1018.486785022242
  0
LINE
  8
_0-0_計極細
  6
CONTINUOUS
 62
    2
 10
795.23722627737197
 20
1024.486785022242
 11
795.23722627737197
 21
1018.486785022242
  0
LINE
  8
_0-0_計極細
  6
CONTINUOUS
 62
    2
 10
782.23722627737197
 20
1007.0867850222414
 11
782.23722627737197
 21
1001.0867850222414
  0
LINE
  8
_0-0_計極細
  6
CONTINUOUS
 62
    2
 10
795.23722627737197
 20
1007.0867850222414
 11
795.23722627737197
 21
1001.0867850222414
  0
LINE
  8
_0-0_計極細
  6
CONTINUOUS
 62
    2
 10
782.23722627737197
 20
989.68678502224088
 11
782.23722627737197
 21
983.68678502224088
  0
LINE
  8
_0-0_計極細
  6
CONTINUOUS
 62
    2
 10
795.23722627737197
 20
989.68678502224088
 11
795.23722627737197
 21
983.68678502224088
  0
LINE
  8
_0-0_計極細
  6
CONTINUOUS
 62
    2
 10
782.23722627737197
 20
931.78678502224398
 11
782.23722627737197
 21
937.48678502224425
  0
LINE
  8
_0-0_計極細
  6
CONTINUOUS
 62
    2
 10
795.23722627737197
 20
931.78678502224398
 11
795.23722627737197
 21
937.48678502224425
  0
LINE
  8
_0-0_計極細
  6
CONTINUOUS
 62
    2
 10
782.23722627737197
 20
948.88678502224388
 11
782.23722627737197
 21
954.88678502224434
  0
LINE
  8
_0-0_計極細
  6
CONTINUOUS
 62
    2
 10
795.23722627737197
 20
948.88678502224388
 11
795.23722627737197
 21
954.88678502224434
  0
LINE
  8
_0-0_計極細
  6
CONTINUOUS
 62
    2
 10
782.23722627737197
 20
966.28678502224489
 11
782.23722627737197
 21
972.28678502224489
  0
LINE
  8
_0-0_計極細
  6
CONTINUOUS
 62
    2
 10
795.23722627737197
 20
966.28678502224489
 11
795.23722627737197
 21
972.28678502224489
  0
LINE
  8
_0-0_計極細
  6
CENTER1
 62
    2
 10
788.73722627737197
 20
1079.1375044467056
 11
788.73722627737197
 21
912.62896128123089
  0
LINE
  8
_0-0_計極細
  6
CONTINUOUS
 62
    2
 10
830.73722627737197
 20
1058.9867850222429
 11
830.73722627737197
 21
1053.2867850222426
  0
LINE
  8
_0-0_計極細
  6
CONTINUOUS
 62
    2
 10
843.73722627737197
 20
1058.9867850222429
 11
843.73722627737197
 21
1053.2867850222426
  0
LINE
  8
_0-0_計極細
  6
CONTINUOUS
 62
    2
 10
830.73722627737197
 20
1041.886785022243
 11
830.73722627737197
 21
1035.8867850222425
  0
LINE
  8
_0-0_計極細
  6
CONTINUOUS
 62
    2
 10
843.73722627737197
 20
1041.886785022243
 11
843.73722627737197
 21
1035.8867850222425
  0
LINE
  8
_0-0_計極細
  6
CONTINUOUS
 62
    2
 10
830.73722627737197
 20
1024.486785022242
 11
830.73722627737197
 21
1018.486785022242
  0
LINE
  8
_0-0_計極細
  6
CONTINUOUS
 62
    2
 10
843.73722627737197
 20
1024.486785022242
 11
843.73722627737197
 21
1018.486785022242
  0
LINE
  8
_0-0_計極細
  6
CONTINUOUS
 62
    2
 10
830.73722627737197
 20
1007.0867850222414
 11
830.73722627737197
 21
1001.0867850222414
  0
LINE
  8
_0-0_計極細
  6
CONTINUOUS
 62
    2
 10
843.73722627737197
 20
1007.0867850222414
 11
843.73722627737197
 21
1001.0867850222414
  0
LINE
  8
_0-0_計極細
  6
CONTINUOUS
 62
    2
 10
830.73722627737197
 20
989.68678502224088
 11
830.73722627737197
 21
983.68678502224088
  0
LINE
  8
_0-0_計極細
  6
CONTINUOUS
 62
    2
 10
843.73722627737197
 20
989.68678502224088
 11
843.73722627737197
 21
983.68678502224088
  0
LINE
  8
_0-0_計極細
  6
CONTINUOUS
 62
    2
 10
830.73722627737197
 20
931.78678502224398
 11
830.73722627737197
 21
937.48678502224425
  0
LINE
  8
_0-0_計極細
  6
CONTINUOUS
 62
    2
 10
843.73722627737197
 20
931.78678502224398
 11
843.73722627737197
 21
937.48678502224425
  0
LINE
  8
_0-0_計極細
  6
CONTINUOUS
 62
    2
 10
830.73722627737197
 20
948.88678502224388
 11
830.73722627737197
 21
954.88678502224434
  0
LINE
  8
_0-0_計極細
  6
CONTINUOUS
 62
    2
 10
843.73722627737197
 20
948.88678502224388
 11
843.73722627737197
 21
954.88678502224434
  0
LINE
  8
_0-0_計極細
  6
CONTINUOUS
 62
    2
 10
830.73722627737197
 20
966.28678502224489
 11
830.73722627737197
 21
972.28678502224489
  0
LINE
  8
_0-0_計極細
  6
CONTINUOUS
 62
    2
 10
843.73722627737197
 20
966.28678502224489
 11
843.73722627737197
 21
972.28678502224489
  0
LINE
  8
_0-0_計極細
  6
CENTER1
 62
    2
 10
837.23722627737197
 20
1079.1375044467056
 11
837.23722627737197
 21
912.62896128123089
  0
LINE
  8
_0-0_計極細
  6
CONTINUOUS
 62
    2
 10
879.23722627737197
 20
1058.9867850222429
 11
879.23722627737197
 21
1053.2867850222426
  0
LINE
  8
_0-0_計極細
  6
CONTINUOUS
 62
    2
 10
892.23722627737197
 20
1058.9867850222429
 11
892.23722627737197
 21
1053.2867850222426
  0
LINE
  8
_0-0_計極細
  6
CONTINUOUS
 62
    2
 10
879.23722627737197
 20
1041.886785022243
 11
879.23722627737197
 21
1035.8867850222425
  0
LINE
  8
_0-0_計極細
  6
CONTINUOUS
 62
    2
 10
892.23722627737197
 20
1041.886785022243
 11
892.23722627737197
 21
1035.8867850222425
  0
LINE
  8
_0-0_計極細
  6
CONTINUOUS
 62
    2
 10
879.23722627737197
 20
1024.486785022242
 11
879.23722627737197
 21
1018.486785022242
  0
LINE
  8
_0-0_計極細
  6
CONTINUOUS
 62
    2
 10
892.23722627737197
 20
1024.486785022242
 11
892.23722627737197
 21
1018.486785022242
  0
LINE
  8
_0-0_計極細
  6
CONTINUOUS
 62
    2
 10
879.23722627737197
 20
1007.0867850222414
 11
879.23722627737197
 21
1001.0867850222414
  0
LINE
  8
_0-0_計極細
  6
CONTINUOUS
 62
    2
 10
892.23722627737197
 20
1007.0867850222414
 11
892.23722627737197
 21
1001.0867850222414
  0
LINE
  8
_0-0_計極細
  6
CONTINUOUS
 62
    2
 10
879.23722627737197
 20
989.68678502224088
 11
879.23722627737197
 21
983.68678502224088
  0
LINE
  8
_0-0_計極細
  6
CONTINUOUS
 62
    2
 10
892.23722627737197
 20
989.68678502224088
 11
892.23722627737197
 21
983.68678502224088
  0
LINE
  8
_0-0_計極細
  6
CONTINUOUS
 62
    2
 10
879.23722627737197
 20
931.78678502224398
 11
879.23722627737197
 21
937.48678502224425
  0
LINE
  8
_0-0_計極細
  6
CONTINUOUS
 62
    2
 10
892.23722627737197
 20
931.78678502224398
 11
892.23722627737197
 21
937.48678502224425
  0
LINE
  8
_0-0_計極細
  6
CONTINUOUS
 62
    2
 10
879.23722627737197
 20
948.88678502224388
 11
879.23722627737197
 21
954.88678502224434
  0
LINE
  8
_0-0_計極細
  6
CONTINUOUS
 62
    2
 10
892.23722627737197
 20
948.88678502224388
 11
892.23722627737197
 21
954.88678502224434
  0
LINE
  8
_0-0_計極細
  6
CONTINUOUS
 62
    2
 10
879.23722627737197
 20
966.28678502224489
 11
879.23722627737197
 21
972.28678502224489
  0
LINE
  8
_0-0_計極細
  6
CONTINUOUS
 62
    2
 10
892.23722627737197
 20
966.28678502224489
 11
892.23722627737197
 21
972.28678502224489
  0
LINE
  8
_0-0_計極細
  6
CENTER1
 62
    2
 10
885.73722627737197
 20
1079.1375044467056
 11
885.73722627737197
 21
912.62896128123089
  0
LINE
  8
_0-0_計極細
  6
CONTINUOUS
 62
    2
 10
927.73722627737197
 20
1058.9867850222429
 11
927.73722627737197
 21
1053.2867850222426
  0
LINE
  8
_0-0_計極細
  6
CONTINUOUS
 62
    2
 10
940.73722627737197
 20
1058.9867850222429
 11
940.73722627737197
 21
1053.2867850222426
  0
LINE
  8
_0-0_計極細
  6
CONTINUOUS
 62
    2
 10
927.73722627737197
 20
1041.886785022243
 11
927.73722627737197
 21
1035.8867850222425
  0
LINE
  8
_0-0_計極細
  6
CONTINUOUS
 62
    2
 10
940.73722627737197
 20
1041.886785022243
 11
940.73722627737197
 21
1035.8867850222425
  0
LINE
  8
_0-0_計極細
  6
CONTINUOUS
 62
    2
 10
927.73722627737197
 20
1024.486785022242
 11
927.73722627737197
 21
1018.486785022242
  0
LINE
  8
_0-0_計極細
  6
CONTINUOUS
 62
    2
 10
940.73722627737197
 20
1024.486785022242
 11
940.73722627737197
 21
1018.486785022242
  0
LINE
  8
_0-0_計極細
  6
CONTINUOUS
 62
    2
 10
927.73722627737197
 20
1007.0867850222414
 11
927.73722627737197
 21
1001.0867850222414
  0
LINE
  8
_0-0_計極細
  6
CONTINUOUS
 62
    2
 10
940.73722627737197
 20
1007.0867850222414
 11
940.73722627737197
 21
1001.0867850222414
  0
LINE
  8
_0-0_計極細
  6
CONTINUOUS
 62
    2
 10
927.73722627737197
 20
989.68678502224088
 11
927.73722627737197
 21
983.68678502224088
  0
LINE
  8
_0-0_計極細
  6
CONTINUOUS
 62
    2
 10
940.73722627737197
 20
989.68678502224088
 11
940.73722627737197
 21
983.68678502224088
  0
LINE
  8
_0-0_計極細
  6
CONTINUOUS
 62
    2
 10
927.73722627737197
 20
931.78678502224398
 11
927.73722627737197
 21
937.48678502224425
  0
LINE
  8
_0-0_計極細
  6
CONTINUOUS
 62
    2
 10
940.73722627737197
 20
931.78678502224398
 11
940.73722627737197
 21
937.48678502224425
  0
LINE
  8
_0-0_計極細
  6
CONTINUOUS
 62
    2
 10
927.73722627737197
 20
948.88678502224388
 11
927.73722627737197
 21
954.88678502224434
  0
LINE
  8
_0-0_計極細
  6
CONTINUOUS
 62
    2
 10
940.73722627737197
 20
948.88678502224388
 11
940.73722627737197
 21
954.88678502224434
  0
LINE
  8
_0-0_計極細
  6
CONTINUOUS
 62
    2
 10
927.73722627737197
 20
966.28678502224489
 11
927.73722627737197
 21
972.28678502224489
  0
LINE
  8
_0-0_計極細
  6
CONTINUOUS
 62
    2
 10
940.73722627737197
 20
966.28678502224489
 11
940.73722627737197
 21
972.28678502224489
  0
LINE
  8
_0-0_計極細
  6
CENTER1
 62
    2
 10
934.23722627737197
 20
1079.1375044467056
 11
934.23722627737197
 21
912.62896128123089
  0
LINE
  8
_0-0_計極細
  6
CONTINUOUS
 62
    2
 10
976.23722627737197
 20
1058.9867850222429
 11
976.23722627737197
 21
1053.2867850222426
  0
LINE
  8
_0-0_計極細
  6
CONTINUOUS
 62
    2
 10
989.23722627737197
 20
1058.9867850222429
 11
989.23722627737197
 21
1053.2867850222426
  0
LINE
  8
_0-0_計極細
  6
CONTINUOUS
 62
    2
 10
976.23722627737197
 20
1041.886785022243
 11
976.23722627737197
 21
1035.8867850222425
  0
LINE
  8
_0-0_計極細
  6
CONTINUOUS
 62
    2
 10
989.23722627737197
 20
1041.886785022243
 11
989.23722627737197
 21
1035.8867850222425
  0
LINE
  8
_0-0_計極細
  6
CONTINUOUS
 62
    2
 10
976.23722627737197
 20
1024.486785022242
 11
976.23722627737197
 21
1018.486785022242
  0
LINE
  8
_0-0_計極細
  6
CONTINUOUS
 62
    2
 10
989.23722627737197
 20
1024.486785022242
 11
989.23722627737197
 21
1018.486785022242
  0
LINE
  8
_0-0_計極細
  6
CONTINUOUS
 62
    2
 10
976.23722627737197
 20
1007.0867850222414
 11
976.23722627737197
 21
1001.0867850222414
  0
LINE
  8
_0-0_計極細
  6
CONTINUOUS
 62
    2
 10
989.23722627737197
 20
1007.0867850222414
 11
989.23722627737197
 21
1001.0867850222414
  0
LINE
  8
_0-0_計極細
  6
CONTINUOUS
 62
    2
 10
976.23722627737197
 20
989.68678502224088
 11
976.23722627737197
 21
983.68678502224088
  0
LINE
  8
_0-0_計極細
  6
CONTINUOUS
 62
    2
 10
989.23722627737197
 20
989.68678502224088
 11
989.23722627737197
 21
983.68678502224088
  0
LINE
  8
_0-0_計極細
  6
CONTINUOUS
 62
    2
 10
976.23722627737197
 20
931.78678502224398
 11
976.23722627737197
 21
937.48678502224425
  0
LINE
  8
_0-0_計極細
  6
CONTINUOUS
 62
    2
 10
989.23722627737197
 20
931.78678502224398
 11
989.23722627737197
 21
937.48678502224425
  0
LINE
  8
_0-0_計極細
  6
CONTINUOUS
 62
    2
 10
976.23722627737197
 20
948.88678502224388
 11
976.23722627737197
 21
954.88678502224434
  0
LINE
  8
_0-0_計極細
  6
CONTINUOUS
 62
    2
 10
989.23722627737197
 20
948.88678502224388
 11
989.23722627737197
 21
954.88678502224434
  0
LINE
  8
_0-0_計極細
  6
CONTINUOUS
 62
    2
 10
976.23722627737197
 20
966.28678502224489
 11
976.23722627737197
 21
972.28678502224489
  0
LINE
  8
_0-0_計極細
  6
CONTINUOUS
 62
    2
 10
989.23722627737197
 20
966.28678502224489
 11
989.23722627737197
 21
972.28678502224489
  0
LINE
  8
_0-0_計極細
  6
CENTER1
 62
    2
 10
982.73722627737197
 20
1079.1375044467056
 11
982.73722627737197
 21
912.62896128123089
  0
LINE
  8
_0-0_計極細
  6
CONTINUOUS
 62
    2
 10
1024.737226277372
 20
1058.9867850222429
 11
1024.737226277372
 21
1053.2867850222426
  0
LINE
  8
_0-0_計極細
  6
CONTINUOUS
 62
    2
 10
1037.737226277372
 20
1058.9867850222429
 11
1037.737226277372
 21
1053.2867850222426
  0
LINE
  8
_0-0_計極細
  6
CONTINUOUS
 62
    2
 10
1024.737226277372
 20
1041.886785022243
 11
1024.737226277372
 21
1035.8867850222425
  0
LINE
  8
_0-0_計極細
  6
CONTINUOUS
 62
    2
 10
1037.737226277372
 20
1041.886785022243
 11
1037.737226277372
 21
1035.8867850222425
  0
LINE
  8
_0-0_計極細
  6
CONTINUOUS
 62
    2
 10
1024.737226277372
 20
1024.486785022242
 11
1024.737226277372
 21
1018.486785022242
  0
LINE
  8
_0-0_計極細
  6
CONTINUOUS
 62
    2
 10
1037.737226277372
 20
1024.486785022242
 11
1037.737226277372
 21
1018.486785022242
  0
LINE
  8
_0-0_計極細
  6
CONTINUOUS
 62
    2
 10
1024.737226277372
 20
1007.0867850222414
 11
1024.737226277372
 21
1001.0867850222414
  0
LINE
  8
_0-0_計極細
  6
CONTINUOUS
 62
    2
 10
1037.737226277372
 20
1007.0867850222414
 11
1037.737226277372
 21
1001.0867850222414
  0
LINE
  8
_0-0_計極細
  6
CONTINUOUS
 62
    2
 10
1024.737226277372
 20
989.68678502224088
 11
1024.737226277372
 21
983.68678502224088
  0
LINE
  8
_0-0_計極細
  6
CONTINUOUS
 62
    2
 10
1037.737226277372
 20
989.68678502224088
 11
1037.737226277372
 21
983.68678502224088
  0
LINE
  8
_0-0_計極細
  6
CONTINUOUS
 62
    2
 10
1024.737226277372
 20
931.78678502224398
 11
1024.737226277372
 21
937.48678502224425
  0
LINE
  8
_0-0_計極細
  6
CONTINUOUS
 62
    2
 10
1037.737226277372
 20
931.78678502224398
 11
1037.737226277372
 21
937.48678502224425
  0
LINE
  8
_0-0_計極細
  6
CONTINUOUS
 62
    2
 10
1024.737226277372
 20
948.88678502224388
 11
1024.737226277372
 21
954.88678502224434
  0
LINE
  8
_0-0_計極細
  6
CONTINUOUS
 62
    2
 10
1037.737226277372
 20
948.88678502224388
 11
1037.737226277372
 21
954.88678502224434
  0
LINE
  8
_0-0_計極細
  6
CONTINUOUS
 62
    2
 10
1024.737226277372
 20
966.28678502224489
 11
1024.737226277372
 21
972.28678502224489
  0
LINE
  8
_0-0_計極細
  6
CONTINUOUS
 62
    2
 10
1037.737226277372
 20
966.28678502224489
 11
1037.737226277372
 21
972.28678502224489
  0
LINE
  8
_0-0_計極細
  6
CENTER1
 62
    2
 10
1031.237226277372
 20
1079.1375044467056
 11
1031.237226277372
 21
912.62896128123089
  0
LINE
  8
_0-0_計極細
  6
CONTINUOUS
 62
    2
 10
1073.237226277372
 20
1058.9867850222429
 11
1073.237226277372
 21
1053.2867850222426
  0
LINE
  8
_0-0_計極細
  6
CONTINUOUS
 62
    2
 10
1086.237226277372
 20
1058.9867850222429
 11
1086.237226277372
 21
1053.2867850222426
  0
LINE
  8
_0-0_計極細
  6
CONTINUOUS
 62
    2
 10
1073.237226277372
 20
1041.886785022243
 11
1073.237226277372
 21
1035.8867850222425
  0
LINE
  8
_0-0_計極細
  6
CONTINUOUS
 62
    2
 10
1086.237226277372
 20
1041.886785022243
 11
1086.237226277372
 21
1035.8867850222425
  0
LINE
  8
_0-0_計極細
  6
CONTINUOUS
 62
    2
 10
1073.237226277372
 20
1024.486785022242
 11
1073.237226277372
 21
1018.486785022242
  0
LINE
  8
_0-0_計極細
  6
CONTINUOUS
 62
    2
 10
1086.237226277372
 20
1024.486785022242
 11
1086.237226277372
 21
1018.486785022242
  0
LINE
  8
_0-0_計極細
  6
CONTINUOUS
 62
    2
 10
1073.237226277372
 20
1007.0867850222414
 11
1073.237226277372
 21
1001.0867850222414
  0
LINE
  8
_0-0_計極細
  6
CONTINUOUS
 62
    2
 10
1086.237226277372
 20
1007.0867850222414
 11
1086.237226277372
 21
1001.0867850222414
  0
LINE
  8
_0-0_計極細
  6
CONTINUOUS
 62
    2
 10
1073.237226277372
 20
989.68678502224088
 11
1073.237226277372
 21
983.68678502224088
  0
LINE
  8
_0-0_計極細
  6
CONTINUOUS
 62
    2
 10
1086.237226277372
 20
989.68678502224088
 11
1086.237226277372
 21
983.68678502224088
  0
LINE
  8
_0-0_計極細
  6
CONTINUOUS
 62
    2
 10
1073.237226277372
 20
931.78678502224398
 11
1073.237226277372
 21
937.48678502224425
  0
LINE
  8
_0-0_計極細
  6
CONTINUOUS
 62
    2
 10
1086.237226277372
 20
931.78678502224398
 11
1086.237226277372
 21
937.48678502224425
  0
LINE
  8
_0-0_計極細
  6
CONTINUOUS
 62
    2
 10
1073.237226277372
 20
948.88678502224388
 11
1073.237226277372
 21
954.88678502224434
  0
LINE
  8
_0-0_計極細
  6
CONTINUOUS
 62
    2
 10
1086.237226277372
 20
948.88678502224388
 11
1086.237226277372
 21
954.88678502224434
  0
LINE
  8
_0-0_計極細
  6
CONTINUOUS
 62
    2
 10
1073.237226277372
 20
966.28678502224489
 11
1073.237226277372
 21
972.28678502224489
  0
LINE
  8
_0-0_計極細
  6
CONTINUOUS
 62
    2
 10
1086.237226277372
 20
966.28678502224489
 11
1086.237226277372
 21
972.28678502224489
  0
LINE
  8
_0-0_計極細
  6
CENTER1
 62
    2
 10
1079.737226277372
 20
1079.1375044467056
 11
1079.737226277372
 21
912.62896128123089
  0
LINE
  8
_0-0_計極細
  6
CONTINUOUS
 62
    2
 10
1121.737226277372
 20
1058.9867850222429
 11
1121.737226277372
 21
1053.2867850222426
  0
LINE
  8
_0-0_計極細
  6
CONTINUOUS
 62
    2
 10
1134.737226277372
 20
1058.9867850222429
 11
1134.737226277372
 21
1053.2867850222426
  0
LINE
  8
_0-0_計極細
  6
CONTINUOUS
 62
    2
 10
1121.737226277372
 20
1041.886785022243
 11
1121.737226277372
 21
1035.8867850222425
  0
LINE
  8
_0-0_計極細
  6
CONTINUOUS
 62
    2
 10
1134.737226277372
 20
1041.886785022243
 11
1134.737226277372
 21
1035.8867850222425
  0
LINE
  8
_0-0_計極細
  6
CONTINUOUS
 62
    2
 10
1121.737226277372
 20
1024.486785022242
 11
1121.737226277372
 21
1018.486785022242
  0
LINE
  8
_0-0_計極細
  6
CONTINUOUS
 62
    2
 10
1134.737226277372
 20
1024.486785022242
 11
1134.737226277372
 21
1018.486785022242
  0
LINE
  8
_0-0_計極細
  6
CONTINUOUS
 62
    2
 10
1121.737226277372
 20
1007.0867850222414
 11
1121.737226277372
 21
1001.0867850222414
  0
LINE
  8
_0-0_計極細
  6
CONTINUOUS
 62
    2
 10
1134.737226277372
 20
1007.0867850222414
 11
1134.737226277372
 21
1001.0867850222414
  0
LINE
  8
_0-0_計極細
  6
CONTINUOUS
 62
    2
 10
1121.737226277372
 20
989.68678502224088
 11
1121.737226277372
 21
983.68678502224088
  0
LINE
  8
_0-0_計極細
  6
CONTINUOUS
 62
    2
 10
1134.737226277372
 20
989.68678502224088
 11
1134.737226277372
 21
983.68678502224088
  0
LINE
  8
_0-0_計極細
  6
CONTINUOUS
 62
    2
 10
1121.737226277372
 20
931.78678502224398
 11
1121.737226277372
 21
937.48678502224425
  0
LINE
  8
_0-0_計極細
  6
CONTINUOUS
 62
    2
 10
1134.737226277372
 20
931.78678502224398
 11
1134.737226277372
 21
937.48678502224425
  0
LINE
  8
_0-0_計極細
  6
CONTINUOUS
 62
    2
 10
1121.737226277372
 20
948.88678502224388
 11
1121.737226277372
 21
954.88678502224434
  0
LINE
  8
_0-0_計極細
  6
CONTINUOUS
 62
    2
 10
1134.737226277372
 20
948.88678502224388
 11
1134.737226277372
 21
954.88678502224434
  0
LINE
  8
_0-0_計極細
  6
CONTINUOUS
 62
    2
 10
1121.737226277372
 20
966.28678502224489
 11
1121.737226277372
 21
972.28678502224489
  0
LINE
  8
_0-0_計極細
  6
CONTINUOUS
 62
    2
 10
1134.737226277372
 20
966.28678502224489
 11
1134.737226277372
 21
972.28678502224489
  0
LINE
  8
_0-0_計極細
  6
CENTER1
 62
    2
 10
1128.237226277372
 20
1079.1375044467056
 11
1128.237226277372
 21
912.62896128123089
  0
LINE
  8
_0-0_計極細
  6
CONTINUOUS
 62
    2
 10
1170.237226277372
 20
1058.9867850222429
 11
1170.237226277372
 21
1053.2867850222426
  0
LINE
  8
_0-0_計極細
  6
CONTINUOUS
 62
    2
 10
1183.237226277372
 20
1058.9867850222429
 11
1183.237226277372
 21
1053.2867850222426
  0
LINE
  8
_0-0_計極細
  6
CONTINUOUS
 62
    2
 10
1170.237226277372
 20
1041.886785022243
 11
1170.237226277372
 21
1035.8867850222425
  0
LINE
  8
_0-0_計極細
  6
CONTINUOUS
 62
    2
 10
1183.237226277372
 20
1041.886785022243
 11
1183.237226277372
 21
1035.8867850222425
  0
LINE
  8
_0-0_計極細
  6
CONTINUOUS
 62
    2
 10
1170.237226277372
 20
1024.486785022242
 11
1170.237226277372
 21
1018.486785022242
  0
LINE
  8
_0-0_計極細
  6
CONTINUOUS
 62
    2
 10
1183.237226277372
 20
1024.486785022242
 11
1183.237226277372
 21
1018.486785022242
  0
LINE
  8
_0-0_計極細
  6
CONTINUOUS
 62
    2
 10
1170.237226277372
 20
1007.0867850222414
 11
1170.237226277372
 21
1001.0867850222414
  0
LINE
  8
_0-0_計極細
  6
CONTINUOUS
 62
    2
 10
1183.237226277372
 20
1007.0867850222414
 11
1183.237226277372
 21
1001.0867850222414
  0
LINE
  8
_0-0_計極細
  6
CONTINUOUS
 62
    2
 10
1170.237226277372
 20
989.68678502224088
 11
1170.237226277372
 21
983.68678502224088
  0
LINE
  8
_0-0_計極細
  6
CONTINUOUS
 62
    2
 10
1183.237226277372
 20
989.68678502224088
 11
1183.237226277372
 21
983.68678502224088
  0
LINE
  8
_0-0_計極細
  6
CONTINUOUS
 62
    2
 10
1170.237226277372
 20
931.78678502224398
 11
1170.237226277372
 21
937.48678502224425
  0
LINE
  8
_0-0_計極細
  6
CONTINUOUS
 62
    2
 10
1183.237226277372
 20
931.78678502224398
 11
1183.237226277372
 21
937.48678502224425
  0
LINE
  8
_0-0_計極細
  6
CONTINUOUS
 62
    2
 10
1170.237226277372
 20
948.88678502224388
 11
1170.237226277372
 21
954.88678502224434
  0
LINE
  8
_0-0_計極細
  6
CONTINUOUS
 62
    2
 10
1183.237226277372
 20
948.88678502224388
 11
1183.237226277372
 21
954.88678502224434
  0
LINE
  8
_0-0_計極細
  6
CONTINUOUS
 62
    2
 10
1170.237226277372
 20
966.28678502224489
 11
1170.237226277372
 21
972.28678502224489
  0
LINE
  8
_0-0_計極細
  6
CONTINUOUS
 62
    2
 10
1183.237226277372
 20
966.28678502224489
 11
1183.237226277372
 21
972.28678502224489
  0
LINE
  8
_0-0_計極細
  6
CENTER1
 62
    2
 10
1176.737226277372
 20
1079.1375044467056
 11
1176.737226277372
 21
912.62896128123089
  0
LINE
  8
_0-1_計細線
  6
CONTINUOUS
 62
    3
 10
337.73722627737197
 20
1018.486785022242
 11
1336.737226277372
 21
1018.486785022242
  0
LINE
  8
_0-1_計細線
  6
CONTINUOUS
 62
    3
 10
1336.737226277372
 20
1018.486785022242
 11
1336.737226277372
 21
1007.0867850222414
  0
LINE
  8
_0-0_計極細
  6
CONTINUOUS
 62
    2
 10
337.73722627737197
 20
1010.2867850222417
 11
1336.737226277372
 21
1010.2867850222417
  0
LINE
  8
_0-0_計極細
  6
CONTINUOUS
 62
    2
 10
337.73722627737197
 20
1015.2867850222417
 11
1336.737226277372
 21
1015.2867850222417
  0
LINE
  8
_0-1_計細線
  6
CONTINUOUS
 62
    3
 10
337.73722627737197
 20
1018.486785022242
 11
337.73722627737197
 21
1007.0867850222414
  0
LINE
  8
_0-1_計細線
  6
CONTINUOUS
 62
    3
 10
337.73722627737197
 20
1007.0867850222414
 11
1336.737226277372
 21
1007.0867850222414
  0
LINE
  8
_0-1_計細線
  6
CONTINUOUS
 62
    3
 10
337.73722627737197
 20
989.68678502224088
 11
1336.737226277372
 21
989.68678502224088
  0
LINE
  8
_0-1_計細線
  6
CONTINUOUS
 62
    3
 10
1336.737226277372
 20
1001.0867850222414
 11
1336.737226277372
 21
989.68678502224088
  0
LINE
  8
_0-0_計極細
  6
CONTINUOUS
 62
    2
 10
337.73722627737197
 20
992.88678502224116
 11
1336.737226277372
 21
992.88678502224116
  0
LINE
  8
_0-0_計極細
  6
CONTINUOUS
 62
    2
 10
337.73722627737197
 20
997.88678502224116
 11
1336.737226277372
 21
997.88678502224116
  0
LINE
  8
_0-1_計細線
  6
CONTINUOUS
 62
    3
 10
337.73722627737197
 20
1001.0867850222414
 11
1336.737226277372
 21
1001.0867850222414
  0
LINE
  8
_0-1_計細線
  6
CONTINUOUS
 62
    3
 10
337.73722627737197
 20
1001.0867850222414
 11
337.73722627737197
 21
989.68678502224088
  0
LINE
  8
_0-0_計極細
  6
CONTINUOUS
 62
    2
 10
442.73722627737197
 20
1007.0867850222414
 11
442.73722627737197
 21
1006.4367850222436
  0
LINE
  8
_0-0_計極細
  6
CONTINUOUS
 62
    2
 10
442.73722627737197
 20
1001.7367850222438
 11
442.73722627737197
 21
1001.0867850222414
  0
LINE
  8
_0-0_計極細
  6
CONTINUOUS
 62
    2
 10
455.73722627737197
 20
1007.0867850222414
 11
455.73722627737197
 21
1006.4367850222436
  0
LINE
  8
_0-0_計極細
  6
CONTINUOUS
 62
    2
 10
455.73722627737197
 20
1001.7367850222438
 11
455.73722627737197
 21
1001.0867850222414
  0
LINE
  8
_0-5_寸法線
  6
CONTINUOUS
 62
    7
 10
300.23722627737016
 20
1075.3867850222434
 11
249.73722627737197
 21
1075.3867850222434
  0
LINE
  8
_0-5_寸法線
  6
CONTINUOUS
 62
    7
 10
257.73722627737197
 20
1075.3867850222434
 11
261.87833099901218
 21
1059.9319718016184
  0
LINE
  8
_0-5_寸法線
  6
CONTINUOUS
 62
    7
 10
257.73722627737197
 20
1075.3867850222434
 11
253.59612155573154
 21
1059.9319718016184
  0
LINE
  8
_0-5_寸法線
  6
CONTINUOUS
 62
    7
 10
300.23722627737288
 20
1045.3867850222434
 11
249.73722627737197
 21
1045.3867850222434
  0
LINE
  8
_0-5_寸法線
  6
CONTINUOUS
 62
    7
 10
257.73722627737197
 20
1045.3867850222434
 11
253.59612155573166
 21
1060.8415982428685
  0
LINE
  8
_0-5_寸法線
  6
CONTINUOUS
 62
    7
 10
257.73722627737197
 20
1045.3867850222434
 11
261.87833099901229
 21
1060.8415982428685
  0
LINE
  8
_0-5_寸法線
  6
CONTINUOUS
 62
    7
 10
257.73722627737197
 20
1075.3867850222434
 11
257.73722627737197
 21
1045.3867850222434
  0
TEXT
  8
_0-5_寸法線
 62
    7
 10
257.73722627737197
 20
1048.3867850222434
 40
24
 41
1
 50
90
  1
30
  0
LINE
  8
_0-5_寸法線
  6
CONTINUOUS
 62
    7
 10
257.73722627737197
 20
1045.3867850222434
 11
261.87833099901229
 21
1029.9319718016184
  0
LINE
  8
_0-5_寸法線
  6
CONTINUOUS
 62
    7
 10
257.73722627737197
 20
1045.3867850222434
 11
253.59612155573166
 21
1029.9319718016184
  0
LINE
  8
_0-5_寸法線
  6
CONTINUOUS
 62
    7
 10
300.23722627737061
 20
945.38678502224207
 11
249.73722627737197
 21
945.38678502224207
  0
LINE
  8
_0-5_寸法線
  6
CONTINUOUS
 62
    7
 10
257.73722627737197
 20
945.38678502224207
 11
253.59612155573166
 21
960.84159824286712
  0
LINE
  8
_0-5_寸法線
  6
CONTINUOUS
 62
    7
 10
257.73722627737197
 20
945.38678502224207
 11
261.87833099901229
 21
960.84159824286712
  0
LINE
  8
_0-5_寸法線
  6
CONTINUOUS
 62
    7
 10
257.73722627737197
 20
1045.3867850222434
 11
257.73722627737197
 21
945.38678502224207
  0
TEXT
  8
_0-5_寸法線
 62
    7
 10
257.73722627737197
 20
977.38678502224343
 40
24
 41
1
 50
90
  1
100
  0
LINE
  8
_0-5_寸法線
  6
CONTINUOUS
 62
    7
 10
257.73722627737197
 20
945.38678502224207
 11
261.87833099901229
 21
929.93197180161701
  0
LINE
  8
_0-5_寸法線
  6
CONTINUOUS
 62
    7
 10
257.73722627737197
 20
945.38678502224207
 11
253.59612155573166
 21
929.93197180161701
  0
LINE
  8
_0-5_寸法線
  6
CONTINUOUS
 62
    7
 10
300.23722627737561
 20
915.38678502224525
 11
249.73722627737197
 21
915.38678502224525
  0
LINE
  8
_0-5_寸法線
  6
CONTINUOUS
 62
    7
 10
257.73722627737197
 20
915.38678502224525
 11
253.59612155573166
 21
930.8415982428703
  0
LINE
  8
_0-5_寸法線
  6
CONTINUOUS
 62
    7
 10
257.73722627737197
 20
915.38678502224525
 11
261.87833099901229
 21
930.8415982428703
  0
LINE
  8
_0-5_寸法線
  6
CONTINUOUS
 62
    7
 10
257.73722627737197
 20
945.38678502224207
 11
257.73722627737197
 21
915.38678502224525
  0
TEXT
  8
_0-5_寸法線
 62
    7
 10
257.73722627737197
 20
918.3867850222432
 40
24
 41
1
 50
90
  1
30
  0
LINE
  8
_0-5_寸法線
  6
CONTINUOUS
 62
    7
 10
1374.237226277372
 20
1075.3867850222434
 11
1480.737226277372
 21
1075.3867850222434
  0
LINE
  8
_0-5_寸法線
  6
CONTINUOUS
 62
    7
 10
1472.737226277372
 20
1075.3867850222434
 11
1476.8783309990122
 21
1059.9319718016184
  0
LINE
  8
_0-5_寸法線
  6
CONTINUOUS
 62
    7
 10
1472.737226277372
 20
1075.3867850222434
 11
1468.5961215557315
 21
1059.9319718016184
  0
LINE
  8
_0-5_寸法線
  6
CONTINUOUS
 62
    7
 10
1374.2372262773711
 20
915.38678502223843
 11
1480.737226277372
 21
915.38678502223843
  0
LINE
  8
_0-5_寸法線
  6
CONTINUOUS
 62
    7
 10
1472.737226277372
 20
915.38678502223843
 11
1468.5961215557315
 21
930.84159824286348
  0
LINE
  8
_0-5_寸法線
  6
CONTINUOUS
 62
    7
 10
1472.737226277372
 20
915.38678502223843
 11
1476.8783309990122
 21
930.84159824286348
  0
LINE
  8
_0-5_寸法線
  6
CONTINUOUS
 62
    7
 10
1472.737226277372
 20
1075.3867850222434
 11
1472.737226277372
 21
915.38678502223843
  0
TEXT
  8
_0-5_寸法線
 62
    7
 10
1472.737226277372
 20
977.38678502224161
 40
24
 41
1
 50
90
  1
160
  0
LINE
  8
_0-5_寸法線
  6
CONTINUOUS
 62
    7
 10
1416.737226277372
 20
1075.3867850222434
 11
1412.5961215557318
 21
1090.8415982428685
  0
LINE
  8
_0-5_寸法線
  6
CONTINUOUS
 62
    7
 10
1416.737226277372
 20
1075.3867850222434
 11
1420.8783309990124
 21
1090.8415982428685
  0
LINE
  8
_0-5_寸法線
  6
CONTINUOUS
 62
    7
 10
1374.237226277372
 20
1072.3867850222434
 11
1424.737226277372
 21
1072.3867850222434
  0
CIRCLE
  8
_0-5_寸法線
  6
CONTINUOUS
 62
    1
 10
1416.737226277372
 20
1072.3867850222434
 40
2.4000000000000004
  0
LINE
  8
_0-5_寸法線
  6
CONTINUOUS
 62
    7
 10
1416.737226277372
 20
1115.3867850222434
 11
1416.737226277372
 21
1072.3867850222434
  0
TEXT
  8
_0-5_寸法線
 62
    7
 10
1416.737226277372
 20
1096.9207733298106
 40
24
 41
1
 50
90
  1
3
  0
LINE
  8
_0-5_寸法線
  6
CONTINUOUS
 62
    7
 10
1374.237226277372
 20
1070.3867850222443
 11
1424.737226277372
 21
1070.3867850222443
  0
LINE
  8
_0-5_寸法線
  6
CONTINUOUS
 62
    7
 10
1416.737226277372
 20
1072.3867850222434
 11
1416.737226277372
 21
1070.3867850222443
  0
TEXT
  8
_0-5_寸法線
 62
    7
 10
1445.4136632235802
 20
1060.3867850222434
 40
24
 41
1
 50
90
  1
2
  0
LINE
  8
_0-5_寸法線
  6
CONTINUOUS
 62
    7
 10
1416.737226277372
 20
1070.3867850222443
 11
1420.8783309990122
 21
1054.9319718016193
  0
LINE
  8
_0-5_寸法線
  6
CONTINUOUS
 62
    7
 10
1416.737226277372
 20
1070.3867850222443
 11
1412.5961215557315
 21
1054.9319718016193
  0
LINE
  8
_0-5_寸法線
  6
CONTINUOUS
 62
    7
 10
1374.237226277372
 20
920.38678502224252
 11
1424.737226277372
 21
920.38678502224252
  0
LINE
  8
_0-5_寸法線
  6
CONTINUOUS
 62
    7
 10
1416.737226277372
 20
920.38678502224252
 11
1412.5961215557315
 21
935.84159824286758
  0
LINE
  8
_0-5_寸法線
  6
CONTINUOUS
 62
    7
 10
1416.737226277372
 20
920.38678502224252
 11
1420.8783309990122
 21
935.84159824286758
  0
LINE
  8
_0-5_寸法線
  6
CONTINUOUS
 62
    7
 10
1416.737226277372
 20
1070.3867850222443
 11
1416.737226277372
 21
920.38678502224252
  0
TEXT
  8
_0-5_寸法線
 62
    7
 10
1416.737226277372
 20
977.38678502224343
 40
24
 41
1
 50
90
  1
150
  0
LINE
  8
_0-5_寸法線
  6
CONTINUOUS
 62
    7
 10
1374.237226277372
 20
918.38678502224343
 11
1424.737226277372
 21
918.38678502224343
  0
CIRCLE
  8
_0-5_寸法線
  6
CONTINUOUS
 62
    1
 10
1416.737226277372
 20
918.38678502224343
 40
2.4000000000000004
  0
LINE
  8
_0-5_寸法線
  6
CONTINUOUS
 62
    7
 10
1416.737226277372
 20
920.38678502224252
 11
1416.737226277372
 21
918.38678502224343
  0
TEXT
  8
_0-5_寸法線
 62
    7
 10
1447.9273602561482
 20
917.45267000386616
 40
24
 41
1
 50
90
  1
2
  0
LINE
  8
_0-5_寸法線
  6
CONTINUOUS
 62
    7
 10
1416.737226277372
 20
915.38678502223843
 11
1420.8783309990122
 21
899.93197180161337
  0
LINE
  8
_0-5_寸法線
  6
CONTINUOUS
 62
    7
 10
1416.737226277372
 20
915.38678502223843
 11
1412.5961215557315
 21
899.93197180161337
  0
LINE
  8
_0-5_寸法線
  6
CONTINUOUS
 62
    7
 10
1416.737226277372
 20
918.38678502224343
 11
1416.737226277372
 21
875.38678502223843
  0
TEXT
  8
_0-5_寸法線
 62
    7
 10
1416.737226277372
 20
881.31131369181367
 40
24
 41
1
 50
90
  1
3
  0
LINE
  8
_0-5_寸法線
  6
CONTINUOUS
 62
    7
 10
837.23722627737197
 20
1091.3867850222434
 11
837.23722627737197
 21
1163.3867850222434
  0
LINE
  8
_0-5_寸法線
  6
CONTINUOUS
 62
    7
 10
837.23722627737197
 20
1155.3867850222434
 11
852.69203949799703
 21
1159.5278897438839
  0
LINE
  8
_0-5_寸法線
  6
CONTINUOUS
 62
    7
 10
837.23722627737197
 20
1155.3867850222434
 11
852.69203949799703
 21
1151.245680300603
  0
LINE
  8
_0-5_寸法線
  6
CONTINUOUS
 62
    7
 10
885.73722627737197
 20
1091.3867850222434
 11
885.73722627737197
 21
1163.3867850222434
  0
LINE
  8
_0-5_寸法線
  6
CONTINUOUS
 62
    7
 10
885.73722627737197
 20
1155.3867850222434
 11
870.28241305674692
 21
1151.2456803006032
  0
LINE
  8
_0-5_寸法線
  6
CONTINUOUS
 62
    7
 10
885.73722627737197
 20
1155.3867850222434
 11
870.28241305674692
 21
1159.5278897438839
  0
LINE
  8
_0-5_寸法線
  6
CONTINUOUS
 62
    7
 10
837.23722627737197
 20
1155.3867850222434
 11
885.73722627737197
 21
1155.3867850222434
  0
TEXT
  8
_0-5_寸法線
 62
    7
 10
849.48722627737288
 20
1155.3867850222434
 40
24
 41
1
 50
0
  1
Ｂ
  0
LINE
  8
_0-5_寸法線
  6
CONTINUOUS
 62
    7
 10
337.73722627737197
 20
1091.3867850222434
 11
337.73722627737197
 21
1163.3867850222434
  0
LINE
  8
_0-5_寸法線
  6
CONTINUOUS
 62
    7
 10
337.73722627737197
 20
1155.3867850222434
 11
353.19203949799703
 21
1159.5278897438839
  0
LINE
  8
_0-5_寸法線
  6
CONTINUOUS
 62
    7
 10
337.73722627737197
 20
1155.3867850222434
 11
353.19203949799703
 21
1151.245680300603
  0
LINE
  8
_0-5_寸法線
  6
CONTINUOUS
 62
    7
 10
352.23722627737197
 20
1091.3867850222434
 11
352.23722627737197
 21
1163.3867850222434
  0
LINE
  8
_0-5_寸法線
  6
CONTINUOUS
 62
    7
 10
352.23722627737197
 20
1155.3867850222434
 11
336.78241305674692
 21
1151.2456803006032
  0
LINE
  8
_0-5_寸法線
  6
CONTINUOUS
 62
    7
 10
352.23722627737197
 20
1155.3867850222434
 11
336.78241305674692
 21
1159.5278897438839
  0
LINE
  8
_0-5_寸法線
  6
CONTINUOUS
 62
    7
 10
337.73722627737197
 20
1155.3867850222434
 11
352.23722627737197
 21
1155.3867850222434
  0
TEXT
  8
_0-5_寸法線
 62
    7
 10
332.98722627737197
 20
1155.3867850222434
 40
24
 41
1
 50
0
  1
Ａ
  0
LINE
  8
_0-5_寸法線
  6
CONTINUOUS
 62
    7
 10
1322.237226277372
 20
1091.3867850222434
 11
1322.237226277372
 21
1163.3867850222434
  0
LINE
  8
_0-5_寸法線
  6
CONTINUOUS
 62
    7
 10
1322.237226277372
 20
1155.3867850222434
 11
1337.692039497997
 21
1159.5278897438839
  0
LINE
  8
_0-5_寸法線
  6
CONTINUOUS
 62
    7
 10
1322.237226277372
 20
1155.3867850222434
 11
1337.692039497997
 21
1151.245680300603
  0
LINE
  8
_0-5_寸法線
  6
CONTINUOUS
 62
    7
 10
1336.737226277372
 20
1091.3867850222434
 11
1336.737226277372
 21
1163.3867850222434
  0
LINE
  8
_0-5_寸法線
  6
CONTINUOUS
 62
    7
 10
1336.737226277372
 20
1155.3867850222434
 11
1321.2824130567469
 21
1151.2456803006032
  0
LINE
  8
_0-5_寸法線
  6
CONTINUOUS
 62
    7
 10
1336.737226277372
 20
1155.3867850222434
 11
1321.2824130567469
 21
1159.5278897438839
  0
LINE
  8
_0-5_寸法線
  6
CONTINUOUS
 62
    7
 10
1322.237226277372
 20
1155.3867850222434
 11
1336.737226277372
 21
1155.3867850222434
  0
TEXT
  8
_0-5_寸法線
 62
    7
 10
1317.487226277372
 20
1155.3867850222434
 40
24
 41
1
 50
0
  1
Ａ
  0
LINE
  8
_0-5_寸法線
  6
CONTINUOUS
 62
    7
 10
337.73722627737197
 20
1091.3867850222425
 11
337.73722627737266
 21
1219.3867850222434
  0
LINE
  8
_0-5_寸法線
  6
CONTINUOUS
 62
    7
 10
337.73722627737266
 20
1211.3867850222434
 11
349.32833619284145
 21
1214.4926135634737
  0
LINE
  8
_0-5_寸法線
  6
CONTINUOUS
 62
    7
 10
337.73722627737266
 20
1211.3867850222434
 11
349.32833619284145
 21
1208.2809564810132
  0
LINE
  8
_0-5_寸法線
  6
CONTINUOUS
 62
    7
 10
1336.737226277372
 20
1091.3867850222425
 11
1336.737226277372
 21
1219.3867850222434
  0
LINE
  8
_0-5_寸法線
  6
CONTINUOUS
 62
    7
 10
1336.737226277372
 20
1211.3867850222434
 11
1325.1461163619031
 21
1208.2809564810132
  0
LINE
  8
_0-5_寸法線
  6
CONTINUOUS
 62
    7
 10
1336.737226277372
 20
1211.3867850222434
 11
1325.1461163619031
 21
1214.4926135634737
  0
LINE
  8
_0-5_寸法線
  6
CONTINUOUS
 62
    7
 10
337.73722627737266
 20
1211.3867850222434
 11
1336.737226277372
 21
1211.3867850222434
  0
TEXT
  8
_0-5_寸法線
 62
    7
 10
825.23722627737277
 20
1211.3867850222434
 40
24
 41
1
 50
0
  1
Ｌ
  0
LINE
  8
_0-5_寸法線
  6
CONTINUOUS
 62
    7
 10
740.23722627737288
 20
1091.3867850222434
 11
740.23722627737288
 21
1163.3867850222434
  0
LINE
  8
_0-5_寸法線
  6
CONTINUOUS
 62
    7
 10
740.23722627737288
 20
1155.3867850222434
 11
755.69203949799794
 21
1159.5278897438839
  0
LINE
  8
_0-5_寸法線
  6
CONTINUOUS
 62
    7
 10
740.23722627737288
 20
1155.3867850222434
 11
755.69203949799794
 21
1151.245680300603
  0
LINE
  8
_0-5_寸法線
  6
CONTINUOUS
 62
    7
 10
788.73722627737288
 20
1091.3867850222434
 11
788.73722627737288
 21
1163.3867850222434
  0
LINE
  8
_0-5_寸法線
  6
CONTINUOUS
 62
    7
 10
788.73722627737288
 20
1155.3867850222434
 11
773.28241305674783
 21
1151.2456803006032
  0
LINE
  8
_0-5_寸法線
  6
CONTINUOUS
 62
    7
 10
788.73722627737288
 20
1155.3867850222434
 11
773.28241305674783
 21
1159.5278897438839
  0
LINE
  8
_0-5_寸法線
  6
CONTINUOUS
 62
    7
 10
740.23722627737288
 20
1155.3867850222434
 11
788.73722627737288
 21
1155.3867850222434
  0
TEXT
  8
_0-5_寸法線
 62
    7
 10
740.48722627737288
 20
1155.3867850222434
 40
24
 41
1
 50
0
  1
48.5
  0
LINE
  8
_0-5_寸法線
  6
CONTINUOUS
 62
    7
 10
788.73722627737288
 20
1155.3867850222434
 11
804.19203949799805
 21
1159.5278897438836
  0
LINE
  8
_0-5_寸法線
  6
CONTINUOUS
 62
    7
 10
788.73722627737288
 20
1155.3867850222434
 11
804.19203949799794
 21
1151.245680300603
  0
LINE
  8
_0-5_寸法線
  6
CONTINUOUS
 62
    7
 10
837.23722627737288
 20
1091.3867850222434
 11
837.23722627737288
 21
1163.3867850222434
  0
LINE
  8
_0-5_寸法線
  6
CONTINUOUS
 62
    7
 10
837.23722627737288
 20
1155.3867850222434
 11
821.78241305674783
 21
1151.2456803006032
  0
LINE
  8
_0-5_寸法線
  6
CONTINUOUS
 62
    7
 10
837.23722627737288
 20
1155.3867850222434
 11
821.78241305674783
 21
1159.5278897438839
  0
LINE
  8
_0-5_寸法線
  6
CONTINUOUS
 62
    7
 10
788.73722627737288
 20
1155.3867850222434
 11
837.23722627737288
 21
1155.3867850222434
  0
TEXT
  8
_0-5_寸法線
 62
    7
 10
789.86375900395933
 20
1131.3867850222434
 40
24
 41
1
 50
0
  1
48.5
  0
LINE
  8
_0-7_枠細線
  6
CONTINUOUS
 62
    5
 10
778.27137945941968
 20
1183.8711232398382
 11
766.27137945941968
 21
1207.8711232398382
  0
LINE
  8
_0-7_枠細線
  6
CONTINUOUS
 62
    5
 10
754.27137945941968
 20
1183.8711232398382
 11
778.27137945941968
 21
1183.8711232398382
  0
LINE
  8
_0-7_枠細線
  6
CONTINUOUS
 62
    5
 10
766.27137945941968
 20
1207.8711232398382
 11
754.27137945941968
 21
1183.8711232398382
  0
TEXT
  8
_0-7_枠細線
 62
    5
 10
758.05562148845661
 20
1183.3799196472294
 40
20
 41
0.8
 50
0
  1
１
  0
LINE
  8
_0-0_計極細
  6
CONTINUOUS
 62
    2
 10
394.23722627737197
 20
1058.9867850222429
 11
394.23722627737197
 21
1053.2867850222426
  0
LINE
  8
_0-0_計極細
  6
CONTINUOUS
 62
    2
 10
407.23722627737197
 20
1058.9867850222429
 11
407.23722627737197
 21
1053.2867850222426
  0
LINE
  8
_0-0_計極細
  6
CONTINUOUS
 62
    2
 10
394.23722627737197
 20
1041.886785022243
 11
394.23722627737197
 21
1035.8867850222425
  0
LINE
  8
_0-0_計極細
  6
CONTINUOUS
 62
    2
 10
407.23722627737197
 20
1041.886785022243
 11
407.23722627737197
 21
1035.8867850222425
  0
LINE
  8
_0-0_計極細
  6
CONTINUOUS
 62
    2
 10
394.23722627737197
 20
1024.486785022242
 11
394.23722627737197
 21
1018.486785022242
  0
LINE
  8
_0-0_計極細
  6
CONTINUOUS
 62
    2
 10
407.23722627737197
 20
1024.486785022242
 11
407.23722627737197
 21
1018.486785022242
  0
LINE
  8
_0-0_計極細
  6
CONTINUOUS
 62
    2
 10
394.23722627737197
 20
1007.0867850222414
 11
394.23722627737197
 21
1001.0867850222414
  0
LINE
  8
_0-0_計極細
  6
CONTINUOUS
 62
    2
 10
407.23722627737197
 20
1007.0867850222414
 11
407.23722627737197
 21
1001.0867850222414
  0
LINE
  8
_0-0_計極細
  6
CONTINUOUS
 62
    2
 10
394.23722627737197
 20
989.68678502224088
 11
394.23722627737197
 21
983.68678502224088
  0
LINE
  8
_0-0_計極細
  6
CONTINUOUS
 62
    2
 10
407.23722627737197
 20
989.68678502224088
 11
407.23722627737197
 21
983.68678502224088
  0
LINE
  8
_0-0_計極細
  6
CONTINUOUS
 62
    2
 10
394.23722627737197
 20
931.78678502224398
 11
394.23722627737197
 21
937.48678502224425
  0
LINE
  8
_0-0_計極細
  6
CONTINUOUS
 62
    2
 10
407.23722627737197
 20
931.78678502224398
 11
407.23722627737197
 21
937.48678502224425
  0
LINE
  8
_0-0_計極細
  6
CONTINUOUS
 62
    2
 10
394.23722627737197
 20
948.88678502224388
 11
394.23722627737197
 21
954.88678502224434
  0
LINE
  8
_0-0_計極細
  6
CONTINUOUS
 62
    2
 10
407.23722627737197
 20
948.88678502224388
 11
407.23722627737197
 21
954.88678502224434
  0
LINE
  8
_0-0_計極細
  6
CONTINUOUS
 62
    2
 10
394.23722627737197
 20
966.28678502224489
 11
394.23722627737197
 21
972.28678502224489
  0
LINE
  8
_0-0_計極細
  6
CONTINUOUS
 62
    2
 10
407.23722627737197
 20
966.28678502224489
 11
407.23722627737197
 21
972.28678502224489
  0
LINE
  8
_0-0_計極細
  6
CENTER1
 62
    2
 10
400.73722627737197
 20
1079.1375044467056
 11
400.73722627737197
 21
912.62896128123089
  0
LINE
  8
_0-0_計極細
  6
CONTINUOUS
 62
    2
 10
1267.237226277372
 20
1058.9867850222429
 11
1267.237226277372
 21
1053.2867850222426
  0
LINE
  8
_0-0_計極細
  6
CONTINUOUS
 62
    2
 10
1280.237226277372
 20
1058.9867850222429
 11
1280.237226277372
 21
1053.2867850222426
  0
LINE
  8
_0-0_計極細
  6
CONTINUOUS
 62
    2
 10
1267.237226277372
 20
1041.886785022243
 11
1267.237226277372
 21
1035.8867850222425
  0
LINE
  8
_0-0_計極細
  6
CONTINUOUS
 62
    2
 10
1280.237226277372
 20
1041.886785022243
 11
1280.237226277372
 21
1035.8867850222425
  0
LINE
  8
_0-0_計極細
  6
CONTINUOUS
 62
    2
 10
1267.237226277372
 20
1024.486785022242
 11
1267.237226277372
 21
1018.486785022242
  0
LINE
  8
_0-0_計極細
  6
CONTINUOUS
 62
    2
 10
1280.237226277372
 20
1024.486785022242
 11
1280.237226277372
 21
1018.486785022242
  0
LINE
  8
_0-0_計極細
  6
CONTINUOUS
 62
    2
 10
1267.237226277372
 20
1007.0867850222414
 11
1267.237226277372
 21
1001.0867850222414
  0
LINE
  8
_0-0_計極細
  6
CONTINUOUS
 62
    2
 10
1280.237226277372
 20
1007.0867850222414
 11
1280.237226277372
 21
1001.0867850222414
  0
LINE
  8
_0-0_計極細
  6
CONTINUOUS
 62
    2
 10
1267.237226277372
 20
989.68678502224088
 11
1267.237226277372
 21
983.68678502224088
  0
LINE
  8
_0-0_計極細
  6
CONTINUOUS
 62
    2
 10
1280.237226277372
 20
989.68678502224088
 11
1280.237226277372
 21
983.68678502224088
  0
LINE
  8
_0-0_計極細
  6
CONTINUOUS
 62
    2
 10
1267.237226277372
 20
931.78678502224398
 11
1267.237226277372
 21
937.48678502224425
  0
LINE
  8
_0-0_計極細
  6
CONTINUOUS
 62
    2
 10
1280.237226277372
 20
931.78678502224398
 11
1280.237226277372
 21
937.48678502224425
  0
LINE
  8
_0-0_計極細
  6
CONTINUOUS
 62
    2
 10
1267.237226277372
 20
948.88678502224388
 11
1267.237226277372
 21
954.88678502224434
  0
LINE
  8
_0-0_計極細
  6
CONTINUOUS
 62
    2
 10
1280.237226277372
 20
948.88678502224388
 11
1280.237226277372
 21
954.88678502224434
  0
LINE
  8
_0-0_計極細
  6
CONTINUOUS
 62
    2
 10
1267.237226277372
 20
966.28678502224489
 11
1267.237226277372
 21
972.28678502224489
  0
LINE
  8
_0-0_計極細
  6
CONTINUOUS
 62
    2
 10
1280.237226277372
 20
966.28678502224489
 11
1280.237226277372
 21
972.28678502224489
  0
LINE
  8
_0-0_計極細
  6
CENTER1
 62
    2
 10
1273.737226277372
 20
1079.1375044467056
 11
1273.737226277372
 21
912.62896128123089
  0
LINE
  8
_0-7_枠細線
  6
CONTINUOUS
 62
    5
 10
794.68785898894066
 20
1207.8711232398382
 11
782.68785898894066
 21
1183.8711232398382
  0
LINE
  8
_0-7_枠細線
  6
CONTINUOUS
 62
    5
 10
782.68785898894066
 20
1183.8711232398382
 11
806.68785898894066
 21
1183.8711232398382
  0
LINE
  8
_0-7_枠細線
  6
CONTINUOUS
 62
    5
 10
806.68785898894066
 20
1183.8711232398382
 11
794.68785898894066
 21
1207.8711232398382
  0
LINE
  8
_0-1_計細線
  6
CONTINUOUS
 62
    3
 10
410.23722627737106
 20
1001.7367850222438
 11
463.23722627737106
 21
1001.7367850222438
  0
LINE
  8
_0-1_計細線
  6
CONTINUOUS
 62
    3
 10
463.23722627737106
 20
1006.4367850222436
 11
410.23722627737106
 21
1006.4367850222436
  0
LINE
  8
_0-1_計細線
  6
CONTINUOUS
 62
    3
 10
410.23722627737106
 20
1006.4367850222436
 11
410.23722627737106
 21
1001.7367850222438
  0
LINE
  8
_0-1_計細線
  6
CONTINUOUS
 62
    3
 10
453.23722627737106
 20
1006.4367850222436
 11
453.23722627737106
 21
1001.7367850222438
  0
LINE
  8
_0-1_計細線
  6
CONTINUOUS
 62
    3
 10
461.23722627737106
 20
1006.4367850222436
 11
461.23722627737106
 21
1001.7367850222438
  0
LINE
  8
_0-1_計細線
  6
CONTINUOUS
 62
    3
 10
463.23722627737106
 20
1006.4367850222436
 11
463.23722627737106
 21
1001.7367850222438
  0
LINE
  8
_0-1_計細線
  6
CONTINUOUS
 62
    3
 10
459.23722627737106
 20
1006.4367850222436
 11
459.23722627737106
 21
1001.7367850222438
  0
LINE
  8
_0-1_計細線
  6
CONTINUOUS
 62
    3
 10
457.23722627737106
 20
1006.4367850222436
 11
457.23722627737106
 21
1001.7367850222438
  0
LINE
  8
_0-1_計細線
  6
CONTINUOUS
 62
    3
 10
455.23722627737106
 20
1006.4367850222436
 11
455.23722627737106
 21
1001.7367850222438
  0
LINE
  8
_0-a_極細3
  6
CONTINUOUS
 62
    7
 10
498.91970803208937
 20
371.27326645174816
 11
498.91970803208937
 21
261.93993311841473
  0
LINE
  8
_0-a_極細3
  6
CONTINUOUS
 62
    7
 10
632.25304136542286
 20
261.93993311841473
 11
498.91970803208937
 21
261.93993311841473
  0
LINE
  8
_0-a_極細3
  6
CONTINUOUS
 62
    7
 10
498.91970803208937
 20
371.27326645174816
 11
449.56864593323962
 21
371.27326645174816
  0
LINE
  8
_0-a_極細3
  6
CONTINUOUS
 62
    7
 10
632.25304136542286
 20
261.93993311841473
 11
632.25304136542286
 21
219.95337264676834
  0
LINE
  8
_0-a_極細3
  6
CONTINUOUS
 62
    7
 10
572.37788206143921
 20
219.95337283306719
 11
614.36444234678743
 21
261.93993311841473
  0
LINE
  8
_0-a_極細3
  6
CONTINUOUS
 62
    7
 10
459.24079742361323
 20
219.95337318508837
 11
501.22735735693971
 21
261.93993311841473
  0
LINE
  8
_0-a_極細3
  6
CONTINUOUS
 62
    7
 10
449.56864593323962
 20
323.41830668456237
 11
497.42360570042547
 21
371.27326645174816
  0
LINE
  8
_0-a_極細3
  6
CONTINUOUS
 62
    7
 10
561.06417359765658
 20
219.95337286826941
 11
603.05073384780223
 21
261.93993311841473
  0
LINE
  8
_0-a_極細3
  6
CONTINUOUS
 62
    7
 10
449.56864593323962
 20
221.59493019369961
 11
498.91970803208937
 21
270.94599229254982
  0
LINE
  8
_0-a_極細3
  6
CONTINUOUS
 62
    7
 10
449.56864593323962
 20
334.73201518354722
 11
486.10989720144028
 21
371.27326645174816
  0
LINE
  8
_0-a_極細3
  6
CONTINUOUS
 62
    7
 10
549.75046513387463
 20
219.95337290347152
 11
591.73702534881772
 21
261.93993311841473
  0
LINE
  8
_0-a_極細3
  6
CONTINUOUS
 62
    7
 10
449.56864593323962
 20
232.90863869268424
 11
498.91970803208937
 21
282.25970079153444
  0
LINE
  8
_0-a_極細3
  6
CONTINUOUS
 62
    7
 10
449.56864593323962
 20
346.0457236825319
 11
474.79618870245577
 21
371.27326645174816
  0
CIRCLE
  8
_0-a_極細3
  6
CONTINUOUS
 62
    7
 10
478.20206648230715
 20
395.59872311840405
 40
0.884938271604915
  0
CIRCLE
  8
_0-a_極細3
  6
CONTINUOUS
 62
    7
 10
461.67268376625839
 20
379.6698342295154
 40
0.884938271604915
  0
CIRCLE
  8
_0-a_極細3
  6
CONTINUOUS
 62
    7
 10
478.6445356181099
 20
381.37650089618199
 40
0.884938271604915
  0
CIRCLE
  8
_0-a_極細3
  6
CONTINUOUS
 62
    7
 10
498.84009117366554
 20
384.5053897850708
 40
0.884938271604915
  0
CIRCLE
  8
_0-a_極細3
  6
CONTINUOUS
 62
    7
 10
544.3512022847757
 20
403.278723118404
 40
0.884938271604915
  0
CIRCLE
  8
_0-a_極細3
  6
CONTINUOUS
 62
    7
 10
584.17342450699755
 20
419.20761200729288
 40
0.884938271604915
  0
CIRCLE
  8
_0-a_極細3
  6
CONTINUOUS
 62
    7
 10
593.27564672921972
 20
393.32316756284854
 40
0.884938271604915
  0
CIRCLE
  8
_0-a_極細3
  6
CONTINUOUS
 62
    7
 10
553.45342450699798
 20
392.46983422951524
 40
0.884938271604915
  0
CIRCLE
  8
_0-a_極細3
  6
CONTINUOUS
 62
    7
 10
534.68009117366501
 20
416.36316756284833
 40
0.884938271604915
  0
CIRCLE
  8
_0-a_極細3
  6
CONTINUOUS
 62
    7
 10
509.9512022847764
 20
372.89650089618186
 40
0.884938271604915
  0
CIRCLE
  8
_0-a_極細3
  6
CONTINUOUS
 62
    7
 10
542.66231339588671
 20
370.90538978507084
 40
0.884938271604915
  0
CIRCLE
  8
_0-a_極細3
  6
CONTINUOUS
 62
    7
 10
582.76898006255317
 20
364.93205645173765
 40
0.884938271604915
  0
CIRCLE
  8
_0-a_極細3
  6
CONTINUOUS
 62
    7
 10
562.57342450699764
 20
355.82983422951543
 40
0.884938271604915
  0
CIRCLE
  8
_0-a_極細3
  6
CONTINUOUS
 62
    7
 10
538.96453561810961
 20
334.21205645173774
 40
0.884938271604915
  0
CIRCLE
  8
_0-a_極細3
  6
CONTINUOUS
 62
    7
 10
582.76898006255317
 20
345.87427867395996
 40
0.884938271604915
  0
CIRCLE
  8
_0-a_極細3
  6
CONTINUOUS
 62
    7
 10
516.99120228477591
 20
302.49650089618262
 40
0.884938271604915
  0
CIRCLE
  8
_0-a_極細3
  6
CONTINUOUS
 62
    7
 10
507.88898006255363
 20
273.76761200729402
 40
0.884938271604915
  0
CIRCLE
  8
_0-a_極細3
  6
CONTINUOUS
 62
    7
 10
521.82675784033165
 20
284.57650089618278
 40
0.884938271604915
  0
CIRCLE
  8
_0-a_極細3
  6
CONTINUOUS
 62
    7
 10
531.78231339588706
 20
270.92316756284936
 40
0.884938271604915
  0
CIRCLE
  8
_0-a_極細3
  6
CONTINUOUS
 62
    7
 10
594.6623133958866
 20
299.54538978507162
 40
0.884938271604915
  0
CIRCLE
  8
_0-a_極細3
  6
CONTINUOUS
 62
    7
 10
576.74231339588687
 20
290.72761200729383
 40
0.884938271604915
  0
CIRCLE
  8
_0-a_極細3
  6
CONTINUOUS
 62
    7
 10
586.69786895144239
 20
286.74538978507167
 40
0.884938271604915
  0
CIRCLE
  8
_0-a_極細3
  6
CONTINUOUS
 62
    7
 10
581.00898006255329
 20
271.95427867396063
 40
0.884938271604915
  0
CIRCLE
  8
_0-a_極細3
  6
CONTINUOUS
 62
    7
 10
612.86675784033093
 20
273.66094534062745
 40
0.884938271604915
  0
CIRCLE
  8
_0-a_極細3
  6
CONTINUOUS
 62
    7
 10
633.63120228477521
 20
278.78094534062734
 40
0.884938271604915
  0
CIRCLE
  8
_0-a_極細3
  6
CONTINUOUS
 62
    7
 10
655.53342450699745
 20
254.88761200729414
 40
0.884938271604915
  0
CIRCLE
  8
_0-a_極細3
  6
CONTINUOUS
 62
    7
 10
644.44009117366397
 20
230.99427867396093
 40
0.884938271604915
  0
CIRCLE
  8
_0-a_極細3
  6
CONTINUOUS
 62
    7
 10
617.77342450699757
 20
300.7779823776641
 40
0.884938271604915
  0
CIRCLE
  8
_0-a_極細3
  6
CONTINUOUS
 62
    7
 10
641.38231339588629
 20
355.39131571099711
 40
0.884938271604915
  0
CIRCLE
  8
_0-a_極細3
  6
CONTINUOUS
 62
    7
 10
665.56009117366375
 20
339.46242682210828
 40
0.884938271604915
  0
CIRCLE
  8
_0-a_極細3
  6
CONTINUOUS
 62
    7
 10
666.41342450699699
 20
310.73353793321962
 40
0.884938271604915
  0
CIRCLE
  8
_0-a_極細3
  6
CONTINUOUS
 62
    7
 10
610.0223133958865
 20
358.30687126655266
 40
0.884938271604915
  0
CIRCLE
  8
_0-a_極細3
  6
CONTINUOUS
 62
    7
 10
577.56009117366443
 20
393.48119225420669
 40
2.9208503562902273
  0
CIRCLE
  8
_0-a_極細3
  6
CONTINUOUS
 62
    7
 10
494.74069965136846
 20
404.56857509372327
 40
2.9208503562902273
  0
CIRCLE
  8
_0-a_極細3
  6
CONTINUOUS
 62
    7
 10
537.20453561810905
 20
357.0011922542069
 40
2.9208503562902273
  0
CIRCLE
  8
_0-a_極細3
  6
CONTINUOUS
 62
    7
 10
505.84453561810915
 20
296.20119225420763
 40
2.9208503562902273
  0
CIRCLE
  8
_0-a_極細3
  6
CONTINUOUS
 62
    7
 10
590.96453561810802
 20
275.72119225420784
 40
2.9208503562902273
  0
CIRCLE
  8
_0-a_極細3
  6
CONTINUOUS
 62
    7
 10
648.52898006255236
 20
269.96119225420807
 40
2.9208503562902273
  0
CIRCLE
  8
_0-a_極細3
  6
CONTINUOUS
 62
    7
 10
656.20898006255186
 20
240.09452558754174
 40
2.9208503562902273
  0
CIRCLE
  8
_0-a_極細3
  6
CONTINUOUS
 62
    7
 10
462.42537238564148
 20
405.99674780976216
 40
2.9208503562902273
  0
LINE
  8
_0-a_極細3
  6
CONTINUOUS
 62
    7
 10
684.25304136542286
 20
381.93993311841473
 11
685.58637469875646
 21
381.93993311841473
  0
LINE
  8
_0-a_極細3
  6
CONTINUOUS
 62
    7
 10
685.58637469875646
 20
381.93993311841473
 11
685.58637469875646
 21
219.95337264676834
  0
CIRCLE
  8
_0-a_極細3
  6
CONTINUOUS
 62
    7
 10
674.56648006255011
 20
356.36119225420759
 40
2.9208503562902273
  0
CIRCLE
  8
_0-a_極細3
  6
CONTINUOUS
 62
    7
 10
672.97935043292273
 20
268.82538978507182
 40
0.884938271604915
  0
CIRCLE
  8
_0-a_極細3
  6
CONTINUOUS
 62
    7
 10
675.11268376625696
 20
232.57567613200013
 40
0.884938271604915
  0
CIRCLE
  8
_0-a_極細3
  6
CONTINUOUS
 62
    7
 10
655.32009117365703
 20
325.78341447643038
 40
2.9208503562902273
  0
LINE
  8
_0-a_極細3
  6
CONTINUOUS
 62
    7
 10
1138.9197080320901
 20
371.27326645174816
 11
1138.9197080320901
 21
261.93993311841473
  0
LINE
  8
_0-a_極細3
  6
CONTINUOUS
 62
    7
 10
1005.5863746987569
 20
261.93993311841473
 11
1138.9197080320901
 21
261.93993311841473
  0
LINE
  8
_0-a_極細3
  6
CONTINUOUS
 62
    7
 10
1138.9197080320901
 20
371.27326645174816
 11
1188.2707701309403
 21
371.27326645174816
  0
LINE
  8
_0-a_極細3
  6
CONTINUOUS
 62
    7
 10
1005.5863746987569
 20
261.93993311841473
 11
1005.5863746987569
 21
219.95337264676834
  0
LINE
  8
_0-a_極細3
  6
CONTINUOUS
 62
    7
 10
1152.183711895439
 20
219.95337264676834
 11
1188.2707701974055
 21
256.04043094873464
  0
LINE
  8
_0-a_極細3
  6
CONTINUOUS
 62
    7
 10
1039.0466269055914
 20
219.95337264676834
 11
1081.0331873772375
 21
261.93993311841473
  0
LINE
  8
_0-a_極細3
  6
CONTINUOUS
 62
    7
 10
1138.9197080320901
 20
319.82645377326708
 11
1188.2707701321492
 21
369.177515873326
  0
LINE
  8
_0-a_極細3
  6
CONTINUOUS
 62
    7
 10
1140.870003396454
 20
219.95337264676834
 11
1188.2707701908796
 21
267.35413944119387
  0
LINE
  8
_0-a_極細3
  6
CONTINUOUS
 62
    7
 10
1027.7329184066061
 20
219.95337264676834
 11
1069.7194788782531
 21
261.93993311841473
  0
LINE
  8
_0-a_極細3
  6
CONTINUOUS
 62
    7
 10
1138.9197080320901
 20
331.14016227225198
 11
1179.0528119243056
 21
371.27326616446749
  0
LINE
  8
_0-a_極細3
  6
CONTINUOUS
 62
    7
 10
1129.5562948974693
 20
219.95337264676834
 11
1188.2707701843538
 21
278.66784793365287
  0
LINE
  8
_0-a_極細3
  6
CONTINUOUS
 62
    7
 10
1016.4192099076216
 20
219.95337264676834
 11
1058.4057703792682
 21
261.93993311841473
  0
LINE
  8
_0-a_極細3
  6
CONTINUOUS
 62
    7
 10
1138.9197080320901
 20
342.45387077123667
 11
1167.7391035063069
 21
371.27326624545327
  0
CIRCLE
  8
_0-a_極細3
  6
CONTINUOUS
 62
    7
 10
983.83564672921682
 20
356.10687126655262
 40
0.884938271604915
  0
CIRCLE
  8
_0-a_極細3
  6
CONTINUOUS
 62
    7
 10
999.76453561810524
 20
363.78687126655257
 40
0.884938271604915
  0
CIRCLE
  8
_0-a_極細3
  6
CONTINUOUS
 62
    7
 10
993.2223133958837
 20
323.82242682210858
 40
0.884938271604915
  0
CIRCLE
  8
_0-a_極細3
  6
CONTINUOUS
 62
    7
 10
1021.2756467292165
 20
296.58687126655309
 40
0.884938271604915
  0
CIRCLE
  8
_0-a_極細3
  6
CONTINUOUS
 62
    7
 10
992.74231339588334
 20
259.30687126655357
 40
0.884938271604915
  0
CIRCLE
  8
_0-a_極細3
  6
CONTINUOUS
 62
    7
 10
977.80898006255052
 20
230.72020459988721
 40
0.884938271604915
  0
CIRCLE
  8
_0-a_極細3
  6
CONTINUOUS
 62
    7
 10
996.15564672921653
 20
278.50687126655339
 40
0.884938271604915
  0
CIRCLE
  8
_0-a_極細3
  6
CONTINUOUS
 62
    7
 10
1018.342313395883
 20
270.82687126655344
 40
0.884938271604915
  0
CIRCLE
  8
_0-a_極細3
  6
CONTINUOUS
 62
    7
 10
1061.4356467292162
 20
271.25353793322006
 40
0.884938271604915
  0
CIRCLE
  8
_0-a_極細3
  6
CONTINUOUS
 62
    7
 10
1042.2356467292166
 20
285.76020459988672
 40
0.884938271604915
  0
CIRCLE
  8
_0-a_極細3
  6
CONTINUOUS
 62
    7
 10
1060.1556467292162
 20
294.72020459988653
 40
0.884938271604915
  0
CIRCLE
  8
_0-a_極細3
  6
CONTINUOUS
 62
    7
 10
1044.9734245069935
 20
413.15576015544087
 40
0.884938271604915
  0
CIRCLE
  8
_0-a_極細3
  6
CONTINUOUS
 62
    7
 10
1040.9912022847716
 20
381.58242682210783
 40
0.884938271604915
  0
CIRCLE
  8
_0-a_極細3
  6
CONTINUOUS
 62
    7
 10
1073.8445356181044
 20
380.44464904433005
 40
0.884938271604915
  0
CIRCLE
  8
_0-a_極細3
  6
CONTINUOUS
 62
    7
 10
1055.2845356181047
 20
358.04464904433024
 40
0.884938271604915
  0
CIRCLE
  8
_0-a_極細3
  6
CONTINUOUS
 62
    7
 10
1118.004535618104
 20
272.92464904433132
 40
0.884938271604915
  0
CIRCLE
  8
_0-a_極細3
  6
CONTINUOUS
 62
    7
 10
1129.524535618104
 20
295.32464904433107
 40
0.884938271604915
  0
CIRCLE
  8
_0-a_極細3
  6
CONTINUOUS
 62
    7
 10
1126.9645356181038
 20
328.60464904433064
 40
0.884938271604915
  0
CIRCLE
  8
_0-a_極細3
  6
CONTINUOUS
 62
    7
 10
1098.1645356181041
 20
362.52464904433032
 40
0.884938271604915
  0
CIRCLE
  8
_0-a_極細3
  6
CONTINUOUS
 62
    7
 10
1125.0445356181037
 20
393.88464904432982
 40
0.884938271604915
  0
CIRCLE
  8
_0-a_極細3
  6
CONTINUOUS
 62
    7
 10
1120.5645356181037
 20
351.00464904433045
 40
0.884938271604915
  0
CIRCLE
  8
_0-a_極細3
  6
CONTINUOUS
 62
    7
 10
1167.9245356181034
 20
384.92464904432995
 40
0.884938271604915
  0
CIRCLE
  8
_0-a_極細3
  6
CONTINUOUS
 62
    7
 10
1160.2445356181031
 20
406.95674780976202
 40
2.9208503562902273
  0
CIRCLE
  8
_0-a_極細3
  6
CONTINUOUS
 62
    7
 10
1135.2134245069924
 20
382.21008114309569
 40
2.9208503562902273
  0
CIRCLE
  8
_0-a_極細3
  6
CONTINUOUS
 62
    7
 10
1046.5378689514378
 20
392.73452558753996
 40
2.9208503562902273
  0
CIRCLE
  8
_0-a_極細3
  6
CONTINUOUS
 62
    7
 10
1097.7378689514371
 20
341.53452558754049
 40
2.9208503562902273
  0
CIRCLE
  8
_0-a_極細3
  6
CONTINUOUS
 62
    7
 10
985.10675784032833
 20
270.25452558754137
 40
2.9208503562902273
  0
CIRCLE
  8
_0-a_極細3
  6
CONTINUOUS
 62
    7
 10
1001.462313395883
 20
318.04119225420754
 40
2.9208503562902273
  0
CIRCLE
  8
_0-a_極細3
  6
CONTINUOUS
 62
    7
 10
1057.7823133958825
 20
282.20119225420808
 40
2.9208503562902273
  0
CIRCLE
  8
_0-a_極細3
  6
CONTINUOUS
 62
    7
 10
1131.8066216123364
 20
265.9019084270567
 40
2.9208503562902273
  0
CIRCLE
  8
_0-a_極細3
  6
CONTINUOUS
 62
    7
 10
1050.7423133958823
 20
351.32119225420718
 40
2.9208503562902273
  0
CIRCLE
  8
_0-a_極細3
  6
CONTINUOUS
 62
    7
 10
974.79663438353782
 20
342.64406360294902
 40
0.884938271604915
  0
CIRCLE
  8
_0-a_極細3
  6
CONTINUOUS
 62
    7
 10
975.11663438353901
 20
304.31517471406039
 40
0.884938271604915
  0
CIRCLE
  8
_0-a_極細3
  6
CONTINUOUS
 62
    7
 10
1147.4445356181038
 20
419.69798237766304
 40
0.884938271604915
  0
CIRCLE
  8
_0-a_極細3
  6
CONTINUOUS
 62
    7
 10
1098.1645356181041
 20
411.59131571099664
 40
0.884938271604915
  0
CIRCLE
  8
_0-a_極細3
  6
CONTINUOUS
 62
    7
 10
1098.3778689514372
 20
401.48119225420669
 40
2.9208503562902273
  0
CIRCLE
  8
_0-a_極細3
  6
CONTINUOUS
 62
    7
 10
1064.2445356181045
 20
421.19131571099626
 40
0.884938271604915
  0
LINE
  8
_0-a_極細3
  6
CONTINUOUS
 62
    7
 10
953.58637469875578
 20
381.93993311841473
 11
952.25304136542297
 21
381.93993311841473
  0
LINE
  8
_0-a_極細3
  6
CONTINUOUS
 62
    7
 10
952.25304136542297
 20
381.93993311841473
 11
952.25304136542297
 21
219.95337264676834
  0
CIRCLE
  8
_0-a_極細3
  6
CONTINUOUS
 62
    7
 10
961.82807471275635
 20
317.84909348877522
 40
0.884938271604915
  0
CIRCLE
  8
_0-a_極細3
  6
CONTINUOUS
 62
    7
 10
963.91860969217998
 20
255.04020459988692
 40
0.884938271604915
  0
CIRCLE
  8
_0-a_極細3
  6
CONTINUOUS
 62
    7
 10
962.89638746995661
 20
360.56563669865244
 40
2.9208503562902273
  0
CIRCLE
  8
_0-a_極細3
  6
CONTINUOUS
 62
    7
 10
967.6134245069934
 20
244.3700811430964
 40
2.9208503562902273
  0
LINE
  8
_0-a_極細3
  6
CENTER1
 62
    7
 10
818.91970803209006
 20
364.04260594169517
 11
818.91970803209006
 21
465.56260594170527
  0
LINE
  8
_0-a_極細3
  6
CONTINUOUS
 62
    7
 10
592.25304136542286
 20
443.27326645174821
 11
592.25304136542286
 21
424.60659978508141
  0
LINE
  8
_0-a_極細3
  6
CONTINUOUS
 62
    7
 10
592.25304136542286
 20
443.27326645174821
 11
449.56864593323962
 21
443.27326645174821
  0
LINE
  8
_0-a_極細3
  6
CONTINUOUS
 62
    7
 10
605.58637469875646
 20
424.60659978508141
 11
449.56864593323962
 21
424.60659978508141
  0
LINE
  8
_0-a_極細3
  6
CONTINUOUS
 62
    7
 10
605.58637469875646
 20
443.27326645174821
 11
592.25304136542286
 21
443.27326645174821
  0
LINE
  8
_0-a_極細3
  6
CONTINUOUS
 62
    7
 10
605.58637469875646
 20
441.93993311841479
 11
605.58637469875646
 21
443.27326645174821
  0
LINE
  8
_0-a_極細3
  6
CONTINUOUS
 62
    7
 10
605.26943028858102
 20
424.60659978508141
 11
605.58637469875566
 21
424.9235441952564
  0
LINE
  8
_0-a_極細3
  6
CONTINUOUS
 62
    7
 10
598.48120518919052
 20
424.60659978508141
 11
605.58637469875646
 21
431.71176929464713
  0
LINE
  8
_0-a_極細3
  6
CONTINUOUS
 62
    7
 10
592.25304136542286
 20
425.16666106070483
 11
605.58637469875646
 21
438.49999439403803
  0
LINE
  8
_0-a_極細3
  6
CONTINUOUS
 62
    7
 10
592.25304136542286
 20
431.95488616009555
 11
603.57142165707512
 21
443.27326645174821
  0
LINE
  8
_0-a_極細3
  6
CONTINUOUS
 62
    7
 10
592.25304136542286
 20
438.74311125948645
 11
596.78319655768462
 21
443.27326645174821
  0
LINE
  8
_0-a_極細3
  6
CONTINUOUS
 62
    7
 10
605.58637469875646
 20
439.62371945613449
 11
601.93682770314297
 21
443.27326645174821
  0
LINE
  8
_0-a_極細3
  6
CONTINUOUS
 62
    7
 10
605.58637469875646
 20
432.8354943567436
 11
595.14860260375167
 21
443.27326645174821
  0
LINE
  8
_0-a_極細3
  6
CONTINUOUS
 62
    7
 10
592.25304136542286
 20
439.38060259068629
 11
605.58637469875646
 21
426.04726925735287
  0
LINE
  8
_0-a_極細3
  6
CONTINUOUS
 62
    7
 10
592.25304136542286
 20
432.59237749129534
 11
600.23881907163627
 21
424.60659978508141
  0
LINE
  8
_0-a_極細3
  6
CONTINUOUS
 62
    7
 10
592.25304136542286
 20
425.80415239190444
 11
593.45059397224566
 21
424.60659978508141
  0
LINE
  8
_0-a_極細3
  6
CONTINUOUS
 62
    7
 10
578.11652988121375
 20
424.6065997752778
 11
592.25304136542286
 21
438.74311125948645
  0
LINE
  8
_0-a_極細3
  6
CONTINUOUS
 62
    7
 10
544.17540436072193
 20
424.60659975173968
 11
562.84207106073052
 21
443.27326645174799
  0
LINE
  8
_0-a_極細3
  6
CONTINUOUS
 62
    7
 10
510.23427884022931
 20
424.60659972820162
 11
528.90094556377562
 21
443.27326645174821
  0
LINE
  8
_0-a_極細3
  6
CONTINUOUS
 62
    7
 10
476.29315331973669
 20
424.60659970466349
 11
494.95982006682129
 21
443.27326645174821
  0
LINE
  8
_0-a_極細3
  6
CONTINUOUS
 62
    7
 10
449.56864593323962
 20
431.82321781512019
 11
461.01869456986719
 21
443.27326645174799
  0
LINE
  8
_0-a_極細3
  6
DASHED2
 62
    7
 10
561.14596712096795
 20
424.60659976350871
 11
579.81263380920745
 21
443.27326645174838
  0
LINE
  8
_0-a_極細3
  6
DASHED2
 62
    7
 10
527.20484160047522
 20
424.60659973997065
 11
545.87150831225335
 21
443.27326645174821
  0
LINE
  8
_0-a_極細3
  6
DASHED2
 62
    7
 10
493.2637160799834
 20
424.60659971643275
 11
511.93038281529846
 21
443.27326645174821
  0
LINE
  8
_0-a_極細3
  6
DASHED2
 62
    7
 10
459.32259055949066
 20
424.60659969289463
 11
477.98925731834424
 21
443.27326645174821
  0
ARC
  8
_0-b_細線3
  6
CONTINUOUS
 62
    7
 10
613.58637469875646
 20
389.93993311841473
 40
8
 50
179.99999999999983
 51
269.99999999999977
  0
LINE
  8
_0-b_細線3
  6
CONTINUOUS
 62
    7
 10
605.58637469875646
 20
389.93993311841473
 11
605.58637469875646
 21
441.93993311841479
  0
LINE
  8
_0-b_細線3
  6
CONTINUOUS
 62
    7
 10
613.58637469875646
 20
381.93993311841473
 11
684.25304136542286
 21
381.93993311841473
  0
LINE
  8
_0-b_細線3
  6
CONTINUOUS
 62
    7
 10
685.58637469875646
 20
383.27326645174816
 11
684.25304136542286
 21
381.93993311841473
  0
LINE
  8
_0-b_細線3
  6
CONTINUOUS
 62
    7
 10
685.58637469875646
 20
388.60659978508153
 11
685.58637469875646
 21
383.27326645174816
  0
LINE
  8
_0-b_細線3
  6
CONTINUOUS
 62
    7
 10
684.25304136542286
 20
389.93993311841473
 11
685.58637469875646
 21
388.60659978508153
  0
LINE
  8
_0-b_細線3
  6
CONTINUOUS
 62
    7
 10
613.58637469875646
 20
389.93993311841473
 11
684.25304136542286
 21
389.93993311841473
  0
LINE
  8
_0-b_細線3
  6
CONTINUOUS
 62
    7
 10
606.91970803208926
 20
443.27326645174821
 11
605.58637469875646
 21
441.93993311841479
  0
LINE
  8
_0-b_細線3
  6
CONTINUOUS
 62
    7
 10
612.25304136542286
 20
443.27326645174821
 11
606.91970803208926
 21
443.27326645174821
  0
LINE
  8
_0-b_細線3
  6
CONTINUOUS
 62
    7
 10
613.58637469875646
 20
441.93993311841479
 11
612.25304136542286
 21
443.27326645174821
  0
LINE
  8
_0-b_細線3
  6
CONTINUOUS
 62
    7
 10
613.58637469875646
 20
389.93993311841473
 11
613.58637469875646
 21
441.93993311841479
  0
LINE
  8
_0-a_極細3
  6
CONTINUOUS
 62
    7
 10
1045.586374698757
 20
443.27326645174821
 11
1045.586374698757
 21
424.60659978508141
  0
LINE
  8
_0-a_極細3
  6
CONTINUOUS
 62
    7
 10
1045.586374698757
 20
443.27326645174821
 11
1188.2707701309403
 21
443.27326645174821
  0
LINE
  8
_0-a_極細3
  6
CONTINUOUS
 62
    7
 10
1032.2530413654233
 20
424.60659978508141
 11
1188.2707701309403
 21
424.60659978508141
  0
LINE
  8
_0-a_極細3
  6
CONTINUOUS
 62
    7
 10
1032.2530413654233
 20
443.27326645174821
 11
1045.586374698757
 21
443.27326645174821
  0
LINE
  8
_0-a_極細3
  6
CONTINUOUS
 62
    7
 10
1032.2530413654233
 20
441.93993311841479
 11
1032.2530413654233
 21
443.27326645174821
  0
LINE
  8
_0-a_極細3
  6
CONTINUOUS
 62
    7
 10
1045.5863746987566
 20
430.47713783424098
 11
1039.7158366495969
 21
424.60659978508141
  0
LINE
  8
_0-a_極細3
  6
CONTINUOUS
 62
    7
 10
1045.5863746987566
 20
437.26536293363171
 11
1032.9276115502064
 21
424.60659978508141
  0
LINE
  8
_0-a_極細3
  6
CONTINUOUS
 62
    7
 10
1032.2530413654233
 20
430.72025469968958
 11
1044.8060531174824
 21
443.27326645174821
  0
LINE
  8
_0-a_極細3
  6
CONTINUOUS
 62
    7
 10
1032.2530413654233
 20
437.50847979908031
 11
1038.017828018091
 21
443.27326645174799
  0
LINE
  8
_0-a_極細3
  6
CONTINUOUS
 62
    7
 10
1045.586374698757
 20
440.85835091653939
 11
1043.1714591635478
 21
443.27326645174821
  0
LINE
  8
_0-a_極細3
  6
CONTINUOUS
 62
    7
 10
1045.586374698757
 20
434.07012581714844
 11
1036.3832340641575
 21
443.27326645174821
  0
LINE
  8
_0-a_極細3
  6
CONTINUOUS
 62
    7
 10
1045.586374698757
 20
427.28190071775771
 11
1032.2530413654233
 21
440.61523405109097
  0
LINE
  8
_0-a_極細3
  6
CONTINUOUS
 62
    7
 10
1041.4734505320421
 20
424.60659978508141
 11
1032.2530413654233
 21
433.82700895170024
  0
LINE
  8
_0-a_極細3
  6
CONTINUOUS
 62
    7
 10
1034.6852254326514
 20
424.60659978508141
 11
1032.2530413654233
 21
427.03878385230928
  0
LINE
  8
_0-a_極細3
  6
CONTINUOUS
 62
    7
 10
1155.1156633392418
 20
424.60659978508141
 11
1173.7823290030458
 21
443.27326544888587
  0
LINE
  8
_0-a_極細3
  6
CONTINUOUS
 62
    7
 10
1121.1745378422872
 20
424.60659978508158
 11
1139.8412037716096
 21
443.27326571440335
  0
LINE
  8
_0-a_極細3
  6
CONTINUOUS
 62
    7
 10
1087.2334123453329
 20
424.60659978508141
 11
1105.9000785401724
 21
443.27326597992089
  0
LINE
  8
_0-a_極細3
  6
CONTINUOUS
 62
    7
 10
1053.2922868483788
 20
424.60659978508141
 11
1071.9589533087362
 21
443.27326624543861
  0
LINE
  8
_0-a_極細3
  6
DASHED2
 62
    7
 10
1172.0862260877191
 20
424.60659978508158
 11
1188.2707701309403
 21
440.79114382830289
  0
LINE
  8
_0-a_極細3
  6
DASHED2
 62
    7
 10
1138.1451005907643
 20
424.60659978508141
 11
1156.8117663873277
 21
443.27326558164441
  0
LINE
  8
_0-a_極細3
  6
DASHED2
 62
    7
 10
1104.20397509381
 20
424.60659978508141
 11
1122.870641155891
 21
443.27326584716212
  0
LINE
  8
_0-a_極細3
  6
DASHED2
 62
    7
 10
1070.2628495968559
 20
424.60659978508141
 11
1088.9295159244539
 21
443.27326611267966
  0
LINE
  8
_0-a_極細3
  6
DASHED2
 62
    7
 10
1045.5863746987566
 20
433.87125038393629
 11
1054.9883906930177
 21
443.27326637819715
  0
ARC
  8
_0-b_細線3
  6
CONTINUOUS
 62
    7
 10
1024.2530413654233
 20
389.93993311841473
 40
8
 50
269.99999999999977
 51
359.99999999999966
  0
LINE
  8
_0-b_細線3
  6
CONTINUOUS
 62
    7
 10
1032.2530413654233
 20
389.93993311841473
 11
1032.2530413654233
 21
441.93993311841479
  0
LINE
  8
_0-b_細線3
  6
CONTINUOUS
 62
    7
 10
1024.2530413654233
 20
381.93993311841473
 11
953.58637469875578
 21
381.93993311841473
  0
LINE
  8
_0-b_細線3
  6
CONTINUOUS
 62
    7
 10
952.25304136542297
 20
383.27326645174816
 11
953.58637469875578
 21
381.93993311841473
  0
LINE
  8
_0-b_細線3
  6
CONTINUOUS
 62
    7
 10
952.25304136542297
 20
388.60659978508153
 11
952.25304136542297
 21
383.27326645174816
  0
LINE
  8
_0-b_細線3
  6
CONTINUOUS
 62
    7
 10
953.58637469875578
 20
389.93993311841473
 11
952.25304136542297
 21
388.60659978508153
  0
LINE
  8
_0-b_細線3
  6
CONTINUOUS
 62
    7
 10
1024.2530413654233
 20
389.93993311841473
 11
953.58637469875578
 21
389.93993311841473
  0
LINE
  8
_0-b_細線3
  6
CONTINUOUS
 62
    7
 10
1030.9197080320905
 20
443.27326645174821
 11
1032.2530413654233
 21
441.93993311841479
  0
LINE
  8
_0-b_細線3
  6
CONTINUOUS
 62
    7
 10
1025.586374698757
 20
443.27326645174821
 11
1030.9197080320905
 21
443.27326645174821
  0
LINE
  8
_0-b_細線3
  6
CONTINUOUS
 62
    7
 10
1024.2530413654233
 20
441.93993311841479
 11
1025.586374698757
 21
443.27326645174821
  0
LINE
  8
_0-b_細線3
  6
CONTINUOUS
 62
    7
 10
1024.2530413654233
 20
389.93993311841473
 11
1024.2530413654233
 21
441.93993311841479
  0
LINE
  8
_0-d_寸法3
  6
CONTINUOUS
 62
    7
 10
605.58637469875646
 20
451.27326645174821
 11
605.58637469875646
 21
627.27326378239673
  0
LINE
  8
_0-d_寸法3
  6
CONTINUOUS
 62
    7
 10
605.58637469875646
 20
619.27326378239673
 11
621.04118791938151
 21
623.41436850403704
  0
LINE
  8
_0-d_寸法3
  6
CONTINUOUS
 62
    7
 10
605.58637469875646
 20
619.27326378239673
 11
621.04118791938151
 21
615.13215906075641
  0
LINE
  8
_0-d_寸法3
  6
CONTINUOUS
 62
    7
 10
1032.2530413654233
 20
451.27326645174821
 11
1032.2530413654235
 21
627.27326378239673
  0
LINE
  8
_0-d_寸法3
  6
CONTINUOUS
 62
    7
 10
1032.2530413654235
 20
619.27326378239673
 11
1016.7982281447985
 21
615.13215906075641
  0
LINE
  8
_0-d_寸法3
  6
CONTINUOUS
 62
    7
 10
1032.2530413654235
 20
619.27326378239673
 11
1016.7982281447985
 21
623.41436850403716
  0
LINE
  8
_0-d_寸法3
  6
CONTINUOUS
 62
    7
 10
605.58637469875646
 20
619.27326378239673
 11
1032.2530413654235
 21
619.27326378239673
  0
TEXT
  8
_0-d_寸法3
 62
    7
 10
800.91970803209006
 20
619.27326378239673
 40
24
 41
1
 50
0
  1
160
  0
CIRCLE
  8
_0-a_極細3
  6
CONTINUOUS
 62
    7
 10
557.87416524773914
 20
411.89897003198189
 40
2.9208503562902273
  0
ARC
  8
_0-b_細線3
  6
CONTINUOUS
 62
    7
 10
621.58637469784037
 20
437.93993311841479
 40
2.666666666666667
 50
89.999999999999915
 51
179.99999999999983
  0
ARC
  8
_0-b_細線3
  6
CONTINUOUS
 62
    7
 10
622.8342392080466
 20
443.27326645174838
 40
2.666666666666667
 50
269.99999999999977
 51
329.99999999999579
  0
ARC
  8
_0-b_細線3
  6
CONTINUOUS
 62
    7
 10
627.45304136156369
 20
440.60659978508193
 40
2.666666666666667
 50
89.999999999999915
 51
150.0000000000087
  0
LINE
  8
_0-b_細線3
  6
CONTINUOUS
 62
    7
 10
621.58637469784037
 20
440.60659978508193
 11
622.8342392080466
 21
440.60659978508193
  0
ARC
  8
_0-b_細線3
  6
CONTINUOUS
 62
    7
 10
646.65304135862129
 20
437.93993311841479
 40
2.666666666666667
 50
0
 51
89.999999999999915
  0
ARC
  8
_0-b_細線3
  6
CONTINUOUS
 62
    7
 10
645.40517684841507
 20
443.27326645174838
 40
2.666666666666667
 50
209.99999999999616
 51
269.99999999999977
  0
ARC
  8
_0-b_細線3
  6
CONTINUOUS
 62
    7
 10
640.78637469489729
 20
440.60659978508193
 40
2.666666666666667
 50
29.999999999991321
 51
89.999999999985349
  0
LINE
  8
_0-b_細線3
  6
CONTINUOUS
 62
    7
 10
646.65304135862129
 20
440.60659978508193
 11
645.40517684841507
 21
440.60659978508193
  0
ARC
  8
_0-b_細線3
  6
CONTINUOUS
 62
    7
 10
620.25304136450757
 20
434.20659978508195
 40
1.3333333333333335
 50
179.99999999999983
 51
269.99999999999977
  0
LINE
  8
_0-b_細線3
  6
CONTINUOUS
 62
    7
 10
618.91970803117317
 20
437.93993311841479
 11
618.91970803117317
 21
434.20659978508195
  0
ARC
  8
_0-b_細線3
  6
CONTINUOUS
 62
    7
 10
647.98637469195489
 20
434.20659978508195
 40
1.3333333333333335
 50
269.99999999999977
 51
359.99999999999966
  0
LINE
  8
_0-b_細線3
  6
CONTINUOUS
 62
    7
 10
649.31970802528849
 20
437.93993311841479
 11
649.31970802528849
 21
434.20659978508195
  0
ARC
  8
_0-b_細線3
  6
CONTINUOUS
 62
    7
 10
626.91970803117317
 20
430.20659978508195
 40
2.666666666666667
 50
0
 51
89.999999999999915
  0
LINE
  8
_0-b_細線3
  6
CONTINUOUS
 62
    7
 10
626.91970803117317
 20
432.87326645174835
 11
620.25304136450757
 21
432.87326645174835
  0
ARC
  8
_0-b_細線3
  6
CONTINUOUS
 62
    7
 10
641.31970803117395
 20
430.20659978508195
 40
2.666666666666667
 50
89.999999999999915
 51
179.99999999999983
  0
LINE
  8
_0-b_細線3
  6
CONTINUOUS
 62
    7
 10
641.3197080252877
 20
432.87326645174835
 11
647.98637469195489
 21
432.87326645174835
  0
LINE
  8
_0-b_細線3
  6
CONTINUOUS
 62
    7
 10
640.78637469489729
 20
443.27326645174838
 11
627.45304136156369
 21
443.27326645174838
  0
LINE
  8
_0-b_細線3
  6
CONTINUOUS
 62
    7
 10
629.58637469489793
 20
389.93993311841473
 11
629.58637469784037
 21
430.20659978508195
  0
LINE
  8
_0-b_細線3
  6
CONTINUOUS
 62
    7
 10
638.65304136156362
 20
389.93993311841473
 11
638.65304136450754
 21
430.20659978508195
  0
LINE
  8
_0-b_細線3
  6
CONTINUOUS
 62
    7
 10
638.65304136156362
 20
389.93993311841473
 11
629.58637469489793
 21
389.93993311841473
  0
ARC
  8
_0-b_細線3
  6
CONTINUOUS
 62
    7
 10
667.18637469880514
 20
437.93993311841479
 40
2.666666666666667
 50
89.999999999999915
 51
179.99999999999983
  0
ARC
  8
_0-b_細線3
  6
CONTINUOUS
 62
    7
 10
668.43423920901148
 20
443.27326645174838
 40
2.666666666666667
 50
269.99999999999977
 51
330.00000000000193
  0
ARC
  8
_0-b_細線3
  6
CONTINUOUS
 62
    7
 10
673.05304136252846
 20
440.60659978508193
 40
2.666666666666667
 50
89.999999999999915
 51
150.00000000000136
  0
LINE
  8
_0-b_細線3
  6
CONTINUOUS
 62
    7
 10
667.18637469880514
 20
440.60659978508193
 11
668.43423920901148
 21
440.60659978508193
  0
ARC
  8
_0-b_細線3
  6
CONTINUOUS
 62
    7
 10
692.25304135958606
 20
437.93993311841479
 40
2.666666666666667
 50
0
 51
89.999999999999915
  0
ARC
  8
_0-b_細線3
  6
CONTINUOUS
 62
    7
 10
691.00517684937984
 20
443.27326645174838
 40
2.666666666666667
 50
209.99999999999616
 51
269.99999999999977
  0
ARC
  8
_0-b_細線3
  6
CONTINUOUS
 62
    7
 10
686.38637469586206
 20
440.60659978508193
 40
2.666666666666667
 50
29.999999999991321
 51
89.999999999985349
  0
LINE
  8
_0-b_細線3
  6
CONTINUOUS
 62
    7
 10
692.25304135958606
 20
440.60659978508193
 11
691.00517684937984
 21
440.60659978508193
  0
ARC
  8
_0-b_細線3
  6
CONTINUOUS
 62
    7
 10
665.85304136547234
 20
434.20659978508195
 40
1.3333333333333335
 50
179.99999999999983
 51
269.99999999999977
  0
LINE
  8
_0-b_細線3
  6
CONTINUOUS
 62
    7
 10
664.51970803213806
 20
437.93993311841479
 11
664.51970803213806
 21
434.20659978508195
  0
ARC
  8
_0-b_細線3
  6
CONTINUOUS
 62
    7
 10
693.58637469291898
 20
434.20659978508195
 40
1.3333333333333335
 50
269.99999999999977
 51
359.99999999999966
  0
LINE
  8
_0-b_細線3
  6
CONTINUOUS
 62
    7
 10
694.91970802625326
 20
437.93993311841479
 11
694.91970802625326
 21
434.20659978508195
  0
ARC
  8
_0-b_細線3
  6
CONTINUOUS
 62
    7
 10
672.51970803213806
 20
430.20659978508195
 40
2.666666666666667
 50
0
 51
89.999999999999915
  0
LINE
  8
_0-b_細線3
  6
CONTINUOUS
 62
    7
 10
672.51970803213806
 20
432.87326645174835
 11
665.85304136547234
 21
432.87326645174835
  0
ARC
  8
_0-b_細線3
  6
CONTINUOUS
 62
    7
 10
686.91970803213871
 20
430.20659978508195
 40
2.666666666666667
 50
89.999999999999915
 51
179.99999999999983
  0
LINE
  8
_0-b_細線3
  6
CONTINUOUS
 62
    7
 10
686.91970802625247
 20
432.87326645174835
 11
693.58637469291898
 21
432.87326645174835
  0
LINE
  8
_0-b_細線3
  6
CONTINUOUS
 62
    7
 10
686.38637469586206
 20
443.27326645174838
 11
673.05304136252846
 21
443.27326645174838
  0
LINE
  8
_0-b_細線3
  6
CONTINUOUS
 62
    7
 10
675.18637469586281
 20
389.93993311841473
 11
675.18637469880514
 21
430.20659978508195
  0
LINE
  8
_0-b_細線3
  6
CONTINUOUS
 62
    7
 10
684.25304136252851
 20
389.93993311841473
 11
684.25304136547231
 21
430.20659978508195
  0
LINE
  8
_0-b_細線3
  6
CONTINUOUS
 62
    7
 10
684.25304136252851
 20
389.93993311841473
 11
675.18637469586281
 21
389.93993311841473
  0
ARC
  8
_0-b_細線3
  6
CONTINUOUS
 62
    7
 10
713.58637469976998
 20
437.93993311841479
 40
2.666666666666667
 50
89.999999999999915
 51
179.99999999999983
  0
ARC
  8
_0-b_細線3
  6
CONTINUOUS
 62
    7
 10
714.834239209977
 20
443.27326645174838
 40
2.666666666666667
 50
269.99999999999977
 51
329.99999999998727
  0
ARC
  8
_0-b_細線3
  6
CONTINUOUS
 62
    7
 10
719.4530413634933
 20
440.60659978508193
 40
2.666666666666667
 50
89.999999999999915
 51
150.0000000000087
  0
LINE
  8
_0-b_細線3
  6
CONTINUOUS
 62
    7
 10
713.58637469976998
 20
440.60659978508193
 11
714.834239209977
 21
440.60659978508193
  0
ARC
  8
_0-b_細線3
  6
CONTINUOUS
 62
    7
 10
738.6530413605509
 20
437.93993311841479
 40
2.666666666666667
 50
0
 51
89.999999999999915
  0
ARC
  8
_0-b_細線3
  6
CONTINUOUS
 62
    7
 10
737.40517685034388
 20
443.27326645174838
 40
2.666666666666667
 50
210.00000000000469
 51
269.99999999999977
  0
ARC
  8
_0-b_細線3
  6
CONTINUOUS
 62
    7
 10
732.78637469682758
 20
440.60659978508193
 40
2.666666666666667
 50
29.99999999999865
 51
89.999999999999901
  0
LINE
  8
_0-b_細線3
  6
CONTINUOUS
 62
    7
 10
738.6530413605509
 20
440.60659978508193
 11
737.40517685034388
 21
440.60659978508193
  0
ARC
  8
_0-b_細線3
  6
CONTINUOUS
 62
    7
 10
712.25304136643717
 20
434.20659978508195
 40
1.3333333333333335
 50
179.99999999999983
 51
269.99999999999977
  0
LINE
  8
_0-b_細線3
  6
CONTINUOUS
 62
    7
 10
710.91970803310357
 20
437.93993311841479
 11
710.91970803310357
 21
434.20659978508195
  0
ARC
  8
_0-b_細線3
  6
CONTINUOUS
 62
    7
 10
739.9863746938837
 20
434.20659978508195
 40
1.3333333333333335
 50
269.99999999999977
 51
359.99999999999966
  0
LINE
  8
_0-b_細線3
  6
CONTINUOUS
 62
    7
 10
741.3197080272173
 20
437.93993311841479
 11
741.3197080272173
 21
434.20659978508195
  0
ARC
  8
_0-b_細線3
  6
CONTINUOUS
 62
    7
 10
718.91970803310357
 20
430.20659978508195
 40
2.666666666666667
 50
0
 51
89.999999999999915
  0
LINE
  8
_0-b_細線3
  6
CONTINUOUS
 62
    7
 10
718.91970803310357
 20
432.87326645174835
 11
712.25304136643717
 21
432.87326645174835
  0
ARC
  8
_0-b_細線3
  6
CONTINUOUS
 62
    7
 10
733.31970803310355
 20
430.20659978508195
 40
2.666666666666667
 50
89.999999999999915
 51
179.99999999999983
  0
LINE
  8
_0-b_細線3
  6
CONTINUOUS
 62
    7
 10
733.3197080272173
 20
432.87326645174835
 11
739.9863746938837
 21
432.87326645174835
  0
LINE
  8
_0-b_細線3
  6
CONTINUOUS
 62
    7
 10
732.78637469682758
 20
443.27326645174838
 11
719.4530413634933
 21
443.27326645174838
  0
LINE
  8
_0-b_細線3
  6
CONTINUOUS
 62
    7
 10
721.58637469682685
 20
389.93993311841473
 11
721.58637469976998
 21
430.20659978508195
  0
LINE
  8
_0-b_細線3
  6
CONTINUOUS
 62
    7
 10
730.65304136349403
 20
389.93993311841473
 11
730.65304136643715
 21
430.20659978508195
  0
LINE
  8
_0-b_細線3
  6
CONTINUOUS
 62
    7
 10
730.65304136349403
 20
389.93993311841473
 11
721.58637469682685
 21
389.93993311841473
  0
ARC
  8
_0-b_細線3
  6
CONTINUOUS
 62
    7
 10
759.98637470073481
 20
437.93993311841479
 40
2.666666666666667
 50
89.999999999999915
 51
179.99999999999983
  0
ARC
  8
_0-b_細線3
  6
CONTINUOUS
 62
    7
 10
761.23423921094104
 20
443.27326645174838
 40
2.666666666666667
 50
269.99999999999977
 51
329.9999999999946
  0
ARC
  8
_0-b_細線3
  6
CONTINUOUS
 62
    7
 10
765.85304136445802
 20
440.60659978508193
 40
2.666666666666667
 50
89.999999999999915
 51
150.0000000000087
  0
LINE
  8
_0-b_細線3
  6
CONTINUOUS
 62
    7
 10
759.98637470073481
 20
440.60659978508193
 11
761.23423921094104
 21
440.60659978508193
  0
ARC
  8
_0-b_細線3
  6
CONTINUOUS
 62
    7
 10
785.05304136151562
 20
437.93993311841479
 40
2.666666666666667
 50
0
 51
89.999999999999915
  0
ARC
  8
_0-b_細線3
  6
CONTINUOUS
 62
    7
 10
783.8051768513094
 20
443.27326645174838
 40
2.666666666666667
 50
209.99999999999616
 51
269.99999999999977
  0
ARC
  8
_0-b_細線3
  6
CONTINUOUS
 62
    7
 10
779.18637469779162
 20
440.60659978508193
 40
2.666666666666667
 50
29.999999999991321
 51
89.999999999982904
  0
LINE
  8
_0-b_細線3
  6
CONTINUOUS
 62
    7
 10
785.05304136151562
 20
440.60659978508193
 11
783.8051768513094
 21
440.60659978508193
  0
ARC
  8
_0-b_細線3
  6
CONTINUOUS
 62
    7
 10
758.65304136740122
 20
434.20659978508195
 40
1.3333333333333335
 50
179.99999999999983
 51
269.99999999999977
  0
LINE
  8
_0-b_細線3
  6
CONTINUOUS
 62
    7
 10
757.31970803406762
 20
437.93993311841479
 11
757.31970803406762
 21
434.20659978508195
  0
ARC
  8
_0-b_細線3
  6
CONTINUOUS
 62
    7
 10
786.38637469484854
 20
434.20659978508195
 40
1.3333333333333335
 50
269.99999999999977
 51
359.99999999999966
  0
LINE
  8
_0-b_細線3
  6
CONTINUOUS
 62
    7
 10
787.71970802818282
 20
437.93993311841479
 11
787.71970802818282
 21
434.20659978508195
  0
ARC
  8
_0-b_細線3
  6
CONTINUOUS
 62
    7
 10
765.31970803406762
 20
430.20659978508195
 40
2.666666666666667
 50
0
 51
89.999999999999915
  0
LINE
  8
_0-b_細線3
  6
CONTINUOUS
 62
    7
 10
765.31970803406762
 20
432.87326645174835
 11
758.65304136740122
 21
432.87326645174835
  0
ARC
  8
_0-b_細線3
  6
CONTINUOUS
 62
    7
 10
779.71970803406839
 20
430.20659978508195
 40
2.666666666666667
 50
89.999999999999915
 51
179.99999999999983
  0
LINE
  8
_0-b_細線3
  6
CONTINUOUS
 62
    7
 10
779.71970802818214
 20
432.87326645174835
 11
786.38637469484854
 21
432.87326645174835
  0
LINE
  8
_0-b_細線3
  6
CONTINUOUS
 62
    7
 10
779.18637469779162
 20
443.27326645174838
 11
765.85304136445802
 21
443.27326645174838
  0
LINE
  8
_0-b_細線3
  6
CONTINUOUS
 62
    7
 10
767.98637469779237
 20
389.93993311841473
 11
767.98637470073481
 21
430.20659978508195
  0
LINE
  8
_0-b_細線3
  6
CONTINUOUS
 62
    7
 10
777.05304136445807
 20
389.93993311841473
 11
777.05304136740187
 21
430.20659978508195
  0
LINE
  8
_0-b_細線3
  6
CONTINUOUS
 62
    7
 10
777.05304136445807
 20
389.93993311841473
 11
767.98637469779237
 21
389.93993311841473
  0
ARC
  8
_0-b_細線3
  6
CONTINUOUS
 62
    7
 10
852.78637470266449
 20
437.93993311841479
 40
2.666666666666667
 50
89.999999999999915
 51
179.99999999999983
  0
ARC
  8
_0-b_細線3
  6
CONTINUOUS
 62
    7
 10
854.03423921287072
 20
443.27326645174838
 40
2.666666666666667
 50
269.99999999999977
 51
330.00000000000313
  0
ARC
  8
_0-b_細線3
  6
CONTINUOUS
 62
    7
 10
858.6530413663877
 20
440.60659978508193
 40
2.666666666666667
 50
89.999999999999915
 51
150.00000000000014
  0
LINE
  8
_0-b_細線3
  6
CONTINUOUS
 62
    7
 10
852.78637470266449
 20
440.60659978508193
 11
854.03423921287072
 21
440.60659978508193
  0
ARC
  8
_0-b_細線3
  6
CONTINUOUS
 62
    7
 10
877.8530413634453
 20
437.93993311841479
 40
2.666666666666667
 50
0
 51
89.999999999999915
  0
ARC
  8
_0-b_細線3
  6
CONTINUOUS
 62
    7
 10
876.60517685323839
 20
443.27326645174838
 40
2.666666666666667
 50
210.00000000000347
 51
269.99999999999977
  0
ARC
  8
_0-b_細線3
  6
CONTINUOUS
 62
    7
 10
871.9863746997213
 20
440.60659978508193
 40
2.666666666666667
 50
29.999999999991321
 51
89.999999999982904
  0
LINE
  8
_0-b_細線3
  6
CONTINUOUS
 62
    7
 10
877.8530413634453
 20
440.60659978508193
 11
876.60517685323839
 21
440.60659978508193
  0
ARC
  8
_0-b_細線3
  6
CONTINUOUS
 62
    7
 10
851.45304136933089
 20
434.20659978508195
 40
1.3333333333333335
 50
179.99999999999983
 51
269.99999999999977
  0
LINE
  8
_0-b_細線3
  6
CONTINUOUS
 62
    7
 10
850.11970803599729
 20
437.93993311841479
 11
850.11970803599729
 21
434.20659978508195
  0
ARC
  8
_0-b_細線3
  6
CONTINUOUS
 62
    7
 10
879.18637469677822
 20
434.20659978508195
 40
1.3333333333333335
 50
269.99999999999977
 51
359.99999999999966
  0
LINE
  8
_0-b_細線3
  6
CONTINUOUS
 62
    7
 10
880.51970803011181
 20
437.93993311841479
 11
880.51970803011181
 21
434.20659978508195
  0
ARC
  8
_0-b_細線3
  6
CONTINUOUS
 62
    7
 10
858.11970803599729
 20
430.20659978508195
 40
2.666666666666667
 50
0
 51
89.999999999999915
  0
LINE
  8
_0-b_細線3
  6
CONTINUOUS
 62
    7
 10
858.11970803599729
 20
432.87326645174835
 11
851.45304136933089
 21
432.87326645174835
  0
ARC
  8
_0-b_細線3
  6
CONTINUOUS
 62
    7
 10
872.51970803599806
 20
430.20659978508195
 40
2.666666666666667
 50
89.999999999999915
 51
179.99999999999983
  0
LINE
  8
_0-b_細線3
  6
CONTINUOUS
 62
    7
 10
872.51970803011181
 20
432.87326645174835
 11
879.18637469677822
 21
432.87326645174835
  0
LINE
  8
_0-b_細線3
  6
CONTINUOUS
 62
    7
 10
871.9863746997213
 20
443.27326645174838
 11
858.6530413663877
 21
443.27326645174838
  0
LINE
  8
_0-b_細線3
  6
CONTINUOUS
 62
    7
 10
860.78637469972136
 20
389.93993311841473
 11
860.78637470266449
 21
430.20659978508195
  0
LINE
  8
_0-b_細線3
  6
CONTINUOUS
 62
    7
 10
869.85304136638774
 20
389.93993311841473
 11
869.85304136933155
 21
430.20659978508195
  0
LINE
  8
_0-b_細線3
  6
CONTINUOUS
 62
    7
 10
869.85304136638774
 20
389.93993311841473
 11
860.78637469972136
 21
389.93993311841473
  0
ARC
  8
_0-b_細線3
  6
CONTINUOUS
 62
    7
 10
899.18637470362921
 20
437.93993311841479
 40
2.666666666666667
 50
89.999999999999915
 51
179.99999999999983
  0
ARC
  8
_0-b_細線3
  6
CONTINUOUS
 62
    7
 10
900.43423921383555
 20
443.27326645174838
 40
2.666666666666667
 50
269.99999999999977
 51
329.9999999999946
  0
ARC
  8
_0-b_細線3
  6
CONTINUOUS
 62
    7
 10
905.05304136735253
 20
440.60659978508193
 40
2.666666666666667
 50
89.999999999999915
 51
150.0000000000087
  0
LINE
  8
_0-b_細線3
  6
CONTINUOUS
 62
    7
 10
899.18637470362921
 20
440.60659978508193
 11
900.43423921383555
 21
440.60659978508193
  0
ARC
  8
_0-b_細線3
  6
CONTINUOUS
 62
    7
 10
924.25304136441014
 20
437.93993311841479
 40
2.666666666666667
 50
0
 51
89.999999999999915
  0
ARC
  8
_0-b_細線3
  6
CONTINUOUS
 62
    7
 10
923.00517685420311
 20
443.27326645174838
 40
2.666666666666667
 50
209.99999999999739
 51
269.99999999999977
  0
ARC
  8
_0-b_細線3
  6
CONTINUOUS
 62
    7
 10
918.38637470068613
 20
440.60659978508193
 40
2.666666666666667
 50
29.99999999999865
 51
89.999999999999901
  0
LINE
  8
_0-b_細線3
  6
CONTINUOUS
 62
    7
 10
924.25304136441014
 20
440.60659978508193
 11
923.00517685420311
 21
440.60659978508193
  0
ARC
  8
_0-b_細線3
  6
CONTINUOUS
 62
    7
 10
897.85304137029641
 20
434.20659978508195
 40
1.3333333333333335
 50
179.99999999999983
 51
269.99999999999977
  0
LINE
  8
_0-b_細線3
  6
CONTINUOUS
 62
    7
 10
896.51970803696213
 20
437.93993311841479
 11
896.51970803696213
 21
434.20659978508195
  0
ARC
  8
_0-b_細線3
  6
CONTINUOUS
 62
    7
 10
925.58637469774294
 20
434.20659978508195
 40
1.3333333333333335
 50
269.99999999999977
 51
359.99999999999966
  0
LINE
  8
_0-b_細線3
  6
CONTINUOUS
 62
    7
 10
926.91970803107654
 20
437.93993311841479
 11
926.91970803107654
 21
434.20659978508195
  0
ARC
  8
_0-b_細線3
  6
CONTINUOUS
 62
    7
 10
904.51970803696213
 20
430.20659978508195
 40
2.666666666666667
 50
0
 51
89.999999999999915
  0
LINE
  8
_0-b_細線3
  6
CONTINUOUS
 62
    7
 10
904.51970803696213
 20
432.87326645174835
 11
897.85304137029641
 21
432.87326645174835
  0
ARC
  8
_0-b_細線3
  6
CONTINUOUS
 62
    7
 10
918.91970803696279
 20
430.20659978508195
 40
2.666666666666667
 50
89.999999999999915
 51
179.99999999999983
  0
LINE
  8
_0-b_細線3
  6
CONTINUOUS
 62
    7
 10
918.91970803107654
 20
432.87326645174835
 11
925.58637469774294
 21
432.87326645174835
  0
LINE
  8
_0-b_細線3
  6
CONTINUOUS
 62
    7
 10
918.38637470068613
 20
443.27326645174838
 11
905.05304136735253
 21
443.27326645174838
  0
LINE
  8
_0-b_細線3
  6
CONTINUOUS
 62
    7
 10
907.18637470068609
 20
389.93993311841473
 11
907.18637470362921
 21
430.20659978508195
  0
LINE
  8
_0-b_細線3
  6
CONTINUOUS
 62
    7
 10
916.25304136735258
 20
389.93993311841473
 11
916.25304137029639
 21
430.20659978508195
  0
LINE
  8
_0-b_細線3
  6
CONTINUOUS
 62
    7
 10
916.25304136735258
 20
389.93993311841473
 11
907.18637470068609
 21
389.93993311841473
  0
ARC
  8
_0-b_細線3
  6
CONTINUOUS
 62
    7
 10
945.58637470459405
 20
437.93993311841479
 40
2.666666666666667
 50
89.999999999999915
 51
179.99999999999983
  0
ARC
  8
_0-b_細線3
  6
CONTINUOUS
 62
    7
 10
946.83423921480028
 20
443.27326645174838
 40
2.666666666666667
 50
269.99999999999977
 51
329.9999999999946
  0
ARC
  8
_0-b_細線3
  6
CONTINUOUS
 62
    7
 10
951.45304136831737
 20
440.60659978508193
 40
2.666666666666667
 50
89.999999999999915
 51
150.00000000000992
  0
LINE
  8
_0-b_細線3
  6
CONTINUOUS
 62
    7
 10
945.58637470459405
 20
440.60659978508193
 11
946.83423921480028
 21
440.60659978508193
  0
ARC
  8
_0-b_細線3
  6
CONTINUOUS
 62
    7
 10
970.65304136537497
 20
437.93993311841479
 40
2.666666666666667
 50
0
 51
89.999999999999915
  0
ARC
  8
_0-b_細線3
  6
CONTINUOUS
 62
    7
 10
969.40517685516795
 20
443.27326645174838
 40
2.666666666666667
 50
210.00000000000469
 51
269.99999999999977
  0
ARC
  8
_0-b_細線3
  6
CONTINUOUS
 62
    7
 10
964.78637470165086
 20
440.60659978508193
 40
2.666666666666667
 50
29.999999999990099
 51
89.999999999982904
  0
LINE
  8
_0-b_細線3
  6
CONTINUOUS
 62
    7
 10
970.65304136537497
 20
440.60659978508193
 11
969.40517685516795
 21
440.60659978508193
  0
ARC
  8
_0-b_細線3
  6
CONTINUOUS
 62
    7
 10
944.25304137126045
 20
434.20659978508195
 40
1.3333333333333335
 50
179.99999999999983
 51
269.99999999999977
  0
LINE
  8
_0-b_細線3
  6
CONTINUOUS
 62
    7
 10
942.91970803792685
 20
437.93993311841479
 11
942.91970803792685
 21
434.20659978508195
  0
ARC
  8
_0-b_細線3
  6
CONTINUOUS
 62
    7
 10
971.98637469870778
 20
434.20659978508195
 40
1.3333333333333335
 50
269.99999999999977
 51
359.99999999999966
  0
LINE
  8
_0-b_細線3
  6
CONTINUOUS
 62
    7
 10
973.31970803204138
 20
437.93993311841479
 11
973.31970803204138
 21
434.20659978508195
  0
ARC
  8
_0-b_細線3
  6
CONTINUOUS
 62
    7
 10
950.91970803792685
 20
430.20659978508195
 40
2.666666666666667
 50
0
 51
89.999999999999915
  0
LINE
  8
_0-b_細線3
  6
CONTINUOUS
 62
    7
 10
950.91970803792685
 20
432.87326645174835
 11
944.25304137126045
 21
432.87326645174835
  0
ARC
  8
_0-b_細線3
  6
CONTINUOUS
 62
    7
 10
965.31970803792683
 20
430.20659978508195
 40
2.666666666666667
 50
89.999999999999915
 51
179.99999999999983
  0
LINE
  8
_0-b_細線3
  6
CONTINUOUS
 62
    7
 10
965.31970803204058
 20
432.87326645174835
 11
971.98637469870778
 21
432.87326645174835
  0
LINE
  8
_0-b_細線3
  6
CONTINUOUS
 62
    7
 10
964.78637470165086
 20
443.27326645174838
 11
951.45304136831737
 21
443.27326645174838
  0
LINE
  8
_0-b_細線3
  6
CONTINUOUS
 62
    7
 10
953.58637470165093
 20
389.93993311841473
 11
953.58637470459405
 21
430.20659978508195
  0
LINE
  8
_0-b_細線3
  6
CONTINUOUS
 62
    7
 10
962.6530413683173
 20
389.93993311841473
 11
962.65304137126122
 21
430.20659978508195
  0
LINE
  8
_0-b_細線3
  6
CONTINUOUS
 62
    7
 10
962.6530413683173
 20
389.93993311841473
 11
953.58637470165093
 21
389.93993311841473
  0
ARC
  8
_0-b_細線3
  6
CONTINUOUS
 62
    7
 10
991.18637470555882
 20
437.93993311841479
 40
2.666666666666667
 50
89.999999999999915
 51
179.99999999999983
  0
ARC
  8
_0-b_細線3
  6
CONTINUOUS
 62
    7
 10
992.43423921576505
 20
443.27326645174838
 40
2.666666666666667
 50
269.99999999999977
 51
329.99999999999579
  0
ARC
  8
_0-b_細線3
  6
CONTINUOUS
 62
    7
 10
997.05304136928214
 20
440.60659978508193
 40
2.666666666666667
 50
89.999999999999915
 51
150.0000000000087
  0
LINE
  8
_0-b_細線3
  6
CONTINUOUS
 62
    7
 10
991.18637470555882
 20
440.60659978508193
 11
992.43423921576505
 21
440.60659978508193
  0
ARC
  8
_0-b_細線3
  6
CONTINUOUS
 62
    7
 10
1016.2530413663394
 20
437.93993311841479
 40
2.666666666666667
 50
0
 51
89.999999999999915
  0
ARC
  8
_0-b_細線3
  6
CONTINUOUS
 62
    7
 10
1015.0051768561327
 20
443.27326645174838
 40
2.666666666666667
 50
210.00000000000102
 51
269.99999999999977
  0
ARC
  8
_0-b_細線3
  6
CONTINUOUS
 62
    7
 10
1010.3863747026157
 20
440.60659978508193
 40
2.666666666666667
 50
29.999999999994984
 51
89.999999999999901
  0
LINE
  8
_0-b_細線3
  6
CONTINUOUS
 62
    7
 10
1016.2530413663394
 20
440.60659978508193
 11
1015.0051768561327
 21
440.60659978508193
  0
ARC
  8
_0-b_細線3
  6
CONTINUOUS
 62
    7
 10
989.85304137222522
 20
434.20659978508195
 40
1.3333333333333335
 50
179.99999999999983
 51
269.99999999999977
  0
LINE
  8
_0-b_細線3
  6
CONTINUOUS
 62
    7
 10
988.51970803889162
 20
437.93993311841479
 11
988.51970803889162
 21
434.20659978508195
  0
ARC
  8
_0-b_細線3
  6
CONTINUOUS
 62
    7
 10
1017.5863746996729
 20
434.20659978508195
 40
1.3333333333333335
 50
269.99999999999977
 51
359.99999999999966
  0
LINE
  8
_0-b_細線3
  6
CONTINUOUS
 62
    7
 10
1018.9197080330061
 20
437.93993311841479
 11
1018.9197080330061
 21
434.20659978508195
  0
ARC
  8
_0-b_細線3
  6
CONTINUOUS
 62
    7
 10
996.51970803889162
 20
430.20659978508195
 40
2.666666666666667
 50
0
 51
89.999999999999915
  0
LINE
  8
_0-b_細線3
  6
CONTINUOUS
 62
    7
 10
996.51970803889162
 20
432.87326645174835
 11
989.85304137222522
 21
432.87326645174835
  0
ARC
  8
_0-b_細線3
  6
CONTINUOUS
 62
    7
 10
1010.9197080388921
 20
430.20659978508195
 40
2.666666666666667
 50
89.999999999999915
 51
179.99999999999983
  0
LINE
  8
_0-b_細線3
  6
CONTINUOUS
 62
    7
 10
1010.9197080330058
 20
432.87326645174835
 11
1017.5863746996729
 21
432.87326645174835
  0
LINE
  8
_0-b_細線3
  6
CONTINUOUS
 62
    7
 10
1010.3863747026157
 20
443.27326645174838
 11
997.05304136928214
 21
443.27326645174838
  0
LINE
  8
_0-b_細線3
  6
CONTINUOUS
 62
    7
 10
999.18637470261569
 20
389.93993311841473
 11
999.18637470555882
 21
430.20659978508195
  0
LINE
  8
_0-b_細線3
  6
CONTINUOUS
 62
    7
 10
1008.2530413692825
 20
389.93993311841473
 11
1008.2530413722257
 21
430.20659978508195
  0
LINE
  8
_0-b_細線3
  6
CONTINUOUS
 62
    7
 10
1008.2530413692825
 20
389.93993311841473
 11
999.18637470261569
 21
389.93993311841473
  0
LINE
  8
_0-d_寸法3
  6
CONTINUOUS
 62
    7
 10
694.91970802625326
 20
453.93993311841479
 11
694.91970802625326
 21
525.93993311841484
  0
LINE
  8
_0-d_寸法3
  6
CONTINUOUS
 62
    7
 10
694.91970802625326
 20
517.93993311841484
 11
679.46489480562821
 21
513.79882839677452
  0
LINE
  8
_0-d_寸法3
  6
CONTINUOUS
 62
    7
 10
694.91970802625326
 20
517.93993311841484
 11
679.46489480562821
 21
522.08103784005527
  0
LINE
  8
_0-d_寸法3
  6
CONTINUOUS
 62
    7
 10
710.91970803310357
 20
453.93993311841479
 11
710.91970803310357
 21
525.93993311841484
  0
LINE
  8
_0-d_寸法3
  6
CONTINUOUS
 62
    7
 10
655.92137893318625
 20
517.93993311841484
 11
710.91970803310357
 21
517.93993311841484
  0
TEXT
  8
_0-d_寸法3
 62
    7
 10
655.92137893318613
 20
493.93993311841484
 40
24
 41
1
 50
0
  1
(6)
  0
LINE
  8
_0-d_寸法3
  6
CONTINUOUS
 62
    7
 10
710.91970803310357
 20
517.93993311841484
 11
726.37452125372863
 21
522.08103784005516
  0
LINE
  8
_0-d_寸法3
  6
CONTINUOUS
 62
    7
 10
710.91970803310357
 20
517.93993311841484
 11
726.37452125372863
 21
513.79882839677452
  0
LINE
  8
_0-d_寸法3
  6
CONTINUOUS
 62
    7
 10
741.3197080272173
 20
453.93993311841479
 11
741.3197080272173
 21
525.93993311841484
  0
LINE
  8
_0-d_寸法3
  6
CONTINUOUS
 62
    7
 10
741.3197080272173
 20
517.93993311841484
 11
725.86489480659225
 21
513.79882839677452
  0
LINE
  8
_0-d_寸法3
  6
CONTINUOUS
 62
    7
 10
741.3197080272173
 20
517.93993311841484
 11
725.86489480659225
 21
522.08103784005527
  0
LINE
  8
_0-d_寸法3
  6
CONTINUOUS
 62
    7
 10
710.91970803310357
 20
517.93993311841484
 11
741.3197080272173
 21
517.93993311841484
  0
TEXT
  8
_0-d_寸法3
 62
    7
 10
696.09619374800059
 20
517.93993311841484
 40
24
 41
1
 50
0
  1
11.4
  0
LINE
  8
_0-d_寸法3
  6
CONTINUOUS
 62
    7
 10
865.31970803305489
 20
459.27326645174838
 11
865.31970803305489
 21
525.93993311841484
  0
LINE
  8
_0-d_寸法3
  6
CONTINUOUS
 62
    7
 10
865.31970803305489
 20
517.93993311841484
 11
880.77452125367995
 21
522.08103784005516
  0
LINE
  8
_0-d_寸法3
  6
CONTINUOUS
 62
    7
 10
865.31970803305489
 20
517.93993311841484
 11
880.77452125367995
 21
513.79882839677452
  0
LINE
  8
_0-d_寸法3
  6
CONTINUOUS
 62
    7
 10
911.71970803401973
 20
459.27326645174838
 11
911.71970803401973
 21
525.93993311841484
  0
LINE
  8
_0-d_寸法3
  6
CONTINUOUS
 62
    7
 10
911.71970803401973
 20
517.93993311841484
 11
896.26489481339468
 21
513.79882839677452
  0
LINE
  8
_0-d_寸法3
  6
CONTINUOUS
 62
    7
 10
911.71970803401973
 20
517.93993311841484
 11
896.26489481339468
 21
522.08103784005527
  0
LINE
  8
_0-d_寸法3
  6
CONTINUOUS
 62
    7
 10
865.31970803305489
 20
517.93993311841484
 11
911.71970803401973
 21
517.93993311841484
  0
TEXT
  8
_0-d_寸法3
 62
    7
 10
846.84582337762879
 20
493.93993311841484
 40
24
 41
1
 50
0
  1
(17.4)
  0
LINE
  8
_0-d_寸法3
  6
CONTINUOUS
 62
    7
 10
911.71970803401973
 20
517.93993311841484
 11
927.1745212546449
 21
522.08103784005505
  0
LINE
  8
_0-d_寸法3
  6
CONTINUOUS
 62
    7
 10
911.71970803401973
 20
517.93993311841484
 11
927.17452125464479
 21
513.79882839677441
  0
LINE
  8
_0-d_寸法3
  6
CONTINUOUS
 62
    7
 10
958.11970803498446
 20
459.27326645174838
 11
958.11970803498446
 21
525.93993311841484
  0
LINE
  8
_0-d_寸法3
  6
CONTINUOUS
 62
    7
 10
958.11970803498446
 20
517.93993311841484
 11
942.6648948143594
 21
513.79882839677452
  0
LINE
  8
_0-d_寸法3
  6
CONTINUOUS
 62
    7
 10
958.11970803498446
 20
517.93993311841484
 11
942.6648948143594
 21
522.08103784005527
  0
LINE
  8
_0-d_寸法3
  6
CONTINUOUS
 62
    7
 10
911.71970803401973
 20
517.93993311841484
 11
958.11970803498446
 21
517.93993311841484
  0
TEXT
  8
_0-d_寸法3
 62
    7
 10
906.1524900442954
 20
517.93993311841484
 40
24
 41
1
 50
0
  1
(17.4)
  0
LINE
  8
_0-d_寸法3
  6
CONTINUOUS
 62
    7
 10
805.8132753234662
 20
399.11715610003148
 11
749.24952856236939
 21
438.72351797153681
  0
LINE
  8
_0-d_寸法3
  6
CONTINUOUS
 62
    7
 10
755.80274491668126
 20
434.13490648072843
 11
751.66164019504095
 21
449.58971970135354
  0
LINE
  8
_0-d_寸法3
  6
CONTINUOUS
 62
    7
 10
755.80274491668126
 20
434.13490648072843
 11
759.94384963832158
 21
449.58971970135354
  0
LINE
  8
_0-d_寸法3
  6
CONTINUOUS
 62
    7
 10
805.8132753234662
 20
452.45048943336514
 11
749.24952856236939
 21
492.05685130487035
  0
LINE
  8
_0-d_寸法3
  6
CONTINUOUS
 62
    7
 10
755.80274491668126
 20
487.46823981406197
 11
759.94384963832147
 21
472.01342659343686
  0
LINE
  8
_0-d_寸法3
  6
CONTINUOUS
 62
    7
 10
755.80274491668126
 20
487.46823981406197
 11
751.66164019504083
 21
472.01342659343692
  0
LINE
  8
_0-d_寸法3
  6
CONTINUOUS
 62
    7
 10
755.80274491668126
 20
434.13490648072843
 11
755.80274491668126
 21
487.46823981406197
  0
TEXT
  8
_0-d_寸法3
 62
    7
 10
755.80274491668126
 20
448.801573147395
 40
24
 41
1
 50
90
  1
20
  0
LINE
  8
_0-a_極細3
  6
CONTINUOUS
 62
    7
 10
535.76226554597997
 20
301.75065497842047
 11
527.55378210616368
 21
324.3032778772822
  0
LINE
  8
_0-a_極細3
  6
CONTINUOUS
 62
    7
 10
615.7527338240543
 20
356.40507099607612
 11
623.96121726386991
 21
333.85244809721439
  0
LINE
  8
_0-a_極細3
  6
CONTINUOUS
 62
    7
 10
527.55378210616368
 20
324.3032778772822
 11
615.7527338240543
 21
356.40507099607618
  0
LINE
  8
_0-a_極細3
  6
CONTINUOUS
 62
    7
 10
535.76226554597997
 20
301.75065497842047
 11
623.96121726386991
 21
333.85244809721439
  0
LINE
  8
_0-a_極細3
  6
CENTER1
 62
    7
 10
523.72933039888335
 20
310.14115836380347
 11
626.17896317098871
 21
347.42977513986006
  0
LINE
  8
_0-a_極細3
  6
CONTINUOUS
 62
    7
 10
565.58637469875646
 20
261.93993311841473
 11
565.58637469875646
 21
332.47683127572043
  0
LINE
  8
_0-a_極細3
  6
CONTINUOUS
 62
    7
 10
565.58637469875646
 20
332.47683127572043
 11
541.58637469875657
 21
332.47683127572043
  0
LINE
  8
_0-a_極細3
  6
CONTINUOUS
 62
    7
 10
541.58637469875657
 20
332.47683127572043
 11
541.58637469875657
 21
261.93993311841473
  0
CIRCLE
  8
_0-a_極細3
  6
CONTINUOUS
 62
    7
 10
588.59416524773872
 20
309.81501941470106
 40
2.9208503562902273
  0
CIRCLE
  8
_0-a_極細3
  6
CONTINUOUS
 62
    7
 10
623.32799240823249
 20
319.77057497025658
 40
2.9208503562902273
  0
LINE
  8
_0-a_極細3
  6
CENTER1
 62
    7
 10
553.58637469875646
 20
248.69714866329025
 11
553.58637469875646
 21
339.31798353909574
  0
LINE
  8
_0-a_極細3
  6
CONTINUOUS
 62
    7
 10
1102.0771505181999
 20
301.75065497842047
 11
1110.2856339580164
 21
324.3032778772822
  0
LINE
  8
_0-a_極細3
  6
CONTINUOUS
 62
    7
 10
1022.0866822401257
 20
356.40507099607612
 11
1013.8781988003101
 21
333.85244809721439
  0
LINE
  8
_0-a_極細3
  6
CONTINUOUS
 62
    7
 10
1110.2856339580164
 20
324.3032778772822
 11
1022.0866822401257
 21
356.40507099607618
  0
LINE
  8
_0-a_極細3
  6
CONTINUOUS
 62
    7
 10
1102.0771505181999
 20
301.75065497842047
 11
1013.8781988003101
 21
333.85244809721439
  0
LINE
  8
_0-a_極細3
  6
CENTER1
 62
    7
 10
1114.1100856652965
 20
310.14115836380347
 11
1011.6604528931912
 21
347.42977513986006
  0
LINE
  8
_0-a_極細3
  6
CONTINUOUS
 62
    7
 10
1072.2530413654235
 20
261.93993311841473
 11
1072.2530413654235
 21
332.47683127572043
  0
LINE
  8
_0-a_極細3
  6
CONTINUOUS
 62
    7
 10
1072.2530413654235
 20
332.47683127572043
 11
1096.2530413654235
 21
332.47683127572043
  0
LINE
  8
_0-a_極細3
  6
CONTINUOUS
 62
    7
 10
1096.2530413654235
 20
332.47683127572043
 11
1096.2530413654235
 21
261.93993311841473
  0
LINE
  8
_0-a_極細3
  6
CENTER1
 62
    7
 10
1084.2530413654235
 20
248.69714866329025
 11
1084.2530413654235
 21
339.31798353909574
  0
CIRCLE
  8
_0-a_極細3
  6
CONTINUOUS
 62
    7
 10
1074.8400911736605
 20
353.39872311840463
 40
0.884938271604915
  0
CIRCLE
  8
_0-a_極細3
  6
CONTINUOUS
 62
    7
 10
1110.3859896647436
 20
332.04958731593564
 40
0.884938271604915
  0
LINE
  8
_0-d_寸法3
  6
CONTINUOUS
 62
    7
 10
685.58637469875646
 20
373.93993311841473
 11
685.58637469875646
 21
277.17509274363283
  0
LINE
  8
_0-d_寸法3
  6
CONTINUOUS
 62
    7
 10
685.58637469875646
 20
285.17509274363283
 11
701.04118791938151
 21
289.31619746527326
  0
LINE
  8
_0-d_寸法3
  6
CONTINUOUS
 62
    7
 10
685.58637469875646
 20
285.17509274363283
 11
701.04118791938151
 21
281.03398802199263
  0
LINE
  8
_0-d_寸法3
  6
CONTINUOUS
 62
    7
 10
952.25304136542297
 20
373.93993311841473
 11
952.25304136542297
 21
277.17509274363283
  0
LINE
  8
_0-d_寸法3
  6
CONTINUOUS
 62
    7
 10
952.25304136542297
 20
285.17509274363283
 11
936.79822814479792
 21
281.03398802199263
  0
LINE
  8
_0-d_寸法3
  6
CONTINUOUS
 62
    7
 10
952.25304136542297
 20
285.17509274363283
 11
936.79822814479792
 21
289.31619746527326
  0
LINE
  8
_0-d_寸法3
  6
CONTINUOUS
 62
    7
 10
685.58637469875646
 20
285.17509274363283
 11
952.25304136542297
 21
285.17509274363283
  0
TEXT
  8
_0-d_寸法3
 62
    7
 10
800.91970803209006
 20
285.17509274363283
 40
24
 41
1
 50
0
  1
100
  0
LINE
  8
_0-d_寸法3
  6
CONTINUOUS
 62
    7
 10
589.58637469875646
 20
443.27326645174827
 11
516.06632497301337
 21
443.27326645174821
  0
LINE
  8
_0-d_寸法3
  6
CONTINUOUS
 62
    7
 10
524.06632497301337
 20
443.27326645174821
 11
528.20742969465368
 21
427.8184532311231
  0
LINE
  8
_0-d_寸法3
  6
CONTINUOUS
 62
    7
 10
524.06632497301337
 20
443.27326645174821
 11
519.92522025137293
 21
427.81845323112316
  0
LINE
  8
_0-d_寸法3
  6
CONTINUOUS
 62
    7
 10
586.38637469875641
 20
381.93993311841479
 11
516.06632497301348
 21
381.93993311841473
  0
LINE
  8
_0-d_寸法3
  6
CONTINUOUS
 62
    7
 10
524.06632497301348
 20
381.93993311841473
 11
519.92522025137305
 21
397.39474633903978
  0
LINE
  8
_0-d_寸法3
  6
CONTINUOUS
 62
    7
 10
524.06632497301348
 20
381.93993311841473
 11
528.2074296946538
 21
397.39474633903984
  0
LINE
  8
_0-d_寸法3
  6
CONTINUOUS
 62
    7
 10
524.06632497301337
 20
443.27326645174821
 11
524.06632497301348
 21
381.93993311841473
  0
TEXT
  8
_0-d_寸法3
 62
    7
 10
524.06632497301348
 20
400.60659978508147
 40
24
 41
1
 50
90
  1
23
  0
LINE
  8
_0-d_寸法3
  6
CONTINUOUS
 62
    7
 10
589.58637469875657
 20
381.93993311841461
 11
516.06632497301348
 21
381.93993311841456
  0
LINE
  8
_0-d_寸法3
  6
CONTINUOUS
 62
    7
 10
524.06632497301348
 20
381.93993311841456
 11
528.2074296946538
 21
366.48511989778945
  0
LINE
  8
_0-d_寸法3
  6
CONTINUOUS
 62
    7
 10
524.06632497301348
 20
381.93993311841456
 11
519.92522025137305
 21
366.4851198977895
  0
LINE
  8
_0-d_寸法3
  6
CONTINUOUS
 62
    7
 10
586.38637469875664
 20
320.60659978508124
 11
516.06632497301371
 21
320.60659978508113
  0
LINE
  8
_0-d_寸法3
  6
CONTINUOUS
 62
    7
 10
524.06632497301371
 20
320.60659978508113
 11
519.92522025137328
 21
336.06141300570619
  0
LINE
  8
_0-d_寸法3
  6
CONTINUOUS
 62
    7
 10
524.06632497301371
 20
320.60659978508113
 11
528.20742969465402
 21
336.06141300570624
  0
LINE
  8
_0-d_寸法3
  6
CONTINUOUS
 62
    7
 10
524.06632497301348
 20
381.93993311841456
 11
524.06632497301371
 21
320.60659978508113
  0
TEXT
  8
_0-d_寸法3
 62
    7
 10
524.06632497301371
 20
339.27326645174787
 40
24
 41
1
 50
90
  1
23
  0
LINE
  8
_0-d_寸法3
  6
CONTINUOUS
 62
    7
 10
605.58637469875623
 20
304.60659978508147
 11
605.58637469875589
 21
277.17509274363283
  0
LINE
  8
_0-d_寸法3
  6
CONTINUOUS
 62
    7
 10
605.586374698756
 20
285.17509274363283
 11
621.04118791938106
 21
289.31619746527326
  0
LINE
  8
_0-d_寸法3
  6
CONTINUOUS
 62
    7
 10
605.586374698756
 20
285.17509274363283
 11
621.04118791938106
 21
281.03398802199263
  0
LINE
  8
_0-d_寸法3
  6
CONTINUOUS
 62
    7
 10
685.58637469875634
 20
365.93993311841473
 11
685.58637469875544
 21
277.17509274363283
  0
LINE
  8
_0-d_寸法3
  6
CONTINUOUS
 62
    7
 10
685.58637469875555
 20
285.17509274363283
 11
670.13156147813049
 21
281.03398802199263
  0
LINE
  8
_0-d_寸法3
  6
CONTINUOUS
 62
    7
 10
685.58637469875555
 20
285.17509274363283
 11
670.13156147813049
 21
289.31619746527326
  0
LINE
  8
_0-d_寸法3
  6
CONTINUOUS
 62
    7
 10
605.586374698756
 20
285.17509274363283
 11
685.58637469875555
 21
285.17509274363283
  0
TEXT
  8
_0-d_寸法3
 62
    7
 10
633.58637469875578
 20
285.17509274363283
 40
24
 41
1
 50
0
  1
30
  0
LINE
  8
_0-d_寸法3
  6
CONTINUOUS
 62
    7
 10
1032.2530413654238
 20
304.60659978508147
 11
1032.253041365424
 21
277.17509274363283
  0
LINE
  8
_0-d_寸法3
  6
CONTINUOUS
 62
    7
 10
1032.253041365424
 20
285.17509274363283
 11
1016.7982281447989
 21
281.03398802199263
  0
LINE
  8
_0-d_寸法3
  6
CONTINUOUS
 62
    7
 10
1032.253041365424
 20
285.17509274363283
 11
1016.7982281447989
 21
289.31619746527326
  0
LINE
  8
_0-d_寸法3
  6
CONTINUOUS
 62
    7
 10
952.25304136542377
 20
365.93993311841473
 11
952.25304136542456
 21
277.17509274363283
  0
LINE
  8
_0-d_寸法3
  6
CONTINUOUS
 62
    7
 10
952.25304136542445
 20
285.17509274363283
 11
967.70785458604951
 21
289.31619746527326
  0
LINE
  8
_0-d_寸法3
  6
CONTINUOUS
 62
    7
 10
952.25304136542445
 20
285.17509274363283
 11
967.70785458604951
 21
281.03398802199263
  0
LINE
  8
_0-d_寸法3
  6
CONTINUOUS
 62
    7
 10
1032.253041365424
 20
285.17509274363283
 11
952.25304136542445
 21
285.17509274363283
  0
TEXT
  8
_0-d_寸法3
 62
    7
 10
980.25304136542422
 20
285.17509274363283
 40
24
 41
1
 50
0.0000000000002714
  1
30
  0
TEXT
  8
_0-7_枠細線
 62
    5
 10
739.04443180931594
 20
149.93934911572978
 40
40
 41
0.8
 50
0
  1
断面詳細図
  0
LINE
  8
_0-a_極細3
  6
CENTER1
 62
    7
 10
1029.3884029119572
 20
413.40659978508165
 11
603.08290892806144
 21
413.40659978508165
  0
ARC
  8
_0-b_細線3
  6
CONTINUOUS
 62
    7
 10
626.27130216732894
 20
396.60659978508238
 40
0.5333333333333335
 50
179.99999999999983
 51
269.99999999999977
  0
LINE
  8
_0-b_細線3
  6
CONTINUOUS
 62
    7
 10
629.72929683399616
 20
396.07326645174879
 11
626.27130216732894
 21
396.07326645174879
  0
ARC
  8
_0-b_細線3
  6
CONTINUOUS
 62
    7
 10
626.27130216732894
 20
430.20659978508166
 40
0.5333333333333335
 50
89.999999999999915
 51
179.99999999999983
  0
LINE
  8
_0-b_細線3
  6
CONTINUOUS
 62
    7
 10
629.72929683399616
 20
430.73993311841599
 11
626.27130216732894
 21
430.73993311841599
  0
LINE
  8
_0-b_細線3
  6
CONTINUOUS
 62
    7
 10
625.73796883399507
 20
412.07326645174885
 11
625.73796883399507
 21
396.60659978508238
  0
LINE
  8
_0-b_細線3
  6
CONTINUOUS
 62
    7
 10
625.73796883399507
 20
430.20659978508166
 11
625.73796883399507
 21
412.07326645174885
  0
LINE
  8
_0-b_細線3
  6
CONTINUOUS
 62
    7
 10
625.73796883399507
 20
413.40659978508165
 11
617.72592616732823
 21
413.40659978508165
  0
LINE
  8
_0-b_細線3
  6
CONTINUOUS
 62
    7
 10
625.73796883399507
 20
404.07326645174953
 11
617.72589416732978
 21
404.07326645174953
  0
ARC
  8
_0-b_細線3
  6
CONTINUOUS
 62
    7
 10
617.72589416732978
 20
404.60659978508238
 40
0.5333333333333335
 50
179.99999999999983
 51
269.99999999999977
  0
ARC
  8
_0-b_細線3
  6
CONTINUOUS
 62
    7
 10
637.88050750066202
 20
408.73954378508324
 40
20.687882666666667
 50
166.96197800000505
 51
193.03566999999961
  0
ARC
  8
_0-b_細線3
  6
CONTINUOUS
 62
    7
 10
617.72589416732978
 20
422.20659978508314
 40
0.5333333333333335
 50
89.999999999999915
 51
179.99999999999983
  0
ARC
  8
_0-b_細線3
  6
CONTINUOUS
 62
    7
 10
637.88050750066202
 20
418.07365045174856
 40
20.687882666666667
 50
166.96433000000002
 51
193.03802199999842
  0
LINE
  8
_0-b_細線3
  6
CONTINUOUS
 62
    7
 10
625.73796883399507
 20
422.73993311841599
 11
617.72589416732978
 21
422.73993311841599
  0
LINE
  8
_0-b_細線3
  6
CONTINUOUS
 62
    7
 10
617.19256083399546
 20
404.60659978508238
 11
617.19256083399546
 21
422.20659978508314
  0
ARC
  8
_0-b_細線3
  6
CONTINUOUS
 62
    7
 10
1011.8539581779908
 20
396.60659978508238
 40
0.5333333333333335
 50
269.99999999999977
 51
359.99999999999966
  0
LINE
  8
_0-b_細線3
  6
CONTINUOUS
 62
    7
 10
1008.3959635113235
 20
396.07326645174879
 11
1011.8539581779908
 21
396.07326645174879
  0
ARC
  8
_0-b_細線3
  6
CONTINUOUS
 62
    7
 10
1011.8539581779908
 20
430.20659978508166
 40
0.5333333333333335
 50
0
 51
89.999999999999915
  0
LINE
  8
_0-b_細線3
  6
CONTINUOUS
 62
    7
 10
1008.3959635113235
 20
430.73993311841599
 11
1011.8539581779908
 21
430.73993311841599
  0
LINE
  8
_0-b_細線3
  6
CONTINUOUS
 62
    7
 10
1012.3872915113247
 20
412.07326645174885
 11
1012.3872915113247
 21
396.60659978508238
  0
LINE
  8
_0-b_細線3
  6
CONTINUOUS
 62
    7
 10
1012.3872915113247
 20
430.20659978508166
 11
1012.3872915113247
 21
412.07326645174885
  0
LINE
  8
_0-b_細線3
  6
CONTINUOUS
 62
    7
 10
1012.3872915113247
 20
413.40659978508165
 11
1020.3993341779915
 21
413.40659978508165
  0
LINE
  8
_0-b_細線3
  6
CONTINUOUS
 62
    7
 10
1012.3872915113247
 20
404.07326645174953
 11
1020.39936617799
 21
404.07326645174953
  0
ARC
  8
_0-b_細線3
  6
CONTINUOUS
 62
    7
 10
1020.39936617799
 20
404.60659978508238
 40
0.5333333333333335
 50
269.99999999999977
 51
359.99999999999966
  0
ARC
  8
_0-b_細線3
  6
CONTINUOUS
 62
    7
 10
1000.2447528446578
 20
408.73954378508324
 40
20.687882666666667
 50
346.96432999999968
 51
13.038021999994573
  0
ARC
  8
_0-b_細線3
  6
CONTINUOUS
 62
    7
 10
1020.39936617799
 20
422.20659978508314
 40
0.5333333333333335
 50
0
 51
89.999999999999915
  0
ARC
  8
_0-b_細線3
  6
CONTINUOUS
 62
    7
 10
1000.2447528446578
 20
418.07365045174856
 40
20.687882666666667
 50
346.96197800000084
 51
13.035669999999625
  0
LINE
  8
_0-b_細線3
  6
CONTINUOUS
 62
    7
 10
1012.3872915113247
 20
422.73993311841599
 11
1020.39936617799
 21
422.73993311841599
  0
LINE
  8
_0-b_細線3
  6
CONTINUOUS
 62
    7
 10
1020.9326995113242
 20
404.60659978508238
 11
1020.9326995113242
 21
422.20659978508314
  0
ARC
  8
_0-b_細線3
  6
CONTINUOUS
 62
    7
 10
806.38637470169954
 20
437.93993311841479
 40
2.666666666666667
 50
89.999999999999915
 51
179.99999999999983
  0
ARC
  8
_0-b_細線3
  6
CONTINUOUS
 62
    7
 10
807.63423921190588
 20
443.27326645174838
 40
2.666666666666667
 50
269.99999999999977
 51
329.9999999999946
  0
ARC
  8
_0-b_細線3
  6
CONTINUOUS
 62
    7
 10
812.25304136542286
 20
440.60659978508193
 40
2.666666666666667
 50
89.999999999999915
 51
150.0000000000087
  0
LINE
  8
_0-b_細線3
  6
CONTINUOUS
 62
    7
 10
806.38637470169954
 20
440.60659978508193
 11
807.63423921190588
 21
440.60659978508193
  0
ARC
  8
_0-b_細線3
  6
CONTINUOUS
 62
    7
 10
831.45304136248046
 20
437.93993311841479
 40
2.666666666666667
 50
0
 51
89.999999999999915
  0
ARC
  8
_0-b_細線3
  6
CONTINUOUS
 62
    7
 10
830.20517685227423
 20
443.27326645174838
 40
2.666666666666667
 50
209.99999999999616
 51
269.99999999999977
  0
ARC
  8
_0-b_細線3
  6
CONTINUOUS
 62
    7
 10
825.58637469875646
 20
440.60659978508193
 40
2.666666666666667
 50
29.999999999991321
 51
89.999999999985349
  0
LINE
  8
_0-b_細線3
  6
CONTINUOUS
 62
    7
 10
831.45304136248046
 20
440.60659978508193
 11
830.20517685227423
 21
440.60659978508193
  0
ARC
  8
_0-b_細線3
  6
CONTINUOUS
 62
    7
 10
805.05304136836594
 20
434.20659978508195
 40
1.3333333333333335
 50
179.99999999999983
 51
269.99999999999977
  0
LINE
  8
_0-b_細線3
  6
CONTINUOUS
 62
    7
 10
803.71970803503245
 20
437.93993311841479
 11
803.71970803503245
 21
434.20659978508195
  0
ARC
  8
_0-b_細線3
  6
CONTINUOUS
 62
    7
 10
832.78637469581406
 20
434.20659978508195
 40
1.3333333333333335
 50
269.99999999999977
 51
359.99999999999966
  0
LINE
  8
_0-b_細線3
  6
CONTINUOUS
 62
    7
 10
834.11970802914766
 20
437.93993311841479
 11
834.11970802914766
 21
434.20659978508195
  0
ARC
  8
_0-b_細線3
  6
CONTINUOUS
 62
    7
 10
811.71970803503245
 20
430.20659978508195
 40
2.666666666666667
 50
0
 51
89.999999999999915
  0
LINE
  8
_0-b_細線3
  6
CONTINUOUS
 62
    7
 10
811.71970803503245
 20
432.87326645174835
 11
805.05304136836594
 21
432.87326645174835
  0
ARC
  8
_0-b_細線3
  6
CONTINUOUS
 62
    7
 10
826.11970803503243
 20
430.20659978508195
 40
2.666666666666667
 50
89.999999999999915
 51
179.99999999999983
  0
LINE
  8
_0-b_細線3
  6
CONTINUOUS
 62
    7
 10
826.11970802914618
 20
432.87326645174835
 11
832.78637469581406
 21
432.87326645174835
  0
LINE
  8
_0-b_細線3
  6
CONTINUOUS
 62
    7
 10
825.58637469875646
 20
443.27326645174838
 11
812.25304136542286
 21
443.27326645174838
  0
LINE
  8
_0-b_細線3
  6
CONTINUOUS
 62
    7
 10
814.38637469875721
 20
389.93993311841473
 11
814.38637470169954
 21
430.20659978508195
  0
LINE
  8
_0-b_細線3
  6
CONTINUOUS
 62
    7
 10
823.45304136542291
 20
389.93993311841473
 11
823.45304136836671
 21
430.20659978508195
  0
LINE
  8
_0-b_細線3
  6
CONTINUOUS
 62
    7
 10
823.45304136542291
 20
389.93993311841473
 11
814.38637469875721
 21
389.93993311841473
  0
LINE
  8
_0-b_細線3
  6
CONTINUOUS
 62
    7
 10
638.65304136297698
 20
396.07326645174771
 11
675.18637469631062
 21
396.07326645174771
  0
LINE
  8
_0-b_細線3
  6
CONTINUOUS
 62
    7
 10
962.65304136973123
 20
396.07326645174771
 11
999.18637470306408
 21
396.07326645174771
  0
LINE
  8
_0-b_細線3
  6
CONTINUOUS
 62
    7
 10
684.25304136394186
 20
396.07326645174771
 11
721.58637469727546
 21
396.07326645174771
  0
LINE
  8
_0-b_細線3
  6
CONTINUOUS
 62
    7
 10
730.65304136490738
 20
396.07326645174771
 11
767.98637469824018
 21
396.07326645174771
  0
LINE
  8
_0-b_細線3
  6
CONTINUOUS
 62
    7
 10
777.05304136587142
 20
396.07326645174771
 11
814.38637469920502
 21
396.07326645174771
  0
LINE
  8
_0-b_細線3
  6
CONTINUOUS
 62
    7
 10
869.85304136780167
 20
396.07326645174771
 11
907.18637470113447
 21
396.07326645174771
  0
LINE
  8
_0-b_細線3
  6
CONTINUOUS
 62
    7
 10
916.25304136876639
 20
396.07326645174771
 11
953.58637470209931
 21
396.07326645174771
  0
LINE
  8
_0-b_細線3
  6
CONTINUOUS
 62
    7
 10
638.65304136297732
 20
430.73993311841491
 11
675.18637469631085
 21
430.73993311841491
  0
LINE
  8
_0-b_細線3
  6
CONTINUOUS
 62
    7
 10
962.65304136973089
 20
430.73993311841491
 11
999.18637470306442
 21
430.73993311841491
  0
LINE
  8
_0-b_細線3
  6
CONTINUOUS
 62
    7
 10
684.25304136394209
 20
430.73993311841491
 11
721.58637469727569
 21
430.73993311841491
  0
LINE
  8
_0-b_細線3
  6
CONTINUOUS
 62
    7
 10
730.65304136490761
 20
430.73993311841491
 11
767.98637469824052
 21
430.73993311841491
  0
LINE
  8
_0-b_細線3
  6
CONTINUOUS
 62
    7
 10
777.05304136587165
 20
430.73993311841491
 11
814.38637469920525
 21
430.73993311841491
  0
LINE
  8
_0-b_細線3
  6
CONTINUOUS
 62
    7
 10
869.85304136780132
 20
430.73993311841491
 11
907.18637470113481
 21
430.73993311841491
  0
LINE
  8
_0-b_細線3
  6
CONTINUOUS
 62
    7
 10
916.25304136876605
 20
430.73993311841491
 11
953.58637470209965
 21
430.73993311841491
  0
LINE
  8
_0-b_細線3
  6
CONTINUOUS
 62
    7
 10
848.38637469923879
 20
430.73993311841491
 11
860.78637470017009
 21
430.73993311841491
  0
LINE
  8
_0-b_細線3
  6
CONTINUOUS
 62
    7
 10
823.31011922777736
 20
430.73993311841491
 11
835.85304136590457
 21
430.73993311841491
  0
LINE
  8
_0-b_細線3
  6
CONTINUOUS
 62
    7
 10
848.38637469923879
 20
396.07326645174771
 11
860.78637470016974
 21
396.07326645174771
  0
LINE
  8
_0-b_細線3
  6
CONTINUOUS
 62
    7
 10
823.45304136577397
 20
396.07326645174771
 11
835.85304136590457
 21
396.07326645174771
  0
LINE
  8
_0-b_細線3
  6
CONTINUOUS
 62
    7
 10
848.38637469923879
 20
443.80724314456796
 11
848.38637469923879
 21
390.47390981123363
  0
LINE
  8
_0-b_細線3
  6
CONTINUOUS
 62
    7
 10
835.85304136590457
 20
390.47390981123363
 11
835.85304136590457
 21
443.80724314456796
  0
LINE
  8
_0-b_細線3
  6
CONTINUOUS
 62
    7
 10
848.38637469923879
 20
390.47390981123363
 11
835.85304136590457
 21
390.47390981123363
  0
LINE
  8
_0-b_細線3
  6
CONTINUOUS
 62
    7
 10
835.85304136590457
 20
443.80724314456796
 11
848.38637469923879
 21
443.80724314456796
  0
LINE
  8
_0-b_細線3
  6
DASHED2
 62
    7
 10
835.85304136590457
 20
398.47390981123363
 11
848.38637469923879
 21
398.47390981123363
  0
LINE
  8
_0-b_細線3
  6
DASHED2
 62
    7
 10
835.85304136590457
 20
435.80724314456796
 11
848.38637469923879
 21
435.80724314456796
  0
LINE
  8
_0-b_細線3
  6
CONTINUOUS
 62
    7
 10
605.58637469875646
 20
413.93993311841479
 11
605.58637469875646
 21
320.60659978508147
  0
LINE
  8
_0-b_細線3
  6
CONTINUOUS
 62
    7
 10
605.58637469875646
 20
320.60659978508147
 11
599.45304136542313
 21
320.60659978508147
  0
LINE
  8
_0-b_細線3
  6
CONTINUOUS
 62
    7
 10
599.45304136542313
 20
320.60659978508147
 11
599.45304136542313
 21
413.93993311841479
  0
LINE
  8
_0-b_細線3
  6
CONTINUOUS
 62
    7
 10
599.45304136542313
 20
413.93993311841479
 11
605.58637469875646
 21
413.93993311841479
  0
LINE
  8
_0-a_極細3
  6
CONTINUOUS
 62
    7
 10
599.45304136542313
 20
371.27326645174816
 11
605.58637469875646
 21
371.27326645174816
  0
LINE
  8
_0-a_極細3
  6
CONTINUOUS
 62
    7
 10
599.45304136542313
 20
376.60659978508153
 11
605.58637469875646
 21
376.60659978508153
  0
LINE
  8
_0-a_極細3
  6
CONTINUOUS
 62
    7
 10
599.45304136542313
 20
365.93993311841473
 11
605.58637469875646
 21
365.93993311841473
  0
LINE
  8
_0-a_極細3
  6
CONTINUOUS
 62
    7
 10
599.45304136542313
 20
381.93993311841473
 11
605.58637469875646
 21
381.93993311841473
  0
LINE
  8
_0-a_極細3
  6
CONTINUOUS
 62
    7
 10
605.58637469875646
 20
328.60659978508153
 11
599.45304136542313
 21
328.60659978508153
  0
LINE
  8
_0-a_極細3
  6
CONTINUOUS
 62
    7
 10
599.45304136542313
 20
408.60659978508153
 11
605.58637469875646
 21
408.60659978508153
  0
LINE
  8
_0-b_細線3
  6
CONTINUOUS
 62
    7
 10
1032.2530413654235
 20
413.93993311841479
 11
1032.2530413654235
 21
320.60659978508147
  0
LINE
  8
_0-b_細線3
  6
CONTINUOUS
 62
    7
 10
1032.2530413654235
 20
320.60659978508147
 11
1038.3863746987572
 21
320.60659978508147
  0
LINE
  8
_0-b_細線3
  6
CONTINUOUS
 62
    7
 10
1038.3863746987572
 20
320.60659978508147
 11
1038.3863746987572
 21
413.93993311841479
  0
LINE
  8
_0-b_細線3
  6
CONTINUOUS
 62
    7
 10
1038.3863746987572
 20
413.93993311841479
 11
1032.2530413654235
 21
413.93993311841479
  0
LINE
  8
_0-a_極細3
  6
CONTINUOUS
 62
    7
 10
1038.3863746987572
 20
371.27326645174816
 11
1032.2530413654235
 21
371.27326645174816
  0
LINE
  8
_0-a_極細3
  6
CONTINUOUS
 62
    7
 10
1038.3863746987572
 20
376.60659978508153
 11
1032.2530413654235
 21
376.60659978508153
  0
LINE
  8
_0-a_極細3
  6
CONTINUOUS
 62
    7
 10
1038.3863746987572
 20
365.93993311841473
 11
1032.2530413654235
 21
365.93993311841473
  0
LINE
  8
_0-a_極細3
  6
CONTINUOUS
 62
    7
 10
1038.3863746987572
 20
381.93993311841473
 11
1032.2530413654235
 21
381.93993311841473
  0
LINE
  8
_0-a_極細3
  6
CONTINUOUS
 62
    7
 10
1032.2530413654235
 20
328.60659978508153
 11
1038.3863746987572
 21
328.60659978508153
  0
LINE
  8
_0-a_極細3
  6
CONTINUOUS
 62
    7
 10
1038.3863746987572
 20
408.60659978508153
 11
1032.2530413654235
 21
408.60659978508153
  0
LINE
  8
_0-7_枠細線
  6
CONTINUOUS
 62
    5
 10
1067.0755216437526
 20
396.87324799831862
 11
1055.0755216437526
 21
420.87324799831862
  0
LINE
  8
_0-7_枠細線
  6
CONTINUOUS
 62
    5
 10
1043.0755216437528
 20
396.87324799831862
 11
1067.0755216437526
 21
396.87324799831862
  0
LINE
  8
_0-7_枠細線
  6
CONTINUOUS
 62
    5
 10
1055.0755216437526
 20
420.87324799831862
 11
1043.0755216437528
 21
396.87324799831862
  0
TEXT
  8
_0-7_枠細線
 62
    5
 10
1046.8597636727895
 20
395.35513605455873
 40
20
 41
0.8
 50
0
  1
５
  0
LINE
  8
_0-d_寸法3
  6
CONTINUOUS
 62
    7
 10
605.58637469875646
 20
563.27326378239684
 11
590.1315614781314
 21
559.13215906075652
  0
LINE
  8
_0-d_寸法3
  6
CONTINUOUS
 62
    7
 10
605.58637469875646
 20
563.27326378239684
 11
590.1315614781314
 21
567.41436850403727
  0
LINE
  8
_0-d_寸法3
  6
CONTINUOUS
 62
    7
 10
613.58637469875646
 20
449.93993311841479
 11
613.58637469875646
 21
571.27326378239684
  0
CIRCLE
  8
_0-d_寸法3
  6
CONTINUOUS
 62
    1
 10
613.58637469875646
 20
563.27326378239684
 40
2.4000000000000004
  0
LINE
  8
_0-d_寸法3
  6
CONTINUOUS
 62
    7
 10
565.58637469875646
 20
563.27326378239684
 11
613.58637469875646
 21
563.27326378239684
  0
TEXT
  8
_0-d_寸法3
 62
    7
 10
571.75490598847932
 20
563.27326378239684
 40
24
 41
1
 50
0
  1
3
  0
LINE
  8
_0-d_寸法3
  6
CONTINUOUS
 62
    7
 10
618.91970803208926
 20
445.9399304490637
 11
618.91970803208994
 21
571.27326378239684
  0
LINE
  8
_0-d_寸法3
  6
CONTINUOUS
 62
    7
 10
613.58637469875646
 20
563.27326378239684
 11
618.91970803208994
 21
563.27326378239684
  0
TEXT
  8
_0-d_寸法3
 62
    7
 10
610.25304136542286
 20
563.27326378239684
 40
24
 41
1
 50
0
  1
2
  0
LINE
  8
_0-d_寸法3
  6
CONTINUOUS
 62
    7
 10
618.91970803208994
 20
563.27326378239684
 11
634.374521252715
 21
567.41436850403716
  0
LINE
  8
_0-d_寸法3
  6
CONTINUOUS
 62
    7
 10
618.91970803208994
 20
563.27326378239684
 11
634.374521252715
 21
559.13215906075652
  0
LINE
  8
_0-d_寸法3
  6
CONTINUOUS
 62
    7
 10
1018.9197080320905
 20
445.9399304490637
 11
1018.9197080320905
 21
571.27326378239684
  0
LINE
  8
_0-d_寸法3
  6
CONTINUOUS
 62
    7
 10
1018.9197080320905
 20
563.27326378239684
 11
1003.4648948114655
 21
559.13215906075652
  0
LINE
  8
_0-d_寸法3
  6
CONTINUOUS
 62
    7
 10
1018.9197080320905
 20
563.27326378239684
 11
1003.4648948114655
 21
567.41436850403727
  0
LINE
  8
_0-d_寸法3
  6
CONTINUOUS
 62
    7
 10
618.91970803208994
 20
563.27326378239684
 11
1018.9197080320905
 21
563.27326378239684
  0
TEXT
  8
_0-d_寸法3
 62
    7
 10
800.91970803209006
 20
563.27326378239684
 40
24
 41
1
 50
0
  1
150
  0
LINE
  8
_0-d_寸法3
  6
CONTINUOUS
 62
    7
 10
1024.2530413654233
 20
449.93993311841479
 11
1024.2530413654235
 21
571.27326378239684
  0
CIRCLE
  8
_0-d_寸法3
  6
CONTINUOUS
 62
    1
 10
1024.2530413654235
 20
563.27326378239684
 40
2.4000000000000004
  0
LINE
  8
_0-d_寸法3
  6
CONTINUOUS
 62
    7
 10
1018.9197080320905
 20
563.27326378239684
 11
1024.2530413654235
 21
563.27326378239684
  0
TEXT
  8
_0-d_寸法3
 62
    7
 10
1015.5863746987573
 20
563.27326378239684
 40
24
 41
1
 50
0
  1
2
  0
LINE
  8
_0-d_寸法3
  6
CONTINUOUS
 62
    7
 10
1032.2530413654235
 20
563.27326378239684
 11
1047.7078545860486
 21
567.41436850403704
  0
LINE
  8
_0-d_寸法3
  6
CONTINUOUS
 62
    7
 10
1032.2530413654235
 20
563.27326378239684
 11
1047.7078545860486
 21
559.13215906075641
  0
LINE
  8
_0-d_寸法3
  6
CONTINUOUS
 62
    7
 10
1024.2530413654235
 20
563.27326378239684
 11
1072.2530413654235
 21
563.27326378239684
  0
TEXT
  8
_0-d_寸法3
 62
    7
 10
1055.6068923349003
 20
563.27326378239684
 40
24
 41
1
 50
0
  1
3
  0
TEXT
  8
_0-7_枠細線
 62
    5
 10
922.96278340798472
 20
155.07491817181995
 40
32
 41
0.6
 50
0
  1
Ｓ＝１：３
  0
TEXT
  8
_0-5_寸法線
 62
    7
 10
879.02475656935394
 20
831.10653345818196
 40
24
 41
0.7999999999999999
 50
0
  1
ＧＲＳＫ－２０Ｗ１５０
  0
LINE
  8
_0-5_寸法線
  6
CONTINUOUS
 62
    7
 10
850.73538822152682
 20
960.34050617062599
 11
858.73538822152682
 21
946.48409971007493
  0
LINE
  8
_0-5_寸法線
  6
CONTINUOUS
 62
    7
 10
850.73538822152682
 20
960.34050617062599
 11
850.73538822152682
 21
944.34050617062599
  0
LINE
  8
_0-5_寸法線
  6
CONTINUOUS
 62
    7
 10
850.73538822152682
 20
960.34050617062599
 11
878.9327462261449
 21
855.10653345818196
  0
LINE
  8
_0-5_寸法線
  6
CONTINUOUS
 62
    7
 10
878.9327462261449
 20
855.10653345818196
 11
1166.9327462261449
 21
855.10653345818196
  0
TEXT
  8
_0-5_寸法線
 62
    7
 10
878.9327462261449
 20
855.10653345818196
 40
24
 41
0.8000000000000001
 50
0
  1
セーフティグレーチング補強仕様
  0
TEXT
  8
_0-5_寸法線
 62
    7
 10
490.16844510010606
 20
831.10653345818196
 40
24
 41
0.7999999999999999
 50
0
  1
(標準付属)
  0
TEXT
  8
_0-7_枠細線
 62
    5
 10
497.31782525165409
 20
884.66267755060358
 40
20
 41
0.8
 50
0
  1
２
  0
LINE
  8
_0-7_枠細線
  6
CONTINUOUS
 62
    5
 10
517.53358322261693
 20
885.15388114321263
 11
505.53358322261693
 21
909.15388114321263
  0
LINE
  8
_0-7_枠細線
  6
CONTINUOUS
 62
    5
 10
493.53358322261693
 20
885.15388114321263
 11
517.53358322261693
 21
885.15388114321263
  0
LINE
  8
_0-7_枠細線
  6
CONTINUOUS
 62
    5
 10
505.53358322261693
 20
909.15388114321263
 11
493.53358322261693
 21
885.15388114321263
  0
TEXT
  8
_0-7_枠細線
 62
    5
 10
525.73430478117507
 20
884.27758691892245
 40
20
 41
0.8
 50
0
  1
３
  0
LINE
  8
_0-7_枠細線
  6
CONTINUOUS
 62
    5
 10
533.95006275213791
 20
909.15388114321263
 11
521.95006275213791
 21
885.15388114321263
  0
LINE
  8
_0-7_枠細線
  6
CONTINUOUS
 62
    5
 10
521.95006275213791
 20
885.15388114321263
 11
545.95006275213791
 21
885.15388114321263
  0
LINE
  8
_0-7_枠細線
  6
CONTINUOUS
 62
    5
 10
545.95006275213791
 20
885.15388114321263
 11
533.95006275213791
 21
909.15388114321263
  0
LINE
  8
_0-7_枠細線
  6
CONTINUOUS
 62
    5
 10
562.36654228165889
 20
909.15388114321263
 11
550.36654228165889
 21
885.15388114321263
  0
LINE
  8
_0-7_枠細線
  6
CONTINUOUS
 62
    5
 10
550.36654228165889
 20
885.15388114321263
 11
574.36654228165889
 21
885.15388114321263
  0
LINE
  8
_0-7_枠細線
  6
CONTINUOUS
 62
    5
 10
574.36654228165889
 20
885.15388114321263
 11
562.36654228165889
 21
909.15388114321263
  0
TEXT
  8
_0-5_寸法線
 62
    7
 10
636.33845970330367
 20
831.10653301927482
 40
24
 41
0.7999999999999999
 50
0
  1
ＧＳＬ－２０
  0
LINE
  8
_0-5_寸法線
  6
CONTINUOUS
 62
    7
 10
450.21607336595139
 20
1004.210814652929
 11
458.21607336595139
 21
990.35440819237795
  0
LINE
  8
_0-5_寸法線
  6
CONTINUOUS
 62
    7
 10
450.21607336595139
 20
1004.210814652929
 11
450.21607336595139
 21
988.210814652929
  0
LINE
  8
_0-5_寸法線
  6
CONTINUOUS
 62
    7
 10
450.21607336595139
 20
1004.210814652929
 11
490.16844510010606
 21
855.10653345818196
  0
LINE
  8
_0-5_寸法線
  6
CONTINUOUS
 62
    7
 10
490.16844510010606
 20
855.10653345818196
 11
586.16844510010606
 21
855.10653345818196
  0
TEXT
  8
_0-5_寸法線
 62
    7
 10
490.16844510010606
 20
855.10653345818196
 40
24
 41
0.8000000000000001
 50
0
  1
取　外　具
  0
LINE
  8
_0-5_寸法線
  6
CONTINUOUS
 62
    7
 10
619.5635792475714
 20
917.36178480279023
 11
627.5830089210117
 21
903.51661424722306
  0
LINE
  8
_0-5_寸法線
  6
CONTINUOUS
 62
    7
 10
619.5635792475714
 20
917.36178480279023
 11
619.58602379084994
 21
901.3618005452206
  0
LINE
  8
_0-5_寸法線
  6
CONTINUOUS
 62
    7
 10
619.5635792475714
 20
917.36178480279023
 11
636.33845970330367
 21
855.10653301927482
  0
LINE
  8
_0-5_寸法線
  6
CONTINUOUS
 62
    7
 10
636.33845970330367
 20
855.10653301927482
 11
810.45879503977426
 21
855.10653301927482
  0
TEXT
  8
_0-5_寸法線
 62
    7
 10
637.6587950397743
 20
856.06653301927463
 40
24
 41
0.8000000000000001
 50
0
  1
ＳＵＳアングル受枠
  0
TEXT
  8
_0-7_枠細線
 62
    5
 10
1502.1605925925933
 20
1316
 40
20
 41
1
 50
0
  1
クロスバーピッチ変更
  0
TEXT
  8
_0-7_枠細線
 62
    5
 10
1502.1605925925933
 20
1288
 40
20
 41
1
 50
0
  1
取外具形状変更
  0
TEXT
  8
_0-7_枠細線
 62
    5
 10
1888.0000000000009
 20
1316
 40
20
 41
0.7199999999999999
 50
0
  1
２０２０．０９．０１
  0
TEXT
  8
_0-7_枠細線
 62
    5
 10
1888.0000000000009
 20
1288
 40
20
 41
0.7199999999999999
 50
0
  1
２０２０．１０．０１
  0
TEXT
  8
_0-7_枠細線
 62
    5
 10
786.47210101797782
 20
1182.994829015548
 40
20
 41
0.8
 50
0
  1
６
  0
TEXT
  8
_0-7_枠細線
 62
    5
 10
554.15078431069605
 20
884.27758691892245
 40
20
 41
0.8
 50
0
  1
７
  0
ENDSEC
  0
EOF
