  0
SECTION
  2
HEADER
  9
$ACADVER
  1
AC1009
  9
$INSBASE
 10
0
 20
0
 30
0
  9
$EXTMIN
 10
0
 20
0
  9
$EXTMAX
 10
2376
 20
1680
  9
$LIMMIN
 10
0
 20
0
  9
$LIMMAX
 10
2376
 20
1680
  9
$LTSCALE
 40
8
  0
ENDSEC
  0
SECTION
  2
TABLES
  0
TABLE
  2
LTYPE
 70
     9
  0
LTYPE
  2
CONTINUOUS
 70
    64
  3
実線
 72
    65
 73
     0
 40
0.0
  0
LTYPE
  2
DASHED1
 70
    64
  3
--  --  --  --  --  --  --  --  
 72
    65
 73
     2
 40
2.5
 49
1.25
 49
-1.25
  0
LTYPE
  2
DASHED2
 70
    64
  3
----    ----    ----    ----    
 72
    65
 73
     2
 40
5.0
 49
2.5
 49
-2.5
  0
LTYPE
  2
DASHED3
 70
    64
  3
------  ------  ------  ------  
 72
    65
 73
     2
 40
5.0
 49
3.75
 49
-1.25
  0
LTYPE
  2
CENTER1
 70
    64
  3
----- - ----- - ----- - ----- - 
 72
    65
 73
     4
 40
10.0
 49
6.25
 49
-1.25
 49
1.25
 49
-1.25
  0
LTYPE
  2
CENTER2
 70
    64
  3
----------  --  ----------  --  
 72
    65
 73
     4
 40
20.0
 49
12.5
 49
-2.5
 49
2.5
 49
-2.5
  0
LTYPE
  2
PHANTOM1
 70
    64
  3
--- - - --- - - --- - - --- - - 
 72
    65
 73
     6
 40
10.0
 49
3.25
 49
-1.25
 49
1.25
 49
-1.25
 49
1.25
 49
-1.25
  0
LTYPE
  2
PHANTOM2
 70
    64
  3
--------  -  -  --------  -  -  
 72
    65
 73
     6
 40
20.0
 49
10.0
 49
-2.5
 49
1.25
 49
-2.5
 49
1.25
 49
-2.5
  0
LTYPE
  2
DOT
 70
    64
  3
-   -   -   -   -   -   -   -   
 72
    65
 73
     2
 40
2.5
 49
0.625
 49
-1.875
  0
LTYPE
  2
DUMMY
 70
    64
  3
ダミー
 72
    65
 73
     0
 40
0.0
  0
LTYPE
  2
RAND1
 70
    64
  3
ランダム線1
 72
    65
 73
     4
 40
10.0
 49
1.0
 49
-2.0
 49
3.0
 49
-4.0
  0
LTYPE
  2
RAND2
 70
    64
  3
ランダム線2
 72
    65
 73
     4
 40
14.0
 49
2.0
 49
-3.0
 49
4.0
 49
-5.0
  0
LTYPE
  2
RAND3
 70
    64
  3
ランダム線3
 72
    65
 73
     4
 40
18.0
 49
3.0
 49
-4.0
 49
5.0
 49
-6.0
  0
LTYPE
  2
RAND4
 70
    64
  3
ランダム線4
 72
    65
 73
     4
 40
22.0
 49
4.0
 49
-5.0
 49
6.0
 49
-7.0
  0
LTYPE
  2
RAND5
 70
    64
  3
ランダム線5
 72
    65
 73
     4
 40
26.0
 49
5.0
 49
-6.0
 49
7.0
 49
-8.0
  0
LTYPE
  2
LONG1
 70
    64
  3
----------  --  ----------  --  
 72
    65
 73
     4
 40
40.0
 49
32.5
 49
-2.5
 49
2.5
 49
-2.5
  0
LTYPE
  2
LONG2
 70
    64
  3
--------  -  -  --------  -  -  
 72
    65
 73
     6
 40
40.0
 49
30.0
 49
-2.5
 49
1.25
 49
-2.5
 49
1.25
 49
-2.5
  0
LTYPE
  2
LONG3
 70
    64
  3
+++++++++++++++..+++++++++++++++
 72
    65
 73
     2
 40
40.0
 49
37.5
 49
-2.5
  0
LTYPE
  2
LONG4
 70
    64
  3
+++++++++++++++..+++++++++++++++
 72
    65
 73
     2
 40
80.0
 49
75.0
 49
-5.0
  0
LTYPE
  2
LONG5
 70
    64
  3
----------  --  ----------  --  
 72
    65
 73
     4
 40
60.0
 49
37.5
 49
-7.5
 49
7.5
 49
-7.5
  0
LTYPE
  2
dashed
 70
   64
  3
-------   -------------   ------
 72
   65
 73
    2
 40
7.5
 49
6
 49
-1.5
  0
LTYPE
  2
dashed_spaced
 70
   64
  3
----        --------        ----
 72
   65
 73
    2
 40
12
 49
6
 49
-6
  0
LTYPE
  2
long_dashed_dotted
 70
   64
  3
------------- --- --------------
 72
   65
 73
    4
 40
15.25
 49
12
 49
-1.5
 49
0.25
 49
-1.5
  0
LTYPE
  2
long_dashed_double-dotted
 70
   64
  3
----------- --- --- ------------
 72
   65
 73
    6
 40
17
 49
12
 49
-1.5
 49
0.25
 49
-1.5
 49
0.25
 49
-1.5
  0
LTYPE
  2
long_dashed_triplicate-dotted
 70
   64
  3
--------- --- --- --- ----------
 72
   65
 73
    8
 40
18.75
 49
12
 49
-1.5
 49
0.25
 49
-1.5
 49
0.25
 49
-1.5
 49
0.25
 49
-1.5
  0
LTYPE
  2
dotted
 70
   64
  3
   -       -       -       -    
 72
   65
 73
    2
 40
1.75
 49
0.25
 49
-1.5
  0
LTYPE
  2
chain
 70
   64
  3
-------------- -- --------------
 72
   65
 73
    4
 40
18.5
 49
12
 49
-1.5
 49
3.5
 49
-1.5
  0
LTYPE
  2
chain_double_dash
 70
   64
  3
------------ -- -- -------------
 72
   65
 73
    6
 40
23.5
 49
12
 49
-1.5
 49
3.5
 49
-1.5
 49
3.5
 49
-1.5
  0
LTYPE
  2
dashed_dotted
 70
   64
  3
-----------     -     ----------
 72
   65
 73
    4
 40
9.25
 49
6
 49
-1.5
 49
0.25
 49
-1.5
  0
LTYPE
  2
double-dashed_dotted
 70
   64
  3
------   -----------   -   -----
 72
   65
 73
    6
 40
16.75
 49
6
 49
-1.5
 49
6
 49
-1.5
 49
0.25
 49
-1.5
  0
LTYPE
  2
dashed_double-dotted
 70
   64
  3
---------    -    -    ---------
 72
   65
 73
    6
 40
11
 49
6
 49
-1.5
 49
0.25
 49
-1.5
 49
0.25
 49
-1.5
  0
LTYPE
  2
double-dashed_double-dotted
 70
   64
  3
-----   ---------   -   -   ----
 72
   65
 73
    8
 40
18.5
 49
6
 49
-1.5
 49
6
 49
-1.5
 49
0.25
 49
-1.5
 49
0.25
 49
-1.5
  0
LTYPE
  2
dashed_triplicate-dotted
 70
   64
  3
-------    -    -    -    ------
 72
   65
 73
    8
 40
12.75
 49
6
 49
-1.5
 49
0.25
 49
-1.5
 49
0.25
 49
-1.5
 49
0.25
 49
-1.5
  0
LTYPE
  2
double-dashed_triplicate-dotted
 70
   64
  3
-----  ---------  -  -  -  -----
 72
   65
 73
   10
 40
20.25
 49
6
 49
-1.5
 49
6
 49
-1.5
 49
0.25
 49
-1.5
 49
0.25
 49
-1.5
 49
0.25
 49
-1.5
  0
LTYPE
  2
undefined
 70
   64
  3
--------------------------------
 72
   65
 73
    0
 40
0
  0
ENDTAB
  0
TABLE
  2
STYLE
  5
3
100
AcDbSymbolTable
 70
     1
  0
STYLE
  5
10
100
AcDbSymbolTableRecord
100
AcDbTextStyleTableRecord
  2
STANDARD
 70
     0
 40
0.0
 41
1.0
 50
0.0
 71
     0
 42
0.2
  3
txt
  4
bigfont.shx
  0
STYLE
  5
26
100
AcDbSymbolTableRecord
100
AcDbTextStyleTableRecord
  2
TATEGAKI
 70
    68
 40
0.0
 41
1.0
 50
0.0
 71
     0
 42
1.0
  3
txt
  4
bigfont.shx
  0
ENDTAB
  0
TABLE
  2
LAYER
 70
   10
  0
LAYER
  2
_0-0_計極細
 70
   64
 62
    7
  6
CONTINUOUS
  0
LAYER
  2
_0-1_計細線
 70
   64
 62
    7
  6
CONTINUOUS
  0
LAYER
  2
_0-5_寸法線
 70
   64
 62
    7
  6
CONTINUOUS
  0
LAYER
  2
_0-7_枠細線
 70
   64
 62
    7
  6
CONTINUOUS
  0
LAYER
  2
_0-8_枠中線
 70
   64
 62
    7
  6
CONTINUOUS
  0
LAYER
  2
_0-9_枠極太
 70
   64
 62
    7
  6
CONTINUOUS
  0
LAYER
  2
_0-a_極細3
 70
   64
 62
    7
  6
CONTINUOUS
  0
LAYER
  2
_0-b_細線3
 70
   64
 62
    7
  6
CONTINUOUS
  0
LAYER
  2
_0-d_寸法3
 70
   64
 62
    7
  6
CONTINUOUS
  0
LAYER
  2
ADD_LINE
 70
   64
 62
    7
  6
CONTINUOUS
  0
ENDTAB
  0
ENDSEC
  0
SECTION
  2
BLOCKS
  0
ENDSEC
  0
SECTION
  2
ENTITIES
  0
LINE
  8
_0-7_枠細線
  6
CONTINUOUS
 62
    5
 10
1896
 20
288
 11
1896
 21
160
  0
TEXT
  8
_0-7_枠細線
 62
    5
 10
1500
 20
156
 40
28
 41
1
 50
0
  1
備考
  7
TATEGAKI
  0
TEXT
  8
_0-7_枠細線
 62
    5
 10
1500
 20
220
 40
28
 41
1
 50
0
  1
品番
  7
TATEGAKI
  0
TEXT
  8
_0-7_枠細線
 62
    5
 10
1500
 20
284
 40
28
 41
1
 50
0
  1
品名
  7
TATEGAKI
  0
LINE
  8
_0-7_枠細線
  6
CONTINUOUS
 62
    5
 10
1896
 20
224
 11
1480
 21
224
  0
LINE
  8
_0-7_枠細線
  6
CONTINUOUS
 62
    5
 10
1520
 20
288
 11
1520
 21
96
  0
LINE
  8
_0-8_枠中線
  6
CONTINUOUS
 62
    5
 10
2280
 20
288
 11
1480
 21
288
  0
LINE
  8
_0-8_枠中線
  6
CONTINUOUS
 62
    5
 10
1480
 20
288
 11
1480
 21
96
  0
LINE
  8
_0-7_枠細線
  6
CONTINUOUS
 62
    5
 10
1992
 20
288
 11
1992
 21
96
  0
TEXT
  8
_0-7_枠細線
 62
    5
 10
1908
 20
256
 40
24
 41
1
 50
0
  1
縮　尺
  0
LINE
  8
_0-7_枠細線
  6
CONTINUOUS
 62
    5
 10
1896
 20
248
 11
1992
 21
248
  0
LINE
  8
_0-7_枠細線
  6
CONTINUOUS
 62
    5
 10
1992
 20
160
 11
1480
 21
160
  0
LINE
  8
_0-7_枠細線
  6
CONTINUOUS
 62
    5
 10
2280
 20
144
 11
1992
 21
144
  0
LINE
  8
_0-7_枠細線
  6
CONTINUOUS
 62
    5
 10
1992
 20
192
 11
2280
 21
192
  0
LINE
  8
_0-7_枠細線
  6
CONTINUOUS
 62
    5
 10
2280
 20
224
 11
1992
 21
224
  0
TEXT
  8
_0-7_枠細線
 62
    5
 10
2004
 20
96
 40
24
 41
1
 50
0
  1
年月日
  0
TEXT
  8
_0-7_枠細線
 62
    5
 10
2004
 20
120
 40
24
 41
1
 50
0
  1
作　成
  0
TEXT
  8
_0-7_枠細線
 62
    5
 10
2010
 20
196
 40
24
 41
1
 50
0
  1
承 認
  0
LINE
  8
_0-7_枠細線
  6
CONTINUOUS
 62
    5
 10
2088
 20
224
 11
2088
 21
96
  0
TEXT
  8
_0-7_枠細線
 62
    5
 10
2106
 20
196
 40
24
 41
1
 50
0
  1
検 図
  0
LINE
  8
_0-7_枠細線
  6
CONTINUOUS
 62
    5
 10
2184
 20
224
 11
2184
 21
144
  0
TEXT
  8
_0-7_枠細線
 62
    5
 10
2200
 20
152
 40
32
 41
1
 50
0
  1
藤戸
  0
TEXT
  8
_0-7_枠細線
 62
    5
 10
2202
 20
196
 40
24
 41
1
 50
0
  1
設 計
  0
TEXT
  8
_0-7_枠細線
 62
    5
 10
2008
 20
152
 40
32
 41
1
 50
0
  1
隠塚
  0
TEXT
  8
_0-7_枠細線
 62
    5
 10
2104
 20
152
 40
32
 41
1
 50
0
  1
渋田
  0
TEXT
  8
_0-7_枠細線
 62
    5
 10
1536.8000000000002
 20
240
 40
32
 41
0.5
 50
0
  1
セーフティグレーチング補強仕様Ｈ２０タイプ
  0
TEXT
  8
_0-7_枠細線
 62
    5
 10
2096
 20
108
 40
24
 41
0.6666666666666666
 50
0
  1
２０１０年０３月０１日
  0
TEXT
  8
_0-7_枠細線
 62
    5
 10
1536.8000000000002
 20
112
 40
32
 41
0.5999999999999998
 50
0
  1
色については品番表参照のこと
  0
TEXT
  8
_0-7_枠細線
 62
    5
 10
2008
 20
236
 40
40
 41
0.8
 50
0
  1
株式会社シマブン
  0
TEXT
  8
_0-7_枠細線
 62
    5
 10
1536.8000000000002
 20
176
 40
32
 41
0.6
 50
0
  1
ＧＲＳＫ－２０Ｗ２００　ＳＥＴ
  0
LINE
  8
_0-9_枠極太
  6
CONTINUOUS
 62
    5
 10
96
 20
96
 11
96
 21
1536
  0
LINE
  8
_0-9_枠極太
  6
CONTINUOUS
 62
    5
 10
96
 20
1536
 11
2280
 21
1536
  0
LINE
  8
_0-9_枠極太
  6
CONTINUOUS
 62
    5
 10
2280
 20
1536
 11
2280
 21
96
  0
LINE
  8
_0-9_枠極太
  6
CONTINUOUS
 62
    5
 10
2280
 20
96
 11
96
 21
96
  0
LINE
  8
_0-7_枠細線
  6
CONTINUOUS
 62
    5
 10
2280.0000000000009
 20
1508
 11
1424.0000000000009
 21
1508
  0
TEXT
  8
_0-7_枠細線
 62
    5
 10
1432.0000000000009
 20
1512
 40
20
 41
1
 50
0
  1
記号
  0
TEXT
  8
_0-7_枠細線
 62
    5
 10
1595.0000000000009
 20
1512
 40
20
 41
1
 50
0
  1
訂　 正　 記　 事
  0
TEXT
  8
_0-7_枠細線
 62
    5
 10
1890.0000000000009
 20
1512
 40
20
 41
1
 50
0
  1
訂 正 年 月 日
  0
TEXT
  8
_0-7_枠細線
 62
    5
 10
2090.0000000000009
 20
1512
 40
20
 41
1
 50
0
  1
備　　　　　考
  0
LINE
  8
_0-7_枠細線
  6
CONTINUOUS
 62
    5
 10
2280.0000000000009
 20
1480
 11
1424.0000000000009
 21
1480
  0
TEXT
  8
_0-7_枠細線
 62
    5
 10
1502.1605925925933
 20
1484
 40
20
 41
1
 50
0
  1
品番・色記号変更
  0
TEXT
  8
_0-7_枠細線
 62
    5
 10
1888.0000000000009
 20
1484
 40
20
 41
0.7199999999999999
 50
0
  1
２０１３．０３．１３
  0
LINE
  8
_0-7_枠細線
  6
CONTINUOUS
 62
    5
 10
2280.0000000000009
 20
1452
 11
1424.0000000000009
 21
1452
  0
LINE
  8
_0-7_枠細線
  6
CONTINUOUS
 62
    5
 10
2280.0000000000009
 20
1424
 11
1424.0000000000009
 21
1424
  0
TEXT
  8
_0-7_枠細線
 62
    5
 10
1502.1605925925933
 20
1456
 40
20
 41
1
 50
0
  1
クロスバーピッチ変更
  0
TEXT
  8
_0-7_枠細線
 62
    5
 10
1502.1605925925933
 20
1428
 40
20
 41
1
 50
0
  1
取外具形状変更
  0
TEXT
  8
_0-7_枠細線
 62
    5
 10
1888.0000000000009
 20
1456
 40
20
 41
0.7199999999999999
 50
0
  1
２０１５．１１．２０
  0
LINE
  8
_0-7_枠細線
  6
CONTINUOUS
 62
    5
 10
1464.0000000000009
 20
1454.307734354795
 11
1452.0000000000009
 21
1478.307734354795
  0
LINE
  8
_0-7_枠細線
  6
CONTINUOUS
 62
    5
 10
1440.0000000000009
 20
1454.307734354795
 11
1464.0000000000009
 21
1454.307734354795
  0
LINE
  8
_0-7_枠細線
  6
CONTINUOUS
 62
    5
 10
1452.0000000000009
 20
1478.307734354795
 11
1440.0000000000009
 21
1454.307734354795
  0
TEXT
  8
_0-7_枠細線
 62
    5
 10
1443.7842420290381
 20
1453.8165307621866
 40
20
 41
0.8
 50
0
  1
１
  0
TEXT
  8
_0-7_枠細線
 62
    5
 10
1443.7842420290381
 20
1425.8165307621866
 40
20
 41
0.8
 50
0
  1
２
  0
LINE
  8
_0-7_枠細線
  6
CONTINUOUS
 62
    5
 10
2280.0000000000009
 20
1396
 11
1424.0000000000009
 21
1396
  0
LINE
  8
_0-7_枠細線
  6
CONTINUOUS
 62
    5
 10
1452.0000000000009
 20
1450.307734354795
 11
1440.0000000000009
 21
1426.307734354795
  0
LINE
  8
_0-7_枠細線
  6
CONTINUOUS
 62
    5
 10
1440.0000000000009
 20
1426.307734354795
 11
1464.0000000000009
 21
1426.307734354795
  0
LINE
  8
_0-7_枠細線
  6
CONTINUOUS
 62
    5
 10
1464.0000000000009
 20
1426.307734354795
 11
1452.0000000000009
 21
1450.307734354795
  0
TEXT
  8
_0-7_枠細線
 62
    5
 10
1443.7842420290381
 20
1397.4314401305048
 40
20
 41
0.8
 50
0
  1
３
  0
TEXT
  8
_0-7_枠細線
 62
    5
 10
1888.0000000000009
 20
1400
 40
20
 41
0.7199999999999999
 50
0
  1
２０１７．０４．０１
  0
LINE
  8
_0-7_枠細線
  6
CONTINUOUS
 62
    5
 10
1464.0000000000009
 20
1370.307734354795
 11
1452.0000000000009
 21
1394.307734354795
  0
LINE
  8
_0-7_枠細線
  6
CONTINUOUS
 62
    5
 10
1440.0000000000009
 20
1370.307734354795
 11
1464.0000000000009
 21
1370.307734354795
  0
LINE
  8
_0-7_枠細線
  6
CONTINUOUS
 62
    5
 10
1452.0000000000009
 20
1394.307734354795
 11
1440.0000000000009
 21
1370.307734354795
  0
TEXT
  8
_0-7_枠細線
 62
    5
 10
1888.0000000000009
 20
1372
 40
20
 41
0.7199999999999999
 50
0
  1
２０１７．０４．０１
  0
TEXT
  8
_0-7_枠細線
 62
    5
 10
1502.1605925925933
 20
1372
 40
20
 41
1
 50
0
  1
ブラウン色（Ｃ）追加
  0
LINE
  8
_0-7_枠細線
  6
CONTINUOUS
 62
    5
 10
2280.0000000000009
 20
1368
 11
1424.0000000000009
 21
1368
  0
LINE
  8
_0-7_枠細線
  6
CONTINUOUS
 62
    5
 10
1452.0000000000009
 20
1422.307734354795
 11
1440.0000000000009
 21
1398.307734354795
  0
LINE
  8
_0-7_枠細線
  6
CONTINUOUS
 62
    5
 10
1440.0000000000009
 20
1398.307734354795
 11
1464.0000000000009
 21
1398.307734354795
  0
LINE
  8
_0-7_枠細線
  6
CONTINUOUS
 62
    5
 10
1464.0000000000009
 20
1398.307734354795
 11
1452.0000000000009
 21
1422.307734354795
  0
TEXT
  8
_0-7_枠細線
 62
    5
 10
1443.7842420290381
 20
1368.7896224110355
 40
20
 41
0.8
 50
0
  1
４
  0
TEXT
  8
_0-7_枠細線
 62
    5
 10
1502.1605925925933
 20
1400
 40
20
 41
1
 50
0
  1
取外具形状変更
  0
TEXT
  8
_0-7_枠細線
 62
    5
 10
1888.0000000000009
 20
1428
 40
20
 41
0.7199999999999999
 50
0
  1
２０１５．１１．２０
  0
LINE
  8
_0-7_枠細線
  6
CONTINUOUS
 62
    5
 10
1464.0000000000009
 20
1342.307734354795
 11
1452.0000000000009
 21
1366.307734354795
  0
LINE
  8
_0-7_枠細線
  6
CONTINUOUS
 62
    5
 10
1440.0000000000009
 20
1342.307734354795
 11
1464.0000000000009
 21
1342.307734354795
  0
LINE
  8
_0-7_枠細線
  6
CONTINUOUS
 62
    5
 10
1452.0000000000009
 20
1366.307734354795
 11
1440.0000000000009
 21
1342.307734354795
  0
LINE
  8
_0-7_枠細線
  6
CONTINUOUS
 62
    5
 10
2280.0000000000009
 20
1340
 11
1424.0000000000009
 21
1340
  0
TEXT
  8
_0-7_枠細線
 62
    5
 10
1888.0000000000009
 20
1344
 40
20
 41
0.7199999999999999
 50
0
  1
２０１９．０９．０１
  0
TEXT
  8
_0-7_枠細線
 62
    5
 10
1443.7842420290381
 20
1340.7896224110352
 40
20
 41
0.8
 50
0
  1
５
  0
TEXT
  8
_0-7_枠細線
 62
    5
 10
1910.4000000000001
 20
188
 40
32
 41
0.7
 50
0
  1
１：８
  0
TEXT
  8
_0-7_枠細線
 62
    5
 10
1502.1605925925933
 20
1344
 40
20
 41
1
 50
0
  1
アンカー材質･厚み変更
  0
LINE
  8
_0-7_枠細線
  6
CONTINUOUS
 62
    5
 10
1668.445396090538
 20
768
 11
1668.445396090538
 21
896
  0
TEXT
  8
_0-7_枠細線
 62
    5
 10
1704.445396090538
 20
860
 40
24
 41
1
 50
0
  1
耐荷重
  0
LINE
  8
_0-7_枠細線
  6
CONTINUOUS
 62
    5
 10
1812.445396090538
 20
768
 11
1812.445396090538
 21
896
  0
TEXT
  8
_0-7_枠細線
 62
    5
 10
1848.445396090538
 20
860
 40
24
 41
1
 50
0
  1
蓋重量
  0
LINE
  8
_0-7_枠細線
  6
CONTINUOUS
 62
    5
 10
1956.445396090538
 20
768
 11
1956.445396090538
 21
896
  0
TEXT
  8
_0-7_枠細線
 62
    5
 10
1992.445396090538
 20
860
 40
24
 41
1
 50
0
  1
枠重量
  0
LINE
  8
_0-7_枠細線
  6
CONTINUOUS
 62
    5
 10
1668.445396090538
 20
848
 11
2100.4453960905375
 21
848
  0
LINE
  8
_0-7_枠細線
  6
CONTINUOUS
 62
    5
 10
1668.445396090538
 20
896
 11
2100.4453960905375
 21
896
  0
LINE
  8
_0-7_枠細線
  6
CONTINUOUS
 62
    5
 10
1668.445396090538
 20
768
 11
2100.4453960905375
 21
768
  0
LINE
  8
_0-7_枠細線
  6
CONTINUOUS
 62
    5
 10
2100.4453960905375
 20
768
 11
2100.4453960905375
 21
896
  0
TEXT
  8
_0-7_枠細線
 62
    5
 10
1726.0453960905381
 20
688
 40
24
 41
0.8000000000000001
 50
0
  1
品　　番
  0
LINE
  8
_0-7_枠細線
  6
CONTINUOUS
 62
    5
 10
1668.4453960905378
 20
600
 11
2180.4453960905385
 21
600
  0
LINE
  8
_0-7_枠細線
  6
CONTINUOUS
 62
    5
 10
1668.4453960905378
 20
640
 11
2180.4453960905385
 21
640
  0
LINE
  8
_0-7_枠細線
  6
CONTINUOUS
 62
    5
 10
1668.4453960905378
 20
680
 11
2180.4453960905385
 21
680
  0
TEXT
  8
_0-7_枠細線
 62
    5
 10
1930.8453960905385
 20
688
 40
24
 41
0.8000000000000001
 50
0
  1
色
  0
TEXT
  8
_0-7_枠細線
 62
    5
 10
2062.0453960905388
 20
688
 40
24
 41
0.8000000000000001
 50
0
  1
備　　考
  0
LINE
  8
_0-7_枠細線
  6
CONTINUOUS
 62
    5
 10
1668.4453960905378
 20
720
 11
2180.4453960905385
 21
720
  0
LINE
  8
_0-7_枠細線
  6
CONTINUOUS
 62
    5
 10
1668.4453960905378
 20
359.99999999999994
 11
2180.4453960905385
 21
359.99999999999994
  0
LINE
  8
_0-7_枠細線
  6
CONTINUOUS
 62
    5
 10
1668.4453960905378
 20
560
 11
2180.4453960905385
 21
560
  0
LINE
  8
_0-7_枠細線
  6
CONTINUOUS
 62
    5
 10
1668.4453960905378
 20
520
 11
2180.4453960905385
 21
520
  0
LINE
  8
_0-7_枠細線
  6
CONTINUOUS
 62
    5
 10
1668.4453960905378
 20
479.99999999999994
 11
2180.4453960905385
 21
479.99999999999994
  0
LINE
  8
_0-7_枠細線
  6
CONTINUOUS
 62
    5
 10
1668.4453960905378
 20
439.99999999999994
 11
2180.4453960905385
 21
439.99999999999994
  0
LINE
  8
_0-7_枠細線
  6
CONTINUOUS
 62
    5
 10
1668.4453960905378
 20
399.99999999999994
 11
2180.4453960905385
 21
399.99999999999994
  0
TEXT
  8
_0-7_枠細線
 62
    5
 10
1826.4453960905378
 20
728
 40
28
 41
1
 50
0
  1
品番表
  0
LINE
  8
_0-7_枠細線
  6
CONTINUOUS
 62
    5
 10
1668.4453960905378
 20
320
 11
2180.4453960905385
 21
320
  0
LINE
  8
_0-7_枠細線
  6
CONTINUOUS
 62
    5
 10
2180.4453960905385
 20
720
 11
2180.4453960905385
 21
320
  0
LINE
  8
_0-7_枠細線
  6
CONTINUOUS
 62
    5
 10
2020.4453960905378
 20
720
 11
2020.4453960905378
 21
320
  0
LINE
  8
_0-7_枠細線
  6
CONTINUOUS
 62
    5
 10
1860.4453960905387
 20
720
 11
1860.4453960905387
 21
320
  0
LINE
  8
_0-7_枠細線
  6
CONTINUOUS
 62
    5
 10
1668.4453960905378
 20
720
 11
1668.4453960905378
 21
320
  0
LINE
  8
_0-7_枠細線
  6
CONTINUOUS
 62
    5
 10
1663.9957483157664
 20
368.25005390401572
 11
1651.9957483157664
 21
392.25005390401572
  0
LINE
  8
_0-7_枠細線
  6
CONTINUOUS
 62
    5
 10
1639.9957483157664
 20
368.25005390401572
 11
1663.9957483157664
 21
368.25005390401572
  0
LINE
  8
_0-7_枠細線
  6
CONTINUOUS
 62
    5
 10
1651.9957483157664
 20
392.25005390401572
 11
1639.9957483157664
 21
368.25005390401572
  0
TEXT
  8
_0-7_枠細線
 62
    5
 10
1643.7799903448033
 20
366.73194196025582
 40
20
 41
0.8
 50
0
  1
４
  0
TEXT
  8
_0-7_枠細線
 62
    5
 10
1680.445396090538
 20
780
 40
24
 41
1
 50
0
  1
（歩道用）
  0
TEXT
  8
_0-7_枠細線
 62
    5
 10
1980.445396090538
 20
798
 40
24
 41
0.8000000000000001
 50
0
  1
2.4kg/ｍ組
  0
TEXT
  8
_0-7_枠細線
 62
    5
 10
1692.445396090538
 20
812
 40
24
 41
1
 50
0
  1
5.0kN/㎡
  0
TEXT
  8
_0-7_枠細線
 62
    5
 10
1846.0453960905379
 20
798
 40
24
 41
0.8000000000000001
 50
0
  1
3.1kg/ｍ
  0
LINE
  8
_0-7_枠細線
  6
CONTINUOUS
 62
    5
 10
1464.0000000000009
 20
1314.307734354795
 11
1452.0000000000009
 21
1338.307734354795
  0
LINE
  8
_0-7_枠細線
  6
CONTINUOUS
 62
    5
 10
1440.0000000000009
 20
1314.307734354795
 11
1464.0000000000009
 21
1314.307734354795
  0
LINE
  8
_0-7_枠細線
  6
CONTINUOUS
 62
    5
 10
1452.0000000000009
 20
1338.307734354795
 11
1440.0000000000009
 21
1314.307734354795
  0
LINE
  8
_0-7_枠細線
  6
CONTINUOUS
 62
    5
 10
2280.0000000000009
 20
1312
 11
1424.0000000000009
 21
1312
  0
LINE
  8
_0-7_枠細線
  6
CONTINUOUS
 62
    5
 10
1464.0000000000009
 20
1286.307734354795
 11
1452.0000000000009
 21
1310.307734354795
  0
LINE
  8
_0-7_枠細線
  6
CONTINUOUS
 62
    5
 10
1440.0000000000009
 20
1286.307734354795
 11
1464.0000000000009
 21
1286.307734354795
  0
LINE
  8
_0-7_枠細線
  6
CONTINUOUS
 62
    5
 10
1452.0000000000009
 20
1310.307734354795
 11
1440.0000000000009
 21
1286.307734354795
  0
LINE
  8
_0-7_枠細線
  6
CONTINUOUS
 62
    5
 10
2280.0000000000009
 20
1284
 11
1424.0000000000009
 21
1284
  0
TEXT
  8
_0-7_枠細線
 62
    5
 10
1443.7842420290381
 20
1312.7896224110355
 40
20
 41
0.8
 50
0
  1
６
  0
TEXT
  8
_0-7_枠細線
 62
    5
 10
1443.7842420290381
 20
1284.7896224110352
 40
20
 41
0.8
 50
0
  1
７
  0
LINE
  8
_0-7_枠細線
  6
CONTINUOUS
 62
    5
 10
1424.0000000000009
 20
1284
 11
1424.0000000000009
 21
1535.9999999999986
  0
LINE
  8
_0-7_枠細線
  6
CONTINUOUS
 62
    5
 10
1480.0000000000009
 20
1284
 11
1480.0000000000009
 21
1535.9999999999986
  0
LINE
  8
_0-7_枠細線
  6
CONTINUOUS
 62
    5
 10
1880.0000000000009
 20
1284
 11
1880.0000000000009
 21
1535.9999999999986
  0
LINE
  8
_0-7_枠細線
  6
CONTINUOUS
 62
    5
 10
2040.0000000000009
 20
1284
 11
2040.0000000000009
 21
1535.9999999999986
  0
TEXT
  8
_0-7_枠細線
 62
    5
 10
1676.0453960905388
 20
648
 40
24
 41
0.5666666666666667
 50
0
  1
ＧＲＳＫ－２０Ｗ２００－Ｂ
  0
TEXT
  8
_0-7_枠細線
 62
    5
 10
1676.0453960905388
 20
608
 40
24
 41
0.5666666666666667
 50
0
  1
ＧＲＳＫ－２０Ｗ２００－Ｇ
  0
TEXT
  8
_0-7_枠細線
 62
    5
 10
1676.0453960905388
 20
568
 40
24
 41
0.5666666666666667
 50
0
  1
ＧＲＳＫ－２０Ｗ２００－Ｓ
  0
TEXT
  8
_0-7_枠細線
 62
    5
 10
1676.0453960905388
 20
528
 40
24
 41
0.5666666666666667
 50
0
  1
ＧＲＳＫ－２０Ｗ２００－Ｐ
  0
TEXT
  8
_0-7_枠細線
 62
    5
 10
1676.0453960905388
 20
487.99999999999994
 40
24
 41
0.5666666666666667
 50
0
  1
ＧＲＳＫ－２０Ｗ２００－Ａ
  0
TEXT
  8
_0-7_枠細線
 62
    5
 10
1676.0453960905388
 20
447.99999999999994
 40
24
 41
0.5666666666666667
 50
0
  1
ＧＲＳＫ－２０Ｗ２００－Ｄ
  0
TEXT
  8
_0-7_枠細線
 62
    5
 10
1676.0453960905388
 20
407.99999999999994
 40
24
 41
0.5666666666666667
 50
0
  1
ＧＲＳＫ－２０Ｗ２００－Ｍ
  0
TEXT
  8
_0-7_枠細線
 62
    5
 10
1676.0453960905388
 20
367.99999999999994
 40
24
 41
0.5666666666666667
 50
0
  1
ＧＲＳＫ－２０Ｗ２００－Ｃ
  0
TEXT
  8
_0-7_枠細線
 62
    5
 10
1676.0453960905388
 20
328
 40
24
 41
0.5666666666666667
 50
0
  1
ＧＲＳＫ－２０Ｗ２００－Ｋ
  0
TEXT
  8
_0-7_枠細線
 62
    5
 10
1882.8453960905388
 20
608
 40
24
 41
0.7999999999999999
 50
0
  1
ライトグレー
  0
TEXT
  8
_0-7_枠細線
 62
    5
 10
1902.0453960905386
 20
648
 40
24
 41
0.7999999999999999
 50
0
  1
ベージュ
  0
TEXT
  8
_0-7_枠細線
 62
    5
 10
1902.0453960905386
 20
568
 40
24
 41
0.7999999999999999
 50
0
  1
ホワイト
  0
TEXT
  8
_0-7_枠細線
 62
    5
 10
1911.6453960905387
 20
528
 40
24
 41
0.7999999999999999
 50
0
  1
ピンク
  0
TEXT
  8
_0-7_枠細線
 62
    5
 10
1911.6453960905387
 20
487.99999999999994
 40
24
 41
0.7999999999999999
 50
0
  1
ブルー
  0
TEXT
  8
_0-7_枠細線
 62
    5
 10
1882.8453960905388
 20
447.99999999999994
 40
24
 41
0.7999999999999999
 50
0
  1
ダークグレー
  0
TEXT
  8
_0-7_枠細線
 62
    5
 10
1911.6453960905387
 20
407.99999999999994
 40
24
 41
0.7999999999999999
 50
0
  1
ウッド
  0
TEXT
  8
_0-7_枠細線
 62
    5
 10
1902.0453960905386
 20
328
 40
24
 41
0.7999999999999999
 50
0
  1
ブラック
  0
TEXT
  8
_0-7_枠細線
 62
    5
 10
1902.0453960905386
 20
367.99999999999994
 40
24
 41
0.7999999999999999
 50
0
  1
ブラウン
  0
LINE
  8
_0-7_枠細線
  6
CONTINUOUS
 62
    5
 10
1668.445396090538
 20
1133.8946910356817
 11
1668.445396090538
 21
1013.8946910356817
  0
TEXT
  8
_0-7_枠細線
 62
    5
 10
1671.7225259619299
 20
980.73377816458571
 40
24
 41
0.8000000000000001
 50
0
  1
※ 特寸品はAが20以下となるようBにて調整
  0
TEXT
  8
_0-7_枠細線
 62
    5
 10
1671.7225259619299
 20
949.54143699835424
 40
24
 41
0.8000000000000001
 50
0
  1
※ 角型の場合は、集水マス補強仕様による
  0
TEXT
  8
_0-7_枠細線
 62
    5
 10
1709.6453960905401
 20
1101.8946910356817
 40
24
 41
0.8000000000000001
 50
0
  1
種　別
  0
TEXT
  8
_0-7_枠細線
 62
    5
 10
1709.6453960905394
 20
1061.8946910356817
 40
24
 41
0.8000000000000001
 50
0
  1
定尺品
  0
TEXT
  8
_0-7_枠細線
 62
    5
 10
1709.6453960905394
 20
1021.8946910356817
 40
24
 41
0.8000000000000001
 50
0
  1
特寸品
  0
LINE
  8
_0-7_枠細線
  6
CONTINUOUS
 62
    5
 10
1808.4453960905403
 20
1133.8946910356817
 11
1808.4453960905403
 21
1013.8946910356817
  0
TEXT
  8
_0-7_枠細線
 62
    5
 10
1856.8453960905424
 20
1061.8946910356817
 40
24
 41
0.5999999999999999
 50
0
  1
９９９
  0
TEXT
  8
_0-7_枠細線
 62
    5
 10
1868.8453960905424
 20
1101.8946910356817
 40
24
 41
0.8000000000000001
 50
0
  1
Ｌ
  0
TEXT
  8
_0-7_枠細線
 62
    5
 10
1820.8453960905408
 20
1021.8946910356817
 40
24
 41
0.5999999999999999
 50
0
  1
３０５～１３０５
  0
LINE
  8
_0-7_枠細線
  6
CONTINUOUS
 62
    5
 10
1948.4453960905403
 20
1133.8946910356817
 11
1948.4453960905403
 21
1013.8946910356817
  0
TEXT
  8
_0-7_枠細線
 62
    5
 10
1849.254021948771
 20
1141.8946910356817
 40
28
 41
1
 50
0
  1
寸法表
  0
LINE
  8
_0-7_枠細線
  6
CONTINUOUS
 62
    5
 10
2228.4453960905416
 20
1133.8946910356817
 11
2228.4453960905416
 21
1013.8946910356817
  0
LINE
  8
_0-7_枠細線
  6
CONTINUOUS
 62
    5
 10
1668.445396090538
 20
1133.8946910356817
 11
2228.4453960905416
 21
1133.8946910356817
  0
LINE
  8
_0-7_枠細線
  6
CONTINUOUS
 62
    5
 10
1668.445396090538
 20
1093.8946910356817
 11
2228.4453960905416
 21
1093.8946910356817
  0
LINE
  8
_0-7_枠細線
  6
CONTINUOUS
 62
    5
 10
1668.445396090538
 20
1053.8946910356817
 11
2228.4453960905416
 21
1053.8946910356817
  0
LINE
  8
_0-7_枠細線
  6
CONTINUOUS
 62
    5
 10
1668.445396090538
 20
1013.8946910356817
 11
2228.4453960905416
 21
1013.8946910356817
  0
LINE
  8
_0-7_枠細線
  6
CONTINUOUS
 62
    5
 10
2088.4453960905412
 20
1133.8946910356817
 11
2088.4453960905412
 21
1013.8946910356817
  0
TEXT
  8
_0-7_枠細線
 62
    5
 10
1989.6453960905446
 20
1021.8946910356817
 40
24
 41
0.5999999999999999
 50
0
  1
７～２０
  0
TEXT
  8
_0-7_枠細線
 62
    5
 10
2008.8453960905458
 20
1101.8946910356817
 40
24
 41
0.8000000000000001
 50
0
  1
Ａ
  0
TEXT
  8
_0-7_枠細線
 62
    5
 10
2148.8453960905431
 20
1101.8946910356817
 40
24
 41
0.8000000000000001
 50
0
  1
Ｂ
  0
TEXT
  8
_0-7_枠細線
 62
    5
 10
2129.6453960905396
 20
1061.8946910356817
 40
24
 41
0.5999999999999999
 50
0
  1
４８．５
  0
TEXT
  8
_0-7_枠細線
 62
    5
 10
1989.6453960905405
 20
1061.8946910356817
 40
24
 41
0.5999999999999999
 50
0
  1
１４．５
  0
TEXT
  8
_0-7_枠細線
 62
    5
 10
2093.6453960905415
 20
1021.8946910356817
 40
24
 41
0.5999999999999999
 50
0
  1
２６．５～４８．５
  0
LINE
  8
_0-1_計細線
  6
CONTINUOUS
 62
    3
 10
337.73722627737197
 20
930.18678502224316
 11
1336.737226277372
 21
930.18678502224316
  0
LINE
  8
_0-1_計細線
  6
CONTINUOUS
 62
    3
 10
337.73722627737197
 20
941.5867850222437
 11
1336.737226277372
 21
941.5867850222437
  0
LINE
  8
_0-1_計細線
  6
CONTINUOUS
 62
    3
 10
337.73722627737197
 20
930.18678502224316
 11
337.73722627737197
 21
941.5867850222437
  0
LINE
  8
_0-1_計細線
  6
CONTINUOUS
 62
    3
 10
1336.737226277372
 20
930.18678502224316
 11
1336.737226277372
 21
941.5867850222437
  0
LINE
  8
_0-0_計極細
  6
CONTINUOUS
 62
    2
 10
337.73722627737197
 20
938.38678502224388
 11
1336.737226277372
 21
938.38678502224388
  0
LINE
  8
_0-0_計極細
  6
CONTINUOUS
 62
    2
 10
337.73722627737197
 20
933.38678502224388
 11
1336.737226277372
 21
933.38678502224388
  0
LINE
  8
_0-1_計細線
  6
CONTINUOUS
 62
    3
 10
337.73722627737197
 20
947.18678502224407
 11
1336.737226277372
 21
947.18678502224407
  0
LINE
  8
_0-1_計細線
  6
CONTINUOUS
 62
    3
 10
337.73722627737197
 20
958.58678502224461
 11
1336.737226277372
 21
958.58678502224461
  0
LINE
  8
_0-1_計細線
  6
CONTINUOUS
 62
    3
 10
337.73722627737197
 20
947.18678502224407
 11
337.73722627737197
 21
958.58678502224461
  0
LINE
  8
_0-1_計細線
  6
CONTINUOUS
 62
    3
 10
1336.737226277372
 20
947.18678502224407
 11
1336.737226277372
 21
958.58678502224461
  0
LINE
  8
_0-0_計極細
  6
CONTINUOUS
 62
    2
 10
337.73722627737197
 20
955.38678502224434
 11
1336.737226277372
 21
955.38678502224434
  0
LINE
  8
_0-0_計極細
  6
CONTINUOUS
 62
    2
 10
337.73722627737197
 20
950.38678502224434
 11
1336.737226277372
 21
950.38678502224434
  0
LINE
  8
_0-1_計細線
  6
CONTINUOUS
 62
    3
 10
337.73722627737197
 20
964.18678502224498
 11
1336.737226277372
 21
964.18678502224498
  0
LINE
  8
_0-1_計細線
  6
CONTINUOUS
 62
    3
 10
337.73722627737197
 20
975.58678502224552
 11
1336.737226277372
 21
975.58678502224552
  0
LINE
  8
_0-1_計細線
  6
CONTINUOUS
 62
    3
 10
337.73722627737197
 20
964.18678502224498
 11
337.73722627737197
 21
975.58678502224552
  0
LINE
  8
_0-1_計細線
  6
CONTINUOUS
 62
    3
 10
1336.737226277372
 20
964.18678502224498
 11
1336.737226277372
 21
975.58678502224552
  0
LINE
  8
_0-0_計極細
  6
CONTINUOUS
 62
    2
 10
337.73722627737197
 20
972.38678502224479
 11
1336.737226277372
 21
972.38678502224479
  0
LINE
  8
_0-0_計極細
  6
CONTINUOUS
 62
    2
 10
337.73722627737197
 20
967.38678502224479
 11
1336.737226277372
 21
967.38678502224479
  0
LINE
  8
_0-0_計極細
  6
CENTER2
 62
    2
 10
321.84862674035276
 20
995.38678502224343
 11
1352.7819600737298
 21
995.38678502224343
  0
LINE
  8
_0-1_計細線
  6
CONTINUOUS
 62
    3
 10
337.73722627737197
 20
1060.5867850222428
 11
1336.737226277372
 21
1060.5867850222428
  0
LINE
  8
_0-1_計細線
  6
CONTINUOUS
 62
    3
 10
337.73722627737197
 20
1049.1867850222422
 11
1336.737226277372
 21
1049.1867850222422
  0
LINE
  8
_0-1_計細線
  6
CONTINUOUS
 62
    3
 10
337.73722627737197
 20
1060.5867850222428
 11
337.73722627737197
 21
1049.1867850222422
  0
LINE
  8
_0-1_計細線
  6
CONTINUOUS
 62
    3
 10
1336.737226277372
 20
1060.5867850222428
 11
1336.737226277372
 21
1049.1867850222422
  0
LINE
  8
_0-0_計極細
  6
CONTINUOUS
 62
    2
 10
337.73722627737197
 20
1052.3867850222425
 11
1336.737226277372
 21
1052.3867850222425
  0
LINE
  8
_0-0_計極細
  6
CONTINUOUS
 62
    2
 10
337.73722627737197
 20
1057.3867850222425
 11
1336.737226277372
 21
1057.3867850222425
  0
LINE
  8
_0-1_計細線
  6
CONTINUOUS
 62
    3
 10
337.73722627737197
 20
1077.9867850222433
 11
1336.737226277372
 21
1077.9867850222433
  0
LINE
  8
_0-1_計細線
  6
CONTINUOUS
 62
    3
 10
337.73722627737197
 20
1066.5867850222428
 11
1336.737226277372
 21
1066.5867850222428
  0
LINE
  8
_0-1_計細線
  6
CONTINUOUS
 62
    3
 10
337.73722627737197
 20
1077.9867850222433
 11
337.73722627737197
 21
1066.5867850222428
  0
LINE
  8
_0-1_計細線
  6
CONTINUOUS
 62
    3
 10
1336.737226277372
 20
1077.9867850222433
 11
1336.737226277372
 21
1066.5867850222428
  0
LINE
  8
_0-0_計極細
  6
CONTINUOUS
 62
    2
 10
337.73722627737197
 20
1069.7867850222431
 11
1336.737226277372
 21
1069.7867850222431
  0
LINE
  8
_0-0_計極細
  6
CONTINUOUS
 62
    2
 10
337.73722627737197
 20
1074.7867850222431
 11
1336.737226277372
 21
1074.7867850222431
  0
LINE
  8
_0-1_計細線
  6
CONTINUOUS
 62
    3
 10
337.73722627737197
 20
1095.3867850222434
 11
1336.737226277372
 21
1095.3867850222434
  0
LINE
  8
_0-1_計細線
  6
CONTINUOUS
 62
    3
 10
337.73722627737197
 20
1083.9867850222429
 11
1336.737226277372
 21
1083.9867850222429
  0
LINE
  8
_0-1_計細線
  6
CONTINUOUS
 62
    3
 10
337.73722627737197
 20
1095.3867850222434
 11
337.73722627737197
 21
1083.9867850222429
  0
LINE
  8
_0-1_計細線
  6
CONTINUOUS
 62
    3
 10
1336.737226277372
 20
1095.3867850222434
 11
1336.737226277372
 21
1083.9867850222429
  0
LINE
  8
_0-0_計極細
  6
CONTINUOUS
 62
    2
 10
337.73722627737197
 20
1087.1867850222432
 11
1336.737226277372
 21
1087.1867850222432
  0
LINE
  8
_0-0_計極細
  6
CONTINUOUS
 62
    2
 10
337.73722627737197
 20
1092.1867850222432
 11
1336.737226277372
 21
1092.1867850222432
  0
LINE
  8
_0-1_計細線
  6
CONTINUOUS
 62
    3
 10
337.73722627737197
 20
1026.5867850222428
 11
1336.737226277372
 21
1026.5867850222428
  0
LINE
  8
_0-1_計細線
  6
CONTINUOUS
 62
    3
 10
337.73722627737197
 20
1015.1867850222422
 11
1336.737226277372
 21
1015.1867850222422
  0
LINE
  8
_0-1_計細線
  6
CONTINUOUS
 62
    3
 10
337.73722627737197
 20
1026.5867850222428
 11
337.73722627737197
 21
1015.1867850222422
  0
LINE
  8
_0-1_計細線
  6
CONTINUOUS
 62
    3
 10
1336.737226277372
 20
1026.5867850222428
 11
1336.737226277372
 21
1015.1867850222422
  0
LINE
  8
_0-0_計極細
  6
CONTINUOUS
 62
    2
 10
337.73722627737197
 20
1018.3867850222425
 11
1336.737226277372
 21
1018.3867850222425
  0
LINE
  8
_0-0_計極細
  6
CONTINUOUS
 62
    2
 10
337.73722627737197
 20
1023.3867850222425
 11
1336.737226277372
 21
1023.3867850222425
  0
LINE
  8
_0-1_計細線
  6
CONTINUOUS
 62
    3
 10
337.73722627737197
 20
1043.5867850222437
 11
1336.737226277372
 21
1043.5867850222437
  0
LINE
  8
_0-1_計細線
  6
CONTINUOUS
 62
    3
 10
337.73722627737197
 20
1032.1867850222432
 11
1336.737226277372
 21
1032.1867850222432
  0
LINE
  8
_0-1_計細線
  6
CONTINUOUS
 62
    3
 10
337.73722627737197
 20
1043.5867850222437
 11
337.73722627737197
 21
1032.1867850222432
  0
LINE
  8
_0-1_計細線
  6
CONTINUOUS
 62
    3
 10
1336.737226277372
 20
1043.5867850222437
 11
1336.737226277372
 21
1032.1867850222432
  0
LINE
  8
_0-0_計極細
  6
CONTINUOUS
 62
    2
 10
337.73722627737197
 20
1035.386785022243
 11
1336.737226277372
 21
1035.386785022243
  0
LINE
  8
_0-0_計極細
  6
CONTINUOUS
 62
    2
 10
337.73722627737197
 20
1040.386785022243
 11
1336.737226277372
 21
1040.386785022243
  0
LINE
  8
_0-1_計細線
  6
CONTINUOUS
 62
    3
 10
337.73722627737197
 20
912.78678502224261
 11
1336.737226277372
 21
912.78678502224261
  0
LINE
  8
_0-1_計細線
  6
CONTINUOUS
 62
    3
 10
337.73722627737197
 20
924.18678502224316
 11
1336.737226277372
 21
924.18678502224316
  0
LINE
  8
_0-1_計細線
  6
CONTINUOUS
 62
    3
 10
337.73722627737197
 20
912.78678502224261
 11
337.73722627737197
 21
924.18678502224316
  0
LINE
  8
_0-1_計細線
  6
CONTINUOUS
 62
    3
 10
1336.737226277372
 20
912.78678502224261
 11
1336.737226277372
 21
924.18678502224316
  0
LINE
  8
_0-0_計極細
  6
CONTINUOUS
 62
    2
 10
337.73722627737197
 20
920.98678502224334
 11
1336.737226277372
 21
920.98678502224334
  0
LINE
  8
_0-0_計極細
  6
CONTINUOUS
 62
    2
 10
337.73722627737197
 20
915.98678502224334
 11
1336.737226277372
 21
915.98678502224334
  0
LINE
  8
_0-1_計細線
  6
CONTINUOUS
 62
    3
 10
337.73722627737197
 20
895.38678502224343
 11
1336.737226277372
 21
895.38678502224343
  0
LINE
  8
_0-1_計細線
  6
CONTINUOUS
 62
    3
 10
337.73722627737197
 20
906.78678502224398
 11
1336.737226277372
 21
906.78678502224398
  0
LINE
  8
_0-1_計細線
  6
CONTINUOUS
 62
    3
 10
337.73722627737197
 20
895.38678502224343
 11
337.73722627737197
 21
906.78678502224398
  0
LINE
  8
_0-1_計細線
  6
CONTINUOUS
 62
    3
 10
1336.737226277372
 20
895.38678502224343
 11
1336.737226277372
 21
906.78678502224398
  0
LINE
  8
_0-0_計極細
  6
CONTINUOUS
 62
    2
 10
337.73722627737197
 20
903.5867850222437
 11
1336.737226277372
 21
903.5867850222437
  0
LINE
  8
_0-0_計極細
  6
CONTINUOUS
 62
    2
 10
337.73722627737197
 20
898.5867850222437
 11
1336.737226277372
 21
898.5867850222437
  0
ARC
  8
_0-0_計極細
  6
CONTINUOUS
 62
    2
 10
324.68344743405623
 20
1092.8867850222425
 40
11.295514677412786
 50
138.39585046827571
 51
221.60414953172395
  0
ARC
  8
_0-0_計極細
  6
CONTINUOUS
 62
    2
 10
307.7910051206859
 20
1077.8867850222412
 40
11.295514677412786
 50
318.39585046827534
 51
41.604149531723962
  0
ARC
  8
_0-0_計極細
  6
CONTINUOUS
 62
    2
 10
324.68344743405623
 20
912.88678502224252
 40
11.295514677412786
 50
138.39585046827571
 51
221.60414953172395
  0
ARC
  8
_0-0_計極細
  6
CONTINUOUS
 62
    2
 10
307.7910051206859
 20
897.88678502224116
 40
11.295514677412786
 50
318.39585046827534
 51
41.604149531723962
  0
LINE
  8
_0-1_計細線
  6
CONTINUOUS
 62
    3
 10
316.23722627737016
 20
1100.3867850222425
 11
1358.237226277372
 21
1100.3867850222425
  0
LINE
  8
_0-1_計細線
  6
CONTINUOUS
 62
    3
 10
1358.237226277372
 20
890.38678502224388
 11
316.23722627737016
 21
890.38678502224388
  0
ARC
  8
_0-0_計極細
  6
CONTINUOUS
 62
    2
 10
1366.6834474340571
 20
1092.8867850222425
 40
11.295514677412786
 50
138.39585046827264
 51
221.60414953172702
  0
ARC
  8
_0-0_計極細
  6
CONTINUOUS
 62
    2
 10
1349.7910051206868
 20
1077.8867850222412
 40
11.295514677412786
 50
318.39585046827534
 51
41.604149531723962
  0
ARC
  8
_0-0_計極細
  6
CONTINUOUS
 62
    2
 10
1366.6834474340571
 20
912.88678502224252
 40
11.295514677412786
 50
138.39585046827264
 51
221.60414953172702
  0
ARC
  8
_0-0_計極細
  6
CONTINUOUS
 62
    2
 10
1349.7910051206868
 20
897.88678502224116
 40
11.295514677412786
 50
318.39585046827534
 51
41.604149531723962
  0
LINE
  8
_0-1_計細線
  6
CONTINUOUS
 62
    3
 10
314.32301057899758
 20
1097.3867850222425
 11
1356.3230105789994
 21
1097.3867850222425
  0
LINE
  8
_0-1_計細線
  6
CONTINUOUS
 62
    3
 10
1360.1514419757464
 20
893.38678502224388
 11
318.15144197574637
 21
893.38678502224388
  0
LINE
  8
_0-1_計細線
  6
CONTINUOUS
 62
    3
 10
316.23722627737016
 20
920.38678502224388
 11
337.73722627737197
 21
920.38678502224388
  0
LINE
  8
_0-1_計細線
  6
CONTINUOUS
 62
    3
 10
1336.737226277372
 20
920.38678502224388
 11
1358.237226277372
 21
920.38678502224388
  0
LINE
  8
_0-1_計細線
  6
CONTINUOUS
 62
    3
 10
1336.737226277372
 20
1070.3867850222425
 11
1358.237226277372
 21
1070.3867850222425
  0
LINE
  8
_0-1_計細線
  6
CONTINUOUS
 62
    3
 10
316.23722627737016
 20
1070.3867850222425
 11
337.73722627737197
 21
1070.3867850222425
  0
LINE
  8
_0-0_計極細
  6
CONTINUOUS
 62
    2
 10
345.73722627737197
 20
941.5867850222437
 11
345.73722627737197
 21
947.18678502224407
  0
LINE
  8
_0-0_計極細
  6
CONTINUOUS
 62
    2
 10
358.73722627737197
 20
941.5867850222437
 11
358.73722627737197
 21
947.18678502224407
  0
LINE
  8
_0-0_計極細
  6
CONTINUOUS
 62
    2
 10
345.73722627737197
 20
958.58678502224461
 11
345.73722627737197
 21
964.18678502224498
  0
LINE
  8
_0-0_計極細
  6
CONTINUOUS
 62
    2
 10
358.73722627737197
 20
958.58678502224461
 11
358.73722627737197
 21
964.18678502224498
  0
LINE
  8
_0-0_計極細
  6
CONTINUOUS
 62
    2
 10
345.73722627737197
 20
981.18678502224088
 11
345.73722627737197
 21
975.58678502224097
  0
LINE
  8
_0-0_計極細
  6
CONTINUOUS
 62
    2
 10
358.73722627737197
 20
981.18678502224088
 11
358.73722627737197
 21
975.58678502224097
  0
LINE
  8
_0-0_計極細
  6
CONTINUOUS
 62
    2
 10
345.73722627737197
 20
998.18678502224134
 11
345.73722627737197
 21
992.58678502224143
  0
LINE
  8
_0-0_計極細
  6
CONTINUOUS
 62
    2
 10
358.73722627737197
 20
998.18678502224134
 11
358.73722627737197
 21
992.58678502224143
  0
LINE
  8
_0-0_計極細
  6
CONTINUOUS
 62
    2
 10
345.73722627737197
 20
1066.5867850222428
 11
345.73722627737197
 21
1060.5867850222428
  0
LINE
  8
_0-0_計極細
  6
CONTINUOUS
 62
    2
 10
358.73722627737197
 20
1066.5867850222428
 11
358.73722627737197
 21
1060.5867850222428
  0
LINE
  8
_0-0_計極細
  6
CONTINUOUS
 62
    2
 10
345.73722627737197
 20
1083.9867850222429
 11
345.73722627737197
 21
1077.9867850222424
  0
LINE
  8
_0-0_計極細
  6
CONTINUOUS
 62
    2
 10
358.73722627737197
 20
1083.9867850222429
 11
358.73722627737197
 21
1077.9867850222424
  0
LINE
  8
_0-0_計極細
  6
CONTINUOUS
 62
    2
 10
345.73722627737197
 20
1015.1867850222422
 11
345.73722627737197
 21
1009.5867850222419
  0
LINE
  8
_0-0_計極細
  6
CONTINUOUS
 62
    2
 10
358.73722627737197
 20
1015.1867850222422
 11
358.73722627737197
 21
1009.5867850222419
  0
LINE
  8
_0-0_計極細
  6
CONTINUOUS
 62
    2
 10
345.73722627737197
 20
1032.1867850222432
 11
345.73722627737197
 21
1026.5867850222428
  0
LINE
  8
_0-0_計極細
  6
CONTINUOUS
 62
    2
 10
358.73722627737197
 20
1032.1867850222432
 11
358.73722627737197
 21
1026.5867850222428
  0
LINE
  8
_0-0_計極細
  6
CONTINUOUS
 62
    2
 10
345.73722627737197
 20
1049.1867850222436
 11
345.73722627737197
 21
1043.5867850222437
  0
LINE
  8
_0-0_計極細
  6
CONTINUOUS
 62
    2
 10
358.73722627737197
 20
1049.1867850222436
 11
358.73722627737197
 21
1043.5867850222437
  0
LINE
  8
_0-0_計極細
  6
CONTINUOUS
 62
    2
 10
345.73722627737197
 20
924.18678502224316
 11
345.73722627737197
 21
930.18678502224316
  0
LINE
  8
_0-0_計極細
  6
CONTINUOUS
 62
    2
 10
358.73722627737197
 20
924.18678502224316
 11
358.73722627737197
 21
930.18678502224316
  0
LINE
  8
_0-0_計極細
  6
CENTER1
 62
    2
 10
352.23722627737197
 20
1104.1375044467056
 11
352.23722627737197
 21
887.62896128123134
  0
LINE
  8
_0-0_計極細
  6
CONTINUOUS
 62
    2
 10
345.73722627737197
 20
906.78678502224261
 11
345.73722627737197
 21
912.78678502224261
  0
LINE
  8
_0-0_計極細
  6
CONTINUOUS
 62
    2
 10
358.73722627737197
 20
906.78678502224261
 11
358.73722627737197
 21
912.78678502224261
  0
LINE
  8
_0-0_計極細
  6
CONTINUOUS
 62
    2
 10
1315.737226277372
 20
941.5867850222437
 11
1315.737226277372
 21
947.18678502224407
  0
LINE
  8
_0-0_計極細
  6
CONTINUOUS
 62
    2
 10
1328.737226277372
 20
941.5867850222437
 11
1328.737226277372
 21
947.18678502224407
  0
LINE
  8
_0-0_計極細
  6
CONTINUOUS
 62
    2
 10
1315.737226277372
 20
958.58678502224461
 11
1315.737226277372
 21
964.18678502224498
  0
LINE
  8
_0-0_計極細
  6
CONTINUOUS
 62
    2
 10
1328.737226277372
 20
958.58678502224461
 11
1328.737226277372
 21
964.18678502224498
  0
LINE
  8
_0-0_計極細
  6
CONTINUOUS
 62
    2
 10
1315.737226277372
 20
981.18678502224088
 11
1315.737226277372
 21
975.58678502224097
  0
LINE
  8
_0-0_計極細
  6
CONTINUOUS
 62
    2
 10
1328.737226277372
 20
981.18678502224088
 11
1328.737226277372
 21
975.58678502224097
  0
LINE
  8
_0-0_計極細
  6
CONTINUOUS
 62
    2
 10
1315.737226277372
 20
998.18678502224134
 11
1315.737226277372
 21
992.58678502224143
  0
LINE
  8
_0-0_計極細
  6
CONTINUOUS
 62
    2
 10
1328.737226277372
 20
998.18678502224134
 11
1328.737226277372
 21
992.58678502224143
  0
LINE
  8
_0-0_計極細
  6
CONTINUOUS
 62
    2
 10
1315.737226277372
 20
1066.5867850222428
 11
1315.737226277372
 21
1060.5867850222428
  0
LINE
  8
_0-0_計極細
  6
CONTINUOUS
 62
    2
 10
1328.737226277372
 20
1066.5867850222428
 11
1328.737226277372
 21
1060.5867850222428
  0
LINE
  8
_0-0_計極細
  6
CONTINUOUS
 62
    2
 10
1315.737226277372
 20
1083.9867850222429
 11
1315.737226277372
 21
1077.9867850222424
  0
LINE
  8
_0-0_計極細
  6
CONTINUOUS
 62
    2
 10
1328.737226277372
 20
1083.9867850222429
 11
1328.737226277372
 21
1077.9867850222424
  0
LINE
  8
_0-0_計極細
  6
CONTINUOUS
 62
    2
 10
1315.737226277372
 20
1015.1867850222422
 11
1315.737226277372
 21
1009.5867850222419
  0
LINE
  8
_0-0_計極細
  6
CONTINUOUS
 62
    2
 10
1328.737226277372
 20
1015.1867850222422
 11
1328.737226277372
 21
1009.5867850222419
  0
LINE
  8
_0-0_計極細
  6
CONTINUOUS
 62
    2
 10
1315.737226277372
 20
1032.1867850222432
 11
1315.737226277372
 21
1026.5867850222428
  0
LINE
  8
_0-0_計極細
  6
CONTINUOUS
 62
    2
 10
1328.737226277372
 20
1032.1867850222432
 11
1328.737226277372
 21
1026.5867850222428
  0
LINE
  8
_0-0_計極細
  6
CONTINUOUS
 62
    2
 10
1315.737226277372
 20
1049.1867850222436
 11
1315.737226277372
 21
1043.5867850222437
  0
LINE
  8
_0-0_計極細
  6
CONTINUOUS
 62
    2
 10
1328.737226277372
 20
1049.1867850222436
 11
1328.737226277372
 21
1043.5867850222437
  0
LINE
  8
_0-0_計極細
  6
CONTINUOUS
 62
    2
 10
1315.737226277372
 20
924.18678502224316
 11
1315.737226277372
 21
930.18678502224316
  0
LINE
  8
_0-0_計極細
  6
CONTINUOUS
 62
    2
 10
1328.737226277372
 20
924.18678502224316
 11
1328.737226277372
 21
930.18678502224316
  0
LINE
  8
_0-0_計極細
  6
CENTER1
 62
    2
 10
1322.237226277372
 20
1104.1375044467056
 11
1322.237226277372
 21
887.62896128123134
  0
LINE
  8
_0-0_計極細
  6
CONTINUOUS
 62
    2
 10
1315.737226277372
 20
906.78678502224261
 11
1315.737226277372
 21
912.78678502224261
  0
LINE
  8
_0-0_計極細
  6
CONTINUOUS
 62
    2
 10
1328.737226277372
 20
906.78678502224261
 11
1328.737226277372
 21
912.78678502224261
  0
LINE
  8
_0-0_計極細
  6
CONTINUOUS
 62
    2
 10
442.73722627737197
 20
941.5867850222437
 11
442.73722627737197
 21
947.18678502224407
  0
LINE
  8
_0-0_計極細
  6
CONTINUOUS
 62
    2
 10
455.73722627737197
 20
941.5867850222437
 11
455.73722627737197
 21
947.18678502224407
  0
LINE
  8
_0-0_計極細
  6
CONTINUOUS
 62
    2
 10
442.73722627737197
 20
958.58678502224461
 11
442.73722627737197
 21
964.18678502224498
  0
LINE
  8
_0-0_計極細
  6
CONTINUOUS
 62
    2
 10
455.73722627737197
 20
958.58678502224461
 11
455.73722627737197
 21
964.18678502224498
  0
LINE
  8
_0-0_計極細
  6
CONTINUOUS
 62
    2
 10
442.73722627737197
 20
981.18678502224088
 11
442.73722627737197
 21
975.58678502224097
  0
LINE
  8
_0-0_計極細
  6
CONTINUOUS
 62
    2
 10
455.73722627737197
 20
981.18678502224088
 11
455.73722627737197
 21
975.58678502224097
  0
LINE
  8
_0-0_計極細
  6
CONTINUOUS
 62
    2
 10
442.73722627737197
 20
1066.5867850222428
 11
442.73722627737197
 21
1060.5867850222428
  0
LINE
  8
_0-0_計極細
  6
CONTINUOUS
 62
    2
 10
455.73722627737197
 20
1066.5867850222428
 11
455.73722627737197
 21
1060.5867850222428
  0
LINE
  8
_0-0_計極細
  6
CONTINUOUS
 62
    2
 10
442.73722627737197
 20
1083.9867850222429
 11
442.73722627737197
 21
1077.9867850222424
  0
LINE
  8
_0-0_計極細
  6
CONTINUOUS
 62
    2
 10
455.73722627737197
 20
1083.9867850222429
 11
455.73722627737197
 21
1077.9867850222424
  0
LINE
  8
_0-0_計極細
  6
CONTINUOUS
 62
    2
 10
442.73722627737197
 20
1015.1867850222422
 11
442.73722627737197
 21
1009.5867850222419
  0
LINE
  8
_0-0_計極細
  6
CONTINUOUS
 62
    2
 10
455.73722627737197
 20
1015.1867850222422
 11
455.73722627737197
 21
1009.5867850222419
  0
LINE
  8
_0-0_計極細
  6
CONTINUOUS
 62
    2
 10
442.73722627737197
 20
1032.1867850222432
 11
442.73722627737197
 21
1026.5867850222428
  0
LINE
  8
_0-0_計極細
  6
CONTINUOUS
 62
    2
 10
455.73722627737197
 20
1032.1867850222432
 11
455.73722627737197
 21
1026.5867850222428
  0
LINE
  8
_0-0_計極細
  6
CONTINUOUS
 62
    2
 10
442.73722627737197
 20
1049.1867850222436
 11
442.73722627737197
 21
1043.5867850222437
  0
LINE
  8
_0-0_計極細
  6
CONTINUOUS
 62
    2
 10
455.73722627737197
 20
1049.1867850222436
 11
455.73722627737197
 21
1043.5867850222437
  0
LINE
  8
_0-0_計極細
  6
CONTINUOUS
 62
    2
 10
442.73722627737197
 20
924.18678502224316
 11
442.73722627737197
 21
930.18678502224316
  0
LINE
  8
_0-0_計極細
  6
CONTINUOUS
 62
    2
 10
455.73722627737197
 20
924.18678502224316
 11
455.73722627737197
 21
930.18678502224316
  0
LINE
  8
_0-0_計極細
  6
CENTER1
 62
    2
 10
449.23722627737197
 20
1104.1375044467056
 11
449.23722627737197
 21
887.62896128123134
  0
LINE
  8
_0-0_計極細
  6
CONTINUOUS
 62
    2
 10
442.73722627737197
 20
906.78678502224261
 11
442.73722627737197
 21
912.78678502224261
  0
LINE
  8
_0-0_計極細
  6
CONTINUOUS
 62
    2
 10
455.73722627737197
 20
906.78678502224261
 11
455.73722627737197
 21
912.78678502224261
  0
LINE
  8
_0-0_計極細
  6
CONTINUOUS
 62
    2
 10
1218.737226277372
 20
941.5867850222437
 11
1218.737226277372
 21
947.18678502224407
  0
LINE
  8
_0-0_計極細
  6
CONTINUOUS
 62
    2
 10
1231.737226277372
 20
941.5867850222437
 11
1231.737226277372
 21
947.18678502224407
  0
LINE
  8
_0-0_計極細
  6
CONTINUOUS
 62
    2
 10
1218.737226277372
 20
958.58678502224461
 11
1218.737226277372
 21
964.18678502224498
  0
LINE
  8
_0-0_計極細
  6
CONTINUOUS
 62
    2
 10
1231.737226277372
 20
958.58678502224461
 11
1231.737226277372
 21
964.18678502224498
  0
LINE
  8
_0-0_計極細
  6
CONTINUOUS
 62
    2
 10
1218.737226277372
 20
981.18678502224088
 11
1218.737226277372
 21
975.58678502224097
  0
LINE
  8
_0-0_計極細
  6
CONTINUOUS
 62
    2
 10
1231.737226277372
 20
981.18678502224088
 11
1231.737226277372
 21
975.58678502224097
  0
LINE
  8
_0-0_計極細
  6
CONTINUOUS
 62
    2
 10
1218.737226277372
 20
998.18678502224134
 11
1218.737226277372
 21
992.58678502224143
  0
LINE
  8
_0-0_計極細
  6
CONTINUOUS
 62
    2
 10
1231.737226277372
 20
998.18678502224134
 11
1231.737226277372
 21
992.58678502224143
  0
LINE
  8
_0-0_計極細
  6
CONTINUOUS
 62
    2
 10
1218.737226277372
 20
1066.5867850222428
 11
1218.737226277372
 21
1060.5867850222428
  0
LINE
  8
_0-0_計極細
  6
CONTINUOUS
 62
    2
 10
1231.737226277372
 20
1066.5867850222428
 11
1231.737226277372
 21
1060.5867850222428
  0
LINE
  8
_0-0_計極細
  6
CONTINUOUS
 62
    2
 10
1218.737226277372
 20
1083.9867850222429
 11
1218.737226277372
 21
1077.9867850222424
  0
LINE
  8
_0-0_計極細
  6
CONTINUOUS
 62
    2
 10
1231.737226277372
 20
1083.9867850222429
 11
1231.737226277372
 21
1077.9867850222424
  0
LINE
  8
_0-0_計極細
  6
CONTINUOUS
 62
    2
 10
1218.737226277372
 20
1015.1867850222422
 11
1218.737226277372
 21
1009.5867850222419
  0
LINE
  8
_0-0_計極細
  6
CONTINUOUS
 62
    2
 10
1231.737226277372
 20
1015.1867850222422
 11
1231.737226277372
 21
1009.5867850222419
  0
LINE
  8
_0-0_計極細
  6
CONTINUOUS
 62
    2
 10
1218.737226277372
 20
1032.1867850222432
 11
1218.737226277372
 21
1026.5867850222428
  0
LINE
  8
_0-0_計極細
  6
CONTINUOUS
 62
    2
 10
1231.737226277372
 20
1032.1867850222432
 11
1231.737226277372
 21
1026.5867850222428
  0
LINE
  8
_0-0_計極細
  6
CONTINUOUS
 62
    2
 10
1218.737226277372
 20
1049.1867850222436
 11
1218.737226277372
 21
1043.5867850222437
  0
LINE
  8
_0-0_計極細
  6
CONTINUOUS
 62
    2
 10
1231.737226277372
 20
1049.1867850222436
 11
1231.737226277372
 21
1043.5867850222437
  0
LINE
  8
_0-0_計極細
  6
CONTINUOUS
 62
    2
 10
1218.737226277372
 20
924.18678502224316
 11
1218.737226277372
 21
930.18678502224316
  0
LINE
  8
_0-0_計極細
  6
CONTINUOUS
 62
    2
 10
1231.737226277372
 20
924.18678502224316
 11
1231.737226277372
 21
930.18678502224316
  0
LINE
  8
_0-0_計極細
  6
CENTER1
 62
    2
 10
1225.237226277372
 20
1104.1375044467056
 11
1225.237226277372
 21
887.62896128123134
  0
LINE
  8
_0-0_計極細
  6
CONTINUOUS
 62
    2
 10
1218.737226277372
 20
906.78678502224261
 11
1218.737226277372
 21
912.78678502224261
  0
LINE
  8
_0-0_計極細
  6
CONTINUOUS
 62
    2
 10
1231.737226277372
 20
906.78678502224261
 11
1231.737226277372
 21
912.78678502224261
  0
LINE
  8
_0-0_計極細
  6
CONTINUOUS
 62
    2
 10
491.23722627737197
 20
941.5867850222437
 11
491.23722627737197
 21
947.18678502224407
  0
LINE
  8
_0-0_計極細
  6
CONTINUOUS
 62
    2
 10
504.23722627737197
 20
941.5867850222437
 11
504.23722627737197
 21
947.18678502224407
  0
LINE
  8
_0-0_計極細
  6
CONTINUOUS
 62
    2
 10
491.23722627737197
 20
958.58678502224461
 11
491.23722627737197
 21
964.18678502224498
  0
LINE
  8
_0-0_計極細
  6
CONTINUOUS
 62
    2
 10
504.23722627737197
 20
958.58678502224461
 11
504.23722627737197
 21
964.18678502224498
  0
LINE
  8
_0-0_計極細
  6
CONTINUOUS
 62
    2
 10
491.23722627737197
 20
981.18678502224088
 11
491.23722627737197
 21
975.58678502224097
  0
LINE
  8
_0-0_計極細
  6
CONTINUOUS
 62
    2
 10
504.23722627737197
 20
981.18678502224088
 11
504.23722627737197
 21
975.58678502224097
  0
LINE
  8
_0-0_計極細
  6
CONTINUOUS
 62
    2
 10
491.23722627737197
 20
998.18678502224134
 11
491.23722627737197
 21
992.58678502224143
  0
LINE
  8
_0-0_計極細
  6
CONTINUOUS
 62
    2
 10
504.23722627737197
 20
998.18678502224134
 11
504.23722627737197
 21
992.58678502224143
  0
LINE
  8
_0-0_計極細
  6
CONTINUOUS
 62
    2
 10
491.23722627737197
 20
1066.5867850222428
 11
491.23722627737197
 21
1060.5867850222428
  0
LINE
  8
_0-0_計極細
  6
CONTINUOUS
 62
    2
 10
504.23722627737197
 20
1066.5867850222428
 11
504.23722627737197
 21
1060.5867850222428
  0
LINE
  8
_0-0_計極細
  6
CONTINUOUS
 62
    2
 10
491.23722627737197
 20
1083.9867850222429
 11
491.23722627737197
 21
1077.9867850222424
  0
LINE
  8
_0-0_計極細
  6
CONTINUOUS
 62
    2
 10
504.23722627737197
 20
1083.9867850222429
 11
504.23722627737197
 21
1077.9867850222424
  0
LINE
  8
_0-0_計極細
  6
CONTINUOUS
 62
    2
 10
491.23722627737197
 20
1015.1867850222422
 11
491.23722627737197
 21
1009.5867850222419
  0
LINE
  8
_0-0_計極細
  6
CONTINUOUS
 62
    2
 10
504.23722627737197
 20
1015.1867850222422
 11
504.23722627737197
 21
1009.5867850222419
  0
LINE
  8
_0-0_計極細
  6
CONTINUOUS
 62
    2
 10
491.23722627737197
 20
1032.1867850222432
 11
491.23722627737197
 21
1026.5867850222428
  0
LINE
  8
_0-0_計極細
  6
CONTINUOUS
 62
    2
 10
504.23722627737197
 20
1032.1867850222432
 11
504.23722627737197
 21
1026.5867850222428
  0
LINE
  8
_0-0_計極細
  6
CONTINUOUS
 62
    2
 10
491.23722627737197
 20
1049.1867850222436
 11
491.23722627737197
 21
1043.5867850222437
  0
LINE
  8
_0-0_計極細
  6
CONTINUOUS
 62
    2
 10
504.23722627737197
 20
1049.1867850222436
 11
504.23722627737197
 21
1043.5867850222437
  0
LINE
  8
_0-0_計極細
  6
CONTINUOUS
 62
    2
 10
491.23722627737197
 20
924.18678502224316
 11
491.23722627737197
 21
930.18678502224316
  0
LINE
  8
_0-0_計極細
  6
CONTINUOUS
 62
    2
 10
504.23722627737197
 20
924.18678502224316
 11
504.23722627737197
 21
930.18678502224316
  0
LINE
  8
_0-0_計極細
  6
CENTER1
 62
    2
 10
497.73722627737197
 20
1104.1375044467056
 11
497.73722627737197
 21
887.62896128123134
  0
LINE
  8
_0-0_計極細
  6
CONTINUOUS
 62
    2
 10
491.23722627737197
 20
906.78678502224261
 11
491.23722627737197
 21
912.78678502224261
  0
LINE
  8
_0-0_計極細
  6
CONTINUOUS
 62
    2
 10
504.23722627737197
 20
906.78678502224261
 11
504.23722627737197
 21
912.78678502224261
  0
LINE
  8
_0-0_計極細
  6
CONTINUOUS
 62
    2
 10
539.73722627737197
 20
941.5867850222437
 11
539.73722627737197
 21
947.18678502224407
  0
LINE
  8
_0-0_計極細
  6
CONTINUOUS
 62
    2
 10
552.73722627737197
 20
941.5867850222437
 11
552.73722627737197
 21
947.18678502224407
  0
LINE
  8
_0-0_計極細
  6
CONTINUOUS
 62
    2
 10
539.73722627737197
 20
958.58678502224461
 11
539.73722627737197
 21
964.18678502224498
  0
LINE
  8
_0-0_計極細
  6
CONTINUOUS
 62
    2
 10
552.73722627737197
 20
958.58678502224461
 11
552.73722627737197
 21
964.18678502224498
  0
LINE
  8
_0-0_計極細
  6
CONTINUOUS
 62
    2
 10
539.73722627737197
 20
981.18678502224088
 11
539.73722627737197
 21
975.58678502224097
  0
LINE
  8
_0-0_計極細
  6
CONTINUOUS
 62
    2
 10
552.73722627737197
 20
981.18678502224088
 11
552.73722627737197
 21
975.58678502224097
  0
LINE
  8
_0-0_計極細
  6
CONTINUOUS
 62
    2
 10
539.73722627737197
 20
998.18678502224134
 11
539.73722627737197
 21
992.58678502224143
  0
LINE
  8
_0-0_計極細
  6
CONTINUOUS
 62
    2
 10
552.73722627737197
 20
998.18678502224134
 11
552.73722627737197
 21
992.58678502224143
  0
LINE
  8
_0-0_計極細
  6
CONTINUOUS
 62
    2
 10
539.73722627737197
 20
1066.5867850222428
 11
539.73722627737197
 21
1060.5867850222428
  0
LINE
  8
_0-0_計極細
  6
CONTINUOUS
 62
    2
 10
552.73722627737197
 20
1066.5867850222428
 11
552.73722627737197
 21
1060.5867850222428
  0
LINE
  8
_0-0_計極細
  6
CONTINUOUS
 62
    2
 10
539.73722627737197
 20
1083.9867850222429
 11
539.73722627737197
 21
1077.9867850222424
  0
LINE
  8
_0-0_計極細
  6
CONTINUOUS
 62
    2
 10
552.73722627737197
 20
1083.9867850222429
 11
552.73722627737197
 21
1077.9867850222424
  0
LINE
  8
_0-0_計極細
  6
CONTINUOUS
 62
    2
 10
539.73722627737197
 20
1015.1867850222422
 11
539.73722627737197
 21
1009.5867850222419
  0
LINE
  8
_0-0_計極細
  6
CONTINUOUS
 62
    2
 10
552.73722627737197
 20
1015.1867850222422
 11
552.73722627737197
 21
1009.5867850222419
  0
LINE
  8
_0-0_計極細
  6
CONTINUOUS
 62
    2
 10
539.73722627737197
 20
1032.1867850222432
 11
539.73722627737197
 21
1026.5867850222428
  0
LINE
  8
_0-0_計極細
  6
CONTINUOUS
 62
    2
 10
552.73722627737197
 20
1032.1867850222432
 11
552.73722627737197
 21
1026.5867850222428
  0
LINE
  8
_0-0_計極細
  6
CONTINUOUS
 62
    2
 10
539.73722627737197
 20
1049.1867850222436
 11
539.73722627737197
 21
1043.5867850222437
  0
LINE
  8
_0-0_計極細
  6
CONTINUOUS
 62
    2
 10
552.73722627737197
 20
1049.1867850222436
 11
552.73722627737197
 21
1043.5867850222437
  0
LINE
  8
_0-0_計極細
  6
CONTINUOUS
 62
    2
 10
539.73722627737197
 20
924.18678502224316
 11
539.73722627737197
 21
930.18678502224316
  0
LINE
  8
_0-0_計極細
  6
CONTINUOUS
 62
    2
 10
552.73722627737197
 20
924.18678502224316
 11
552.73722627737197
 21
930.18678502224316
  0
LINE
  8
_0-0_計極細
  6
CENTER1
 62
    2
 10
546.23722627737197
 20
1104.1375044467056
 11
546.23722627737197
 21
887.62896128123134
  0
LINE
  8
_0-0_計極細
  6
CONTINUOUS
 62
    2
 10
539.73722627737197
 20
906.78678502224261
 11
539.73722627737197
 21
912.78678502224261
  0
LINE
  8
_0-0_計極細
  6
CONTINUOUS
 62
    2
 10
552.73722627737197
 20
906.78678502224261
 11
552.73722627737197
 21
912.78678502224261
  0
LINE
  8
_0-0_計極細
  6
CONTINUOUS
 62
    2
 10
588.23722627737197
 20
941.5867850222437
 11
588.23722627737197
 21
947.18678502224407
  0
LINE
  8
_0-0_計極細
  6
CONTINUOUS
 62
    2
 10
601.23722627737197
 20
941.5867850222437
 11
601.23722627737197
 21
947.18678502224407
  0
LINE
  8
_0-0_計極細
  6
CONTINUOUS
 62
    2
 10
588.23722627737197
 20
958.58678502224461
 11
588.23722627737197
 21
964.18678502224498
  0
LINE
  8
_0-0_計極細
  6
CONTINUOUS
 62
    2
 10
601.23722627737197
 20
958.58678502224461
 11
601.23722627737197
 21
964.18678502224498
  0
LINE
  8
_0-0_計極細
  6
CONTINUOUS
 62
    2
 10
588.23722627737197
 20
981.18678502224088
 11
588.23722627737197
 21
975.58678502224097
  0
LINE
  8
_0-0_計極細
  6
CONTINUOUS
 62
    2
 10
601.23722627737197
 20
981.18678502224088
 11
601.23722627737197
 21
975.58678502224097
  0
LINE
  8
_0-0_計極細
  6
CONTINUOUS
 62
    2
 10
588.23722627737197
 20
998.18678502224134
 11
588.23722627737197
 21
992.58678502224143
  0
LINE
  8
_0-0_計極細
  6
CONTINUOUS
 62
    2
 10
601.23722627737197
 20
998.18678502224134
 11
601.23722627737197
 21
992.58678502224143
  0
LINE
  8
_0-0_計極細
  6
CONTINUOUS
 62
    2
 10
588.23722627737197
 20
1066.5867850222428
 11
588.23722627737197
 21
1060.5867850222428
  0
LINE
  8
_0-0_計極細
  6
CONTINUOUS
 62
    2
 10
601.23722627737197
 20
1066.5867850222428
 11
601.23722627737197
 21
1060.5867850222428
  0
LINE
  8
_0-0_計極細
  6
CONTINUOUS
 62
    2
 10
588.23722627737197
 20
1083.9867850222429
 11
588.23722627737197
 21
1077.9867850222424
  0
LINE
  8
_0-0_計極細
  6
CONTINUOUS
 62
    2
 10
601.23722627737197
 20
1083.9867850222429
 11
601.23722627737197
 21
1077.9867850222424
  0
LINE
  8
_0-0_計極細
  6
CONTINUOUS
 62
    2
 10
588.23722627737197
 20
1015.1867850222422
 11
588.23722627737197
 21
1009.5867850222419
  0
LINE
  8
_0-0_計極細
  6
CONTINUOUS
 62
    2
 10
601.23722627737197
 20
1015.1867850222422
 11
601.23722627737197
 21
1009.5867850222419
  0
LINE
  8
_0-0_計極細
  6
CONTINUOUS
 62
    2
 10
588.23722627737197
 20
1032.1867850222432
 11
588.23722627737197
 21
1026.5867850222428
  0
LINE
  8
_0-0_計極細
  6
CONTINUOUS
 62
    2
 10
601.23722627737197
 20
1032.1867850222432
 11
601.23722627737197
 21
1026.5867850222428
  0
LINE
  8
_0-0_計極細
  6
CONTINUOUS
 62
    2
 10
588.23722627737197
 20
1049.1867850222436
 11
588.23722627737197
 21
1043.5867850222437
  0
LINE
  8
_0-0_計極細
  6
CONTINUOUS
 62
    2
 10
601.23722627737197
 20
1049.1867850222436
 11
601.23722627737197
 21
1043.5867850222437
  0
LINE
  8
_0-0_計極細
  6
CONTINUOUS
 62
    2
 10
588.23722627737197
 20
924.18678502224316
 11
588.23722627737197
 21
930.18678502224316
  0
LINE
  8
_0-0_計極細
  6
CONTINUOUS
 62
    2
 10
601.23722627737197
 20
924.18678502224316
 11
601.23722627737197
 21
930.18678502224316
  0
LINE
  8
_0-0_計極細
  6
CENTER1
 62
    2
 10
594.73722627737197
 20
1104.1375044467056
 11
594.73722627737197
 21
887.62896128123134
  0
LINE
  8
_0-0_計極細
  6
CONTINUOUS
 62
    2
 10
588.23722627737197
 20
906.78678502224261
 11
588.23722627737197
 21
912.78678502224261
  0
LINE
  8
_0-0_計極細
  6
CONTINUOUS
 62
    2
 10
601.23722627737197
 20
906.78678502224261
 11
601.23722627737197
 21
912.78678502224261
  0
LINE
  8
_0-0_計極細
  6
CONTINUOUS
 62
    2
 10
636.73722627737197
 20
941.5867850222437
 11
636.73722627737197
 21
947.18678502224407
  0
LINE
  8
_0-0_計極細
  6
CONTINUOUS
 62
    2
 10
649.73722627737197
 20
941.5867850222437
 11
649.73722627737197
 21
947.18678502224407
  0
LINE
  8
_0-0_計極細
  6
CONTINUOUS
 62
    2
 10
636.73722627737197
 20
958.58678502224461
 11
636.73722627737197
 21
964.18678502224498
  0
LINE
  8
_0-0_計極細
  6
CONTINUOUS
 62
    2
 10
649.73722627737197
 20
958.58678502224461
 11
649.73722627737197
 21
964.18678502224498
  0
LINE
  8
_0-0_計極細
  6
CONTINUOUS
 62
    2
 10
636.73722627737197
 20
981.18678502224088
 11
636.73722627737197
 21
975.58678502224097
  0
LINE
  8
_0-0_計極細
  6
CONTINUOUS
 62
    2
 10
649.73722627737197
 20
981.18678502224088
 11
649.73722627737197
 21
975.58678502224097
  0
LINE
  8
_0-0_計極細
  6
CONTINUOUS
 62
    2
 10
636.73722627737197
 20
998.18678502224134
 11
636.73722627737197
 21
992.58678502224143
  0
LINE
  8
_0-0_計極細
  6
CONTINUOUS
 62
    2
 10
649.73722627737197
 20
998.18678502224134
 11
649.73722627737197
 21
992.58678502224143
  0
LINE
  8
_0-0_計極細
  6
CONTINUOUS
 62
    2
 10
636.73722627737197
 20
1066.5867850222428
 11
636.73722627737197
 21
1060.5867850222428
  0
LINE
  8
_0-0_計極細
  6
CONTINUOUS
 62
    2
 10
649.73722627737197
 20
1066.5867850222428
 11
649.73722627737197
 21
1060.5867850222428
  0
LINE
  8
_0-0_計極細
  6
CONTINUOUS
 62
    2
 10
636.73722627737197
 20
1083.9867850222429
 11
636.73722627737197
 21
1077.9867850222424
  0
LINE
  8
_0-0_計極細
  6
CONTINUOUS
 62
    2
 10
649.73722627737197
 20
1083.9867850222429
 11
649.73722627737197
 21
1077.9867850222424
  0
LINE
  8
_0-0_計極細
  6
CONTINUOUS
 62
    2
 10
636.73722627737197
 20
1015.1867850222422
 11
636.73722627737197
 21
1009.5867850222419
  0
LINE
  8
_0-0_計極細
  6
CONTINUOUS
 62
    2
 10
649.73722627737197
 20
1015.1867850222422
 11
649.73722627737197
 21
1009.5867850222419
  0
LINE
  8
_0-0_計極細
  6
CONTINUOUS
 62
    2
 10
636.73722627737197
 20
1032.1867850222432
 11
636.73722627737197
 21
1026.5867850222428
  0
LINE
  8
_0-0_計極細
  6
CONTINUOUS
 62
    2
 10
649.73722627737197
 20
1032.1867850222432
 11
649.73722627737197
 21
1026.5867850222428
  0
LINE
  8
_0-0_計極細
  6
CONTINUOUS
 62
    2
 10
636.73722627737197
 20
1049.1867850222436
 11
636.73722627737197
 21
1043.5867850222437
  0
LINE
  8
_0-0_計極細
  6
CONTINUOUS
 62
    2
 10
649.73722627737197
 20
1049.1867850222436
 11
649.73722627737197
 21
1043.5867850222437
  0
LINE
  8
_0-0_計極細
  6
CONTINUOUS
 62
    2
 10
636.73722627737197
 20
924.18678502224316
 11
636.73722627737197
 21
930.18678502224316
  0
LINE
  8
_0-0_計極細
  6
CONTINUOUS
 62
    2
 10
649.73722627737197
 20
924.18678502224316
 11
649.73722627737197
 21
930.18678502224316
  0
LINE
  8
_0-0_計極細
  6
CENTER1
 62
    2
 10
643.23722627737197
 20
1104.1375044467056
 11
643.23722627737197
 21
887.62896128123134
  0
LINE
  8
_0-0_計極細
  6
CONTINUOUS
 62
    2
 10
636.73722627737197
 20
906.78678502224261
 11
636.73722627737197
 21
912.78678502224261
  0
LINE
  8
_0-0_計極細
  6
CONTINUOUS
 62
    2
 10
649.73722627737197
 20
906.78678502224261
 11
649.73722627737197
 21
912.78678502224261
  0
LINE
  8
_0-0_計極細
  6
CONTINUOUS
 62
    2
 10
685.23722627737197
 20
941.5867850222437
 11
685.23722627737197
 21
947.18678502224407
  0
LINE
  8
_0-0_計極細
  6
CONTINUOUS
 62
    2
 10
698.23722627737197
 20
941.5867850222437
 11
698.23722627737197
 21
947.18678502224407
  0
LINE
  8
_0-0_計極細
  6
CONTINUOUS
 62
    2
 10
685.23722627737197
 20
958.58678502224461
 11
685.23722627737197
 21
964.18678502224498
  0
LINE
  8
_0-0_計極細
  6
CONTINUOUS
 62
    2
 10
698.23722627737197
 20
958.58678502224461
 11
698.23722627737197
 21
964.18678502224498
  0
LINE
  8
_0-0_計極細
  6
CONTINUOUS
 62
    2
 10
685.23722627737197
 20
981.18678502224088
 11
685.23722627737197
 21
975.58678502224097
  0
LINE
  8
_0-0_計極細
  6
CONTINUOUS
 62
    2
 10
698.23722627737197
 20
981.18678502224088
 11
698.23722627737197
 21
975.58678502224097
  0
LINE
  8
_0-0_計極細
  6
CONTINUOUS
 62
    2
 10
685.23722627737197
 20
998.18678502224134
 11
685.23722627737197
 21
992.58678502224143
  0
LINE
  8
_0-0_計極細
  6
CONTINUOUS
 62
    2
 10
698.23722627737197
 20
998.18678502224134
 11
698.23722627737197
 21
992.58678502224143
  0
LINE
  8
_0-0_計極細
  6
CONTINUOUS
 62
    2
 10
685.23722627737197
 20
1066.5867850222428
 11
685.23722627737197
 21
1060.5867850222428
  0
LINE
  8
_0-0_計極細
  6
CONTINUOUS
 62
    2
 10
698.23722627737197
 20
1066.5867850222428
 11
698.23722627737197
 21
1060.5867850222428
  0
LINE
  8
_0-0_計極細
  6
CONTINUOUS
 62
    2
 10
685.23722627737197
 20
1083.9867850222429
 11
685.23722627737197
 21
1077.9867850222424
  0
LINE
  8
_0-0_計極細
  6
CONTINUOUS
 62
    2
 10
698.23722627737197
 20
1083.9867850222429
 11
698.23722627737197
 21
1077.9867850222424
  0
LINE
  8
_0-0_計極細
  6
CONTINUOUS
 62
    2
 10
685.23722627737197
 20
1015.1867850222422
 11
685.23722627737197
 21
1009.5867850222419
  0
LINE
  8
_0-0_計極細
  6
CONTINUOUS
 62
    2
 10
698.23722627737197
 20
1015.1867850222422
 11
698.23722627737197
 21
1009.5867850222419
  0
LINE
  8
_0-0_計極細
  6
CONTINUOUS
 62
    2
 10
685.23722627737197
 20
1032.1867850222432
 11
685.23722627737197
 21
1026.5867850222428
  0
LINE
  8
_0-0_計極細
  6
CONTINUOUS
 62
    2
 10
698.23722627737197
 20
1032.1867850222432
 11
698.23722627737197
 21
1026.5867850222428
  0
LINE
  8
_0-0_計極細
  6
CONTINUOUS
 62
    2
 10
685.23722627737197
 20
1049.1867850222436
 11
685.23722627737197
 21
1043.5867850222437
  0
LINE
  8
_0-0_計極細
  6
CONTINUOUS
 62
    2
 10
698.23722627737197
 20
1049.1867850222436
 11
698.23722627737197
 21
1043.5867850222437
  0
LINE
  8
_0-0_計極細
  6
CONTINUOUS
 62
    2
 10
685.23722627737197
 20
924.18678502224316
 11
685.23722627737197
 21
930.18678502224316
  0
LINE
  8
_0-0_計極細
  6
CONTINUOUS
 62
    2
 10
698.23722627737197
 20
924.18678502224316
 11
698.23722627737197
 21
930.18678502224316
  0
LINE
  8
_0-0_計極細
  6
CENTER1
 62
    2
 10
691.73722627737197
 20
1104.1375044467056
 11
691.73722627737197
 21
887.62896128123134
  0
LINE
  8
_0-0_計極細
  6
CONTINUOUS
 62
    2
 10
685.23722627737197
 20
906.78678502224261
 11
685.23722627737197
 21
912.78678502224261
  0
LINE
  8
_0-0_計極細
  6
CONTINUOUS
 62
    2
 10
698.23722627737197
 20
906.78678502224261
 11
698.23722627737197
 21
912.78678502224261
  0
LINE
  8
_0-0_計極細
  6
CONTINUOUS
 62
    2
 10
733.73722627737197
 20
941.5867850222437
 11
733.73722627737197
 21
947.18678502224407
  0
LINE
  8
_0-0_計極細
  6
CONTINUOUS
 62
    2
 10
746.73722627737197
 20
941.5867850222437
 11
746.73722627737197
 21
947.18678502224407
  0
LINE
  8
_0-0_計極細
  6
CONTINUOUS
 62
    2
 10
733.73722627737197
 20
958.58678502224461
 11
733.73722627737197
 21
964.18678502224498
  0
LINE
  8
_0-0_計極細
  6
CONTINUOUS
 62
    2
 10
746.73722627737197
 20
958.58678502224461
 11
746.73722627737197
 21
964.18678502224498
  0
LINE
  8
_0-0_計極細
  6
CONTINUOUS
 62
    2
 10
733.73722627737197
 20
981.18678502224088
 11
733.73722627737197
 21
975.58678502224097
  0
LINE
  8
_0-0_計極細
  6
CONTINUOUS
 62
    2
 10
746.73722627737197
 20
981.18678502224088
 11
746.73722627737197
 21
975.58678502224097
  0
LINE
  8
_0-0_計極細
  6
CONTINUOUS
 62
    2
 10
733.73722627737197
 20
998.18678502224134
 11
733.73722627737197
 21
992.58678502224143
  0
LINE
  8
_0-0_計極細
  6
CONTINUOUS
 62
    2
 10
746.73722627737197
 20
998.18678502224134
 11
746.73722627737197
 21
992.58678502224143
  0
LINE
  8
_0-0_計極細
  6
CONTINUOUS
 62
    2
 10
733.73722627737197
 20
1066.5867850222428
 11
733.73722627737197
 21
1060.5867850222428
  0
LINE
  8
_0-0_計極細
  6
CONTINUOUS
 62
    2
 10
746.73722627737197
 20
1066.5867850222428
 11
746.73722627737197
 21
1060.5867850222428
  0
LINE
  8
_0-0_計極細
  6
CONTINUOUS
 62
    2
 10
733.73722627737197
 20
1083.9867850222429
 11
733.73722627737197
 21
1077.9867850222424
  0
LINE
  8
_0-0_計極細
  6
CONTINUOUS
 62
    2
 10
746.73722627737197
 20
1083.9867850222429
 11
746.73722627737197
 21
1077.9867850222424
  0
LINE
  8
_0-0_計極細
  6
CONTINUOUS
 62
    2
 10
733.73722627737197
 20
1015.1867850222422
 11
733.73722627737197
 21
1009.5867850222419
  0
LINE
  8
_0-0_計極細
  6
CONTINUOUS
 62
    2
 10
746.73722627737197
 20
1015.1867850222422
 11
746.73722627737197
 21
1009.5867850222419
  0
LINE
  8
_0-0_計極細
  6
CONTINUOUS
 62
    2
 10
733.73722627737197
 20
1032.1867850222432
 11
733.73722627737197
 21
1026.5867850222428
  0
LINE
  8
_0-0_計極細
  6
CONTINUOUS
 62
    2
 10
746.73722627737197
 20
1032.1867850222432
 11
746.73722627737197
 21
1026.5867850222428
  0
LINE
  8
_0-0_計極細
  6
CONTINUOUS
 62
    2
 10
733.73722627737197
 20
1049.1867850222436
 11
733.73722627737197
 21
1043.5867850222437
  0
LINE
  8
_0-0_計極細
  6
CONTINUOUS
 62
    2
 10
746.73722627737197
 20
1049.1867850222436
 11
746.73722627737197
 21
1043.5867850222437
  0
LINE
  8
_0-0_計極細
  6
CONTINUOUS
 62
    2
 10
733.73722627737197
 20
924.18678502224316
 11
733.73722627737197
 21
930.18678502224316
  0
LINE
  8
_0-0_計極細
  6
CONTINUOUS
 62
    2
 10
746.73722627737197
 20
924.18678502224316
 11
746.73722627737197
 21
930.18678502224316
  0
LINE
  8
_0-0_計極細
  6
CENTER1
 62
    2
 10
740.23722627737197
 20
1104.1375044467056
 11
740.23722627737197
 21
887.62896128123134
  0
LINE
  8
_0-0_計極細
  6
CONTINUOUS
 62
    2
 10
733.73722627737197
 20
906.78678502224261
 11
733.73722627737197
 21
912.78678502224261
  0
LINE
  8
_0-0_計極細
  6
CONTINUOUS
 62
    2
 10
746.73722627737197
 20
906.78678502224261
 11
746.73722627737197
 21
912.78678502224261
  0
LINE
  8
_0-0_計極細
  6
CONTINUOUS
 62
    2
 10
782.23722627737197
 20
941.5867850222437
 11
782.23722627737197
 21
947.18678502224407
  0
LINE
  8
_0-0_計極細
  6
CONTINUOUS
 62
    2
 10
795.23722627737197
 20
941.5867850222437
 11
795.23722627737197
 21
947.18678502224407
  0
LINE
  8
_0-0_計極細
  6
CONTINUOUS
 62
    2
 10
782.23722627737197
 20
958.58678502224461
 11
782.23722627737197
 21
964.18678502224498
  0
LINE
  8
_0-0_計極細
  6
CONTINUOUS
 62
    2
 10
795.23722627737197
 20
958.58678502224461
 11
795.23722627737197
 21
964.18678502224498
  0
LINE
  8
_0-0_計極細
  6
CONTINUOUS
 62
    2
 10
782.23722627737197
 20
981.18678502224088
 11
782.23722627737197
 21
975.58678502224097
  0
LINE
  8
_0-0_計極細
  6
CONTINUOUS
 62
    2
 10
795.23722627737197
 20
981.18678502224088
 11
795.23722627737197
 21
975.58678502224097
  0
LINE
  8
_0-0_計極細
  6
CONTINUOUS
 62
    2
 10
782.23722627737197
 20
998.18678502224134
 11
782.23722627737197
 21
992.58678502224143
  0
LINE
  8
_0-0_計極細
  6
CONTINUOUS
 62
    2
 10
795.23722627737197
 20
998.18678502224134
 11
795.23722627737197
 21
992.58678502224143
  0
LINE
  8
_0-0_計極細
  6
CONTINUOUS
 62
    2
 10
782.23722627737197
 20
1066.5867850222428
 11
782.23722627737197
 21
1060.5867850222428
  0
LINE
  8
_0-0_計極細
  6
CONTINUOUS
 62
    2
 10
795.23722627737197
 20
1066.5867850222428
 11
795.23722627737197
 21
1060.5867850222428
  0
LINE
  8
_0-0_計極細
  6
CONTINUOUS
 62
    2
 10
782.23722627737197
 20
1083.9867850222429
 11
782.23722627737197
 21
1077.9867850222424
  0
LINE
  8
_0-0_計極細
  6
CONTINUOUS
 62
    2
 10
795.23722627737197
 20
1083.9867850222429
 11
795.23722627737197
 21
1077.9867850222424
  0
LINE
  8
_0-0_計極細
  6
CONTINUOUS
 62
    2
 10
782.23722627737197
 20
1015.1867850222422
 11
782.23722627737197
 21
1009.5867850222419
  0
LINE
  8
_0-0_計極細
  6
CONTINUOUS
 62
    2
 10
795.23722627737197
 20
1015.1867850222422
 11
795.23722627737197
 21
1009.5867850222419
  0
LINE
  8
_0-0_計極細
  6
CONTINUOUS
 62
    2
 10
782.23722627737197
 20
1032.1867850222432
 11
782.23722627737197
 21
1026.5867850222428
  0
LINE
  8
_0-0_計極細
  6
CONTINUOUS
 62
    2
 10
795.23722627737197
 20
1032.1867850222432
 11
795.23722627737197
 21
1026.5867850222428
  0
LINE
  8
_0-0_計極細
  6
CONTINUOUS
 62
    2
 10
782.23722627737197
 20
1049.1867850222436
 11
782.23722627737197
 21
1043.5867850222437
  0
LINE
  8
_0-0_計極細
  6
CONTINUOUS
 62
    2
 10
795.23722627737197
 20
1049.1867850222436
 11
795.23722627737197
 21
1043.5867850222437
  0
LINE
  8
_0-0_計極細
  6
CONTINUOUS
 62
    2
 10
782.23722627737197
 20
924.18678502224316
 11
782.23722627737197
 21
930.18678502224316
  0
LINE
  8
_0-0_計極細
  6
CONTINUOUS
 62
    2
 10
795.23722627737197
 20
924.18678502224316
 11
795.23722627737197
 21
930.18678502224316
  0
LINE
  8
_0-0_計極細
  6
CENTER1
 62
    2
 10
788.73722627737197
 20
1104.1375044467056
 11
788.73722627737197
 21
887.62896128123134
  0
LINE
  8
_0-0_計極細
  6
CONTINUOUS
 62
    2
 10
782.23722627737197
 20
906.78678502224261
 11
782.23722627737197
 21
912.78678502224261
  0
LINE
  8
_0-0_計極細
  6
CONTINUOUS
 62
    2
 10
795.23722627737197
 20
906.78678502224261
 11
795.23722627737197
 21
912.78678502224261
  0
LINE
  8
_0-0_計極細
  6
CONTINUOUS
 62
    2
 10
830.73722627737197
 20
941.5867850222437
 11
830.73722627737197
 21
947.18678502224407
  0
LINE
  8
_0-0_計極細
  6
CONTINUOUS
 62
    2
 10
843.73722627737197
 20
941.5867850222437
 11
843.73722627737197
 21
947.18678502224407
  0
LINE
  8
_0-0_計極細
  6
CONTINUOUS
 62
    2
 10
830.73722627737197
 20
958.58678502224461
 11
830.73722627737197
 21
964.18678502224498
  0
LINE
  8
_0-0_計極細
  6
CONTINUOUS
 62
    2
 10
843.73722627737197
 20
958.58678502224461
 11
843.73722627737197
 21
964.18678502224498
  0
LINE
  8
_0-0_計極細
  6
CONTINUOUS
 62
    2
 10
830.73722627737197
 20
981.18678502224088
 11
830.73722627737197
 21
975.58678502224097
  0
LINE
  8
_0-0_計極細
  6
CONTINUOUS
 62
    2
 10
843.73722627737197
 20
981.18678502224088
 11
843.73722627737197
 21
975.58678502224097
  0
LINE
  8
_0-0_計極細
  6
CONTINUOUS
 62
    2
 10
830.73722627737197
 20
998.18678502224134
 11
830.73722627737197
 21
992.58678502224143
  0
LINE
  8
_0-0_計極細
  6
CONTINUOUS
 62
    2
 10
843.73722627737197
 20
998.18678502224134
 11
843.73722627737197
 21
992.58678502224143
  0
LINE
  8
_0-0_計極細
  6
CONTINUOUS
 62
    2
 10
830.73722627737197
 20
1066.5867850222428
 11
830.73722627737197
 21
1060.5867850222428
  0
LINE
  8
_0-0_計極細
  6
CONTINUOUS
 62
    2
 10
843.73722627737197
 20
1066.5867850222428
 11
843.73722627737197
 21
1060.5867850222428
  0
LINE
  8
_0-0_計極細
  6
CONTINUOUS
 62
    2
 10
830.73722627737197
 20
1083.9867850222429
 11
830.73722627737197
 21
1077.9867850222424
  0
LINE
  8
_0-0_計極細
  6
CONTINUOUS
 62
    2
 10
843.73722627737197
 20
1083.9867850222429
 11
843.73722627737197
 21
1077.9867850222424
  0
LINE
  8
_0-0_計極細
  6
CONTINUOUS
 62
    2
 10
830.73722627737197
 20
1015.1867850222422
 11
830.73722627737197
 21
1009.5867850222419
  0
LINE
  8
_0-0_計極細
  6
CONTINUOUS
 62
    2
 10
843.73722627737197
 20
1015.1867850222422
 11
843.73722627737197
 21
1009.5867850222419
  0
LINE
  8
_0-0_計極細
  6
CONTINUOUS
 62
    2
 10
830.73722627737197
 20
1032.1867850222432
 11
830.73722627737197
 21
1026.5867850222428
  0
LINE
  8
_0-0_計極細
  6
CONTINUOUS
 62
    2
 10
843.73722627737197
 20
1032.1867850222432
 11
843.73722627737197
 21
1026.5867850222428
  0
LINE
  8
_0-0_計極細
  6
CONTINUOUS
 62
    2
 10
830.73722627737197
 20
1049.1867850222436
 11
830.73722627737197
 21
1043.5867850222437
  0
LINE
  8
_0-0_計極細
  6
CONTINUOUS
 62
    2
 10
843.73722627737197
 20
1049.1867850222436
 11
843.73722627737197
 21
1043.5867850222437
  0
LINE
  8
_0-0_計極細
  6
CONTINUOUS
 62
    2
 10
830.73722627737197
 20
924.18678502224316
 11
830.73722627737197
 21
930.18678502224316
  0
LINE
  8
_0-0_計極細
  6
CONTINUOUS
 62
    2
 10
843.73722627737197
 20
924.18678502224316
 11
843.73722627737197
 21
930.18678502224316
  0
LINE
  8
_0-0_計極細
  6
CENTER1
 62
    2
 10
837.23722627737197
 20
1104.1375044467056
 11
837.23722627737197
 21
887.62896128123134
  0
LINE
  8
_0-0_計極細
  6
CONTINUOUS
 62
    2
 10
830.73722627737197
 20
906.78678502224261
 11
830.73722627737197
 21
912.78678502224261
  0
LINE
  8
_0-0_計極細
  6
CONTINUOUS
 62
    2
 10
843.73722627737197
 20
906.78678502224261
 11
843.73722627737197
 21
912.78678502224261
  0
LINE
  8
_0-0_計極細
  6
CONTINUOUS
 62
    2
 10
879.23722627737197
 20
941.5867850222437
 11
879.23722627737197
 21
947.18678502224407
  0
LINE
  8
_0-0_計極細
  6
CONTINUOUS
 62
    2
 10
892.23722627737197
 20
941.5867850222437
 11
892.23722627737197
 21
947.18678502224407
  0
LINE
  8
_0-0_計極細
  6
CONTINUOUS
 62
    2
 10
879.23722627737197
 20
958.58678502224461
 11
879.23722627737197
 21
964.18678502224498
  0
LINE
  8
_0-0_計極細
  6
CONTINUOUS
 62
    2
 10
892.23722627737197
 20
958.58678502224461
 11
892.23722627737197
 21
964.18678502224498
  0
LINE
  8
_0-0_計極細
  6
CONTINUOUS
 62
    2
 10
879.23722627737197
 20
981.18678502224088
 11
879.23722627737197
 21
975.58678502224097
  0
LINE
  8
_0-0_計極細
  6
CONTINUOUS
 62
    2
 10
892.23722627737197
 20
981.18678502224088
 11
892.23722627737197
 21
975.58678502224097
  0
LINE
  8
_0-0_計極細
  6
CONTINUOUS
 62
    2
 10
879.23722627737197
 20
998.18678502224134
 11
879.23722627737197
 21
992.58678502224143
  0
LINE
  8
_0-0_計極細
  6
CONTINUOUS
 62
    2
 10
892.23722627737197
 20
998.18678502224134
 11
892.23722627737197
 21
992.58678502224143
  0
LINE
  8
_0-0_計極細
  6
CONTINUOUS
 62
    2
 10
879.23722627737197
 20
1066.5867850222428
 11
879.23722627737197
 21
1060.5867850222428
  0
LINE
  8
_0-0_計極細
  6
CONTINUOUS
 62
    2
 10
892.23722627737197
 20
1066.5867850222428
 11
892.23722627737197
 21
1060.5867850222428
  0
LINE
  8
_0-0_計極細
  6
CONTINUOUS
 62
    2
 10
879.23722627737197
 20
1083.9867850222429
 11
879.23722627737197
 21
1077.9867850222424
  0
LINE
  8
_0-0_計極細
  6
CONTINUOUS
 62
    2
 10
892.23722627737197
 20
1083.9867850222429
 11
892.23722627737197
 21
1077.9867850222424
  0
LINE
  8
_0-0_計極細
  6
CONTINUOUS
 62
    2
 10
879.23722627737197
 20
1015.1867850222422
 11
879.23722627737197
 21
1009.5867850222419
  0
LINE
  8
_0-0_計極細
  6
CONTINUOUS
 62
    2
 10
892.23722627737197
 20
1015.1867850222422
 11
892.23722627737197
 21
1009.5867850222419
  0
LINE
  8
_0-0_計極細
  6
CONTINUOUS
 62
    2
 10
879.23722627737197
 20
1032.1867850222432
 11
879.23722627737197
 21
1026.5867850222428
  0
LINE
  8
_0-0_計極細
  6
CONTINUOUS
 62
    2
 10
892.23722627737197
 20
1032.1867850222432
 11
892.23722627737197
 21
1026.5867850222428
  0
LINE
  8
_0-0_計極細
  6
CONTINUOUS
 62
    2
 10
879.23722627737197
 20
1049.1867850222436
 11
879.23722627737197
 21
1043.5867850222437
  0
LINE
  8
_0-0_計極細
  6
CONTINUOUS
 62
    2
 10
892.23722627737197
 20
1049.1867850222436
 11
892.23722627737197
 21
1043.5867850222437
  0
LINE
  8
_0-0_計極細
  6
CONTINUOUS
 62
    2
 10
879.23722627737197
 20
924.18678502224316
 11
879.23722627737197
 21
930.18678502224316
  0
LINE
  8
_0-0_計極細
  6
CONTINUOUS
 62
    2
 10
892.23722627737197
 20
924.18678502224316
 11
892.23722627737197
 21
930.18678502224316
  0
LINE
  8
_0-0_計極細
  6
CENTER1
 62
    2
 10
885.73722627737197
 20
1104.1375044467056
 11
885.73722627737197
 21
887.62896128123134
  0
LINE
  8
_0-0_計極細
  6
CONTINUOUS
 62
    2
 10
879.23722627737197
 20
906.78678502224261
 11
879.23722627737197
 21
912.78678502224261
  0
LINE
  8
_0-0_計極細
  6
CONTINUOUS
 62
    2
 10
892.23722627737197
 20
906.78678502224261
 11
892.23722627737197
 21
912.78678502224261
  0
LINE
  8
_0-0_計極細
  6
CONTINUOUS
 62
    2
 10
976.23722627737197
 20
941.5867850222437
 11
976.23722627737197
 21
947.18678502224407
  0
LINE
  8
_0-0_計極細
  6
CONTINUOUS
 62
    2
 10
989.23722627737197
 20
941.5867850222437
 11
989.23722627737197
 21
947.18678502224407
  0
LINE
  8
_0-0_計極細
  6
CONTINUOUS
 62
    2
 10
976.23722627737197
 20
958.58678502224461
 11
976.23722627737197
 21
964.18678502224498
  0
LINE
  8
_0-0_計極細
  6
CONTINUOUS
 62
    2
 10
989.23722627737197
 20
958.58678502224461
 11
989.23722627737197
 21
964.18678502224498
  0
LINE
  8
_0-0_計極細
  6
CONTINUOUS
 62
    2
 10
976.23722627737197
 20
981.18678502224088
 11
976.23722627737197
 21
975.58678502224097
  0
LINE
  8
_0-0_計極細
  6
CONTINUOUS
 62
    2
 10
989.23722627737197
 20
981.18678502224088
 11
989.23722627737197
 21
975.58678502224097
  0
LINE
  8
_0-0_計極細
  6
CONTINUOUS
 62
    2
 10
976.23722627737197
 20
998.18678502224134
 11
976.23722627737197
 21
992.58678502224143
  0
LINE
  8
_0-0_計極細
  6
CONTINUOUS
 62
    2
 10
989.23722627737197
 20
998.18678502224134
 11
989.23722627737197
 21
992.58678502224143
  0
LINE
  8
_0-0_計極細
  6
CONTINUOUS
 62
    2
 10
976.23722627737197
 20
1066.5867850222428
 11
976.23722627737197
 21
1060.5867850222428
  0
LINE
  8
_0-0_計極細
  6
CONTINUOUS
 62
    2
 10
989.23722627737197
 20
1066.5867850222428
 11
989.23722627737197
 21
1060.5867850222428
  0
LINE
  8
_0-0_計極細
  6
CONTINUOUS
 62
    2
 10
976.23722627737197
 20
1083.9867850222429
 11
976.23722627737197
 21
1077.9867850222424
  0
LINE
  8
_0-0_計極細
  6
CONTINUOUS
 62
    2
 10
989.23722627737197
 20
1083.9867850222429
 11
989.23722627737197
 21
1077.9867850222424
  0
LINE
  8
_0-0_計極細
  6
CONTINUOUS
 62
    2
 10
976.23722627737197
 20
1015.1867850222422
 11
976.23722627737197
 21
1009.5867850222419
  0
LINE
  8
_0-0_計極細
  6
CONTINUOUS
 62
    2
 10
989.23722627737197
 20
1015.1867850222422
 11
989.23722627737197
 21
1009.5867850222419
  0
LINE
  8
_0-0_計極細
  6
CONTINUOUS
 62
    2
 10
976.23722627737197
 20
1032.1867850222432
 11
976.23722627737197
 21
1026.5867850222428
  0
LINE
  8
_0-0_計極細
  6
CONTINUOUS
 62
    2
 10
989.23722627737197
 20
1032.1867850222432
 11
989.23722627737197
 21
1026.5867850222428
  0
LINE
  8
_0-0_計極細
  6
CONTINUOUS
 62
    2
 10
976.23722627737197
 20
1049.1867850222436
 11
976.23722627737197
 21
1043.5867850222437
  0
LINE
  8
_0-0_計極細
  6
CONTINUOUS
 62
    2
 10
989.23722627737197
 20
1049.1867850222436
 11
989.23722627737197
 21
1043.5867850222437
  0
LINE
  8
_0-0_計極細
  6
CONTINUOUS
 62
    2
 10
976.23722627737197
 20
924.18678502224316
 11
976.23722627737197
 21
930.18678502224316
  0
LINE
  8
_0-0_計極細
  6
CONTINUOUS
 62
    2
 10
989.23722627737197
 20
924.18678502224316
 11
989.23722627737197
 21
930.18678502224316
  0
LINE
  8
_0-0_計極細
  6
CENTER1
 62
    2
 10
982.73722627737197
 20
1104.1375044467056
 11
982.73722627737197
 21
887.62896128123134
  0
LINE
  8
_0-0_計極細
  6
CONTINUOUS
 62
    2
 10
976.23722627737197
 20
906.78678502224261
 11
976.23722627737197
 21
912.78678502224261
  0
LINE
  8
_0-0_計極細
  6
CONTINUOUS
 62
    2
 10
989.23722627737197
 20
906.78678502224261
 11
989.23722627737197
 21
912.78678502224261
  0
LINE
  8
_0-0_計極細
  6
CONTINUOUS
 62
    2
 10
927.73722627737197
 20
941.5867850222437
 11
927.73722627737197
 21
947.18678502224407
  0
LINE
  8
_0-0_計極細
  6
CONTINUOUS
 62
    2
 10
940.73722627737197
 20
941.5867850222437
 11
940.73722627737197
 21
947.18678502224407
  0
LINE
  8
_0-0_計極細
  6
CONTINUOUS
 62
    2
 10
927.73722627737197
 20
958.58678502224461
 11
927.73722627737197
 21
964.18678502224498
  0
LINE
  8
_0-0_計極細
  6
CONTINUOUS
 62
    2
 10
940.73722627737197
 20
958.58678502224461
 11
940.73722627737197
 21
964.18678502224498
  0
LINE
  8
_0-0_計極細
  6
CONTINUOUS
 62
    2
 10
927.73722627737197
 20
981.18678502224088
 11
927.73722627737197
 21
975.58678502224097
  0
LINE
  8
_0-0_計極細
  6
CONTINUOUS
 62
    2
 10
940.73722627737197
 20
981.18678502224088
 11
940.73722627737197
 21
975.58678502224097
  0
LINE
  8
_0-0_計極細
  6
CONTINUOUS
 62
    2
 10
927.73722627737197
 20
998.18678502224134
 11
927.73722627737197
 21
992.58678502224143
  0
LINE
  8
_0-0_計極細
  6
CONTINUOUS
 62
    2
 10
940.73722627737197
 20
998.18678502224134
 11
940.73722627737197
 21
992.58678502224143
  0
LINE
  8
_0-0_計極細
  6
CONTINUOUS
 62
    2
 10
927.73722627737197
 20
1066.5867850222428
 11
927.73722627737197
 21
1060.5867850222428
  0
LINE
  8
_0-0_計極細
  6
CONTINUOUS
 62
    2
 10
940.73722627737197
 20
1066.5867850222428
 11
940.73722627737197
 21
1060.5867850222428
  0
LINE
  8
_0-0_計極細
  6
CONTINUOUS
 62
    2
 10
927.73722627737197
 20
1083.9867850222429
 11
927.73722627737197
 21
1077.9867850222424
  0
LINE
  8
_0-0_計極細
  6
CONTINUOUS
 62
    2
 10
940.73722627737197
 20
1083.9867850222429
 11
940.73722627737197
 21
1077.9867850222424
  0
LINE
  8
_0-0_計極細
  6
CONTINUOUS
 62
    2
 10
927.73722627737197
 20
1015.1867850222422
 11
927.73722627737197
 21
1009.5867850222419
  0
LINE
  8
_0-0_計極細
  6
CONTINUOUS
 62
    2
 10
940.73722627737197
 20
1015.1867850222422
 11
940.73722627737197
 21
1009.5867850222419
  0
LINE
  8
_0-0_計極細
  6
CONTINUOUS
 62
    2
 10
927.73722627737197
 20
1032.1867850222432
 11
927.73722627737197
 21
1026.5867850222428
  0
LINE
  8
_0-0_計極細
  6
CONTINUOUS
 62
    2
 10
940.73722627737197
 20
1032.1867850222432
 11
940.73722627737197
 21
1026.5867850222428
  0
LINE
  8
_0-0_計極細
  6
CONTINUOUS
 62
    2
 10
927.73722627737197
 20
1049.1867850222436
 11
927.73722627737197
 21
1043.5867850222437
  0
LINE
  8
_0-0_計極細
  6
CONTINUOUS
 62
    2
 10
940.73722627737197
 20
1049.1867850222436
 11
940.73722627737197
 21
1043.5867850222437
  0
LINE
  8
_0-0_計極細
  6
CONTINUOUS
 62
    2
 10
927.73722627737197
 20
924.18678502224316
 11
927.73722627737197
 21
930.18678502224316
  0
LINE
  8
_0-0_計極細
  6
CONTINUOUS
 62
    2
 10
940.73722627737197
 20
924.18678502224316
 11
940.73722627737197
 21
930.18678502224316
  0
LINE
  8
_0-0_計極細
  6
CENTER1
 62
    2
 10
934.23722627737197
 20
1104.1375044467056
 11
934.23722627737197
 21
887.62896128123134
  0
LINE
  8
_0-0_計極細
  6
CONTINUOUS
 62
    2
 10
927.73722627737197
 20
906.78678502224261
 11
927.73722627737197
 21
912.78678502224261
  0
LINE
  8
_0-0_計極細
  6
CONTINUOUS
 62
    2
 10
940.73722627737197
 20
906.78678502224261
 11
940.73722627737197
 21
912.78678502224261
  0
LINE
  8
_0-0_計極細
  6
CONTINUOUS
 62
    2
 10
1024.737226277372
 20
941.5867850222437
 11
1024.737226277372
 21
947.18678502224407
  0
LINE
  8
_0-0_計極細
  6
CONTINUOUS
 62
    2
 10
1037.737226277372
 20
941.5867850222437
 11
1037.737226277372
 21
947.18678502224407
  0
LINE
  8
_0-0_計極細
  6
CONTINUOUS
 62
    2
 10
1024.737226277372
 20
958.58678502224461
 11
1024.737226277372
 21
964.18678502224498
  0
LINE
  8
_0-0_計極細
  6
CONTINUOUS
 62
    2
 10
1037.737226277372
 20
958.58678502224461
 11
1037.737226277372
 21
964.18678502224498
  0
LINE
  8
_0-0_計極細
  6
CONTINUOUS
 62
    2
 10
1024.737226277372
 20
981.18678502224088
 11
1024.737226277372
 21
975.58678502224097
  0
LINE
  8
_0-0_計極細
  6
CONTINUOUS
 62
    2
 10
1037.737226277372
 20
981.18678502224088
 11
1037.737226277372
 21
975.58678502224097
  0
LINE
  8
_0-0_計極細
  6
CONTINUOUS
 62
    2
 10
1024.737226277372
 20
998.18678502224134
 11
1024.737226277372
 21
992.58678502224143
  0
LINE
  8
_0-0_計極細
  6
CONTINUOUS
 62
    2
 10
1037.737226277372
 20
998.18678502224134
 11
1037.737226277372
 21
992.58678502224143
  0
LINE
  8
_0-0_計極細
  6
CONTINUOUS
 62
    2
 10
1024.737226277372
 20
1066.5867850222428
 11
1024.737226277372
 21
1060.5867850222428
  0
LINE
  8
_0-0_計極細
  6
CONTINUOUS
 62
    2
 10
1037.737226277372
 20
1066.5867850222428
 11
1037.737226277372
 21
1060.5867850222428
  0
LINE
  8
_0-0_計極細
  6
CONTINUOUS
 62
    2
 10
1024.737226277372
 20
1083.9867850222429
 11
1024.737226277372
 21
1077.9867850222424
  0
LINE
  8
_0-0_計極細
  6
CONTINUOUS
 62
    2
 10
1037.737226277372
 20
1083.9867850222429
 11
1037.737226277372
 21
1077.9867850222424
  0
LINE
  8
_0-0_計極細
  6
CONTINUOUS
 62
    2
 10
1024.737226277372
 20
1015.1867850222422
 11
1024.737226277372
 21
1009.5867850222419
  0
LINE
  8
_0-0_計極細
  6
CONTINUOUS
 62
    2
 10
1037.737226277372
 20
1015.1867850222422
 11
1037.737226277372
 21
1009.5867850222419
  0
LINE
  8
_0-0_計極細
  6
CONTINUOUS
 62
    2
 10
1024.737226277372
 20
1032.1867850222432
 11
1024.737226277372
 21
1026.5867850222428
  0
LINE
  8
_0-0_計極細
  6
CONTINUOUS
 62
    2
 10
1037.737226277372
 20
1032.1867850222432
 11
1037.737226277372
 21
1026.5867850222428
  0
LINE
  8
_0-0_計極細
  6
CONTINUOUS
 62
    2
 10
1024.737226277372
 20
1049.1867850222436
 11
1024.737226277372
 21
1043.5867850222437
  0
LINE
  8
_0-0_計極細
  6
CONTINUOUS
 62
    2
 10
1037.737226277372
 20
1049.1867850222436
 11
1037.737226277372
 21
1043.5867850222437
  0
LINE
  8
_0-0_計極細
  6
CONTINUOUS
 62
    2
 10
1024.737226277372
 20
924.18678502224316
 11
1024.737226277372
 21
930.18678502224316
  0
LINE
  8
_0-0_計極細
  6
CONTINUOUS
 62
    2
 10
1037.737226277372
 20
924.18678502224316
 11
1037.737226277372
 21
930.18678502224316
  0
LINE
  8
_0-0_計極細
  6
CENTER1
 62
    2
 10
1031.237226277372
 20
1104.1375044467056
 11
1031.237226277372
 21
887.62896128123134
  0
LINE
  8
_0-0_計極細
  6
CONTINUOUS
 62
    2
 10
1024.737226277372
 20
906.78678502224261
 11
1024.737226277372
 21
912.78678502224261
  0
LINE
  8
_0-0_計極細
  6
CONTINUOUS
 62
    2
 10
1037.737226277372
 20
906.78678502224261
 11
1037.737226277372
 21
912.78678502224261
  0
LINE
  8
_0-0_計極細
  6
CONTINUOUS
 62
    2
 10
1073.237226277372
 20
941.5867850222437
 11
1073.237226277372
 21
947.18678502224407
  0
LINE
  8
_0-0_計極細
  6
CONTINUOUS
 62
    2
 10
1086.237226277372
 20
941.5867850222437
 11
1086.237226277372
 21
947.18678502224407
  0
LINE
  8
_0-0_計極細
  6
CONTINUOUS
 62
    2
 10
1073.237226277372
 20
958.58678502224461
 11
1073.237226277372
 21
964.18678502224498
  0
LINE
  8
_0-0_計極細
  6
CONTINUOUS
 62
    2
 10
1086.237226277372
 20
958.58678502224461
 11
1086.237226277372
 21
964.18678502224498
  0
LINE
  8
_0-0_計極細
  6
CONTINUOUS
 62
    2
 10
1073.237226277372
 20
981.18678502224088
 11
1073.237226277372
 21
975.58678502224097
  0
LINE
  8
_0-0_計極細
  6
CONTINUOUS
 62
    2
 10
1086.237226277372
 20
981.18678502224088
 11
1086.237226277372
 21
975.58678502224097
  0
LINE
  8
_0-0_計極細
  6
CONTINUOUS
 62
    2
 10
1073.237226277372
 20
998.18678502224134
 11
1073.237226277372
 21
992.58678502224143
  0
LINE
  8
_0-0_計極細
  6
CONTINUOUS
 62
    2
 10
1086.237226277372
 20
998.18678502224134
 11
1086.237226277372
 21
992.58678502224143
  0
LINE
  8
_0-0_計極細
  6
CONTINUOUS
 62
    2
 10
1073.237226277372
 20
1066.5867850222428
 11
1073.237226277372
 21
1060.5867850222428
  0
LINE
  8
_0-0_計極細
  6
CONTINUOUS
 62
    2
 10
1086.237226277372
 20
1066.5867850222428
 11
1086.237226277372
 21
1060.5867850222428
  0
LINE
  8
_0-0_計極細
  6
CONTINUOUS
 62
    2
 10
1073.237226277372
 20
1083.9867850222429
 11
1073.237226277372
 21
1077.9867850222424
  0
LINE
  8
_0-0_計極細
  6
CONTINUOUS
 62
    2
 10
1086.237226277372
 20
1083.9867850222429
 11
1086.237226277372
 21
1077.9867850222424
  0
LINE
  8
_0-0_計極細
  6
CONTINUOUS
 62
    2
 10
1073.237226277372
 20
1015.1867850222422
 11
1073.237226277372
 21
1009.5867850222419
  0
LINE
  8
_0-0_計極細
  6
CONTINUOUS
 62
    2
 10
1086.237226277372
 20
1015.1867850222422
 11
1086.237226277372
 21
1009.5867850222419
  0
LINE
  8
_0-0_計極細
  6
CONTINUOUS
 62
    2
 10
1073.237226277372
 20
1032.1867850222432
 11
1073.237226277372
 21
1026.5867850222428
  0
LINE
  8
_0-0_計極細
  6
CONTINUOUS
 62
    2
 10
1086.237226277372
 20
1032.1867850222432
 11
1086.237226277372
 21
1026.5867850222428
  0
LINE
  8
_0-0_計極細
  6
CONTINUOUS
 62
    2
 10
1073.237226277372
 20
1049.1867850222436
 11
1073.237226277372
 21
1043.5867850222437
  0
LINE
  8
_0-0_計極細
  6
CONTINUOUS
 62
    2
 10
1086.237226277372
 20
1049.1867850222436
 11
1086.237226277372
 21
1043.5867850222437
  0
LINE
  8
_0-0_計極細
  6
CONTINUOUS
 62
    2
 10
1073.237226277372
 20
924.18678502224316
 11
1073.237226277372
 21
930.18678502224316
  0
LINE
  8
_0-0_計極細
  6
CONTINUOUS
 62
    2
 10
1086.237226277372
 20
924.18678502224316
 11
1086.237226277372
 21
930.18678502224316
  0
LINE
  8
_0-0_計極細
  6
CENTER1
 62
    2
 10
1079.737226277372
 20
1104.1375044467056
 11
1079.737226277372
 21
887.62896128123134
  0
LINE
  8
_0-0_計極細
  6
CONTINUOUS
 62
    2
 10
1073.237226277372
 20
906.78678502224261
 11
1073.237226277372
 21
912.78678502224261
  0
LINE
  8
_0-0_計極細
  6
CONTINUOUS
 62
    2
 10
1086.237226277372
 20
906.78678502224261
 11
1086.237226277372
 21
912.78678502224261
  0
LINE
  8
_0-0_計極細
  6
CONTINUOUS
 62
    2
 10
1121.737226277372
 20
941.5867850222437
 11
1121.737226277372
 21
947.18678502224407
  0
LINE
  8
_0-0_計極細
  6
CONTINUOUS
 62
    2
 10
1134.737226277372
 20
941.5867850222437
 11
1134.737226277372
 21
947.18678502224407
  0
LINE
  8
_0-0_計極細
  6
CONTINUOUS
 62
    2
 10
1121.737226277372
 20
958.58678502224461
 11
1121.737226277372
 21
964.18678502224498
  0
LINE
  8
_0-0_計極細
  6
CONTINUOUS
 62
    2
 10
1134.737226277372
 20
958.58678502224461
 11
1134.737226277372
 21
964.18678502224498
  0
LINE
  8
_0-0_計極細
  6
CONTINUOUS
 62
    2
 10
1121.737226277372
 20
981.18678502224088
 11
1121.737226277372
 21
975.58678502224097
  0
LINE
  8
_0-0_計極細
  6
CONTINUOUS
 62
    2
 10
1134.737226277372
 20
981.18678502224088
 11
1134.737226277372
 21
975.58678502224097
  0
LINE
  8
_0-0_計極細
  6
CONTINUOUS
 62
    2
 10
1121.737226277372
 20
998.18678502224134
 11
1121.737226277372
 21
992.58678502224143
  0
LINE
  8
_0-0_計極細
  6
CONTINUOUS
 62
    2
 10
1134.737226277372
 20
998.18678502224134
 11
1134.737226277372
 21
992.58678502224143
  0
LINE
  8
_0-0_計極細
  6
CONTINUOUS
 62
    2
 10
1121.737226277372
 20
1066.5867850222428
 11
1121.737226277372
 21
1060.5867850222428
  0
LINE
  8
_0-0_計極細
  6
CONTINUOUS
 62
    2
 10
1134.737226277372
 20
1066.5867850222428
 11
1134.737226277372
 21
1060.5867850222428
  0
LINE
  8
_0-0_計極細
  6
CONTINUOUS
 62
    2
 10
1121.737226277372
 20
1083.9867850222429
 11
1121.737226277372
 21
1077.9867850222424
  0
LINE
  8
_0-0_計極細
  6
CONTINUOUS
 62
    2
 10
1134.737226277372
 20
1083.9867850222429
 11
1134.737226277372
 21
1077.9867850222424
  0
LINE
  8
_0-0_計極細
  6
CONTINUOUS
 62
    2
 10
1121.737226277372
 20
1015.1867850222422
 11
1121.737226277372
 21
1009.5867850222419
  0
LINE
  8
_0-0_計極細
  6
CONTINUOUS
 62
    2
 10
1134.737226277372
 20
1015.1867850222422
 11
1134.737226277372
 21
1009.5867850222419
  0
LINE
  8
_0-0_計極細
  6
CONTINUOUS
 62
    2
 10
1121.737226277372
 20
1032.1867850222432
 11
1121.737226277372
 21
1026.5867850222428
  0
LINE
  8
_0-0_計極細
  6
CONTINUOUS
 62
    2
 10
1134.737226277372
 20
1032.1867850222432
 11
1134.737226277372
 21
1026.5867850222428
  0
LINE
  8
_0-0_計極細
  6
CONTINUOUS
 62
    2
 10
1121.737226277372
 20
1049.1867850222436
 11
1121.737226277372
 21
1043.5867850222437
  0
LINE
  8
_0-0_計極細
  6
CONTINUOUS
 62
    2
 10
1134.737226277372
 20
1049.1867850222436
 11
1134.737226277372
 21
1043.5867850222437
  0
LINE
  8
_0-0_計極細
  6
CONTINUOUS
 62
    2
 10
1121.737226277372
 20
924.18678502224316
 11
1121.737226277372
 21
930.18678502224316
  0
LINE
  8
_0-0_計極細
  6
CONTINUOUS
 62
    2
 10
1134.737226277372
 20
924.18678502224316
 11
1134.737226277372
 21
930.18678502224316
  0
LINE
  8
_0-0_計極細
  6
CENTER1
 62
    2
 10
1128.237226277372
 20
1104.1375044467056
 11
1128.237226277372
 21
887.62896128123134
  0
LINE
  8
_0-0_計極細
  6
CONTINUOUS
 62
    2
 10
1121.737226277372
 20
906.78678502224261
 11
1121.737226277372
 21
912.78678502224261
  0
LINE
  8
_0-0_計極細
  6
CONTINUOUS
 62
    2
 10
1134.737226277372
 20
906.78678502224261
 11
1134.737226277372
 21
912.78678502224261
  0
LINE
  8
_0-0_計極細
  6
CONTINUOUS
 62
    2
 10
1170.237226277372
 20
941.5867850222437
 11
1170.237226277372
 21
947.18678502224407
  0
LINE
  8
_0-0_計極細
  6
CONTINUOUS
 62
    2
 10
1183.237226277372
 20
941.5867850222437
 11
1183.237226277372
 21
947.18678502224407
  0
LINE
  8
_0-0_計極細
  6
CONTINUOUS
 62
    2
 10
1170.237226277372
 20
958.58678502224461
 11
1170.237226277372
 21
964.18678502224498
  0
LINE
  8
_0-0_計極細
  6
CONTINUOUS
 62
    2
 10
1183.237226277372
 20
958.58678502224461
 11
1183.237226277372
 21
964.18678502224498
  0
LINE
  8
_0-0_計極細
  6
CONTINUOUS
 62
    2
 10
1170.237226277372
 20
981.18678502224088
 11
1170.237226277372
 21
975.58678502224097
  0
LINE
  8
_0-0_計極細
  6
CONTINUOUS
 62
    2
 10
1183.237226277372
 20
981.18678502224088
 11
1183.237226277372
 21
975.58678502224097
  0
LINE
  8
_0-0_計極細
  6
CONTINUOUS
 62
    2
 10
1170.237226277372
 20
998.18678502224134
 11
1170.237226277372
 21
992.58678502224143
  0
LINE
  8
_0-0_計極細
  6
CONTINUOUS
 62
    2
 10
1183.237226277372
 20
998.18678502224134
 11
1183.237226277372
 21
992.58678502224143
  0
LINE
  8
_0-0_計極細
  6
CONTINUOUS
 62
    2
 10
1170.237226277372
 20
1066.5867850222428
 11
1170.237226277372
 21
1060.5867850222428
  0
LINE
  8
_0-0_計極細
  6
CONTINUOUS
 62
    2
 10
1183.237226277372
 20
1066.5867850222428
 11
1183.237226277372
 21
1060.5867850222428
  0
LINE
  8
_0-0_計極細
  6
CONTINUOUS
 62
    2
 10
1170.237226277372
 20
1083.9867850222429
 11
1170.237226277372
 21
1077.9867850222424
  0
LINE
  8
_0-0_計極細
  6
CONTINUOUS
 62
    2
 10
1183.237226277372
 20
1083.9867850222429
 11
1183.237226277372
 21
1077.9867850222424
  0
LINE
  8
_0-0_計極細
  6
CONTINUOUS
 62
    2
 10
1170.237226277372
 20
1015.1867850222422
 11
1170.237226277372
 21
1009.5867850222419
  0
LINE
  8
_0-0_計極細
  6
CONTINUOUS
 62
    2
 10
1183.237226277372
 20
1015.1867850222422
 11
1183.237226277372
 21
1009.5867850222419
  0
LINE
  8
_0-0_計極細
  6
CONTINUOUS
 62
    2
 10
1170.237226277372
 20
1032.1867850222432
 11
1170.237226277372
 21
1026.5867850222428
  0
LINE
  8
_0-0_計極細
  6
CONTINUOUS
 62
    2
 10
1183.237226277372
 20
1032.1867850222432
 11
1183.237226277372
 21
1026.5867850222428
  0
LINE
  8
_0-0_計極細
  6
CONTINUOUS
 62
    2
 10
1170.237226277372
 20
1049.1867850222436
 11
1170.237226277372
 21
1043.5867850222437
  0
LINE
  8
_0-0_計極細
  6
CONTINUOUS
 62
    2
 10
1183.237226277372
 20
1049.1867850222436
 11
1183.237226277372
 21
1043.5867850222437
  0
LINE
  8
_0-0_計極細
  6
CONTINUOUS
 62
    2
 10
1170.237226277372
 20
924.18678502224316
 11
1170.237226277372
 21
930.18678502224316
  0
LINE
  8
_0-0_計極細
  6
CONTINUOUS
 62
    2
 10
1183.237226277372
 20
924.18678502224316
 11
1183.237226277372
 21
930.18678502224316
  0
LINE
  8
_0-0_計極細
  6
CENTER1
 62
    2
 10
1176.737226277372
 20
1104.1375044467056
 11
1176.737226277372
 21
887.62896128123134
  0
LINE
  8
_0-0_計極細
  6
CONTINUOUS
 62
    2
 10
1170.237226277372
 20
906.78678502224261
 11
1170.237226277372
 21
912.78678502224261
  0
LINE
  8
_0-0_計極細
  6
CONTINUOUS
 62
    2
 10
1183.237226277372
 20
906.78678502224261
 11
1183.237226277372
 21
912.78678502224261
  0
LINE
  8
_0-1_計細線
  6
CONTINUOUS
 62
    3
 10
337.73722627737197
 20
1009.5867850222419
 11
1336.737226277372
 21
1009.5867850222419
  0
LINE
  8
_0-1_計細線
  6
CONTINUOUS
 62
    3
 10
1336.737226277372
 20
1009.5867850222419
 11
1336.737226277372
 21
998.18678502224134
  0
LINE
  8
_0-0_計極細
  6
CONTINUOUS
 62
    2
 10
337.73722627737197
 20
1001.3867850222421
 11
1336.737226277372
 21
1001.3867850222421
  0
LINE
  8
_0-0_計極細
  6
CONTINUOUS
 62
    2
 10
337.73722627737197
 20
1006.3867850222421
 11
1336.737226277372
 21
1006.3867850222421
  0
LINE
  8
_0-1_計細線
  6
CONTINUOUS
 62
    3
 10
337.73722627737197
 20
998.18678502224134
 11
1336.737226277372
 21
998.18678502224134
  0
LINE
  8
_0-1_計細線
  6
CONTINUOUS
 62
    3
 10
337.73722627737197
 20
1009.5867850222419
 11
337.73722627737197
 21
998.18678502224134
  0
LINE
  8
_0-1_計細線
  6
CONTINUOUS
 62
    3
 10
337.73722627737197
 20
981.18678502224088
 11
1336.737226277372
 21
981.18678502224088
  0
LINE
  8
_0-1_計細線
  6
CONTINUOUS
 62
    3
 10
1336.737226277372
 20
992.58678502224143
 11
1336.737226277372
 21
981.18678502224088
  0
LINE
  8
_0-0_計極細
  6
CONTINUOUS
 62
    2
 10
337.73722627737197
 20
984.38678502224116
 11
1336.737226277372
 21
984.38678502224116
  0
LINE
  8
_0-0_計極細
  6
CONTINUOUS
 62
    2
 10
337.73722627737197
 20
989.38678502224116
 11
1336.737226277372
 21
989.38678502224116
  0
LINE
  8
_0-1_計細線
  6
CONTINUOUS
 62
    3
 10
337.73722627737197
 20
992.58678502224143
 11
337.73722627737197
 21
981.18678502224088
  0
LINE
  8
_0-1_計細線
  6
CONTINUOUS
 62
    3
 10
337.73722627737197
 20
992.58678502224143
 11
1336.737226277372
 21
992.58678502224143
  0
LINE
  8
_0-0_計極細
  6
CONTINUOUS
 62
    2
 10
442.73722627737197
 20
998.18678502224134
 11
442.73722627737197
 21
997.73678502224334
  0
LINE
  8
_0-0_計極細
  6
CONTINUOUS
 62
    2
 10
442.73722627737197
 20
993.03678502224352
 11
442.73722627737197
 21
992.58678502224143
  0
LINE
  8
_0-0_計極細
  6
CONTINUOUS
 62
    2
 10
455.73722627737197
 20
998.18678502224134
 11
455.73722627737197
 21
997.73678502224334
  0
LINE
  8
_0-0_計極細
  6
CONTINUOUS
 62
    2
 10
455.73722627737197
 20
993.03678502224352
 11
455.73722627737197
 21
992.58678502224143
  0
LINE
  8
_0-5_寸法線
  6
CONTINUOUS
 62
    7
 10
300.23722627737016
 20
1100.3867850222425
 11
249.73722627737197
 21
1100.3867850222425
  0
LINE
  8
_0-5_寸法線
  6
CONTINUOUS
 62
    7
 10
257.73722627737197
 20
1100.3867850222425
 11
261.87833099901229
 21
1084.9319718016175
  0
LINE
  8
_0-5_寸法線
  6
CONTINUOUS
 62
    7
 10
257.73722627737197
 20
1100.3867850222425
 11
253.59612155573166
 21
1084.9319718016175
  0
LINE
  8
_0-5_寸法線
  6
CONTINUOUS
 62
    7
 10
300.23722627737288
 20
1070.3867850222425
 11
249.73722627737197
 21
1070.3867850222425
  0
LINE
  8
_0-5_寸法線
  6
CONTINUOUS
 62
    7
 10
257.73722627737197
 20
1070.3867850222425
 11
253.59612155573166
 21
1085.8415982428676
  0
LINE
  8
_0-5_寸法線
  6
CONTINUOUS
 62
    7
 10
257.73722627737197
 20
1070.3867850222425
 11
261.87833099901241
 21
1085.8415982428676
  0
LINE
  8
_0-5_寸法線
  6
CONTINUOUS
 62
    7
 10
257.73722627737197
 20
1100.3867850222425
 11
257.73722627737197
 21
1070.3867850222425
  0
TEXT
  8
_0-5_寸法線
 62
    7
 10
257.73722627737106
 20
1073.3867850222425
 40
24
 41
1
 50
90
  1
30
  0
LINE
  8
_0-5_寸法線
  6
CONTINUOUS
 62
    7
 10
257.73722627737197
 20
1070.3867850222425
 11
261.87833099901241
 21
1054.9319718016175
  0
LINE
  8
_0-5_寸法線
  6
CONTINUOUS
 62
    7
 10
257.73722627737197
 20
1070.3867850222425
 11
253.59612155573166
 21
1054.9319718016175
  0
LINE
  8
_0-5_寸法線
  6
CONTINUOUS
 62
    7
 10
300.23722627737016
 20
920.38678502224298
 11
249.73722627737197
 21
920.38678502224298
  0
LINE
  8
_0-5_寸法線
  6
CONTINUOUS
 62
    7
 10
257.73722627737197
 20
920.38678502224298
 11
253.59612155573166
 21
935.84159824286803
  0
LINE
  8
_0-5_寸法線
  6
CONTINUOUS
 62
    7
 10
257.73722627737197
 20
920.38678502224298
 11
261.87833099901241
 21
935.84159824286803
  0
LINE
  8
_0-5_寸法線
  6
CONTINUOUS
 62
    7
 10
257.73722627737197
 20
1070.3867850222425
 11
257.73722627737197
 21
920.38678502224298
  0
TEXT
  8
_0-5_寸法線
 62
    7
 10
257.73722627737197
 20
977.38678502224298
 40
24
 41
1
 50
89.999999999999815
  1
150
  0
LINE
  8
_0-5_寸法線
  6
CONTINUOUS
 62
    7
 10
257.73722627737197
 20
920.38678502224298
 11
261.87833099901241
 21
904.93197180161792
  0
LINE
  8
_0-5_寸法線
  6
CONTINUOUS
 62
    7
 10
257.73722627737197
 20
920.38678502224298
 11
253.59612155573166
 21
904.93197180161792
  0
LINE
  8
_0-5_寸法線
  6
CONTINUOUS
 62
    7
 10
300.23722627737561
 20
890.3867850222457
 11
249.73722627737197
 21
890.3867850222457
  0
LINE
  8
_0-5_寸法線
  6
CONTINUOUS
 62
    7
 10
257.73722627737197
 20
890.3867850222457
 11
253.59612155573166
 21
905.84159824287076
  0
LINE
  8
_0-5_寸法線
  6
CONTINUOUS
 62
    7
 10
257.73722627737197
 20
890.3867850222457
 11
261.87833099901241
 21
905.84159824287076
  0
LINE
  8
_0-5_寸法線
  6
CONTINUOUS
 62
    7
 10
257.73722627737197
 20
920.38678502224298
 11
257.73722627737197
 21
890.3867850222457
  0
TEXT
  8
_0-5_寸法線
 62
    7
 10
257.73722627737197
 20
893.38678502224434
 40
24
 41
1
 50
90
  1
30
  0
LINE
  8
_0-5_寸法線
  6
CONTINUOUS
 62
    7
 10
1374.237226277372
 20
1100.3867850222425
 11
1480.737226277372
 21
1100.3867850222425
  0
LINE
  8
_0-5_寸法線
  6
CONTINUOUS
 62
    7
 10
1472.737226277372
 20
1100.3867850222425
 11
1476.8783309990122
 21
1084.9319718016175
  0
LINE
  8
_0-5_寸法線
  6
CONTINUOUS
 62
    7
 10
1472.737226277372
 20
1100.3867850222425
 11
1468.5961215557315
 21
1084.9319718016175
  0
LINE
  8
_0-5_寸法線
  6
CONTINUOUS
 62
    7
 10
1374.2372262773711
 20
890.38678502223934
 11
1480.7372262773729
 21
890.38678502223934
  0
LINE
  8
_0-5_寸法線
  6
CONTINUOUS
 62
    7
 10
1472.7372262773729
 20
890.38678502223934
 11
1468.5961215557325
 21
905.84159824286439
  0
LINE
  8
_0-5_寸法線
  6
CONTINUOUS
 62
    7
 10
1472.7372262773729
 20
890.38678502223934
 11
1476.8783309990131
 21
905.84159824286439
  0
LINE
  8
_0-5_寸法線
  6
CONTINUOUS
 62
    7
 10
1472.737226277372
 20
1100.3867850222425
 11
1472.7372262773729
 21
890.38678502223934
  0
TEXT
  8
_0-5_寸法線
 62
    7
 10
1472.7372262773729
 20
977.38678502224116
 40
24
 41
1
 50
90
  1
210
  0
LINE
  8
_0-5_寸法線
  6
CONTINUOUS
 62
    7
 10
1416.737226277372
 20
1100.3867850222425
 11
1412.5961215557318
 21
1115.8415982428676
  0
LINE
  8
_0-5_寸法線
  6
CONTINUOUS
 62
    7
 10
1416.737226277372
 20
1100.3867850222425
 11
1420.8783309990124
 21
1115.8415982428676
  0
LINE
  8
_0-5_寸法線
  6
CONTINUOUS
 62
    7
 10
1374.237226277372
 20
1097.3867850222425
 11
1424.737226277372
 21
1097.3867850222425
  0
CIRCLE
  8
_0-5_寸法線
  6
CONTINUOUS
 62
    1
 10
1416.737226277372
 20
1097.3867850222425
 40
2.4000000000000004
  0
LINE
  8
_0-5_寸法線
  6
CONTINUOUS
 62
    7
 10
1416.737226277372
 20
1140.3867850222425
 11
1416.737226277372
 21
1097.3867850222425
  0
TEXT
  8
_0-5_寸法線
 62
    7
 10
1416.737226277372
 20
1121.4439746920923
 40
24
 41
1
 50
90
  1
3
  0
LINE
  8
_0-5_寸法線
  6
CONTINUOUS
 62
    7
 10
1374.237226277372
 20
1095.3867850222434
 11
1424.737226277372
 21
1095.3867850222434
  0
LINE
  8
_0-5_寸法線
  6
CONTINUOUS
 62
    7
 10
1416.737226277372
 20
1097.3867850222425
 11
1416.737226277372
 21
1095.3867850222434
  0
TEXT
  8
_0-5_寸法線
 62
    7
 10
1448.9604239712037
 20
1085.7684561295346
 40
24
 41
1
 50
90
  1
2
  0
LINE
  8
_0-5_寸法線
  6
CONTINUOUS
 62
    7
 10
1416.737226277372
 20
1095.3867850222434
 11
1420.8783309990122
 21
1079.9319718016184
  0
LINE
  8
_0-5_寸法線
  6
CONTINUOUS
 62
    7
 10
1416.737226277372
 20
1095.3867850222434
 11
1412.5961215557315
 21
1079.9319718016184
  0
LINE
  8
_0-5_寸法線
  6
CONTINUOUS
 62
    7
 10
1374.237226277372
 20
895.38678502224343
 11
1424.7372262773729
 21
895.38678502224343
  0
LINE
  8
_0-5_寸法線
  6
CONTINUOUS
 62
    7
 10
1416.7372262773729
 20
895.38678502224343
 11
1412.5961215557325
 21
910.84159824286849
  0
LINE
  8
_0-5_寸法線
  6
CONTINUOUS
 62
    7
 10
1416.7372262773729
 20
895.38678502224343
 11
1420.8783309990131
 21
910.84159824286849
  0
LINE
  8
_0-5_寸法線
  6
CONTINUOUS
 62
    7
 10
1416.737226277372
 20
1095.3867850222434
 11
1416.7372262773729
 21
895.38678502224343
  0
TEXT
  8
_0-5_寸法線
 62
    7
 10
1416.7372262773729
 20
977.38678502224343
 40
24
 41
1
 50
90
  1
200
  0
LINE
  8
_0-5_寸法線
  6
CONTINUOUS
 62
    7
 10
1374.237226277372
 20
893.38678502224388
 11
1424.7372262773729
 21
893.38678502224388
  0
CIRCLE
  8
_0-5_寸法線
  6
CONTINUOUS
 62
    1
 10
1416.7372262773729
 20
893.38678502224388
 40
2.4000000000000004
  0
LINE
  8
_0-5_寸法線
  6
CONTINUOUS
 62
    7
 10
1416.7372262773729
 20
895.38678502224343
 11
1416.7372262773729
 21
893.38678502224388
  0
TEXT
  8
_0-5_寸法線
 62
    7
 10
1447.973944031098
 20
895.38678502224343
 40
24
 41
1
 50
90
  1
2
  0
LINE
  8
_0-5_寸法線
  6
CONTINUOUS
 62
    7
 10
1416.7372262773729
 20
890.38678502223934
 11
1420.8783309990131
 21
874.93197180161428
  0
LINE
  8
_0-5_寸法線
  6
CONTINUOUS
 62
    7
 10
1416.7372262773729
 20
890.38678502223934
 11
1412.5961215557325
 21
874.93197180161428
  0
LINE
  8
_0-5_寸法線
  6
CONTINUOUS
 62
    7
 10
1416.7372262773729
 20
893.38678502224388
 11
1416.7372262773729
 21
850.38678502223934
  0
TEXT
  8
_0-5_寸法線
 62
    7
 10
1416.7372262773729
 20
856.21457406673449
 40
24
 41
1
 50
90
  1
3
  0
LINE
  8
_0-5_寸法線
  6
CONTINUOUS
 62
    7
 10
337.73722627737197
 20
1116.3867850222434
 11
337.73722627737197
 21
1188.3867850222425
  0
LINE
  8
_0-5_寸法線
  6
CONTINUOUS
 62
    7
 10
337.73722627737197
 20
1180.3867850222425
 11
353.19203949799714
 21
1184.527889743883
  0
LINE
  8
_0-5_寸法線
  6
CONTINUOUS
 62
    7
 10
337.73722627737197
 20
1180.3867850222425
 11
353.19203949799714
 21
1176.2456803006021
  0
LINE
  8
_0-5_寸法線
  6
CONTINUOUS
 62
    7
 10
352.23722627737197
 20
1116.3867850222434
 11
352.23722627737197
 21
1188.3867850222425
  0
LINE
  8
_0-5_寸法線
  6
CONTINUOUS
 62
    7
 10
352.23722627737197
 20
1180.3867850222425
 11
336.78241305674692
 21
1176.2456803006023
  0
LINE
  8
_0-5_寸法線
  6
CONTINUOUS
 62
    7
 10
352.23722627737197
 20
1180.3867850222425
 11
336.78241305674692
 21
1184.527889743883
  0
LINE
  8
_0-5_寸法線
  6
CONTINUOUS
 62
    7
 10
337.73722627737197
 20
1180.3867850222425
 11
352.23722627737197
 21
1180.3867850222425
  0
TEXT
  8
_0-5_寸法線
 62
    7
 10
332.98722627737197
 20
1180.3867850222423
 40
24
 41
1
 50
0
  1
Ａ
  0
LINE
  8
_0-5_寸法線
  6
CONTINUOUS
 62
    7
 10
1322.237226277372
 20
1116.3867850222434
 11
1322.237226277372
 21
1188.3867850222425
  0
LINE
  8
_0-5_寸法線
  6
CONTINUOUS
 62
    7
 10
1322.237226277372
 20
1180.3867850222425
 11
1337.692039497997
 21
1184.527889743883
  0
LINE
  8
_0-5_寸法線
  6
CONTINUOUS
 62
    7
 10
1322.237226277372
 20
1180.3867850222425
 11
1337.692039497997
 21
1176.2456803006021
  0
LINE
  8
_0-5_寸法線
  6
CONTINUOUS
 62
    7
 10
1336.737226277372
 20
1116.3867850222434
 11
1336.737226277372
 21
1188.3867850222425
  0
LINE
  8
_0-5_寸法線
  6
CONTINUOUS
 62
    7
 10
1336.737226277372
 20
1180.3867850222425
 11
1321.2824130567469
 21
1176.2456803006023
  0
LINE
  8
_0-5_寸法線
  6
CONTINUOUS
 62
    7
 10
1336.737226277372
 20
1180.3867850222425
 11
1321.2824130567469
 21
1184.527889743883
  0
LINE
  8
_0-5_寸法線
  6
CONTINUOUS
 62
    7
 10
1322.237226277372
 20
1180.3867850222425
 11
1336.737226277372
 21
1180.3867850222425
  0
TEXT
  8
_0-5_寸法線
 62
    7
 10
1317.487226277372
 20
1180.3867850222425
 40
24
 41
1
 50
0
  1
Ａ
  0
LINE
  8
_0-5_寸法線
  6
CONTINUOUS
 62
    7
 10
337.73722627737197
 20
1116.3867850222425
 11
337.73722627737197
 21
1244.3867850222425
  0
LINE
  8
_0-5_寸法線
  6
CONTINUOUS
 62
    7
 10
337.73722627737197
 20
1236.3867850222425
 11
349.32833619284088
 21
1239.4926135634728
  0
LINE
  8
_0-5_寸法線
  6
CONTINUOUS
 62
    7
 10
337.73722627737197
 20
1236.3867850222425
 11
349.32833619284088
 21
1233.2809564810123
  0
LINE
  8
_0-5_寸法線
  6
CONTINUOUS
 62
    7
 10
1336.737226277372
 20
1116.3867850222425
 11
1336.737226277372
 21
1244.3867850222425
  0
LINE
  8
_0-5_寸法線
  6
CONTINUOUS
 62
    7
 10
1336.737226277372
 20
1236.3867850222425
 11
1325.1461163619031
 21
1233.2809564810123
  0
LINE
  8
_0-5_寸法線
  6
CONTINUOUS
 62
    7
 10
1336.737226277372
 20
1236.3867850222425
 11
1325.1461163619031
 21
1239.4926135634728
  0
LINE
  8
_0-5_寸法線
  6
CONTINUOUS
 62
    7
 10
337.73722627737197
 20
1236.3867850222425
 11
1336.737226277372
 21
1236.3867850222425
  0
TEXT
  8
_0-5_寸法線
 62
    7
 10
825.23722627737288
 20
1236.3867850222423
 40
24
 41
1
 50
0
  1
Ｌ
  0
LINE
  8
_0-7_枠細線
  6
CONTINUOUS
 62
    5
 10
778.27137945941877
 20
1208.8711232398373
 11
766.27137945941877
 21
1232.8711232398373
  0
LINE
  8
_0-7_枠細線
  6
CONTINUOUS
 62
    5
 10
754.27137945941877
 20
1208.8711232398373
 11
778.27137945941877
 21
1208.8711232398373
  0
LINE
  8
_0-7_枠細線
  6
CONTINUOUS
 62
    5
 10
766.27137945941877
 20
1232.8711232398373
 11
754.27137945941877
 21
1208.8711232398373
  0
TEXT
  8
_0-7_枠細線
 62
    5
 10
758.05562148845593
 20
1208.3799196472285
 40
20
 41
0.8
 50
0
  1
１
  0
LINE
  8
_0-7_枠細線
  6
CONTINUOUS
 62
    5
 10
794.68785898893975
 20
1232.8711232398373
 11
782.68785898893975
 21
1208.8711232398373
  0
LINE
  8
_0-7_枠細線
  6
CONTINUOUS
 62
    5
 10
782.68785898893975
 20
1208.8711232398373
 11
806.68785898893975
 21
1208.8711232398373
  0
LINE
  8
_0-7_枠細線
  6
CONTINUOUS
 62
    5
 10
806.68785898893975
 20
1208.8711232398373
 11
794.68785898893975
 21
1232.8711232398373
  0
LINE
  8
_0-0_計極細
  6
CONTINUOUS
 62
    2
 10
1267.237226277372
 20
941.5867850222437
 11
1267.237226277372
 21
947.18678502224407
  0
LINE
  8
_0-0_計極細
  6
CONTINUOUS
 62
    2
 10
1280.237226277372
 20
941.5867850222437
 11
1280.237226277372
 21
947.18678502224407
  0
LINE
  8
_0-0_計極細
  6
CONTINUOUS
 62
    2
 10
1267.237226277372
 20
958.58678502224461
 11
1267.237226277372
 21
964.18678502224498
  0
LINE
  8
_0-0_計極細
  6
CONTINUOUS
 62
    2
 10
1280.237226277372
 20
958.58678502224461
 11
1280.237226277372
 21
964.18678502224498
  0
LINE
  8
_0-0_計極細
  6
CONTINUOUS
 62
    2
 10
1267.237226277372
 20
981.18678502224088
 11
1267.237226277372
 21
975.58678502224097
  0
LINE
  8
_0-0_計極細
  6
CONTINUOUS
 62
    2
 10
1280.237226277372
 20
981.18678502224088
 11
1280.237226277372
 21
975.58678502224097
  0
LINE
  8
_0-0_計極細
  6
CONTINUOUS
 62
    2
 10
1267.237226277372
 20
998.18678502224134
 11
1267.237226277372
 21
992.58678502224143
  0
LINE
  8
_0-0_計極細
  6
CONTINUOUS
 62
    2
 10
1280.237226277372
 20
998.18678502224134
 11
1280.237226277372
 21
992.58678502224143
  0
LINE
  8
_0-0_計極細
  6
CONTINUOUS
 62
    2
 10
1267.237226277372
 20
1066.5867850222428
 11
1267.237226277372
 21
1060.5867850222428
  0
LINE
  8
_0-0_計極細
  6
CONTINUOUS
 62
    2
 10
1280.237226277372
 20
1066.5867850222428
 11
1280.237226277372
 21
1060.5867850222428
  0
LINE
  8
_0-0_計極細
  6
CONTINUOUS
 62
    2
 10
1267.237226277372
 20
1083.9867850222429
 11
1267.237226277372
 21
1077.9867850222424
  0
LINE
  8
_0-0_計極細
  6
CONTINUOUS
 62
    2
 10
1280.237226277372
 20
1083.9867850222429
 11
1280.237226277372
 21
1077.9867850222424
  0
LINE
  8
_0-0_計極細
  6
CONTINUOUS
 62
    2
 10
1267.237226277372
 20
1015.1867850222422
 11
1267.237226277372
 21
1009.5867850222419
  0
LINE
  8
_0-0_計極細
  6
CONTINUOUS
 62
    2
 10
1280.237226277372
 20
1015.1867850222422
 11
1280.237226277372
 21
1009.5867850222419
  0
LINE
  8
_0-0_計極細
  6
CONTINUOUS
 62
    2
 10
1267.237226277372
 20
1032.1867850222432
 11
1267.237226277372
 21
1026.5867850222428
  0
LINE
  8
_0-0_計極細
  6
CONTINUOUS
 62
    2
 10
1280.237226277372
 20
1032.1867850222432
 11
1280.237226277372
 21
1026.5867850222428
  0
LINE
  8
_0-0_計極細
  6
CONTINUOUS
 62
    2
 10
1267.237226277372
 20
1049.1867850222436
 11
1267.237226277372
 21
1043.5867850222437
  0
LINE
  8
_0-0_計極細
  6
CONTINUOUS
 62
    2
 10
1280.237226277372
 20
1049.1867850222436
 11
1280.237226277372
 21
1043.5867850222437
  0
LINE
  8
_0-0_計極細
  6
CONTINUOUS
 62
    2
 10
1267.237226277372
 20
924.18678502224316
 11
1267.237226277372
 21
930.18678502224316
  0
LINE
  8
_0-0_計極細
  6
CONTINUOUS
 62
    2
 10
1280.237226277372
 20
924.18678502224316
 11
1280.237226277372
 21
930.18678502224316
  0
LINE
  8
_0-0_計極細
  6
CENTER1
 62
    2
 10
1273.737226277372
 20
1104.1375044467056
 11
1273.737226277372
 21
887.62896128123134
  0
LINE
  8
_0-0_計極細
  6
CONTINUOUS
 62
    2
 10
1267.237226277372
 20
906.78678502224261
 11
1267.237226277372
 21
912.78678502224261
  0
LINE
  8
_0-0_計極細
  6
CONTINUOUS
 62
    2
 10
1280.237226277372
 20
906.78678502224261
 11
1280.237226277372
 21
912.78678502224261
  0
LINE
  8
_0-0_計極細
  6
CONTINUOUS
 62
    2
 10
394.23722627737197
 20
941.5867850222437
 11
394.23722627737197
 21
947.18678502224407
  0
LINE
  8
_0-0_計極細
  6
CONTINUOUS
 62
    2
 10
407.23722627737197
 20
941.5867850222437
 11
407.23722627737197
 21
947.18678502224407
  0
LINE
  8
_0-0_計極細
  6
CONTINUOUS
 62
    2
 10
394.23722627737197
 20
958.58678502224461
 11
394.23722627737197
 21
964.18678502224498
  0
LINE
  8
_0-0_計極細
  6
CONTINUOUS
 62
    2
 10
407.23722627737197
 20
958.58678502224461
 11
407.23722627737197
 21
964.18678502224498
  0
LINE
  8
_0-0_計極細
  6
CONTINUOUS
 62
    2
 10
394.23722627737197
 20
981.18678502224088
 11
394.23722627737197
 21
975.58678502224097
  0
LINE
  8
_0-0_計極細
  6
CONTINUOUS
 62
    2
 10
407.23722627737197
 20
981.18678502224088
 11
407.23722627737197
 21
975.58678502224097
  0
LINE
  8
_0-0_計極細
  6
CONTINUOUS
 62
    2
 10
394.23722627737197
 20
998.18678502224134
 11
394.23722627737197
 21
992.58678502224143
  0
LINE
  8
_0-0_計極細
  6
CONTINUOUS
 62
    2
 10
407.23722627737197
 20
998.18678502224134
 11
407.23722627737197
 21
992.58678502224143
  0
LINE
  8
_0-0_計極細
  6
CONTINUOUS
 62
    2
 10
394.23722627737197
 20
1066.5867850222428
 11
394.23722627737197
 21
1060.5867850222428
  0
LINE
  8
_0-0_計極細
  6
CONTINUOUS
 62
    2
 10
407.23722627737197
 20
1066.5867850222428
 11
407.23722627737197
 21
1060.5867850222428
  0
LINE
  8
_0-0_計極細
  6
CONTINUOUS
 62
    2
 10
394.23722627737197
 20
1083.9867850222429
 11
394.23722627737197
 21
1077.9867850222424
  0
LINE
  8
_0-0_計極細
  6
CONTINUOUS
 62
    2
 10
407.23722627737197
 20
1083.9867850222429
 11
407.23722627737197
 21
1077.9867850222424
  0
LINE
  8
_0-0_計極細
  6
CONTINUOUS
 62
    2
 10
394.23722627737197
 20
1015.1867850222422
 11
394.23722627737197
 21
1009.5867850222419
  0
LINE
  8
_0-0_計極細
  6
CONTINUOUS
 62
    2
 10
407.23722627737197
 20
1015.1867850222422
 11
407.23722627737197
 21
1009.5867850222419
  0
LINE
  8
_0-0_計極細
  6
CONTINUOUS
 62
    2
 10
394.23722627737197
 20
1032.1867850222432
 11
394.23722627737197
 21
1026.5867850222428
  0
LINE
  8
_0-0_計極細
  6
CONTINUOUS
 62
    2
 10
407.23722627737197
 20
1032.1867850222432
 11
407.23722627737197
 21
1026.5867850222428
  0
LINE
  8
_0-0_計極細
  6
CONTINUOUS
 62
    2
 10
394.23722627737197
 20
1049.1867850222436
 11
394.23722627737197
 21
1043.5867850222437
  0
LINE
  8
_0-0_計極細
  6
CONTINUOUS
 62
    2
 10
407.23722627737197
 20
1049.1867850222436
 11
407.23722627737197
 21
1043.5867850222437
  0
LINE
  8
_0-0_計極細
  6
CONTINUOUS
 62
    2
 10
394.23722627737197
 20
924.18678502224316
 11
394.23722627737197
 21
930.18678502224316
  0
LINE
  8
_0-0_計極細
  6
CONTINUOUS
 62
    2
 10
407.23722627737197
 20
924.18678502224316
 11
407.23722627737197
 21
930.18678502224316
  0
LINE
  8
_0-0_計極細
  6
CENTER1
 62
    2
 10
400.73722627737197
 20
1104.1375044467056
 11
400.73722627737197
 21
887.62896128123134
  0
LINE
  8
_0-0_計極細
  6
CONTINUOUS
 62
    2
 10
394.23722627737197
 20
906.78678502224261
 11
394.23722627737197
 21
912.78678502224261
  0
LINE
  8
_0-0_計極細
  6
CONTINUOUS
 62
    2
 10
407.23722627737197
 20
906.78678502224261
 11
407.23722627737197
 21
912.78678502224261
  0
LINE
  8
_0-5_寸法線
  6
CONTINUOUS
 62
    7
 10
740.23722627737197
 20
1116.3867850222425
 11
740.23722627737197
 21
1188.3867850222425
  0
LINE
  8
_0-5_寸法線
  6
CONTINUOUS
 62
    7
 10
740.23722627737197
 20
1180.3867850222425
 11
755.69203949799703
 21
1184.527889743883
  0
LINE
  8
_0-5_寸法線
  6
CONTINUOUS
 62
    7
 10
740.23722627737197
 20
1180.3867850222425
 11
755.69203949799703
 21
1176.2456803006021
  0
LINE
  8
_0-5_寸法線
  6
CONTINUOUS
 62
    7
 10
788.73722627737197
 20
1116.3867850222425
 11
788.73722627737197
 21
1188.3867850222425
  0
LINE
  8
_0-5_寸法線
  6
CONTINUOUS
 62
    7
 10
788.73722627737197
 20
1180.3867850222425
 11
773.28241305674692
 21
1176.2456803006023
  0
LINE
  8
_0-5_寸法線
  6
CONTINUOUS
 62
    7
 10
788.73722627737197
 20
1180.3867850222425
 11
773.28241305674692
 21
1184.527889743883
  0
LINE
  8
_0-5_寸法線
  6
CONTINUOUS
 62
    7
 10
740.23722627737197
 20
1180.3867850222425
 11
788.73722627737197
 21
1180.3867850222425
  0
TEXT
  8
_0-5_寸法線
 62
    7
 10
740.48722627737197
 20
1180.3867850222425
 40
24
 41
1
 50
0
  1
48.5
  0
LINE
  8
_0-5_寸法線
  6
CONTINUOUS
 62
    7
 10
788.73722627737197
 20
1180.3867850222425
 11
804.19203949799714
 21
1184.5278897438827
  0
LINE
  8
_0-5_寸法線
  6
CONTINUOUS
 62
    7
 10
788.73722627737197
 20
1180.3867850222425
 11
804.19203949799703
 21
1176.2456803006021
  0
LINE
  8
_0-5_寸法線
  6
CONTINUOUS
 62
    7
 10
837.23722627737197
 20
1116.3867850222425
 11
837.23722627737197
 21
1188.3867850222425
  0
LINE
  8
_0-5_寸法線
  6
CONTINUOUS
 62
    7
 10
837.23722627737197
 20
1180.3867850222425
 11
821.78241305674692
 21
1176.2456803006023
  0
LINE
  8
_0-5_寸法線
  6
CONTINUOUS
 62
    7
 10
837.23722627737197
 20
1180.3867850222425
 11
821.78241305674692
 21
1184.527889743883
  0
LINE
  8
_0-5_寸法線
  6
CONTINUOUS
 62
    7
 10
788.73722627737197
 20
1180.3867850222425
 11
837.23722627737197
 21
1180.3867850222425
  0
TEXT
  8
_0-5_寸法線
 62
    7
 10
788.98722627737197
 20
1156.3867850222425
 40
24
 41
1
 50
0
  1
48.5
  0
LINE
  8
_0-5_寸法線
  6
CONTINUOUS
 62
    7
 10
837.23722627737197
 20
1180.3867850222425
 11
852.69203949799714
 21
1184.5278897438827
  0
LINE
  8
_0-5_寸法線
  6
CONTINUOUS
 62
    7
 10
837.23722627737197
 20
1180.3867850222425
 11
852.69203949799703
 21
1176.2456803006021
  0
LINE
  8
_0-5_寸法線
  6
CONTINUOUS
 62
    7
 10
885.73722627737197
 20
1116.3867850222425
 11
885.73722627737197
 21
1188.3867850222425
  0
LINE
  8
_0-5_寸法線
  6
CONTINUOUS
 62
    7
 10
885.73722627737197
 20
1180.3867850222425
 11
870.28241305674692
 21
1176.2456803006023
  0
LINE
  8
_0-5_寸法線
  6
CONTINUOUS
 62
    7
 10
885.73722627737197
 20
1180.3867850222425
 11
870.28241305674692
 21
1184.527889743883
  0
LINE
  8
_0-5_寸法線
  6
CONTINUOUS
 62
    7
 10
837.23722627737197
 20
1180.3867850222425
 11
885.73722627737197
 21
1180.3867850222425
  0
TEXT
  8
_0-5_寸法線
 62
    7
 10
849.48722627737197
 20
1180.3867850222425
 40
24
 41
1
 50
0
  1
Ｂ
  0
LINE
  8
_0-1_計細線
  6
CONTINUOUS
 62
    3
 10
410.23722627737197
 20
993.03678502224352
 11
463.23722627737197
 21
993.03678502224352
  0
LINE
  8
_0-1_計細線
  6
CONTINUOUS
 62
    3
 10
463.23722627737197
 20
997.73678502224334
 11
410.23722627737197
 21
997.73678502224334
  0
LINE
  8
_0-1_計細線
  6
CONTINUOUS
 62
    3
 10
410.23722627737197
 20
997.73678502224334
 11
410.23722627737197
 21
993.03678502224352
  0
LINE
  8
_0-1_計細線
  6
CONTINUOUS
 62
    3
 10
453.23722627737197
 20
997.73678502224334
 11
453.23722627737197
 21
993.03678502224352
  0
LINE
  8
_0-1_計細線
  6
CONTINUOUS
 62
    3
 10
461.23722627737197
 20
997.73678502224334
 11
461.23722627737197
 21
993.03678502224352
  0
LINE
  8
_0-1_計細線
  6
CONTINUOUS
 62
    3
 10
463.23722627737197
 20
997.73678502224334
 11
463.23722627737197
 21
993.03678502224352
  0
LINE
  8
_0-1_計細線
  6
CONTINUOUS
 62
    3
 10
459.23722627737197
 20
997.73678502224334
 11
459.23722627737197
 21
993.03678502224352
  0
LINE
  8
_0-1_計細線
  6
CONTINUOUS
 62
    3
 10
457.23722627737197
 20
997.73678502224334
 11
457.23722627737197
 21
993.03678502224352
  0
LINE
  8
_0-1_計細線
  6
CONTINUOUS
 62
    3
 10
455.23722627737197
 20
997.73678502224334
 11
455.23722627737197
 21
993.03678502224352
  0
LINE
  8
_0-a_極細3
  6
CENTER1
 62
    7
 10
818.91970803209006
 20
364.04318994438074
 11
818.91970803209006
 21
465.56318994439061
  0
LINE
  8
_0-a_極細3
  6
CONTINUOUS
 62
    7
 10
432.25304136542229
 20
371.27385045443373
 11
432.25304136542229
 21
261.94051712110013
  0
LINE
  8
_0-a_極細3
  6
CONTINUOUS
 62
    7
 10
565.58637469875589
 20
261.94051712110013
 11
432.25304136542229
 21
261.94051712110013
  0
LINE
  8
_0-a_極細3
  6
CONTINUOUS
 62
    7
 10
432.25304136542229
 20
371.27385045443373
 11
382.90197926657243
 21
371.27385045443373
  0
LINE
  8
_0-a_極細3
  6
CONTINUOUS
 62
    7
 10
565.58637469875589
 20
261.94051712110013
 11
565.58637469875589
 21
219.95395664945352
  0
LINE
  8
_0-a_極細3
  6
CONTINUOUS
 62
    7
 10
505.71121539477213
 20
219.95395683575225
 11
547.69777568012046
 21
261.94051712110013
  0
LINE
  8
_0-a_極細3
  6
CONTINUOUS
 62
    7
 10
392.57413075694615
 20
219.95395718777365
 11
434.56069069027262
 21
261.94051712110013
  0
LINE
  8
_0-a_極細3
  6
CONTINUOUS
 62
    7
 10
382.90197926657243
 20
323.41889068724777
 11
430.75693903375839
 21
371.27385045443373
  0
LINE
  8
_0-a_極細3
  6
CONTINUOUS
 62
    7
 10
494.39750693098949
 20
219.95395687095447
 11
536.38406718113515
 21
261.94051712110013
  0
LINE
  8
_0-a_極細3
  6
CONTINUOUS
 62
    7
 10
382.90197926657243
 20
221.59551419638478
 11
432.25304136542229
 21
270.94657629523499
  0
LINE
  8
_0-a_極細3
  6
CONTINUOUS
 62
    7
 10
382.90197926657243
 20
334.73259918623228
 11
419.44323053477319
 21
371.27385045443373
  0
LINE
  8
_0-a_極細3
  6
CONTINUOUS
 62
    7
 10
483.08379846720754
 20
219.95395690615658
 11
525.07035868215075
 21
261.94051712110013
  0
LINE
  8
_0-a_極細3
  6
CONTINUOUS
 62
    7
 10
382.90197926657243
 20
232.90922269536929
 11
432.25304136542229
 21
282.2602847942195
  0
LINE
  8
_0-a_極細3
  6
CONTINUOUS
 62
    7
 10
382.90197926657243
 20
346.04630768521747
 11
408.12952203578868
 21
371.27385045443373
  0
CIRCLE
  8
_0-a_極細3
  6
CONTINUOUS
 62
    7
 10
411.53539981563995
 20
395.59930712108911
 40
0.884938271604915
  0
CIRCLE
  8
_0-a_極細3
  6
CONTINUOUS
 62
    7
 10
395.0060170995913
 20
379.67041823220063
 40
0.884938271604915
  0
CIRCLE
  8
_0-a_極細3
  6
CONTINUOUS
 62
    7
 10
411.97786895144282
 20
381.37708489886722
 40
0.884938271604915
  0
CIRCLE
  8
_0-a_極細3
  6
CONTINUOUS
 62
    7
 10
432.17342450699846
 20
384.50597378775637
 40
0.884938271604915
  0
CIRCLE
  8
_0-a_極細3
  6
CONTINUOUS
 62
    7
 10
477.68453561810861
 20
403.2793071210894
 40
0.884938271604915
  0
CIRCLE
  8
_0-a_極細3
  6
CONTINUOUS
 62
    7
 10
517.50675784033058
 20
419.20819600997788
 40
0.884938271604915
  0
CIRCLE
  8
_0-a_極細3
  6
CONTINUOUS
 62
    7
 10
526.60898006255275
 20
393.32375156553394
 40
0.884938271604915
  0
CIRCLE
  8
_0-a_極細3
  6
CONTINUOUS
 62
    7
 10
486.78675784033089
 20
392.47041823220064
 40
0.884938271604915
  0
CIRCLE
  8
_0-a_極細3
  6
CONTINUOUS
 62
    7
 10
468.01342450699781
 20
416.36375156553333
 40
0.884938271604915
  0
CIRCLE
  8
_0-a_極細3
  6
CONTINUOUS
 62
    7
 10
443.28453561810943
 20
372.89708489886692
 40
0.884938271604915
  0
CIRCLE
  8
_0-a_極細3
  6
CONTINUOUS
 62
    7
 10
475.99564672921963
 20
370.90597378775641
 40
0.884938271604915
  0
CIRCLE
  8
_0-a_極細3
  6
CONTINUOUS
 62
    7
 10
516.1023133958862
 20
364.93264045442265
 40
0.884938271604915
  0
CIRCLE
  8
_0-a_極細3
  6
CONTINUOUS
 62
    7
 10
495.90675784033056
 20
355.83041823220049
 40
0.884938271604915
  0
CIRCLE
  8
_0-a_極細3
  6
CONTINUOUS
 62
    7
 10
472.29786895144252
 20
334.21264045442297
 40
0.884938271604915
  0
CIRCLE
  8
_0-a_極細3
  6
CONTINUOUS
 62
    7
 10
516.1023133958862
 20
345.87486267664502
 40
0.884938271604915
  0
CIRCLE
  8
_0-a_極細3
  6
CONTINUOUS
 62
    7
 10
450.32453561810883
 20
302.49708489886757
 40
0.884938271604915
  0
CIRCLE
  8
_0-a_極細3
  6
CONTINUOUS
 62
    7
 10
441.22231339588666
 20
273.76819600997919
 40
0.884938271604915
  0
CIRCLE
  8
_0-a_極細3
  6
CONTINUOUS
 62
    7
 10
455.16009117366457
 20
284.57708489886795
 40
0.884938271604915
  0
CIRCLE
  8
_0-a_極細3
  6
CONTINUOUS
 62
    7
 10
465.11564672922009
 20
270.92375156553464
 40
0.884938271604915
  0
CIRCLE
  8
_0-a_極細3
  6
CONTINUOUS
 62
    7
 10
527.99564672921963
 20
299.54597378775725
 40
0.884938271604915
  0
CIRCLE
  8
_0-a_極細3
  6
CONTINUOUS
 62
    7
 10
510.0756467292199
 20
290.728196009979
 40
0.884938271604915
  0
CIRCLE
  8
_0-a_極細3
  6
CONTINUOUS
 62
    7
 10
520.03120228477542
 20
286.74597378775729
 40
0.884938271604915
  0
CIRCLE
  8
_0-a_極細3
  6
CONTINUOUS
 62
    7
 10
514.34231339588632
 20
271.95486267664603
 40
0.884938271604915
  0
CIRCLE
  8
_0-a_極細3
  6
CONTINUOUS
 62
    7
 10
546.20009117366396
 20
273.66152934331262
 40
0.884938271604915
  0
CIRCLE
  8
_0-a_極細3
  6
CONTINUOUS
 62
    7
 10
566.96453561810824
 20
278.78152934331229
 40
0.884938271604915
  0
CIRCLE
  8
_0-a_極細3
  6
CONTINUOUS
 62
    7
 10
588.86675784033037
 20
254.88819600997954
 40
0.884938271604915
  0
CIRCLE
  8
_0-a_極細3
  6
CONTINUOUS
 62
    7
 10
577.773424506997
 20
230.99486267664611
 40
0.884938271604915
  0
CIRCLE
  8
_0-a_極細3
  6
CONTINUOUS
 62
    7
 10
551.1067578403306
 20
300.77856638034939
 40
0.884938271604915
  0
CIRCLE
  8
_0-a_極細3
  6
CONTINUOUS
 62
    7
 10
574.71564672921932
 20
355.39189971368251
 40
0.884938271604915
  0
CIRCLE
  8
_0-a_極細3
  6
CONTINUOUS
 62
    7
 10
598.89342450699667
 20
339.46301082479334
 40
0.884938271604915
  0
CIRCLE
  8
_0-a_極細3
  6
CONTINUOUS
 62
    7
 10
599.74675784033002
 20
310.7341219359048
 40
0.884938271604915
  0
CIRCLE
  8
_0-a_極細3
  6
CONTINUOUS
 62
    7
 10
543.35564672921942
 20
358.30745526923783
 40
0.884938271604915
  0
CIRCLE
  8
_0-a_極細3
  6
CONTINUOUS
 62
    7
 10
510.89342450699746
 20
393.48177625689209
 40
2.9208503562902273
  0
CIRCLE
  8
_0-a_極細3
  6
CONTINUOUS
 62
    7
 10
428.07403298470138
 20
404.56915909640884
 40
2.9208503562902273
  0
CIRCLE
  8
_0-a_極細3
  6
CONTINUOUS
 62
    7
 10
506.37786895144211
 20
340.78844292355939
 40
2.9208503562902273
  0
CIRCLE
  8
_0-a_極細3
  6
CONTINUOUS
 62
    7
 10
470.53786895144196
 20
357.00177625689253
 40
2.9208503562902273
  0
CIRCLE
  8
_0-a_極細3
  6
CONTINUOUS
 62
    7
 10
439.17786895144206
 20
296.20177625689325
 40
2.9208503562902273
  0
CIRCLE
  8
_0-a_極細3
  6
CONTINUOUS
 62
    7
 10
524.29786895144105
 20
275.72177625689301
 40
2.9208503562902273
  0
CIRCLE
  8
_0-a_極細3
  6
CONTINUOUS
 62
    7
 10
581.86231339588528
 20
269.96177625689302
 40
2.9208503562902273
  0
CIRCLE
  8
_0-a_極細3
  6
CONTINUOUS
 62
    7
 10
589.54231339588489
 20
240.09510959022737
 40
2.9208503562902273
  0
CIRCLE
  8
_0-a_極細3
  6
CONTINUOUS
 62
    7
 10
395.7587057189744
 20
405.99733181244738
 40
2.9208503562902273
  0
LINE
  8
_0-a_極細3
  6
CONTINUOUS
 62
    7
 10
617.58637469875589
 20
381.94051712110013
 11
618.91970803208937
 21
381.94051712110013
  0
LINE
  8
_0-a_極細3
  6
CONTINUOUS
 62
    7
 10
618.91970803208937
 20
381.94051712110013
 11
618.91970803208937
 21
219.95395664945352
  0
CIRCLE
  8
_0-a_極細3
  6
CONTINUOUS
 62
    7
 10
607.89981339588314
 20
356.36177625689311
 40
2.9208503562902273
  0
CIRCLE
  8
_0-a_極細3
  6
CONTINUOUS
 62
    7
 10
606.31268376625565
 20
268.82597378775677
 40
0.884938271604915
  0
CIRCLE
  8
_0-a_極細3
  6
CONTINUOUS
 62
    7
 10
608.44601709958999
 20
232.57626013468507
 40
0.884938271604915
  0
CIRCLE
  8
_0-a_極細3
  6
CONTINUOUS
 62
    7
 10
588.65342450698995
 20
325.78399847911578
 40
2.9208503562902273
  0
LINE
  8
_0-a_極細3
  6
CONTINUOUS
 62
    7
 10
525.58637469875589
 20
443.27385045443373
 11
525.58637469875589
 21
424.60718378776659
  0
LINE
  8
_0-a_極細3
  6
CONTINUOUS
 62
    7
 10
525.58637469875589
 20
443.27385045443373
 11
382.90197926657243
 21
443.27385045443373
  0
LINE
  8
_0-a_極細3
  6
CONTINUOUS
 62
    7
 10
538.91970803208937
 20
424.60718378776659
 11
382.90197926657243
 21
424.60718378776659
  0
LINE
  8
_0-a_極細3
  6
CONTINUOUS
 62
    7
 10
538.91970803208937
 20
443.27385045443373
 11
525.58637469875589
 21
443.27385045443373
  0
LINE
  8
_0-a_極細3
  6
CONTINUOUS
 62
    7
 10
538.91970803208937
 20
441.94051712110013
 11
538.91970803208937
 21
443.27385045443373
  0
LINE
  8
_0-a_極細3
  6
CONTINUOUS
 62
    7
 10
538.60276362191405
 20
424.60718378776659
 11
538.91970803208869
 21
424.92412819794191
  0
LINE
  8
_0-a_極細3
  6
CONTINUOUS
 62
    7
 10
531.81453852252355
 20
424.60718378776659
 11
538.91970803208937
 21
431.71235329733247
  0
LINE
  8
_0-a_極細3
  6
CONTINUOUS
 62
    7
 10
525.58637469875589
 20
425.16724506339017
 11
538.91970803208937
 21
438.50057839672303
  0
LINE
  8
_0-a_極細3
  6
CONTINUOUS
 62
    7
 10
525.58637469875589
 20
431.95547016278073
 11
536.90475499040815
 21
443.27385045443373
  0
LINE
  8
_0-a_極細3
  6
CONTINUOUS
 62
    7
 10
525.58637469875589
 20
438.74369526217197
 11
530.11652989101754
 21
443.27385045443373
  0
LINE
  8
_0-a_極細3
  6
CONTINUOUS
 62
    7
 10
538.91970803208937
 20
439.6243034588195
 11
535.27016103647588
 21
443.27385045443373
  0
LINE
  8
_0-a_極細3
  6
CONTINUOUS
 62
    7
 10
538.91970803208937
 20
432.83607835942894
 11
528.4819359370847
 21
443.27385045443373
  0
LINE
  8
_0-a_極細3
  6
CONTINUOUS
 62
    7
 10
525.58637469875589
 20
439.38118659337124
 11
538.91970803208937
 21
426.04785326003844
  0
LINE
  8
_0-a_極細3
  6
CONTINUOUS
 62
    7
 10
525.58637469875589
 20
432.59296149398074
 11
533.5721524049693
 21
424.60718378776659
  0
LINE
  8
_0-a_極細3
  6
CONTINUOUS
 62
    7
 10
525.58637469875589
 20
425.80473639458944
 11
526.78392730557869
 21
424.60718378776659
  0
LINE
  8
_0-a_極細3
  6
CONTINUOUS
 62
    7
 10
511.44986321454678
 20
424.60718377796297
 11
525.58637469875589
 21
438.74369526217197
  0
LINE
  8
_0-a_極細3
  6
CONTINUOUS
 62
    7
 10
477.50873769405484
 20
424.60718375442525
 11
496.17540439406343
 21
443.27385045443299
  0
LINE
  8
_0-a_極細3
  6
CONTINUOUS
 62
    7
 10
443.56761217356222
 20
424.60718373088679
 11
462.23427889710842
 21
443.27385045443373
  0
LINE
  8
_0-a_極細3
  6
CONTINUOUS
 62
    7
 10
409.62648665306961
 20
424.60718370734907
 11
428.29315340015432
 21
443.27385045443373
  0
LINE
  8
_0-a_極細3
  6
CONTINUOUS
 62
    7
 10
382.90197926657243
 20
431.82380181780536
 11
394.35202790320011
 21
443.27385045443299
  0
LINE
  8
_0-a_極細3
  6
DASHED2
 62
    7
 10
494.47930045430087
 20
424.60718376619411
 11
513.14596714254048
 21
443.27385045443373
  0
LINE
  8
_0-a_極細3
  6
DASHED2
 62
    7
 10
460.53817493380825
 20
424.60718374265565
 11
479.20484164558627
 21
443.27385045443373
  0
LINE
  8
_0-a_極細3
  6
DASHED2
 62
    7
 10
426.59704941331631
 20
424.60718371911793
 11
445.26371614863137
 21
443.27385045443373
  0
LINE
  8
_0-a_極細3
  6
DASHED2
 62
    7
 10
392.65592389282369
 20
424.6071836955802
 11
411.32259065167716
 21
443.27385045443373
  0
ARC
  8
_0-b_細線3
  6
CONTINUOUS
 62
    7
 10
546.91970803208937
 20
389.94051712110013
 40
8
 50
179.99999999999983
 51
269.99999999999977
  0
LINE
  8
_0-b_細線3
  6
CONTINUOUS
 62
    7
 10
538.91970803208937
 20
389.94051712110013
 11
538.91970803208937
 21
441.94051712110013
  0
LINE
  8
_0-b_細線3
  6
CONTINUOUS
 62
    7
 10
546.91970803208937
 20
381.94051712110013
 11
617.58637469875589
 21
381.94051712110013
  0
LINE
  8
_0-b_細線3
  6
CONTINUOUS
 62
    7
 10
618.91970803208937
 20
383.27385045443373
 11
617.58637469875589
 21
381.94051712110013
  0
LINE
  8
_0-b_細線3
  6
CONTINUOUS
 62
    7
 10
618.91970803208937
 20
388.60718378776659
 11
618.91970803208937
 21
383.27385045443373
  0
LINE
  8
_0-b_細線3
  6
CONTINUOUS
 62
    7
 10
617.58637469875589
 20
389.94051712110013
 11
618.91970803208937
 21
388.60718378776659
  0
LINE
  8
_0-b_細線3
  6
CONTINUOUS
 62
    7
 10
546.91970803208937
 20
389.94051712110013
 11
617.58637469875589
 21
389.94051712110013
  0
LINE
  8
_0-b_細線3
  6
CONTINUOUS
 62
    7
 10
540.25304136542229
 20
443.27385045443373
 11
538.91970803208937
 21
441.94051712110013
  0
LINE
  8
_0-b_細線3
  6
CONTINUOUS
 62
    7
 10
545.58637469875589
 20
443.27385045443373
 11
540.25304136542229
 21
443.27385045443373
  0
LINE
  8
_0-b_細線3
  6
CONTINUOUS
 62
    7
 10
546.91970803208937
 20
441.94051712110013
 11
545.58637469875589
 21
443.27385045443373
  0
LINE
  8
_0-b_細線3
  6
CONTINUOUS
 62
    7
 10
546.91970803208937
 20
389.94051712110013
 11
546.91970803208937
 21
441.94051712110013
  0
CIRCLE
  8
_0-a_極細3
  6
CONTINUOUS
 62
    7
 10
491.20749858107206
 20
411.8995540346674
 40
2.9208503562902273
  0
LINE
  8
_0-a_極細3
  6
CONTINUOUS
 62
    7
 10
1205.5863746987566
 20
371.27385045443373
 11
1205.5863746987566
 21
261.94051712110013
  0
LINE
  8
_0-a_極細3
  6
CONTINUOUS
 62
    7
 10
1072.2530413654235
 20
261.94051712110013
 11
1205.5863746987566
 21
261.94051712110013
  0
LINE
  8
_0-a_極細3
  6
CONTINUOUS
 62
    7
 10
1205.5863746987566
 20
371.27385045443373
 11
1254.9374367976066
 21
371.27385045443373
  0
LINE
  8
_0-a_極細3
  6
CONTINUOUS
 62
    7
 10
1072.2530413654235
 20
261.94051712110013
 11
1072.2530413654235
 21
219.95395664945352
  0
LINE
  8
_0-a_極細3
  6
CONTINUOUS
 62
    7
 10
1218.8503785621056
 20
219.95395664945352
 11
1254.937436864072
 21
256.04101495142027
  0
LINE
  8
_0-a_極細3
  6
CONTINUOUS
 62
    7
 10
1105.713293572258
 20
219.95395664945352
 11
1147.699854043904
 21
261.94051712110013
  0
LINE
  8
_0-a_極細3
  6
CONTINUOUS
 62
    7
 10
1205.5863746987566
 20
319.82703777595236
 11
1254.9374367988157
 21
369.1780998760114
  0
LINE
  8
_0-a_極細3
  6
CONTINUOUS
 62
    7
 10
1207.5366700631203
 20
219.95395664945352
 11
1254.9374368575459
 21
267.35472344387892
  0
LINE
  8
_0-a_極細3
  6
CONTINUOUS
 62
    7
 10
1094.3995850732726
 20
219.95395664945352
 11
1136.3861455449196
 21
261.94051712110013
  0
LINE
  8
_0-a_極細3
  6
CONTINUOUS
 62
    7
 10
1205.5863746987566
 20
331.14074627493756
 11
1245.7194785909719
 21
371.27385016715272
  0
LINE
  8
_0-a_極細3
  6
CONTINUOUS
 62
    7
 10
1196.2229615641359
 20
219.95395664945352
 11
1254.9374368510203
 21
278.66843193633827
  0
LINE
  8
_0-a_極細3
  6
CONTINUOUS
 62
    7
 10
1083.0858765742882
 20
219.95395664945352
 11
1125.0724370459347
 21
261.94051712110013
  0
LINE
  8
_0-a_極細3
  6
CONTINUOUS
 62
    7
 10
1205.5863746987566
 20
342.45445477392207
 11
1234.4057701729735
 21
371.2738502481385
  0
CIRCLE
  8
_0-a_極細3
  6
CONTINUOUS
 62
    7
 10
1050.5023133958834
 20
356.10745526923785
 40
0.884938271604915
  0
CIRCLE
  8
_0-a_極細3
  6
CONTINUOUS
 62
    7
 10
1066.4312022847716
 20
363.78745526923814
 40
0.884938271604915
  0
CIRCLE
  8
_0-a_極細3
  6
CONTINUOUS
 62
    7
 10
1059.8889800625502
 20
323.82301082479398
 40
0.884938271604915
  0
CIRCLE
  8
_0-a_極細3
  6
CONTINUOUS
 62
    7
 10
1087.942313395883
 20
296.58745526923815
 40
0.884938271604915
  0
CIRCLE
  8
_0-a_極細3
  6
CONTINUOUS
 62
    7
 10
1059.4089800625497
 20
259.30745526923852
 40
0.884938271604915
  0
CIRCLE
  8
_0-a_極細3
  6
CONTINUOUS
 62
    7
 10
1044.475646729217
 20
230.72078860257238
 40
0.884938271604915
  0
CIRCLE
  8
_0-a_極細3
  6
CONTINUOUS
 62
    7
 10
1062.8223133958832
 20
278.50745526923856
 40
0.884938271604915
  0
CIRCLE
  8
_0-a_極細3
  6
CONTINUOUS
 62
    7
 10
1085.0089800625497
 20
270.82745526923895
 40
0.884938271604915
  0
CIRCLE
  8
_0-a_極細3
  6
CONTINUOUS
 62
    7
 10
1128.1023133958824
 20
271.25412193590523
 40
0.884938271604915
  0
CIRCLE
  8
_0-a_極細3
  6
CONTINUOUS
 62
    7
 10
1108.9023133958831
 20
285.76078860257189
 40
0.884938271604915
  0
CIRCLE
  8
_0-a_極細3
  6
CONTINUOUS
 62
    7
 10
1126.8223133958827
 20
294.7207886025717
 40
0.884938271604915
  0
CIRCLE
  8
_0-a_極細3
  6
CONTINUOUS
 62
    7
 10
1111.64009117366
 20
413.15634415812605
 40
0.884938271604915
  0
CIRCLE
  8
_0-a_極細3
  6
CONTINUOUS
 62
    7
 10
1107.6578689514381
 20
381.58301082479306
 40
0.884938271604915
  0
CIRCLE
  8
_0-a_極細3
  6
CONTINUOUS
 62
    7
 10
1140.5112022847711
 20
380.44523304701511
 40
0.884938271604915
  0
CIRCLE
  8
_0-a_極細3
  6
CONTINUOUS
 62
    7
 10
1121.9512022847712
 20
358.04523304701581
 40
0.884938271604915
  0
CIRCLE
  8
_0-a_極細3
  6
CONTINUOUS
 62
    7
 10
1184.6712022847705
 20
272.92523304701683
 40
0.884938271604915
  0
CIRCLE
  8
_0-a_極細3
  6
CONTINUOUS
 62
    7
 10
1196.1912022847705
 20
295.32523304701613
 40
0.884938271604915
  0
CIRCLE
  8
_0-a_極細3
  6
CONTINUOUS
 62
    7
 10
1193.6312022847701
 20
328.60523304701564
 40
0.884938271604915
  0
CIRCLE
  8
_0-a_極細3
  6
CONTINUOUS
 62
    7
 10
1164.8312022847708
 20
362.52523304701538
 40
0.884938271604915
  0
CIRCLE
  8
_0-a_極細3
  6
CONTINUOUS
 62
    7
 10
1191.71120228477
 20
393.88523304701522
 40
0.884938271604915
  0
CIRCLE
  8
_0-a_極細3
  6
CONTINUOUS
 62
    7
 10
1187.2312022847705
 20
351.00523304701568
 40
0.884938271604915
  0
CIRCLE
  8
_0-a_極細3
  6
CONTINUOUS
 62
    7
 10
1234.5912022847697
 20
384.92523304701535
 40
0.884938271604915
  0
CIRCLE
  8
_0-a_極細3
  6
CONTINUOUS
 62
    7
 10
1226.9112022847694
 20
406.95733181244725
 40
2.9208503562902273
  0
CIRCLE
  8
_0-a_極細3
  6
CONTINUOUS
 62
    7
 10
1201.8800911736589
 20
382.21066514578126
 40
2.9208503562902273
  0
CIRCLE
  8
_0-a_極細3
  6
CONTINUOUS
 62
    7
 10
1113.2045356181043
 20
392.73510959022536
 40
2.9208503562902273
  0
CIRCLE
  8
_0-a_極細3
  6
CONTINUOUS
 62
    7
 10
1164.4045356181036
 20
341.53510959022606
 40
2.9208503562902273
  0
CIRCLE
  8
_0-a_極細3
  6
CONTINUOUS
 62
    7
 10
1051.7734245069948
 20
270.25510959022654
 40
2.9208503562902273
  0
CIRCLE
  8
_0-a_極細3
  6
CONTINUOUS
 62
    7
 10
1068.1289800625495
 20
318.04177625689272
 40
2.9208503562902273
  0
CIRCLE
  8
_0-a_極細3
  6
CONTINUOUS
 62
    7
 10
1124.4489800625488
 20
282.20177625689325
 40
2.9208503562902273
  0
CIRCLE
  8
_0-a_極細3
  6
CONTINUOUS
 62
    7
 10
1198.4732882790026
 20
265.90249242974164
 40
2.9208503562902273
  0
CIRCLE
  8
_0-a_極細3
  6
CONTINUOUS
 62
    7
 10
1117.4089800625488
 20
351.32177625689224
 40
2.9208503562902273
  0
CIRCLE
  8
_0-a_極細3
  6
CONTINUOUS
 62
    7
 10
1041.4633010502043
 20
342.64464760563425
 40
0.884938271604915
  0
CIRCLE
  8
_0-a_極細3
  6
CONTINUOUS
 62
    7
 10
1041.7833010502054
 20
304.31575871674579
 40
0.884938271604915
  0
CIRCLE
  8
_0-a_極細3
  6
CONTINUOUS
 62
    7
 10
1214.1112022847701
 20
419.69856638034838
 40
0.884938271604915
  0
CIRCLE
  8
_0-a_極細3
  6
CONTINUOUS
 62
    7
 10
1164.8312022847708
 20
411.59189971368181
 40
0.884938271604915
  0
CIRCLE
  8
_0-a_極細3
  6
CONTINUOUS
 62
    7
 10
1165.044535618104
 20
401.48177625689209
 40
2.9208503562902273
  0
CIRCLE
  8
_0-a_極細3
  6
CONTINUOUS
 62
    7
 10
1130.9112022847708
 20
421.19189971368178
 40
0.884938271604915
  0
LINE
  8
_0-a_極細3
  6
CONTINUOUS
 62
    7
 10
1020.2530413654223
 20
381.94051712110013
 11
1018.9197080320895
 21
381.94051712110013
  0
LINE
  8
_0-a_極細3
  6
CONTINUOUS
 62
    7
 10
1018.9197080320895
 20
381.94051712110013
 11
1018.9197080320895
 21
219.95395664945352
  0
CIRCLE
  8
_0-a_極細3
  6
CONTINUOUS
 62
    7
 10
1028.494741379423
 20
317.84967749146017
 40
0.884938271604915
  0
CIRCLE
  8
_0-a_極細3
  6
CONTINUOUS
 62
    7
 10
1030.5852763588464
 20
255.04078860257209
 40
0.884938271604915
  0
CIRCLE
  8
_0-a_極細3
  6
CONTINUOUS
 62
    7
 10
1029.5630541366231
 20
360.56622070133744
 40
2.9208503562902273
  0
CIRCLE
  8
_0-a_極細3
  6
CONTINUOUS
 62
    7
 10
1034.2800911736599
 20
244.3706651457818
 40
2.9208503562902273
  0
LINE
  8
_0-a_極細3
  6
CONTINUOUS
 62
    7
 10
1112.2530413654235
 20
443.27385045443373
 11
1112.2530413654235
 21
424.60718378776659
  0
LINE
  8
_0-a_極細3
  6
CONTINUOUS
 62
    7
 10
1112.2530413654235
 20
443.27385045443373
 11
1254.9374367976066
 21
443.27385045443373
  0
LINE
  8
_0-a_極細3
  6
CONTINUOUS
 62
    7
 10
1098.9197080320896
 20
424.60718378776659
 11
1254.9374367976066
 21
424.60718378776659
  0
LINE
  8
_0-a_極細3
  6
CONTINUOUS
 62
    7
 10
1098.9197080320896
 20
443.27385045443373
 11
1112.2530413654235
 21
443.27385045443373
  0
LINE
  8
_0-a_極細3
  6
CONTINUOUS
 62
    7
 10
1098.9197080320896
 20
441.94051712110013
 11
1098.9197080320896
 21
443.27385045443373
  0
LINE
  8
_0-a_極細3
  6
CONTINUOUS
 62
    7
 10
1112.2530413654231
 20
430.47772183692655
 11
1106.3825033162634
 21
424.60718378776659
  0
LINE
  8
_0-a_極細3
  6
CONTINUOUS
 62
    7
 10
1112.2530413654231
 20
437.26594693631705
 11
1099.5942782168727
 21
424.60718378776659
  0
LINE
  8
_0-a_極細3
  6
CONTINUOUS
 62
    7
 10
1098.9197080320896
 20
430.72083870237475
 11
1111.4727197841489
 21
443.27385045443373
  0
LINE
  8
_0-a_極細3
  6
CONTINUOUS
 62
    7
 10
1098.9197080320896
 20
437.50906380176531
 11
1104.6844946847573
 21
443.27385045443299
  0
LINE
  8
_0-a_極細3
  6
CONTINUOUS
 62
    7
 10
1112.2530413654235
 20
440.85893491922474
 11
1109.8381258302143
 21
443.27385045443373
  0
LINE
  8
_0-a_極細3
  6
CONTINUOUS
 62
    7
 10
1112.2530413654235
 20
434.07070981983344
 11
1103.049900730824
 21
443.27385045443373
  0
LINE
  8
_0-a_極細3
  6
CONTINUOUS
 62
    7
 10
1112.2530413654235
 20
427.28248472044288
 11
1098.9197080320896
 21
440.61581805377648
  0
LINE
  8
_0-a_極細3
  6
CONTINUOUS
 62
    7
 10
1108.1401171987086
 20
424.60718378776659
 11
1098.9197080320896
 21
433.82759295438518
  0
LINE
  8
_0-a_極細3
  6
CONTINUOUS
 62
    7
 10
1101.3518920993179
 20
424.60718378776659
 11
1098.9197080320896
 21
427.03936785499468
  0
LINE
  8
_0-a_極細3
  6
CONTINUOUS
 62
    7
 10
1221.7823300059081
 20
424.60718378776659
 11
1240.4489956697121
 21
443.27384945157104
  0
LINE
  8
_0-a_極細3
  6
CONTINUOUS
 62
    7
 10
1187.8412045089535
 20
424.60718378776659
 11
1206.5078704382759
 21
443.27384971708892
  0
LINE
  8
_0-a_極細3
  6
CONTINUOUS
 62
    7
 10
1153.9000790119994
 20
424.60718378776659
 11
1172.5667452068387
 21
443.27384998260607
  0
LINE
  8
_0-a_極細3
  6
CONTINUOUS
 62
    7
 10
1119.9589535150453
 20
424.60718378776659
 11
1138.6256199754025
 21
443.27385024812395
  0
LINE
  8
_0-a_極細3
  6
DASHED2
 62
    7
 10
1238.7528927543858
 20
424.60718378776659
 11
1254.9374367976066
 21
440.79172783098841
  0
LINE
  8
_0-a_極細3
  6
DASHED2
 62
    7
 10
1204.8117672574308
 20
424.60718378776659
 11
1223.4784330539942
 21
443.27384958432958
  0
LINE
  8
_0-a_極細3
  6
DASHED2
 62
    7
 10
1170.8706417604767
 20
424.60718378776659
 11
1189.5373078225575
 21
443.27384984984747
  0
LINE
  8
_0-a_極細3
  6
DASHED2
 62
    7
 10
1136.9295162635221
 20
424.60718378776659
 11
1155.5961825911204
 21
443.27385011536467
  0
LINE
  8
_0-a_極細3
  6
DASHED2
 62
    7
 10
1112.2530413654231
 20
433.8718343866218
 11
1121.6550573596842
 21
443.27385038088255
  0
ARC
  8
_0-b_細線3
  6
CONTINUOUS
 62
    7
 10
1090.9197080320896
 20
389.94051712110013
 40
8
 50
269.99999999999977
 51
359.99999999999966
  0
LINE
  8
_0-b_細線3
  6
CONTINUOUS
 62
    7
 10
1098.9197080320896
 20
389.94051712110013
 11
1098.9197080320896
 21
441.94051712110013
  0
LINE
  8
_0-b_細線3
  6
CONTINUOUS
 62
    7
 10
1090.9197080320896
 20
381.94051712110013
 11
1020.2530413654223
 21
381.94051712110013
  0
LINE
  8
_0-b_細線3
  6
CONTINUOUS
 62
    7
 10
1018.9197080320895
 20
383.27385045443373
 11
1020.2530413654223
 21
381.94051712110013
  0
LINE
  8
_0-b_細線3
  6
CONTINUOUS
 62
    7
 10
1018.9197080320895
 20
388.60718378776659
 11
1018.9197080320895
 21
383.27385045443373
  0
LINE
  8
_0-b_細線3
  6
CONTINUOUS
 62
    7
 10
1020.2530413654223
 20
389.94051712110013
 11
1018.9197080320895
 21
388.60718378776659
  0
LINE
  8
_0-b_細線3
  6
CONTINUOUS
 62
    7
 10
1090.9197080320896
 20
389.94051712110013
 11
1020.2530413654223
 21
389.94051712110013
  0
LINE
  8
_0-b_細線3
  6
CONTINUOUS
 62
    7
 10
1097.586374698757
 20
443.27385045443373
 11
1098.9197080320896
 21
441.94051712110013
  0
LINE
  8
_0-b_細線3
  6
CONTINUOUS
 62
    7
 10
1092.2530413654235
 20
443.27385045443373
 11
1097.586374698757
 21
443.27385045443373
  0
LINE
  8
_0-b_細線3
  6
CONTINUOUS
 62
    7
 10
1090.9197080320896
 20
441.94051712110013
 11
1092.2530413654235
 21
443.27385045443373
  0
LINE
  8
_0-b_細線3
  6
CONTINUOUS
 62
    7
 10
1090.9197080320896
 20
389.94051712110013
 11
1090.9197080320896
 21
441.94051712110013
  0
LINE
  8
_0-d_寸法3
  6
CONTINUOUS
 62
    7
 10
538.91970803208937
 20
451.27385045443373
 11
538.91970803208937
 21
627.27384778508213
  0
LINE
  8
_0-d_寸法3
  6
CONTINUOUS
 62
    7
 10
538.91970803208937
 20
619.27384778508213
 11
554.37452125271443
 21
623.41495250672244
  0
LINE
  8
_0-d_寸法3
  6
CONTINUOUS
 62
    7
 10
538.91970803208937
 20
619.27384778508213
 11
554.37452125271443
 21
615.13274306344181
  0
LINE
  8
_0-d_寸法3
  6
CONTINUOUS
 62
    7
 10
1098.9197080320896
 20
451.27385045443373
 11
1098.9197080320901
 21
627.27384778508213
  0
LINE
  8
_0-d_寸法3
  6
CONTINUOUS
 62
    7
 10
1098.9197080320901
 20
619.27384778508213
 11
1083.464894811465
 21
615.13274306344181
  0
LINE
  8
_0-d_寸法3
  6
CONTINUOUS
 62
    7
 10
1098.9197080320901
 20
619.27384778508213
 11
1083.464894811465
 21
623.41495250672256
  0
LINE
  8
_0-d_寸法3
  6
CONTINUOUS
 62
    7
 10
538.91970803208937
 20
619.27384778508213
 11
1098.9197080320901
 21
619.27384778508213
  0
TEXT
  8
_0-d_寸法3
 62
    7
 10
800.91970803209006
 20
619.27384778508213
 40
24
 41
1
 50
0
  1
210
  0
ARC
  8
_0-b_細線3
  6
CONTINUOUS
 62
    7
 10
919.71970803792692
 20
437.93993311841479
 40
2.666666666666667
 50
89.999999999999915
 51
179.99999999999983
  0
ARC
  8
_0-b_細線3
  6
CONTINUOUS
 62
    7
 10
920.96757254813394
 20
443.27326645174838
 40
2.666666666666667
 50
269.99999999999977
 51
329.9999999999946
  0
ARC
  8
_0-b_細線3
  6
CONTINUOUS
 62
    7
 10
925.58637470165024
 20
440.60659978508193
 40
2.666666666666667
 50
89.999999999999915
 51
150.00000000000136
  0
LINE
  8
_0-b_細線3
  6
CONTINUOUS
 62
    7
 10
919.71970803792692
 20
440.60659978508193
 11
920.96757254813394
 21
440.60659978508193
  0
ARC
  8
_0-b_細線3
  6
CONTINUOUS
 62
    7
 10
944.78637469870785
 20
437.93993311841479
 40
2.666666666666667
 50
0
 51
89.999999999999915
  0
ARC
  8
_0-b_細線3
  6
CONTINUOUS
 62
    7
 10
943.53851018850162
 20
443.27326645174838
 40
2.666666666666667
 50
210.00000000000347
 51
269.99999999999977
  0
ARC
  8
_0-b_細線3
  6
CONTINUOUS
 62
    7
 10
938.91970803498452
 20
440.60659978508193
 40
2.666666666666667
 50
29.999999999991321
 51
89.999999999999901
  0
LINE
  8
_0-b_細線3
  6
CONTINUOUS
 62
    7
 10
944.78637469870785
 20
440.60659978508193
 11
943.53851018850162
 21
440.60659978508193
  0
ARC
  8
_0-b_細線3
  6
CONTINUOUS
 62
    7
 10
918.38637470459412
 20
434.20659978508195
 40
1.3333333333333335
 50
179.99999999999983
 51
269.99999999999977
  0
LINE
  8
_0-b_細線3
  6
CONTINUOUS
 62
    7
 10
917.05304137126052
 20
437.93993311841479
 11
917.05304137126052
 21
434.20659978508195
  0
ARC
  8
_0-b_細線3
  6
CONTINUOUS
 62
    7
 10
946.11970803204144
 20
434.20659978508195
 40
1.3333333333333335
 50
269.99999999999977
 51
359.99999999999966
  0
LINE
  8
_0-b_細線3
  6
CONTINUOUS
 62
    7
 10
947.45304136537504
 20
437.93993311841479
 11
947.45304136537504
 21
434.20659978508195
  0
ARC
  8
_0-b_細線3
  6
CONTINUOUS
 62
    7
 10
925.05304137126052
 20
430.20659978508195
 40
2.666666666666667
 50
0
 51
89.999999999999915
  0
LINE
  8
_0-b_細線3
  6
CONTINUOUS
 62
    7
 10
925.05304137126052
 20
432.87326645174835
 11
918.38637470459412
 21
432.87326645174835
  0
ARC
  8
_0-b_細線3
  6
CONTINUOUS
 62
    7
 10
939.4530413712605
 20
430.20659978508195
 40
2.666666666666667
 50
89.999999999999915
 51
179.99999999999983
  0
LINE
  8
_0-b_細線3
  6
CONTINUOUS
 62
    7
 10
939.45304136537425
 20
432.87326645174835
 11
946.11970803204144
 21
432.87326645174835
  0
LINE
  8
_0-b_細線3
  6
CONTINUOUS
 62
    7
 10
938.91970803498452
 20
443.27326645174838
 11
925.58637470165024
 21
443.27326645174838
  0
LINE
  8
_0-b_細線3
  6
CONTINUOUS
 62
    7
 10
927.71970803498459
 20
389.93993311841479
 11
927.71970803792692
 21
430.20659978508195
  0
LINE
  8
_0-b_細線3
  6
CONTINUOUS
 62
    7
 10
936.78637470165097
 20
389.93993311841479
 11
936.7863747045941
 21
430.20659978508195
  0
LINE
  8
_0-b_細線3
  6
CONTINUOUS
 62
    7
 10
936.78637470165097
 20
389.93993311841479
 11
927.71970803498459
 21
389.93993311841479
  0
ARC
  8
_0-b_細線3
  6
CONTINUOUS
 62
    7
 10
874.38637470362926
 20
437.93993311841479
 40
2.666666666666667
 50
89.999999999999915
 51
179.99999999999983
  0
ARC
  8
_0-b_細線3
  6
CONTINUOUS
 62
    7
 10
875.6342392138356
 20
443.27326645174838
 40
2.666666666666667
 50
269.99999999999977
 51
329.9999999999946
  0
ARC
  8
_0-b_細線3
  6
CONTINUOUS
 62
    7
 10
880.25304136735258
 20
440.60659978508193
 40
2.666666666666667
 50
89.999999999999915
 51
150.0000000000087
  0
LINE
  8
_0-b_細線3
  6
CONTINUOUS
 62
    7
 10
874.38637470362926
 20
440.60659978508193
 11
875.6342392138356
 21
440.60659978508193
  0
ARC
  8
_0-b_細線3
  6
CONTINUOUS
 62
    7
 10
899.4530413644095
 20
437.93993311841479
 40
2.666666666666667
 50
0
 51
89.999999999999915
  0
ARC
  8
_0-b_細線3
  6
CONTINUOUS
 62
    7
 10
898.20517685420316
 20
443.27326645174838
 40
2.666666666666667
 50
209.99999999999739
 51
269.99999999999977
  0
ARC
  8
_0-b_細線3
  6
CONTINUOUS
 62
    7
 10
893.58637470068618
 20
440.60659978508193
 40
2.666666666666667
 50
29.99999999999865
 51
89.999999999999901
  0
LINE
  8
_0-b_細線3
  6
CONTINUOUS
 62
    7
 10
899.4530413644095
 20
440.60659978508193
 11
898.20517685420316
 21
440.60659978508193
  0
ARC
  8
_0-b_細線3
  6
CONTINUOUS
 62
    7
 10
873.05304137029577
 20
434.20659978508195
 40
1.3333333333333335
 50
179.99999999999983
 51
269.99999999999977
  0
LINE
  8
_0-b_細線3
  6
CONTINUOUS
 62
    7
 10
871.71970803696217
 20
437.93993311841479
 11
871.71970803696217
 21
434.20659978508195
  0
ARC
  8
_0-b_細線3
  6
CONTINUOUS
 62
    7
 10
900.7863746977431
 20
434.20659978508195
 40
1.3333333333333335
 50
269.99999999999977
 51
359.99999999999966
  0
LINE
  8
_0-b_細線3
  6
CONTINUOUS
 62
    7
 10
902.11970803107658
 20
437.93993311841479
 11
902.11970803107658
 21
434.20659978508195
  0
ARC
  8
_0-b_細線3
  6
CONTINUOUS
 62
    7
 10
879.71970803696217
 20
430.20659978508195
 40
2.666666666666667
 50
0
 51
89.999999999999915
  0
LINE
  8
_0-b_細線3
  6
CONTINUOUS
 62
    7
 10
879.71970803696217
 20
432.87326645174835
 11
873.05304137029577
 21
432.87326645174835
  0
ARC
  8
_0-b_細線3
  6
CONTINUOUS
 62
    7
 10
894.11970803696283
 20
430.20659978508195
 40
2.666666666666667
 50
89.999999999999915
 51
179.99999999999983
  0
LINE
  8
_0-b_細線3
  6
CONTINUOUS
 62
    7
 10
894.11970803107658
 20
432.87326645174835
 11
900.7863746977431
 21
432.87326645174835
  0
LINE
  8
_0-b_細線3
  6
CONTINUOUS
 62
    7
 10
893.58637470068618
 20
443.27326645174838
 11
880.25304136735258
 21
443.27326645174838
  0
LINE
  8
_0-b_細線3
  6
CONTINUOUS
 62
    7
 10
882.38637470068613
 20
389.93993311841479
 11
882.38637470362926
 21
430.20659978508195
  0
LINE
  8
_0-b_細線3
  6
CONTINUOUS
 62
    7
 10
891.45304136735263
 20
389.93993311841479
 11
891.45304137029575
 21
430.20659978508195
  0
LINE
  8
_0-b_細線3
  6
CONTINUOUS
 62
    7
 10
891.45304136735263
 20
389.93993311841479
 11
882.38637470068613
 21
389.93993311841479
  0
ARC
  8
_0-b_細線3
  6
CONTINUOUS
 62
    7
 10
829.0530413693308
 20
437.93993311841479
 40
2.666666666666667
 50
89.999999999999915
 51
179.99999999999983
  0
ARC
  8
_0-b_細線3
  6
CONTINUOUS
 62
    7
 10
830.30090587953782
 20
443.27326645174838
 40
2.666666666666667
 50
269.99999999999977
 51
329.9999999999946
  0
ARC
  8
_0-b_細線3
  6
CONTINUOUS
 62
    7
 10
834.91970803305492
 20
440.60659978508193
 40
2.666666666666667
 50
89.999999999999915
 51
150.00000000000992
  0
LINE
  8
_0-b_細線3
  6
CONTINUOUS
 62
    7
 10
829.0530413693308
 20
440.60659978508193
 11
830.30090587953782
 21
440.60659978508193
  0
ARC
  8
_0-b_細線3
  6
CONTINUOUS
 62
    7
 10
854.11970803011184
 20
437.93993311841479
 40
2.666666666666667
 50
0
 51
89.999999999999915
  0
ARC
  8
_0-b_細線3
  6
CONTINUOUS
 62
    7
 10
852.87184351990481
 20
443.27326645174838
 40
2.666666666666667
 50
210.00000000000469
 51
269.99999999999977
  0
ARC
  8
_0-b_細線3
  6
CONTINUOUS
 62
    7
 10
848.25304136638772
 20
440.60659978508193
 40
2.666666666666667
 50
29.999999999990099
 51
89.999999999985349
  0
LINE
  8
_0-b_細線3
  6
CONTINUOUS
 62
    7
 10
854.11970803011184
 20
440.60659978508193
 11
852.87184351990481
 21
440.60659978508193
  0
ARC
  8
_0-b_細線3
  6
CONTINUOUS
 62
    7
 10
827.71970803599731
 20
434.20659978508195
 40
1.3333333333333335
 50
179.99999999999983
 51
269.99999999999977
  0
LINE
  8
_0-b_細線3
  6
CONTINUOUS
 62
    7
 10
826.3863747026644
 20
437.93993311841479
 11
826.3863747026644
 21
434.20659978508195
  0
ARC
  8
_0-b_細線3
  6
CONTINUOUS
 62
    7
 10
855.45304136344544
 20
434.20659978508195
 40
1.3333333333333335
 50
269.99999999999977
 51
359.99999999999966
  0
LINE
  8
_0-b_細線3
  6
CONTINUOUS
 62
    7
 10
856.78637469677824
 20
437.93993311841479
 11
856.78637469677824
 21
434.20659978508195
  0
ARC
  8
_0-b_細線3
  6
CONTINUOUS
 62
    7
 10
834.3863747026644
 20
430.20659978508195
 40
2.666666666666667
 50
0
 51
89.999999999999915
  0
LINE
  8
_0-b_細線3
  6
CONTINUOUS
 62
    7
 10
834.3863747026644
 20
432.87326645174835
 11
827.71970803599731
 21
432.87326645174835
  0
ARC
  8
_0-b_細線3
  6
CONTINUOUS
 62
    7
 10
848.78637470266438
 20
430.20659978508195
 40
2.666666666666667
 50
89.999999999999915
 51
179.99999999999983
  0
LINE
  8
_0-b_細線3
  6
CONTINUOUS
 62
    7
 10
848.78637469677813
 20
432.87326645174835
 11
855.45304136344544
 21
432.87326645174835
  0
LINE
  8
_0-b_細線3
  6
CONTINUOUS
 62
    7
 10
848.25304136638772
 20
443.27326645174838
 11
834.91970803305492
 21
443.27326645174838
  0
LINE
  8
_0-b_細線3
  6
CONTINUOUS
 62
    7
 10
837.05304136638767
 20
389.93993311841479
 11
837.0530413693308
 21
430.20659978508195
  0
LINE
  8
_0-b_細線3
  6
CONTINUOUS
 62
    7
 10
846.11970803305485
 20
389.93993311841479
 11
846.11970803599797
 21
430.20659978508195
  0
LINE
  8
_0-b_細線3
  6
CONTINUOUS
 62
    7
 10
846.11970803305485
 20
389.93993311841479
 11
837.05304136638767
 21
389.93993311841479
  0
ARC
  8
_0-b_細線3
  6
CONTINUOUS
 62
    7
 10
738.38637470073479
 20
437.93993311841479
 40
2.666666666666667
 50
89.999999999999915
 51
179.99999999999983
  0
ARC
  8
_0-b_細線3
  6
CONTINUOUS
 62
    7
 10
739.63423921094181
 20
443.27326645174838
 40
2.666666666666667
 50
269.99999999999977
 51
329.9999999999946
  0
ARC
  8
_0-b_細線3
  6
CONTINUOUS
 62
    7
 10
744.25304136445891
 20
440.60659978508193
 40
2.666666666666667
 50
89.999999999999915
 51
150.00000000000992
  0
LINE
  8
_0-b_細線3
  6
CONTINUOUS
 62
    7
 10
738.38637470073479
 20
440.60659978508193
 11
739.63423921094181
 21
440.60659978508193
  0
ARC
  8
_0-b_細線3
  6
CONTINUOUS
 62
    7
 10
763.45304136151572
 20
437.93993311841479
 40
2.666666666666667
 50
0
 51
89.999999999999915
  0
ARC
  8
_0-b_細線3
  6
CONTINUOUS
 62
    7
 10
762.20517685130949
 20
443.27326645174838
 40
2.666666666666667
 50
209.99999999999616
 51
269.99999999999977
  0
ARC
  8
_0-b_細線3
  6
CONTINUOUS
 62
    7
 10
757.58637469779171
 20
440.60659978508193
 40
2.666666666666667
 50
29.999999999991321
 51
89.999999999985349
  0
LINE
  8
_0-b_細線3
  6
CONTINUOUS
 62
    7
 10
763.45304136151572
 20
440.60659978508193
 11
762.20517685130949
 21
440.60659978508193
  0
ARC
  8
_0-b_細線3
  6
CONTINUOUS
 62
    7
 10
737.05304136740131
 20
434.20659978508195
 40
1.3333333333333335
 50
179.99999999999983
 51
269.99999999999977
  0
LINE
  8
_0-b_細線3
  6
CONTINUOUS
 62
    7
 10
735.71970803406839
 20
437.93993311841479
 11
735.71970803406839
 21
434.20659978508195
  0
ARC
  8
_0-b_細線3
  6
CONTINUOUS
 62
    7
 10
764.78637469484931
 20
434.20659978508195
 40
1.3333333333333335
 50
269.99999999999977
 51
359.99999999999966
  0
LINE
  8
_0-b_細線3
  6
CONTINUOUS
 62
    7
 10
766.11970802818291
 20
437.93993311841479
 11
766.11970802818291
 21
434.20659978508195
  0
ARC
  8
_0-b_細線3
  6
CONTINUOUS
 62
    7
 10
743.71970803406839
 20
430.20659978508195
 40
2.666666666666667
 50
0
 51
89.999999999999915
  0
LINE
  8
_0-b_細線3
  6
CONTINUOUS
 62
    7
 10
743.71970803406839
 20
432.87326645174835
 11
737.05304136740131
 21
432.87326645174835
  0
ARC
  8
_0-b_細線3
  6
CONTINUOUS
 62
    7
 10
758.11970803406837
 20
430.20659978508195
 40
2.666666666666667
 50
89.999999999999915
 51
179.99999999999983
  0
LINE
  8
_0-b_細線3
  6
CONTINUOUS
 62
    7
 10
758.11970802818212
 20
432.87326645174835
 11
764.78637469484931
 21
432.87326645174835
  0
LINE
  8
_0-b_細線3
  6
CONTINUOUS
 62
    7
 10
757.58637469779171
 20
443.27326645174838
 11
744.25304136445891
 21
443.27326645174838
  0
LINE
  8
_0-b_細線3
  6
CONTINUOUS
 62
    7
 10
746.38637469779246
 20
389.93993311841479
 11
746.38637470073479
 21
430.20659978508195
  0
LINE
  8
_0-b_細線3
  6
CONTINUOUS
 62
    7
 10
755.45304136445884
 20
389.93993311841479
 11
755.45304136740197
 21
430.20659978508195
  0
LINE
  8
_0-b_細線3
  6
CONTINUOUS
 62
    7
 10
755.45304136445884
 20
389.93993311841479
 11
746.38637469779246
 21
389.93993311841479
  0
ARC
  8
_0-b_細線3
  6
CONTINUOUS
 62
    7
 10
693.05304136643645
 20
437.93993311841479
 40
2.666666666666667
 50
89.999999999999915
 51
179.99999999999983
  0
ARC
  8
_0-b_細線3
  6
CONTINUOUS
 62
    7
 10
694.30090587664347
 20
443.27326645174838
 40
2.666666666666667
 50
269.99999999999977
 51
329.9999999999946
  0
ARC
  8
_0-b_細線3
  6
CONTINUOUS
 62
    7
 10
698.91970803016045
 20
440.60659978508193
 40
2.666666666666667
 50
89.999999999999915
 51
150.0000000000087
  0
LINE
  8
_0-b_細線3
  6
CONTINUOUS
 62
    7
 10
693.05304136643645
 20
440.60659978508193
 11
694.30090587664347
 21
440.60659978508193
  0
ARC
  8
_0-b_細線3
  6
CONTINUOUS
 62
    7
 10
718.11970802721737
 20
437.93993311841479
 40
2.666666666666667
 50
0
 51
89.999999999999915
  0
ARC
  8
_0-b_細線3
  6
CONTINUOUS
 62
    7
 10
716.87184351701035
 20
443.27326645174838
 40
2.666666666666667
 50
210.00000000000469
 51
269.99999999999977
  0
ARC
  8
_0-b_細線3
  6
CONTINUOUS
 62
    7
 10
712.25304136349405
 20
440.60659978508193
 40
2.666666666666667
 50
29.99999999999865
 51
89.999999999999901
  0
LINE
  8
_0-b_細線3
  6
CONTINUOUS
 62
    7
 10
718.11970802721737
 20
440.60659978508193
 11
716.87184351701035
 21
440.60659978508193
  0
ARC
  8
_0-b_細線3
  6
CONTINUOUS
 62
    7
 10
691.71970803310364
 20
434.20659978508195
 40
1.3333333333333335
 50
179.99999999999983
 51
269.99999999999977
  0
LINE
  8
_0-b_細線3
  6
CONTINUOUS
 62
    7
 10
690.38637469977016
 20
437.93993311841479
 11
690.38637469977016
 21
434.20659978508195
  0
ARC
  8
_0-b_細線3
  6
CONTINUOUS
 62
    7
 10
719.45304136055097
 20
434.20659978508195
 40
1.3333333333333335
 50
269.99999999999977
 51
359.99999999999966
  0
LINE
  8
_0-b_細線3
  6
CONTINUOUS
 62
    7
 10
720.78637469388377
 20
437.93993311841479
 11
720.78637469388377
 21
434.20659978508195
  0
ARC
  8
_0-b_細線3
  6
CONTINUOUS
 62
    7
 10
698.38637469977004
 20
430.20659978508195
 40
2.666666666666667
 50
0
 51
89.999999999999915
  0
LINE
  8
_0-b_細線3
  6
CONTINUOUS
 62
    7
 10
698.38637469977004
 20
432.87326645174835
 11
691.71970803310364
 21
432.87326645174835
  0
ARC
  8
_0-b_細線3
  6
CONTINUOUS
 62
    7
 10
712.78637469977002
 20
430.20659978508195
 40
2.666666666666667
 50
89.999999999999915
 51
179.99999999999983
  0
LINE
  8
_0-b_細線3
  6
CONTINUOUS
 62
    7
 10
712.78637469388377
 20
432.87326645174835
 11
719.45304136055097
 21
432.87326645174835
  0
LINE
  8
_0-b_細線3
  6
CONTINUOUS
 62
    7
 10
712.25304136349405
 20
443.27326645174838
 11
698.91970803016045
 21
443.27326645174838
  0
LINE
  8
_0-b_細線3
  6
CONTINUOUS
 62
    7
 10
701.05304136349332
 20
389.93993311841479
 11
701.05304136643645
 21
430.20659978508195
  0
LINE
  8
_0-b_細線3
  6
CONTINUOUS
 62
    7
 10
710.1197080301605
 20
389.93993311841479
 11
710.11970803310362
 21
430.20659978508195
  0
LINE
  8
_0-b_細線3
  6
CONTINUOUS
 62
    7
 10
710.1197080301605
 20
389.93993311841479
 11
701.05304136349332
 21
389.93993311841479
  0
ARC
  8
_0-b_細線3
  6
CONTINUOUS
 62
    7
 10
647.71970803213821
 20
437.93993311841479
 40
2.666666666666667
 50
89.999999999999915
 51
179.99999999999983
  0
ARC
  8
_0-b_細線3
  6
CONTINUOUS
 62
    7
 10
648.96757254234524
 20
443.27326645174838
 40
2.666666666666667
 50
269.99999999999977
 51
329.9999999999946
  0
ARC
  8
_0-b_細線3
  6
CONTINUOUS
 62
    7
 10
653.58637469586222
 20
440.60659978508193
 40
2.666666666666667
 50
89.999999999999915
 51
150.0000000000087
  0
LINE
  8
_0-b_細線3
  6
CONTINUOUS
 62
    7
 10
647.71970803213821
 20
440.60659978508193
 11
648.96757254234524
 21
440.60659978508193
  0
ARC
  8
_0-b_細線3
  6
CONTINUOUS
 62
    7
 10
672.78637469291914
 20
437.93993311841479
 40
2.666666666666667
 50
0
 51
89.999999999999915
  0
ARC
  8
_0-b_細線3
  6
CONTINUOUS
 62
    7
 10
671.5385101827128
 20
443.27326645174838
 40
2.666666666666667
 50
209.99999999999739
 51
269.99999999999977
  0
ARC
  8
_0-b_細線3
  6
CONTINUOUS
 62
    7
 10
666.91970802919502
 20
440.60659978508193
 40
2.666666666666667
 50
29.999999999990099
 51
89.999999999982904
  0
LINE
  8
_0-b_細線3
  6
CONTINUOUS
 62
    7
 10
672.78637469291914
 20
440.60659978508193
 11
671.5385101827128
 21
440.60659978508193
  0
ARC
  8
_0-b_細線3
  6
CONTINUOUS
 62
    7
 10
646.3863746988053
 20
434.20659978508195
 40
1.3333333333333335
 50
179.99999999999983
 51
269.99999999999977
  0
LINE
  8
_0-b_細線3
  6
CONTINUOUS
 62
    7
 10
645.05304136547181
 20
437.93993311841479
 11
645.05304136547181
 21
434.20659978508195
  0
ARC
  8
_0-b_細線3
  6
CONTINUOUS
 62
    7
 10
674.11970802625262
 20
434.20659978508195
 40
1.3333333333333335
 50
269.99999999999977
 51
359.99999999999966
  0
LINE
  8
_0-b_細線3
  6
CONTINUOUS
 62
    7
 10
675.45304135958622
 20
437.93993311841479
 11
675.45304135958622
 21
434.20659978508195
  0
ARC
  8
_0-b_細線3
  6
CONTINUOUS
 62
    7
 10
653.05304136547181
 20
430.20659978508195
 40
2.666666666666667
 50
0
 51
89.999999999999915
  0
LINE
  8
_0-b_細線3
  6
CONTINUOUS
 62
    7
 10
653.05304136547181
 20
432.87326645174835
 11
646.3863746988053
 21
432.87326645174835
  0
ARC
  8
_0-b_細線3
  6
CONTINUOUS
 62
    7
 10
667.45304136547179
 20
430.20659978508195
 40
2.666666666666667
 50
89.999999999999915
 51
179.99999999999983
  0
LINE
  8
_0-b_細線3
  6
CONTINUOUS
 62
    7
 10
667.45304135958554
 20
432.87326645174835
 11
674.11970802625262
 21
432.87326645174835
  0
LINE
  8
_0-b_細線3
  6
CONTINUOUS
 62
    7
 10
666.91970802919502
 20
443.27326645174838
 11
653.58637469586222
 21
443.27326645174838
  0
LINE
  8
_0-b_細線3
  6
CONTINUOUS
 62
    7
 10
655.71970802919577
 20
389.93993311841479
 11
655.71970803213821
 21
430.20659978508195
  0
LINE
  8
_0-b_細線3
  6
CONTINUOUS
 62
    7
 10
664.78637469586226
 20
389.93993311841479
 11
664.78637469880539
 21
430.20659978508195
  0
LINE
  8
_0-b_細線3
  6
CONTINUOUS
 62
    7
 10
664.78637469586226
 20
389.93993311841479
 11
655.71970802919577
 21
389.93993311841479
  0
LINE
  8
_0-d_寸法3
  6
CONTINUOUS
 62
    7
 10
675.45304135958622
 20
453.93993311841479
 11
675.45304135958622
 21
525.93993311841484
  0
LINE
  8
_0-d_寸法3
  6
CONTINUOUS
 62
    7
 10
675.45304135958622
 20
517.93993311841484
 11
659.99822813896117
 21
513.79882839677452
  0
LINE
  8
_0-d_寸法3
  6
CONTINUOUS
 62
    7
 10
675.45304135958622
 20
517.93993311841484
 11
659.99822813896117
 21
522.08103784005527
  0
LINE
  8
_0-d_寸法3
  6
CONTINUOUS
 62
    7
 10
690.38637469977016
 20
453.93993311841479
 11
690.38637469977016
 21
525.93993311841484
  0
LINE
  8
_0-d_寸法3
  6
CONTINUOUS
 62
    7
 10
612.4547122665191
 20
517.93993311841484
 11
690.38637469977016
 21
517.93993311841484
  0
TEXT
  8
_0-d_寸法3
 62
    7
 10
612.4547122665191
 20
493.93993311841484
 40
24
 41
1
 50
0
  1
(5.6)
  0
LINE
  8
_0-d_寸法3
  6
CONTINUOUS
 62
    7
 10
690.38637469977016
 20
517.93993311841484
 11
705.84118792039521
 21
522.08103784005516
  0
LINE
  8
_0-d_寸法3
  6
CONTINUOUS
 62
    7
 10
690.38637469977016
 20
517.93993311841484
 11
705.84118792039521
 21
513.79882839677452
  0
LINE
  8
_0-d_寸法3
  6
CONTINUOUS
 62
    7
 10
720.78637469388377
 20
453.93993311841479
 11
720.78637469388377
 21
525.93993311841484
  0
LINE
  8
_0-d_寸法3
  6
CONTINUOUS
 62
    7
 10
720.78637469388377
 20
517.93993311841484
 11
705.33156147325872
 21
513.79882839677452
  0
LINE
  8
_0-d_寸法3
  6
CONTINUOUS
 62
    7
 10
720.78637469388377
 20
517.93993311841484
 11
705.33156147325872
 21
522.08103784005527
  0
LINE
  8
_0-d_寸法3
  6
CONTINUOUS
 62
    7
 10
690.38637469977016
 20
517.93993311841484
 11
720.78637469388377
 21
517.93993311841484
  0
TEXT
  8
_0-d_寸法3
 62
    7
 10
675.56286041466706
 20
517.93993311841484
 40
24
 41
1
 50
0
  1
11.4
  0
ARC
  8
_0-b_細線3
  6
CONTINUOUS
 62
    7
 10
965.05304137171822
 20
437.93993311841479
 40
2.666666666666667
 50
89.999999999999915
 51
179.99999999999983
  0
ARC
  8
_0-b_細線3
  6
CONTINUOUS
 62
    7
 10
966.30090588192445
 20
443.27326645174838
 40
2.666666666666667
 50
269.99999999999977
 51
329.9999999999946
  0
ARC
  8
_0-b_細線3
  6
CONTINUOUS
 62
    7
 10
970.91970803544143
 20
440.60659978508193
 40
2.666666666666667
 50
89.999999999999915
 51
150.0000000000087
  0
LINE
  8
_0-b_細線3
  6
CONTINUOUS
 62
    7
 10
965.05304137171822
 20
440.60659978508193
 11
966.30090588192445
 21
440.60659978508193
  0
ARC
  8
_0-b_細線3
  6
CONTINUOUS
 62
    7
 10
990.11970803249903
 20
437.93993311841479
 40
2.666666666666667
 50
0
 51
89.999999999999915
  0
ARC
  8
_0-b_細線3
  6
CONTINUOUS
 62
    7
 10
988.87184352229212
 20
443.27326645174838
 40
2.666666666666667
 50
210.00000000000347
 51
269.99999999999977
  0
ARC
  8
_0-b_細線3
  6
CONTINUOUS
 62
    7
 10
984.25304136877503
 20
440.60659978508193
 40
2.666666666666667
 50
29.999999999991321
 51
89.999999999999901
  0
LINE
  8
_0-b_細線3
  6
CONTINUOUS
 62
    7
 10
990.11970803249903
 20
440.60659978508193
 11
988.87184352229212
 21
440.60659978508193
  0
ARC
  8
_0-b_細線3
  6
CONTINUOUS
 62
    7
 10
963.71970803838531
 20
434.20659978508195
 40
1.3333333333333335
 50
179.99999999999983
 51
269.99999999999977
  0
LINE
  8
_0-b_細線3
  6
CONTINUOUS
 62
    7
 10
962.38637470505103
 20
437.93993311841479
 11
962.38637470505103
 21
434.20659978508195
  0
ARC
  8
_0-b_細線3
  6
CONTINUOUS
 62
    7
 10
991.45304136583263
 20
434.20659978508195
 40
1.3333333333333335
 50
269.99999999999977
 51
359.99999999999966
  0
LINE
  8
_0-b_細線3
  6
CONTINUOUS
 62
    7
 10
992.78637469916555
 20
437.93993311841479
 11
992.78637469916555
 21
434.20659978508195
  0
ARC
  8
_0-b_細線3
  6
CONTINUOUS
 62
    7
 10
970.38637470505103
 20
430.20659978508195
 40
2.666666666666667
 50
0
 51
89.999999999999915
  0
LINE
  8
_0-b_細線3
  6
CONTINUOUS
 62
    7
 10
970.38637470505103
 20
432.87326645174835
 11
963.71970803838531
 21
432.87326645174835
  0
ARC
  8
_0-b_細線3
  6
CONTINUOUS
 62
    7
 10
984.7863747050518
 20
430.20659978508195
 40
2.666666666666667
 50
89.999999999999915
 51
179.99999999999983
  0
LINE
  8
_0-b_細線3
  6
CONTINUOUS
 62
    7
 10
984.78637469916555
 20
432.87326645174835
 11
991.45304136583263
 21
432.87326645174835
  0
LINE
  8
_0-b_細線3
  6
CONTINUOUS
 62
    7
 10
984.25304136877503
 20
443.27326645174838
 11
970.91970803544143
 21
443.27326645174838
  0
LINE
  8
_0-b_細線3
  6
CONTINUOUS
 62
    7
 10
973.05304136877578
 20
389.93993311841479
 11
973.05304137171822
 21
430.20659978508195
  0
LINE
  8
_0-b_細線3
  6
CONTINUOUS
 62
    7
 10
982.11970803544216
 20
389.93993311841479
 11
982.11970803838528
 21
430.20659978508195
  0
LINE
  8
_0-b_細線3
  6
CONTINUOUS
 62
    7
 10
982.11970803544216
 20
389.93993311841479
 11
973.05304136877578
 21
389.93993311841479
  0
ARC
  8
_0-b_細線3
  6
CONTINUOUS
 62
    7
 10
601.31970803213812
 20
437.93993311841479
 40
2.666666666666667
 50
89.999999999999915
 51
179.99999999999983
  0
ARC
  8
_0-b_細線3
  6
CONTINUOUS
 62
    7
 10
602.56757254234515
 20
443.27326645174838
 40
2.666666666666667
 50
269.99999999999977
 51
329.9999999999946
  0
ARC
  8
_0-b_細線3
  6
CONTINUOUS
 62
    7
 10
607.18637469586224
 20
440.60659978508193
 40
2.666666666666667
 50
89.999999999999915
 51
150.00000000000992
  0
LINE
  8
_0-b_細線3
  6
CONTINUOUS
 62
    7
 10
601.31970803213812
 20
440.60659978508193
 11
602.56757254234515
 21
440.60659978508193
  0
ARC
  8
_0-b_細線3
  6
CONTINUOUS
 62
    7
 10
626.38637469291905
 20
437.93993311841479
 40
2.666666666666667
 50
0
 51
89.999999999999915
  0
ARC
  8
_0-b_細線3
  6
CONTINUOUS
 62
    7
 10
625.13851018271282
 20
443.27326645174838
 40
2.666666666666667
 50
209.99999999999616
 51
269.99999999999977
  0
ARC
  8
_0-b_細線3
  6
CONTINUOUS
 62
    7
 10
620.51970802919504
 20
440.60659978508193
 40
2.666666666666667
 50
29.999999999991321
 51
89.999999999985349
  0
LINE
  8
_0-b_細線3
  6
CONTINUOUS
 62
    7
 10
626.38637469291905
 20
440.60659978508193
 11
625.13851018271282
 21
440.60659978508193
  0
ARC
  8
_0-b_細線3
  6
CONTINUOUS
 62
    7
 10
599.98637469880532
 20
434.20659978508195
 40
1.3333333333333335
 50
179.99999999999983
 51
269.99999999999977
  0
LINE
  8
_0-b_細線3
  6
CONTINUOUS
 62
    7
 10
598.65304136547172
 20
437.93993311841479
 11
598.65304136547172
 21
434.20659978508195
  0
ARC
  8
_0-b_細線3
  6
CONTINUOUS
 62
    7
 10
627.71970802625265
 20
434.20659978508195
 40
1.3333333333333335
 50
269.99999999999977
 51
359.99999999999966
  0
LINE
  8
_0-b_細線3
  6
CONTINUOUS
 62
    7
 10
629.05304135958625
 20
437.93993311841479
 11
629.05304135958625
 21
434.20659978508195
  0
ARC
  8
_0-b_細線3
  6
CONTINUOUS
 62
    7
 10
606.65304136547172
 20
430.20659978508195
 40
2.666666666666667
 50
0
 51
89.999999999999915
  0
LINE
  8
_0-b_細線3
  6
CONTINUOUS
 62
    7
 10
606.65304136547172
 20
432.87326645174835
 11
599.98637469880532
 21
432.87326645174835
  0
ARC
  8
_0-b_細線3
  6
CONTINUOUS
 62
    7
 10
621.0530413654717
 20
430.20659978508195
 40
2.666666666666667
 50
89.999999999999915
 51
179.99999999999983
  0
LINE
  8
_0-b_細線3
  6
CONTINUOUS
 62
    7
 10
621.05304135958545
 20
432.87326645174835
 11
627.71970802625265
 21
432.87326645174835
  0
LINE
  8
_0-b_細線3
  6
CONTINUOUS
 62
    7
 10
620.51970802919504
 20
443.27326645174838
 11
607.18637469586224
 21
443.27326645174838
  0
LINE
  8
_0-b_細線3
  6
CONTINUOUS
 62
    7
 10
609.31970802919579
 20
389.93993311841479
 11
609.31970803213812
 21
430.20659978508195
  0
LINE
  8
_0-b_細線3
  6
CONTINUOUS
 62
    7
 10
618.38637469586217
 20
389.93993311841479
 11
618.3863746988053
 21
430.20659978508195
  0
LINE
  8
_0-b_細線3
  6
CONTINUOUS
 62
    7
 10
618.38637469586217
 20
389.93993311841479
 11
609.31970802919579
 21
389.93993311841479
  0
ARC
  8
_0-b_細線3
  6
CONTINUOUS
 62
    7
 10
554.91970803117408
 20
437.93993311841479
 40
2.666666666666667
 50
89.999999999999915
 51
179.99999999999983
  0
ARC
  8
_0-b_細線3
  6
CONTINUOUS
 62
    7
 10
556.16757254138042
 20
443.27326645174838
 40
2.666666666666667
 50
269.99999999999977
 51
329.9999999999946
  0
ARC
  8
_0-b_細線3
  6
CONTINUOUS
 62
    7
 10
560.7863746948974
 20
440.60659978508193
 40
2.666666666666667
 50
89.999999999999915
 51
150.0000000000087
  0
LINE
  8
_0-b_細線3
  6
CONTINUOUS
 62
    7
 10
554.91970803117408
 20
440.60659978508193
 11
556.16757254138042
 21
440.60659978508193
  0
ARC
  8
_0-b_細線3
  6
CONTINUOUS
 62
    7
 10
579.98637469195501
 20
437.93993311841479
 40
2.666666666666667
 50
0
 51
89.999999999999915
  0
ARC
  8
_0-b_細線3
  6
CONTINUOUS
 62
    7
 10
578.73851018174798
 20
443.27326645174838
 40
2.666666666666667
 50
210.00000000000469
 51
269.99999999999977
  0
ARC
  8
_0-b_細線3
  6
CONTINUOUS
 62
    7
 10
574.119708028231
 20
440.60659978508193
 40
2.666666666666667
 50
29.999999999991321
 51
89.999999999999901
  0
LINE
  8
_0-b_細線3
  6
CONTINUOUS
 62
    7
 10
579.98637469195501
 20
440.60659978508193
 11
578.73851018174798
 21
440.60659978508193
  0
ARC
  8
_0-b_細線3
  6
CONTINUOUS
 62
    7
 10
553.58637469784048
 20
434.20659978508195
 40
1.3333333333333335
 50
179.99999999999983
 51
269.99999999999977
  0
LINE
  8
_0-b_細線3
  6
CONTINUOUS
 62
    7
 10
552.253041364507
 20
437.93993311841479
 11
552.253041364507
 21
434.20659978508195
  0
ARC
  8
_0-b_細線3
  6
CONTINUOUS
 62
    7
 10
581.31970802528861
 20
434.20659978508195
 40
1.3333333333333335
 50
269.99999999999977
 51
359.99999999999966
  0
LINE
  8
_0-b_細線3
  6
CONTINUOUS
 62
    7
 10
582.65304135862141
 20
437.93993311841479
 11
582.65304135862141
 21
434.20659978508195
  0
ARC
  8
_0-b_細線3
  6
CONTINUOUS
 62
    7
 10
560.253041364507
 20
430.20659978508195
 40
2.666666666666667
 50
0
 51
89.999999999999915
  0
LINE
  8
_0-b_細線3
  6
CONTINUOUS
 62
    7
 10
560.253041364507
 20
432.87326645174835
 11
553.58637469784048
 21
432.87326645174835
  0
ARC
  8
_0-b_細線3
  6
CONTINUOUS
 62
    7
 10
574.65304136450766
 20
430.20659978508195
 40
2.666666666666667
 50
89.999999999999915
 51
179.99999999999983
  0
LINE
  8
_0-b_細線3
  6
CONTINUOUS
 62
    7
 10
574.65304135862141
 20
432.87326645174835
 11
581.31970802528861
 21
432.87326645174835
  0
LINE
  8
_0-b_細線3
  6
CONTINUOUS
 62
    7
 10
574.119708028231
 20
443.27326645174838
 11
560.7863746948974
 21
443.27326645174838
  0
LINE
  8
_0-b_細線3
  6
CONTINUOUS
 62
    7
 10
562.91970802823096
 20
389.93993311841479
 11
562.91970803117408
 21
430.20659978508195
  0
LINE
  8
_0-b_細線3
  6
CONTINUOUS
 62
    7
 10
571.98637469489745
 20
389.93993311841479
 11
571.98637469784057
 21
430.20659978508195
  0
LINE
  8
_0-b_細線3
  6
CONTINUOUS
 62
    7
 10
571.98637469489745
 20
389.93993311841479
 11
562.91970802823096
 21
389.93993311841479
  0
ARC
  8
_0-b_細線3
  6
CONTINUOUS
 62
    7
 10
1011.4530413726829
 20
437.93993311841479
 40
2.666666666666667
 50
89.999999999999915
 51
179.99999999999983
  0
ARC
  8
_0-b_細線3
  6
CONTINUOUS
 62
    7
 10
1012.70090588289
 20
443.27326645174838
 40
2.666666666666667
 50
269.99999999999977
 51
329.9999999999946
  0
ARC
  8
_0-b_細線3
  6
CONTINUOUS
 62
    7
 10
1017.3197080364063
 20
440.60659978508193
 40
2.666666666666667
 50
89.999999999999915
 51
150.00000000000136
  0
LINE
  8
_0-b_細線3
  6
CONTINUOUS
 62
    7
 10
1011.4530413726829
 20
440.60659978508193
 11
1012.70090588289
 21
440.60659978508193
  0
ARC
  8
_0-b_細線3
  6
CONTINUOUS
 62
    7
 10
1036.5197080334638
 20
437.93993311841479
 40
2.666666666666667
 50
0
 51
89.999999999999915
  0
ARC
  8
_0-b_細線3
  6
CONTINUOUS
 62
    7
 10
1035.2718435232568
 20
443.27326645174838
 40
2.666666666666667
 50
210.00000000000347
 51
269.99999999999977
  0
ARC
  8
_0-b_細線3
  6
CONTINUOUS
 62
    7
 10
1030.6530413697399
 20
440.60659978508193
 40
2.666666666666667
 50
29.999999999992543
 51
89.999999999985349
  0
LINE
  8
_0-b_細線3
  6
CONTINUOUS
 62
    7
 10
1036.5197080334638
 20
440.60659978508193
 11
1035.2718435232568
 21
440.60659978508193
  0
ARC
  8
_0-b_細線3
  6
CONTINUOUS
 62
    7
 10
1010.1197080393493
 20
434.20659978508195
 40
1.3333333333333335
 50
179.99999999999983
 51
269.99999999999977
  0
LINE
  8
_0-b_細線3
  6
CONTINUOUS
 62
    7
 10
1008.7863747060165
 20
437.93993311841479
 11
1008.7863747060165
 21
434.20659978508195
  0
ARC
  8
_0-b_細線3
  6
CONTINUOUS
 62
    7
 10
1037.8530413667975
 20
434.20659978508195
 40
1.3333333333333335
 50
269.99999999999977
 51
359.99999999999966
  0
LINE
  8
_0-b_細線3
  6
CONTINUOUS
 62
    7
 10
1039.1863747001303
 20
437.93993311841479
 11
1039.1863747001303
 21
434.20659978508195
  0
ARC
  8
_0-b_細線3
  6
CONTINUOUS
 62
    7
 10
1016.7863747060165
 20
430.20659978508195
 40
2.666666666666667
 50
0
 51
89.999999999999915
  0
LINE
  8
_0-b_細線3
  6
CONTINUOUS
 62
    7
 10
1016.7863747060165
 20
432.87326645174835
 11
1010.1197080393493
 21
432.87326645174835
  0
ARC
  8
_0-b_細線3
  6
CONTINUOUS
 62
    7
 10
1031.1863747060165
 20
430.20659978508195
 40
2.666666666666667
 50
89.999999999999915
 51
179.99999999999983
  0
LINE
  8
_0-b_細線3
  6
CONTINUOUS
 62
    7
 10
1031.1863747001303
 20
432.87326645174835
 11
1037.8530413667975
 21
432.87326645174835
  0
LINE
  8
_0-b_細線3
  6
CONTINUOUS
 62
    7
 10
1030.6530413697399
 20
443.27326645174838
 11
1017.3197080364063
 21
443.27326645174838
  0
LINE
  8
_0-b_細線3
  6
CONTINUOUS
 62
    7
 10
1019.4530413697398
 20
389.93993311841479
 11
1019.4530413726829
 21
430.20659978508195
  0
LINE
  8
_0-b_細線3
  6
CONTINUOUS
 62
    7
 10
1028.5197080364069
 20
389.93993311841479
 11
1028.51970803935
 21
430.20659978508195
  0
LINE
  8
_0-b_細線3
  6
CONTINUOUS
 62
    7
 10
1028.5197080364069
 20
389.93993311841479
 11
1019.4530413697398
 21
389.93993311841479
  0
ARC
  8
_0-b_細線3
  6
CONTINUOUS
 62
    7
 10
1057.8530413722247
 20
437.93993311841479
 40
2.666666666666667
 50
89.999999999999915
 51
179.99999999999983
  0
ARC
  8
_0-b_細線3
  6
CONTINUOUS
 62
    7
 10
1059.1009058824316
 20
443.27326645174838
 40
2.666666666666667
 50
269.99999999999977
 51
329.99999999999579
  0
ARC
  8
_0-b_細線3
  6
CONTINUOUS
 62
    7
 10
1063.7197080359488
 20
440.60659978508193
 40
2.666666666666667
 50
89.999999999999915
 51
150.00000000000992
  0
LINE
  8
_0-b_細線3
  6
CONTINUOUS
 62
    7
 10
1057.8530413722247
 20
440.60659978508193
 11
1059.1009058824316
 21
440.60659978508193
  0
ARC
  8
_0-b_細線3
  6
CONTINUOUS
 62
    7
 10
1082.9197080330055
 20
437.93993311841479
 40
2.666666666666667
 50
0
 51
89.999999999999915
  0
ARC
  8
_0-b_細線3
  6
CONTINUOUS
 62
    7
 10
1081.671843522799
 20
443.27326645174838
 40
2.666666666666667
 50
209.99999999999858
 51
269.99999999999977
  0
ARC
  8
_0-b_細線3
  6
CONTINUOUS
 62
    7
 10
1077.0530413692823
 20
440.60659978508193
 40
2.666666666666667
 50
29.999999999999872
 51
89.999999999999901
  0
LINE
  8
_0-b_細線3
  6
CONTINUOUS
 62
    7
 10
1082.9197080330055
 20
440.60659978508193
 11
1081.671843522799
 21
440.60659978508193
  0
ARC
  8
_0-b_細線3
  6
CONTINUOUS
 62
    7
 10
1056.5197080388916
 20
434.20659978508195
 40
1.3333333333333335
 50
179.99999999999983
 51
269.99999999999977
  0
LINE
  8
_0-b_細線3
  6
CONTINUOUS
 62
    7
 10
1055.1863747055581
 20
437.93993311841479
 11
1055.1863747055581
 21
434.20659978508195
  0
ARC
  8
_0-b_細線3
  6
CONTINUOUS
 62
    7
 10
1084.2530413663389
 20
434.20659978508195
 40
1.3333333333333335
 50
269.99999999999977
 51
359.99999999999966
  0
LINE
  8
_0-b_細線3
  6
CONTINUOUS
 62
    7
 10
1085.5863746996724
 20
437.93993311841479
 11
1085.5863746996724
 21
434.20659978508195
  0
ARC
  8
_0-b_細線3
  6
CONTINUOUS
 62
    7
 10
1063.1863747055581
 20
430.20659978508195
 40
2.666666666666667
 50
0
 51
89.999999999999915
  0
LINE
  8
_0-b_細線3
  6
CONTINUOUS
 62
    7
 10
1063.1863747055581
 20
432.87326645174835
 11
1056.5197080388916
 21
432.87326645174835
  0
ARC
  8
_0-b_細線3
  6
CONTINUOUS
 62
    7
 10
1077.5863747055582
 20
430.20659978508195
 40
2.666666666666667
 50
89.999999999999915
 51
179.99999999999983
  0
LINE
  8
_0-b_細線3
  6
CONTINUOUS
 62
    7
 10
1077.586374699672
 20
432.87326645174835
 11
1084.2530413663389
 21
432.87326645174835
  0
LINE
  8
_0-b_細線3
  6
CONTINUOUS
 62
    7
 10
1077.0530413692823
 20
443.27326645174838
 11
1063.7197080359488
 21
443.27326645174838
  0
LINE
  8
_0-b_細線3
  6
CONTINUOUS
 62
    7
 10
1065.853041369282
 20
389.93993311841479
 11
1065.8530413722247
 21
430.20659978508195
  0
LINE
  8
_0-b_細線3
  6
CONTINUOUS
 62
    7
 10
1074.9197080359486
 20
389.93993311841479
 11
1074.9197080388917
 21
430.20659978508195
  0
LINE
  8
_0-b_細線3
  6
CONTINUOUS
 62
    7
 10
1074.9197080359486
 20
389.93993311841479
 11
1065.853041369282
 21
389.93993311841479
  0
LINE
  8
_0-d_寸法3
  6
CONTINUOUS
 62
    7
 10
886.91970803401898
 20
459.27326645174838
 11
886.91970803401898
 21
525.93993311841484
  0
LINE
  8
_0-d_寸法3
  6
CONTINUOUS
 62
    7
 10
886.91970803401898
 20
517.93993311841484
 11
902.37452125464404
 21
522.08103784005516
  0
LINE
  8
_0-d_寸法3
  6
CONTINUOUS
 62
    7
 10
886.91970803401898
 20
517.93993311841484
 11
902.37452125464404
 21
513.79882839677452
  0
LINE
  8
_0-d_寸法3
  6
CONTINUOUS
 62
    7
 10
932.25304136831744
 20
459.27326645174838
 11
932.25304136831744
 21
525.93993311841484
  0
LINE
  8
_0-d_寸法3
  6
CONTINUOUS
 62
    7
 10
932.25304136831744
 20
517.93993311841484
 11
916.79822814769238
 21
513.79882839677452
  0
LINE
  8
_0-d_寸法3
  6
CONTINUOUS
 62
    7
 10
932.25304136831744
 20
517.93993311841484
 11
916.79822814769238
 21
522.08103784005527
  0
LINE
  8
_0-d_寸法3
  6
CONTINUOUS
 62
    7
 10
886.91970803401898
 20
517.93993311841484
 11
932.25304136831744
 21
517.93993311841484
  0
TEXT
  8
_0-d_寸法3
 62
    7
 10
883.73681103300021
 20
493.93993311841484
 40
24
 41
1
 50
0
  1
(17)
  0
LINE
  8
_0-d_寸法3
  6
CONTINUOUS
 62
    7
 10
932.25304136831744
 20
517.93993311841484
 11
947.70785458894261
 21
522.08103784005505
  0
LINE
  8
_0-d_寸法3
  6
CONTINUOUS
 62
    7
 10
932.25304136831744
 20
517.93993311841484
 11
947.7078545889425
 21
513.79882839677441
  0
LINE
  8
_0-d_寸法3
  6
CONTINUOUS
 62
    7
 10
977.58637470261579
 20
459.27326645174838
 11
977.58637470261579
 21
525.93993311841484
  0
LINE
  8
_0-d_寸法3
  6
CONTINUOUS
 62
    7
 10
977.58637470261579
 20
517.93993311841484
 11
962.13156148199073
 21
513.79882839677452
  0
LINE
  8
_0-d_寸法3
  6
CONTINUOUS
 62
    7
 10
977.58637470261579
 20
517.93993311841484
 11
962.13156148199073
 21
522.08103784005527
  0
LINE
  8
_0-d_寸法3
  6
CONTINUOUS
 62
    7
 10
932.25304136831744
 20
517.93993311841484
 11
977.58637470261579
 21
517.93993311841484
  0
TEXT
  8
_0-d_寸法3
 62
    7
 10
932.37681103300031
 20
517.93993311841484
 40
24
 41
1
 50
0
  1
(17)
  0
LINE
  8
_0-d_寸法3
  6
CONTINUOUS
 62
    7
 10
783.14660865679912
 20
399.11715610003154
 11
726.58286189570231
 21
438.72351797153681
  0
LINE
  8
_0-d_寸法3
  6
CONTINUOUS
 62
    7
 10
733.13607825001418
 20
434.13490648072843
 11
728.99497352837386
 21
449.58971970135354
  0
LINE
  8
_0-d_寸法3
  6
CONTINUOUS
 62
    7
 10
733.13607825001418
 20
434.13490648072843
 11
737.2771829716545
 21
449.58971970135354
  0
LINE
  8
_0-d_寸法3
  6
CONTINUOUS
 62
    7
 10
783.14660865679912
 20
452.45048943336514
 11
726.58286189570231
 21
492.05685130487035
  0
LINE
  8
_0-d_寸法3
  6
CONTINUOUS
 62
    7
 10
733.13607825001418
 20
487.46823981406197
 11
737.27718297165438
 21
472.01342659343686
  0
LINE
  8
_0-d_寸法3
  6
CONTINUOUS
 62
    7
 10
733.13607825001418
 20
487.46823981406197
 11
728.99497352837375
 21
472.01342659343692
  0
LINE
  8
_0-d_寸法3
  6
CONTINUOUS
 62
    7
 10
733.13607825001418
 20
434.13490648072843
 11
733.13607825001418
 21
487.46823981406197
  0
TEXT
  8
_0-d_寸法3
 62
    7
 10
733.13607825001418
 20
448.80157314739483
 40
24
 41
1
 50
90
  1
20
  0
LINE
  8
_0-d_寸法3
  6
CONTINUOUS
 62
    7
 10
618.91970803208937
 20
373.94051712110013
 11
618.91970803208937
 21
277.175676746318
  0
LINE
  8
_0-d_寸法3
  6
CONTINUOUS
 62
    7
 10
618.91970803208937
 20
285.175676746318
 11
634.37452125271443
 21
289.31678146795821
  0
LINE
  8
_0-d_寸法3
  6
CONTINUOUS
 62
    7
 10
618.91970803208937
 20
285.175676746318
 11
634.37452125271443
 21
281.03457202467757
  0
LINE
  8
_0-d_寸法3
  6
CONTINUOUS
 62
    7
 10
1018.9197080320895
 20
373.94051712110013
 11
1018.9197080320895
 21
277.175676746318
  0
LINE
  8
_0-d_寸法3
  6
CONTINUOUS
 62
    7
 10
1018.9197080320895
 20
285.175676746318
 11
1003.4648948114644
 21
281.03457202467769
  0
LINE
  8
_0-d_寸法3
  6
CONTINUOUS
 62
    7
 10
1018.9197080320895
 20
285.175676746318
 11
1003.4648948114644
 21
289.31678146795832
  0
LINE
  8
_0-d_寸法3
  6
CONTINUOUS
 62
    7
 10
618.91970803208937
 20
285.175676746318
 11
1018.9197080320895
 21
285.175676746318
  0
TEXT
  8
_0-d_寸法3
 62
    7
 10
800.91970803208937
 20
285.175676746318
 40
24
 41
1
 50
0
  1
150
  0
LINE
  8
_0-a_極細3
  6
CONTINUOUS
 62
    7
 10
469.09559887931289
 20
301.75123898110587
 11
460.8871154394966
 21
324.30386187996783
  0
LINE
  8
_0-a_極細3
  6
CONTINUOUS
 62
    7
 10
549.08606715738722
 20
356.40565499876141
 11
557.29455059720283
 21
333.85303209989979
  0
LINE
  8
_0-a_極細3
  6
CONTINUOUS
 62
    7
 10
460.8871154394966
 20
324.30386187996783
 11
549.08606715738722
 21
356.40565499876175
  0
LINE
  8
_0-a_極細3
  6
CONTINUOUS
 62
    7
 10
469.09559887931289
 20
301.75123898110587
 11
557.29455059720283
 21
333.85303209989979
  0
LINE
  8
_0-a_極細3
  6
CENTER1
 62
    7
 10
457.06266373221638
 20
310.1417423664891
 11
559.51229650432174
 21
347.43035914254546
  0
LINE
  8
_0-a_極細3
  6
CONTINUOUS
 62
    7
 10
498.91970803208937
 20
261.94051712110013
 11
498.91970803208937
 21
332.47741527840594
  0
LINE
  8
_0-a_極細3
  6
CONTINUOUS
 62
    7
 10
498.91970803208937
 20
332.47741527840594
 11
474.91970803208937
 21
332.47741527840594
  0
LINE
  8
_0-a_極細3
  6
CONTINUOUS
 62
    7
 10
474.91970803208937
 20
332.47741527840594
 11
474.91970803208937
 21
261.94051712110013
  0
LINE
  8
_0-a_極細3
  6
CENTER1
 62
    7
 10
486.91970803208937
 20
248.69773266597554
 11
486.91970803208937
 21
339.31856754178119
  0
LINE
  8
_0-d_寸法3
  6
CONTINUOUS
 62
    7
 10
522.9197080320896
 20
381.94051712110019
 11
449.39965830634651
 21
381.94051712110013
  0
LINE
  8
_0-d_寸法3
  6
CONTINUOUS
 62
    7
 10
457.39965830634651
 20
381.94051712110013
 11
461.54076302798683
 21
366.48570390047502
  0
LINE
  8
_0-d_寸法3
  6
CONTINUOUS
 62
    7
 10
457.39965830634651
 20
381.94051712110013
 11
453.25855358470619
 21
366.48570390047507
  0
LINE
  8
_0-d_寸法3
  6
CONTINUOUS
 62
    7
 10
519.71970803208956
 20
320.60718378776664
 11
449.39965830634674
 21
320.60718378776664
  0
LINE
  8
_0-d_寸法3
  6
CONTINUOUS
 62
    7
 10
457.39965830634674
 20
320.60718378776664
 11
453.25855358470631
 21
336.06199700839164
  0
LINE
  8
_0-d_寸法3
  6
CONTINUOUS
 62
    7
 10
457.39965830634674
 20
320.60718378776664
 11
461.54076302798694
 21
336.0619970083917
  0
LINE
  8
_0-d_寸法3
  6
CONTINUOUS
 62
    7
 10
457.39965830634651
 20
381.94051712110013
 11
457.39965830634674
 21
320.60718378776664
  0
TEXT
  8
_0-d_寸法3
 62
    7
 10
457.39965830634651
 20
339.27385045443339
 40
24
 41
1
 50
90
  1
23
  0
LINE
  8
_0-d_寸法3
  6
CONTINUOUS
 62
    7
 10
538.91970803208926
 20
304.60718378776687
 11
538.91970803208892
 21
277.17567674631823
  0
LINE
  8
_0-d_寸法3
  6
CONTINUOUS
 62
    7
 10
538.91970803208903
 20
285.17567674631823
 11
554.37452125271409
 21
289.31678146795866
  0
LINE
  8
_0-d_寸法3
  6
CONTINUOUS
 62
    7
 10
538.91970803208903
 20
285.17567674631823
 11
554.37452125271409
 21
281.03457202467803
  0
LINE
  8
_0-d_寸法3
  6
CONTINUOUS
 62
    7
 10
618.91970803208926
 20
365.94051712110013
 11
618.91970803208835
 21
277.17567674631823
  0
LINE
  8
_0-d_寸法3
  6
CONTINUOUS
 62
    7
 10
618.91970803208847
 20
285.17567674631823
 11
603.46489481146341
 21
281.03457202467803
  0
LINE
  8
_0-d_寸法3
  6
CONTINUOUS
 62
    7
 10
618.91970803208847
 20
285.17567674631823
 11
603.46489481146341
 21
289.31678146795866
  0
LINE
  8
_0-d_寸法3
  6
CONTINUOUS
 62
    7
 10
538.91970803208903
 20
285.17567674631823
 11
618.91970803208847
 21
285.17567674631823
  0
TEXT
  8
_0-d_寸法3
 62
    7
 10
566.91970803208869
 20
285.17567674631823
 40
24
 41
1
 50
0
  1
30
  0
LINE
  8
_0-d_寸法3
  6
CONTINUOUS
 62
    7
 10
522.91970803208937
 20
443.27385045443378
 11
449.3996583063464
 21
443.27385045443373
  0
LINE
  8
_0-d_寸法3
  6
CONTINUOUS
 62
    7
 10
457.3996583063464
 20
443.27385045443373
 11
461.54076302798671
 21
427.81903723380861
  0
LINE
  8
_0-d_寸法3
  6
CONTINUOUS
 62
    7
 10
457.3996583063464
 20
443.27385045443373
 11
453.25855358470608
 21
427.81903723380867
  0
LINE
  8
_0-d_寸法3
  6
CONTINUOUS
 62
    7
 10
519.71970803208944
 20
381.94051712110019
 11
449.39965830634651
 21
381.94051712110013
  0
LINE
  8
_0-d_寸法3
  6
CONTINUOUS
 62
    7
 10
457.39965830634651
 20
381.94051712110013
 11
453.25855358470619
 21
397.39533034172518
  0
LINE
  8
_0-d_寸法3
  6
CONTINUOUS
 62
    7
 10
457.39965830634651
 20
381.94051712110013
 11
461.54076302798683
 21
397.39533034172524
  0
LINE
  8
_0-d_寸法3
  6
CONTINUOUS
 62
    7
 10
457.3996583063464
 20
443.27385045443373
 11
457.39965830634651
 21
381.94051712110013
  0
TEXT
  8
_0-d_寸法3
 62
    7
 10
457.39965830634651
 20
400.60718378776693
 40
24
 41
1
 50
90
  1
23
  0
LINE
  8
_0-a_極細3
  6
CONTINUOUS
 62
    7
 10
1168.7438171848667
 20
301.75123898110587
 11
1176.9523006246827
 21
324.30386187996783
  0
LINE
  8
_0-a_極細3
  6
CONTINUOUS
 62
    7
 10
1088.7533489067923
 20
356.40565499876141
 11
1080.5448654669767
 21
333.85303209989979
  0
LINE
  8
_0-a_極細3
  6
CONTINUOUS
 62
    7
 10
1176.9523006246827
 20
324.30386187996783
 11
1088.7533489067923
 21
356.40565499876175
  0
LINE
  8
_0-a_極細3
  6
CONTINUOUS
 62
    7
 10
1168.7438171848667
 20
301.75123898110587
 11
1080.5448654669767
 21
333.85303209989979
  0
LINE
  8
_0-a_極細3
  6
CENTER1
 62
    7
 10
1180.7767523319631
 20
310.1417423664891
 11
1078.3271195598577
 21
347.43035914254546
  0
LINE
  8
_0-a_極細3
  6
CONTINUOUS
 62
    7
 10
1138.9197080320901
 20
261.94051712110013
 11
1138.9197080320901
 21
332.47741527840594
  0
LINE
  8
_0-a_極細3
  6
CONTINUOUS
 62
    7
 10
1162.9197080320901
 20
332.47741527840594
 11
1162.9197080320901
 21
261.94051712110013
  0
LINE
  8
_0-a_極細3
  6
CENTER1
 62
    7
 10
1150.9197080320901
 20
248.69773266597554
 11
1150.9197080320901
 21
339.31856754178119
  0
LINE
  8
_0-d_寸法3
  6
CONTINUOUS
 62
    7
 10
1098.9197080320903
 20
304.60718378776687
 11
1098.9197080320905
 21
277.17567674631823
  0
LINE
  8
_0-d_寸法3
  6
CONTINUOUS
 62
    7
 10
1098.9197080320905
 20
285.17567674631823
 11
1083.4648948114655
 21
281.03457202467803
  0
LINE
  8
_0-d_寸法3
  6
CONTINUOUS
 62
    7
 10
1098.9197080320905
 20
285.17567674631823
 11
1083.4648948114655
 21
289.31678146795866
  0
LINE
  8
_0-d_寸法3
  6
CONTINUOUS
 62
    7
 10
1018.9197080320903
 20
365.94051712110013
 11
1018.9197080320909
 21
277.17567674631823
  0
LINE
  8
_0-d_寸法3
  6
CONTINUOUS
 62
    7
 10
1018.9197080320909
 20
285.17567674631823
 11
1034.374521252716
 21
289.31678146795866
  0
LINE
  8
_0-d_寸法3
  6
CONTINUOUS
 62
    7
 10
1018.9197080320909
 20
285.17567674631823
 11
1034.374521252716
 21
281.03457202467803
  0
LINE
  8
_0-d_寸法3
  6
CONTINUOUS
 62
    7
 10
1098.9197080320905
 20
285.17567674631823
 11
1018.9197080320909
 21
285.17567674631823
  0
TEXT
  8
_0-d_寸法3
 62
    7
 10
1046.9197080320905
 20
285.17567674631823
 40
24
 41
1
 50
0.0000000000002714
  1
30
  0
LINE
  8
_0-a_極細3
  6
CONTINUOUS
 62
    7
 10
1138.9197080320901
 20
332.47741527840594
 11
1162.9197080320901
 21
332.47741527840594
  0
CIRCLE
  8
_0-a_極細3
  6
CONTINUOUS
 62
    7
 10
1175.8680564228603
 20
344.49081146494063
 40
0.884938271604915
  0
CIRCLE
  8
_0-a_極細3
  6
CONTINUOUS
 62
    7
 10
1144.5080564228606
 20
353.4508114649405
 40
0.884938271604915
  0
TEXT
  8
_0-7_枠細線
 62
    5
 10
739.04443180931673
 20
149.93993311841473
 40
40
 41
0.8
 50
0
  1
断面詳細図
  0
LINE
  8
_0-a_極細3
  6
CENTER1
 62
    7
 10
1095.9121474380536
 20
413.40659978508165
 11
536.27332012082525
 21
413.40659978508165
  0
LINE
  8
_0-b_細線3
  6
CONTINUOUS
 62
    7
 10
891.45304136882419
 20
396.07326645174811
 11
927.71970803549129
 21
396.07326645174811
  0
LINE
  8
_0-b_細線3
  6
CONTINUOUS
 62
    7
 10
846.11970803452584
 20
396.07326645174811
 11
882.38637470119227
 21
396.07326645174811
  0
LINE
  8
_0-b_細線3
  6
CONTINUOUS
 62
    7
 10
755.45304136592983
 20
396.07326645174811
 11
791.71970803259626
 21
396.07326645174811
  0
LINE
  8
_0-b_細線3
  6
CONTINUOUS
 62
    7
 10
710.11970803163217
 20
396.07326645174811
 11
746.3863746982986
 21
396.07326645174811
  0
LINE
  8
_0-b_細線3
  6
CONTINUOUS
 62
    7
 10
664.78637469733303
 20
396.07326645174811
 11
701.05304136400025
 21
396.07326645174811
  0
LINE
  8
_0-b_細線3
  6
CONTINUOUS
 62
    7
 10
936.78637470261538
 20
396.07326645174811
 11
973.0530413692826
 21
396.07326645174811
  0
LINE
  8
_0-b_細線3
  6
CONTINUOUS
 62
    7
 10
618.38637469733305
 20
396.07326645174811
 11
655.71970803066665
 21
396.07326645174811
  0
LINE
  8
_0-b_細線3
  6
CONTINUOUS
 62
    7
 10
571.98637469636901
 20
396.07326645174811
 11
609.31970803066656
 21
396.07326645174811
  0
LINE
  8
_0-b_細線3
  6
CONTINUOUS
 62
    7
 10
982.11970803691304
 20
396.07326645174811
 11
1019.4530413702473
 21
396.07326645174811
  0
LINE
  8
_0-b_細線3
  6
CONTINUOUS
 62
    7
 10
1028.5197080373714
 20
396.07326645174811
 11
1065.8530413707058
 21
396.07326645174811
  0
LINE
  8
_0-b_細線3
  6
CONTINUOUS
 62
    7
 10
891.45304136882453
 20
430.73993311841451
 11
927.71970803549095
 21
430.73993311841451
  0
LINE
  8
_0-b_細線3
  6
CONTINUOUS
 62
    7
 10
846.11970803452607
 20
430.73993311841451
 11
882.38637470119261
 21
430.73993311841451
  0
LINE
  8
_0-b_細線3
  6
CONTINUOUS
 62
    7
 10
755.45304136593006
 20
430.73993311841451
 11
791.71970803259649
 21
430.73993311841451
  0
LINE
  8
_0-b_細線3
  6
CONTINUOUS
 62
    7
 10
710.1197080316324
 20
430.73993311841451
 11
746.38637469829882
 21
430.73993311841451
  0
LINE
  8
_0-b_細線3
  6
CONTINUOUS
 62
    7
 10
664.78637469733337
 20
430.73993311841451
 11
701.05304136400048
 21
430.73993311841451
  0
LINE
  8
_0-b_細線3
  6
CONTINUOUS
 62
    7
 10
936.78637470261503
 20
430.73993311841451
 11
973.05304136928214
 21
430.73993311841451
  0
LINE
  8
_0-b_細線3
  6
CONTINUOUS
 62
    7
 10
618.38637469733339
 20
430.73993311841451
 11
655.71970803066699
 21
430.73993311841451
  0
LINE
  8
_0-b_細線3
  6
CONTINUOUS
 62
    7
 10
571.98637469636935
 20
430.73993311841451
 11
609.31970803066702
 21
430.73993311841451
  0
LINE
  8
_0-b_細線3
  6
CONTINUOUS
 62
    7
 10
982.11970803691338
 20
430.73993311841451
 11
1019.453041370247
 21
430.73993311841451
  0
LINE
  8
_0-b_細線3
  6
CONTINUOUS
 62
    7
 10
1028.5197080373719
 20
430.73993311841451
 11
1065.8530413707053
 21
430.73993311841451
  0
ARC
  8
_0-b_細線3
  6
CONTINUOUS
 62
    7
 10
559.4617133600924
 20
396.60659978508198
 40
0.5333333333333335
 50
179.99999999999983
 51
269.99999999999977
  0
LINE
  8
_0-b_細線3
  6
CONTINUOUS
 62
    7
 10
562.91970802675962
 20
396.0732664517484
 11
559.4617133600924
 21
396.0732664517484
  0
ARC
  8
_0-b_細線3
  6
CONTINUOUS
 62
    7
 10
559.4617133600924
 20
430.20659978508132
 40
0.5333333333333335
 50
89.999999999999915
 51
179.99999999999983
  0
LINE
  8
_0-b_細線3
  6
CONTINUOUS
 62
    7
 10
562.91970802675962
 20
430.73993311841559
 11
559.4617133600924
 21
430.73993311841559
  0
LINE
  8
_0-b_細線3
  6
CONTINUOUS
 62
    7
 10
558.92838002675842
 20
412.07326645174845
 11
558.92838002675842
 21
396.60659978508198
  0
LINE
  8
_0-b_細線3
  6
CONTINUOUS
 62
    7
 10
558.92838002675842
 20
430.20659978508132
 11
558.92838002675842
 21
412.07326645174845
  0
LINE
  8
_0-b_細線3
  6
CONTINUOUS
 62
    7
 10
558.92838002675842
 20
413.40659978508131
 11
550.91633736009157
 21
413.40659978508131
  0
LINE
  8
_0-b_細線3
  6
CONTINUOUS
 62
    7
 10
558.92838002675842
 20
404.07326645174919
 11
550.91630536009313
 21
404.07326645174919
  0
ARC
  8
_0-b_細線3
  6
CONTINUOUS
 62
    7
 10
550.91630536009313
 20
404.60659978508204
 40
0.5333333333333335
 50
179.99999999999983
 51
269.99999999999977
  0
ARC
  8
_0-b_細線3
  6
CONTINUOUS
 62
    7
 10
571.07091869342537
 20
408.7395437850829
 40
20.687882666666667
 50
166.96197800000505
 51
193.03566999999961
  0
ARC
  8
_0-b_細線3
  6
CONTINUOUS
 62
    7
 10
550.91630536009313
 20
422.20659978508274
 40
0.5333333333333335
 50
89.999999999999915
 51
179.99999999999983
  0
ARC
  8
_0-b_細線3
  6
CONTINUOUS
 62
    7
 10
571.07091869342537
 20
418.07365045174822
 40
20.687882666666667
 50
166.96433000000002
 51
193.03802199999856
  0
LINE
  8
_0-b_細線3
  6
CONTINUOUS
 62
    7
 10
558.92838002675842
 20
422.73993311841559
 11
550.91630536009313
 21
422.73993311841559
  0
LINE
  8
_0-b_細線3
  6
CONTINUOUS
 62
    7
 10
550.38297202675881
 20
404.60659978508204
 11
550.38297202675881
 21
422.20659978508274
  0
ARC
  8
_0-b_細線3
  6
CONTINUOUS
 62
    7
 10
1078.3777027040878
 20
396.60659978508198
 40
0.5333333333333335
 50
269.99999999999977
 51
359.99999999999966
  0
LINE
  8
_0-b_細線3
  6
CONTINUOUS
 62
    7
 10
1074.9197080374206
 20
396.0732664517484
 11
1078.3777027040878
 21
396.0732664517484
  0
ARC
  8
_0-b_細線3
  6
CONTINUOUS
 62
    7
 10
1078.3777027040878
 20
430.20659978508132
 40
0.5333333333333335
 50
0
 51
89.999999999999915
  0
LINE
  8
_0-b_細線3
  6
CONTINUOUS
 62
    7
 10
1074.9197080374206
 20
430.73993311841559
 11
1078.3777027040878
 21
430.73993311841559
  0
LINE
  8
_0-b_細線3
  6
CONTINUOUS
 62
    7
 10
1078.9110360374216
 20
412.07326645174845
 11
1078.9110360374216
 21
396.60659978508198
  0
LINE
  8
_0-b_細線3
  6
CONTINUOUS
 62
    7
 10
1078.9110360374216
 20
430.20659978508132
 11
1078.9110360374216
 21
412.07326645174845
  0
LINE
  8
_0-b_細線3
  6
CONTINUOUS
 62
    7
 10
1078.9110360374216
 20
413.40659978508131
 11
1086.9230787040883
 21
413.40659978508131
  0
LINE
  8
_0-b_細線3
  6
CONTINUOUS
 62
    7
 10
1078.9110360374216
 20
404.07326645174919
 11
1086.9231107040869
 21
404.07326645174919
  0
ARC
  8
_0-b_細線3
  6
CONTINUOUS
 62
    7
 10
1086.9231107040869
 20
404.60659978508204
 40
0.5333333333333335
 50
269.99999999999977
 51
359.99999999999966
  0
ARC
  8
_0-b_細線3
  6
CONTINUOUS
 62
    7
 10
1066.7684973707546
 20
408.7395437850829
 40
20.687882666666667
 50
346.96432999999968
 51
13.038021999994573
  0
ARC
  8
_0-b_細線3
  6
CONTINUOUS
 62
    7
 10
1086.9231107040869
 20
422.20659978508274
 40
0.5333333333333335
 50
0
 51
89.999999999999915
  0
ARC
  8
_0-b_細線3
  6
CONTINUOUS
 62
    7
 10
1066.7684973707546
 20
418.07365045174822
 40
20.687882666666667
 50
346.96197800000067
 51
13.035669999999625
  0
LINE
  8
_0-b_細線3
  6
CONTINUOUS
 62
    7
 10
1078.9110360374216
 20
422.73993311841559
 11
1086.9231107040869
 21
422.73993311841559
  0
LINE
  8
_0-b_細線3
  6
CONTINUOUS
 62
    7
 10
1087.4564440374211
 20
404.60659978508204
 11
1087.4564440374211
 21
422.20659978508274
  0
ARC
  8
_0-b_細線3
  6
CONTINUOUS
 62
    7
 10
783.71970803503245
 20
437.93993311841479
 40
2.666666666666667
 50
89.999999999999915
 51
179.99999999999983
  0
ARC
  8
_0-b_細線3
  6
CONTINUOUS
 62
    7
 10
784.96757254523948
 20
443.27326645174838
 40
2.666666666666667
 50
269.99999999999977
 51
329.9999999999946
  0
ARC
  8
_0-b_細線3
  6
CONTINUOUS
 62
    7
 10
789.58637469875646
 20
440.60659978508193
 40
2.666666666666667
 50
89.999999999999915
 51
150.0000000000087
  0
LINE
  8
_0-b_細線3
  6
CONTINUOUS
 62
    7
 10
783.71970803503245
 20
440.60659978508193
 11
784.96757254523948
 21
440.60659978508193
  0
ARC
  8
_0-b_細線3
  6
CONTINUOUS
 62
    7
 10
808.78637469581406
 20
437.93993311841479
 40
2.666666666666667
 50
0
 51
89.999999999999915
  0
ARC
  8
_0-b_細線3
  6
CONTINUOUS
 62
    7
 10
807.53851018560715
 20
443.27326645174838
 40
2.666666666666667
 50
210.00000000000347
 51
269.99999999999977
  0
ARC
  8
_0-b_細線3
  6
CONTINUOUS
 62
    7
 10
802.91970803209006
 20
440.60659978508193
 40
2.666666666666667
 50
29.999999999991321
 51
89.999999999999901
  0
LINE
  8
_0-b_細線3
  6
CONTINUOUS
 62
    7
 10
808.78637469581406
 20
440.60659978508193
 11
807.53851018560715
 21
440.60659978508193
  0
ARC
  8
_0-b_細線3
  6
CONTINUOUS
 62
    7
 10
782.38637470169965
 20
434.20659978508195
 40
1.3333333333333335
 50
179.99999999999983
 51
269.99999999999977
  0
LINE
  8
_0-b_細線3
  6
CONTINUOUS
 62
    7
 10
781.05304136836605
 20
437.93993311841479
 11
781.05304136836605
 21
434.20659978508195
  0
ARC
  8
_0-b_細線3
  6
CONTINUOUS
 62
    7
 10
810.11970802914766
 20
434.20659978508195
 40
1.3333333333333335
 50
269.99999999999977
 51
359.99999999999966
  0
LINE
  8
_0-b_細線3
  6
CONTINUOUS
 62
    7
 10
811.45304136248058
 20
437.93993311841479
 11
811.45304136248058
 21
434.20659978508195
  0
ARC
  8
_0-b_細線3
  6
CONTINUOUS
 62
    7
 10
789.05304136836605
 20
430.20659978508195
 40
2.666666666666667
 50
0
 51
89.999999999999915
  0
LINE
  8
_0-b_細線3
  6
CONTINUOUS
 62
    7
 10
789.05304136836605
 20
432.87326645174835
 11
782.38637470169965
 21
432.87326645174835
  0
ARC
  8
_0-b_細線3
  6
CONTINUOUS
 62
    7
 10
803.45304136836603
 20
430.20659978508195
 40
2.666666666666667
 50
89.999999999999915
 51
179.99999999999983
  0
LINE
  8
_0-b_細線3
  6
CONTINUOUS
 62
    7
 10
803.45304136247978
 20
432.87326645174835
 11
810.11970802914766
 21
432.87326645174835
  0
LINE
  8
_0-b_細線3
  6
CONTINUOUS
 62
    7
 10
802.91970803209006
 20
443.27326645174838
 11
789.58637469875646
 21
443.27326645174838
  0
LINE
  8
_0-b_細線3
  6
CONTINUOUS
 62
    7
 10
791.71970803209013
 20
389.93993311841479
 11
791.71970803503245
 21
430.20659978508195
  0
LINE
  8
_0-b_細線3
  6
CONTINUOUS
 62
    7
 10
800.7863746987565
 20
389.93993311841479
 11
800.78637470169963
 21
430.20659978508195
  0
LINE
  8
_0-b_細線3
  6
CONTINUOUS
 62
    7
 10
800.7863746987565
 20
389.93993311841479
 11
791.71970803209013
 21
389.93993311841479
  0
LINE
  8
_0-b_細線3
  6
CONTINUOUS
 62
    7
 10
825.18637469875728
 20
443.80724314456768
 11
825.18637469875728
 21
390.47390981123334
  0
LINE
  8
_0-b_細線3
  6
CONTINUOUS
 62
    7
 10
812.65304136542295
 20
390.47390981123334
 11
812.65304136542295
 21
443.80724314456768
  0
LINE
  8
_0-b_細線3
  6
CONTINUOUS
 62
    7
 10
825.18637469875728
 20
390.47390981123334
 11
812.65304136542295
 21
390.47390981123334
  0
LINE
  8
_0-b_細線3
  6
CONTINUOUS
 62
    7
 10
812.65304136542295
 20
443.80724314456768
 11
825.18637469875728
 21
443.80724314456768
  0
LINE
  8
_0-b_細線3
  6
DASHED2
 62
    7
 10
812.65304136542295
 20
398.47390981123334
 11
825.18637469875728
 21
398.47390981123334
  0
LINE
  8
_0-b_細線3
  6
DASHED2
 62
    7
 10
812.65304136542295
 20
435.80724314456768
 11
825.18637469875728
 21
435.80724314456768
  0
LINE
  8
_0-b_細線3
  6
CONTINUOUS
 62
    7
 10
825.18637469875728
 20
430.73993311841451
 11
837.05304136689483
 21
430.73993311841451
  0
LINE
  8
_0-b_細線3
  6
CONTINUOUS
 62
    7
 10
800.78637470173851
 20
430.73993311841451
 11
812.65304136542295
 21
430.73993311841451
  0
LINE
  8
_0-b_細線3
  6
CONTINUOUS
 62
    7
 10
825.18637469875728
 20
396.07326645174811
 11
837.0530413668946
 21
396.07326645174811
  0
LINE
  8
_0-b_細線3
  6
CONTINUOUS
 62
    7
 10
800.78637469916589
 20
396.07326645174811
 11
812.65304136542295
 21
396.07326645174811
  0
LINE
  8
_0-b_細線3
  6
CONTINUOUS
 62
    7
 10
538.91970803208937
 20
413.94051712110013
 11
538.91970803208937
 21
320.60718378776687
  0
LINE
  8
_0-b_細線3
  6
CONTINUOUS
 62
    7
 10
538.91970803208937
 20
320.60718378776687
 11
532.78637469875616
 21
320.60718378776687
  0
LINE
  8
_0-b_細線3
  6
CONTINUOUS
 62
    7
 10
532.78637469875616
 20
320.60718378776687
 11
532.78637469875616
 21
413.94051712110013
  0
LINE
  8
_0-b_細線3
  6
CONTINUOUS
 62
    7
 10
532.78637469875616
 20
413.94051712110013
 11
538.91970803208937
 21
413.94051712110013
  0
LINE
  8
_0-a_極細3
  6
CONTINUOUS
 62
    7
 10
532.78637469875616
 20
371.27385045443356
 11
538.91970803208937
 21
371.27385045443356
  0
LINE
  8
_0-a_極細3
  6
CONTINUOUS
 62
    7
 10
532.78637469875616
 20
376.60718378776693
 11
538.91970803208937
 21
376.60718378776693
  0
LINE
  8
_0-a_極細3
  6
CONTINUOUS
 62
    7
 10
532.78637469875616
 20
365.94051712110013
 11
538.91970803208937
 21
365.94051712110013
  0
LINE
  8
_0-a_極細3
  6
CONTINUOUS
 62
    7
 10
532.78637469875616
 20
381.94051712110013
 11
538.91970803208937
 21
381.94051712110013
  0
LINE
  8
_0-a_極細3
  6
CONTINUOUS
 62
    7
 10
538.91970803208937
 20
328.60718378776693
 11
532.78637469875616
 21
328.60718378776693
  0
LINE
  8
_0-a_極細3
  6
CONTINUOUS
 62
    7
 10
532.78637469875616
 20
408.60718378776693
 11
538.91970803208937
 21
408.60718378776693
  0
LINE
  8
_0-b_細線3
  6
CONTINUOUS
 62
    7
 10
1098.9197080320901
 20
413.94051712110013
 11
1098.9197080320901
 21
320.60718378776687
  0
LINE
  8
_0-b_細線3
  6
CONTINUOUS
 62
    7
 10
1098.9197080320901
 20
320.60718378776687
 11
1105.0530413654237
 21
320.60718378776687
  0
LINE
  8
_0-b_細線3
  6
CONTINUOUS
 62
    7
 10
1105.0530413654237
 20
320.60718378776687
 11
1105.0530413654237
 21
413.94051712110013
  0
LINE
  8
_0-b_細線3
  6
CONTINUOUS
 62
    7
 10
1105.0530413654237
 20
413.94051712110013
 11
1098.9197080320901
 21
413.94051712110013
  0
LINE
  8
_0-a_極細3
  6
CONTINUOUS
 62
    7
 10
1105.0530413654237
 20
371.27385045443356
 11
1098.9197080320901
 21
371.27385045443356
  0
LINE
  8
_0-a_極細3
  6
CONTINUOUS
 62
    7
 10
1105.0530413654237
 20
376.60718378776693
 11
1098.9197080320901
 21
376.60718378776693
  0
LINE
  8
_0-a_極細3
  6
CONTINUOUS
 62
    7
 10
1105.0530413654237
 20
365.94051712110013
 11
1098.9197080320901
 21
365.94051712110013
  0
LINE
  8
_0-a_極細3
  6
CONTINUOUS
 62
    7
 10
1105.0530413654237
 20
381.94051712110013
 11
1098.9197080320901
 21
381.94051712110013
  0
LINE
  8
_0-a_極細3
  6
CONTINUOUS
 62
    7
 10
1098.9197080320901
 20
328.60718378776693
 11
1105.0530413654237
 21
328.60718378776693
  0
LINE
  8
_0-a_極細3
  6
CONTINUOUS
 62
    7
 10
1105.0530413654237
 20
408.60718378776693
 11
1098.9197080320901
 21
408.60718378776693
  0
LINE
  8
_0-7_枠細線
  6
CONTINUOUS
 62
    5
 10
1133.7421883104194
 20
396.87383200100402
 11
1121.7421883104194
 21
420.87383200100396
  0
LINE
  8
_0-7_枠細線
  6
CONTINUOUS
 62
    5
 10
1109.7421883104194
 20
396.87383200100402
 11
1133.7421883104194
 21
396.87383200100402
  0
LINE
  8
_0-7_枠細線
  6
CONTINUOUS
 62
    5
 10
1121.7421883104194
 20
420.87383200100396
 11
1109.7421883104194
 21
396.87383200100402
  0
TEXT
  8
_0-7_枠細線
 62
    5
 10
1113.5264303394561
 20
395.35572005724413
 40
20
 41
0.8
 50
0
  1
５
  0
LINE
  8
_0-d_寸法3
  6
CONTINUOUS
 62
    7
 10
538.91970803208937
 20
563.27384778508201
 11
523.46489481146432
 21
559.13274306344169
  0
LINE
  8
_0-d_寸法3
  6
CONTINUOUS
 62
    7
 10
538.91970803208937
 20
563.27384778508201
 11
523.46489481146432
 21
567.41495250672244
  0
LINE
  8
_0-d_寸法3
  6
CONTINUOUS
 62
    7
 10
546.91970803208937
 20
449.94051712110013
 11
546.91970803208937
 21
571.27384778508201
  0
CIRCLE
  8
_0-d_寸法3
  6
CONTINUOUS
 62
    1
 10
546.91970803208937
 20
563.27384778508201
 40
2.4000000000000004
  0
LINE
  8
_0-d_寸法3
  6
CONTINUOUS
 62
    7
 10
498.91970803208937
 20
563.27384778508201
 11
546.91970803208937
 21
563.27384778508201
  0
TEXT
  8
_0-d_寸法3
 62
    7
 10
505.08823932181235
 20
563.27384778508201
 40
24
 41
1
 50
0
  1
3
  0
LINE
  8
_0-d_寸法3
  6
CONTINUOUS
 62
    7
 10
552.25304136542229
 20
445.94051445174921
 11
552.25304136542297
 21
571.27384778508201
  0
LINE
  8
_0-d_寸法3
  6
CONTINUOUS
 62
    7
 10
546.91970803208937
 20
563.27384778508201
 11
552.25304136542297
 21
563.27384778508201
  0
TEXT
  8
_0-d_寸法3
 62
    7
 10
543.58637469875589
 20
563.27384778508201
 40
24
 41
1
 50
0
  1
2
  0
LINE
  8
_0-d_寸法3
  6
CONTINUOUS
 62
    7
 10
552.25304136542297
 20
563.27384778508201
 11
567.70785458604803
 21
567.41495250672233
  0
LINE
  8
_0-d_寸法3
  6
CONTINUOUS
 62
    7
 10
552.25304136542297
 20
563.27384778508201
 11
567.70785458604803
 21
559.13274306344169
  0
LINE
  8
_0-d_寸法3
  6
CONTINUOUS
 62
    7
 10
1085.586374698757
 20
445.94051445174921
 11
1085.586374698757
 21
571.27384778508201
  0
LINE
  8
_0-d_寸法3
  6
CONTINUOUS
 62
    7
 10
1085.586374698757
 20
563.27384778508201
 11
1070.131561478132
 21
559.13274306344169
  0
LINE
  8
_0-d_寸法3
  6
CONTINUOUS
 62
    7
 10
1085.586374698757
 20
563.27384778508201
 11
1070.131561478132
 21
567.41495250672244
  0
LINE
  8
_0-d_寸法3
  6
CONTINUOUS
 62
    7
 10
552.25304136542297
 20
563.27384778508201
 11
1085.586374698757
 21
563.27384778508201
  0
TEXT
  8
_0-d_寸法3
 62
    7
 10
800.91970803209006
 20
563.27384778508201
 40
24
 41
1
 50
0
  1
200
  0
LINE
  8
_0-d_寸法3
  6
CONTINUOUS
 62
    7
 10
1090.9197080320896
 20
449.94051712110013
 11
1090.9197080320901
 21
571.27384778508201
  0
CIRCLE
  8
_0-d_寸法3
  6
CONTINUOUS
 62
    1
 10
1090.9197080320901
 20
563.27384778508201
 40
2.4000000000000004
  0
LINE
  8
_0-d_寸法3
  6
CONTINUOUS
 62
    7
 10
1085.586374698757
 20
563.27384778508201
 11
1090.9197080320901
 21
563.27384778508201
  0
TEXT
  8
_0-d_寸法3
 62
    7
 10
1082.2530413654235
 20
563.27384778508201
 40
24
 41
1
 50
0
  1
2
  0
LINE
  8
_0-d_寸法3
  6
CONTINUOUS
 62
    7
 10
1098.9197080320901
 20
563.27384778508201
 11
1114.3745212527151
 21
567.41495250672222
  0
LINE
  8
_0-d_寸法3
  6
CONTINUOUS
 62
    7
 10
1098.9197080320901
 20
563.27384778508201
 11
1114.3745212527151
 21
559.13274306344158
  0
LINE
  8
_0-d_寸法3
  6
CONTINUOUS
 62
    7
 10
1090.9197080320901
 20
563.27384778508201
 11
1138.9197080320901
 21
563.27384778508201
  0
TEXT
  8
_0-d_寸法3
 62
    7
 10
1125.3549059884754
 20
563.27384778508201
 40
24
 41
1
 50
0
  1
3
  0
TEXT
  8
_0-7_枠細線
 62
    5
 10
922.96278340798551
 20
153.40691425049022
 40
32
 41
0.6
 50
0
  1
Ｓ＝１：３
  0
TEXT
  8
_0-5_寸法線
 62
    7
 10
879.02475656935394
 20
806.10653345818241
 40
24
 41
0.7999999999999999
 50
0
  1
ＧＲＳＫ－２０Ｗ２００
  0
LINE
  8
_0-5_寸法線
  6
CONTINUOUS
 62
    7
 10
850.76984326235947
 20
935.21191820766239
 11
858.76984326235947
 21
921.35551174711134
  0
LINE
  8
_0-5_寸法線
  6
CONTINUOUS
 62
    7
 10
850.76984326235947
 20
935.21191820766239
 11
850.76984326235947
 21
919.21191820766239
  0
LINE
  8
_0-5_寸法線
  6
CONTINUOUS
 62
    7
 10
850.76984326235947
 20
935.21191820766239
 11
878.9327462261449
 21
830.10653345818241
  0
LINE
  8
_0-5_寸法線
  6
CONTINUOUS
 62
    7
 10
878.9327462261449
 20
830.10653345818241
 11
1166.9327462261449
 21
830.10653345818241
  0
TEXT
  8
_0-5_寸法線
 62
    7
 10
878.9327462261449
 20
830.10653345818241
 40
24
 41
0.8000000000000001
 50
0
  1
セーフティグレーチング補強仕様
  0
TEXT
  8
_0-5_寸法線
 62
    7
 10
490.16844510010606
 20
806.10653345818241
 40
24
 41
0.7999999999999999
 50
0
  1
(標準付属)
  0
TEXT
  8
_0-7_枠細線
 62
    5
 10
497.31782525165409
 20
859.66267755060403
 40
20
 41
0.8
 50
0
  1
２
  0
LINE
  8
_0-7_枠細線
  6
CONTINUOUS
 62
    5
 10
517.53358322261693
 20
860.15388114321308
 11
505.53358322261693
 21
884.15388114321308
  0
LINE
  8
_0-7_枠細線
  6
CONTINUOUS
 62
    5
 10
493.53358322261693
 20
860.15388114321308
 11
517.53358322261693
 21
860.15388114321308
  0
LINE
  8
_0-7_枠細線
  6
CONTINUOUS
 62
    5
 10
505.53358322261693
 20
884.15388114321308
 11
493.53358322261693
 21
860.15388114321308
  0
TEXT
  8
_0-7_枠細線
 62
    5
 10
525.73430478117507
 20
858.84466081033224
 40
20
 41
0.8
 50
0
  1
３
  0
LINE
  8
_0-7_枠細線
  6
CONTINUOUS
 62
    5
 10
533.95006275213791
 20
883.72095503462242
 11
521.95006275213791
 21
859.72095503462242
  0
LINE
  8
_0-7_枠細線
  6
CONTINUOUS
 62
    5
 10
521.95006275213791
 20
859.72095503462242
 11
545.95006275213791
 21
859.72095503462242
  0
LINE
  8
_0-7_枠細線
  6
CONTINUOUS
 62
    5
 10
545.95006275213791
 20
859.72095503462242
 11
533.95006275213791
 21
883.72095503462242
  0
LINE
  8
_0-7_枠細線
  6
CONTINUOUS
 62
    5
 10
562.36654228165889
 20
883.72095503462242
 11
550.36654228165889
 21
859.72095503462242
  0
LINE
  8
_0-7_枠細線
  6
CONTINUOUS
 62
    5
 10
550.36654228165889
 20
859.72095503462242
 11
574.36654228165889
 21
859.72095503462242
  0
LINE
  8
_0-7_枠細線
  6
CONTINUOUS
 62
    5
 10
574.36654228165889
 20
859.72095503462242
 11
562.36654228165889
 21
883.72095503462242
  0
LINE
  8
_0-5_寸法線
  6
CONTINUOUS
 62
    7
 10
446.07291948853981
 20
994.67327542700639
 11
454.0729194885397
 21
980.81686896645533
  0
LINE
  8
_0-5_寸法線
  6
CONTINUOUS
 62
    7
 10
446.07291948853981
 20
994.67327542700639
 11
446.07291948853958
 21
978.67327542700639
  0
LINE
  8
_0-5_寸法線
  6
CONTINUOUS
 62
    7
 10
446.07291948853981
 20
994.67327542700639
 11
490.16844510010606
 21
830.10653345818241
  0
LINE
  8
_0-5_寸法線
  6
CONTINUOUS
 62
    7
 10
490.16844510010606
 20
830.10653345818241
 11
586.16844510010628
 21
830.10653345818241
  0
TEXT
  8
_0-5_寸法線
 62
    7
 10
490.16844510010606
 20
830.10653345818241
 40
24
 41
0.8000000000000001
 50
0
  1
取　外　具
  0
TEXT
  8
_0-5_寸法線
 62
    7
 10
636.33845962536907
 20
806.10653345818241
 40
24
 41
0.7999999999999999
 50
0
  1
ＧＳＬ－２０
  0
LINE
  8
_0-5_寸法線
  6
CONTINUOUS
 62
    7
 10
619.61323097685329
 20
892.21941105105202
 11
627.63031448440495
 21
878.37288180965209
  0
LINE
  8
_0-5_寸法線
  6
CONTINUOUS
 62
    7
 10
619.61323097685329
 20
892.21941105105202
 11
619.63296433795426
 21
876.21942321997983
  0
LINE
  8
_0-5_寸法線
  6
CONTINUOUS
 62
    7
 10
619.61323097685329
 20
892.21941105105202
 11
636.33845962536907
 21
830.10653345818241
  0
LINE
  8
_0-5_寸法線
  6
CONTINUOUS
 62
    7
 10
636.33845962536907
 20
830.10653345818241
 11
810.45879496183966
 21
830.10653345818241
  0
TEXT
  8
_0-5_寸法線
 62
    7
 10
637.6587949618397
 20
831.06653345818222
 40
24
 41
0.8000000000000001
 50
0
  1
ＳＵＳアングル受枠
  0
TEXT
  8
_0-7_枠細線
 62
    5
 10
1502.1605925925933
 20
1316
 40
20
 41
1
 50
0
  1
クロスバーピッチ変更
  0
TEXT
  8
_0-7_枠細線
 62
    5
 10
1502.1605925925933
 20
1288
 40
20
 41
1
 50
0
  1
取外具形状変更
  0
TEXT
  8
_0-7_枠細線
 62
    5
 10
1888.0000000000009
 20
1316
 40
20
 41
0.7199999999999999
 50
0
  1
２０２０．０９．０１
  0
TEXT
  8
_0-7_枠細線
 62
    5
 10
1888.0000000000009
 20
1288
 40
20
 41
0.7199999999999999
 50
0
  1
２０２０．１０．０１
  0
TEXT
  8
_0-7_枠細線
 62
    5
 10
786.47210101797691
 20
1207.9948290155471
 40
20
 41
0.8
 50
0
  1
６
  0
TEXT
  8
_0-7_枠細線
 62
    5
 10
554.15078431069605
 20
858.84466081033224
 40
20
 41
0.8
 50
0
  1
７
  0
ENDSEC
  0
EOF
