  0
SECTION
  2
HEADER
  9
$ACADVER
  1
AC1009
  9
$INSBASE
 10
0
 20
0
 30
0
  9
$EXTMIN
 10
0
 20
0
  9
$EXTMAX
 10
2376
 20
1680
  9
$LIMMIN
 10
0
 20
0
  9
$LIMMAX
 10
2376
 20
1680
  9
$LTSCALE
 40
8
  0
ENDSEC
  0
SECTION
  2
TABLES
  0
TABLE
  2
LTYPE
 70
     9
  0
LTYPE
  2
CONTINUOUS
 70
    64
  3
実線
 72
    65
 73
     0
 40
0.0
  0
LTYPE
  2
DASHED1
 70
    64
  3
--  --  --  --  --  --  --  --  
 72
    65
 73
     2
 40
2.5
 49
1.25
 49
-1.25
  0
LTYPE
  2
DASHED2
 70
    64
  3
----    ----    ----    ----    
 72
    65
 73
     2
 40
5.0
 49
2.5
 49
-2.5
  0
LTYPE
  2
DASHED3
 70
    64
  3
------  ------  ------  ------  
 72
    65
 73
     2
 40
5.0
 49
3.75
 49
-1.25
  0
LTYPE
  2
CENTER1
 70
    64
  3
----- - ----- - ----- - ----- - 
 72
    65
 73
     4
 40
10.0
 49
6.25
 49
-1.25
 49
1.25
 49
-1.25
  0
LTYPE
  2
CENTER2
 70
    64
  3
----------  --  ----------  --  
 72
    65
 73
     4
 40
20.0
 49
12.5
 49
-2.5
 49
2.5
 49
-2.5
  0
LTYPE
  2
PHANTOM1
 70
    64
  3
--- - - --- - - --- - - --- - - 
 72
    65
 73
     6
 40
10.0
 49
3.25
 49
-1.25
 49
1.25
 49
-1.25
 49
1.25
 49
-1.25
  0
LTYPE
  2
PHANTOM2
 70
    64
  3
--------  -  -  --------  -  -  
 72
    65
 73
     6
 40
20.0
 49
10.0
 49
-2.5
 49
1.25
 49
-2.5
 49
1.25
 49
-2.5
  0
LTYPE
  2
DOT
 70
    64
  3
-   -   -   -   -   -   -   -   
 72
    65
 73
     2
 40
2.5
 49
0.625
 49
-1.875
  0
LTYPE
  2
DUMMY
 70
    64
  3
ダミー
 72
    65
 73
     0
 40
0.0
  0
LTYPE
  2
RAND1
 70
    64
  3
ランダム線1
 72
    65
 73
     4
 40
10.0
 49
1.0
 49
-2.0
 49
3.0
 49
-4.0
  0
LTYPE
  2
RAND2
 70
    64
  3
ランダム線2
 72
    65
 73
     4
 40
14.0
 49
2.0
 49
-3.0
 49
4.0
 49
-5.0
  0
LTYPE
  2
RAND3
 70
    64
  3
ランダム線3
 72
    65
 73
     4
 40
18.0
 49
3.0
 49
-4.0
 49
5.0
 49
-6.0
  0
LTYPE
  2
RAND4
 70
    64
  3
ランダム線4
 72
    65
 73
     4
 40
22.0
 49
4.0
 49
-5.0
 49
6.0
 49
-7.0
  0
LTYPE
  2
RAND5
 70
    64
  3
ランダム線5
 72
    65
 73
     4
 40
26.0
 49
5.0
 49
-6.0
 49
7.0
 49
-8.0
  0
LTYPE
  2
LONG1
 70
    64
  3
----------  --  ----------  --  
 72
    65
 73
     4
 40
40.0
 49
32.5
 49
-2.5
 49
2.5
 49
-2.5
  0
LTYPE
  2
LONG2
 70
    64
  3
--------  -  -  --------  -  -  
 72
    65
 73
     6
 40
40.0
 49
30.0
 49
-2.5
 49
1.25
 49
-2.5
 49
1.25
 49
-2.5
  0
LTYPE
  2
LONG3
 70
    64
  3
+++++++++++++++..+++++++++++++++
 72
    65
 73
     2
 40
40.0
 49
37.5
 49
-2.5
  0
LTYPE
  2
LONG4
 70
    64
  3
+++++++++++++++..+++++++++++++++
 72
    65
 73
     2
 40
80.0
 49
75.0
 49
-5.0
  0
LTYPE
  2
LONG5
 70
    64
  3
----------  --  ----------  --  
 72
    65
 73
     4
 40
60.0
 49
37.5
 49
-7.5
 49
7.5
 49
-7.5
  0
LTYPE
  2
dashed
 70
   64
  3
-------   -------------   ------
 72
   65
 73
    2
 40
7.5
 49
6
 49
-1.5
  0
LTYPE
  2
dashed_spaced
 70
   64
  3
----        --------        ----
 72
   65
 73
    2
 40
12
 49
6
 49
-6
  0
LTYPE
  2
long_dashed_dotted
 70
   64
  3
------------- --- --------------
 72
   65
 73
    4
 40
15.25
 49
12
 49
-1.5
 49
0.25
 49
-1.5
  0
LTYPE
  2
long_dashed_double-dotted
 70
   64
  3
----------- --- --- ------------
 72
   65
 73
    6
 40
17
 49
12
 49
-1.5
 49
0.25
 49
-1.5
 49
0.25
 49
-1.5
  0
LTYPE
  2
long_dashed_triplicate-dotted
 70
   64
  3
--------- --- --- --- ----------
 72
   65
 73
    8
 40
18.75
 49
12
 49
-1.5
 49
0.25
 49
-1.5
 49
0.25
 49
-1.5
 49
0.25
 49
-1.5
  0
LTYPE
  2
dotted
 70
   64
  3
   -       -       -       -    
 72
   65
 73
    2
 40
1.75
 49
0.25
 49
-1.5
  0
LTYPE
  2
chain
 70
   64
  3
-------------- -- --------------
 72
   65
 73
    4
 40
18.5
 49
12
 49
-1.5
 49
3.5
 49
-1.5
  0
LTYPE
  2
chain_double_dash
 70
   64
  3
------------ -- -- -------------
 72
   65
 73
    6
 40
23.5
 49
12
 49
-1.5
 49
3.5
 49
-1.5
 49
3.5
 49
-1.5
  0
LTYPE
  2
dashed_dotted
 70
   64
  3
-----------     -     ----------
 72
   65
 73
    4
 40
9.25
 49
6
 49
-1.5
 49
0.25
 49
-1.5
  0
LTYPE
  2
double-dashed_dotted
 70
   64
  3
------   -----------   -   -----
 72
   65
 73
    6
 40
16.75
 49
6
 49
-1.5
 49
6
 49
-1.5
 49
0.25
 49
-1.5
  0
LTYPE
  2
dashed_double-dotted
 70
   64
  3
---------    -    -    ---------
 72
   65
 73
    6
 40
11
 49
6
 49
-1.5
 49
0.25
 49
-1.5
 49
0.25
 49
-1.5
  0
LTYPE
  2
double-dashed_double-dotted
 70
   64
  3
-----   ---------   -   -   ----
 72
   65
 73
    8
 40
18.5
 49
6
 49
-1.5
 49
6
 49
-1.5
 49
0.25
 49
-1.5
 49
0.25
 49
-1.5
  0
LTYPE
  2
dashed_triplicate-dotted
 70
   64
  3
-------    -    -    -    ------
 72
   65
 73
    8
 40
12.75
 49
6
 49
-1.5
 49
0.25
 49
-1.5
 49
0.25
 49
-1.5
 49
0.25
 49
-1.5
  0
LTYPE
  2
double-dashed_triplicate-dotted
 70
   64
  3
-----  ---------  -  -  -  -----
 72
   65
 73
   10
 40
20.25
 49
6
 49
-1.5
 49
6
 49
-1.5
 49
0.25
 49
-1.5
 49
0.25
 49
-1.5
 49
0.25
 49
-1.5
  0
LTYPE
  2
undefined
 70
   64
  3
--------------------------------
 72
   65
 73
    0
 40
0
  0
ENDTAB
  0
TABLE
  2
STYLE
  5
3
100
AcDbSymbolTable
 70
     1
  0
STYLE
  5
10
100
AcDbSymbolTableRecord
100
AcDbTextStyleTableRecord
  2
STANDARD
 70
     0
 40
0.0
 41
1.0
 50
0.0
 71
     0
 42
0.2
  3
txt
  4
bigfont.shx
  0
STYLE
  5
26
100
AcDbSymbolTableRecord
100
AcDbTextStyleTableRecord
  2
TATEGAKI
 70
    68
 40
0.0
 41
1.0
 50
0.0
 71
     0
 42
1.0
  3
txt
  4
bigfont.shx
  0
ENDTAB
  0
TABLE
  2
LAYER
 70
   10
  0
LAYER
  2
_0-0_計極細
 70
   64
 62
    7
  6
CONTINUOUS
  0
LAYER
  2
_0-1_計細線
 70
   64
 62
    7
  6
CONTINUOUS
  0
LAYER
  2
_0-5_寸法線
 70
   64
 62
    7
  6
CONTINUOUS
  0
LAYER
  2
_0-7_枠細線
 70
   64
 62
    7
  6
CONTINUOUS
  0
LAYER
  2
_0-8_枠中線
 70
   64
 62
    7
  6
CONTINUOUS
  0
LAYER
  2
_0-9_枠極太
 70
   64
 62
    7
  6
CONTINUOUS
  0
LAYER
  2
_0-a_極細3
 70
   64
 62
    7
  6
CONTINUOUS
  0
LAYER
  2
_0-b_細線3
 70
   64
 62
    7
  6
CONTINUOUS
  0
LAYER
  2
_0-d_寸法3
 70
   64
 62
    7
  6
CONTINUOUS
  0
LAYER
  2
ADD_LINE
 70
   64
 62
    7
  6
CONTINUOUS
  0
ENDTAB
  0
ENDSEC
  0
SECTION
  2
BLOCKS
  0
ENDSEC
  0
SECTION
  2
ENTITIES
  0
LINE
  8
_0-7_枠細線
  6
CONTINUOUS
 62
    5
 10
1896
 20
288
 11
1896
 21
160
  0
TEXT
  8
_0-7_枠細線
 62
    5
 10
1500
 20
156
 40
28
 41
1
 50
0
  1
備考
  7
TATEGAKI
  0
TEXT
  8
_0-7_枠細線
 62
    5
 10
1500
 20
220
 40
28
 41
1
 50
0
  1
品番
  7
TATEGAKI
  0
TEXT
  8
_0-7_枠細線
 62
    5
 10
1500
 20
284
 40
28
 41
1
 50
0
  1
品名
  7
TATEGAKI
  0
LINE
  8
_0-7_枠細線
  6
CONTINUOUS
 62
    5
 10
1896
 20
224
 11
1480
 21
224
  0
LINE
  8
_0-7_枠細線
  6
CONTINUOUS
 62
    5
 10
1520
 20
288
 11
1520
 21
96
  0
LINE
  8
_0-8_枠中線
  6
CONTINUOUS
 62
    5
 10
2280
 20
288
 11
1480
 21
288
  0
LINE
  8
_0-8_枠中線
  6
CONTINUOUS
 62
    5
 10
1480
 20
288
 11
1480
 21
96
  0
LINE
  8
_0-7_枠細線
  6
CONTINUOUS
 62
    5
 10
1992
 20
288
 11
1992
 21
96
  0
TEXT
  8
_0-7_枠細線
 62
    5
 10
1908
 20
256
 40
24
 41
1
 50
0
  1
縮　尺
  0
LINE
  8
_0-7_枠細線
  6
CONTINUOUS
 62
    5
 10
1896
 20
248
 11
1992
 21
248
  0
LINE
  8
_0-7_枠細線
  6
CONTINUOUS
 62
    5
 10
1992
 20
160
 11
1480
 21
160
  0
LINE
  8
_0-7_枠細線
  6
CONTINUOUS
 62
    5
 10
2280
 20
144
 11
1992
 21
144
  0
LINE
  8
_0-7_枠細線
  6
CONTINUOUS
 62
    5
 10
1992
 20
192
 11
2280
 21
192
  0
LINE
  8
_0-7_枠細線
  6
CONTINUOUS
 62
    5
 10
2280
 20
224
 11
1992
 21
224
  0
TEXT
  8
_0-7_枠細線
 62
    5
 10
2008
 20
236
 40
40
 41
0.8
 50
0
  1
株式会社シマブン
  0
TEXT
  8
_0-7_枠細線
 62
    5
 10
2004
 20
96
 40
24
 41
1
 50
0
  1
年月日
  0
TEXT
  8
_0-7_枠細線
 62
    5
 10
2004
 20
120
 40
24
 41
1
 50
0
  1
作　成
  0
TEXT
  8
_0-7_枠細線
 62
    5
 10
2010
 20
196
 40
24
 41
1
 50
0
  1
承 認
  0
LINE
  8
_0-7_枠細線
  6
CONTINUOUS
 62
    5
 10
2088
 20
224
 11
2088
 21
96
  0
TEXT
  8
_0-7_枠細線
 62
    5
 10
2106
 20
196
 40
24
 41
1
 50
0
  1
検 図
  0
LINE
  8
_0-7_枠細線
  6
CONTINUOUS
 62
    5
 10
2184
 20
224
 11
2184
 21
144
  0
TEXT
  8
_0-7_枠細線
 62
    5
 10
2200
 20
152
 40
32
 41
1
 50
0
  1
藤戸
  0
TEXT
  8
_0-7_枠細線
 62
    5
 10
2202
 20
196
 40
24
 41
1
 50
0
  1
設 計
  0
TEXT
  8
_0-7_枠細線
 62
    5
 10
2008
 20
152
 40
32
 41
1
 50
0
  1
隠塚
  0
TEXT
  8
_0-7_枠細線
 62
    5
 10
2104
 20
152
 40
32
 41
1
 50
0
  1
渋田
  0
TEXT
  8
_0-7_枠細線
 62
    5
 10
1536.8000000000002
 20
240
 40
32
 41
0.5
 50
0
  1
セーフティグレーチング補強仕様Ｈ２０タイプ
  0
TEXT
  8
_0-7_枠細線
 62
    5
 10
2096
 20
108
 40
24
 41
0.6666666666666666
 50
0
  1
２０１０年０３月０１日
  0
TEXT
  8
_0-7_枠細線
 62
    5
 10
1536.8000000000002
 20
112
 40
32
 41
0.5999999999999998
 50
0
  1
色については品番表参照のこと
  0
TEXT
  8
_0-7_枠細線
 62
    5
 10
1536.8000000000002
 20
176
 40
32
 41
0.6
 50
0
  1
ＧＲＳＫ－２０Ｗ２５０　ＳＥＴ
  0
LINE
  8
_0-9_枠極太
  6
CONTINUOUS
 62
    5
 10
96
 20
96
 11
96
 21
1536
  0
LINE
  8
_0-9_枠極太
  6
CONTINUOUS
 62
    5
 10
96
 20
1536
 11
2280
 21
1536
  0
LINE
  8
_0-9_枠極太
  6
CONTINUOUS
 62
    5
 10
2280
 20
1536
 11
2280
 21
96
  0
LINE
  8
_0-9_枠極太
  6
CONTINUOUS
 62
    5
 10
2280
 20
96
 11
96
 21
96
  0
LINE
  8
_0-7_枠細線
  6
CONTINUOUS
 62
    5
 10
1668.445396090538
 20
768
 11
1668.445396090538
 21
896
  0
TEXT
  8
_0-7_枠細線
 62
    5
 10
1704.445396090538
 20
860
 40
24
 41
1
 50
0
  1
耐荷重
  0
TEXT
  8
_0-7_枠細線
 62
    5
 10
1680.445396090538
 20
780
 40
24
 41
1
 50
0
  1
（歩道用）
  0
LINE
  8
_0-7_枠細線
  6
CONTINUOUS
 62
    5
 10
1812.445396090538
 20
768
 11
1812.445396090538
 21
896
  0
TEXT
  8
_0-7_枠細線
 62
    5
 10
1848.445396090538
 20
860
 40
24
 41
1
 50
0
  1
蓋重量
  0
LINE
  8
_0-7_枠細線
  6
CONTINUOUS
 62
    5
 10
1956.445396090538
 20
768
 11
1956.445396090538
 21
896
  0
TEXT
  8
_0-7_枠細線
 62
    5
 10
1992.445396090538
 20
860
 40
24
 41
1
 50
0
  1
枠重量
  0
LINE
  8
_0-7_枠細線
  6
CONTINUOUS
 62
    5
 10
1668.445396090538
 20
848
 11
2100.4453960905375
 21
848
  0
LINE
  8
_0-7_枠細線
  6
CONTINUOUS
 62
    5
 10
1668.445396090538
 20
896
 11
2100.4453960905375
 21
896
  0
LINE
  8
_0-7_枠細線
  6
CONTINUOUS
 62
    5
 10
1668.445396090538
 20
768
 11
2100.4453960905375
 21
768
  0
LINE
  8
_0-7_枠細線
  6
CONTINUOUS
 62
    5
 10
2100.4453960905375
 20
768
 11
2100.4453960905375
 21
896
  0
TEXT
  8
_0-7_枠細線
 62
    5
 10
1980.445396090538
 20
798
 40
24
 41
0.8000000000000001
 50
0
  1
2.4kg/ｍ組
  0
TEXT
  8
_0-7_枠細線
 62
    5
 10
1692.445396090538
 20
812
 40
24
 41
1
 50
0
  1
5.0kN/㎡
  0
TEXT
  8
_0-7_枠細線
 62
    5
 10
1846.0453960905379
 20
798
 40
24
 41
0.8000000000000001
 50
0
  1
3.9kg/ｍ
  0
TEXT
  8
_0-7_枠細線
 62
    5
 10
1726.0453960905384
 20
688
 40
24
 41
0.8000000000000001
 50
0
  1
品　　番
  0
LINE
  8
_0-7_枠細線
  6
CONTINUOUS
 62
    5
 10
1668.445396090538
 20
600
 11
2180.4453960905385
 21
600
  0
LINE
  8
_0-7_枠細線
  6
CONTINUOUS
 62
    5
 10
1668.445396090538
 20
640
 11
2180.4453960905385
 21
640
  0
LINE
  8
_0-7_枠細線
  6
CONTINUOUS
 62
    5
 10
1668.445396090538
 20
680
 11
2180.4453960905385
 21
680
  0
TEXT
  8
_0-7_枠細線
 62
    5
 10
1930.8453960905388
 20
688
 40
24
 41
0.8000000000000001
 50
0
  1
色
  0
TEXT
  8
_0-7_枠細線
 62
    5
 10
2062.0453960905388
 20
688
 40
24
 41
0.8000000000000001
 50
0
  1
備　　考
  0
LINE
  8
_0-7_枠細線
  6
CONTINUOUS
 62
    5
 10
1668.445396090538
 20
720
 11
2180.4453960905385
 21
720
  0
LINE
  8
_0-7_枠細線
  6
CONTINUOUS
 62
    5
 10
1668.445396090538
 20
360
 11
2180.4453960905385
 21
360
  0
LINE
  8
_0-7_枠細線
  6
CONTINUOUS
 62
    5
 10
1668.445396090538
 20
560
 11
2180.4453960905385
 21
560
  0
LINE
  8
_0-7_枠細線
  6
CONTINUOUS
 62
    5
 10
1668.445396090538
 20
520
 11
2180.4453960905385
 21
520
  0
LINE
  8
_0-7_枠細線
  6
CONTINUOUS
 62
    5
 10
1668.445396090538
 20
480
 11
2180.4453960905385
 21
480
  0
LINE
  8
_0-7_枠細線
  6
CONTINUOUS
 62
    5
 10
1668.445396090538
 20
440
 11
2180.4453960905385
 21
440
  0
LINE
  8
_0-7_枠細線
  6
CONTINUOUS
 62
    5
 10
1668.445396090538
 20
400
 11
2180.4453960905385
 21
400
  0
TEXT
  8
_0-7_枠細線
 62
    5
 10
1826.445396090538
 20
728
 40
28
 41
1
 50
0
  1
品番表
  0
TEXT
  8
_0-7_枠細線
 62
    5
 10
1676.0453960905388
 20
648
 40
24
 41
0.5666666666666667
 50
0
  1
ＧＲＳＫ－２０Ｗ２５０－Ｂ
  0
TEXT
  8
_0-7_枠細線
 62
    5
 10
1676.0453960905393
 20
608
 40
24
 41
0.5666666666666667
 50
0
  1
ＧＲＳＫ－２０Ｗ２５０－Ｇ
  0
TEXT
  8
_0-7_枠細線
 62
    5
 10
1676.0453960905393
 20
568
 40
24
 41
0.5666666666666667
 50
0
  1
ＧＲＳＫ－２０Ｗ２５０－Ｓ
  0
TEXT
  8
_0-7_枠細線
 62
    5
 10
1676.0453960905393
 20
528
 40
24
 41
0.5666666666666667
 50
0
  1
ＧＲＳＫ－２０Ｗ２５０－Ｐ
  0
TEXT
  8
_0-7_枠細線
 62
    5
 10
1676.0453960905393
 20
488
 40
24
 41
0.5666666666666667
 50
0
  1
ＧＲＳＫ－２０Ｗ２５０－Ａ
  0
TEXT
  8
_0-7_枠細線
 62
    5
 10
1676.0453960905393
 20
448
 40
24
 41
0.5666666666666667
 50
0
  1
ＧＲＳＫ－２０Ｗ２５０－Ｄ
  0
TEXT
  8
_0-7_枠細線
 62
    5
 10
1676.0453960905393
 20
408
 40
24
 41
0.5666666666666667
 50
0
  1
ＧＲＳＫ－２０Ｗ２５０－Ｍ
  0
LINE
  8
_0-7_枠細線
  6
CONTINUOUS
 62
    5
 10
1668.445396090538
 20
320
 11
2180.4453960905385
 21
320
  0
TEXT
  8
_0-7_枠細線
 62
    5
 10
1676.0453960905393
 20
328
 40
24
 41
0.5666666666666667
 50
0
  1
ＧＲＳＫ－２０Ｗ２５０－Ｋ
  0
LINE
  8
_0-7_枠細線
  6
CONTINUOUS
 62
    5
 10
2180.4453960905385
 20
720
 11
2180.4453960905385
 21
320
  0
LINE
  8
_0-7_枠細線
  6
CONTINUOUS
 62
    5
 10
2020.445396090538
 20
720
 11
2020.445396090538
 21
320
  0
LINE
  8
_0-7_枠細線
  6
CONTINUOUS
 62
    5
 10
1860.4453960905389
 20
720
 11
1860.4453960905389
 21
320
  0
LINE
  8
_0-7_枠細線
  6
CONTINUOUS
 62
    5
 10
1668.445396090538
 20
720
 11
1668.445396090538
 21
320
  0
TEXT
  8
_0-7_枠細線
 62
    5
 10
1676.0453960905388
 20
368
 40
24
 41
0.5666666666666667
 50
0
  1
ＧＲＳＫ－２０Ｗ２５０－Ｃ
  0
LINE
  8
_0-7_枠細線
  6
CONTINUOUS
 62
    5
 10
1661.6656491420358
 20
368.532854836659
 11
1649.6656491420358
 21
392.532854836659
  0
LINE
  8
_0-7_枠細線
  6
CONTINUOUS
 62
    5
 10
1637.6656491420358
 20
368.532854836659
 11
1661.6656491420358
 21
368.532854836659
  0
LINE
  8
_0-7_枠細線
  6
CONTINUOUS
 62
    5
 10
1649.6656491420358
 20
392.532854836659
 11
1637.6656491420358
 21
368.532854836659
  0
TEXT
  8
_0-7_枠細線
 62
    5
 10
1641.4498911710727
 20
367.01474289289911
 40
20
 41
0.8
 50
0
  1
４
  0
TEXT
  8
_0-7_枠細線
 62
    5
 10
1910.4000000000001
 20
188
 40
32
 41
0.7
 50
0
  1
１：８
  0
LINE
  8
_0-7_枠細線
  6
CONTINUOUS
 62
    5
 10
2280.0000000000009
 20
1508
 11
1424.0000000000009
 21
1508
  0
TEXT
  8
_0-7_枠細線
 62
    5
 10
1432.0000000000009
 20
1512
 40
20
 41
1
 50
0
  1
記号
  0
TEXT
  8
_0-7_枠細線
 62
    5
 10
1595.0000000000009
 20
1512
 40
20
 41
1
 50
0
  1
訂　 正　 記　 事
  0
TEXT
  8
_0-7_枠細線
 62
    5
 10
1890.0000000000009
 20
1512
 40
20
 41
1
 50
0
  1
訂 正 年 月 日
  0
TEXT
  8
_0-7_枠細線
 62
    5
 10
2090.0000000000009
 20
1512
 40
20
 41
1
 50
0
  1
備　　　　　考
  0
LINE
  8
_0-7_枠細線
  6
CONTINUOUS
 62
    5
 10
2280.0000000000009
 20
1480
 11
1424.0000000000009
 21
1480
  0
TEXT
  8
_0-7_枠細線
 62
    5
 10
1502.1605925925933
 20
1484
 40
20
 41
1
 50
0
  1
品番・色記号変更
  0
TEXT
  8
_0-7_枠細線
 62
    5
 10
1888.0000000000009
 20
1484
 40
20
 41
0.7199999999999999
 50
0
  1
２０１３．０３．１３
  0
LINE
  8
_0-7_枠細線
  6
CONTINUOUS
 62
    5
 10
2280.0000000000009
 20
1452
 11
1424.0000000000009
 21
1452
  0
LINE
  8
_0-7_枠細線
  6
CONTINUOUS
 62
    5
 10
2280.0000000000009
 20
1424
 11
1424.0000000000009
 21
1424
  0
TEXT
  8
_0-7_枠細線
 62
    5
 10
1502.1605925925933
 20
1456
 40
20
 41
1
 50
0
  1
クロスバーピッチ変更
  0
TEXT
  8
_0-7_枠細線
 62
    5
 10
1502.1605925925933
 20
1428
 40
20
 41
1
 50
0
  1
取外具形状変更
  0
TEXT
  8
_0-7_枠細線
 62
    5
 10
1888.0000000000009
 20
1456
 40
20
 41
0.7199999999999999
 50
0
  1
２０１５．１１．２０
  0
LINE
  8
_0-7_枠細線
  6
CONTINUOUS
 62
    5
 10
1464.0000000000009
 20
1454.307734354795
 11
1452.0000000000009
 21
1478.307734354795
  0
LINE
  8
_0-7_枠細線
  6
CONTINUOUS
 62
    5
 10
1440.0000000000009
 20
1454.307734354795
 11
1464.0000000000009
 21
1454.307734354795
  0
LINE
  8
_0-7_枠細線
  6
CONTINUOUS
 62
    5
 10
1452.0000000000009
 20
1478.307734354795
 11
1440.0000000000009
 21
1454.307734354795
  0
TEXT
  8
_0-7_枠細線
 62
    5
 10
1443.7842420290381
 20
1453.8165307621866
 40
20
 41
0.8
 50
0
  1
１
  0
TEXT
  8
_0-7_枠細線
 62
    5
 10
1443.7842420290381
 20
1425.8165307621866
 40
20
 41
0.8
 50
0
  1
２
  0
LINE
  8
_0-7_枠細線
  6
CONTINUOUS
 62
    5
 10
2280.0000000000009
 20
1396
 11
1424.0000000000009
 21
1396
  0
LINE
  8
_0-7_枠細線
  6
CONTINUOUS
 62
    5
 10
1452.0000000000009
 20
1450.307734354795
 11
1440.0000000000009
 21
1426.307734354795
  0
LINE
  8
_0-7_枠細線
  6
CONTINUOUS
 62
    5
 10
1440.0000000000009
 20
1426.307734354795
 11
1464.0000000000009
 21
1426.307734354795
  0
LINE
  8
_0-7_枠細線
  6
CONTINUOUS
 62
    5
 10
1464.0000000000009
 20
1426.307734354795
 11
1452.0000000000009
 21
1450.307734354795
  0
TEXT
  8
_0-7_枠細線
 62
    5
 10
1443.7842420290381
 20
1397.4314401305048
 40
20
 41
0.8
 50
0
  1
３
  0
TEXT
  8
_0-7_枠細線
 62
    5
 10
1888.0000000000009
 20
1400
 40
20
 41
0.7199999999999999
 50
0
  1
２０１７．０４．０１
  0
LINE
  8
_0-7_枠細線
  6
CONTINUOUS
 62
    5
 10
1464.0000000000009
 20
1370.307734354795
 11
1452.0000000000009
 21
1394.307734354795
  0
LINE
  8
_0-7_枠細線
  6
CONTINUOUS
 62
    5
 10
1440.0000000000009
 20
1370.307734354795
 11
1464.0000000000009
 21
1370.307734354795
  0
LINE
  8
_0-7_枠細線
  6
CONTINUOUS
 62
    5
 10
1452.0000000000009
 20
1394.307734354795
 11
1440.0000000000009
 21
1370.307734354795
  0
TEXT
  8
_0-7_枠細線
 62
    5
 10
1888.0000000000009
 20
1372
 40
20
 41
0.7199999999999999
 50
0
  1
２０１７．０４．０１
  0
TEXT
  8
_0-7_枠細線
 62
    5
 10
1502.1605925925933
 20
1372
 40
20
 41
1
 50
0
  1
ブラウン色（Ｃ）追加
  0
LINE
  8
_0-7_枠細線
  6
CONTINUOUS
 62
    5
 10
2280.0000000000009
 20
1368
 11
1424.0000000000009
 21
1368
  0
LINE
  8
_0-7_枠細線
  6
CONTINUOUS
 62
    5
 10
1452.0000000000009
 20
1422.307734354795
 11
1440.0000000000009
 21
1398.307734354795
  0
LINE
  8
_0-7_枠細線
  6
CONTINUOUS
 62
    5
 10
1440.0000000000009
 20
1398.307734354795
 11
1464.0000000000009
 21
1398.307734354795
  0
LINE
  8
_0-7_枠細線
  6
CONTINUOUS
 62
    5
 10
1464.0000000000009
 20
1398.307734354795
 11
1452.0000000000009
 21
1422.307734354795
  0
TEXT
  8
_0-7_枠細線
 62
    5
 10
1443.7842420290381
 20
1368.7896224110355
 40
20
 41
0.8
 50
0
  1
４
  0
TEXT
  8
_0-7_枠細線
 62
    5
 10
1502.1605925925933
 20
1400
 40
20
 41
1
 50
0
  1
取外具形状変更
  0
TEXT
  8
_0-7_枠細線
 62
    5
 10
1888.0000000000009
 20
1428
 40
20
 41
0.7199999999999999
 50
0
  1
２０１５．１１．２０
  0
LINE
  8
_0-7_枠細線
  6
CONTINUOUS
 62
    5
 10
1464.0000000000009
 20
1342.307734354795
 11
1452.0000000000009
 21
1366.307734354795
  0
LINE
  8
_0-7_枠細線
  6
CONTINUOUS
 62
    5
 10
1440.0000000000009
 20
1342.307734354795
 11
1464.0000000000009
 21
1342.307734354795
  0
LINE
  8
_0-7_枠細線
  6
CONTINUOUS
 62
    5
 10
1452.0000000000009
 20
1366.307734354795
 11
1440.0000000000009
 21
1342.307734354795
  0
LINE
  8
_0-7_枠細線
  6
CONTINUOUS
 62
    5
 10
2280.0000000000009
 20
1340
 11
1424.0000000000009
 21
1340
  0
TEXT
  8
_0-7_枠細線
 62
    5
 10
1888.0000000000009
 20
1344
 40
20
 41
0.7199999999999999
 50
0
  1
２０１９．０９．０１
  0
TEXT
  8
_0-7_枠細線
 62
    5
 10
1443.7842420290378
 20
1340.789622411035
 40
20
 41
0.8
 50
0
  1
５
  0
TEXT
  8
_0-7_枠細線
 62
    5
 10
1502.1605925925933
 20
1344
 40
20
 41
1
 50
0
  1
アンカー材質･厚み変更
  0
LINE
  8
_0-7_枠細線
  6
CONTINUOUS
 62
    5
 10
1464.0000000000009
 20
1314.307734354795
 11
1452.0000000000009
 21
1338.307734354795
  0
LINE
  8
_0-7_枠細線
  6
CONTINUOUS
 62
    5
 10
1440.0000000000009
 20
1314.307734354795
 11
1464.0000000000009
 21
1314.307734354795
  0
LINE
  8
_0-7_枠細線
  6
CONTINUOUS
 62
    5
 10
1452.0000000000009
 20
1338.307734354795
 11
1440.0000000000009
 21
1314.307734354795
  0
LINE
  8
_0-7_枠細線
  6
CONTINUOUS
 62
    5
 10
2280.0000000000009
 20
1312
 11
1424.0000000000009
 21
1312
  0
LINE
  8
_0-7_枠細線
  6
CONTINUOUS
 62
    5
 10
1464.0000000000009
 20
1286.307734354795
 11
1452.0000000000009
 21
1310.307734354795
  0
LINE
  8
_0-7_枠細線
  6
CONTINUOUS
 62
    5
 10
1440.0000000000009
 20
1286.307734354795
 11
1464.0000000000009
 21
1286.307734354795
  0
LINE
  8
_0-7_枠細線
  6
CONTINUOUS
 62
    5
 10
1452.0000000000009
 20
1310.307734354795
 11
1440.0000000000009
 21
1286.307734354795
  0
LINE
  8
_0-7_枠細線
  6
CONTINUOUS
 62
    5
 10
2280.0000000000009
 20
1284
 11
1424.0000000000009
 21
1284
  0
TEXT
  8
_0-7_枠細線
 62
    5
 10
1443.7842420290381
 20
1312.7896224110355
 40
20
 41
0.8
 50
0
  1
６
  0
TEXT
  8
_0-7_枠細線
 62
    5
 10
1443.7842420290381
 20
1284.7896224110352
 40
20
 41
0.8
 50
0
  1
７
  0
LINE
  8
_0-7_枠細線
  6
CONTINUOUS
 62
    5
 10
1424.0000000000009
 20
1284
 11
1424.0000000000009
 21
1535.9999999999986
  0
LINE
  8
_0-7_枠細線
  6
CONTINUOUS
 62
    5
 10
1480.0000000000009
 20
1284
 11
1480.0000000000009
 21
1535.9999999999986
  0
LINE
  8
_0-7_枠細線
  6
CONTINUOUS
 62
    5
 10
1880.0000000000009
 20
1284
 11
1880.0000000000009
 21
1535.9999999999986
  0
LINE
  8
_0-7_枠細線
  6
CONTINUOUS
 62
    5
 10
2040.0000000000009
 20
1284
 11
2040.0000000000009
 21
1535.9999999999986
  0
TEXT
  8
_0-7_枠細線
 62
    5
 10
1882.845396090539
 20
608
 40
24
 41
0.7999999999999999
 50
0
  1
ライトグレー
  0
TEXT
  8
_0-7_枠細線
 62
    5
 10
1902.0453960905388
 20
648
 40
24
 41
0.7999999999999999
 50
0
  1
ベージュ
  0
TEXT
  8
_0-7_枠細線
 62
    5
 10
1902.0453960905388
 20
568
 40
24
 41
0.7999999999999999
 50
0
  1
ホワイト
  0
TEXT
  8
_0-7_枠細線
 62
    5
 10
1911.645396090539
 20
528
 40
24
 41
0.7999999999999999
 50
0
  1
ピンク
  0
TEXT
  8
_0-7_枠細線
 62
    5
 10
1911.645396090539
 20
488
 40
24
 41
0.7999999999999999
 50
0
  1
ブルー
  0
TEXT
  8
_0-7_枠細線
 62
    5
 10
1882.845396090539
 20
448
 40
24
 41
0.7999999999999999
 50
0
  1
ダークグレー
  0
TEXT
  8
_0-7_枠細線
 62
    5
 10
1911.645396090539
 20
408
 40
24
 41
0.7999999999999999
 50
0
  1
ウッド
  0
TEXT
  8
_0-7_枠細線
 62
    5
 10
1902.0453960905388
 20
328
 40
24
 41
0.7999999999999999
 50
0
  1
ブラック
  0
TEXT
  8
_0-7_枠細線
 62
    5
 10
1902.0453960905388
 20
368
 40
24
 41
0.7999999999999999
 50
0
  1
ブラウン
  0
LINE
  8
_0-7_枠細線
  6
CONTINUOUS
 62
    5
 10
1668.445396090538
 20
1133.8946910356817
 11
1668.445396090538
 21
1013.8946910356817
  0
TEXT
  8
_0-7_枠細線
 62
    5
 10
1671.7225259619299
 20
980.73377816458571
 40
24
 41
0.8000000000000001
 50
0
  1
※ 特寸品はAが20以下となるようBにて調整
  0
TEXT
  8
_0-7_枠細線
 62
    5
 10
1671.7225259619299
 20
949.54143699835424
 40
24
 41
0.8000000000000001
 50
0
  1
※ 角型の場合は、集水マス補強仕様による
  0
TEXT
  8
_0-7_枠細線
 62
    5
 10
1709.6453960905401
 20
1101.8946910356817
 40
24
 41
0.8000000000000001
 50
0
  1
種　別
  0
TEXT
  8
_0-7_枠細線
 62
    5
 10
1709.6453960905394
 20
1061.8946910356817
 40
24
 41
0.8000000000000001
 50
0
  1
定尺品
  0
TEXT
  8
_0-7_枠細線
 62
    5
 10
1709.6453960905394
 20
1021.8946910356817
 40
24
 41
0.8000000000000001
 50
0
  1
特寸品
  0
LINE
  8
_0-7_枠細線
  6
CONTINUOUS
 62
    5
 10
1808.4453960905403
 20
1133.8946910356817
 11
1808.4453960905403
 21
1013.8946910356817
  0
TEXT
  8
_0-7_枠細線
 62
    5
 10
1856.8453960905424
 20
1061.8946910356817
 40
24
 41
0.5999999999999999
 50
0
  1
９９９
  0
TEXT
  8
_0-7_枠細線
 62
    5
 10
1868.8453960905424
 20
1101.8946910356817
 40
24
 41
0.8000000000000001
 50
0
  1
Ｌ
  0
TEXT
  8
_0-7_枠細線
 62
    5
 10
1820.8453960905408
 20
1021.8946910356817
 40
24
 41
0.5999999999999999
 50
0
  1
３０５～１３０５
  0
LINE
  8
_0-7_枠細線
  6
CONTINUOUS
 62
    5
 10
1948.4453960905403
 20
1133.8946910356817
 11
1948.4453960905403
 21
1013.8946910356817
  0
TEXT
  8
_0-7_枠細線
 62
    5
 10
1849.254021948771
 20
1141.8946910356817
 40
28
 41
1
 50
0
  1
寸法表
  0
LINE
  8
_0-7_枠細線
  6
CONTINUOUS
 62
    5
 10
2228.4453960905416
 20
1133.8946910356817
 11
2228.4453960905416
 21
1013.8946910356817
  0
LINE
  8
_0-7_枠細線
  6
CONTINUOUS
 62
    5
 10
1668.445396090538
 20
1133.8946910356817
 11
2228.4453960905416
 21
1133.8946910356817
  0
LINE
  8
_0-7_枠細線
  6
CONTINUOUS
 62
    5
 10
1668.445396090538
 20
1093.8946910356817
 11
2228.4453960905416
 21
1093.8946910356817
  0
LINE
  8
_0-7_枠細線
  6
CONTINUOUS
 62
    5
 10
1668.445396090538
 20
1053.8946910356817
 11
2228.4453960905416
 21
1053.8946910356817
  0
LINE
  8
_0-7_枠細線
  6
CONTINUOUS
 62
    5
 10
1668.445396090538
 20
1013.8946910356817
 11
2228.4453960905416
 21
1013.8946910356817
  0
LINE
  8
_0-7_枠細線
  6
CONTINUOUS
 62
    5
 10
2088.4453960905412
 20
1133.8946910356817
 11
2088.4453960905412
 21
1013.8946910356817
  0
TEXT
  8
_0-7_枠細線
 62
    5
 10
1989.6453960905446
 20
1021.8946910356817
 40
24
 41
0.5999999999999999
 50
0
  1
７～２０
  0
TEXT
  8
_0-7_枠細線
 62
    5
 10
2008.8453960905458
 20
1101.8946910356817
 40
24
 41
0.8000000000000001
 50
0
  1
Ａ
  0
TEXT
  8
_0-7_枠細線
 62
    5
 10
2148.8453960905431
 20
1101.8946910356817
 40
24
 41
0.8000000000000001
 50
0
  1
Ｂ
  0
TEXT
  8
_0-7_枠細線
 62
    5
 10
2129.6453960905396
 20
1061.8946910356817
 40
24
 41
0.5999999999999999
 50
0
  1
４８．５
  0
TEXT
  8
_0-7_枠細線
 62
    5
 10
1989.6453960905405
 20
1061.8946910356817
 40
24
 41
0.5999999999999999
 50
0
  1
１４．５
  0
TEXT
  8
_0-7_枠細線
 62
    5
 10
2093.6453960905415
 20
1021.8946910356817
 40
24
 41
0.5999999999999999
 50
0
  1
２６．５～４８．５
  0
LINE
  8
_0-1_計細線
  6
CONTINUOUS
 62
    3
 10
337.73722627737197
 20
955.68678502224407
 11
1336.737226277372
 21
955.68678502224407
  0
LINE
  8
_0-1_計細線
  6
CONTINUOUS
 62
    3
 10
337.73722627737197
 20
967.08678502224461
 11
1336.737226277372
 21
967.08678502224461
  0
LINE
  8
_0-1_計細線
  6
CONTINUOUS
 62
    3
 10
337.73722627737197
 20
955.68678502224407
 11
337.73722627737197
 21
967.08678502224461
  0
LINE
  8
_0-1_計細線
  6
CONTINUOUS
 62
    3
 10
1336.737226277372
 20
955.68678502224407
 11
1336.737226277372
 21
967.08678502224461
  0
LINE
  8
_0-0_計極細
  6
CONTINUOUS
 62
    2
 10
337.73722627737197
 20
963.88678502224434
 11
1336.737226277372
 21
963.88678502224434
  0
LINE
  8
_0-0_計極細
  6
CONTINUOUS
 62
    2
 10
337.73722627737197
 20
958.88678502224434
 11
1336.737226277372
 21
958.88678502224434
  0
LINE
  8
_0-1_計細線
  6
CONTINUOUS
 62
    3
 10
337.73722627737197
 20
972.68678502224452
 11
1336.737226277372
 21
972.68678502224452
  0
LINE
  8
_0-1_計細線
  6
CONTINUOUS
 62
    3
 10
337.73722627737197
 20
984.08678502224507
 11
1336.737226277372
 21
984.08678502224507
  0
LINE
  8
_0-1_計細線
  6
CONTINUOUS
 62
    3
 10
337.73722627737197
 20
972.68678502224452
 11
337.73722627737197
 21
984.08678502224507
  0
LINE
  8
_0-1_計細線
  6
CONTINUOUS
 62
    3
 10
1336.737226277372
 20
972.68678502224452
 11
1336.737226277372
 21
984.08678502224507
  0
LINE
  8
_0-0_計極細
  6
CONTINUOUS
 62
    2
 10
337.73722627737197
 20
980.88678502224525
 11
1336.737226277372
 21
980.88678502224525
  0
LINE
  8
_0-0_計極細
  6
CONTINUOUS
 62
    2
 10
337.73722627737197
 20
975.88678502224525
 11
1336.737226277372
 21
975.88678502224525
  0
LINE
  8
_0-1_計細線
  6
CONTINUOUS
 62
    3
 10
337.73722627737197
 20
1035.0867850222428
 11
1336.737226277372
 21
1035.0867850222428
  0
LINE
  8
_0-1_計細線
  6
CONTINUOUS
 62
    3
 10
337.73722627737197
 20
1023.6867850222422
 11
1336.737226277372
 21
1023.6867850222422
  0
LINE
  8
_0-1_計細線
  6
CONTINUOUS
 62
    3
 10
337.73722627737197
 20
1035.0867850222428
 11
337.73722627737197
 21
1023.6867850222422
  0
LINE
  8
_0-1_計細線
  6
CONTINUOUS
 62
    3
 10
1336.737226277372
 20
1035.0867850222428
 11
1336.737226277372
 21
1023.6867850222422
  0
LINE
  8
_0-0_計極細
  6
CONTINUOUS
 62
    2
 10
337.73722627737197
 20
1026.8867850222425
 11
1336.737226277372
 21
1026.8867850222425
  0
LINE
  8
_0-0_計極細
  6
CONTINUOUS
 62
    2
 10
337.73722627737197
 20
1031.8867850222425
 11
1336.737226277372
 21
1031.8867850222425
  0
LINE
  8
_0-0_計極細
  6
CENTER2
 62
    2
 10
321.84862674035276
 20
995.38678502224343
 11
1352.78196007373
 21
995.38678502224343
  0
LINE
  8
_0-1_計細線
  6
CONTINUOUS
 62
    3
 10
337.73722627737197
 20
1103.0867850222432
 11
1336.737226277372
 21
1103.0867850222432
  0
LINE
  8
_0-1_計細線
  6
CONTINUOUS
 62
    3
 10
337.73722627737197
 20
1091.6867850222427
 11
1336.737226277372
 21
1091.6867850222427
  0
LINE
  8
_0-1_計細線
  6
CONTINUOUS
 62
    3
 10
337.73722627737197
 20
1103.0867850222432
 11
337.73722627737197
 21
1091.6867850222427
  0
LINE
  8
_0-1_計細線
  6
CONTINUOUS
 62
    3
 10
1336.737226277372
 20
1103.0867850222432
 11
1336.737226277372
 21
1091.6867850222427
  0
LINE
  8
_0-0_計極細
  6
CONTINUOUS
 62
    2
 10
337.73722627737197
 20
1094.886785022243
 11
1336.737226277372
 21
1094.886785022243
  0
LINE
  8
_0-0_計極細
  6
CONTINUOUS
 62
    2
 10
337.73722627737197
 20
1099.886785022243
 11
1336.737226277372
 21
1099.886785022243
  0
LINE
  8
_0-1_計細線
  6
CONTINUOUS
 62
    3
 10
337.73722627737197
 20
1120.3867850222434
 11
1336.737226277372
 21
1120.3867850222434
  0
LINE
  8
_0-1_計細線
  6
CONTINUOUS
 62
    3
 10
337.73722627737197
 20
1108.9867850222429
 11
1336.737226277372
 21
1108.9867850222429
  0
LINE
  8
_0-1_計細線
  6
CONTINUOUS
 62
    3
 10
337.73722627737197
 20
1120.3867850222434
 11
337.73722627737197
 21
1108.9867850222429
  0
LINE
  8
_0-1_計細線
  6
CONTINUOUS
 62
    3
 10
1336.737226277372
 20
1120.3867850222434
 11
1336.737226277372
 21
1108.9867850222429
  0
LINE
  8
_0-0_計極細
  6
CONTINUOUS
 62
    2
 10
337.73722627737197
 20
1112.1867850222432
 11
1336.737226277372
 21
1112.1867850222432
  0
LINE
  8
_0-0_計極細
  6
CONTINUOUS
 62
    2
 10
337.73722627737197
 20
1117.1867850222432
 11
1336.737226277372
 21
1117.1867850222432
  0
LINE
  8
_0-1_計細線
  6
CONTINUOUS
 62
    3
 10
337.73722627737197
 20
887.68678502224361
 11
1336.737226277372
 21
887.68678502224361
  0
LINE
  8
_0-1_計細線
  6
CONTINUOUS
 62
    3
 10
337.73722627737197
 20
899.08678502224416
 11
1336.737226277372
 21
899.08678502224416
  0
LINE
  8
_0-1_計細線
  6
CONTINUOUS
 62
    3
 10
337.73722627737197
 20
887.68678502224361
 11
337.73722627737197
 21
899.08678502224416
  0
LINE
  8
_0-1_計細線
  6
CONTINUOUS
 62
    3
 10
1336.737226277372
 20
887.68678502224361
 11
1336.737226277372
 21
899.08678502224416
  0
LINE
  8
_0-0_計極細
  6
CONTINUOUS
 62
    2
 10
337.73722627737197
 20
895.88678502224388
 11
1336.737226277372
 21
895.88678502224388
  0
LINE
  8
_0-0_計極細
  6
CONTINUOUS
 62
    2
 10
337.73722627737197
 20
890.88678502224388
 11
1336.737226277372
 21
890.88678502224388
  0
LINE
  8
_0-1_計細線
  6
CONTINUOUS
 62
    3
 10
337.73722627737197
 20
870.38678502224343
 11
1336.737226277372
 21
870.38678502224343
  0
LINE
  8
_0-1_計細線
  6
CONTINUOUS
 62
    3
 10
337.73722627737197
 20
881.78678502224398
 11
1336.737226277372
 21
881.78678502224398
  0
LINE
  8
_0-1_計細線
  6
CONTINUOUS
 62
    3
 10
337.73722627737197
 20
870.38678502224343
 11
337.73722627737197
 21
881.78678502224398
  0
LINE
  8
_0-1_計細線
  6
CONTINUOUS
 62
    3
 10
1336.737226277372
 20
870.38678502224343
 11
1336.737226277372
 21
881.78678502224398
  0
LINE
  8
_0-0_計極細
  6
CONTINUOUS
 62
    2
 10
337.73722627737197
 20
878.5867850222437
 11
1336.737226277372
 21
878.5867850222437
  0
LINE
  8
_0-0_計極細
  6
CONTINUOUS
 62
    2
 10
337.73722627737197
 20
873.5867850222437
 11
1336.737226277372
 21
873.5867850222437
  0
LINE
  8
_0-1_計細線
  6
CONTINUOUS
 62
    3
 10
337.73722627737197
 20
1052.0867850222432
 11
1336.737226277372
 21
1052.0867850222432
  0
LINE
  8
_0-1_計細線
  6
CONTINUOUS
 62
    3
 10
337.73722627737197
 20
1040.6867850222427
 11
1336.737226277372
 21
1040.6867850222427
  0
LINE
  8
_0-1_計細線
  6
CONTINUOUS
 62
    3
 10
337.73722627737197
 20
1052.0867850222432
 11
337.73722627737197
 21
1040.6867850222427
  0
LINE
  8
_0-1_計細線
  6
CONTINUOUS
 62
    3
 10
1336.737226277372
 20
1052.0867850222432
 11
1336.737226277372
 21
1040.6867850222427
  0
LINE
  8
_0-0_計極細
  6
CONTINUOUS
 62
    2
 10
337.73722627737197
 20
1043.8867850222434
 11
1336.737226277372
 21
1043.8867850222434
  0
LINE
  8
_0-0_計極細
  6
CONTINUOUS
 62
    2
 10
337.73722627737197
 20
1048.8867850222434
 11
1336.737226277372
 21
1048.8867850222434
  0
LINE
  8
_0-1_計細線
  6
CONTINUOUS
 62
    3
 10
337.73722627737197
 20
1069.0867850222442
 11
1336.737226277372
 21
1069.0867850222442
  0
LINE
  8
_0-1_計細線
  6
CONTINUOUS
 62
    3
 10
337.73722627737197
 20
1057.6867850222436
 11
1336.737226277372
 21
1057.6867850222436
  0
LINE
  8
_0-1_計細線
  6
CONTINUOUS
 62
    3
 10
337.73722627737197
 20
1069.0867850222442
 11
337.73722627737197
 21
1057.6867850222436
  0
LINE
  8
_0-1_計細線
  6
CONTINUOUS
 62
    3
 10
1336.737226277372
 20
1069.0867850222442
 11
1336.737226277372
 21
1057.6867850222436
  0
LINE
  8
_0-0_計極細
  6
CONTINUOUS
 62
    2
 10
337.73722627737197
 20
1060.8867850222439
 11
1336.737226277372
 21
1060.8867850222439
  0
LINE
  8
_0-0_計極細
  6
CONTINUOUS
 62
    2
 10
337.73722627737197
 20
1065.8867850222439
 11
1336.737226277372
 21
1065.8867850222439
  0
LINE
  8
_0-1_計細線
  6
CONTINUOUS
 62
    3
 10
337.73722627737197
 20
1086.0867850222451
 11
1336.737226277372
 21
1086.0867850222451
  0
LINE
  8
_0-1_計細線
  6
CONTINUOUS
 62
    3
 10
337.73722627737197
 20
1074.6867850222445
 11
1336.737226277372
 21
1074.6867850222445
  0
LINE
  8
_0-1_計細線
  6
CONTINUOUS
 62
    3
 10
337.73722627737197
 20
1086.0867850222451
 11
337.73722627737197
 21
1074.6867850222445
  0
LINE
  8
_0-1_計細線
  6
CONTINUOUS
 62
    3
 10
1336.737226277372
 20
1086.0867850222451
 11
1336.737226277372
 21
1074.6867850222445
  0
LINE
  8
_0-0_計極細
  6
CONTINUOUS
 62
    2
 10
337.73722627737197
 20
1077.8867850222443
 11
1336.737226277372
 21
1077.8867850222443
  0
LINE
  8
_0-0_計極細
  6
CONTINUOUS
 62
    2
 10
337.73722627737197
 20
1082.8867850222443
 11
1336.737226277372
 21
1082.8867850222443
  0
LINE
  8
_0-1_計細線
  6
CONTINUOUS
 62
    3
 10
337.73722627737197
 20
938.68678502224361
 11
1336.737226277372
 21
938.68678502224361
  0
LINE
  8
_0-1_計細線
  6
CONTINUOUS
 62
    3
 10
337.73722627737197
 20
950.08678502224416
 11
1336.737226277372
 21
950.08678502224416
  0
LINE
  8
_0-1_計細線
  6
CONTINUOUS
 62
    3
 10
337.73722627737197
 20
938.68678502224361
 11
337.73722627737197
 21
950.08678502224416
  0
LINE
  8
_0-1_計細線
  6
CONTINUOUS
 62
    3
 10
1336.737226277372
 20
938.68678502224361
 11
1336.737226277372
 21
950.08678502224416
  0
LINE
  8
_0-0_計極細
  6
CONTINUOUS
 62
    2
 10
337.73722627737197
 20
946.88678502224343
 11
1336.737226277372
 21
946.88678502224343
  0
LINE
  8
_0-0_計極細
  6
CONTINUOUS
 62
    2
 10
337.73722627737197
 20
941.88678502224343
 11
1336.737226277372
 21
941.88678502224343
  0
LINE
  8
_0-1_計細線
  6
CONTINUOUS
 62
    3
 10
337.73722627737197
 20
921.6867850222427
 11
1336.737226277372
 21
921.6867850222427
  0
LINE
  8
_0-1_計細線
  6
CONTINUOUS
 62
    3
 10
337.73722627737197
 20
933.08678502224325
 11
1336.737226277372
 21
933.08678502224325
  0
LINE
  8
_0-1_計細線
  6
CONTINUOUS
 62
    3
 10
337.73722627737197
 20
921.6867850222427
 11
337.73722627737197
 21
933.08678502224325
  0
LINE
  8
_0-1_計細線
  6
CONTINUOUS
 62
    3
 10
1336.737226277372
 20
921.6867850222427
 11
1336.737226277372
 21
933.08678502224325
  0
LINE
  8
_0-0_計極細
  6
CONTINUOUS
 62
    2
 10
337.73722627737197
 20
929.88678502224298
 11
1336.737226277372
 21
929.88678502224298
  0
LINE
  8
_0-0_計極細
  6
CONTINUOUS
 62
    2
 10
337.73722627737197
 20
924.88678502224298
 11
1336.737226277372
 21
924.88678502224298
  0
LINE
  8
_0-1_計細線
  6
CONTINUOUS
 62
    3
 10
337.73722627737197
 20
904.68678502224179
 11
1336.737226277372
 21
904.68678502224179
  0
LINE
  8
_0-1_計細線
  6
CONTINUOUS
 62
    3
 10
337.73722627737197
 20
916.08678502224234
 11
1336.737226277372
 21
916.08678502224234
  0
LINE
  8
_0-1_計細線
  6
CONTINUOUS
 62
    3
 10
337.73722627737197
 20
904.68678502224179
 11
337.73722627737197
 21
916.08678502224234
  0
LINE
  8
_0-1_計細線
  6
CONTINUOUS
 62
    3
 10
1336.737226277372
 20
904.68678502224179
 11
1336.737226277372
 21
916.08678502224234
  0
LINE
  8
_0-0_計極細
  6
CONTINUOUS
 62
    2
 10
337.73722627737197
 20
912.88678502224252
 11
1336.737226277372
 21
912.88678502224252
  0
LINE
  8
_0-0_計極細
  6
CONTINUOUS
 62
    2
 10
337.73722627737197
 20
907.88678502224252
 11
1336.737226277372
 21
907.88678502224252
  0
ARC
  8
_0-0_計極細
  6
CONTINUOUS
 62
    2
 10
324.68344743405623
 20
1117.886785022243
 40
11.295514677412786
 50
138.39585046827571
 51
221.60414953172395
  0
ARC
  8
_0-0_計極細
  6
CONTINUOUS
 62
    2
 10
307.7910051206859
 20
1102.8867850222416
 40
11.295514677412786
 50
318.39585046827381
 51
41.604149531723962
  0
ARC
  8
_0-0_計極細
  6
CONTINUOUS
 62
    2
 10
324.68344743405623
 20
887.88678502224298
 40
11.295514677412786
 50
138.39585046827571
 51
221.60414953172395
  0
ARC
  8
_0-0_計極細
  6
CONTINUOUS
 62
    2
 10
307.7910051206859
 20
872.88678502224161
 40
11.295514677412786
 50
318.39585046827534
 51
41.604149531723962
  0
LINE
  8
_0-1_計細線
  6
CONTINUOUS
 62
    3
 10
316.23722627737016
 20
1125.386785022243
 11
1358.2372262773717
 21
1125.386785022243
  0
LINE
  8
_0-1_計細線
  6
CONTINUOUS
 62
    3
 10
1358.2372262773717
 20
865.38678502224434
 11
316.23722627737061
 21
865.38678502224434
  0
ARC
  8
_0-0_計極細
  6
CONTINUOUS
 62
    2
 10
1366.6834474340574
 20
1117.886785022243
 40
11.295514677412786
 50
138.39585046827494
 51
221.60414953172469
  0
ARC
  8
_0-0_計極細
  6
CONTINUOUS
 62
    2
 10
1349.7910051206868
 20
1102.8867850222416
 40
11.295514677412786
 50
318.39585046827455
 51
41.604149531724723
  0
ARC
  8
_0-0_計極細
  6
CONTINUOUS
 62
    2
 10
1366.6834474340574
 20
887.88678502224298
 40
11.295514677412786
 50
138.39585046827494
 51
221.60414953172469
  0
ARC
  8
_0-0_計極細
  6
CONTINUOUS
 62
    2
 10
1349.7910051206868
 20
872.88678502224161
 40
11.295514677412786
 50
318.39585046827455
 51
41.604149531724723
  0
LINE
  8
_0-1_計細線
  6
CONTINUOUS
 62
    3
 10
314.32301057899804
 20
1122.386785022243
 11
1356.3230105789992
 21
1122.386785022243
  0
LINE
  8
_0-1_計細線
  6
CONTINUOUS
 62
    3
 10
1360.1514419757464
 20
868.38678502224434
 11
318.15144197574637
 21
868.38678502224434
  0
LINE
  8
_0-1_計細線
  6
CONTINUOUS
 62
    3
 10
316.23722627737016
 20
1095.386785022243
 11
337.73722627737197
 21
1095.386785022243
  0
LINE
  8
_0-1_計細線
  6
CONTINUOUS
 62
    3
 10
316.23722627737061
 20
895.38678502224434
 11
337.73722627737197
 21
895.38678502224434
  0
LINE
  8
_0-1_計細線
  6
CONTINUOUS
 62
    3
 10
1336.737226277372
 20
895.38678502224434
 11
1358.2372262773717
 21
895.38678502224434
  0
LINE
  8
_0-1_計細線
  6
CONTINUOUS
 62
    3
 10
1336.737226277372
 20
1095.386785022243
 11
1358.2372262773717
 21
1095.386785022243
  0
LINE
  8
_0-0_計極細
  6
CONTINUOUS
 62
    2
 10
345.73722627737175
 20
967.08678502224461
 11
345.73722627737175
 21
972.68678502224452
  0
LINE
  8
_0-0_計極細
  6
CONTINUOUS
 62
    2
 10
358.73722627737175
 20
967.08678502224461
 11
358.73722627737175
 21
972.68678502224452
  0
LINE
  8
_0-0_計極細
  6
CONTINUOUS
 62
    2
 10
345.73722627737175
 20
989.68678502224088
 11
345.73722627737175
 21
984.08678502224052
  0
LINE
  8
_0-0_計極細
  6
CONTINUOUS
 62
    2
 10
358.73722627737175
 20
989.68678502224088
 11
358.73722627737175
 21
984.08678502224052
  0
LINE
  8
_0-0_計極細
  6
CONTINUOUS
 62
    2
 10
345.73722627737175
 20
1006.6867850222418
 11
345.73722627737175
 21
1001.0867850222414
  0
LINE
  8
_0-0_計極細
  6
CONTINUOUS
 62
    2
 10
358.73722627737175
 20
1006.6867850222418
 11
358.73722627737175
 21
1001.0867850222414
  0
LINE
  8
_0-0_計極細
  6
CONTINUOUS
 62
    2
 10
345.73722627737175
 20
1023.6867850222422
 11
345.73722627737175
 21
1018.0867850222423
  0
LINE
  8
_0-0_計極細
  6
CONTINUOUS
 62
    2
 10
358.73722627737175
 20
1023.6867850222422
 11
358.73722627737175
 21
1018.0867850222423
  0
LINE
  8
_0-0_計極細
  6
CONTINUOUS
 62
    2
 10
345.73722627737175
 20
1108.9867850222429
 11
345.73722627737175
 21
1103.0867850222428
  0
LINE
  8
_0-0_計極細
  6
CONTINUOUS
 62
    2
 10
358.73722627737175
 20
1108.9867850222429
 11
358.73722627737175
 21
1103.0867850222428
  0
LINE
  8
_0-0_計極細
  6
CONTINUOUS
 62
    2
 10
345.73722627737175
 20
881.78678502224398
 11
345.73722627737175
 21
887.68678502224407
  0
LINE
  8
_0-0_計極細
  6
CONTINUOUS
 62
    2
 10
358.73722627737175
 20
881.78678502224398
 11
358.73722627737175
 21
887.68678502224407
  0
LINE
  8
_0-0_計極細
  6
CENTER1
 62
    2
 10
352.23722627737175
 20
1129.1375044467056
 11
352.23722627737175
 21
862.62896128123134
  0
LINE
  8
_0-0_計極細
  6
CONTINUOUS
 62
    2
 10
345.73722627737175
 20
1040.6867850222427
 11
345.73722627737175
 21
1035.0867850222428
  0
LINE
  8
_0-0_計極細
  6
CONTINUOUS
 62
    2
 10
358.73722627737175
 20
1040.6867850222427
 11
358.73722627737175
 21
1035.0867850222428
  0
LINE
  8
_0-0_計極細
  6
CONTINUOUS
 62
    2
 10
345.73722627737175
 20
1057.6867850222436
 11
345.73722627737175
 21
1052.0867850222432
  0
LINE
  8
_0-0_計極細
  6
CONTINUOUS
 62
    2
 10
358.73722627737175
 20
1057.6867850222436
 11
358.73722627737175
 21
1052.0867850222432
  0
LINE
  8
_0-0_計極細
  6
CONTINUOUS
 62
    2
 10
345.73722627737175
 20
1074.6867850222445
 11
345.73722627737175
 21
1069.0867850222442
  0
LINE
  8
_0-0_計極細
  6
CONTINUOUS
 62
    2
 10
358.73722627737175
 20
1074.6867850222445
 11
358.73722627737175
 21
1069.0867850222442
  0
LINE
  8
_0-0_計極細
  6
CONTINUOUS
 62
    2
 10
345.73722627737175
 20
1091.686785022245
 11
345.73722627737175
 21
1086.0867850222451
  0
LINE
  8
_0-0_計極細
  6
CONTINUOUS
 62
    2
 10
358.73722627737175
 20
1091.686785022245
 11
358.73722627737175
 21
1086.0867850222451
  0
LINE
  8
_0-0_計極細
  6
CONTINUOUS
 62
    2
 10
345.73722627737175
 20
950.08678502224416
 11
345.73722627737175
 21
955.68678502224407
  0
LINE
  8
_0-0_計極細
  6
CONTINUOUS
 62
    2
 10
358.73722627737175
 20
950.08678502224416
 11
358.73722627737175
 21
955.68678502224407
  0
LINE
  8
_0-0_計極細
  6
CONTINUOUS
 62
    2
 10
345.73722627737175
 20
933.08678502224325
 11
345.73722627737175
 21
938.68678502224361
  0
LINE
  8
_0-0_計極細
  6
CONTINUOUS
 62
    2
 10
358.73722627737175
 20
933.08678502224325
 11
358.73722627737175
 21
938.68678502224361
  0
LINE
  8
_0-0_計極細
  6
CONTINUOUS
 62
    2
 10
345.73722627737175
 20
916.08678502224234
 11
345.73722627737175
 21
921.6867850222427
  0
LINE
  8
_0-0_計極細
  6
CONTINUOUS
 62
    2
 10
358.73722627737175
 20
916.08678502224234
 11
358.73722627737175
 21
921.6867850222427
  0
LINE
  8
_0-0_計極細
  6
CONTINUOUS
 62
    2
 10
345.73722627737175
 20
899.08678502224188
 11
345.73722627737175
 21
904.68678502224179
  0
LINE
  8
_0-0_計極細
  6
CONTINUOUS
 62
    2
 10
358.73722627737175
 20
899.08678502224188
 11
358.73722627737175
 21
904.68678502224179
  0
LINE
  8
_0-0_計極細
  6
CONTINUOUS
 62
    2
 10
1315.737226277372
 20
967.08678502224461
 11
1315.737226277372
 21
972.68678502224452
  0
LINE
  8
_0-0_計極細
  6
CONTINUOUS
 62
    2
 10
1328.737226277372
 20
967.08678502224461
 11
1328.737226277372
 21
972.68678502224452
  0
LINE
  8
_0-0_計極細
  6
CONTINUOUS
 62
    2
 10
1315.737226277372
 20
989.68678502224088
 11
1315.737226277372
 21
984.08678502224052
  0
LINE
  8
_0-0_計極細
  6
CONTINUOUS
 62
    2
 10
1328.737226277372
 20
989.68678502224088
 11
1328.737226277372
 21
984.08678502224052
  0
LINE
  8
_0-0_計極細
  6
CONTINUOUS
 62
    2
 10
1315.737226277372
 20
1006.6867850222418
 11
1315.737226277372
 21
1001.0867850222414
  0
LINE
  8
_0-0_計極細
  6
CONTINUOUS
 62
    2
 10
1328.737226277372
 20
1006.6867850222418
 11
1328.737226277372
 21
1001.0867850222414
  0
LINE
  8
_0-0_計極細
  6
CONTINUOUS
 62
    2
 10
1315.737226277372
 20
1023.6867850222422
 11
1315.737226277372
 21
1018.0867850222423
  0
LINE
  8
_0-0_計極細
  6
CONTINUOUS
 62
    2
 10
1328.737226277372
 20
1023.6867850222422
 11
1328.737226277372
 21
1018.0867850222423
  0
LINE
  8
_0-0_計極細
  6
CONTINUOUS
 62
    2
 10
1315.737226277372
 20
1108.9867850222429
 11
1315.737226277372
 21
1103.0867850222428
  0
LINE
  8
_0-0_計極細
  6
CONTINUOUS
 62
    2
 10
1328.737226277372
 20
1108.9867850222429
 11
1328.737226277372
 21
1103.0867850222428
  0
LINE
  8
_0-0_計極細
  6
CONTINUOUS
 62
    2
 10
1315.737226277372
 20
881.78678502224398
 11
1315.737226277372
 21
887.68678502224407
  0
LINE
  8
_0-0_計極細
  6
CONTINUOUS
 62
    2
 10
1328.737226277372
 20
881.78678502224398
 11
1328.737226277372
 21
887.68678502224407
  0
LINE
  8
_0-0_計極細
  6
CENTER1
 62
    2
 10
1322.237226277372
 20
1129.1375044467056
 11
1322.237226277372
 21
862.62896128123134
  0
LINE
  8
_0-0_計極細
  6
CONTINUOUS
 62
    2
 10
1315.737226277372
 20
1040.6867850222427
 11
1315.737226277372
 21
1035.0867850222428
  0
LINE
  8
_0-0_計極細
  6
CONTINUOUS
 62
    2
 10
1328.737226277372
 20
1040.6867850222427
 11
1328.737226277372
 21
1035.0867850222428
  0
LINE
  8
_0-0_計極細
  6
CONTINUOUS
 62
    2
 10
1315.737226277372
 20
1057.6867850222436
 11
1315.737226277372
 21
1052.0867850222432
  0
LINE
  8
_0-0_計極細
  6
CONTINUOUS
 62
    2
 10
1328.737226277372
 20
1057.6867850222436
 11
1328.737226277372
 21
1052.0867850222432
  0
LINE
  8
_0-0_計極細
  6
CONTINUOUS
 62
    2
 10
1315.737226277372
 20
1074.6867850222445
 11
1315.737226277372
 21
1069.0867850222442
  0
LINE
  8
_0-0_計極細
  6
CONTINUOUS
 62
    2
 10
1328.737226277372
 20
1074.6867850222445
 11
1328.737226277372
 21
1069.0867850222442
  0
LINE
  8
_0-0_計極細
  6
CONTINUOUS
 62
    2
 10
1315.737226277372
 20
1091.686785022245
 11
1315.737226277372
 21
1086.0867850222451
  0
LINE
  8
_0-0_計極細
  6
CONTINUOUS
 62
    2
 10
1328.737226277372
 20
1091.686785022245
 11
1328.737226277372
 21
1086.0867850222451
  0
LINE
  8
_0-0_計極細
  6
CONTINUOUS
 62
    2
 10
1315.737226277372
 20
950.08678502224416
 11
1315.737226277372
 21
955.68678502224407
  0
LINE
  8
_0-0_計極細
  6
CONTINUOUS
 62
    2
 10
1328.737226277372
 20
950.08678502224416
 11
1328.737226277372
 21
955.68678502224407
  0
LINE
  8
_0-0_計極細
  6
CONTINUOUS
 62
    2
 10
1315.737226277372
 20
933.08678502224325
 11
1315.737226277372
 21
938.68678502224361
  0
LINE
  8
_0-0_計極細
  6
CONTINUOUS
 62
    2
 10
1328.737226277372
 20
933.08678502224325
 11
1328.737226277372
 21
938.68678502224361
  0
LINE
  8
_0-0_計極細
  6
CONTINUOUS
 62
    2
 10
1315.737226277372
 20
916.08678502224234
 11
1315.737226277372
 21
921.6867850222427
  0
LINE
  8
_0-0_計極細
  6
CONTINUOUS
 62
    2
 10
1328.737226277372
 20
916.08678502224234
 11
1328.737226277372
 21
921.6867850222427
  0
LINE
  8
_0-0_計極細
  6
CONTINUOUS
 62
    2
 10
1315.737226277372
 20
899.08678502224188
 11
1315.737226277372
 21
904.68678502224179
  0
LINE
  8
_0-0_計極細
  6
CONTINUOUS
 62
    2
 10
1328.737226277372
 20
899.08678502224188
 11
1328.737226277372
 21
904.68678502224179
  0
LINE
  8
_0-0_計極細
  6
CONTINUOUS
 62
    2
 10
1218.737226277372
 20
967.08678502224461
 11
1218.737226277372
 21
972.68678502224452
  0
LINE
  8
_0-0_計極細
  6
CONTINUOUS
 62
    2
 10
1231.737226277372
 20
967.08678502224461
 11
1231.737226277372
 21
972.68678502224452
  0
LINE
  8
_0-0_計極細
  6
CONTINUOUS
 62
    2
 10
1218.737226277372
 20
989.68678502224088
 11
1218.737226277372
 21
984.08678502224052
  0
LINE
  8
_0-0_計極細
  6
CONTINUOUS
 62
    2
 10
1231.737226277372
 20
989.68678502224088
 11
1231.737226277372
 21
984.08678502224052
  0
LINE
  8
_0-0_計極細
  6
CONTINUOUS
 62
    2
 10
1218.737226277372
 20
1006.6867850222418
 11
1218.737226277372
 21
1001.0867850222414
  0
LINE
  8
_0-0_計極細
  6
CONTINUOUS
 62
    2
 10
1231.737226277372
 20
1006.6867850222418
 11
1231.737226277372
 21
1001.0867850222414
  0
LINE
  8
_0-0_計極細
  6
CONTINUOUS
 62
    2
 10
1218.737226277372
 20
1023.6867850222422
 11
1218.737226277372
 21
1018.0867850222423
  0
LINE
  8
_0-0_計極細
  6
CONTINUOUS
 62
    2
 10
1231.737226277372
 20
1023.6867850222422
 11
1231.737226277372
 21
1018.0867850222423
  0
LINE
  8
_0-0_計極細
  6
CONTINUOUS
 62
    2
 10
1218.737226277372
 20
1108.9867850222429
 11
1218.737226277372
 21
1103.0867850222428
  0
LINE
  8
_0-0_計極細
  6
CONTINUOUS
 62
    2
 10
1231.737226277372
 20
1108.9867850222429
 11
1231.737226277372
 21
1103.0867850222428
  0
LINE
  8
_0-0_計極細
  6
CONTINUOUS
 62
    2
 10
1218.737226277372
 20
881.78678502224398
 11
1218.737226277372
 21
887.68678502224407
  0
LINE
  8
_0-0_計極細
  6
CONTINUOUS
 62
    2
 10
1231.737226277372
 20
881.78678502224398
 11
1231.737226277372
 21
887.68678502224407
  0
LINE
  8
_0-0_計極細
  6
CENTER1
 62
    2
 10
1225.237226277372
 20
1129.1375044467056
 11
1225.237226277372
 21
862.62896128123134
  0
LINE
  8
_0-0_計極細
  6
CONTINUOUS
 62
    2
 10
1218.737226277372
 20
1040.6867850222427
 11
1218.737226277372
 21
1035.0867850222428
  0
LINE
  8
_0-0_計極細
  6
CONTINUOUS
 62
    2
 10
1231.737226277372
 20
1040.6867850222427
 11
1231.737226277372
 21
1035.0867850222428
  0
LINE
  8
_0-0_計極細
  6
CONTINUOUS
 62
    2
 10
1218.737226277372
 20
1057.6867850222436
 11
1218.737226277372
 21
1052.0867850222432
  0
LINE
  8
_0-0_計極細
  6
CONTINUOUS
 62
    2
 10
1231.737226277372
 20
1057.6867850222436
 11
1231.737226277372
 21
1052.0867850222432
  0
LINE
  8
_0-0_計極細
  6
CONTINUOUS
 62
    2
 10
1218.737226277372
 20
1074.6867850222445
 11
1218.737226277372
 21
1069.0867850222442
  0
LINE
  8
_0-0_計極細
  6
CONTINUOUS
 62
    2
 10
1231.737226277372
 20
1074.6867850222445
 11
1231.737226277372
 21
1069.0867850222442
  0
LINE
  8
_0-0_計極細
  6
CONTINUOUS
 62
    2
 10
1218.737226277372
 20
1091.686785022245
 11
1218.737226277372
 21
1086.0867850222451
  0
LINE
  8
_0-0_計極細
  6
CONTINUOUS
 62
    2
 10
1231.737226277372
 20
1091.686785022245
 11
1231.737226277372
 21
1086.0867850222451
  0
LINE
  8
_0-0_計極細
  6
CONTINUOUS
 62
    2
 10
1218.737226277372
 20
950.08678502224416
 11
1218.737226277372
 21
955.68678502224407
  0
LINE
  8
_0-0_計極細
  6
CONTINUOUS
 62
    2
 10
1231.737226277372
 20
950.08678502224416
 11
1231.737226277372
 21
955.68678502224407
  0
LINE
  8
_0-0_計極細
  6
CONTINUOUS
 62
    2
 10
1218.737226277372
 20
933.08678502224325
 11
1218.737226277372
 21
938.68678502224361
  0
LINE
  8
_0-0_計極細
  6
CONTINUOUS
 62
    2
 10
1231.737226277372
 20
933.08678502224325
 11
1231.737226277372
 21
938.68678502224361
  0
LINE
  8
_0-0_計極細
  6
CONTINUOUS
 62
    2
 10
1218.737226277372
 20
916.08678502224234
 11
1218.737226277372
 21
921.6867850222427
  0
LINE
  8
_0-0_計極細
  6
CONTINUOUS
 62
    2
 10
1231.737226277372
 20
916.08678502224234
 11
1231.737226277372
 21
921.6867850222427
  0
LINE
  8
_0-0_計極細
  6
CONTINUOUS
 62
    2
 10
1218.737226277372
 20
899.08678502224188
 11
1218.737226277372
 21
904.68678502224179
  0
LINE
  8
_0-0_計極細
  6
CONTINUOUS
 62
    2
 10
1231.737226277372
 20
899.08678502224188
 11
1231.737226277372
 21
904.68678502224179
  0
LINE
  8
_0-0_計極細
  6
CONTINUOUS
 62
    2
 10
442.73722627737175
 20
967.08678502224461
 11
442.73722627737175
 21
972.68678502224452
  0
LINE
  8
_0-0_計極細
  6
CONTINUOUS
 62
    2
 10
455.73722627737175
 20
967.08678502224461
 11
455.73722627737175
 21
972.68678502224452
  0
LINE
  8
_0-0_計極細
  6
CONTINUOUS
 62
    2
 10
442.73722627737175
 20
989.68678502224088
 11
442.73722627737175
 21
984.08678502224052
  0
LINE
  8
_0-0_計極細
  6
CONTINUOUS
 62
    2
 10
455.73722627737175
 20
989.68678502224088
 11
455.73722627737175
 21
984.08678502224052
  0
LINE
  8
_0-0_計極細
  6
CONTINUOUS
 62
    2
 10
442.73722627737175
 20
1023.6867850222422
 11
442.73722627737175
 21
1018.0867850222423
  0
LINE
  8
_0-0_計極細
  6
CONTINUOUS
 62
    2
 10
455.73722627737175
 20
1023.6867850222422
 11
455.73722627737175
 21
1018.0867850222423
  0
LINE
  8
_0-0_計極細
  6
CONTINUOUS
 62
    2
 10
442.73722627737175
 20
1108.9867850222429
 11
442.73722627737175
 21
1103.0867850222428
  0
LINE
  8
_0-0_計極細
  6
CONTINUOUS
 62
    2
 10
455.73722627737175
 20
1108.9867850222429
 11
455.73722627737175
 21
1103.0867850222428
  0
LINE
  8
_0-0_計極細
  6
CONTINUOUS
 62
    2
 10
442.73722627737175
 20
881.78678502224398
 11
442.73722627737175
 21
887.68678502224407
  0
LINE
  8
_0-0_計極細
  6
CONTINUOUS
 62
    2
 10
455.73722627737175
 20
881.78678502224398
 11
455.73722627737175
 21
887.68678502224407
  0
LINE
  8
_0-0_計極細
  6
CENTER1
 62
    2
 10
449.23722627737175
 20
1129.1375044467056
 11
449.23722627737175
 21
862.62896128123134
  0
LINE
  8
_0-0_計極細
  6
CONTINUOUS
 62
    2
 10
442.73722627737175
 20
1040.6867850222427
 11
442.73722627737175
 21
1035.0867850222428
  0
LINE
  8
_0-0_計極細
  6
CONTINUOUS
 62
    2
 10
455.73722627737175
 20
1040.6867850222427
 11
455.73722627737175
 21
1035.0867850222428
  0
LINE
  8
_0-0_計極細
  6
CONTINUOUS
 62
    2
 10
442.73722627737175
 20
1057.6867850222436
 11
442.73722627737175
 21
1052.0867850222432
  0
LINE
  8
_0-0_計極細
  6
CONTINUOUS
 62
    2
 10
455.73722627737175
 20
1057.6867850222436
 11
455.73722627737175
 21
1052.0867850222432
  0
LINE
  8
_0-0_計極細
  6
CONTINUOUS
 62
    2
 10
442.73722627737175
 20
1074.6867850222445
 11
442.73722627737175
 21
1069.0867850222442
  0
LINE
  8
_0-0_計極細
  6
CONTINUOUS
 62
    2
 10
455.73722627737175
 20
1074.6867850222445
 11
455.73722627737175
 21
1069.0867850222442
  0
LINE
  8
_0-0_計極細
  6
CONTINUOUS
 62
    2
 10
442.73722627737175
 20
1091.686785022245
 11
442.73722627737175
 21
1086.0867850222451
  0
LINE
  8
_0-0_計極細
  6
CONTINUOUS
 62
    2
 10
455.73722627737175
 20
1091.686785022245
 11
455.73722627737175
 21
1086.0867850222451
  0
LINE
  8
_0-0_計極細
  6
CONTINUOUS
 62
    2
 10
442.73722627737175
 20
950.08678502224416
 11
442.73722627737175
 21
955.68678502224407
  0
LINE
  8
_0-0_計極細
  6
CONTINUOUS
 62
    2
 10
455.73722627737175
 20
950.08678502224416
 11
455.73722627737175
 21
955.68678502224407
  0
LINE
  8
_0-0_計極細
  6
CONTINUOUS
 62
    2
 10
442.73722627737175
 20
933.08678502224325
 11
442.73722627737175
 21
938.68678502224361
  0
LINE
  8
_0-0_計極細
  6
CONTINUOUS
 62
    2
 10
455.73722627737175
 20
933.08678502224325
 11
455.73722627737175
 21
938.68678502224361
  0
LINE
  8
_0-0_計極細
  6
CONTINUOUS
 62
    2
 10
442.73722627737175
 20
916.08678502224234
 11
442.73722627737175
 21
921.6867850222427
  0
LINE
  8
_0-0_計極細
  6
CONTINUOUS
 62
    2
 10
455.73722627737175
 20
916.08678502224234
 11
455.73722627737175
 21
921.6867850222427
  0
LINE
  8
_0-0_計極細
  6
CONTINUOUS
 62
    2
 10
442.73722627737175
 20
899.08678502224188
 11
442.73722627737175
 21
904.68678502224179
  0
LINE
  8
_0-0_計極細
  6
CONTINUOUS
 62
    2
 10
455.73722627737175
 20
899.08678502224188
 11
455.73722627737175
 21
904.68678502224179
  0
LINE
  8
_0-0_計極細
  6
CONTINUOUS
 62
    2
 10
491.23722627737175
 20
967.08678502224461
 11
491.23722627737175
 21
972.68678502224452
  0
LINE
  8
_0-0_計極細
  6
CONTINUOUS
 62
    2
 10
504.23722627737175
 20
967.08678502224461
 11
504.23722627737175
 21
972.68678502224452
  0
LINE
  8
_0-0_計極細
  6
CONTINUOUS
 62
    2
 10
491.23722627737175
 20
989.68678502224088
 11
491.23722627737175
 21
984.08678502224052
  0
LINE
  8
_0-0_計極細
  6
CONTINUOUS
 62
    2
 10
504.23722627737175
 20
989.68678502224088
 11
504.23722627737175
 21
984.08678502224052
  0
LINE
  8
_0-0_計極細
  6
CONTINUOUS
 62
    2
 10
491.23722627737175
 20
1006.6867850222418
 11
491.23722627737175
 21
1001.0867850222414
  0
LINE
  8
_0-0_計極細
  6
CONTINUOUS
 62
    2
 10
504.23722627737175
 20
1006.6867850222418
 11
504.23722627737175
 21
1001.0867850222414
  0
LINE
  8
_0-0_計極細
  6
CONTINUOUS
 62
    2
 10
491.23722627737175
 20
1023.6867850222422
 11
491.23722627737175
 21
1018.0867850222423
  0
LINE
  8
_0-0_計極細
  6
CONTINUOUS
 62
    2
 10
504.23722627737175
 20
1023.6867850222422
 11
504.23722627737175
 21
1018.0867850222423
  0
LINE
  8
_0-0_計極細
  6
CONTINUOUS
 62
    2
 10
491.23722627737175
 20
1108.9867850222429
 11
491.23722627737175
 21
1103.0867850222428
  0
LINE
  8
_0-0_計極細
  6
CONTINUOUS
 62
    2
 10
504.23722627737175
 20
1108.9867850222429
 11
504.23722627737175
 21
1103.0867850222428
  0
LINE
  8
_0-0_計極細
  6
CONTINUOUS
 62
    2
 10
491.23722627737175
 20
881.78678502224398
 11
491.23722627737175
 21
887.68678502224407
  0
LINE
  8
_0-0_計極細
  6
CONTINUOUS
 62
    2
 10
504.23722627737175
 20
881.78678502224398
 11
504.23722627737175
 21
887.68678502224407
  0
LINE
  8
_0-0_計極細
  6
CENTER1
 62
    2
 10
497.73722627737175
 20
1129.1375044467056
 11
497.73722627737175
 21
862.62896128123134
  0
LINE
  8
_0-0_計極細
  6
CONTINUOUS
 62
    2
 10
491.23722627737175
 20
1040.6867850222427
 11
491.23722627737175
 21
1035.0867850222428
  0
LINE
  8
_0-0_計極細
  6
CONTINUOUS
 62
    2
 10
504.23722627737175
 20
1040.6867850222427
 11
504.23722627737175
 21
1035.0867850222428
  0
LINE
  8
_0-0_計極細
  6
CONTINUOUS
 62
    2
 10
491.23722627737175
 20
1057.6867850222436
 11
491.23722627737175
 21
1052.0867850222432
  0
LINE
  8
_0-0_計極細
  6
CONTINUOUS
 62
    2
 10
504.23722627737175
 20
1057.6867850222436
 11
504.23722627737175
 21
1052.0867850222432
  0
LINE
  8
_0-0_計極細
  6
CONTINUOUS
 62
    2
 10
491.23722627737175
 20
1074.6867850222445
 11
491.23722627737175
 21
1069.0867850222442
  0
LINE
  8
_0-0_計極細
  6
CONTINUOUS
 62
    2
 10
504.23722627737175
 20
1074.6867850222445
 11
504.23722627737175
 21
1069.0867850222442
  0
LINE
  8
_0-0_計極細
  6
CONTINUOUS
 62
    2
 10
491.23722627737175
 20
1091.686785022245
 11
491.23722627737175
 21
1086.0867850222451
  0
LINE
  8
_0-0_計極細
  6
CONTINUOUS
 62
    2
 10
504.23722627737175
 20
1091.686785022245
 11
504.23722627737175
 21
1086.0867850222451
  0
LINE
  8
_0-0_計極細
  6
CONTINUOUS
 62
    2
 10
491.23722627737175
 20
950.08678502224416
 11
491.23722627737175
 21
955.68678502224407
  0
LINE
  8
_0-0_計極細
  6
CONTINUOUS
 62
    2
 10
504.23722627737175
 20
950.08678502224416
 11
504.23722627737175
 21
955.68678502224407
  0
LINE
  8
_0-0_計極細
  6
CONTINUOUS
 62
    2
 10
491.23722627737175
 20
933.08678502224325
 11
491.23722627737175
 21
938.68678502224361
  0
LINE
  8
_0-0_計極細
  6
CONTINUOUS
 62
    2
 10
504.23722627737175
 20
933.08678502224325
 11
504.23722627737175
 21
938.68678502224361
  0
LINE
  8
_0-0_計極細
  6
CONTINUOUS
 62
    2
 10
491.23722627737175
 20
916.08678502224234
 11
491.23722627737175
 21
921.6867850222427
  0
LINE
  8
_0-0_計極細
  6
CONTINUOUS
 62
    2
 10
504.23722627737175
 20
916.08678502224234
 11
504.23722627737175
 21
921.6867850222427
  0
LINE
  8
_0-0_計極細
  6
CONTINUOUS
 62
    2
 10
491.23722627737175
 20
899.08678502224188
 11
491.23722627737175
 21
904.68678502224179
  0
LINE
  8
_0-0_計極細
  6
CONTINUOUS
 62
    2
 10
504.23722627737175
 20
899.08678502224188
 11
504.23722627737175
 21
904.68678502224179
  0
LINE
  8
_0-0_計極細
  6
CONTINUOUS
 62
    2
 10
539.73722627737175
 20
967.08678502224461
 11
539.73722627737175
 21
972.68678502224452
  0
LINE
  8
_0-0_計極細
  6
CONTINUOUS
 62
    2
 10
552.73722627737175
 20
967.08678502224461
 11
552.73722627737175
 21
972.68678502224452
  0
LINE
  8
_0-0_計極細
  6
CONTINUOUS
 62
    2
 10
539.73722627737175
 20
989.68678502224088
 11
539.73722627737175
 21
984.08678502224052
  0
LINE
  8
_0-0_計極細
  6
CONTINUOUS
 62
    2
 10
552.73722627737175
 20
989.68678502224088
 11
552.73722627737175
 21
984.08678502224052
  0
LINE
  8
_0-0_計極細
  6
CONTINUOUS
 62
    2
 10
539.73722627737175
 20
1006.6867850222418
 11
539.73722627737175
 21
1001.0867850222414
  0
LINE
  8
_0-0_計極細
  6
CONTINUOUS
 62
    2
 10
552.73722627737175
 20
1006.6867850222418
 11
552.73722627737175
 21
1001.0867850222414
  0
LINE
  8
_0-0_計極細
  6
CONTINUOUS
 62
    2
 10
539.73722627737175
 20
1023.6867850222422
 11
539.73722627737175
 21
1018.0867850222423
  0
LINE
  8
_0-0_計極細
  6
CONTINUOUS
 62
    2
 10
552.73722627737175
 20
1023.6867850222422
 11
552.73722627737175
 21
1018.0867850222423
  0
LINE
  8
_0-0_計極細
  6
CONTINUOUS
 62
    2
 10
539.73722627737175
 20
1108.9867850222429
 11
539.73722627737175
 21
1103.0867850222428
  0
LINE
  8
_0-0_計極細
  6
CONTINUOUS
 62
    2
 10
552.73722627737175
 20
1108.9867850222429
 11
552.73722627737175
 21
1103.0867850222428
  0
LINE
  8
_0-0_計極細
  6
CONTINUOUS
 62
    2
 10
539.73722627737175
 20
881.78678502224398
 11
539.73722627737175
 21
887.68678502224407
  0
LINE
  8
_0-0_計極細
  6
CONTINUOUS
 62
    2
 10
552.73722627737175
 20
881.78678502224398
 11
552.73722627737175
 21
887.68678502224407
  0
LINE
  8
_0-0_計極細
  6
CENTER1
 62
    2
 10
546.23722627737175
 20
1129.1375044467056
 11
546.23722627737175
 21
862.62896128123134
  0
LINE
  8
_0-0_計極細
  6
CONTINUOUS
 62
    2
 10
539.73722627737175
 20
1040.6867850222427
 11
539.73722627737175
 21
1035.0867850222428
  0
LINE
  8
_0-0_計極細
  6
CONTINUOUS
 62
    2
 10
552.73722627737175
 20
1040.6867850222427
 11
552.73722627737175
 21
1035.0867850222428
  0
LINE
  8
_0-0_計極細
  6
CONTINUOUS
 62
    2
 10
539.73722627737175
 20
1057.6867850222436
 11
539.73722627737175
 21
1052.0867850222432
  0
LINE
  8
_0-0_計極細
  6
CONTINUOUS
 62
    2
 10
552.73722627737175
 20
1057.6867850222436
 11
552.73722627737175
 21
1052.0867850222432
  0
LINE
  8
_0-0_計極細
  6
CONTINUOUS
 62
    2
 10
539.73722627737175
 20
1074.6867850222445
 11
539.73722627737175
 21
1069.0867850222442
  0
LINE
  8
_0-0_計極細
  6
CONTINUOUS
 62
    2
 10
552.73722627737175
 20
1074.6867850222445
 11
552.73722627737175
 21
1069.0867850222442
  0
LINE
  8
_0-0_計極細
  6
CONTINUOUS
 62
    2
 10
539.73722627737175
 20
1091.686785022245
 11
539.73722627737175
 21
1086.0867850222451
  0
LINE
  8
_0-0_計極細
  6
CONTINUOUS
 62
    2
 10
552.73722627737175
 20
1091.686785022245
 11
552.73722627737175
 21
1086.0867850222451
  0
LINE
  8
_0-0_計極細
  6
CONTINUOUS
 62
    2
 10
539.73722627737175
 20
950.08678502224416
 11
539.73722627737175
 21
955.68678502224407
  0
LINE
  8
_0-0_計極細
  6
CONTINUOUS
 62
    2
 10
552.73722627737175
 20
950.08678502224416
 11
552.73722627737175
 21
955.68678502224407
  0
LINE
  8
_0-0_計極細
  6
CONTINUOUS
 62
    2
 10
539.73722627737175
 20
933.08678502224325
 11
539.73722627737175
 21
938.68678502224361
  0
LINE
  8
_0-0_計極細
  6
CONTINUOUS
 62
    2
 10
552.73722627737175
 20
933.08678502224325
 11
552.73722627737175
 21
938.68678502224361
  0
LINE
  8
_0-0_計極細
  6
CONTINUOUS
 62
    2
 10
539.73722627737175
 20
916.08678502224234
 11
539.73722627737175
 21
921.6867850222427
  0
LINE
  8
_0-0_計極細
  6
CONTINUOUS
 62
    2
 10
552.73722627737175
 20
916.08678502224234
 11
552.73722627737175
 21
921.6867850222427
  0
LINE
  8
_0-0_計極細
  6
CONTINUOUS
 62
    2
 10
539.73722627737175
 20
899.08678502224188
 11
539.73722627737175
 21
904.68678502224179
  0
LINE
  8
_0-0_計極細
  6
CONTINUOUS
 62
    2
 10
552.73722627737175
 20
899.08678502224188
 11
552.73722627737175
 21
904.68678502224179
  0
LINE
  8
_0-0_計極細
  6
CONTINUOUS
 62
    2
 10
588.23722627737186
 20
967.08678502224461
 11
588.23722627737186
 21
972.68678502224452
  0
LINE
  8
_0-0_計極細
  6
CONTINUOUS
 62
    2
 10
601.23722627737186
 20
967.08678502224461
 11
601.23722627737186
 21
972.68678502224452
  0
LINE
  8
_0-0_計極細
  6
CONTINUOUS
 62
    2
 10
588.23722627737186
 20
989.68678502224088
 11
588.23722627737186
 21
984.08678502224052
  0
LINE
  8
_0-0_計極細
  6
CONTINUOUS
 62
    2
 10
601.23722627737186
 20
989.68678502224088
 11
601.23722627737186
 21
984.08678502224052
  0
LINE
  8
_0-0_計極細
  6
CONTINUOUS
 62
    2
 10
588.23722627737186
 20
1006.6867850222418
 11
588.23722627737186
 21
1001.0867850222414
  0
LINE
  8
_0-0_計極細
  6
CONTINUOUS
 62
    2
 10
601.23722627737186
 20
1006.6867850222418
 11
601.23722627737186
 21
1001.0867850222414
  0
LINE
  8
_0-0_計極細
  6
CONTINUOUS
 62
    2
 10
588.23722627737186
 20
1023.6867850222422
 11
588.23722627737186
 21
1018.0867850222423
  0
LINE
  8
_0-0_計極細
  6
CONTINUOUS
 62
    2
 10
601.23722627737186
 20
1023.6867850222422
 11
601.23722627737186
 21
1018.0867850222423
  0
LINE
  8
_0-0_計極細
  6
CONTINUOUS
 62
    2
 10
588.23722627737186
 20
1108.9867850222429
 11
588.23722627737186
 21
1103.0867850222428
  0
LINE
  8
_0-0_計極細
  6
CONTINUOUS
 62
    2
 10
601.23722627737186
 20
1108.9867850222429
 11
601.23722627737186
 21
1103.0867850222428
  0
LINE
  8
_0-0_計極細
  6
CONTINUOUS
 62
    2
 10
588.23722627737186
 20
881.78678502224398
 11
588.23722627737186
 21
887.68678502224407
  0
LINE
  8
_0-0_計極細
  6
CONTINUOUS
 62
    2
 10
601.23722627737186
 20
881.78678502224398
 11
601.23722627737186
 21
887.68678502224407
  0
LINE
  8
_0-0_計極細
  6
CENTER1
 62
    2
 10
594.73722627737186
 20
1129.1375044467056
 11
594.73722627737186
 21
862.62896128123134
  0
LINE
  8
_0-0_計極細
  6
CONTINUOUS
 62
    2
 10
588.23722627737186
 20
1040.6867850222427
 11
588.23722627737186
 21
1035.0867850222428
  0
LINE
  8
_0-0_計極細
  6
CONTINUOUS
 62
    2
 10
601.23722627737186
 20
1040.6867850222427
 11
601.23722627737186
 21
1035.0867850222428
  0
LINE
  8
_0-0_計極細
  6
CONTINUOUS
 62
    2
 10
588.23722627737186
 20
1057.6867850222436
 11
588.23722627737186
 21
1052.0867850222432
  0
LINE
  8
_0-0_計極細
  6
CONTINUOUS
 62
    2
 10
601.23722627737186
 20
1057.6867850222436
 11
601.23722627737186
 21
1052.0867850222432
  0
LINE
  8
_0-0_計極細
  6
CONTINUOUS
 62
    2
 10
588.23722627737186
 20
1074.6867850222445
 11
588.23722627737186
 21
1069.0867850222442
  0
LINE
  8
_0-0_計極細
  6
CONTINUOUS
 62
    2
 10
601.23722627737186
 20
1074.6867850222445
 11
601.23722627737186
 21
1069.0867850222442
  0
LINE
  8
_0-0_計極細
  6
CONTINUOUS
 62
    2
 10
588.23722627737186
 20
1091.686785022245
 11
588.23722627737186
 21
1086.0867850222451
  0
LINE
  8
_0-0_計極細
  6
CONTINUOUS
 62
    2
 10
601.23722627737186
 20
1091.686785022245
 11
601.23722627737186
 21
1086.0867850222451
  0
LINE
  8
_0-0_計極細
  6
CONTINUOUS
 62
    2
 10
588.23722627737186
 20
950.08678502224416
 11
588.23722627737186
 21
955.68678502224407
  0
LINE
  8
_0-0_計極細
  6
CONTINUOUS
 62
    2
 10
601.23722627737186
 20
950.08678502224416
 11
601.23722627737186
 21
955.68678502224407
  0
LINE
  8
_0-0_計極細
  6
CONTINUOUS
 62
    2
 10
588.23722627737186
 20
933.08678502224325
 11
588.23722627737186
 21
938.68678502224361
  0
LINE
  8
_0-0_計極細
  6
CONTINUOUS
 62
    2
 10
601.23722627737186
 20
933.08678502224325
 11
601.23722627737186
 21
938.68678502224361
  0
LINE
  8
_0-0_計極細
  6
CONTINUOUS
 62
    2
 10
588.23722627737186
 20
916.08678502224234
 11
588.23722627737186
 21
921.6867850222427
  0
LINE
  8
_0-0_計極細
  6
CONTINUOUS
 62
    2
 10
601.23722627737186
 20
916.08678502224234
 11
601.23722627737186
 21
921.6867850222427
  0
LINE
  8
_0-0_計極細
  6
CONTINUOUS
 62
    2
 10
588.23722627737186
 20
899.08678502224188
 11
588.23722627737186
 21
904.68678502224179
  0
LINE
  8
_0-0_計極細
  6
CONTINUOUS
 62
    2
 10
601.23722627737186
 20
899.08678502224188
 11
601.23722627737186
 21
904.68678502224179
  0
LINE
  8
_0-0_計極細
  6
CONTINUOUS
 62
    2
 10
636.73722627737186
 20
967.08678502224461
 11
636.73722627737186
 21
972.68678502224452
  0
LINE
  8
_0-0_計極細
  6
CONTINUOUS
 62
    2
 10
649.73722627737186
 20
967.08678502224461
 11
649.73722627737186
 21
972.68678502224452
  0
LINE
  8
_0-0_計極細
  6
CONTINUOUS
 62
    2
 10
636.73722627737186
 20
989.68678502224088
 11
636.73722627737186
 21
984.08678502224052
  0
LINE
  8
_0-0_計極細
  6
CONTINUOUS
 62
    2
 10
649.73722627737186
 20
989.68678502224088
 11
649.73722627737186
 21
984.08678502224052
  0
LINE
  8
_0-0_計極細
  6
CONTINUOUS
 62
    2
 10
636.73722627737186
 20
1006.6867850222418
 11
636.73722627737186
 21
1001.0867850222414
  0
LINE
  8
_0-0_計極細
  6
CONTINUOUS
 62
    2
 10
649.73722627737186
 20
1006.6867850222418
 11
649.73722627737186
 21
1001.0867850222414
  0
LINE
  8
_0-0_計極細
  6
CONTINUOUS
 62
    2
 10
636.73722627737186
 20
1023.6867850222422
 11
636.73722627737186
 21
1018.0867850222423
  0
LINE
  8
_0-0_計極細
  6
CONTINUOUS
 62
    2
 10
649.73722627737186
 20
1023.6867850222422
 11
649.73722627737186
 21
1018.0867850222423
  0
LINE
  8
_0-0_計極細
  6
CONTINUOUS
 62
    2
 10
636.73722627737186
 20
1108.9867850222429
 11
636.73722627737186
 21
1103.0867850222428
  0
LINE
  8
_0-0_計極細
  6
CONTINUOUS
 62
    2
 10
649.73722627737186
 20
1108.9867850222429
 11
649.73722627737186
 21
1103.0867850222428
  0
LINE
  8
_0-0_計極細
  6
CONTINUOUS
 62
    2
 10
636.73722627737186
 20
881.78678502224398
 11
636.73722627737186
 21
887.68678502224407
  0
LINE
  8
_0-0_計極細
  6
CONTINUOUS
 62
    2
 10
649.73722627737186
 20
881.78678502224398
 11
649.73722627737186
 21
887.68678502224407
  0
LINE
  8
_0-0_計極細
  6
CENTER1
 62
    2
 10
643.23722627737186
 20
1129.1375044467056
 11
643.23722627737186
 21
862.62896128123134
  0
LINE
  8
_0-0_計極細
  6
CONTINUOUS
 62
    2
 10
636.73722627737186
 20
1040.6867850222427
 11
636.73722627737186
 21
1035.0867850222428
  0
LINE
  8
_0-0_計極細
  6
CONTINUOUS
 62
    2
 10
649.73722627737186
 20
1040.6867850222427
 11
649.73722627737186
 21
1035.0867850222428
  0
LINE
  8
_0-0_計極細
  6
CONTINUOUS
 62
    2
 10
636.73722627737186
 20
1057.6867850222436
 11
636.73722627737186
 21
1052.0867850222432
  0
LINE
  8
_0-0_計極細
  6
CONTINUOUS
 62
    2
 10
649.73722627737186
 20
1057.6867850222436
 11
649.73722627737186
 21
1052.0867850222432
  0
LINE
  8
_0-0_計極細
  6
CONTINUOUS
 62
    2
 10
636.73722627737186
 20
1074.6867850222445
 11
636.73722627737186
 21
1069.0867850222442
  0
LINE
  8
_0-0_計極細
  6
CONTINUOUS
 62
    2
 10
649.73722627737186
 20
1074.6867850222445
 11
649.73722627737186
 21
1069.0867850222442
  0
LINE
  8
_0-0_計極細
  6
CONTINUOUS
 62
    2
 10
636.73722627737186
 20
1091.686785022245
 11
636.73722627737186
 21
1086.0867850222451
  0
LINE
  8
_0-0_計極細
  6
CONTINUOUS
 62
    2
 10
649.73722627737186
 20
1091.686785022245
 11
649.73722627737186
 21
1086.0867850222451
  0
LINE
  8
_0-0_計極細
  6
CONTINUOUS
 62
    2
 10
636.73722627737186
 20
950.08678502224416
 11
636.73722627737186
 21
955.68678502224407
  0
LINE
  8
_0-0_計極細
  6
CONTINUOUS
 62
    2
 10
649.73722627737186
 20
950.08678502224416
 11
649.73722627737186
 21
955.68678502224407
  0
LINE
  8
_0-0_計極細
  6
CONTINUOUS
 62
    2
 10
636.73722627737186
 20
933.08678502224325
 11
636.73722627737186
 21
938.68678502224361
  0
LINE
  8
_0-0_計極細
  6
CONTINUOUS
 62
    2
 10
649.73722627737186
 20
933.08678502224325
 11
649.73722627737186
 21
938.68678502224361
  0
LINE
  8
_0-0_計極細
  6
CONTINUOUS
 62
    2
 10
636.73722627737186
 20
916.08678502224234
 11
636.73722627737186
 21
921.6867850222427
  0
LINE
  8
_0-0_計極細
  6
CONTINUOUS
 62
    2
 10
649.73722627737186
 20
916.08678502224234
 11
649.73722627737186
 21
921.6867850222427
  0
LINE
  8
_0-0_計極細
  6
CONTINUOUS
 62
    2
 10
636.73722627737186
 20
899.08678502224188
 11
636.73722627737186
 21
904.68678502224179
  0
LINE
  8
_0-0_計極細
  6
CONTINUOUS
 62
    2
 10
649.73722627737186
 20
899.08678502224188
 11
649.73722627737186
 21
904.68678502224179
  0
LINE
  8
_0-0_計極細
  6
CONTINUOUS
 62
    2
 10
685.23722627737186
 20
967.08678502224461
 11
685.23722627737186
 21
972.68678502224452
  0
LINE
  8
_0-0_計極細
  6
CONTINUOUS
 62
    2
 10
698.23722627737186
 20
967.08678502224461
 11
698.23722627737186
 21
972.68678502224452
  0
LINE
  8
_0-0_計極細
  6
CONTINUOUS
 62
    2
 10
685.23722627737186
 20
989.68678502224088
 11
685.23722627737186
 21
984.08678502224052
  0
LINE
  8
_0-0_計極細
  6
CONTINUOUS
 62
    2
 10
698.23722627737186
 20
989.68678502224088
 11
698.23722627737186
 21
984.08678502224052
  0
LINE
  8
_0-0_計極細
  6
CONTINUOUS
 62
    2
 10
685.23722627737186
 20
1006.6867850222418
 11
685.23722627737186
 21
1001.0867850222414
  0
LINE
  8
_0-0_計極細
  6
CONTINUOUS
 62
    2
 10
698.23722627737186
 20
1006.6867850222418
 11
698.23722627737186
 21
1001.0867850222414
  0
LINE
  8
_0-0_計極細
  6
CONTINUOUS
 62
    2
 10
685.23722627737186
 20
1023.6867850222422
 11
685.23722627737186
 21
1018.0867850222423
  0
LINE
  8
_0-0_計極細
  6
CONTINUOUS
 62
    2
 10
698.23722627737186
 20
1023.6867850222422
 11
698.23722627737186
 21
1018.0867850222423
  0
LINE
  8
_0-0_計極細
  6
CONTINUOUS
 62
    2
 10
685.23722627737186
 20
1108.9867850222429
 11
685.23722627737186
 21
1103.0867850222428
  0
LINE
  8
_0-0_計極細
  6
CONTINUOUS
 62
    2
 10
698.23722627737186
 20
1108.9867850222429
 11
698.23722627737186
 21
1103.0867850222428
  0
LINE
  8
_0-0_計極細
  6
CONTINUOUS
 62
    2
 10
685.23722627737186
 20
881.78678502224398
 11
685.23722627737186
 21
887.68678502224407
  0
LINE
  8
_0-0_計極細
  6
CONTINUOUS
 62
    2
 10
698.23722627737186
 20
881.78678502224398
 11
698.23722627737186
 21
887.68678502224407
  0
LINE
  8
_0-0_計極細
  6
CENTER1
 62
    2
 10
691.73722627737186
 20
1129.1375044467056
 11
691.73722627737186
 21
862.62896128123134
  0
LINE
  8
_0-0_計極細
  6
CONTINUOUS
 62
    2
 10
685.23722627737186
 20
1040.6867850222427
 11
685.23722627737186
 21
1035.0867850222428
  0
LINE
  8
_0-0_計極細
  6
CONTINUOUS
 62
    2
 10
698.23722627737186
 20
1040.6867850222427
 11
698.23722627737186
 21
1035.0867850222428
  0
LINE
  8
_0-0_計極細
  6
CONTINUOUS
 62
    2
 10
685.23722627737186
 20
1057.6867850222436
 11
685.23722627737186
 21
1052.0867850222432
  0
LINE
  8
_0-0_計極細
  6
CONTINUOUS
 62
    2
 10
698.23722627737186
 20
1057.6867850222436
 11
698.23722627737186
 21
1052.0867850222432
  0
LINE
  8
_0-0_計極細
  6
CONTINUOUS
 62
    2
 10
685.23722627737186
 20
1074.6867850222445
 11
685.23722627737186
 21
1069.0867850222442
  0
LINE
  8
_0-0_計極細
  6
CONTINUOUS
 62
    2
 10
698.23722627737186
 20
1074.6867850222445
 11
698.23722627737186
 21
1069.0867850222442
  0
LINE
  8
_0-0_計極細
  6
CONTINUOUS
 62
    2
 10
685.23722627737186
 20
1091.686785022245
 11
685.23722627737186
 21
1086.0867850222451
  0
LINE
  8
_0-0_計極細
  6
CONTINUOUS
 62
    2
 10
698.23722627737186
 20
1091.686785022245
 11
698.23722627737186
 21
1086.0867850222451
  0
LINE
  8
_0-0_計極細
  6
CONTINUOUS
 62
    2
 10
685.23722627737186
 20
950.08678502224416
 11
685.23722627737186
 21
955.68678502224407
  0
LINE
  8
_0-0_計極細
  6
CONTINUOUS
 62
    2
 10
698.23722627737186
 20
950.08678502224416
 11
698.23722627737186
 21
955.68678502224407
  0
LINE
  8
_0-0_計極細
  6
CONTINUOUS
 62
    2
 10
685.23722627737186
 20
933.08678502224325
 11
685.23722627737186
 21
938.68678502224361
  0
LINE
  8
_0-0_計極細
  6
CONTINUOUS
 62
    2
 10
698.23722627737186
 20
933.08678502224325
 11
698.23722627737186
 21
938.68678502224361
  0
LINE
  8
_0-0_計極細
  6
CONTINUOUS
 62
    2
 10
685.23722627737186
 20
916.08678502224234
 11
685.23722627737186
 21
921.6867850222427
  0
LINE
  8
_0-0_計極細
  6
CONTINUOUS
 62
    2
 10
698.23722627737186
 20
916.08678502224234
 11
698.23722627737186
 21
921.6867850222427
  0
LINE
  8
_0-0_計極細
  6
CONTINUOUS
 62
    2
 10
685.23722627737186
 20
899.08678502224188
 11
685.23722627737186
 21
904.68678502224179
  0
LINE
  8
_0-0_計極細
  6
CONTINUOUS
 62
    2
 10
698.23722627737186
 20
899.08678502224188
 11
698.23722627737186
 21
904.68678502224179
  0
LINE
  8
_0-0_計極細
  6
CONTINUOUS
 62
    2
 10
733.73722627737186
 20
967.08678502224461
 11
733.73722627737186
 21
972.68678502224452
  0
LINE
  8
_0-0_計極細
  6
CONTINUOUS
 62
    2
 10
746.73722627737186
 20
967.08678502224461
 11
746.73722627737186
 21
972.68678502224452
  0
LINE
  8
_0-0_計極細
  6
CONTINUOUS
 62
    2
 10
733.73722627737186
 20
989.68678502224088
 11
733.73722627737186
 21
984.08678502224052
  0
LINE
  8
_0-0_計極細
  6
CONTINUOUS
 62
    2
 10
746.73722627737186
 20
989.68678502224088
 11
746.73722627737186
 21
984.08678502224052
  0
LINE
  8
_0-0_計極細
  6
CONTINUOUS
 62
    2
 10
733.73722627737186
 20
1006.6867850222418
 11
733.73722627737186
 21
1001.0867850222414
  0
LINE
  8
_0-0_計極細
  6
CONTINUOUS
 62
    2
 10
746.73722627737186
 20
1006.6867850222418
 11
746.73722627737186
 21
1001.0867850222414
  0
LINE
  8
_0-0_計極細
  6
CONTINUOUS
 62
    2
 10
733.73722627737186
 20
1023.6867850222422
 11
733.73722627737186
 21
1018.0867850222423
  0
LINE
  8
_0-0_計極細
  6
CONTINUOUS
 62
    2
 10
746.73722627737186
 20
1023.6867850222422
 11
746.73722627737186
 21
1018.0867850222423
  0
LINE
  8
_0-0_計極細
  6
CONTINUOUS
 62
    2
 10
733.73722627737186
 20
1108.9867850222429
 11
733.73722627737186
 21
1103.0867850222428
  0
LINE
  8
_0-0_計極細
  6
CONTINUOUS
 62
    2
 10
746.73722627737186
 20
1108.9867850222429
 11
746.73722627737186
 21
1103.0867850222428
  0
LINE
  8
_0-0_計極細
  6
CONTINUOUS
 62
    2
 10
733.73722627737186
 20
881.78678502224398
 11
733.73722627737186
 21
887.68678502224407
  0
LINE
  8
_0-0_計極細
  6
CONTINUOUS
 62
    2
 10
746.73722627737186
 20
881.78678502224398
 11
746.73722627737186
 21
887.68678502224407
  0
LINE
  8
_0-0_計極細
  6
CENTER1
 62
    2
 10
740.23722627737186
 20
1129.1375044467056
 11
740.23722627737186
 21
862.62896128123134
  0
LINE
  8
_0-0_計極細
  6
CONTINUOUS
 62
    2
 10
733.73722627737186
 20
1040.6867850222427
 11
733.73722627737186
 21
1035.0867850222428
  0
LINE
  8
_0-0_計極細
  6
CONTINUOUS
 62
    2
 10
746.73722627737186
 20
1040.6867850222427
 11
746.73722627737186
 21
1035.0867850222428
  0
LINE
  8
_0-0_計極細
  6
CONTINUOUS
 62
    2
 10
733.73722627737186
 20
1057.6867850222436
 11
733.73722627737186
 21
1052.0867850222432
  0
LINE
  8
_0-0_計極細
  6
CONTINUOUS
 62
    2
 10
746.73722627737186
 20
1057.6867850222436
 11
746.73722627737186
 21
1052.0867850222432
  0
LINE
  8
_0-0_計極細
  6
CONTINUOUS
 62
    2
 10
733.73722627737186
 20
1074.6867850222445
 11
733.73722627737186
 21
1069.0867850222442
  0
LINE
  8
_0-0_計極細
  6
CONTINUOUS
 62
    2
 10
746.73722627737186
 20
1074.6867850222445
 11
746.73722627737186
 21
1069.0867850222442
  0
LINE
  8
_0-0_計極細
  6
CONTINUOUS
 62
    2
 10
733.73722627737186
 20
1091.686785022245
 11
733.73722627737186
 21
1086.0867850222451
  0
LINE
  8
_0-0_計極細
  6
CONTINUOUS
 62
    2
 10
746.73722627737186
 20
1091.686785022245
 11
746.73722627737186
 21
1086.0867850222451
  0
LINE
  8
_0-0_計極細
  6
CONTINUOUS
 62
    2
 10
733.73722627737186
 20
950.08678502224416
 11
733.73722627737186
 21
955.68678502224407
  0
LINE
  8
_0-0_計極細
  6
CONTINUOUS
 62
    2
 10
746.73722627737186
 20
950.08678502224416
 11
746.73722627737186
 21
955.68678502224407
  0
LINE
  8
_0-0_計極細
  6
CONTINUOUS
 62
    2
 10
733.73722627737186
 20
933.08678502224325
 11
733.73722627737186
 21
938.68678502224361
  0
LINE
  8
_0-0_計極細
  6
CONTINUOUS
 62
    2
 10
746.73722627737186
 20
933.08678502224325
 11
746.73722627737186
 21
938.68678502224361
  0
LINE
  8
_0-0_計極細
  6
CONTINUOUS
 62
    2
 10
733.73722627737186
 20
916.08678502224234
 11
733.73722627737186
 21
921.6867850222427
  0
LINE
  8
_0-0_計極細
  6
CONTINUOUS
 62
    2
 10
746.73722627737186
 20
916.08678502224234
 11
746.73722627737186
 21
921.6867850222427
  0
LINE
  8
_0-0_計極細
  6
CONTINUOUS
 62
    2
 10
733.73722627737186
 20
899.08678502224188
 11
733.73722627737186
 21
904.68678502224179
  0
LINE
  8
_0-0_計極細
  6
CONTINUOUS
 62
    2
 10
746.73722627737186
 20
899.08678502224188
 11
746.73722627737186
 21
904.68678502224179
  0
LINE
  8
_0-0_計極細
  6
CONTINUOUS
 62
    2
 10
782.23722627737186
 20
967.08678502224461
 11
782.23722627737186
 21
972.68678502224452
  0
LINE
  8
_0-0_計極細
  6
CONTINUOUS
 62
    2
 10
795.23722627737186
 20
967.08678502224461
 11
795.23722627737186
 21
972.68678502224452
  0
LINE
  8
_0-0_計極細
  6
CONTINUOUS
 62
    2
 10
782.23722627737186
 20
989.68678502224088
 11
782.23722627737186
 21
984.08678502224052
  0
LINE
  8
_0-0_計極細
  6
CONTINUOUS
 62
    2
 10
795.23722627737186
 20
989.68678502224088
 11
795.23722627737186
 21
984.08678502224052
  0
LINE
  8
_0-0_計極細
  6
CONTINUOUS
 62
    2
 10
782.23722627737186
 20
1006.6867850222418
 11
782.23722627737186
 21
1001.0867850222414
  0
LINE
  8
_0-0_計極細
  6
CONTINUOUS
 62
    2
 10
795.23722627737186
 20
1006.6867850222418
 11
795.23722627737186
 21
1001.0867850222414
  0
LINE
  8
_0-0_計極細
  6
CONTINUOUS
 62
    2
 10
782.23722627737186
 20
1023.6867850222422
 11
782.23722627737186
 21
1018.0867850222423
  0
LINE
  8
_0-0_計極細
  6
CONTINUOUS
 62
    2
 10
795.23722627737186
 20
1023.6867850222422
 11
795.23722627737186
 21
1018.0867850222423
  0
LINE
  8
_0-0_計極細
  6
CONTINUOUS
 62
    2
 10
782.23722627737186
 20
1108.9867850222429
 11
782.23722627737186
 21
1103.0867850222428
  0
LINE
  8
_0-0_計極細
  6
CONTINUOUS
 62
    2
 10
795.23722627737186
 20
1108.9867850222429
 11
795.23722627737186
 21
1103.0867850222428
  0
LINE
  8
_0-0_計極細
  6
CONTINUOUS
 62
    2
 10
782.23722627737186
 20
881.78678502224398
 11
782.23722627737186
 21
887.68678502224407
  0
LINE
  8
_0-0_計極細
  6
CONTINUOUS
 62
    2
 10
795.23722627737186
 20
881.78678502224398
 11
795.23722627737186
 21
887.68678502224407
  0
LINE
  8
_0-0_計極細
  6
CENTER1
 62
    2
 10
788.73722627737186
 20
1129.1375044467056
 11
788.73722627737186
 21
862.62896128123134
  0
LINE
  8
_0-0_計極細
  6
CONTINUOUS
 62
    2
 10
782.23722627737186
 20
1040.6867850222427
 11
782.23722627737186
 21
1035.0867850222428
  0
LINE
  8
_0-0_計極細
  6
CONTINUOUS
 62
    2
 10
795.23722627737186
 20
1040.6867850222427
 11
795.23722627737186
 21
1035.0867850222428
  0
LINE
  8
_0-0_計極細
  6
CONTINUOUS
 62
    2
 10
782.23722627737186
 20
1057.6867850222436
 11
782.23722627737186
 21
1052.0867850222432
  0
LINE
  8
_0-0_計極細
  6
CONTINUOUS
 62
    2
 10
795.23722627737186
 20
1057.6867850222436
 11
795.23722627737186
 21
1052.0867850222432
  0
LINE
  8
_0-0_計極細
  6
CONTINUOUS
 62
    2
 10
782.23722627737186
 20
1074.6867850222445
 11
782.23722627737186
 21
1069.0867850222442
  0
LINE
  8
_0-0_計極細
  6
CONTINUOUS
 62
    2
 10
795.23722627737186
 20
1074.6867850222445
 11
795.23722627737186
 21
1069.0867850222442
  0
LINE
  8
_0-0_計極細
  6
CONTINUOUS
 62
    2
 10
782.23722627737186
 20
1091.686785022245
 11
782.23722627737186
 21
1086.0867850222451
  0
LINE
  8
_0-0_計極細
  6
CONTINUOUS
 62
    2
 10
795.23722627737186
 20
1091.686785022245
 11
795.23722627737186
 21
1086.0867850222451
  0
LINE
  8
_0-0_計極細
  6
CONTINUOUS
 62
    2
 10
782.23722627737186
 20
950.08678502224416
 11
782.23722627737186
 21
955.68678502224407
  0
LINE
  8
_0-0_計極細
  6
CONTINUOUS
 62
    2
 10
795.23722627737186
 20
950.08678502224416
 11
795.23722627737186
 21
955.68678502224407
  0
LINE
  8
_0-0_計極細
  6
CONTINUOUS
 62
    2
 10
782.23722627737186
 20
933.08678502224325
 11
782.23722627737186
 21
938.68678502224361
  0
LINE
  8
_0-0_計極細
  6
CONTINUOUS
 62
    2
 10
795.23722627737186
 20
933.08678502224325
 11
795.23722627737186
 21
938.68678502224361
  0
LINE
  8
_0-0_計極細
  6
CONTINUOUS
 62
    2
 10
782.23722627737186
 20
916.08678502224234
 11
782.23722627737186
 21
921.6867850222427
  0
LINE
  8
_0-0_計極細
  6
CONTINUOUS
 62
    2
 10
795.23722627737186
 20
916.08678502224234
 11
795.23722627737186
 21
921.6867850222427
  0
LINE
  8
_0-0_計極細
  6
CONTINUOUS
 62
    2
 10
782.23722627737186
 20
899.08678502224188
 11
782.23722627737186
 21
904.68678502224179
  0
LINE
  8
_0-0_計極細
  6
CONTINUOUS
 62
    2
 10
795.23722627737186
 20
899.08678502224188
 11
795.23722627737186
 21
904.68678502224179
  0
LINE
  8
_0-0_計極細
  6
CONTINUOUS
 62
    2
 10
830.73722627737186
 20
967.08678502224461
 11
830.73722627737186
 21
972.68678502224452
  0
LINE
  8
_0-0_計極細
  6
CONTINUOUS
 62
    2
 10
843.73722627737186
 20
967.08678502224461
 11
843.73722627737186
 21
972.68678502224452
  0
LINE
  8
_0-0_計極細
  6
CONTINUOUS
 62
    2
 10
830.73722627737186
 20
989.68678502224088
 11
830.73722627737186
 21
984.08678502224052
  0
LINE
  8
_0-0_計極細
  6
CONTINUOUS
 62
    2
 10
843.73722627737186
 20
989.68678502224088
 11
843.73722627737186
 21
984.08678502224052
  0
LINE
  8
_0-0_計極細
  6
CONTINUOUS
 62
    2
 10
830.73722627737186
 20
1006.6867850222418
 11
830.73722627737186
 21
1001.0867850222414
  0
LINE
  8
_0-0_計極細
  6
CONTINUOUS
 62
    2
 10
843.73722627737186
 20
1006.6867850222418
 11
843.73722627737186
 21
1001.0867850222414
  0
LINE
  8
_0-0_計極細
  6
CONTINUOUS
 62
    2
 10
830.73722627737186
 20
1023.6867850222422
 11
830.73722627737186
 21
1018.0867850222423
  0
LINE
  8
_0-0_計極細
  6
CONTINUOUS
 62
    2
 10
843.73722627737186
 20
1023.6867850222422
 11
843.73722627737186
 21
1018.0867850222423
  0
LINE
  8
_0-0_計極細
  6
CONTINUOUS
 62
    2
 10
830.73722627737186
 20
1108.9867850222429
 11
830.73722627737186
 21
1103.0867850222428
  0
LINE
  8
_0-0_計極細
  6
CONTINUOUS
 62
    2
 10
843.73722627737186
 20
1108.9867850222429
 11
843.73722627737186
 21
1103.0867850222428
  0
LINE
  8
_0-0_計極細
  6
CONTINUOUS
 62
    2
 10
830.73722627737186
 20
881.78678502224398
 11
830.73722627737186
 21
887.68678502224407
  0
LINE
  8
_0-0_計極細
  6
CONTINUOUS
 62
    2
 10
843.73722627737186
 20
881.78678502224398
 11
843.73722627737186
 21
887.68678502224407
  0
LINE
  8
_0-0_計極細
  6
CENTER1
 62
    2
 10
837.23722627737186
 20
1129.1375044467056
 11
837.23722627737186
 21
862.62896128123134
  0
LINE
  8
_0-0_計極細
  6
CONTINUOUS
 62
    2
 10
830.73722627737186
 20
1040.6867850222427
 11
830.73722627737186
 21
1035.0867850222428
  0
LINE
  8
_0-0_計極細
  6
CONTINUOUS
 62
    2
 10
843.73722627737186
 20
1040.6867850222427
 11
843.73722627737186
 21
1035.0867850222428
  0
LINE
  8
_0-0_計極細
  6
CONTINUOUS
 62
    2
 10
830.73722627737186
 20
1057.6867850222436
 11
830.73722627737186
 21
1052.0867850222432
  0
LINE
  8
_0-0_計極細
  6
CONTINUOUS
 62
    2
 10
843.73722627737186
 20
1057.6867850222436
 11
843.73722627737186
 21
1052.0867850222432
  0
LINE
  8
_0-0_計極細
  6
CONTINUOUS
 62
    2
 10
830.73722627737186
 20
1074.6867850222445
 11
830.73722627737186
 21
1069.0867850222442
  0
LINE
  8
_0-0_計極細
  6
CONTINUOUS
 62
    2
 10
843.73722627737186
 20
1074.6867850222445
 11
843.73722627737186
 21
1069.0867850222442
  0
LINE
  8
_0-0_計極細
  6
CONTINUOUS
 62
    2
 10
830.73722627737186
 20
1091.686785022245
 11
830.73722627737186
 21
1086.0867850222451
  0
LINE
  8
_0-0_計極細
  6
CONTINUOUS
 62
    2
 10
843.73722627737186
 20
1091.686785022245
 11
843.73722627737186
 21
1086.0867850222451
  0
LINE
  8
_0-0_計極細
  6
CONTINUOUS
 62
    2
 10
830.73722627737186
 20
950.08678502224416
 11
830.73722627737186
 21
955.68678502224407
  0
LINE
  8
_0-0_計極細
  6
CONTINUOUS
 62
    2
 10
843.73722627737186
 20
950.08678502224416
 11
843.73722627737186
 21
955.68678502224407
  0
LINE
  8
_0-0_計極細
  6
CONTINUOUS
 62
    2
 10
830.73722627737186
 20
933.08678502224325
 11
830.73722627737186
 21
938.68678502224361
  0
LINE
  8
_0-0_計極細
  6
CONTINUOUS
 62
    2
 10
843.73722627737186
 20
933.08678502224325
 11
843.73722627737186
 21
938.68678502224361
  0
LINE
  8
_0-0_計極細
  6
CONTINUOUS
 62
    2
 10
830.73722627737186
 20
916.08678502224234
 11
830.73722627737186
 21
921.6867850222427
  0
LINE
  8
_0-0_計極細
  6
CONTINUOUS
 62
    2
 10
843.73722627737186
 20
916.08678502224234
 11
843.73722627737186
 21
921.6867850222427
  0
LINE
  8
_0-0_計極細
  6
CONTINUOUS
 62
    2
 10
830.73722627737186
 20
899.08678502224188
 11
830.73722627737186
 21
904.68678502224179
  0
LINE
  8
_0-0_計極細
  6
CONTINUOUS
 62
    2
 10
843.73722627737186
 20
899.08678502224188
 11
843.73722627737186
 21
904.68678502224179
  0
LINE
  8
_0-0_計極細
  6
CONTINUOUS
 62
    2
 10
879.23722627737186
 20
967.08678502224461
 11
879.23722627737186
 21
972.68678502224452
  0
LINE
  8
_0-0_計極細
  6
CONTINUOUS
 62
    2
 10
892.23722627737186
 20
967.08678502224461
 11
892.23722627737186
 21
972.68678502224452
  0
LINE
  8
_0-0_計極細
  6
CONTINUOUS
 62
    2
 10
879.23722627737186
 20
989.68678502224088
 11
879.23722627737186
 21
984.08678502224052
  0
LINE
  8
_0-0_計極細
  6
CONTINUOUS
 62
    2
 10
892.23722627737186
 20
989.68678502224088
 11
892.23722627737186
 21
984.08678502224052
  0
LINE
  8
_0-0_計極細
  6
CONTINUOUS
 62
    2
 10
879.23722627737186
 20
1006.6867850222418
 11
879.23722627737186
 21
1001.0867850222414
  0
LINE
  8
_0-0_計極細
  6
CONTINUOUS
 62
    2
 10
892.23722627737186
 20
1006.6867850222418
 11
892.23722627737186
 21
1001.0867850222414
  0
LINE
  8
_0-0_計極細
  6
CONTINUOUS
 62
    2
 10
879.23722627737186
 20
1023.6867850222422
 11
879.23722627737186
 21
1018.0867850222423
  0
LINE
  8
_0-0_計極細
  6
CONTINUOUS
 62
    2
 10
892.23722627737186
 20
1023.6867850222422
 11
892.23722627737186
 21
1018.0867850222423
  0
LINE
  8
_0-0_計極細
  6
CONTINUOUS
 62
    2
 10
879.23722627737186
 20
1108.9867850222429
 11
879.23722627737186
 21
1103.0867850222428
  0
LINE
  8
_0-0_計極細
  6
CONTINUOUS
 62
    2
 10
892.23722627737186
 20
1108.9867850222429
 11
892.23722627737186
 21
1103.0867850222428
  0
LINE
  8
_0-0_計極細
  6
CONTINUOUS
 62
    2
 10
879.23722627737186
 20
881.78678502224398
 11
879.23722627737186
 21
887.68678502224407
  0
LINE
  8
_0-0_計極細
  6
CONTINUOUS
 62
    2
 10
892.23722627737186
 20
881.78678502224398
 11
892.23722627737186
 21
887.68678502224407
  0
LINE
  8
_0-0_計極細
  6
CENTER1
 62
    2
 10
885.73722627737186
 20
1129.1375044467056
 11
885.73722627737186
 21
862.62896128123134
  0
LINE
  8
_0-0_計極細
  6
CONTINUOUS
 62
    2
 10
879.23722627737186
 20
1040.6867850222427
 11
879.23722627737186
 21
1035.0867850222428
  0
LINE
  8
_0-0_計極細
  6
CONTINUOUS
 62
    2
 10
892.23722627737186
 20
1040.6867850222427
 11
892.23722627737186
 21
1035.0867850222428
  0
LINE
  8
_0-0_計極細
  6
CONTINUOUS
 62
    2
 10
879.23722627737186
 20
1057.6867850222436
 11
879.23722627737186
 21
1052.0867850222432
  0
LINE
  8
_0-0_計極細
  6
CONTINUOUS
 62
    2
 10
892.23722627737186
 20
1057.6867850222436
 11
892.23722627737186
 21
1052.0867850222432
  0
LINE
  8
_0-0_計極細
  6
CONTINUOUS
 62
    2
 10
879.23722627737186
 20
1074.6867850222445
 11
879.23722627737186
 21
1069.0867850222442
  0
LINE
  8
_0-0_計極細
  6
CONTINUOUS
 62
    2
 10
892.23722627737186
 20
1074.6867850222445
 11
892.23722627737186
 21
1069.0867850222442
  0
LINE
  8
_0-0_計極細
  6
CONTINUOUS
 62
    2
 10
879.23722627737186
 20
1091.686785022245
 11
879.23722627737186
 21
1086.0867850222451
  0
LINE
  8
_0-0_計極細
  6
CONTINUOUS
 62
    2
 10
892.23722627737186
 20
1091.686785022245
 11
892.23722627737186
 21
1086.0867850222451
  0
LINE
  8
_0-0_計極細
  6
CONTINUOUS
 62
    2
 10
879.23722627737186
 20
950.08678502224416
 11
879.23722627737186
 21
955.68678502224407
  0
LINE
  8
_0-0_計極細
  6
CONTINUOUS
 62
    2
 10
892.23722627737186
 20
950.08678502224416
 11
892.23722627737186
 21
955.68678502224407
  0
LINE
  8
_0-0_計極細
  6
CONTINUOUS
 62
    2
 10
879.23722627737186
 20
933.08678502224325
 11
879.23722627737186
 21
938.68678502224361
  0
LINE
  8
_0-0_計極細
  6
CONTINUOUS
 62
    2
 10
892.23722627737186
 20
933.08678502224325
 11
892.23722627737186
 21
938.68678502224361
  0
LINE
  8
_0-0_計極細
  6
CONTINUOUS
 62
    2
 10
879.23722627737186
 20
916.08678502224234
 11
879.23722627737186
 21
921.6867850222427
  0
LINE
  8
_0-0_計極細
  6
CONTINUOUS
 62
    2
 10
892.23722627737186
 20
916.08678502224234
 11
892.23722627737186
 21
921.6867850222427
  0
LINE
  8
_0-0_計極細
  6
CONTINUOUS
 62
    2
 10
879.23722627737186
 20
899.08678502224188
 11
879.23722627737186
 21
904.68678502224179
  0
LINE
  8
_0-0_計極細
  6
CONTINUOUS
 62
    2
 10
892.23722627737186
 20
899.08678502224188
 11
892.23722627737186
 21
904.68678502224179
  0
LINE
  8
_0-0_計極細
  6
CONTINUOUS
 62
    2
 10
927.73722627737186
 20
967.08678502224461
 11
927.73722627737186
 21
972.68678502224452
  0
LINE
  8
_0-0_計極細
  6
CONTINUOUS
 62
    2
 10
940.73722627737186
 20
967.08678502224461
 11
940.73722627737186
 21
972.68678502224452
  0
LINE
  8
_0-0_計極細
  6
CONTINUOUS
 62
    2
 10
927.73722627737186
 20
989.68678502224088
 11
927.73722627737186
 21
984.08678502224052
  0
LINE
  8
_0-0_計極細
  6
CONTINUOUS
 62
    2
 10
940.73722627737186
 20
989.68678502224088
 11
940.73722627737186
 21
984.08678502224052
  0
LINE
  8
_0-0_計極細
  6
CONTINUOUS
 62
    2
 10
927.73722627737186
 20
1006.6867850222418
 11
927.73722627737186
 21
1001.0867850222414
  0
LINE
  8
_0-0_計極細
  6
CONTINUOUS
 62
    2
 10
940.73722627737186
 20
1006.6867850222418
 11
940.73722627737186
 21
1001.0867850222414
  0
LINE
  8
_0-0_計極細
  6
CONTINUOUS
 62
    2
 10
927.73722627737186
 20
1023.6867850222422
 11
927.73722627737186
 21
1018.0867850222423
  0
LINE
  8
_0-0_計極細
  6
CONTINUOUS
 62
    2
 10
940.73722627737186
 20
1023.6867850222422
 11
940.73722627737186
 21
1018.0867850222423
  0
LINE
  8
_0-0_計極細
  6
CONTINUOUS
 62
    2
 10
927.73722627737186
 20
1108.9867850222429
 11
927.73722627737186
 21
1103.0867850222428
  0
LINE
  8
_0-0_計極細
  6
CONTINUOUS
 62
    2
 10
940.73722627737186
 20
1108.9867850222429
 11
940.73722627737186
 21
1103.0867850222428
  0
LINE
  8
_0-0_計極細
  6
CONTINUOUS
 62
    2
 10
927.73722627737186
 20
881.78678502224398
 11
927.73722627737186
 21
887.68678502224407
  0
LINE
  8
_0-0_計極細
  6
CONTINUOUS
 62
    2
 10
940.73722627737186
 20
881.78678502224398
 11
940.73722627737186
 21
887.68678502224407
  0
LINE
  8
_0-0_計極細
  6
CENTER1
 62
    2
 10
934.23722627737186
 20
1129.1375044467056
 11
934.23722627737186
 21
862.62896128123134
  0
LINE
  8
_0-0_計極細
  6
CONTINUOUS
 62
    2
 10
927.73722627737186
 20
1040.6867850222427
 11
927.73722627737186
 21
1035.0867850222428
  0
LINE
  8
_0-0_計極細
  6
CONTINUOUS
 62
    2
 10
940.73722627737186
 20
1040.6867850222427
 11
940.73722627737186
 21
1035.0867850222428
  0
LINE
  8
_0-0_計極細
  6
CONTINUOUS
 62
    2
 10
927.73722627737186
 20
1057.6867850222436
 11
927.73722627737186
 21
1052.0867850222432
  0
LINE
  8
_0-0_計極細
  6
CONTINUOUS
 62
    2
 10
940.73722627737186
 20
1057.6867850222436
 11
940.73722627737186
 21
1052.0867850222432
  0
LINE
  8
_0-0_計極細
  6
CONTINUOUS
 62
    2
 10
927.73722627737186
 20
1074.6867850222445
 11
927.73722627737186
 21
1069.0867850222442
  0
LINE
  8
_0-0_計極細
  6
CONTINUOUS
 62
    2
 10
940.73722627737186
 20
1074.6867850222445
 11
940.73722627737186
 21
1069.0867850222442
  0
LINE
  8
_0-0_計極細
  6
CONTINUOUS
 62
    2
 10
927.73722627737186
 20
1091.686785022245
 11
927.73722627737186
 21
1086.0867850222451
  0
LINE
  8
_0-0_計極細
  6
CONTINUOUS
 62
    2
 10
940.73722627737186
 20
1091.686785022245
 11
940.73722627737186
 21
1086.0867850222451
  0
LINE
  8
_0-0_計極細
  6
CONTINUOUS
 62
    2
 10
927.73722627737186
 20
950.08678502224416
 11
927.73722627737186
 21
955.68678502224407
  0
LINE
  8
_0-0_計極細
  6
CONTINUOUS
 62
    2
 10
940.73722627737186
 20
950.08678502224416
 11
940.73722627737186
 21
955.68678502224407
  0
LINE
  8
_0-0_計極細
  6
CONTINUOUS
 62
    2
 10
927.73722627737186
 20
933.08678502224325
 11
927.73722627737186
 21
938.68678502224361
  0
LINE
  8
_0-0_計極細
  6
CONTINUOUS
 62
    2
 10
940.73722627737186
 20
933.08678502224325
 11
940.73722627737186
 21
938.68678502224361
  0
LINE
  8
_0-0_計極細
  6
CONTINUOUS
 62
    2
 10
927.73722627737186
 20
916.08678502224234
 11
927.73722627737186
 21
921.6867850222427
  0
LINE
  8
_0-0_計極細
  6
CONTINUOUS
 62
    2
 10
940.73722627737186
 20
916.08678502224234
 11
940.73722627737186
 21
921.6867850222427
  0
LINE
  8
_0-0_計極細
  6
CONTINUOUS
 62
    2
 10
927.73722627737186
 20
899.08678502224188
 11
927.73722627737186
 21
904.68678502224179
  0
LINE
  8
_0-0_計極細
  6
CONTINUOUS
 62
    2
 10
940.73722627737186
 20
899.08678502224188
 11
940.73722627737186
 21
904.68678502224179
  0
LINE
  8
_0-0_計極細
  6
CONTINUOUS
 62
    2
 10
976.23722627737186
 20
967.08678502224461
 11
976.23722627737186
 21
972.68678502224452
  0
LINE
  8
_0-0_計極細
  6
CONTINUOUS
 62
    2
 10
989.23722627737186
 20
967.08678502224461
 11
989.23722627737186
 21
972.68678502224452
  0
LINE
  8
_0-0_計極細
  6
CONTINUOUS
 62
    2
 10
976.23722627737186
 20
989.68678502224088
 11
976.23722627737186
 21
984.08678502224052
  0
LINE
  8
_0-0_計極細
  6
CONTINUOUS
 62
    2
 10
989.23722627737186
 20
989.68678502224088
 11
989.23722627737186
 21
984.08678502224052
  0
LINE
  8
_0-0_計極細
  6
CONTINUOUS
 62
    2
 10
976.23722627737186
 20
1006.6867850222418
 11
976.23722627737186
 21
1001.0867850222414
  0
LINE
  8
_0-0_計極細
  6
CONTINUOUS
 62
    2
 10
989.23722627737186
 20
1006.6867850222418
 11
989.23722627737186
 21
1001.0867850222414
  0
LINE
  8
_0-0_計極細
  6
CONTINUOUS
 62
    2
 10
976.23722627737186
 20
1023.6867850222422
 11
976.23722627737186
 21
1018.0867850222423
  0
LINE
  8
_0-0_計極細
  6
CONTINUOUS
 62
    2
 10
989.23722627737186
 20
1023.6867850222422
 11
989.23722627737186
 21
1018.0867850222423
  0
LINE
  8
_0-0_計極細
  6
CONTINUOUS
 62
    2
 10
976.23722627737186
 20
1108.9867850222429
 11
976.23722627737186
 21
1103.0867850222428
  0
LINE
  8
_0-0_計極細
  6
CONTINUOUS
 62
    2
 10
989.23722627737186
 20
1108.9867850222429
 11
989.23722627737186
 21
1103.0867850222428
  0
LINE
  8
_0-0_計極細
  6
CONTINUOUS
 62
    2
 10
976.23722627737186
 20
881.78678502224398
 11
976.23722627737186
 21
887.68678502224407
  0
LINE
  8
_0-0_計極細
  6
CONTINUOUS
 62
    2
 10
989.23722627737186
 20
881.78678502224398
 11
989.23722627737186
 21
887.68678502224407
  0
LINE
  8
_0-0_計極細
  6
CENTER1
 62
    2
 10
982.73722627737186
 20
1129.1375044467056
 11
982.73722627737186
 21
862.62896128123134
  0
LINE
  8
_0-0_計極細
  6
CONTINUOUS
 62
    2
 10
976.23722627737186
 20
1040.6867850222427
 11
976.23722627737186
 21
1035.0867850222428
  0
LINE
  8
_0-0_計極細
  6
CONTINUOUS
 62
    2
 10
989.23722627737186
 20
1040.6867850222427
 11
989.23722627737186
 21
1035.0867850222428
  0
LINE
  8
_0-0_計極細
  6
CONTINUOUS
 62
    2
 10
976.23722627737186
 20
1057.6867850222436
 11
976.23722627737186
 21
1052.0867850222432
  0
LINE
  8
_0-0_計極細
  6
CONTINUOUS
 62
    2
 10
989.23722627737186
 20
1057.6867850222436
 11
989.23722627737186
 21
1052.0867850222432
  0
LINE
  8
_0-0_計極細
  6
CONTINUOUS
 62
    2
 10
976.23722627737186
 20
1074.6867850222445
 11
976.23722627737186
 21
1069.0867850222442
  0
LINE
  8
_0-0_計極細
  6
CONTINUOUS
 62
    2
 10
989.23722627737186
 20
1074.6867850222445
 11
989.23722627737186
 21
1069.0867850222442
  0
LINE
  8
_0-0_計極細
  6
CONTINUOUS
 62
    2
 10
976.23722627737186
 20
1091.686785022245
 11
976.23722627737186
 21
1086.0867850222451
  0
LINE
  8
_0-0_計極細
  6
CONTINUOUS
 62
    2
 10
989.23722627737186
 20
1091.686785022245
 11
989.23722627737186
 21
1086.0867850222451
  0
LINE
  8
_0-0_計極細
  6
CONTINUOUS
 62
    2
 10
976.23722627737186
 20
950.08678502224416
 11
976.23722627737186
 21
955.68678502224407
  0
LINE
  8
_0-0_計極細
  6
CONTINUOUS
 62
    2
 10
989.23722627737186
 20
950.08678502224416
 11
989.23722627737186
 21
955.68678502224407
  0
LINE
  8
_0-0_計極細
  6
CONTINUOUS
 62
    2
 10
976.23722627737186
 20
933.08678502224325
 11
976.23722627737186
 21
938.68678502224361
  0
LINE
  8
_0-0_計極細
  6
CONTINUOUS
 62
    2
 10
989.23722627737186
 20
933.08678502224325
 11
989.23722627737186
 21
938.68678502224361
  0
LINE
  8
_0-0_計極細
  6
CONTINUOUS
 62
    2
 10
976.23722627737186
 20
916.08678502224234
 11
976.23722627737186
 21
921.6867850222427
  0
LINE
  8
_0-0_計極細
  6
CONTINUOUS
 62
    2
 10
989.23722627737186
 20
916.08678502224234
 11
989.23722627737186
 21
921.6867850222427
  0
LINE
  8
_0-0_計極細
  6
CONTINUOUS
 62
    2
 10
976.23722627737186
 20
899.08678502224188
 11
976.23722627737186
 21
904.68678502224179
  0
LINE
  8
_0-0_計極細
  6
CONTINUOUS
 62
    2
 10
989.23722627737186
 20
899.08678502224188
 11
989.23722627737186
 21
904.68678502224179
  0
LINE
  8
_0-0_計極細
  6
CONTINUOUS
 62
    2
 10
1024.737226277372
 20
967.08678502224461
 11
1024.737226277372
 21
972.68678502224452
  0
LINE
  8
_0-0_計極細
  6
CONTINUOUS
 62
    2
 10
1037.737226277372
 20
967.08678502224461
 11
1037.737226277372
 21
972.68678502224452
  0
LINE
  8
_0-0_計極細
  6
CONTINUOUS
 62
    2
 10
1024.737226277372
 20
989.68678502224088
 11
1024.737226277372
 21
984.08678502224052
  0
LINE
  8
_0-0_計極細
  6
CONTINUOUS
 62
    2
 10
1037.737226277372
 20
989.68678502224088
 11
1037.737226277372
 21
984.08678502224052
  0
LINE
  8
_0-0_計極細
  6
CONTINUOUS
 62
    2
 10
1024.737226277372
 20
1006.6867850222418
 11
1024.737226277372
 21
1001.0867850222414
  0
LINE
  8
_0-0_計極細
  6
CONTINUOUS
 62
    2
 10
1037.737226277372
 20
1006.6867850222418
 11
1037.737226277372
 21
1001.0867850222414
  0
LINE
  8
_0-0_計極細
  6
CONTINUOUS
 62
    2
 10
1024.737226277372
 20
1023.6867850222422
 11
1024.737226277372
 21
1018.0867850222423
  0
LINE
  8
_0-0_計極細
  6
CONTINUOUS
 62
    2
 10
1037.737226277372
 20
1023.6867850222422
 11
1037.737226277372
 21
1018.0867850222423
  0
LINE
  8
_0-0_計極細
  6
CONTINUOUS
 62
    2
 10
1024.737226277372
 20
1108.9867850222429
 11
1024.737226277372
 21
1103.0867850222428
  0
LINE
  8
_0-0_計極細
  6
CONTINUOUS
 62
    2
 10
1037.737226277372
 20
1108.9867850222429
 11
1037.737226277372
 21
1103.0867850222428
  0
LINE
  8
_0-0_計極細
  6
CONTINUOUS
 62
    2
 10
1024.737226277372
 20
881.78678502224398
 11
1024.737226277372
 21
887.68678502224407
  0
LINE
  8
_0-0_計極細
  6
CONTINUOUS
 62
    2
 10
1037.737226277372
 20
881.78678502224398
 11
1037.737226277372
 21
887.68678502224407
  0
LINE
  8
_0-0_計極細
  6
CENTER1
 62
    2
 10
1031.237226277372
 20
1129.1375044467056
 11
1031.237226277372
 21
862.62896128123134
  0
LINE
  8
_0-0_計極細
  6
CONTINUOUS
 62
    2
 10
1024.737226277372
 20
1040.6867850222427
 11
1024.737226277372
 21
1035.0867850222428
  0
LINE
  8
_0-0_計極細
  6
CONTINUOUS
 62
    2
 10
1037.737226277372
 20
1040.6867850222427
 11
1037.737226277372
 21
1035.0867850222428
  0
LINE
  8
_0-0_計極細
  6
CONTINUOUS
 62
    2
 10
1024.737226277372
 20
1057.6867850222436
 11
1024.737226277372
 21
1052.0867850222432
  0
LINE
  8
_0-0_計極細
  6
CONTINUOUS
 62
    2
 10
1037.737226277372
 20
1057.6867850222436
 11
1037.737226277372
 21
1052.0867850222432
  0
LINE
  8
_0-0_計極細
  6
CONTINUOUS
 62
    2
 10
1024.737226277372
 20
1074.6867850222445
 11
1024.737226277372
 21
1069.0867850222442
  0
LINE
  8
_0-0_計極細
  6
CONTINUOUS
 62
    2
 10
1037.737226277372
 20
1074.6867850222445
 11
1037.737226277372
 21
1069.0867850222442
  0
LINE
  8
_0-0_計極細
  6
CONTINUOUS
 62
    2
 10
1024.737226277372
 20
1091.686785022245
 11
1024.737226277372
 21
1086.0867850222451
  0
LINE
  8
_0-0_計極細
  6
CONTINUOUS
 62
    2
 10
1037.737226277372
 20
1091.686785022245
 11
1037.737226277372
 21
1086.0867850222451
  0
LINE
  8
_0-0_計極細
  6
CONTINUOUS
 62
    2
 10
1024.737226277372
 20
950.08678502224416
 11
1024.737226277372
 21
955.68678502224407
  0
LINE
  8
_0-0_計極細
  6
CONTINUOUS
 62
    2
 10
1037.737226277372
 20
950.08678502224416
 11
1037.737226277372
 21
955.68678502224407
  0
LINE
  8
_0-0_計極細
  6
CONTINUOUS
 62
    2
 10
1024.737226277372
 20
933.08678502224325
 11
1024.737226277372
 21
938.68678502224361
  0
LINE
  8
_0-0_計極細
  6
CONTINUOUS
 62
    2
 10
1037.737226277372
 20
933.08678502224325
 11
1037.737226277372
 21
938.68678502224361
  0
LINE
  8
_0-0_計極細
  6
CONTINUOUS
 62
    2
 10
1024.737226277372
 20
916.08678502224234
 11
1024.737226277372
 21
921.6867850222427
  0
LINE
  8
_0-0_計極細
  6
CONTINUOUS
 62
    2
 10
1037.737226277372
 20
916.08678502224234
 11
1037.737226277372
 21
921.6867850222427
  0
LINE
  8
_0-0_計極細
  6
CONTINUOUS
 62
    2
 10
1024.737226277372
 20
899.08678502224188
 11
1024.737226277372
 21
904.68678502224179
  0
LINE
  8
_0-0_計極細
  6
CONTINUOUS
 62
    2
 10
1037.737226277372
 20
899.08678502224188
 11
1037.737226277372
 21
904.68678502224179
  0
LINE
  8
_0-0_計極細
  6
CONTINUOUS
 62
    2
 10
1073.237226277372
 20
967.08678502224461
 11
1073.237226277372
 21
972.68678502224452
  0
LINE
  8
_0-0_計極細
  6
CONTINUOUS
 62
    2
 10
1086.237226277372
 20
967.08678502224461
 11
1086.237226277372
 21
972.68678502224452
  0
LINE
  8
_0-0_計極細
  6
CONTINUOUS
 62
    2
 10
1073.237226277372
 20
989.68678502224088
 11
1073.237226277372
 21
984.08678502224052
  0
LINE
  8
_0-0_計極細
  6
CONTINUOUS
 62
    2
 10
1086.237226277372
 20
989.68678502224088
 11
1086.237226277372
 21
984.08678502224052
  0
LINE
  8
_0-0_計極細
  6
CONTINUOUS
 62
    2
 10
1073.237226277372
 20
1006.6867850222418
 11
1073.237226277372
 21
1001.0867850222414
  0
LINE
  8
_0-0_計極細
  6
CONTINUOUS
 62
    2
 10
1086.237226277372
 20
1006.6867850222418
 11
1086.237226277372
 21
1001.0867850222414
  0
LINE
  8
_0-0_計極細
  6
CONTINUOUS
 62
    2
 10
1073.237226277372
 20
1023.6867850222422
 11
1073.237226277372
 21
1018.0867850222423
  0
LINE
  8
_0-0_計極細
  6
CONTINUOUS
 62
    2
 10
1086.237226277372
 20
1023.6867850222422
 11
1086.237226277372
 21
1018.0867850222423
  0
LINE
  8
_0-0_計極細
  6
CONTINUOUS
 62
    2
 10
1073.237226277372
 20
1108.9867850222429
 11
1073.237226277372
 21
1103.0867850222428
  0
LINE
  8
_0-0_計極細
  6
CONTINUOUS
 62
    2
 10
1086.237226277372
 20
1108.9867850222429
 11
1086.237226277372
 21
1103.0867850222428
  0
LINE
  8
_0-0_計極細
  6
CONTINUOUS
 62
    2
 10
1073.237226277372
 20
881.78678502224398
 11
1073.237226277372
 21
887.68678502224407
  0
LINE
  8
_0-0_計極細
  6
CONTINUOUS
 62
    2
 10
1086.237226277372
 20
881.78678502224398
 11
1086.237226277372
 21
887.68678502224407
  0
LINE
  8
_0-0_計極細
  6
CENTER1
 62
    2
 10
1079.737226277372
 20
1129.1375044467056
 11
1079.737226277372
 21
862.62896128123134
  0
LINE
  8
_0-0_計極細
  6
CONTINUOUS
 62
    2
 10
1073.237226277372
 20
1040.6867850222427
 11
1073.237226277372
 21
1035.0867850222428
  0
LINE
  8
_0-0_計極細
  6
CONTINUOUS
 62
    2
 10
1086.237226277372
 20
1040.6867850222427
 11
1086.237226277372
 21
1035.0867850222428
  0
LINE
  8
_0-0_計極細
  6
CONTINUOUS
 62
    2
 10
1073.237226277372
 20
1057.6867850222436
 11
1073.237226277372
 21
1052.0867850222432
  0
LINE
  8
_0-0_計極細
  6
CONTINUOUS
 62
    2
 10
1086.237226277372
 20
1057.6867850222436
 11
1086.237226277372
 21
1052.0867850222432
  0
LINE
  8
_0-0_計極細
  6
CONTINUOUS
 62
    2
 10
1073.237226277372
 20
1074.6867850222445
 11
1073.237226277372
 21
1069.0867850222442
  0
LINE
  8
_0-0_計極細
  6
CONTINUOUS
 62
    2
 10
1086.237226277372
 20
1074.6867850222445
 11
1086.237226277372
 21
1069.0867850222442
  0
LINE
  8
_0-0_計極細
  6
CONTINUOUS
 62
    2
 10
1073.237226277372
 20
1091.686785022245
 11
1073.237226277372
 21
1086.0867850222451
  0
LINE
  8
_0-0_計極細
  6
CONTINUOUS
 62
    2
 10
1086.237226277372
 20
1091.686785022245
 11
1086.237226277372
 21
1086.0867850222451
  0
LINE
  8
_0-0_計極細
  6
CONTINUOUS
 62
    2
 10
1073.237226277372
 20
950.08678502224416
 11
1073.237226277372
 21
955.68678502224407
  0
LINE
  8
_0-0_計極細
  6
CONTINUOUS
 62
    2
 10
1086.237226277372
 20
950.08678502224416
 11
1086.237226277372
 21
955.68678502224407
  0
LINE
  8
_0-0_計極細
  6
CONTINUOUS
 62
    2
 10
1073.237226277372
 20
933.08678502224325
 11
1073.237226277372
 21
938.68678502224361
  0
LINE
  8
_0-0_計極細
  6
CONTINUOUS
 62
    2
 10
1086.237226277372
 20
933.08678502224325
 11
1086.237226277372
 21
938.68678502224361
  0
LINE
  8
_0-0_計極細
  6
CONTINUOUS
 62
    2
 10
1073.237226277372
 20
916.08678502224234
 11
1073.237226277372
 21
921.6867850222427
  0
LINE
  8
_0-0_計極細
  6
CONTINUOUS
 62
    2
 10
1086.237226277372
 20
916.08678502224234
 11
1086.237226277372
 21
921.6867850222427
  0
LINE
  8
_0-0_計極細
  6
CONTINUOUS
 62
    2
 10
1073.237226277372
 20
899.08678502224188
 11
1073.237226277372
 21
904.68678502224179
  0
LINE
  8
_0-0_計極細
  6
CONTINUOUS
 62
    2
 10
1086.237226277372
 20
899.08678502224188
 11
1086.237226277372
 21
904.68678502224179
  0
LINE
  8
_0-0_計極細
  6
CONTINUOUS
 62
    2
 10
1121.737226277372
 20
967.08678502224461
 11
1121.737226277372
 21
972.68678502224452
  0
LINE
  8
_0-0_計極細
  6
CONTINUOUS
 62
    2
 10
1134.737226277372
 20
967.08678502224461
 11
1134.737226277372
 21
972.68678502224452
  0
LINE
  8
_0-0_計極細
  6
CONTINUOUS
 62
    2
 10
1121.737226277372
 20
989.68678502224088
 11
1121.737226277372
 21
984.08678502224052
  0
LINE
  8
_0-0_計極細
  6
CONTINUOUS
 62
    2
 10
1134.737226277372
 20
989.68678502224088
 11
1134.737226277372
 21
984.08678502224052
  0
LINE
  8
_0-0_計極細
  6
CONTINUOUS
 62
    2
 10
1121.737226277372
 20
1006.6867850222418
 11
1121.737226277372
 21
1001.0867850222414
  0
LINE
  8
_0-0_計極細
  6
CONTINUOUS
 62
    2
 10
1134.737226277372
 20
1006.6867850222418
 11
1134.737226277372
 21
1001.0867850222414
  0
LINE
  8
_0-0_計極細
  6
CONTINUOUS
 62
    2
 10
1121.737226277372
 20
1023.6867850222422
 11
1121.737226277372
 21
1018.0867850222423
  0
LINE
  8
_0-0_計極細
  6
CONTINUOUS
 62
    2
 10
1134.737226277372
 20
1023.6867850222422
 11
1134.737226277372
 21
1018.0867850222423
  0
LINE
  8
_0-0_計極細
  6
CONTINUOUS
 62
    2
 10
1121.737226277372
 20
1108.9867850222429
 11
1121.737226277372
 21
1103.0867850222428
  0
LINE
  8
_0-0_計極細
  6
CONTINUOUS
 62
    2
 10
1134.737226277372
 20
1108.9867850222429
 11
1134.737226277372
 21
1103.0867850222428
  0
LINE
  8
_0-0_計極細
  6
CONTINUOUS
 62
    2
 10
1121.737226277372
 20
881.78678502224398
 11
1121.737226277372
 21
887.68678502224407
  0
LINE
  8
_0-0_計極細
  6
CONTINUOUS
 62
    2
 10
1134.737226277372
 20
881.78678502224398
 11
1134.737226277372
 21
887.68678502224407
  0
LINE
  8
_0-0_計極細
  6
CENTER1
 62
    2
 10
1128.237226277372
 20
1129.1375044467056
 11
1128.237226277372
 21
862.62896128123134
  0
LINE
  8
_0-0_計極細
  6
CONTINUOUS
 62
    2
 10
1121.737226277372
 20
1040.6867850222427
 11
1121.737226277372
 21
1035.0867850222428
  0
LINE
  8
_0-0_計極細
  6
CONTINUOUS
 62
    2
 10
1134.737226277372
 20
1040.6867850222427
 11
1134.737226277372
 21
1035.0867850222428
  0
LINE
  8
_0-0_計極細
  6
CONTINUOUS
 62
    2
 10
1121.737226277372
 20
1057.6867850222436
 11
1121.737226277372
 21
1052.0867850222432
  0
LINE
  8
_0-0_計極細
  6
CONTINUOUS
 62
    2
 10
1134.737226277372
 20
1057.6867850222436
 11
1134.737226277372
 21
1052.0867850222432
  0
LINE
  8
_0-0_計極細
  6
CONTINUOUS
 62
    2
 10
1121.737226277372
 20
1074.6867850222445
 11
1121.737226277372
 21
1069.0867850222442
  0
LINE
  8
_0-0_計極細
  6
CONTINUOUS
 62
    2
 10
1134.737226277372
 20
1074.6867850222445
 11
1134.737226277372
 21
1069.0867850222442
  0
LINE
  8
_0-0_計極細
  6
CONTINUOUS
 62
    2
 10
1121.737226277372
 20
1091.686785022245
 11
1121.737226277372
 21
1086.0867850222451
  0
LINE
  8
_0-0_計極細
  6
CONTINUOUS
 62
    2
 10
1134.737226277372
 20
1091.686785022245
 11
1134.737226277372
 21
1086.0867850222451
  0
LINE
  8
_0-0_計極細
  6
CONTINUOUS
 62
    2
 10
1121.737226277372
 20
950.08678502224416
 11
1121.737226277372
 21
955.68678502224407
  0
LINE
  8
_0-0_計極細
  6
CONTINUOUS
 62
    2
 10
1134.737226277372
 20
950.08678502224416
 11
1134.737226277372
 21
955.68678502224407
  0
LINE
  8
_0-0_計極細
  6
CONTINUOUS
 62
    2
 10
1121.737226277372
 20
933.08678502224325
 11
1121.737226277372
 21
938.68678502224361
  0
LINE
  8
_0-0_計極細
  6
CONTINUOUS
 62
    2
 10
1134.737226277372
 20
933.08678502224325
 11
1134.737226277372
 21
938.68678502224361
  0
LINE
  8
_0-0_計極細
  6
CONTINUOUS
 62
    2
 10
1121.737226277372
 20
916.08678502224234
 11
1121.737226277372
 21
921.6867850222427
  0
LINE
  8
_0-0_計極細
  6
CONTINUOUS
 62
    2
 10
1134.737226277372
 20
916.08678502224234
 11
1134.737226277372
 21
921.6867850222427
  0
LINE
  8
_0-0_計極細
  6
CONTINUOUS
 62
    2
 10
1121.737226277372
 20
899.08678502224188
 11
1121.737226277372
 21
904.68678502224179
  0
LINE
  8
_0-0_計極細
  6
CONTINUOUS
 62
    2
 10
1134.737226277372
 20
899.08678502224188
 11
1134.737226277372
 21
904.68678502224179
  0
LINE
  8
_0-0_計極細
  6
CONTINUOUS
 62
    2
 10
1170.237226277372
 20
967.08678502224461
 11
1170.237226277372
 21
972.68678502224452
  0
LINE
  8
_0-0_計極細
  6
CONTINUOUS
 62
    2
 10
1183.237226277372
 20
967.08678502224461
 11
1183.237226277372
 21
972.68678502224452
  0
LINE
  8
_0-0_計極細
  6
CONTINUOUS
 62
    2
 10
1170.237226277372
 20
989.68678502224088
 11
1170.237226277372
 21
984.08678502224052
  0
LINE
  8
_0-0_計極細
  6
CONTINUOUS
 62
    2
 10
1183.237226277372
 20
989.68678502224088
 11
1183.237226277372
 21
984.08678502224052
  0
LINE
  8
_0-0_計極細
  6
CONTINUOUS
 62
    2
 10
1170.237226277372
 20
1006.6867850222418
 11
1170.237226277372
 21
1001.0867850222414
  0
LINE
  8
_0-0_計極細
  6
CONTINUOUS
 62
    2
 10
1183.237226277372
 20
1006.6867850222418
 11
1183.237226277372
 21
1001.0867850222414
  0
LINE
  8
_0-0_計極細
  6
CONTINUOUS
 62
    2
 10
1170.237226277372
 20
1023.6867850222422
 11
1170.237226277372
 21
1018.0867850222423
  0
LINE
  8
_0-0_計極細
  6
CONTINUOUS
 62
    2
 10
1183.237226277372
 20
1023.6867850222422
 11
1183.237226277372
 21
1018.0867850222423
  0
LINE
  8
_0-0_計極細
  6
CONTINUOUS
 62
    2
 10
1170.237226277372
 20
1108.9867850222429
 11
1170.237226277372
 21
1103.0867850222428
  0
LINE
  8
_0-0_計極細
  6
CONTINUOUS
 62
    2
 10
1183.237226277372
 20
1108.9867850222429
 11
1183.237226277372
 21
1103.0867850222428
  0
LINE
  8
_0-0_計極細
  6
CONTINUOUS
 62
    2
 10
1170.237226277372
 20
881.78678502224398
 11
1170.237226277372
 21
887.68678502224407
  0
LINE
  8
_0-0_計極細
  6
CONTINUOUS
 62
    2
 10
1183.237226277372
 20
881.78678502224398
 11
1183.237226277372
 21
887.68678502224407
  0
LINE
  8
_0-0_計極細
  6
CENTER1
 62
    2
 10
1176.737226277372
 20
1129.1375044467056
 11
1176.737226277372
 21
862.62896128123134
  0
LINE
  8
_0-0_計極細
  6
CONTINUOUS
 62
    2
 10
1170.237226277372
 20
1040.6867850222427
 11
1170.237226277372
 21
1035.0867850222428
  0
LINE
  8
_0-0_計極細
  6
CONTINUOUS
 62
    2
 10
1183.237226277372
 20
1040.6867850222427
 11
1183.237226277372
 21
1035.0867850222428
  0
LINE
  8
_0-0_計極細
  6
CONTINUOUS
 62
    2
 10
1170.237226277372
 20
1057.6867850222436
 11
1170.237226277372
 21
1052.0867850222432
  0
LINE
  8
_0-0_計極細
  6
CONTINUOUS
 62
    2
 10
1183.237226277372
 20
1057.6867850222436
 11
1183.237226277372
 21
1052.0867850222432
  0
LINE
  8
_0-0_計極細
  6
CONTINUOUS
 62
    2
 10
1170.237226277372
 20
1074.6867850222445
 11
1170.237226277372
 21
1069.0867850222442
  0
LINE
  8
_0-0_計極細
  6
CONTINUOUS
 62
    2
 10
1183.237226277372
 20
1074.6867850222445
 11
1183.237226277372
 21
1069.0867850222442
  0
LINE
  8
_0-0_計極細
  6
CONTINUOUS
 62
    2
 10
1170.237226277372
 20
1091.686785022245
 11
1170.237226277372
 21
1086.0867850222451
  0
LINE
  8
_0-0_計極細
  6
CONTINUOUS
 62
    2
 10
1183.237226277372
 20
1091.686785022245
 11
1183.237226277372
 21
1086.0867850222451
  0
LINE
  8
_0-0_計極細
  6
CONTINUOUS
 62
    2
 10
1170.237226277372
 20
950.08678502224416
 11
1170.237226277372
 21
955.68678502224407
  0
LINE
  8
_0-0_計極細
  6
CONTINUOUS
 62
    2
 10
1183.237226277372
 20
950.08678502224416
 11
1183.237226277372
 21
955.68678502224407
  0
LINE
  8
_0-0_計極細
  6
CONTINUOUS
 62
    2
 10
1170.237226277372
 20
933.08678502224325
 11
1170.237226277372
 21
938.68678502224361
  0
LINE
  8
_0-0_計極細
  6
CONTINUOUS
 62
    2
 10
1183.237226277372
 20
933.08678502224325
 11
1183.237226277372
 21
938.68678502224361
  0
LINE
  8
_0-0_計極細
  6
CONTINUOUS
 62
    2
 10
1170.237226277372
 20
916.08678502224234
 11
1170.237226277372
 21
921.6867850222427
  0
LINE
  8
_0-0_計極細
  6
CONTINUOUS
 62
    2
 10
1183.237226277372
 20
916.08678502224234
 11
1183.237226277372
 21
921.6867850222427
  0
LINE
  8
_0-0_計極細
  6
CONTINUOUS
 62
    2
 10
1170.237226277372
 20
899.08678502224188
 11
1170.237226277372
 21
904.68678502224179
  0
LINE
  8
_0-0_計極細
  6
CONTINUOUS
 62
    2
 10
1183.237226277372
 20
899.08678502224188
 11
1183.237226277372
 21
904.68678502224179
  0
LINE
  8
_0-1_計細線
  6
CONTINUOUS
 62
    3
 10
337.73722627737197
 20
1018.0867850222423
 11
1336.737226277372
 21
1018.0867850222423
  0
LINE
  8
_0-1_計細線
  6
CONTINUOUS
 62
    3
 10
1336.737226277372
 20
1018.0867850222423
 11
1336.737226277372
 21
1006.6867850222418
  0
LINE
  8
_0-0_計極細
  6
CONTINUOUS
 62
    2
 10
337.73722627737197
 20
1009.8867850222416
 11
1336.737226277372
 21
1009.8867850222416
  0
LINE
  8
_0-0_計極細
  6
CONTINUOUS
 62
    2
 10
337.73722627737197
 20
1014.8867850222416
 11
1336.737226277372
 21
1014.8867850222416
  0
LINE
  8
_0-1_計細線
  6
CONTINUOUS
 62
    3
 10
337.73722627737197
 20
1018.0867850222423
 11
337.73722627737197
 21
1006.6867850222418
  0
LINE
  8
_0-1_計細線
  6
CONTINUOUS
 62
    3
 10
337.73722627737197
 20
1006.6867850222418
 11
1336.737226277372
 21
1006.6867850222418
  0
LINE
  8
_0-1_計細線
  6
CONTINUOUS
 62
    3
 10
337.73722627737197
 20
989.68678502224088
 11
1336.737226277372
 21
989.68678502224088
  0
LINE
  8
_0-1_計細線
  6
CONTINUOUS
 62
    3
 10
1336.737226277372
 20
1001.0867850222414
 11
1336.737226277372
 21
989.68678502224088
  0
LINE
  8
_0-0_計極細
  6
CONTINUOUS
 62
    2
 10
337.73722627737197
 20
992.88678502224116
 11
1336.737226277372
 21
992.88678502224116
  0
LINE
  8
_0-0_計極細
  6
CONTINUOUS
 62
    2
 10
337.73722627737197
 20
997.88678502224116
 11
1336.737226277372
 21
997.88678502224116
  0
LINE
  8
_0-1_計細線
  6
CONTINUOUS
 62
    3
 10
337.73722627737197
 20
1001.0867850222414
 11
1336.737226277372
 21
1001.0867850222414
  0
LINE
  8
_0-1_計細線
  6
CONTINUOUS
 62
    3
 10
337.73722627737197
 20
1001.0867850222414
 11
337.73722627737197
 21
989.68678502224088
  0
LINE
  8
_0-0_計極細
  6
CONTINUOUS
 62
    2
 10
442.73722627737175
 20
1006.6867850222418
 11
442.73722627737175
 21
1006.2367850222415
  0
LINE
  8
_0-0_計極細
  6
CONTINUOUS
 62
    2
 10
442.73722627737175
 20
1001.5367850222417
 11
442.73722627737175
 21
1001.0867850222414
  0
LINE
  8
_0-0_計極細
  6
CONTINUOUS
 62
    2
 10
455.73722627737175
 20
1006.6867850222418
 11
455.73722627737175
 21
1006.2367850222415
  0
LINE
  8
_0-0_計極細
  6
CONTINUOUS
 62
    2
 10
455.73722627737175
 20
1001.5367850222417
 11
455.73722627737175
 21
1001.0867850222414
  0
LINE
  8
_0-5_寸法線
  6
CONTINUOUS
 62
    7
 10
849.85350104497934
 20
913.63175392004655
 11
857.85350104497923
 21
899.77534745949549
  0
LINE
  8
_0-5_寸法線
  6
CONTINUOUS
 62
    7
 10
849.85350104497934
 20
913.63175392004655
 11
849.85350104497923
 21
897.63175392004655
  0
LINE
  8
_0-5_寸法線
  6
CONTINUOUS
 62
    7
 10
849.85350104497934
 20
913.63175392004655
 11
878.93274622614479
 21
805.10653345818287
  0
LINE
  8
_0-5_寸法線
  6
CONTINUOUS
 62
    7
 10
878.93274622614479
 20
805.10653345818287
 11
1166.9327462261447
 21
805.10653345818287
  0
TEXT
  8
_0-5_寸法線
 62
    7
 10
878.93274622614479
 20
805.10653345818287
 40
24
 41
0.8000000000000001
 50
0
  1
セーフティグレーチング補強仕様
  0
TEXT
  8
_0-5_寸法線
 62
    7
 10
881.87712727496648
 20
779.75614043660903
 40
24
 41
0.7999999999999999
 50
0
  1
ＧＲＳＫ－２０Ｗ２５０
  0
LINE
  8
_0-5_寸法線
  6
CONTINUOUS
 62
    7
 10
300.23722627737016
 20
1125.386785022243
 11
249.73722627737197
 21
1125.386785022243
  0
LINE
  8
_0-5_寸法線
  6
CONTINUOUS
 62
    7
 10
257.73722627737197
 20
1125.386785022243
 11
261.87833099901218
 21
1109.9319718016179
  0
LINE
  8
_0-5_寸法線
  6
CONTINUOUS
 62
    7
 10
257.73722627737197
 20
1125.386785022243
 11
253.59612155573154
 21
1109.9319718016179
  0
LINE
  8
_0-5_寸法線
  6
CONTINUOUS
 62
    7
 10
300.23722627737288
 20
1095.386785022243
 11
249.73722627737197
 21
1095.386785022243
  0
LINE
  8
_0-5_寸法線
  6
CONTINUOUS
 62
    7
 10
257.73722627737197
 20
1095.386785022243
 11
253.59612155573166
 21
1110.841598242868
  0
LINE
  8
_0-5_寸法線
  6
CONTINUOUS
 62
    7
 10
257.73722627737197
 20
1095.386785022243
 11
261.87833099901229
 21
1110.841598242868
  0
LINE
  8
_0-5_寸法線
  6
CONTINUOUS
 62
    7
 10
257.73722627737197
 20
1125.386785022243
 11
257.73722627737197
 21
1095.386785022243
  0
TEXT
  8
_0-5_寸法線
 62
    7
 10
257.73722627737197
 20
1098.386785022243
 40
24
 41
1
 50
90
  1
30
  0
LINE
  8
_0-5_寸法線
  6
CONTINUOUS
 62
    7
 10
257.73722627737197
 20
1095.386785022243
 11
261.87833099901229
 21
1079.9319718016179
  0
LINE
  8
_0-5_寸法線
  6
CONTINUOUS
 62
    7
 10
257.73722627737197
 20
1095.386785022243
 11
253.59612155573166
 21
1079.9319718016179
  0
LINE
  8
_0-5_寸法線
  6
CONTINUOUS
 62
    7
 10
300.23722627737061
 20
895.38678502224298
 11
249.73722627737197
 21
895.38678502224298
  0
LINE
  8
_0-5_寸法線
  6
CONTINUOUS
 62
    7
 10
257.73722627737197
 20
895.38678502224298
 11
253.59612155573166
 21
910.84159824286803
  0
LINE
  8
_0-5_寸法線
  6
CONTINUOUS
 62
    7
 10
257.73722627737197
 20
895.38678502224298
 11
261.87833099901229
 21
910.84159824286803
  0
LINE
  8
_0-5_寸法線
  6
CONTINUOUS
 62
    7
 10
257.73722627737197
 20
1095.386785022243
 11
257.73722627737197
 21
895.38678502224298
  0
TEXT
  8
_0-5_寸法線
 62
    7
 10
257.73722627737197
 20
977.38678502224298
 40
24
 41
1
 50
90
  1
200
  0
LINE
  8
_0-5_寸法線
  6
CONTINUOUS
 62
    7
 10
257.73722627737197
 20
895.38678502224298
 11
261.87833099901229
 21
879.93197180161792
  0
LINE
  8
_0-5_寸法線
  6
CONTINUOUS
 62
    7
 10
257.73722627737197
 20
895.38678502224298
 11
253.59612155573166
 21
879.93197180161792
  0
LINE
  8
_0-5_寸法線
  6
CONTINUOUS
 62
    7
 10
300.23722627737561
 20
865.38678502224616
 11
249.73722627737197
 21
865.38678502224616
  0
LINE
  8
_0-5_寸法線
  6
CONTINUOUS
 62
    7
 10
257.73722627737197
 20
865.38678502224616
 11
253.59612155573166
 21
880.84159824287121
  0
LINE
  8
_0-5_寸法線
  6
CONTINUOUS
 62
    7
 10
257.73722627737197
 20
865.38678502224616
 11
261.87833099901229
 21
880.84159824287121
  0
LINE
  8
_0-5_寸法線
  6
CONTINUOUS
 62
    7
 10
257.73722627737197
 20
895.38678502224298
 11
257.73722627737197
 21
865.38678502224616
  0
TEXT
  8
_0-5_寸法線
 62
    7
 10
257.73722627737197
 20
868.38678502224434
 40
24
 41
1
 50
90
  1
30
  0
LINE
  8
_0-5_寸法線
  6
CONTINUOUS
 62
    7
 10
1374.2372262773717
 20
1125.386785022243
 11
1480.737226277372
 21
1125.386785022243
  0
LINE
  8
_0-5_寸法線
  6
CONTINUOUS
 62
    7
 10
1472.737226277372
 20
1125.386785022243
 11
1476.8783309990122
 21
1109.9319718016179
  0
LINE
  8
_0-5_寸法線
  6
CONTINUOUS
 62
    7
 10
1472.737226277372
 20
1125.386785022243
 11
1468.5961215557315
 21
1109.9319718016179
  0
LINE
  8
_0-5_寸法線
  6
CONTINUOUS
 62
    7
 10
1374.2372262773708
 20
865.38678502223934
 11
1480.7372262773722
 21
865.38678502223934
  0
LINE
  8
_0-5_寸法線
  6
CONTINUOUS
 62
    7
 10
1472.7372262773722
 20
865.38678502223934
 11
1468.5961215557318
 21
880.84159824286439
  0
LINE
  8
_0-5_寸法線
  6
CONTINUOUS
 62
    7
 10
1472.7372262773722
 20
865.38678502223934
 11
1476.8783309990124
 21
880.84159824286439
  0
LINE
  8
_0-5_寸法線
  6
CONTINUOUS
 62
    7
 10
1472.737226277372
 20
1125.386785022243
 11
1472.7372262773722
 21
865.38678502223934
  0
TEXT
  8
_0-5_寸法線
 62
    7
 10
1472.7372262773724
 20
977.38678502224116
 40
24
 41
1
 50
90
  1
260
  0
LINE
  8
_0-7_枠細線
  6
CONTINUOUS
 62
    5
 10
776.72936129738855
 20
1231.3957895909032
 11
764.72936129738855
 21
1255.3957895909032
  0
LINE
  8
_0-7_枠細線
  6
CONTINUOUS
 62
    5
 10
752.72936129738855
 20
1231.3957895909032
 11
776.72936129738855
 21
1231.3957895909032
  0
LINE
  8
_0-7_枠細線
  6
CONTINUOUS
 62
    5
 10
764.72936129738855
 20
1255.3957895909032
 11
752.72936129738855
 21
1231.3957895909032
  0
TEXT
  8
_0-7_枠細線
 62
    5
 10
756.51360332642571
 20
1230.9045859982941
 40
20
 41
0.8
 50
0
  1
１
  0
LINE
  8
_0-5_寸法線
  6
CONTINUOUS
 62
    7
 10
1416.7372262773722
 20
1125.386785022243
 11
1412.596121555732
 21
1140.841598242868
  0
LINE
  8
_0-5_寸法線
  6
CONTINUOUS
 62
    7
 10
1416.7372262773722
 20
1125.386785022243
 11
1420.8783309990126
 21
1140.841598242868
  0
LINE
  8
_0-5_寸法線
  6
CONTINUOUS
 62
    7
 10
1374.2372262773717
 20
1122.386785022243
 11
1424.7372262773722
 21
1122.386785022243
  0
CIRCLE
  8
_0-5_寸法線
  6
CONTINUOUS
 62
    1
 10
1416.7372262773722
 20
1122.386785022243
 40
2.4000000000000004
  0
LINE
  8
_0-5_寸法線
  6
CONTINUOUS
 62
    7
 10
1416.7372262773722
 20
1165.386785022243
 11
1416.7372262773722
 21
1122.386785022243
  0
TEXT
  8
_0-5_寸法線
 62
    7
 10
1416.7372262773722
 20
1149.756903106417
 40
24
 41
1
 50
90
  1
3
  0
LINE
  8
_0-5_寸法線
  6
CONTINUOUS
 62
    7
 10
1374.2372262773717
 20
1120.3867850222439
 11
1424.7372262773722
 21
1120.3867850222439
  0
LINE
  8
_0-5_寸法線
  6
CONTINUOUS
 62
    7
 10
1416.7372262773722
 20
1122.386785022243
 11
1416.7372262773722
 21
1120.3867850222439
  0
TEXT
  8
_0-5_寸法線
 62
    7
 10
1448.8782173095287
 20
1110.1793083363264
 40
24
 41
1
 50
90
  1
2
  0
LINE
  8
_0-5_寸法線
  6
CONTINUOUS
 62
    7
 10
1416.7372262773722
 20
1120.3867850222439
 11
1420.8783309990124
 21
1104.9319718016188
  0
LINE
  8
_0-5_寸法線
  6
CONTINUOUS
 62
    7
 10
1416.7372262773722
 20
1120.3867850222439
 11
1412.5961215557318
 21
1104.9319718016188
  0
LINE
  8
_0-5_寸法線
  6
CONTINUOUS
 62
    7
 10
1374.2372262773717
 20
870.38678502224343
 11
1424.7372262773727
 21
870.38678502224343
  0
LINE
  8
_0-5_寸法線
  6
CONTINUOUS
 62
    7
 10
1416.7372262773727
 20
870.38678502224343
 11
1412.5961215557322
 21
885.84159824286849
  0
LINE
  8
_0-5_寸法線
  6
CONTINUOUS
 62
    7
 10
1416.7372262773727
 20
870.38678502224343
 11
1420.8783309990129
 21
885.84159824286849
  0
LINE
  8
_0-5_寸法線
  6
CONTINUOUS
 62
    7
 10
1416.7372262773722
 20
1120.3867850222439
 11
1416.7372262773727
 21
870.38678502224343
  0
TEXT
  8
_0-5_寸法線
 62
    7
 10
1416.7372262773724
 20
977.38678502224388
 40
24
 41
1
 50
90
  1
250
  0
LINE
  8
_0-5_寸法線
  6
CONTINUOUS
 62
    7
 10
1374.2372262773717
 20
868.38678502224434
 11
1424.7372262773724
 21
868.38678502224434
  0
CIRCLE
  8
_0-5_寸法線
  6
CONTINUOUS
 62
    1
 10
1416.7372262773724
 20
868.38678502224434
 40
2.4000000000000004
  0
LINE
  8
_0-5_寸法線
  6
CONTINUOUS
 62
    7
 10
1416.7372262773727
 20
870.38678502224343
 11
1416.7372262773724
 21
868.38678502224434
  0
TEXT
  8
_0-5_寸法線
 62
    7
 10
1446.8394920999754
 20
870.38678502224343
 40
24
 41
1
 50
90
  1
2
  0
LINE
  8
_0-5_寸法線
  6
CONTINUOUS
 62
    7
 10
1416.7372262773724
 20
865.38678502223934
 11
1420.8783309990126
 21
849.93197180161428
  0
LINE
  8
_0-5_寸法線
  6
CONTINUOUS
 62
    7
 10
1416.7372262773724
 20
865.38678502223934
 11
1412.596121555732
 21
849.93197180161428
  0
LINE
  8
_0-5_寸法線
  6
CONTINUOUS
 62
    7
 10
1416.7372262773724
 20
868.38678502224434
 11
1416.7372262773724
 21
825.38678502223934
  0
TEXT
  8
_0-5_寸法線
 62
    7
 10
1416.7372262773724
 20
831.57545147378312
 40
24
 41
1
 50
90
  1
3
  0
LINE
  8
_0-5_寸法線
  6
CONTINUOUS
 62
    7
 10
1322.237226277372
 20
1141.3867850222434
 11
1322.2372262773722
 21
1213.386785022243
  0
LINE
  8
_0-5_寸法線
  6
CONTINUOUS
 62
    7
 10
1322.2372262773722
 20
1205.386785022243
 11
1337.6920394979973
 21
1209.5278897438834
  0
LINE
  8
_0-5_寸法線
  6
CONTINUOUS
 62
    7
 10
1322.2372262773722
 20
1205.386785022243
 11
1337.6920394979973
 21
1201.2456803006025
  0
LINE
  8
_0-5_寸法線
  6
CONTINUOUS
 62
    7
 10
1336.737226277372
 20
1141.3867850222434
 11
1336.7372262773722
 21
1213.386785022243
  0
LINE
  8
_0-5_寸法線
  6
CONTINUOUS
 62
    7
 10
1336.7372262773722
 20
1205.386785022243
 11
1321.2824130567471
 21
1201.2456803006028
  0
LINE
  8
_0-5_寸法線
  6
CONTINUOUS
 62
    7
 10
1336.7372262773722
 20
1205.386785022243
 11
1321.2824130567471
 21
1209.5278897438834
  0
LINE
  8
_0-5_寸法線
  6
CONTINUOUS
 62
    7
 10
1322.2372262773722
 20
1205.386785022243
 11
1336.7372262773722
 21
1205.386785022243
  0
TEXT
  8
_0-5_寸法線
 62
    7
 10
1317.4872262773717
 20
1205.3867850222425
 40
24
 41
1
 50
0
  1
Ａ
  0
LINE
  8
_0-5_寸法線
  6
CONTINUOUS
 62
    7
 10
337.73722627737197
 20
1141.3867850222425
 11
337.73722627737232
 21
1269.3867850222425
  0
LINE
  8
_0-5_寸法線
  6
CONTINUOUS
 62
    7
 10
337.73722627737232
 20
1261.3867850222425
 11
349.32833619284111
 21
1264.4926135634728
  0
LINE
  8
_0-5_寸法線
  6
CONTINUOUS
 62
    7
 10
337.73722627737232
 20
1261.3867850222425
 11
349.32833619284111
 21
1258.2809564810123
  0
LINE
  8
_0-5_寸法線
  6
CONTINUOUS
 62
    7
 10
1336.737226277372
 20
1141.3867850222425
 11
1336.7372262773722
 21
1269.3867850222425
  0
LINE
  8
_0-5_寸法線
  6
CONTINUOUS
 62
    7
 10
1336.7372262773722
 20
1261.3867850222425
 11
1325.1461163619033
 21
1258.2809564810123
  0
LINE
  8
_0-5_寸法線
  6
CONTINUOUS
 62
    7
 10
1336.7372262773722
 20
1261.3867850222425
 11
1325.1461163619033
 21
1264.4926135634728
  0
LINE
  8
_0-5_寸法線
  6
CONTINUOUS
 62
    7
 10
337.73722627737232
 20
1261.3867850222425
 11
1336.7372262773722
 21
1261.3867850222425
  0
TEXT
  8
_0-5_寸法線
 62
    7
 10
825.23722627737254
 20
1261.3867850222425
 40
24
 41
1
 50
0
  1
Ｌ
  0
LINE
  8
_0-5_寸法線
  6
CONTINUOUS
 62
    7
 10
337.73722627737197
 20
1141.3867850222434
 11
337.73722627737243
 21
1213.3867850222425
  0
LINE
  8
_0-5_寸法線
  6
CONTINUOUS
 62
    7
 10
337.73722627737232
 20
1205.3867850222425
 11
353.19203949799748
 21
1209.527889743883
  0
LINE
  8
_0-5_寸法線
  6
CONTINUOUS
 62
    7
 10
337.73722627737232
 20
1205.3867850222425
 11
353.19203949799748
 21
1201.2456803006021
  0
LINE
  8
_0-5_寸法線
  6
CONTINUOUS
 62
    7
 10
352.23722627737175
 20
1141.3867850222434
 11
352.2372262773722
 21
1213.3867850222425
  0
LINE
  8
_0-5_寸法線
  6
CONTINUOUS
 62
    7
 10
352.23722627737209
 20
1205.3867850222425
 11
336.78241305674692
 21
1201.2456803006023
  0
LINE
  8
_0-5_寸法線
  6
CONTINUOUS
 62
    7
 10
352.23722627737209
 20
1205.3867850222425
 11
336.78241305674703
 21
1209.527889743883
  0
LINE
  8
_0-5_寸法線
  6
CONTINUOUS
 62
    7
 10
337.73722627737232
 20
1205.3867850222425
 11
352.23722627737209
 21
1205.3867850222425
  0
TEXT
  8
_0-5_寸法線
 62
    7
 10
332.98722627737141
 20
1205.3867850222425
 40
24
 41
1
 50
0
  1
Ａ
  0
LINE
  8
_0-7_枠細線
  6
CONTINUOUS
 62
    5
 10
793.14584082690953
 20
1255.3957895909032
 11
781.14584082690953
 21
1231.3957895909032
  0
LINE
  8
_0-7_枠細線
  6
CONTINUOUS
 62
    5
 10
781.14584082690953
 20
1231.3957895909032
 11
805.14584082690953
 21
1231.3957895909032
  0
LINE
  8
_0-7_枠細線
  6
CONTINUOUS
 62
    5
 10
805.14584082690953
 20
1231.3957895909032
 11
793.14584082690953
 21
1255.3957895909032
  0
LINE
  8
_0-0_計極細
  6
CONTINUOUS
 62
    2
 10
394.23722627737175
 20
967.08678502224461
 11
394.23722627737175
 21
972.68678502224452
  0
LINE
  8
_0-0_計極細
  6
CONTINUOUS
 62
    2
 10
407.23722627737175
 20
967.08678502224461
 11
407.23722627737175
 21
972.68678502224452
  0
LINE
  8
_0-0_計極細
  6
CONTINUOUS
 62
    2
 10
394.23722627737175
 20
989.68678502224088
 11
394.23722627737175
 21
984.08678502224052
  0
LINE
  8
_0-0_計極細
  6
CONTINUOUS
 62
    2
 10
407.23722627737175
 20
989.68678502224088
 11
407.23722627737175
 21
984.08678502224052
  0
LINE
  8
_0-0_計極細
  6
CONTINUOUS
 62
    2
 10
394.23722627737175
 20
1006.6867850222418
 11
394.23722627737175
 21
1001.0867850222414
  0
LINE
  8
_0-0_計極細
  6
CONTINUOUS
 62
    2
 10
407.23722627737175
 20
1006.6867850222418
 11
407.23722627737175
 21
1001.0867850222414
  0
LINE
  8
_0-0_計極細
  6
CONTINUOUS
 62
    2
 10
394.23722627737175
 20
1023.6867850222422
 11
394.23722627737175
 21
1018.0867850222423
  0
LINE
  8
_0-0_計極細
  6
CONTINUOUS
 62
    2
 10
407.23722627737175
 20
1023.6867850222422
 11
407.23722627737175
 21
1018.0867850222423
  0
LINE
  8
_0-0_計極細
  6
CONTINUOUS
 62
    2
 10
394.23722627737175
 20
1108.9867850222429
 11
394.23722627737175
 21
1103.0867850222428
  0
LINE
  8
_0-0_計極細
  6
CONTINUOUS
 62
    2
 10
407.23722627737175
 20
1108.9867850222429
 11
407.23722627737175
 21
1103.0867850222428
  0
LINE
  8
_0-0_計極細
  6
CONTINUOUS
 62
    2
 10
394.23722627737175
 20
881.78678502224398
 11
394.23722627737175
 21
887.68678502224407
  0
LINE
  8
_0-0_計極細
  6
CONTINUOUS
 62
    2
 10
407.23722627737175
 20
881.78678502224398
 11
407.23722627737175
 21
887.68678502224407
  0
LINE
  8
_0-0_計極細
  6
CENTER1
 62
    2
 10
400.73722627737175
 20
1129.1375044467056
 11
400.73722627737175
 21
862.62896128123134
  0
LINE
  8
_0-0_計極細
  6
CONTINUOUS
 62
    2
 10
394.23722627737175
 20
1040.6867850222427
 11
394.23722627737175
 21
1035.0867850222428
  0
LINE
  8
_0-0_計極細
  6
CONTINUOUS
 62
    2
 10
407.23722627737175
 20
1040.6867850222427
 11
407.23722627737175
 21
1035.0867850222428
  0
LINE
  8
_0-0_計極細
  6
CONTINUOUS
 62
    2
 10
394.23722627737175
 20
1057.6867850222436
 11
394.23722627737175
 21
1052.0867850222432
  0
LINE
  8
_0-0_計極細
  6
CONTINUOUS
 62
    2
 10
407.23722627737175
 20
1057.6867850222436
 11
407.23722627737175
 21
1052.0867850222432
  0
LINE
  8
_0-0_計極細
  6
CONTINUOUS
 62
    2
 10
394.23722627737175
 20
1074.6867850222445
 11
394.23722627737175
 21
1069.0867850222442
  0
LINE
  8
_0-0_計極細
  6
CONTINUOUS
 62
    2
 10
407.23722627737175
 20
1074.6867850222445
 11
407.23722627737175
 21
1069.0867850222442
  0
LINE
  8
_0-0_計極細
  6
CONTINUOUS
 62
    2
 10
394.23722627737175
 20
1091.686785022245
 11
394.23722627737175
 21
1086.0867850222451
  0
LINE
  8
_0-0_計極細
  6
CONTINUOUS
 62
    2
 10
407.23722627737175
 20
1091.686785022245
 11
407.23722627737175
 21
1086.0867850222451
  0
LINE
  8
_0-0_計極細
  6
CONTINUOUS
 62
    2
 10
394.23722627737175
 20
950.08678502224416
 11
394.23722627737175
 21
955.68678502224407
  0
LINE
  8
_0-0_計極細
  6
CONTINUOUS
 62
    2
 10
407.23722627737175
 20
950.08678502224416
 11
407.23722627737175
 21
955.68678502224407
  0
LINE
  8
_0-0_計極細
  6
CONTINUOUS
 62
    2
 10
394.23722627737175
 20
933.08678502224325
 11
394.23722627737175
 21
938.68678502224361
  0
LINE
  8
_0-0_計極細
  6
CONTINUOUS
 62
    2
 10
407.23722627737175
 20
933.08678502224325
 11
407.23722627737175
 21
938.68678502224361
  0
LINE
  8
_0-0_計極細
  6
CONTINUOUS
 62
    2
 10
394.23722627737175
 20
916.08678502224234
 11
394.23722627737175
 21
921.6867850222427
  0
LINE
  8
_0-0_計極細
  6
CONTINUOUS
 62
    2
 10
407.23722627737175
 20
916.08678502224234
 11
407.23722627737175
 21
921.6867850222427
  0
LINE
  8
_0-0_計極細
  6
CONTINUOUS
 62
    2
 10
394.23722627737175
 20
899.08678502224188
 11
394.23722627737175
 21
904.68678502224179
  0
LINE
  8
_0-0_計極細
  6
CONTINUOUS
 62
    2
 10
407.23722627737175
 20
899.08678502224188
 11
407.23722627737175
 21
904.68678502224179
  0
LINE
  8
_0-0_計極細
  6
CONTINUOUS
 62
    2
 10
1267.237226277372
 20
967.08678502224461
 11
1267.237226277372
 21
972.68678502224452
  0
LINE
  8
_0-0_計極細
  6
CONTINUOUS
 62
    2
 10
1280.237226277372
 20
967.08678502224461
 11
1280.237226277372
 21
972.68678502224452
  0
LINE
  8
_0-0_計極細
  6
CONTINUOUS
 62
    2
 10
1267.237226277372
 20
989.68678502224088
 11
1267.237226277372
 21
984.08678502224052
  0
LINE
  8
_0-0_計極細
  6
CONTINUOUS
 62
    2
 10
1280.237226277372
 20
989.68678502224088
 11
1280.237226277372
 21
984.08678502224052
  0
LINE
  8
_0-0_計極細
  6
CONTINUOUS
 62
    2
 10
1267.237226277372
 20
1006.6867850222418
 11
1267.237226277372
 21
1001.0867850222414
  0
LINE
  8
_0-0_計極細
  6
CONTINUOUS
 62
    2
 10
1280.237226277372
 20
1006.6867850222418
 11
1280.237226277372
 21
1001.0867850222414
  0
LINE
  8
_0-0_計極細
  6
CONTINUOUS
 62
    2
 10
1267.237226277372
 20
1023.6867850222422
 11
1267.237226277372
 21
1018.0867850222423
  0
LINE
  8
_0-0_計極細
  6
CONTINUOUS
 62
    2
 10
1280.237226277372
 20
1023.6867850222422
 11
1280.237226277372
 21
1018.0867850222423
  0
LINE
  8
_0-0_計極細
  6
CONTINUOUS
 62
    2
 10
1267.237226277372
 20
1108.9867850222429
 11
1267.237226277372
 21
1103.0867850222428
  0
LINE
  8
_0-0_計極細
  6
CONTINUOUS
 62
    2
 10
1280.237226277372
 20
1108.9867850222429
 11
1280.237226277372
 21
1103.0867850222428
  0
LINE
  8
_0-0_計極細
  6
CONTINUOUS
 62
    2
 10
1267.237226277372
 20
881.78678502224398
 11
1267.237226277372
 21
887.68678502224407
  0
LINE
  8
_0-0_計極細
  6
CONTINUOUS
 62
    2
 10
1280.237226277372
 20
881.78678502224398
 11
1280.237226277372
 21
887.68678502224407
  0
LINE
  8
_0-0_計極細
  6
CENTER1
 62
    2
 10
1273.737226277372
 20
1129.1375044467056
 11
1273.737226277372
 21
862.62896128123134
  0
LINE
  8
_0-0_計極細
  6
CONTINUOUS
 62
    2
 10
1267.237226277372
 20
1040.6867850222427
 11
1267.237226277372
 21
1035.0867850222428
  0
LINE
  8
_0-0_計極細
  6
CONTINUOUS
 62
    2
 10
1280.237226277372
 20
1040.6867850222427
 11
1280.237226277372
 21
1035.0867850222428
  0
LINE
  8
_0-0_計極細
  6
CONTINUOUS
 62
    2
 10
1267.237226277372
 20
1057.6867850222436
 11
1267.237226277372
 21
1052.0867850222432
  0
LINE
  8
_0-0_計極細
  6
CONTINUOUS
 62
    2
 10
1280.237226277372
 20
1057.6867850222436
 11
1280.237226277372
 21
1052.0867850222432
  0
LINE
  8
_0-0_計極細
  6
CONTINUOUS
 62
    2
 10
1267.237226277372
 20
1074.6867850222445
 11
1267.237226277372
 21
1069.0867850222442
  0
LINE
  8
_0-0_計極細
  6
CONTINUOUS
 62
    2
 10
1280.237226277372
 20
1074.6867850222445
 11
1280.237226277372
 21
1069.0867850222442
  0
LINE
  8
_0-0_計極細
  6
CONTINUOUS
 62
    2
 10
1267.237226277372
 20
1091.686785022245
 11
1267.237226277372
 21
1086.0867850222451
  0
LINE
  8
_0-0_計極細
  6
CONTINUOUS
 62
    2
 10
1280.237226277372
 20
1091.686785022245
 11
1280.237226277372
 21
1086.0867850222451
  0
LINE
  8
_0-0_計極細
  6
CONTINUOUS
 62
    2
 10
1267.237226277372
 20
950.08678502224416
 11
1267.237226277372
 21
955.68678502224407
  0
LINE
  8
_0-0_計極細
  6
CONTINUOUS
 62
    2
 10
1280.237226277372
 20
950.08678502224416
 11
1280.237226277372
 21
955.68678502224407
  0
LINE
  8
_0-0_計極細
  6
CONTINUOUS
 62
    2
 10
1267.237226277372
 20
933.08678502224325
 11
1267.237226277372
 21
938.68678502224361
  0
LINE
  8
_0-0_計極細
  6
CONTINUOUS
 62
    2
 10
1280.237226277372
 20
933.08678502224325
 11
1280.237226277372
 21
938.68678502224361
  0
LINE
  8
_0-0_計極細
  6
CONTINUOUS
 62
    2
 10
1267.237226277372
 20
916.08678502224234
 11
1267.237226277372
 21
921.6867850222427
  0
LINE
  8
_0-0_計極細
  6
CONTINUOUS
 62
    2
 10
1280.237226277372
 20
916.08678502224234
 11
1280.237226277372
 21
921.6867850222427
  0
LINE
  8
_0-0_計極細
  6
CONTINUOUS
 62
    2
 10
1267.237226277372
 20
899.08678502224188
 11
1267.237226277372
 21
904.68678502224179
  0
LINE
  8
_0-0_計極細
  6
CONTINUOUS
 62
    2
 10
1280.237226277372
 20
899.08678502224188
 11
1280.237226277372
 21
904.68678502224179
  0
LINE
  8
_0-5_寸法線
  6
CONTINUOUS
 62
    7
 10
740.23722627737186
 20
1141.386785022243
 11
740.23722627737197
 21
1213.386785022243
  0
LINE
  8
_0-5_寸法線
  6
CONTINUOUS
 62
    7
 10
740.23722627737197
 20
1205.386785022243
 11
755.69203949799703
 21
1209.5278897438834
  0
LINE
  8
_0-5_寸法線
  6
CONTINUOUS
 62
    7
 10
740.23722627737197
 20
1205.386785022243
 11
755.69203949799703
 21
1201.2456803006025
  0
LINE
  8
_0-5_寸法線
  6
CONTINUOUS
 62
    7
 10
788.73722627737186
 20
1141.386785022243
 11
788.73722627737197
 21
1213.386785022243
  0
LINE
  8
_0-5_寸法線
  6
CONTINUOUS
 62
    7
 10
788.73722627737197
 20
1205.386785022243
 11
773.28241305674692
 21
1201.2456803006028
  0
LINE
  8
_0-5_寸法線
  6
CONTINUOUS
 62
    7
 10
788.73722627737197
 20
1205.386785022243
 11
773.28241305674692
 21
1209.5278897438834
  0
LINE
  8
_0-5_寸法線
  6
CONTINUOUS
 62
    7
 10
740.23722627737197
 20
1205.386785022243
 11
788.73722627737197
 21
1205.386785022243
  0
TEXT
  8
_0-5_寸法線
 62
    7
 10
740.4872262773722
 20
1205.386785022243
 40
24
 41
1
 50
0
  1
48.5
  0
LINE
  8
_0-5_寸法線
  6
CONTINUOUS
 62
    7
 10
788.73722627737197
 20
1205.386785022243
 11
804.19203949799714
 21
1209.5278897438832
  0
LINE
  8
_0-5_寸法線
  6
CONTINUOUS
 62
    7
 10
788.73722627737197
 20
1205.386785022243
 11
804.19203949799703
 21
1201.2456803006025
  0
LINE
  8
_0-5_寸法線
  6
CONTINUOUS
 62
    7
 10
837.23722627737186
 20
1141.386785022243
 11
837.23722627737197
 21
1213.386785022243
  0
LINE
  8
_0-5_寸法線
  6
CONTINUOUS
 62
    7
 10
837.23722627737197
 20
1205.386785022243
 11
821.78241305674692
 21
1201.2456803006028
  0
LINE
  8
_0-5_寸法線
  6
CONTINUOUS
 62
    7
 10
837.23722627737197
 20
1205.386785022243
 11
821.78241305674692
 21
1209.5278897438834
  0
LINE
  8
_0-5_寸法線
  6
CONTINUOUS
 62
    7
 10
788.73722627737197
 20
1205.386785022243
 11
837.23722627737197
 21
1205.386785022243
  0
TEXT
  8
_0-5_寸法線
 62
    7
 10
788.98722627737197
 20
1181.386785022243
 40
24
 41
1
 50
0
  1
48.5
  0
LINE
  8
_0-5_寸法線
  6
CONTINUOUS
 62
    7
 10
837.23722627737197
 20
1205.386785022243
 11
852.69203949799714
 21
1209.5278897438832
  0
LINE
  8
_0-5_寸法線
  6
CONTINUOUS
 62
    7
 10
837.23722627737197
 20
1205.386785022243
 11
852.69203949799703
 21
1201.2456803006025
  0
LINE
  8
_0-5_寸法線
  6
CONTINUOUS
 62
    7
 10
885.73722627737186
 20
1141.386785022243
 11
885.73722627737197
 21
1213.386785022243
  0
LINE
  8
_0-5_寸法線
  6
CONTINUOUS
 62
    7
 10
885.73722627737197
 20
1205.386785022243
 11
870.28241305674692
 21
1201.2456803006028
  0
LINE
  8
_0-5_寸法線
  6
CONTINUOUS
 62
    7
 10
885.73722627737197
 20
1205.386785022243
 11
870.28241305674692
 21
1209.5278897438834
  0
LINE
  8
_0-5_寸法線
  6
CONTINUOUS
 62
    7
 10
837.23722627737197
 20
1205.386785022243
 11
885.73722627737197
 21
1205.386785022243
  0
TEXT
  8
_0-5_寸法線
 62
    7
 10
849.4872262773722
 20
1205.386785022243
 40
24
 41
1
 50
0
  1
Ｂ
  0
LINE
  8
_0-1_計細線
  6
CONTINUOUS
 62
    3
 10
410.23722627737129
 20
1001.5367850222417
 11
463.23722627737129
 21
1001.5367850222417
  0
LINE
  8
_0-1_計細線
  6
CONTINUOUS
 62
    3
 10
463.23722627737129
 20
1006.2367850222415
 11
410.23722627737129
 21
1006.2367850222415
  0
LINE
  8
_0-1_計細線
  6
CONTINUOUS
 62
    3
 10
410.23722627737129
 20
1006.2367850222415
 11
410.23722627737129
 21
1001.5367850222417
  0
LINE
  8
_0-1_計細線
  6
CONTINUOUS
 62
    3
 10
453.23722627737129
 20
1006.2367850222415
 11
453.23722627737129
 21
1001.5367850222417
  0
LINE
  8
_0-1_計細線
  6
CONTINUOUS
 62
    3
 10
461.23722627737129
 20
1006.2367850222415
 11
461.23722627737129
 21
1001.5367850222417
  0
LINE
  8
_0-1_計細線
  6
CONTINUOUS
 62
    3
 10
463.23722627737129
 20
1006.2367850222415
 11
463.23722627737129
 21
1001.5367850222417
  0
LINE
  8
_0-1_計細線
  6
CONTINUOUS
 62
    3
 10
459.23722627737129
 20
1006.2367850222415
 11
459.23722627737129
 21
1001.5367850222417
  0
LINE
  8
_0-1_計細線
  6
CONTINUOUS
 62
    3
 10
457.23722627737129
 20
1006.2367850222415
 11
457.23722627737129
 21
1001.5367850222417
  0
LINE
  8
_0-1_計細線
  6
CONTINUOUS
 62
    3
 10
455.23722627737129
 20
1006.2367850222415
 11
455.23722627737129
 21
1001.5367850222417
  0
CIRCLE
  8
_0-a_極細3
  6
CONTINUOUS
 62
    7
 10
1341.2578689514364
 20
384.92464904433001
 40
0.884938271604915
  0
LINE
  8
_0-a_極細3
  6
CENTER1
 62
    7
 10
818.91970803209006
 20
364.0426059416954
 11
818.91970803209006
 21
465.56260594170527
  0
LINE
  8
_0-a_極細3
  6
CONTINUOUS
 62
    7
 10
365.58637469875578
 20
371.27326645174838
 11
365.58637469875578
 21
261.93993311841473
  0
LINE
  8
_0-a_極細3
  6
CONTINUOUS
 62
    7
 10
498.91970803209006
 20
261.93993311841473
 11
365.58637469875578
 21
261.93993311841473
  0
LINE
  8
_0-a_極細3
  6
CONTINUOUS
 62
    7
 10
365.58637469875578
 20
371.27326645174838
 11
316.23531259990602
 21
371.27326645174838
  0
LINE
  8
_0-a_極細3
  6
CONTINUOUS
 62
    7
 10
498.91970803209006
 20
261.93993311841473
 11
498.91970803209006
 21
219.95337264676857
  0
LINE
  8
_0-a_極細3
  6
CONTINUOUS
 62
    7
 10
439.04454872810652
 20
219.95337283306731
 11
481.03110901345394
 21
261.93993311841473
  0
LINE
  8
_0-a_極細3
  6
CONTINUOUS
 62
    7
 10
325.90746409027963
 20
219.95337318508825
 11
367.89402402360611
 21
261.93993311841473
  0
LINE
  8
_0-a_極細3
  6
CONTINUOUS
 62
    7
 10
316.23531259990602
 20
323.41830668456237
 11
364.09027236709267
 21
371.27326645174838
  0
LINE
  8
_0-a_極細3
  6
CONTINUOUS
 62
    7
 10
427.73084026432377
 20
219.95337286826975
 11
469.71740051446875
 21
261.93993311841473
  0
LINE
  8
_0-a_極細3
  6
CONTINUOUS
 62
    7
 10
316.23531259990602
 20
221.59493019369984
 11
365.58637469875578
 21
270.94599229254959
  0
LINE
  8
_0-a_極細3
  6
CONTINUOUS
 62
    7
 10
316.23531259990602
 20
334.73201518354767
 11
352.77656386810747
 21
371.27326645174838
  0
LINE
  8
_0-a_極細3
  6
CONTINUOUS
 62
    7
 10
416.41713180054103
 20
219.95337290347163
 11
458.40369201548492
 21
261.93993311841473
  0
LINE
  8
_0-a_極細3
  6
CONTINUOUS
 62
    7
 10
316.23531259990602
 20
232.90863869268435
 11
365.58637469875578
 21
282.2597007915349
  0
LINE
  8
_0-a_極細3
  6
CONTINUOUS
 62
    7
 10
316.23531259990602
 20
346.04572368253213
 11
341.46285536912228
 21
371.27326645174838
  0
CIRCLE
  8
_0-a_極細3
  6
CONTINUOUS
 62
    7
 10
344.86873314897423
 20
395.59872311840445
 40
0.884938271604915
  0
CIRCLE
  8
_0-a_極細3
  6
CONTINUOUS
 62
    7
 10
328.33935043292479
 20
379.66983422951603
 40
0.884938271604915
  0
CIRCLE
  8
_0-a_極細3
  6
CONTINUOUS
 62
    7
 10
345.3112022847771
 20
381.37650089618256
 40
0.884938271604915
  0
CIRCLE
  8
_0-a_極細3
  6
CONTINUOUS
 62
    7
 10
365.50675784033274
 20
384.50538978507103
 40
0.884938271604915
  0
CIRCLE
  8
_0-a_極細3
  6
CONTINUOUS
 62
    7
 10
411.01786895144221
 20
403.27872311840406
 40
0.884938271604915
  0
CIRCLE
  8
_0-a_極細3
  6
CONTINUOUS
 62
    7
 10
450.84009117366418
 20
419.20761200729322
 40
0.884938271604915
  0
CIRCLE
  8
_0-a_極細3
  6
CONTINUOUS
 62
    7
 10
459.94231339588623
 20
393.32316756284854
 40
0.884938271604915
  0
CIRCLE
  8
_0-a_極細3
  6
CONTINUOUS
 62
    7
 10
420.12009117366438
 20
392.4698342295153
 40
0.884938271604915
  0
CIRCLE
  8
_0-a_極細3
  6
CONTINUOUS
 62
    7
 10
401.3467578403322
 20
416.36316756284799
 40
0.884938271604915
  0
CIRCLE
  8
_0-a_極細3
  6
CONTINUOUS
 62
    7
 10
376.6178689514436
 20
372.89650089618226
 40
0.884938271604915
  0
CIRCLE
  8
_0-a_極細3
  6
CONTINUOUS
 62
    7
 10
409.32898006255323
 20
370.90538978507107
 40
0.884938271604915
  0
CIRCLE
  8
_0-a_極細3
  6
CONTINUOUS
 62
    7
 10
449.4356467292198
 20
364.93205645173731
 40
0.884938271604915
  0
CIRCLE
  8
_0-a_極細3
  6
CONTINUOUS
 62
    7
 10
429.24009117366404
 20
355.82983422951514
 40
0.884938271604915
  0
CIRCLE
  8
_0-a_極細3
  6
CONTINUOUS
 62
    7
 10
405.6312022847768
 20
334.21205645173762
 40
0.884938271604915
  0
CIRCLE
  8
_0-a_極細3
  6
CONTINUOUS
 62
    7
 10
449.4356467292198
 20
345.87427867396036
 40
0.884938271604915
  0
CIRCLE
  8
_0-a_極細3
  6
CONTINUOUS
 62
    7
 10
383.65786895144311
 20
302.49650089618228
 40
0.884938271604915
  0
CIRCLE
  8
_0-a_極細3
  6
CONTINUOUS
 62
    7
 10
374.55564672922083
 20
273.76761200729379
 40
0.884938271604915
  0
CIRCLE
  8
_0-a_極細3
  6
CONTINUOUS
 62
    7
 10
388.49342450699805
 20
284.57650089618255
 40
0.884938271604915
  0
CIRCLE
  8
_0-a_極細3
  6
CONTINUOUS
 62
    7
 10
398.44898006255426
 20
270.92316756285004
 40
0.884938271604915
  0
CIRCLE
  8
_0-a_極細3
  6
CONTINUOUS
 62
    7
 10
461.32898006255323
 20
299.54538978507185
 40
0.884938271604915
  0
CIRCLE
  8
_0-a_極細3
  6
CONTINUOUS
 62
    7
 10
443.40898006255338
 20
290.7276120072944
 40
0.884938271604915
  0
CIRCLE
  8
_0-a_極細3
  6
CONTINUOUS
 62
    7
 10
453.36453561810958
 20
286.74538978507189
 40
0.884938271604915
  0
CIRCLE
  8
_0-a_極細3
  6
CONTINUOUS
 62
    7
 10
447.6756467292206
 20
271.95427867396074
 40
0.884938271604915
  0
CIRCLE
  8
_0-a_極細3
  6
CONTINUOUS
 62
    7
 10
479.53342450699756
 20
273.66094534062722
 40
0.884938271604915
  0
CIRCLE
  8
_0-a_極細3
  6
CONTINUOUS
 62
    7
 10
500.29786895144252
 20
278.78094534062689
 40
0.884938271604915
  0
CIRCLE
  8
_0-a_極細3
  6
CONTINUOUS
 62
    7
 10
522.20009117366476
 20
254.88761200729425
 40
0.884938271604915
  0
CIRCLE
  8
_0-a_極細3
  6
CONTINUOUS
 62
    7
 10
511.10675784033128
 20
230.9942786739615
 40
0.884938271604915
  0
CIRCLE
  8
_0-a_極細3
  6
CONTINUOUS
 62
    7
 10
484.44009117366409
 20
300.7779823776641
 40
0.884938271604915
  0
CIRCLE
  8
_0-a_極細3
  6
CONTINUOUS
 62
    7
 10
508.0489800625528
 20
355.39131571099716
 40
0.884938271604915
  0
CIRCLE
  8
_0-a_極細3
  6
CONTINUOUS
 62
    7
 10
532.22675784033095
 20
339.46242682210868
 40
0.884938271604915
  0
CIRCLE
  8
_0-a_極細3
  6
CONTINUOUS
 62
    7
 10
533.0800911736635
 20
310.7335379332203
 40
0.884938271604915
  0
CIRCLE
  8
_0-a_極細3
  6
CONTINUOUS
 62
    7
 10
476.68898006255381
 20
358.30687126655249
 40
0.884938271604915
  0
CIRCLE
  8
_0-a_極細3
  6
CONTINUOUS
 62
    7
 10
444.22675784033095
 20
393.48119225420669
 40
2.9208503562902273
  0
CIRCLE
  8
_0-a_極細3
  6
CONTINUOUS
 62
    7
 10
361.40736631803486
 20
404.5685750937235
 40
2.9208503562902273
  0
CIRCLE
  8
_0-a_極細3
  6
CONTINUOUS
 62
    7
 10
439.71120228477571
 20
340.78785892087399
 40
2.9208503562902273
  0
CIRCLE
  8
_0-a_極細3
  6
CONTINUOUS
 62
    7
 10
403.87120228477625
 20
357.00119225420713
 40
2.9208503562902273
  0
CIRCLE
  8
_0-a_極細3
  6
CONTINUOUS
 62
    7
 10
372.51120228477566
 20
296.20119225420785
 40
2.9208503562902273
  0
CIRCLE
  8
_0-a_極細3
  6
CONTINUOUS
 62
    7
 10
457.63120228477533
 20
275.72119225420761
 40
2.9208503562902273
  0
CIRCLE
  8
_0-a_極細3
  6
CONTINUOUS
 62
    7
 10
515.19564672921888
 20
269.96119225420853
 40
2.9208503562902273
  0
CIRCLE
  8
_0-a_極細3
  6
CONTINUOUS
 62
    7
 10
522.87564672921917
 20
240.09452558754197
 40
2.9208503562902273
  0
CIRCLE
  8
_0-a_極細3
  6
CONTINUOUS
 62
    7
 10
329.09203905230868
 20
405.99674780976204
 40
2.9208503562902273
  0
LINE
  8
_0-a_極細3
  6
CONTINUOUS
 62
    7
 10
550.91970803209006
 20
381.93993311841479
 11
552.25304136542297
 21
381.93993311841479
  0
LINE
  8
_0-a_極細3
  6
CONTINUOUS
 62
    7
 10
552.25304136542297
 20
381.93993311841479
 11
552.25304136542297
 21
219.95337264676857
  0
CIRCLE
  8
_0-a_極細3
  6
CONTINUOUS
 62
    7
 10
541.23314672921742
 20
356.36119225420771
 40
2.9208503562902273
  0
CIRCLE
  8
_0-a_極細3
  6
CONTINUOUS
 62
    7
 10
539.64601709958993
 20
268.82538978507228
 40
0.884938271604915
  0
CIRCLE
  8
_0-a_極細3
  6
CONTINUOUS
 62
    7
 10
541.77935043292428
 20
232.57567613200013
 40
0.884938271604915
  0
CIRCLE
  8
_0-a_極細3
  6
CONTINUOUS
 62
    7
 10
521.98675784032434
 20
325.78341447643038
 40
2.9208503562902273
  0
LINE
  8
_0-a_極細3
  6
CONTINUOUS
 62
    7
 10
458.91970803209006
 20
443.27326645174838
 11
458.91970803209006
 21
424.60659978508193
  0
LINE
  8
_0-a_極細3
  6
CONTINUOUS
 62
    7
 10
458.91970803209006
 20
443.27326645174838
 11
316.23531259990602
 21
443.27326645174838
  0
LINE
  8
_0-a_極細3
  6
CONTINUOUS
 62
    7
 10
472.25304136542297
 20
424.60659978508193
 11
316.23531259990602
 21
424.60659978508193
  0
LINE
  8
_0-a_極細3
  6
CONTINUOUS
 62
    7
 10
472.25304136542297
 20
443.27326645174838
 11
458.91970803209006
 21
443.27326645174838
  0
LINE
  8
_0-a_極細3
  6
CONTINUOUS
 62
    7
 10
472.25304136542297
 20
441.93993311841479
 11
472.25304136542297
 21
443.27326645174838
  0
LINE
  8
_0-a_極細3
  6
CONTINUOUS
 62
    7
 10
471.93609695524833
 20
424.60659978508193
 11
472.25304136542297
 21
424.92354419525657
  0
LINE
  8
_0-a_極細3
  6
CONTINUOUS
 62
    7
 10
465.14787185585783
 20
424.60659978508193
 11
472.25304136542297
 21
431.71176929464713
  0
LINE
  8
_0-a_極細3
  6
CONTINUOUS
 62
    7
 10
458.91970803209006
 20
425.16666106070483
 11
472.25304136542297
 21
438.49999439403769
  0
LINE
  8
_0-a_極細3
  6
CONTINUOUS
 62
    7
 10
458.91970803209006
 20
431.95488616009538
 11
470.23808832374243
 21
443.27326645174838
  0
LINE
  8
_0-a_極細3
  6
CONTINUOUS
 62
    7
 10
458.91970803209006
 20
438.74311125948662
 11
463.44986322435193
 21
443.27326645174838
  0
LINE
  8
_0-a_極細3
  6
CONTINUOUS
 62
    7
 10
472.25304136542297
 20
439.62371945613415
 11
468.60349436980948
 21
443.27326645174838
  0
LINE
  8
_0-a_極細3
  6
CONTINUOUS
 62
    7
 10
472.25304136542297
 20
432.8354943567436
 11
461.81526927041887
 21
443.27326645174838
  0
LINE
  8
_0-a_極細3
  6
CONTINUOUS
 62
    7
 10
458.91970803209006
 20
439.3806025906859
 11
472.25304136542297
 21
426.04726925735304
  0
LINE
  8
_0-a_極細3
  6
CONTINUOUS
 62
    7
 10
458.91970803209006
 20
432.59237749129534
 11
466.90548573830347
 21
424.60659978508193
  0
LINE
  8
_0-a_極細3
  6
CONTINUOUS
 62
    7
 10
458.91970803209006
 20
425.80415239190484
 11
460.11726063891297
 21
424.60659978508193
  0
LINE
  8
_0-a_極細3
  6
CONTINUOUS
 62
    7
 10
444.78319654788106
 20
424.60659977527831
 11
458.91970803209006
 21
438.74311125948662
  0
LINE
  8
_0-a_極細3
  6
CONTINUOUS
 62
    7
 10
410.84207102738924
 20
424.60659975173985
 11
429.5087377273976
 21
443.27326645174765
  0
LINE
  8
_0-a_極細3
  6
CONTINUOUS
 62
    7
 10
376.90094550689582
 20
424.60659972820145
 11
395.56761223044202
 21
443.27326645174838
  0
LINE
  8
_0-a_極細3
  6
CONTINUOUS
 62
    7
 10
342.95981998640389
 20
424.60659970466372
 11
361.62648673348781
 21
443.27326645174838
  0
LINE
  8
_0-a_極細3
  6
CONTINUOUS
 62
    7
 10
316.23531259990602
 20
431.82321781512002
 11
327.68536123653359
 21
443.27326645174765
  0
LINE
  8
_0-a_極細3
  6
DASHED2
 62
    7
 10
427.81263378763447
 20
424.60659976350871
 11
446.47930047587477
 21
443.27326645174838
  0
LINE
  8
_0-a_極細3
  6
DASHED2
 62
    7
 10
393.87150826714242
 20
424.60659973997099
 11
412.53817497892055
 21
443.27326645174838
  0
LINE
  8
_0-a_極細3
  6
DASHED2
 62
    7
 10
359.93038274665059
 20
424.60659971643327
 11
378.59704948196486
 21
443.27326645174838
  0
LINE
  8
_0-a_極細3
  6
DASHED2
 62
    7
 10
325.98925722615718
 20
424.60659969289486
 11
344.65592398501076
 21
443.27326645174838
  0
ARC
  8
_0-b_細線3
  6
CONTINUOUS
 62
    7
 10
480.25304136542297
 20
389.93993311841479
 40
8
 50
179.99999999999983
 51
269.99999999999977
  0
LINE
  8
_0-b_細線3
  6
CONTINUOUS
 62
    7
 10
472.25304136542297
 20
389.93993311841479
 11
472.25304136542297
 21
441.93993311841479
  0
LINE
  8
_0-b_細線3
  6
CONTINUOUS
 62
    7
 10
480.25304136542297
 20
381.93993311841479
 11
550.91970803209006
 21
381.93993311841479
  0
LINE
  8
_0-b_細線3
  6
CONTINUOUS
 62
    7
 10
552.25304136542297
 20
383.27326645174838
 11
550.91970803209006
 21
381.93993311841479
  0
LINE
  8
_0-b_細線3
  6
CONTINUOUS
 62
    7
 10
552.25304136542297
 20
388.60659978508193
 11
552.25304136542297
 21
383.27326645174838
  0
LINE
  8
_0-b_細線3
  6
CONTINUOUS
 62
    7
 10
550.91970803209006
 20
389.93993311841479
 11
552.25304136542297
 21
388.60659978508193
  0
LINE
  8
_0-b_細線3
  6
CONTINUOUS
 62
    7
 10
480.25304136542297
 20
389.93993311841479
 11
550.91970803209006
 21
389.93993311841479
  0
LINE
  8
_0-b_細線3
  6
CONTINUOUS
 62
    7
 10
473.58637469875589
 20
443.27326645174838
 11
472.25304136542297
 21
441.93993311841479
  0
LINE
  8
_0-b_細線3
  6
CONTINUOUS
 62
    7
 10
478.91970803209006
 20
443.27326645174838
 11
473.58637469875589
 21
443.27326645174838
  0
LINE
  8
_0-b_細線3
  6
CONTINUOUS
 62
    7
 10
480.25304136542297
 20
441.93993311841479
 11
478.91970803209006
 21
443.27326645174838
  0
LINE
  8
_0-b_細線3
  6
CONTINUOUS
 62
    7
 10
480.25304136542297
 20
389.93993311841479
 11
480.25304136542297
 21
441.93993311841479
  0
CIRCLE
  8
_0-a_極細3
  6
CONTINUOUS
 62
    7
 10
424.54083191440623
 20
411.89897003198206
 40
2.9208503562902273
  0
LINE
  8
_0-a_極細3
  6
CONTINUOUS
 62
    7
 10
1272.2530413654235
 20
371.27326645174838
 11
1272.2530413654235
 21
261.93993311841473
  0
LINE
  8
_0-a_極細3
  6
CONTINUOUS
 62
    7
 10
1138.9197080320901
 20
261.93993311841473
 11
1272.2530413654235
 21
261.93993311841473
  0
LINE
  8
_0-a_極細3
  6
CONTINUOUS
 62
    7
 10
1272.2530413654235
 20
371.27326645174838
 11
1321.6041034642735
 21
371.27326645174838
  0
LINE
  8
_0-a_極細3
  6
CONTINUOUS
 62
    7
 10
1138.9197080320901
 20
261.93993311841473
 11
1138.9197080320901
 21
219.95337264676857
  0
LINE
  8
_0-a_極細3
  6
CONTINUOUS
 62
    7
 10
1285.5170452287723
 20
219.95337264676857
 11
1321.6041035307385
 21
256.04043094873487
  0
LINE
  8
_0-a_極細3
  6
CONTINUOUS
 62
    7
 10
1172.3799602389245
 20
219.95337264676857
 11
1214.3665207105707
 21
261.93993311841473
  0
LINE
  8
_0-a_極細3
  6
CONTINUOUS
 62
    7
 10
1272.2530413654235
 20
319.82645377326708
 11
1321.6041034654827
 21
369.17751587332606
  0
LINE
  8
_0-a_極細3
  6
CONTINUOUS
 62
    7
 10
1274.203336729787
 20
219.95337264676857
 11
1321.6041035242129
 21
267.35413944119364
  0
LINE
  8
_0-a_極細3
  6
CONTINUOUS
 62
    7
 10
1161.0662517399392
 20
219.95337264676857
 11
1203.0528122115861
 21
261.93993311841473
  0
LINE
  8
_0-a_極細3
  6
CONTINUOUS
 62
    7
 10
1272.2530413654235
 20
331.14016227225221
 11
1312.3861452576389
 21
371.27326616446811
  0
LINE
  8
_0-a_極細3
  6
CONTINUOUS
 62
    7
 10
1262.8896282308026
 20
219.95337264676857
 11
1321.604103517687
 21
278.66784793365298
  0
LINE
  8
_0-a_極細3
  6
CONTINUOUS
 62
    7
 10
1149.7525432409548
 20
219.95337264676857
 11
1191.7391037126017
 21
261.93993311841473
  0
LINE
  8
_0-a_極細3
  6
CONTINUOUS
 62
    7
 10
1272.2530413654235
 20
342.45387077123672
 11
1301.07243683964
 21
371.2732662454539
  0
CIRCLE
  8
_0-a_極細3
  6
CONTINUOUS
 62
    7
 10
1117.1689800625504
 20
356.1068712665525
 40
0.884938271604915
  0
CIRCLE
  8
_0-a_極細3
  6
CONTINUOUS
 62
    7
 10
1133.0978689514388
 20
363.78687126655279
 40
0.884938271604915
  0
CIRCLE
  8
_0-a_極細3
  6
CONTINUOUS
 62
    7
 10
1126.5556467292172
 20
323.82242682210858
 40
0.884938271604915
  0
CIRCLE
  8
_0-a_極細3
  6
CONTINUOUS
 62
    7
 10
1154.6089800625498
 20
296.58687126655286
 40
0.884938271604915
  0
CIRCLE
  8
_0-a_極細3
  6
CONTINUOUS
 62
    7
 10
1126.0756467292169
 20
259.30687126655403
 40
0.884938271604915
  0
CIRCLE
  8
_0-a_極細3
  6
CONTINUOUS
 62
    7
 10
1111.142313395884
 20
230.7202045998871
 40
0.884938271604915
  0
CIRCLE
  8
_0-a_極細3
  6
CONTINUOUS
 62
    7
 10
1129.4889800625501
 20
278.50687126655396
 40
0.884938271604915
  0
CIRCLE
  8
_0-a_極細3
  6
CONTINUOUS
 62
    7
 10
1151.6756467292162
 20
270.82687126655367
 40
0.884938271604915
  0
CIRCLE
  8
_0-a_極細3
  6
CONTINUOUS
 62
    7
 10
1194.7689800625496
 20
271.25353793321995
 40
0.884938271604915
  0
CIRCLE
  8
_0-a_極細3
  6
CONTINUOUS
 62
    7
 10
1175.5689800625496
 20
285.76020459988649
 40
0.884938271604915
  0
CIRCLE
  8
_0-a_極細3
  6
CONTINUOUS
 62
    7
 10
1193.4889800625492
 20
294.7202045998871
 40
0.884938271604915
  0
CIRCLE
  8
_0-a_極細3
  6
CONTINUOUS
 62
    7
 10
1178.3067578403268
 20
413.1557601554407
 40
0.884938271604915
  0
CIRCLE
  8
_0-a_極細3
  6
CONTINUOUS
 62
    7
 10
1174.3245356181051
 20
381.5824268221084
 40
0.884938271604915
  0
CIRCLE
  8
_0-a_極細3
  6
CONTINUOUS
 62
    7
 10
1207.1778689514376
 20
380.44464904432971
 40
0.884938271604915
  0
CIRCLE
  8
_0-a_極細3
  6
CONTINUOUS
 62
    7
 10
1188.6178689514377
 20
358.04464904433047
 40
0.884938271604915
  0
CIRCLE
  8
_0-a_極細3
  6
CONTINUOUS
 62
    7
 10
1251.3378689514375
 20
272.92464904433155
 40
0.884938271604915
  0
CIRCLE
  8
_0-a_極細3
  6
CONTINUOUS
 62
    7
 10
1262.8578689514372
 20
295.32464904433141
 40
0.884938271604915
  0
CIRCLE
  8
_0-a_極細3
  6
CONTINUOUS
 62
    7
 10
1260.2978689514373
 20
328.6046490443303
 40
0.884938271604915
  0
CIRCLE
  8
_0-a_極細3
  6
CONTINUOUS
 62
    7
 10
1231.4978689514373
 20
362.52464904433003
 40
0.884938271604915
  0
CIRCLE
  8
_0-a_極細3
  6
CONTINUOUS
 62
    7
 10
1258.377868951437
 20
393.88464904432988
 40
0.884938271604915
  0
CIRCLE
  8
_0-a_極細3
  6
CONTINUOUS
 62
    7
 10
1253.8978689514374
 20
351.00464904433034
 40
0.884938271604915
  0
CIRCLE
  8
_0-a_極細3
  6
CONTINUOUS
 62
    7
 10
1301.2578689514364
 20
384.92464904433001
 40
0.884938271604915
  0
CIRCLE
  8
_0-a_極細3
  6
CONTINUOUS
 62
    7
 10
1293.5778689514361
 20
406.95674780976265
 40
2.9208503562902273
  0
CIRCLE
  8
_0-a_極細3
  6
CONTINUOUS
 62
    7
 10
1268.5467578403254
 20
382.21008114309592
 40
2.9208503562902273
  0
CIRCLE
  8
_0-a_極細3
  6
CONTINUOUS
 62
    7
 10
1179.871202284771
 20
392.73452558754002
 40
2.9208503562902273
  0
CIRCLE
  8
_0-a_極細3
  6
CONTINUOUS
 62
    7
 10
1231.0712022847704
 20
341.53452558754071
 40
2.9208503562902273
  0
CIRCLE
  8
_0-a_極細3
  6
CONTINUOUS
 62
    7
 10
1118.4400911736618
 20
270.25452558754182
 40
2.9208503562902273
  0
CIRCLE
  8
_0-a_極細3
  6
CONTINUOUS
 62
    7
 10
1134.7956467292165
 20
318.04119225420732
 40
2.9208503562902273
  0
CIRCLE
  8
_0-a_極細3
  6
CONTINUOUS
 62
    7
 10
1191.1156467292155
 20
282.20119225420785
 40
2.9208503562902273
  0
CIRCLE
  8
_0-a_極細3
  6
CONTINUOUS
 62
    7
 10
1265.1399549456696
 20
265.90190842705636
 40
2.9208503562902273
  0
CIRCLE
  8
_0-a_極細3
  6
CONTINUOUS
 62
    7
 10
1184.0756467292154
 20
351.32119225420757
 40
2.9208503562902273
  0
CIRCLE
  8
_0-a_極細3
  6
CONTINUOUS
 62
    7
 10
1108.1299677168713
 20
342.64406360294964
 40
0.884938271604915
  0
CIRCLE
  8
_0-a_極細3
  6
CONTINUOUS
 62
    7
 10
1108.4499677168726
 20
304.3151747140605
 40
0.884938271604915
  0
CIRCLE
  8
_0-a_極細3
  6
CONTINUOUS
 62
    7
 10
1280.7778689514369
 20
419.69798237766304
 40
0.884938271604915
  0
CIRCLE
  8
_0-a_極細3
  6
CONTINUOUS
 62
    7
 10
1231.4978689514373
 20
411.59131571099715
 40
0.884938271604915
  0
CIRCLE
  8
_0-a_極細3
  6
CONTINUOUS
 62
    7
 10
1231.7112022847705
 20
401.48119225420669
 40
2.9208503562902273
  0
CIRCLE
  8
_0-a_極細3
  6
CONTINUOUS
 62
    7
 10
1197.5778689514377
 20
421.19131571099643
 40
0.884938271604915
  0
LINE
  8
_0-a_極細3
  6
CONTINUOUS
 62
    7
 10
1086.9197080320894
 20
381.93993311841479
 11
1085.5863746987566
 21
381.93993311841479
  0
LINE
  8
_0-a_極細3
  6
CONTINUOUS
 62
    7
 10
1085.5863746987566
 20
381.93993311841479
 11
1085.5863746987566
 21
219.95337264676857
  0
CIRCLE
  8
_0-a_極細3
  6
CONTINUOUS
 62
    7
 10
1095.1614080460899
 20
317.84909348877557
 40
0.884938271604915
  0
CIRCLE
  8
_0-a_極細3
  6
CONTINUOUS
 62
    7
 10
1097.2519430255136
 20
255.04020459988681
 40
0.884938271604915
  0
CIRCLE
  8
_0-a_極細3
  6
CONTINUOUS
 62
    7
 10
1096.2297208032901
 20
360.56563669865284
 40
2.9208503562902273
  0
CIRCLE
  8
_0-a_極細3
  6
CONTINUOUS
 62
    7
 10
1100.9467578403269
 20
244.37008114309651
 40
2.9208503562902273
  0
LINE
  8
_0-a_極細3
  6
CONTINUOUS
 62
    7
 10
1178.9197080320901
 20
443.27326645174838
 11
1178.9197080320901
 21
424.60659978508193
  0
LINE
  8
_0-a_極細3
  6
CONTINUOUS
 62
    7
 10
1178.9197080320901
 20
443.27326645174838
 11
1321.6041034642735
 21
443.27326645174838
  0
LINE
  8
_0-a_極細3
  6
CONTINUOUS
 62
    7
 10
1165.5863746987566
 20
424.60659978508193
 11
1321.6041034642735
 21
424.60659978508193
  0
LINE
  8
_0-a_極細3
  6
CONTINUOUS
 62
    7
 10
1165.5863746987566
 20
443.27326645174838
 11
1178.9197080320901
 21
443.27326645174838
  0
LINE
  8
_0-a_極細3
  6
CONTINUOUS
 62
    7
 10
1165.5863746987566
 20
441.93993311841479
 11
1165.5863746987566
 21
443.27326645174838
  0
LINE
  8
_0-a_極細3
  6
CONTINUOUS
 62
    7
 10
1178.9197080320901
 20
430.47713783424115
 11
1173.0491699829302
 21
424.60659978508193
  0
LINE
  8
_0-a_極細3
  6
CONTINUOUS
 62
    7
 10
1178.9197080320901
 20
437.26536293363171
 11
1166.2609448835397
 21
424.60659978508193
  0
LINE
  8
_0-a_極細3
  6
CONTINUOUS
 62
    7
 10
1165.5863746987566
 20
430.72025469968941
 11
1178.1393864508154
 21
443.27326645174838
  0
LINE
  8
_0-a_極細3
  6
CONTINUOUS
 62
    7
 10
1165.5863746987566
 20
437.50847979907996
 11
1171.3511613514243
 21
443.27326645174765
  0
LINE
  8
_0-a_極細3
  6
CONTINUOUS
 62
    7
 10
1178.9197080320901
 20
440.85835091653939
 11
1176.504792496881
 21
443.27326645174838
  0
LINE
  8
_0-a_極細3
  6
CONTINUOUS
 62
    7
 10
1178.9197080320901
 20
434.0701258171481
 11
1169.7165673974905
 21
443.27326645174838
  0
LINE
  8
_0-a_極細3
  6
CONTINUOUS
 62
    7
 10
1178.9197080320901
 20
427.28190071775754
 11
1165.5863746987566
 21
440.61523405109114
  0
LINE
  8
_0-a_極細3
  6
CONTINUOUS
 62
    7
 10
1174.8067838653751
 20
424.60659978508193
 11
1165.5863746987566
 21
433.82700895169984
  0
LINE
  8
_0-a_極細3
  6
CONTINUOUS
 62
    7
 10
1168.0185587659846
 20
424.60659978508193
 11
1165.5863746987566
 21
427.03878385230928
  0
LINE
  8
_0-a_極細3
  6
CONTINUOUS
 62
    7
 10
1288.4489966725753
 20
424.60659978508193
 11
1307.115662336379
 21
443.27326544888638
  0
LINE
  8
_0-a_極細3
  6
CONTINUOUS
 62
    7
 10
1254.5078711756203
 20
424.60659978508193
 11
1273.1745371049426
 21
443.27326571440358
  0
LINE
  8
_0-a_極細3
  6
CONTINUOUS
 62
    7
 10
1220.5667456786662
 20
424.60659978508193
 11
1239.2334118735057
 21
443.27326597992072
  0
LINE
  8
_0-a_極細3
  6
CONTINUOUS
 62
    7
 10
1186.6256201817118
 20
424.60659978508193
 11
1205.2922866420693
 21
443.27326624543861
  0
LINE
  8
_0-a_極細3
  6
DASHED2
 62
    7
 10
1305.4195594210523
 20
424.60659978508193
 11
1321.6041034642735
 21
440.79114382830306
  0
LINE
  8
_0-a_極細3
  6
DASHED2
 62
    7
 10
1271.4784339240973
 20
424.60659978508193
 11
1290.1450997206612
 21
443.27326558164498
  0
LINE
  8
_0-a_極細3
  6
DASHED2
 62
    7
 10
1237.5373084271432
 20
424.60659978508193
 11
1256.203974489224
 21
443.27326584716212
  0
LINE
  8
_0-a_極細3
  6
DASHED2
 62
    7
 10
1203.5961829301891
 20
424.60659978508193
 11
1222.2628492577871
 21
443.27326611267927
  0
LINE
  8
_0-a_極細3
  6
DASHED2
 62
    7
 10
1178.9197080320901
 20
433.87125038393646
 11
1188.3217240263507
 21
443.27326637819715
  0
ARC
  8
_0-b_細線3
  6
CONTINUOUS
 62
    7
 10
1157.5863746987566
 20
389.93993311841479
 40
8
 50
269.99999999999977
 51
359.99999999999966
  0
LINE
  8
_0-b_細線3
  6
CONTINUOUS
 62
    7
 10
1165.5863746987566
 20
389.93993311841479
 11
1165.5863746987566
 21
441.93993311841479
  0
LINE
  8
_0-b_細線3
  6
CONTINUOUS
 62
    7
 10
1157.5863746987566
 20
381.93993311841479
 11
1086.9197080320894
 21
381.93993311841479
  0
LINE
  8
_0-b_細線3
  6
CONTINUOUS
 62
    7
 10
1085.5863746987566
 20
383.27326645174838
 11
1086.9197080320894
 21
381.93993311841479
  0
LINE
  8
_0-b_細線3
  6
CONTINUOUS
 62
    7
 10
1085.5863746987566
 20
388.60659978508193
 11
1085.5863746987566
 21
383.27326645174838
  0
LINE
  8
_0-b_細線3
  6
CONTINUOUS
 62
    7
 10
1086.9197080320894
 20
389.93993311841479
 11
1085.5863746987566
 21
388.60659978508193
  0
LINE
  8
_0-b_細線3
  6
CONTINUOUS
 62
    7
 10
1157.5863746987566
 20
389.93993311841479
 11
1086.9197080320894
 21
389.93993311841479
  0
LINE
  8
_0-b_細線3
  6
CONTINUOUS
 62
    7
 10
1164.2530413654235
 20
443.27326645174838
 11
1165.5863746987566
 21
441.93993311841479
  0
LINE
  8
_0-b_細線3
  6
CONTINUOUS
 62
    7
 10
1158.9197080320901
 20
443.27326645174838
 11
1164.2530413654235
 21
443.27326645174838
  0
LINE
  8
_0-b_細線3
  6
CONTINUOUS
 62
    7
 10
1157.5863746987566
 20
441.93993311841479
 11
1158.9197080320901
 21
443.27326645174838
  0
LINE
  8
_0-b_細線3
  6
CONTINUOUS
 62
    7
 10
1157.5863746987566
 20
389.93993311841479
 11
1157.5863746987566
 21
441.93993311841479
  0
LINE
  8
_0-d_寸法3
  6
CONTINUOUS
 62
    7
 10
472.25304136542297
 20
451.27326645174838
 11
472.25304136542297
 21
627.27326378239673
  0
LINE
  8
_0-d_寸法3
  6
CONTINUOUS
 62
    7
 10
472.25304136542297
 20
619.27326378239673
 11
487.70785458604814
 21
623.41436850403704
  0
LINE
  8
_0-d_寸法3
  6
CONTINUOUS
 62
    7
 10
472.25304136542297
 20
619.27326378239673
 11
487.70785458604814
 21
615.13215906075641
  0
LINE
  8
_0-d_寸法3
  6
CONTINUOUS
 62
    7
 10
1165.5863746987566
 20
451.27326645174838
 11
1165.5863746987573
 21
627.27326378239673
  0
LINE
  8
_0-d_寸法3
  6
CONTINUOUS
 62
    7
 10
1165.5863746987573
 20
619.27326378239673
 11
1150.1315614781322
 21
615.13215906075641
  0
LINE
  8
_0-d_寸法3
  6
CONTINUOUS
 62
    7
 10
1165.5863746987573
 20
619.27326378239673
 11
1150.1315614781322
 21
623.41436850403716
  0
LINE
  8
_0-d_寸法3
  6
CONTINUOUS
 62
    7
 10
472.25304136542297
 20
619.27326378239673
 11
1165.5863746987573
 21
619.27326378239673
  0
TEXT
  8
_0-d_寸法3
 62
    7
 10
800.91970803209006
 20
619.27326378239673
 40
24
 41
1
 50
0
  1
260
  0
ARC
  8
_0-b_細線3
  6
CONTINUOUS
 62
    7
 10
942.38637470459321
 20
437.93993311841479
 40
2.666666666666667
 50
89.999999999999915
 51
179.99999999999983
  0
ARC
  8
_0-b_細線3
  6
CONTINUOUS
 62
    7
 10
943.63423921480023
 20
443.27326645174838
 40
2.666666666666667
 50
269.99999999999977
 51
329.9999999999946
  0
ARC
  8
_0-b_細線3
  6
CONTINUOUS
 62
    7
 10
948.25304136831733
 20
440.60659978508193
 40
2.666666666666667
 50
89.999999999999915
 51
150.00000000000992
  0
LINE
  8
_0-b_細線3
  6
CONTINUOUS
 62
    7
 10
942.38637470459321
 20
440.60659978508193
 11
943.63423921480023
 21
440.60659978508193
  0
ARC
  8
_0-b_細線3
  6
CONTINUOUS
 62
    7
 10
967.45304136537493
 20
437.93993311841479
 40
2.666666666666667
 50
0
 51
89.999999999999915
  0
ARC
  8
_0-b_細線3
  6
CONTINUOUS
 62
    7
 10
966.20517685516791
 20
443.27326645174838
 40
2.666666666666667
 50
210.00000000000469
 51
269.99999999999977
  0
ARC
  8
_0-b_細線3
  6
CONTINUOUS
 62
    7
 10
961.58637470165081
 20
440.60659978508193
 40
2.666666666666667
 50
29.999999999990099
 51
89.999999999999901
  0
LINE
  8
_0-b_細線3
  6
CONTINUOUS
 62
    7
 10
967.45304136537493
 20
440.60659978508193
 11
966.20517685516791
 21
440.60659978508193
  0
ARC
  8
_0-b_細線3
  6
CONTINUOUS
 62
    7
 10
941.05304137126041
 20
434.20659978508195
 40
1.3333333333333335
 50
179.99999999999983
 51
269.99999999999977
  0
LINE
  8
_0-b_細線3
  6
CONTINUOUS
 62
    7
 10
939.71970803792681
 20
437.93993311841479
 11
939.71970803792681
 21
434.20659978508195
  0
ARC
  8
_0-b_細線3
  6
CONTINUOUS
 62
    7
 10
968.78637469870773
 20
434.20659978508195
 40
1.3333333333333335
 50
269.99999999999977
 51
359.99999999999966
  0
LINE
  8
_0-b_細線3
  6
CONTINUOUS
 62
    7
 10
970.11970803204133
 20
437.93993311841479
 11
970.11970803204133
 21
434.20659978508195
  0
ARC
  8
_0-b_細線3
  6
CONTINUOUS
 62
    7
 10
947.71970803792681
 20
430.20659978508195
 40
2.666666666666667
 50
0
 51
89.999999999999915
  0
LINE
  8
_0-b_細線3
  6
CONTINUOUS
 62
    7
 10
947.71970803792681
 20
432.87326645174835
 11
941.05304137126041
 21
432.87326645174835
  0
ARC
  8
_0-b_細線3
  6
CONTINUOUS
 62
    7
 10
962.11970803792678
 20
430.20659978508195
 40
2.666666666666667
 50
89.999999999999915
 51
179.99999999999983
  0
LINE
  8
_0-b_細線3
  6
CONTINUOUS
 62
    7
 10
962.11970803204053
 20
432.87326645174835
 11
968.78637469870773
 21
432.87326645174835
  0
LINE
  8
_0-b_細線3
  6
CONTINUOUS
 62
    7
 10
961.58637470165081
 20
443.27326645174838
 11
948.25304136831733
 21
443.27326645174838
  0
LINE
  8
_0-b_細線3
  6
CONTINUOUS
 62
    7
 10
950.38637470165088
 20
389.93993311841479
 11
950.38637470459321
 21
430.20659978508195
  0
LINE
  8
_0-b_細線3
  6
CONTINUOUS
 62
    7
 10
959.45304136831726
 20
389.93993311841479
 11
959.45304137126038
 21
430.20659978508195
  0
LINE
  8
_0-b_細線3
  6
CONTINUOUS
 62
    7
 10
959.45304136831726
 20
389.93993311841479
 11
950.38637470165088
 21
389.93993311841479
  0
ARC
  8
_0-b_細線3
  6
CONTINUOUS
 62
    7
 10
897.05304137029566
 20
437.93993311841479
 40
2.666666666666667
 50
89.999999999999915
 51
179.99999999999983
  0
ARC
  8
_0-b_細線3
  6
CONTINUOUS
 62
    7
 10
898.30090588050257
 20
443.27326645174838
 40
2.666666666666667
 50
269.99999999999977
 51
329.99999999999579
  0
ARC
  8
_0-b_細線3
  6
CONTINUOUS
 62
    7
 10
902.91970803401966
 20
440.60659978508193
 40
2.666666666666667
 50
89.999999999999915
 51
150.0000000000087
  0
LINE
  8
_0-b_細線3
  6
CONTINUOUS
 62
    7
 10
897.05304137029566
 20
440.60659978508193
 11
898.30090588050257
 21
440.60659978508193
  0
ARC
  8
_0-b_細線3
  6
CONTINUOUS
 62
    7
 10
922.11970803107579
 20
437.93993311841479
 40
2.666666666666667
 50
0
 51
89.999999999999915
  0
ARC
  8
_0-b_細線3
  6
CONTINUOUS
 62
    7
 10
920.87184352086956
 20
443.27326645174838
 40
2.666666666666667
 50
210.00000000000347
 51
269.99999999999977
  0
ARC
  8
_0-b_細線3
  6
CONTINUOUS
 62
    7
 10
916.25304136735247
 20
440.60659978508193
 40
2.666666666666667
 50
29.999999999991321
 51
89.999999999999901
  0
LINE
  8
_0-b_細線3
  6
CONTINUOUS
 62
    7
 10
922.11970803107579
 20
440.60659978508193
 11
920.87184352086956
 21
440.60659978508193
  0
ARC
  8
_0-b_細線3
  6
CONTINUOUS
 62
    7
 10
895.71970803696206
 20
434.20659978508195
 40
1.3333333333333335
 50
179.99999999999983
 51
269.99999999999977
  0
LINE
  8
_0-b_細線3
  6
CONTINUOUS
 62
    7
 10
894.38637470362914
 20
437.93993311841479
 11
894.38637470362914
 21
434.20659978508195
  0
ARC
  8
_0-b_細線3
  6
CONTINUOUS
 62
    7
 10
923.45304136441007
 20
434.20659978508195
 40
1.3333333333333335
 50
269.99999999999977
 51
359.99999999999966
  0
LINE
  8
_0-b_細線3
  6
CONTINUOUS
 62
    7
 10
924.78637469774299
 20
437.93993311841479
 11
924.78637469774299
 21
434.20659978508195
  0
ARC
  8
_0-b_細線3
  6
CONTINUOUS
 62
    7
 10
902.38637470362914
 20
430.20659978508195
 40
2.666666666666667
 50
0
 51
89.999999999999915
  0
LINE
  8
_0-b_細線3
  6
CONTINUOUS
 62
    7
 10
902.38637470362914
 20
432.87326645174835
 11
895.71970803696206
 21
432.87326645174835
  0
ARC
  8
_0-b_細線3
  6
CONTINUOUS
 62
    7
 10
916.78637470362924
 20
430.20659978508195
 40
2.666666666666667
 50
89.999999999999915
 51
179.99999999999983
  0
LINE
  8
_0-b_細線3
  6
CONTINUOUS
 62
    7
 10
916.78637469774299
 20
432.87326645174835
 11
923.45304136441007
 21
432.87326645174835
  0
LINE
  8
_0-b_細線3
  6
CONTINUOUS
 62
    7
 10
916.25304136735247
 20
443.27326645174838
 11
902.91970803401966
 21
443.27326645174838
  0
LINE
  8
_0-b_細線3
  6
CONTINUOUS
 62
    7
 10
905.05304136735253
 20
389.93993311841479
 11
905.05304137029566
 21
430.20659978508195
  0
LINE
  8
_0-b_細線3
  6
CONTINUOUS
 62
    7
 10
914.1197080340196
 20
389.93993311841479
 11
914.11970803696204
 21
430.20659978508195
  0
LINE
  8
_0-b_細線3
  6
CONTINUOUS
 62
    7
 10
914.1197080340196
 20
389.93993311841479
 11
905.05304136735253
 21
389.93993311841479
  0
ARC
  8
_0-b_細線3
  6
CONTINUOUS
 62
    7
 10
851.71970803599731
 20
437.93993311841479
 40
2.666666666666667
 50
89.999999999999915
 51
179.99999999999983
  0
ARC
  8
_0-b_細線3
  6
CONTINUOUS
 62
    7
 10
852.96757254620434
 20
443.27326645174838
 40
2.666666666666667
 50
269.99999999999977
 51
329.9999999999946
  0
ARC
  8
_0-b_細線3
  6
CONTINUOUS
 62
    7
 10
857.58637469972132
 20
440.60659978508193
 40
2.666666666666667
 50
89.999999999999915
 51
150.0000000000087
  0
LINE
  8
_0-b_細線3
  6
CONTINUOUS
 62
    7
 10
851.71970803599731
 20
440.60659978508193
 11
852.96757254620434
 21
440.60659978508193
  0
ARC
  8
_0-b_細線3
  6
CONTINUOUS
 62
    7
 10
876.78637469677824
 20
437.93993311841479
 40
2.666666666666667
 50
0
 51
89.999999999999915
  0
ARC
  8
_0-b_細線3
  6
CONTINUOUS
 62
    7
 10
875.53851018657122
 20
443.27326645174838
 40
2.666666666666667
 50
210.00000000000469
 51
269.99999999999977
  0
ARC
  8
_0-b_細線3
  6
CONTINUOUS
 62
    7
 10
870.91970803305423
 20
440.60659978508193
 40
2.666666666666667
 50
29.999999999991321
 51
89.999999999985349
  0
LINE
  8
_0-b_細線3
  6
CONTINUOUS
 62
    7
 10
876.78637469677824
 20
440.60659978508193
 11
875.53851018657122
 21
440.60659978508193
  0
ARC
  8
_0-b_細線3
  6
CONTINUOUS
 62
    7
 10
850.38637470266372
 20
434.20659978508195
 40
1.3333333333333335
 50
179.99999999999983
 51
269.99999999999977
  0
LINE
  8
_0-b_細線3
  6
CONTINUOUS
 62
    7
 10
849.0530413693308
 20
437.93993311841479
 11
849.0530413693308
 21
434.20659978508195
  0
ARC
  8
_0-b_細線3
  6
CONTINUOUS
 62
    7
 10
878.11970803011184
 20
434.20659978508195
 40
1.3333333333333335
 50
269.99999999999977
 51
359.99999999999966
  0
LINE
  8
_0-b_細線3
  6
CONTINUOUS
 62
    7
 10
879.45304136344464
 20
437.93993311841479
 11
879.45304136344464
 21
434.20659978508195
  0
ARC
  8
_0-b_細線3
  6
CONTINUOUS
 62
    7
 10
857.05304136933091
 20
430.20659978508195
 40
2.666666666666667
 50
0
 51
89.999999999999915
  0
LINE
  8
_0-b_細線3
  6
CONTINUOUS
 62
    7
 10
857.05304136933091
 20
432.87326645174835
 11
850.38637470266372
 21
432.87326645174835
  0
ARC
  8
_0-b_細線3
  6
CONTINUOUS
 62
    7
 10
871.45304136933089
 20
430.20659978508195
 40
2.666666666666667
 50
89.999999999999915
 51
179.99999999999983
  0
LINE
  8
_0-b_細線3
  6
CONTINUOUS
 62
    7
 10
871.45304136344464
 20
432.87326645174835
 11
878.11970803011184
 21
432.87326645174835
  0
LINE
  8
_0-b_細線3
  6
CONTINUOUS
 62
    7
 10
870.91970803305423
 20
443.27326645174838
 11
857.58637469972132
 21
443.27326645174838
  0
LINE
  8
_0-b_細線3
  6
CONTINUOUS
 62
    7
 10
859.71970803305419
 20
389.93993311841479
 11
859.71970803599731
 21
430.20659978508195
  0
LINE
  8
_0-b_細線3
  6
CONTINUOUS
 62
    7
 10
868.78637469972136
 20
389.93993311841479
 11
868.78637470266449
 21
430.20659978508195
  0
LINE
  8
_0-b_細線3
  6
CONTINUOUS
 62
    7
 10
868.78637469972136
 20
389.93993311841479
 11
859.71970803305419
 21
389.93993311841479
  0
ARC
  8
_0-b_細線3
  6
CONTINUOUS
 62
    7
 10
761.05304136740119
 20
437.93993311841479
 40
2.666666666666667
 50
89.999999999999915
 51
179.99999999999983
  0
ARC
  8
_0-b_細線3
  6
CONTINUOUS
 62
    7
 10
762.30090587760822
 20
443.27326645174838
 40
2.666666666666667
 50
269.99999999999977
 51
329.9999999999946
  0
ARC
  8
_0-b_細線3
  6
CONTINUOUS
 62
    7
 10
766.91970803112531
 20
440.60659978508193
 40
2.666666666666667
 50
89.999999999999915
 51
150.00000000000992
  0
LINE
  8
_0-b_細線3
  6
CONTINUOUS
 62
    7
 10
761.05304136740119
 20
440.60659978508193
 11
762.30090587760822
 21
440.60659978508193
  0
ARC
  8
_0-b_細線3
  6
CONTINUOUS
 62
    7
 10
786.11970802818212
 20
437.93993311841479
 40
2.666666666666667
 50
0
 51
89.999999999999915
  0
ARC
  8
_0-b_細線3
  6
CONTINUOUS
 62
    7
 10
784.87184351797589
 20
443.27326645174838
 40
2.666666666666667
 50
209.99999999999616
 51
269.99999999999977
  0
ARC
  8
_0-b_細線3
  6
CONTINUOUS
 62
    7
 10
780.25304136445811
 20
440.60659978508193
 40
2.666666666666667
 50
29.999999999991321
 51
89.999999999985349
  0
LINE
  8
_0-b_細線3
  6
CONTINUOUS
 62
    7
 10
786.11970802818212
 20
440.60659978508193
 11
784.87184351797589
 21
440.60659978508193
  0
ARC
  8
_0-b_細線3
  6
CONTINUOUS
 62
    7
 10
759.71970803406771
 20
434.20659978508195
 40
1.3333333333333335
 50
179.99999999999983
 51
269.99999999999977
  0
LINE
  8
_0-b_細線3
  6
CONTINUOUS
 62
    7
 10
758.38637470073479
 20
437.93993311841479
 11
758.38637470073479
 21
434.20659978508195
  0
ARC
  8
_0-b_細線3
  6
CONTINUOUS
 62
    7
 10
787.45304136151572
 20
434.20659978508195
 40
1.3333333333333335
 50
269.99999999999977
 51
359.99999999999966
  0
LINE
  8
_0-b_細線3
  6
CONTINUOUS
 62
    7
 10
788.78637469484931
 20
437.93993311841479
 11
788.78637469484931
 21
434.20659978508195
  0
ARC
  8
_0-b_細線3
  6
CONTINUOUS
 62
    7
 10
766.38637470073479
 20
430.20659978508195
 40
2.666666666666667
 50
0
 51
89.999999999999915
  0
LINE
  8
_0-b_細線3
  6
CONTINUOUS
 62
    7
 10
766.38637470073479
 20
432.87326645174835
 11
759.71970803406771
 21
432.87326645174835
  0
ARC
  8
_0-b_細線3
  6
CONTINUOUS
 62
    7
 10
780.78637470073477
 20
430.20659978508195
 40
2.666666666666667
 50
89.999999999999915
 51
179.99999999999983
  0
LINE
  8
_0-b_細線3
  6
CONTINUOUS
 62
    7
 10
780.78637469484852
 20
432.87326645174835
 11
787.45304136151572
 21
432.87326645174835
  0
LINE
  8
_0-b_細線3
  6
CONTINUOUS
 62
    7
 10
780.25304136445811
 20
443.27326645174838
 11
766.91970803112531
 21
443.27326645174838
  0
LINE
  8
_0-b_細線3
  6
CONTINUOUS
 62
    7
 10
769.05304136445886
 20
389.93993311841479
 11
769.05304136740119
 21
430.20659978508195
  0
LINE
  8
_0-b_細線3
  6
CONTINUOUS
 62
    7
 10
778.11970803112524
 20
389.93993311841479
 11
778.11970803406837
 21
430.20659978508195
  0
LINE
  8
_0-b_細線3
  6
CONTINUOUS
 62
    7
 10
778.11970803112524
 20
389.93993311841479
 11
769.05304136445886
 21
389.93993311841479
  0
ARC
  8
_0-b_細線3
  6
CONTINUOUS
 62
    7
 10
715.71970803310285
 20
437.93993311841479
 40
2.666666666666667
 50
89.999999999999915
 51
179.99999999999983
  0
ARC
  8
_0-b_細線3
  6
CONTINUOUS
 62
    7
 10
716.96757254330987
 20
443.27326645174838
 40
2.666666666666667
 50
269.99999999999977
 51
329.9999999999946
  0
ARC
  8
_0-b_細線3
  6
CONTINUOUS
 62
    7
 10
721.58637469682685
 20
440.60659978508193
 40
2.666666666666667
 50
89.999999999999915
 51
150.0000000000087
  0
LINE
  8
_0-b_細線3
  6
CONTINUOUS
 62
    7
 10
715.71970803310285
 20
440.60659978508193
 11
716.96757254330987
 21
440.60659978508193
  0
ARC
  8
_0-b_細線3
  6
CONTINUOUS
 62
    7
 10
740.78637469388377
 20
437.93993311841479
 40
2.666666666666667
 50
0
 51
89.999999999999915
  0
ARC
  8
_0-b_細線3
  6
CONTINUOUS
 62
    7
 10
739.53851018367675
 20
443.27326645174838
 40
2.666666666666667
 50
210.00000000000469
 51
269.99999999999977
  0
ARC
  8
_0-b_細線3
  6
CONTINUOUS
 62
    7
 10
734.91970803016045
 20
440.60659978508193
 40
2.666666666666667
 50
29.99999999999865
 51
89.999999999999901
  0
LINE
  8
_0-b_細線3
  6
CONTINUOUS
 62
    7
 10
740.78637469388377
 20
440.60659978508193
 11
739.53851018367675
 21
440.60659978508193
  0
ARC
  8
_0-b_細線3
  6
CONTINUOUS
 62
    7
 10
714.38637469977004
 20
434.20659978508195
 40
1.3333333333333335
 50
179.99999999999983
 51
269.99999999999977
  0
LINE
  8
_0-b_細線3
  6
CONTINUOUS
 62
    7
 10
713.05304136643645
 20
437.93993311841479
 11
713.05304136643645
 21
434.20659978508195
  0
ARC
  8
_0-b_細線3
  6
CONTINUOUS
 62
    7
 10
742.11970802721737
 20
434.20659978508195
 40
1.3333333333333335
 50
269.99999999999977
 51
359.99999999999966
  0
LINE
  8
_0-b_細線3
  6
CONTINUOUS
 62
    7
 10
743.45304136055017
 20
437.93993311841479
 11
743.45304136055017
 21
434.20659978508195
  0
ARC
  8
_0-b_細線3
  6
CONTINUOUS
 62
    7
 10
721.05304136643645
 20
430.20659978508195
 40
2.666666666666667
 50
0
 51
89.999999999999915
  0
LINE
  8
_0-b_細線3
  6
CONTINUOUS
 62
    7
 10
721.05304136643645
 20
432.87326645174835
 11
714.38637469977004
 21
432.87326645174835
  0
ARC
  8
_0-b_細線3
  6
CONTINUOUS
 62
    7
 10
735.45304136643642
 20
430.20659978508195
 40
2.666666666666667
 50
89.999999999999915
 51
179.99999999999983
  0
LINE
  8
_0-b_細線3
  6
CONTINUOUS
 62
    7
 10
735.45304136055017
 20
432.87326645174835
 11
742.11970802721737
 21
432.87326645174835
  0
LINE
  8
_0-b_細線3
  6
CONTINUOUS
 62
    7
 10
734.91970803016045
 20
443.27326645174838
 11
721.58637469682685
 21
443.27326645174838
  0
LINE
  8
_0-b_細線3
  6
CONTINUOUS
 62
    7
 10
723.71970803015972
 20
389.93993311841479
 11
723.71970803310285
 21
430.20659978508195
  0
LINE
  8
_0-b_細線3
  6
CONTINUOUS
 62
    7
 10
732.7863746968269
 20
389.93993311841479
 11
732.78637469977002
 21
430.20659978508195
  0
LINE
  8
_0-b_細線3
  6
CONTINUOUS
 62
    7
 10
732.7863746968269
 20
389.93993311841479
 11
723.71970803015972
 21
389.93993311841479
  0
ARC
  8
_0-b_細線3
  6
CONTINUOUS
 62
    7
 10
670.3863746988045
 20
437.93993311841479
 40
2.666666666666667
 50
89.999999999999915
 51
179.99999999999983
  0
ARC
  8
_0-b_細線3
  6
CONTINUOUS
 62
    7
 10
671.63423920901153
 20
443.27326645174838
 40
2.666666666666667
 50
269.99999999999977
 51
329.9999999999946
  0
ARC
  8
_0-b_細線3
  6
CONTINUOUS
 62
    7
 10
676.25304136252851
 20
440.60659978508193
 40
2.666666666666667
 50
89.999999999999915
 51
150.0000000000087
  0
LINE
  8
_0-b_細線3
  6
CONTINUOUS
 62
    7
 10
670.3863746988045
 20
440.60659978508193
 11
671.63423920901153
 21
440.60659978508193
  0
ARC
  8
_0-b_細線3
  6
CONTINUOUS
 62
    7
 10
695.45304135958543
 20
437.93993311841479
 40
2.666666666666667
 50
0
 51
89.999999999999915
  0
ARC
  8
_0-b_細線3
  6
CONTINUOUS
 62
    7
 10
694.20517684937909
 20
443.27326645174838
 40
2.666666666666667
 50
209.99999999999739
 51
269.99999999999977
  0
ARC
  8
_0-b_細線3
  6
CONTINUOUS
 62
    7
 10
689.58637469586131
 20
440.60659978508193
 40
2.666666666666667
 50
29.999999999990099
 51
89.999999999982904
  0
LINE
  8
_0-b_細線3
  6
CONTINUOUS
 62
    7
 10
695.45304135958543
 20
440.60659978508193
 11
694.20517684937909
 21
440.60659978508193
  0
ARC
  8
_0-b_細線3
  6
CONTINUOUS
 62
    7
 10
669.05304136547159
 20
434.20659978508195
 40
1.3333333333333335
 50
179.99999999999983
 51
269.99999999999977
  0
LINE
  8
_0-b_細線3
  6
CONTINUOUS
 62
    7
 10
667.7197080321381
 20
437.93993311841479
 11
667.7197080321381
 21
434.20659978508195
  0
ARC
  8
_0-b_細線3
  6
CONTINUOUS
 62
    7
 10
696.78637469291891
 20
434.20659978508195
 40
1.3333333333333335
 50
269.99999999999977
 51
359.99999999999966
  0
LINE
  8
_0-b_細線3
  6
CONTINUOUS
 62
    7
 10
698.11970802625251
 20
437.93993311841479
 11
698.11970802625251
 21
434.20659978508195
  0
ARC
  8
_0-b_細線3
  6
CONTINUOUS
 62
    7
 10
675.7197080321381
 20
430.20659978508195
 40
2.666666666666667
 50
0
 51
89.999999999999915
  0
LINE
  8
_0-b_細線3
  6
CONTINUOUS
 62
    7
 10
675.7197080321381
 20
432.87326645174835
 11
669.05304136547159
 21
432.87326645174835
  0
ARC
  8
_0-b_細線3
  6
CONTINUOUS
 62
    7
 10
690.11970803213808
 20
430.20659978508195
 40
2.666666666666667
 50
89.999999999999915
 51
179.99999999999983
  0
LINE
  8
_0-b_細線3
  6
CONTINUOUS
 62
    7
 10
690.11970802625183
 20
432.87326645174835
 11
696.78637469291891
 21
432.87326645174835
  0
LINE
  8
_0-b_細線3
  6
CONTINUOUS
 62
    7
 10
689.58637469586131
 20
443.27326645174838
 11
676.25304136252851
 21
443.27326645174838
  0
LINE
  8
_0-b_細線3
  6
CONTINUOUS
 62
    7
 10
678.38637469586206
 20
389.93993311841479
 11
678.3863746988045
 21
430.20659978508195
  0
LINE
  8
_0-b_細線3
  6
CONTINUOUS
 62
    7
 10
687.45304136252855
 20
389.93993311841479
 11
687.45304136547168
 21
430.20659978508195
  0
LINE
  8
_0-b_細線3
  6
CONTINUOUS
 62
    7
 10
687.45304136252855
 20
389.93993311841479
 11
678.38637469586206
 21
389.93993311841479
  0
ARC
  8
_0-b_細線3
  6
CONTINUOUS
 62
    7
 10
987.71970803889167
 20
437.93993311841479
 40
2.666666666666667
 50
89.999999999999915
 51
179.99999999999983
  0
ARC
  8
_0-b_細線3
  6
CONTINUOUS
 62
    7
 10
988.96757254909858
 20
443.27326645174838
 40
2.666666666666667
 50
269.99999999999977
 51
329.99999999999579
  0
ARC
  8
_0-b_細線3
  6
CONTINUOUS
 62
    7
 10
993.58637470261488
 20
440.60659978508193
 40
2.666666666666667
 50
89.999999999999915
 51
150.00000000000014
  0
LINE
  8
_0-b_細線3
  6
CONTINUOUS
 62
    7
 10
987.71970803889167
 20
440.60659978508193
 11
988.96757254909858
 21
440.60659978508193
  0
ARC
  8
_0-b_細線3
  6
CONTINUOUS
 62
    7
 10
1012.7863746996729
 20
437.93993311841479
 40
2.666666666666667
 50
0
 51
89.999999999999915
  0
ARC
  8
_0-b_細線3
  6
CONTINUOUS
 62
    7
 10
1011.5385101894659
 20
443.27326645174838
 40
2.666666666666667
 50
210.00000000000469
 51
269.99999999999977
  0
ARC
  8
_0-b_細線3
  6
CONTINUOUS
 62
    7
 10
1006.9197080359488
 20
440.60659978508193
 40
2.666666666666667
 50
29.999999999990099
 51
89.999999999990223
  0
LINE
  8
_0-b_細線3
  6
CONTINUOUS
 62
    7
 10
1012.7863746996729
 20
440.60659978508193
 11
1011.5385101894659
 21
440.60659978508193
  0
ARC
  8
_0-b_細線3
  6
CONTINUOUS
 62
    7
 10
986.38637470555875
 20
434.20659978508195
 40
1.3333333333333335
 50
179.99999999999983
 51
269.99999999999977
  0
LINE
  8
_0-b_細線3
  6
CONTINUOUS
 62
    7
 10
985.05304137222515
 20
437.93993311841479
 11
985.05304137222515
 21
434.20659978508195
  0
ARC
  8
_0-b_細線3
  6
CONTINUOUS
 62
    7
 10
1014.1197080330061
 20
434.20659978508195
 40
1.3333333333333335
 50
269.99999999999977
 51
359.99999999999966
  0
LINE
  8
_0-b_細線3
  6
CONTINUOUS
 62
    7
 10
1015.4530413663393
 20
437.93993311841479
 11
1015.4530413663393
 21
434.20659978508195
  0
ARC
  8
_0-b_細線3
  6
CONTINUOUS
 62
    7
 10
993.05304137222515
 20
430.20659978508195
 40
2.666666666666667
 50
0
 51
89.999999999999915
  0
LINE
  8
_0-b_細線3
  6
CONTINUOUS
 62
    7
 10
993.05304137222515
 20
432.87326645174835
 11
986.38637470555875
 21
432.87326645174835
  0
ARC
  8
_0-b_細線3
  6
CONTINUOUS
 62
    7
 10
1007.4530413722252
 20
430.20659978508195
 40
2.666666666666667
 50
89.999999999999915
 51
179.99999999999983
  0
LINE
  8
_0-b_細線3
  6
CONTINUOUS
 62
    7
 10
1007.453041366339
 20
432.87326645174835
 11
1014.1197080330061
 21
432.87326645174835
  0
LINE
  8
_0-b_細線3
  6
CONTINUOUS
 62
    7
 10
1006.9197080359488
 20
443.27326645174838
 11
993.58637470261488
 21
443.27326645174838
  0
LINE
  8
_0-b_細線3
  6
CONTINUOUS
 62
    7
 10
995.71970803594922
 20
389.93993311841479
 11
995.71970803889167
 21
430.20659978508195
  0
LINE
  8
_0-b_細線3
  6
CONTINUOUS
 62
    7
 10
1004.7863747026156
 20
389.93993311841479
 11
1004.7863747055587
 21
430.20659978508195
  0
LINE
  8
_0-b_細線3
  6
CONTINUOUS
 62
    7
 10
1004.7863747026156
 20
389.93993311841479
 11
995.71970803594922
 21
389.93993311841479
  0
ARC
  8
_0-b_細線3
  6
CONTINUOUS
 62
    7
 10
1033.0530413731899
 20
437.93993311841479
 40
2.666666666666667
 50
89.999999999999915
 51
179.99999999999983
  0
ARC
  8
_0-b_細線3
  6
CONTINUOUS
 62
    7
 10
1034.300905883397
 20
443.27326645174838
 40
2.666666666666667
 50
269.99999999999977
 51
329.99999999999335
  0
ARC
  8
_0-b_細線3
  6
CONTINUOUS
 62
    7
 10
1038.9197080369133
 20
440.60659978508193
 40
2.666666666666667
 50
89.999999999999915
 51
150.00000000000259
  0
LINE
  8
_0-b_細線3
  6
CONTINUOUS
 62
    7
 10
1033.0530413731899
 20
440.60659978508193
 11
1034.300905883397
 21
440.60659978508193
  0
ARC
  8
_0-b_細線3
  6
CONTINUOUS
 62
    7
 10
1058.1197080339709
 20
437.93993311841479
 40
2.666666666666667
 50
0
 51
89.999999999999915
  0
ARC
  8
_0-b_細線3
  6
CONTINUOUS
 62
    7
 10
1056.8718435237638
 20
443.27326645174838
 40
2.666666666666667
 50
210.00000000000591
 51
269.99999999999977
  0
ARC
  8
_0-b_細線3
  6
CONTINUOUS
 62
    7
 10
1052.2530413702468
 20
440.60659978508193
 40
2.666666666666667
 50
29.999999999990099
 51
89.999999999985349
  0
LINE
  8
_0-b_細線3
  6
CONTINUOUS
 62
    7
 10
1058.1197080339709
 20
440.60659978508193
 11
1056.8718435237638
 21
440.60659978508193
  0
ARC
  8
_0-b_細線3
  6
CONTINUOUS
 62
    7
 10
1031.7197080398564
 20
434.20659978508195
 40
1.3333333333333335
 50
179.99999999999983
 51
269.99999999999977
  0
LINE
  8
_0-b_細線3
  6
CONTINUOUS
 62
    7
 10
1030.3863747065236
 20
437.93993311841479
 11
1030.3863747065236
 21
434.20659978508195
  0
ARC
  8
_0-b_細線3
  6
CONTINUOUS
 62
    7
 10
1059.4530413673044
 20
434.20659978508195
 40
1.3333333333333335
 50
269.99999999999977
 51
359.99999999999966
  0
LINE
  8
_0-b_細線3
  6
CONTINUOUS
 62
    7
 10
1060.7863747006372
 20
437.93993311841479
 11
1060.7863747006372
 21
434.20659978508195
  0
ARC
  8
_0-b_細線3
  6
CONTINUOUS
 62
    7
 10
1038.3863747065236
 20
430.20659978508195
 40
2.666666666666667
 50
0
 51
89.999999999999915
  0
LINE
  8
_0-b_細線3
  6
CONTINUOUS
 62
    7
 10
1038.3863747065236
 20
432.87326645174835
 11
1031.7197080398564
 21
432.87326645174835
  0
ARC
  8
_0-b_細線3
  6
CONTINUOUS
 62
    7
 10
1052.7863747065235
 20
430.20659978508195
 40
2.666666666666667
 50
89.999999999999915
 51
179.99999999999983
  0
LINE
  8
_0-b_細線3
  6
CONTINUOUS
 62
    7
 10
1052.7863747006372
 20
432.87326645174835
 11
1059.4530413673044
 21
432.87326645174835
  0
LINE
  8
_0-b_細線3
  6
CONTINUOUS
 62
    7
 10
1052.2530413702468
 20
443.27326645174838
 11
1038.9197080369133
 21
443.27326645174838
  0
LINE
  8
_0-b_細線3
  6
CONTINUOUS
 62
    7
 10
1041.0530413702468
 20
389.93993311841479
 11
1041.0530413731899
 21
430.20659978508195
  0
LINE
  8
_0-b_細線3
  6
CONTINUOUS
 62
    7
 10
1050.1197080369141
 20
389.93993311841479
 11
1050.1197080398572
 21
430.20659978508195
  0
LINE
  8
_0-b_細線3
  6
CONTINUOUS
 62
    7
 10
1050.1197080369141
 20
389.93993311841479
 11
1041.0530413702468
 21
389.93993311841479
  0
ARC
  8
_0-b_細線3
  6
CONTINUOUS
 62
    7
 10
1078.3863747074879
 20
437.93993311841479
 40
2.666666666666667
 50
89.999999999999915
 51
179.99999999999983
  0
ARC
  8
_0-b_細線3
  6
CONTINUOUS
 62
    7
 10
1079.634239217695
 20
443.27326645174838
 40
2.666666666666667
 50
269.99999999999977
 51
329.99999999999335
  0
ARC
  8
_0-b_細線3
  6
CONTINUOUS
 62
    7
 10
1084.2530413712116
 20
440.60659978508193
 40
2.666666666666667
 50
89.999999999999915
 51
150.00000000000503
  0
LINE
  8
_0-b_細線3
  6
CONTINUOUS
 62
    7
 10
1078.3863747074879
 20
440.60659978508193
 11
1079.634239217695
 21
440.60659978508193
  0
ARC
  8
_0-b_細線3
  6
CONTINUOUS
 62
    7
 10
1103.4530413682692
 20
437.93993311841479
 40
2.666666666666667
 50
0
 51
89.999999999999915
  0
ARC
  8
_0-b_細線3
  6
CONTINUOUS
 62
    7
 10
1102.2051768580623
 20
443.27326645174838
 40
2.666666666666667
 50
210.00000000000347
 51
269.99999999999977
  0
ARC
  8
_0-b_細線3
  6
CONTINUOUS
 62
    7
 10
1097.5863747045453
 20
440.60659978508193
 40
2.666666666666667
 50
29.999999999992543
 51
89.999999999995111
  0
LINE
  8
_0-b_細線3
  6
CONTINUOUS
 62
    7
 10
1103.4530413682692
 20
440.60659978508193
 11
1102.2051768580623
 21
440.60659978508193
  0
ARC
  8
_0-b_細線3
  6
CONTINUOUS
 62
    7
 10
1077.0530413741549
 20
434.20659978508195
 40
1.3333333333333335
 50
179.99999999999983
 51
269.99999999999977
  0
LINE
  8
_0-b_細線3
  6
CONTINUOUS
 62
    7
 10
1075.7197080408216
 20
437.93993311841479
 11
1075.7197080408216
 21
434.20659978508195
  0
ARC
  8
_0-b_細線3
  6
CONTINUOUS
 62
    7
 10
1104.7863747016024
 20
434.20659978508195
 40
1.3333333333333335
 50
269.99999999999977
 51
359.99999999999966
  0
LINE
  8
_0-b_細線3
  6
CONTINUOUS
 62
    7
 10
1106.1197080349357
 20
437.93993311841479
 11
1106.1197080349357
 21
434.20659978508195
  0
ARC
  8
_0-b_細線3
  6
CONTINUOUS
 62
    7
 10
1083.7197080408216
 20
430.20659978508195
 40
2.666666666666667
 50
0
 51
89.999999999999915
  0
LINE
  8
_0-b_細線3
  6
CONTINUOUS
 62
    7
 10
1083.7197080408216
 20
432.87326645174835
 11
1077.0530413741549
 21
432.87326645174835
  0
ARC
  8
_0-b_細線3
  6
CONTINUOUS
 62
    7
 10
1098.1197080408215
 20
430.20659978508195
 40
2.666666666666667
 50
89.999999999999915
 51
179.99999999999983
  0
LINE
  8
_0-b_細線3
  6
CONTINUOUS
 62
    7
 10
1098.1197080349352
 20
432.87326645174835
 11
1104.7863747016024
 21
432.87326645174835
  0
LINE
  8
_0-b_細線3
  6
CONTINUOUS
 62
    7
 10
1097.5863747045453
 20
443.27326645174838
 11
1084.2530413712116
 21
443.27326645174838
  0
LINE
  8
_0-b_細線3
  6
CONTINUOUS
 62
    7
 10
1086.3863747045452
 20
389.93993311841479
 11
1086.3863747074879
 21
430.20659978508195
  0
LINE
  8
_0-b_細線3
  6
CONTINUOUS
 62
    7
 10
1095.4530413712121
 20
389.93993311841479
 11
1095.4530413741552
 21
430.20659978508195
  0
LINE
  8
_0-b_細線3
  6
CONTINUOUS
 62
    7
 10
1095.4530413712121
 20
389.93993311841479
 11
1086.3863747045452
 21
389.93993311841479
  0
ARC
  8
_0-b_細線3
  6
CONTINUOUS
 62
    7
 10
625.05304136399968
 20
437.93993311841479
 40
2.666666666666667
 50
89.999999999999915
 51
179.99999999999983
  0
ARC
  8
_0-b_細線3
  6
CONTINUOUS
 62
    7
 10
626.30090587420739
 20
443.27326645174838
 40
2.666666666666667
 50
269.99999999999977
 51
329.99999999999579
  0
ARC
  8
_0-b_細線3
  6
CONTINUOUS
 62
    7
 10
630.91970802772448
 20
440.60659978508193
 40
2.666666666666667
 50
89.999999999999915
 51
150.0000000000087
  0
LINE
  8
_0-b_細線3
  6
CONTINUOUS
 62
    7
 10
625.05304136399968
 20
440.60659978508193
 11
626.30090587420739
 21
440.60659978508193
  0
ARC
  8
_0-b_細線3
  6
CONTINUOUS
 62
    7
 10
650.11970802478061
 20
437.93993311841479
 40
2.666666666666667
 50
0
 51
89.999999999999915
  0
ARC
  8
_0-b_細線3
  6
CONTINUOUS
 62
    7
 10
648.87184351457438
 20
443.27326645174838
 40
2.666666666666667
 50
210.00000000000347
 51
269.99999999999977
  0
ARC
  8
_0-b_細線3
  6
CONTINUOUS
 62
    7
 10
644.25304136105729
 20
440.60659978508193
 40
2.666666666666667
 50
29.999999999991321
 51
89.999999999999901
  0
LINE
  8
_0-b_細線3
  6
CONTINUOUS
 62
    7
 10
650.11970802478061
 20
440.60659978508193
 11
648.87184351457438
 21
440.60659978508193
  0
ARC
  8
_0-b_細線3
  6
CONTINUOUS
 62
    7
 10
623.71970803066688
 20
434.20659978508195
 40
1.3333333333333335
 50
179.99999999999983
 51
269.99999999999977
  0
LINE
  8
_0-b_細線3
  6
CONTINUOUS
 62
    7
 10
622.38637469733396
 20
437.93993311841479
 11
622.38637469733396
 21
434.20659978508195
  0
ARC
  8
_0-b_細線3
  6
CONTINUOUS
 62
    7
 10
651.45304135811489
 20
434.20659978508195
 40
1.3333333333333335
 50
269.99999999999977
 51
359.99999999999966
  0
LINE
  8
_0-b_細線3
  6
CONTINUOUS
 62
    7
 10
652.7863746914478
 20
437.93993311841479
 11
652.7863746914478
 21
434.20659978508195
  0
ARC
  8
_0-b_細線3
  6
CONTINUOUS
 62
    7
 10
630.38637469733396
 20
430.20659978508195
 40
2.666666666666667
 50
0
 51
89.999999999999915
  0
LINE
  8
_0-b_細線3
  6
CONTINUOUS
 62
    7
 10
630.38637469733396
 20
432.87326645174835
 11
623.71970803066688
 21
432.87326645174835
  0
ARC
  8
_0-b_細線3
  6
CONTINUOUS
 62
    7
 10
644.78637469733405
 20
430.20659978508195
 40
2.666666666666667
 50
89.999999999999915
 51
179.99999999999983
  0
LINE
  8
_0-b_細線3
  6
CONTINUOUS
 62
    7
 10
644.7863746914478
 20
432.87326645174835
 11
651.45304135811489
 21
432.87326645174835
  0
LINE
  8
_0-b_細線3
  6
CONTINUOUS
 62
    7
 10
644.25304136105729
 20
443.27326645174838
 11
630.91970802772448
 21
443.27326645174838
  0
LINE
  8
_0-b_細線3
  6
CONTINUOUS
 62
    7
 10
633.05304136105735
 20
389.93993311841479
 11
633.05304136399968
 21
430.20659978508195
  0
LINE
  8
_0-b_細線3
  6
CONTINUOUS
 62
    7
 10
642.11970802772441
 20
389.93993311841479
 11
642.11970803066686
 21
430.20659978508195
  0
LINE
  8
_0-b_細線3
  6
CONTINUOUS
 62
    7
 10
642.11970802772441
 20
389.93993311841479
 11
633.05304136105735
 21
389.93993311841479
  0
ARC
  8
_0-b_細線3
  6
CONTINUOUS
 62
    7
 10
579.71970802919566
 20
437.93993311841479
 40
2.666666666666667
 50
89.999999999999915
 51
179.99999999999983
  0
ARC
  8
_0-b_細線3
  6
CONTINUOUS
 62
    7
 10
580.96757253940268
 20
443.27326645174838
 40
2.666666666666667
 50
269.99999999999977
 51
329.9999999999946
  0
ARC
  8
_0-b_細線3
  6
CONTINUOUS
 62
    7
 10
585.58637469291966
 20
440.60659978508193
 40
2.666666666666667
 50
89.999999999999915
 51
150.0000000000087
  0
LINE
  8
_0-b_細線3
  6
CONTINUOUS
 62
    7
 10
579.71970802919566
 20
440.60659978508193
 11
580.96757253940268
 21
440.60659978508193
  0
ARC
  8
_0-b_細線3
  6
CONTINUOUS
 62
    7
 10
604.78637468997658
 20
437.93993311841479
 40
2.666666666666667
 50
0
 51
89.999999999999915
  0
ARC
  8
_0-b_細線3
  6
CONTINUOUS
 62
    7
 10
603.53851017977036
 20
443.27326645174838
 40
2.666666666666667
 50
209.99999999999616
 51
269.99999999999977
  0
ARC
  8
_0-b_細線3
  6
CONTINUOUS
 62
    7
 10
598.91970802625247
 20
440.60659978508193
 40
2.666666666666667
 50
29.999999999990099
 51
89.999999999982904
  0
LINE
  8
_0-b_細線3
  6
CONTINUOUS
 62
    7
 10
604.78637468997658
 20
440.60659978508193
 11
603.53851017977036
 21
440.60659978508193
  0
ARC
  8
_0-b_細線3
  6
CONTINUOUS
 62
    7
 10
578.38637469586274
 20
434.20659978508195
 40
1.3333333333333335
 50
179.99999999999983
 51
269.99999999999977
  0
LINE
  8
_0-b_細線3
  6
CONTINUOUS
 62
    7
 10
577.05304136252926
 20
437.93993311841479
 11
577.05304136252926
 21
434.20659978508195
  0
ARC
  8
_0-b_細線3
  6
CONTINUOUS
 62
    7
 10
606.11970802331007
 20
434.20659978508195
 40
1.3333333333333335
 50
269.99999999999977
 51
359.99999999999966
  0
LINE
  8
_0-b_細線3
  6
CONTINUOUS
 62
    7
 10
607.45304135664378
 20
437.93993311841479
 11
607.45304135664378
 21
434.20659978508195
  0
ARC
  8
_0-b_細線3
  6
CONTINUOUS
 62
    7
 10
585.05304136252926
 20
430.20659978508195
 40
2.666666666666667
 50
0
 51
89.999999999999915
  0
LINE
  8
_0-b_細線3
  6
CONTINUOUS
 62
    7
 10
585.05304136252926
 20
432.87326645174835
 11
578.38637469586274
 21
432.87326645174835
  0
ARC
  8
_0-b_細線3
  6
CONTINUOUS
 62
    7
 10
599.45304136252923
 20
430.20659978508195
 40
2.666666666666667
 50
89.999999999999915
 51
179.99999999999983
  0
LINE
  8
_0-b_細線3
  6
CONTINUOUS
 62
    7
 10
599.45304135664298
 20
432.87326645174835
 11
606.11970802331007
 21
432.87326645174835
  0
LINE
  8
_0-b_細線3
  6
CONTINUOUS
 62
    7
 10
598.91970802625247
 20
443.27326645174838
 11
585.58637469291966
 21
443.27326645174838
  0
LINE
  8
_0-b_細線3
  6
CONTINUOUS
 62
    7
 10
587.71970802625333
 20
389.93993311841479
 11
587.71970802919566
 21
430.20659978508195
  0
LINE
  8
_0-b_細線3
  6
CONTINUOUS
 62
    7
 10
596.78637469291971
 20
389.93993311841479
 11
596.78637469586283
 21
430.20659978508195
  0
LINE
  8
_0-b_細線3
  6
CONTINUOUS
 62
    7
 10
596.78637469291971
 20
389.93993311841479
 11
587.71970802625333
 21
389.93993311841479
  0
ARC
  8
_0-b_細線3
  6
CONTINUOUS
 62
    7
 10
534.38637469439163
 20
437.93993311841479
 40
2.666666666666667
 50
89.999999999999915
 51
179.99999999999983
  0
ARC
  8
_0-b_細線3
  6
CONTINUOUS
 62
    7
 10
535.63423920459798
 20
443.27326645174838
 40
2.666666666666667
 50
269.99999999999977
 51
329.9999999999946
  0
ARC
  8
_0-b_細線3
  6
CONTINUOUS
 62
    7
 10
540.25304135811507
 20
440.60659978508193
 40
2.666666666666667
 50
89.999999999999915
 51
150.00000000000992
  0
LINE
  8
_0-b_細線3
  6
CONTINUOUS
 62
    7
 10
534.38637469439163
 20
440.60659978508193
 11
535.63423920459798
 21
440.60659978508193
  0
ARC
  8
_0-b_細線3
  6
CONTINUOUS
 62
    7
 10
559.45304135517267
 20
437.93993311841479
 40
2.666666666666667
 50
0
 51
89.999999999999915
  0
ARC
  8
_0-b_細線3
  6
CONTINUOUS
 62
    7
 10
558.20517684496633
 20
443.27326645174838
 40
2.666666666666667
 50
209.99999999998883
 51
269.99999999999977
  0
ARC
  8
_0-b_細線3
  6
CONTINUOUS
 62
    7
 10
553.58637469144787
 20
440.60659978508193
 40
2.666666666666667
 50
29.999999999991321
 51
89.999999999970683
  0
LINE
  8
_0-b_細線3
  6
CONTINUOUS
 62
    7
 10
559.45304135517267
 20
440.60659978508193
 11
558.20517684496633
 21
440.60659978508193
  0
ARC
  8
_0-b_細線3
  6
CONTINUOUS
 62
    7
 10
533.05304136105883
 20
434.20659978508195
 40
1.3333333333333335
 50
179.99999999999983
 51
269.99999999999977
  0
LINE
  8
_0-b_細線3
  6
CONTINUOUS
 62
    7
 10
531.71970802772455
 20
437.93993311841479
 11
531.71970802772455
 21
434.20659978508195
  0
ARC
  8
_0-b_細線3
  6
CONTINUOUS
 62
    7
 10
560.78637468850548
 20
434.20659978508195
 40
1.3333333333333335
 50
269.99999999999977
 51
359.99999999999966
  0
LINE
  8
_0-b_細線3
  6
CONTINUOUS
 62
    7
 10
562.11970802183976
 20
437.93993311841479
 11
562.11970802183976
 21
434.20659978508195
  0
ARC
  8
_0-b_細線3
  6
CONTINUOUS
 62
    7
 10
539.71970802772455
 20
430.20659978508195
 40
2.666666666666667
 50
0
 51
89.999999999999915
  0
LINE
  8
_0-b_細線3
  6
CONTINUOUS
 62
    7
 10
539.71970802772455
 20
432.87326645174835
 11
533.05304136105883
 21
432.87326645174835
  0
ARC
  8
_0-b_細線3
  6
CONTINUOUS
 62
    7
 10
554.11970802772453
 20
430.20659978508195
 40
2.666666666666667
 50
89.999999999999915
 51
179.99999999999983
  0
LINE
  8
_0-b_細線3
  6
CONTINUOUS
 62
    7
 10
554.11970802183828
 20
432.87326645174835
 11
560.78637468850548
 21
432.87326645174835
  0
LINE
  8
_0-b_細線3
  6
CONTINUOUS
 62
    7
 10
553.58637469144787
 20
443.27326645174838
 11
540.25304135811507
 21
443.27326645174838
  0
LINE
  8
_0-b_細線3
  6
CONTINUOUS
 62
    7
 10
542.3863746914493
 20
389.93993311841479
 11
542.38637469439163
 21
430.20659978508195
  0
LINE
  8
_0-b_細線3
  6
CONTINUOUS
 62
    7
 10
551.453041358115
 20
389.93993311841479
 11
551.45304136105892
 21
430.20659978508195
  0
LINE
  8
_0-b_細線3
  6
CONTINUOUS
 62
    7
 10
551.453041358115
 20
389.93993311841479
 11
542.3863746914493
 21
389.93993311841479
  0
ARC
  8
_0-b_細線3
  6
CONTINUOUS
 62
    7
 10
488.253041364507
 20
437.93993311841479
 40
2.666666666666667
 50
89.999999999999915
 51
179.99999999999983
  0
ARC
  8
_0-b_細線3
  6
CONTINUOUS
 62
    7
 10
489.50090587471323
 20
443.27326645174838
 40
2.666666666666667
 50
269.99999999999977
 51
329.9999999999946
  0
ARC
  8
_0-b_細線3
  6
CONTINUOUS
 62
    7
 10
494.11970802823021
 20
440.60659978508193
 40
2.666666666666667
 50
89.999999999999915
 51
150.0000000000087
  0
LINE
  8
_0-b_細線3
  6
CONTINUOUS
 62
    7
 10
488.253041364507
 20
440.60659978508193
 11
489.50090587471323
 21
440.60659978508193
  0
ARC
  8
_0-b_細線3
  6
CONTINUOUS
 62
    7
 10
513.31970802528781
 20
437.93993311841479
 40
2.666666666666667
 50
0
 51
89.999999999999915
  0
ARC
  8
_0-b_細線3
  6
CONTINUOUS
 62
    7
 10
512.0718435150809
 20
443.27326645174838
 40
2.666666666666667
 50
210.00000000000347
 51
269.99999999999977
  0
ARC
  8
_0-b_細線3
  6
CONTINUOUS
 62
    7
 10
507.45304136156381
 20
440.60659978508193
 40
2.666666666666667
 50
29.999999999991321
 51
89.999999999999901
  0
LINE
  8
_0-b_細線3
  6
CONTINUOUS
 62
    7
 10
513.31970802528781
 20
440.60659978508193
 11
512.0718435150809
 21
440.60659978508193
  0
ARC
  8
_0-b_細線3
  6
CONTINUOUS
 62
    7
 10
486.91970803117329
 20
434.20659978508195
 40
1.3333333333333335
 50
179.99999999999983
 51
269.99999999999977
  0
LINE
  8
_0-b_細線3
  6
CONTINUOUS
 62
    7
 10
485.5863746978398
 20
437.93993311841479
 11
485.5863746978398
 21
434.20659978508195
  0
ARC
  8
_0-b_細線3
  6
CONTINUOUS
 62
    7
 10
514.65304135862141
 20
434.20659978508195
 40
1.3333333333333335
 50
269.99999999999977
 51
359.99999999999966
  0
LINE
  8
_0-b_細線3
  6
CONTINUOUS
 62
    7
 10
515.98637469195432
 20
437.93993311841479
 11
515.98637469195432
 21
434.20659978508195
  0
ARC
  8
_0-b_細線3
  6
CONTINUOUS
 62
    7
 10
493.5863746978398
 20
430.20659978508195
 40
2.666666666666667
 50
0
 51
89.999999999999915
  0
LINE
  8
_0-b_細線3
  6
CONTINUOUS
 62
    7
 10
493.5863746978398
 20
432.87326645174835
 11
486.91970803117329
 21
432.87326645174835
  0
ARC
  8
_0-b_細線3
  6
CONTINUOUS
 62
    7
 10
507.98637469784057
 20
430.20659978508195
 40
2.666666666666667
 50
89.999999999999915
 51
179.99999999999983
  0
LINE
  8
_0-b_細線3
  6
CONTINUOUS
 62
    7
 10
507.98637469195432
 20
432.87326645174835
 11
514.65304135862141
 21
432.87326645174835
  0
LINE
  8
_0-b_細線3
  6
CONTINUOUS
 62
    7
 10
507.45304136156381
 20
443.27326645174838
 11
494.11970802823021
 21
443.27326645174838
  0
LINE
  8
_0-b_細線3
  6
CONTINUOUS
 62
    7
 10
496.25304136156387
 20
389.93993311841479
 11
496.253041364507
 21
430.20659978508195
  0
LINE
  8
_0-b_細線3
  6
CONTINUOUS
 62
    7
 10
505.31970802823025
 20
389.93993311841479
 11
505.31970803117338
 21
430.20659978508195
  0
LINE
  8
_0-b_細線3
  6
CONTINUOUS
 62
    7
 10
505.31970802823025
 20
389.93993311841479
 11
496.25304136156387
 21
389.93993311841479
  0
ARC
  8
_0-b_細線3
  6
CONTINUOUS
 62
    7
 10
1124.5197080388916
 20
437.93993311841479
 40
2.666666666666667
 50
89.999999999999915
 51
179.99999999999983
  0
ARC
  8
_0-b_細線3
  6
CONTINUOUS
 62
    7
 10
1125.7675725490985
 20
443.27326645174838
 40
2.666666666666667
 50
269.99999999999977
 51
329.99999999999579
  0
ARC
  8
_0-b_細線3
  6
CONTINUOUS
 62
    7
 10
1130.3863747026148
 20
440.60659978508193
 40
2.666666666666667
 50
89.999999999999915
 51
150.00000000000014
  0
LINE
  8
_0-b_細線3
  6
CONTINUOUS
 62
    7
 10
1124.5197080388916
 20
440.60659978508193
 11
1125.7675725490985
 21
440.60659978508193
  0
ARC
  8
_0-b_細線3
  6
CONTINUOUS
 62
    7
 10
1149.5863746996724
 20
437.93993311841479
 40
2.666666666666667
 50
0
 51
89.999999999999915
  0
ARC
  8
_0-b_細線3
  6
CONTINUOUS
 62
    7
 10
1148.3385101894655
 20
443.27326645174838
 40
2.666666666666667
 50
210.00000000000347
 51
269.99999999999977
  0
ARC
  8
_0-b_細線3
  6
CONTINUOUS
 62
    7
 10
1143.7197080359485
 20
440.60659978508193
 40
2.666666666666667
 50
29.999999999992543
 51
89.999999999999901
  0
LINE
  8
_0-b_細線3
  6
CONTINUOUS
 62
    7
 10
1149.5863746996724
 20
440.60659978508193
 11
1148.3385101894655
 21
440.60659978508193
  0
ARC
  8
_0-b_細線3
  6
CONTINUOUS
 62
    7
 10
1123.1863747055581
 20
434.20659978508195
 40
1.3333333333333335
 50
179.99999999999983
 51
269.99999999999977
  0
LINE
  8
_0-b_細線3
  6
CONTINUOUS
 62
    7
 10
1121.8530413722251
 20
437.93993311841479
 11
1121.8530413722251
 21
434.20659978508195
  0
ARC
  8
_0-b_細線3
  6
CONTINUOUS
 62
    7
 10
1150.9197080330061
 20
434.20659978508195
 40
1.3333333333333335
 50
269.99999999999977
 51
359.99999999999966
  0
LINE
  8
_0-b_細線3
  6
CONTINUOUS
 62
    7
 10
1152.2530413663389
 20
437.93993311841479
 11
1152.2530413663389
 21
434.20659978508195
  0
ARC
  8
_0-b_細線3
  6
CONTINUOUS
 62
    7
 10
1129.8530413722251
 20
430.20659978508195
 40
2.666666666666667
 50
0
 51
89.999999999999915
  0
LINE
  8
_0-b_細線3
  6
CONTINUOUS
 62
    7
 10
1129.8530413722251
 20
432.87326645174835
 11
1123.1863747055581
 21
432.87326645174835
  0
ARC
  8
_0-b_細線3
  6
CONTINUOUS
 62
    7
 10
1144.2530413722252
 20
430.20659978508195
 40
2.666666666666667
 50
89.999999999999915
 51
179.99999999999983
  0
LINE
  8
_0-b_細線3
  6
CONTINUOUS
 62
    7
 10
1144.2530413663389
 20
432.87326645174835
 11
1150.9197080330061
 21
432.87326645174835
  0
LINE
  8
_0-b_細線3
  6
CONTINUOUS
 62
    7
 10
1143.7197080359485
 20
443.27326645174838
 11
1130.3863747026148
 21
443.27326645174838
  0
LINE
  8
_0-b_細線3
  6
CONTINUOUS
 62
    7
 10
1132.5197080359485
 20
389.93993311841479
 11
1132.5197080388916
 21
430.20659978508195
  0
LINE
  8
_0-b_細線3
  6
CONTINUOUS
 62
    7
 10
1141.5863747026156
 20
389.93993311841479
 11
1141.5863747055587
 21
430.20659978508195
  0
LINE
  8
_0-b_細線3
  6
CONTINUOUS
 62
    7
 10
1141.5863747026156
 20
389.93993311841479
 11
1132.5197080359485
 21
389.93993311841479
  0
LINE
  8
_0-d_寸法3
  6
CONTINUOUS
 62
    7
 10
954.91970803498373
 20
459.27326645174838
 11
954.91970803498373
 21
525.93993311841484
  0
LINE
  8
_0-d_寸法3
  6
CONTINUOUS
 62
    7
 10
954.91970803498373
 20
517.93993311841484
 11
970.37452125560878
 21
522.08103784005516
  0
LINE
  8
_0-d_寸法3
  6
CONTINUOUS
 62
    7
 10
954.91970803498373
 20
517.93993311841484
 11
970.37452125560878
 21
513.79882839677452
  0
LINE
  8
_0-d_寸法3
  6
CONTINUOUS
 62
    7
 10
1000.2530413692821
 20
459.27326645174838
 11
1000.2530413692821
 21
525.93993311841484
  0
LINE
  8
_0-d_寸法3
  6
CONTINUOUS
 62
    7
 10
1000.2530413692821
 20
517.93993311841484
 11
984.79822814865702
 21
513.79882839677452
  0
LINE
  8
_0-d_寸法3
  6
CONTINUOUS
 62
    7
 10
1000.2530413692821
 20
517.93993311841484
 11
984.79822814865702
 21
522.08103784005527
  0
LINE
  8
_0-d_寸法3
  6
CONTINUOUS
 62
    7
 10
954.91970803498373
 20
517.93993311841484
 11
1000.2530413692821
 21
517.93993311841484
  0
TEXT
  8
_0-d_寸法3
 62
    7
 10
951.73681103396552
 20
493.93993311841484
 40
24
 41
1
 50
0
  1
(17)
  0
LINE
  8
_0-d_寸法3
  6
CONTINUOUS
 62
    7
 10
1000.2530413692821
 20
517.93993311841484
 11
1015.7078545899072
 21
522.08103784005505
  0
LINE
  8
_0-d_寸法3
  6
CONTINUOUS
 62
    7
 10
1000.2530413692821
 20
517.93993311841484
 11
1015.7078545899071
 21
513.79882839677441
  0
LINE
  8
_0-d_寸法3
  6
CONTINUOUS
 62
    7
 10
1045.5863747035805
 20
459.27326645174838
 11
1045.5863747035805
 21
525.93993311841484
  0
LINE
  8
_0-d_寸法3
  6
CONTINUOUS
 62
    7
 10
1045.5863747035805
 20
517.93993311841484
 11
1030.1315614829555
 21
513.79882839677452
  0
LINE
  8
_0-d_寸法3
  6
CONTINUOUS
 62
    7
 10
1045.5863747035805
 20
517.93993311841484
 11
1030.1315614829555
 21
522.08103784005527
  0
LINE
  8
_0-d_寸法3
  6
CONTINUOUS
 62
    7
 10
1000.2530413692821
 20
517.93993311841484
 11
1045.5863747035805
 21
517.93993311841484
  0
TEXT
  8
_0-d_寸法3
 62
    7
 10
1000.3768110339656
 20
517.93993311841484
 40
24
 41
1
 50
0
  1
(17)
  0
LINE
  8
_0-d_寸法3
  6
CONTINUOUS
 62
    7
 10
652.78637469195417
 20
453.93993311841479
 11
652.78637469195417
 21
525.93993311841484
  0
LINE
  8
_0-d_寸法3
  6
CONTINUOUS
 62
    7
 10
652.78637469195417
 20
517.93993311841484
 11
637.33156147132911
 21
513.79882839677452
  0
LINE
  8
_0-d_寸法3
  6
CONTINUOUS
 62
    7
 10
652.78637469195417
 20
517.93993311841484
 11
637.33156147132911
 21
522.08103784005527
  0
LINE
  8
_0-d_寸法3
  6
CONTINUOUS
 62
    7
 10
667.7197080321381
 20
453.93993311841479
 11
667.7197080321381
 21
525.93993311841484
  0
LINE
  8
_0-d_寸法3
  6
CONTINUOUS
 62
    7
 10
589.78804559888715
 20
517.93993311841484
 11
667.7197080321381
 21
517.93993311841484
  0
TEXT
  8
_0-d_寸法3
 62
    7
 10
589.78804559888704
 20
493.93993311841484
 40
24
 41
1
 50
0
  1
(5.6)
  0
LINE
  8
_0-d_寸法3
  6
CONTINUOUS
 62
    7
 10
667.7197080321381
 20
517.93993311841484
 11
683.17452125276316
 21
522.08103784005516
  0
LINE
  8
_0-d_寸法3
  6
CONTINUOUS
 62
    7
 10
667.7197080321381
 20
517.93993311841484
 11
683.17452125276316
 21
513.79882839677452
  0
LINE
  8
_0-d_寸法3
  6
CONTINUOUS
 62
    7
 10
698.11970802625183
 20
453.93993311841479
 11
698.11970802625183
 21
525.93993311841484
  0
LINE
  8
_0-d_寸法3
  6
CONTINUOUS
 62
    7
 10
698.11970802625183
 20
517.93993311841484
 11
682.66489480562677
 21
513.79882839677452
  0
LINE
  8
_0-d_寸法3
  6
CONTINUOUS
 62
    7
 10
698.11970802625183
 20
517.93993311841484
 11
682.66489480562677
 21
522.08103784005527
  0
LINE
  8
_0-d_寸法3
  6
CONTINUOUS
 62
    7
 10
667.7197080321381
 20
517.93993311841484
 11
698.11970802625183
 21
517.93993311841484
  0
TEXT
  8
_0-d_寸法3
 62
    7
 10
652.896193747035
 20
517.93993311841484
 40
24
 41
1
 50
0
  1
11.4
  0
LINE
  8
_0-d_寸法3
  6
CONTINUOUS
 62
    7
 10
805.81327532346552
 20
399.11715610003154
 11
749.24952856236871
 21
438.72351797153681
  0
LINE
  8
_0-d_寸法3
  6
CONTINUOUS
 62
    7
 10
755.80274491668058
 20
434.13490648072843
 11
751.66164019504026
 21
449.58971970135354
  0
LINE
  8
_0-d_寸法3
  6
CONTINUOUS
 62
    7
 10
755.80274491668058
 20
434.13490648072843
 11
759.9438496383209
 21
449.58971970135354
  0
LINE
  8
_0-d_寸法3
  6
CONTINUOUS
 62
    7
 10
805.81327532346552
 20
452.45048943336514
 11
749.24952856236871
 21
492.05685130487035
  0
LINE
  8
_0-d_寸法3
  6
CONTINUOUS
 62
    7
 10
755.80274491668058
 20
487.46823981406197
 11
759.94384963832078
 21
472.01342659343686
  0
LINE
  8
_0-d_寸法3
  6
CONTINUOUS
 62
    7
 10
755.80274491668058
 20
487.46823981406197
 11
751.66164019504015
 21
472.01342659343692
  0
LINE
  8
_0-d_寸法3
  6
CONTINUOUS
 62
    7
 10
755.80274491668058
 20
434.13490648072843
 11
755.80274491668058
 21
487.46823981406197
  0
TEXT
  8
_0-d_寸法3
 62
    7
 10
755.80274491668058
 20
448.80157314739483
 40
24
 41
1
 50
90
  1
20
  0
LINE
  8
_0-d_寸法3
  6
CONTINUOUS
 62
    7
 10
552.25304136542297
 20
373.93993311841479
 11
552.25304136542297
 21
277.1750927436326
  0
LINE
  8
_0-d_寸法3
  6
CONTINUOUS
 62
    7
 10
552.25304136542297
 20
285.1750927436326
 11
567.70785458604803
 21
289.31619746527281
  0
LINE
  8
_0-d_寸法3
  6
CONTINUOUS
 62
    7
 10
552.25304136542297
 20
285.1750927436326
 11
567.70785458604803
 21
281.03398802199217
  0
LINE
  8
_0-d_寸法3
  6
CONTINUOUS
 62
    7
 10
1085.5863746987566
 20
373.93993311841479
 11
1085.5863746987566
 21
277.1750927436326
  0
LINE
  8
_0-d_寸法3
  6
CONTINUOUS
 62
    7
 10
1085.5863746987566
 20
285.1750927436326
 11
1070.1315614781315
 21
281.03398802199229
  0
LINE
  8
_0-d_寸法3
  6
CONTINUOUS
 62
    7
 10
1085.5863746987566
 20
285.1750927436326
 11
1070.1315614781315
 21
289.31619746527292
  0
LINE
  8
_0-d_寸法3
  6
CONTINUOUS
 62
    7
 10
552.25304136542297
 20
285.1750927436326
 11
1085.5863746987566
 21
285.1750927436326
  0
TEXT
  8
_0-d_寸法3
 62
    7
 10
800.91970803209006
 20
285.1750927436326
 40
24
 41
1
 50
0
  1
200
  0
LINE
  8
_0-a_極細3
  6
CONTINUOUS
 62
    7
 10
402.42893221264649
 20
301.75065497842002
 11
394.2204487728302
 21
324.30327787728243
  0
LINE
  8
_0-a_極細3
  6
CONTINUOUS
 62
    7
 10
482.41940049072082
 20
356.4050709960764
 11
490.62788393053643
 21
333.85244809721411
  0
LINE
  8
_0-a_極細3
  6
CONTINUOUS
 62
    7
 10
394.2204487728302
 20
324.30327787728243
 11
482.41940049072082
 21
356.4050709960764
  0
LINE
  8
_0-a_極細3
  6
CONTINUOUS
 62
    7
 10
402.42893221264649
 20
301.75065497842002
 11
490.62788393053643
 21
333.85244809721411
  0
LINE
  8
_0-a_極細3
  6
CENTER1
 62
    7
 10
390.39599706554998
 20
310.1411583638037
 11
492.84562983765522
 21
347.42977513985971
  0
LINE
  8
_0-a_極細3
  6
CONTINUOUS
 62
    7
 10
432.25304136542309
 20
261.93993311841473
 11
432.25304136542309
 21
332.4768312757202
  0
LINE
  8
_0-a_極細3
  6
CONTINUOUS
 62
    7
 10
432.25304136542309
 20
332.4768312757202
 11
408.25304136542309
 21
332.4768312757202
  0
LINE
  8
_0-a_極細3
  6
CONTINUOUS
 62
    7
 10
408.25304136542309
 20
332.4768312757202
 11
408.25304136542309
 21
261.93993311841473
  0
LINE
  8
_0-a_極細3
  6
CENTER1
 62
    7
 10
420.25304136542309
 20
248.69714866329014
 11
420.25304136542309
 21
339.31798353909545
  0
LINE
  8
_0-d_寸法3
  6
CONTINUOUS
 62
    7
 10
456.25304136542309
 20
381.93993311841484
 11
382.73299163968011
 21
381.93993311841479
  0
LINE
  8
_0-d_寸法3
  6
CONTINUOUS
 62
    7
 10
390.73299163968011
 20
381.93993311841479
 11
394.87409636132043
 21
366.48511989778967
  0
LINE
  8
_0-d_寸法3
  6
CONTINUOUS
 62
    7
 10
390.73299163968011
 20
381.93993311841479
 11
386.59188691803979
 21
366.48511989778973
  0
LINE
  8
_0-d_寸法3
  6
CONTINUOUS
 62
    7
 10
453.05304136542316
 20
320.60659978508124
 11
382.73299163968022
 21
320.60659978508124
  0
LINE
  8
_0-d_寸法3
  6
CONTINUOUS
 62
    7
 10
390.73299163968022
 20
320.60659978508124
 11
386.5918869180399
 21
336.0614130057063
  0
LINE
  8
_0-d_寸法3
  6
CONTINUOUS
 62
    7
 10
390.73299163968022
 20
320.60659978508124
 11
394.87409636132054
 21
336.06141300570636
  0
LINE
  8
_0-d_寸法3
  6
CONTINUOUS
 62
    7
 10
390.73299163968011
 20
381.93993311841479
 11
390.73299163968022
 21
320.60659978508124
  0
TEXT
  8
_0-d_寸法3
 62
    7
 10
390.73299163968022
 20
339.27326645174765
 40
24
 41
1
 50
90
  1
23
  0
LINE
  8
_0-d_寸法3
  6
CONTINUOUS
 62
    7
 10
472.25304136542286
 20
304.60659978508193
 11
472.25304136542263
 21
277.1750927436326
  0
LINE
  8
_0-d_寸法3
  6
CONTINUOUS
 62
    7
 10
472.25304136542263
 20
285.1750927436326
 11
487.70785458604769
 21
289.31619746527281
  0
LINE
  8
_0-d_寸法3
  6
CONTINUOUS
 62
    7
 10
472.25304136542263
 20
285.1750927436326
 11
487.70785458604769
 21
281.03398802199217
  0
LINE
  8
_0-d_寸法3
  6
CONTINUOUS
 62
    7
 10
552.25304136542286
 20
365.93993311841479
 11
552.25304136542195
 21
277.1750927436326
  0
LINE
  8
_0-d_寸法3
  6
CONTINUOUS
 62
    7
 10
552.25304136542206
 20
285.1750927436326
 11
536.79822814479701
 21
281.03398802199229
  0
LINE
  8
_0-d_寸法3
  6
CONTINUOUS
 62
    7
 10
552.25304136542206
 20
285.1750927436326
 11
536.79822814479701
 21
289.31619746527292
  0
LINE
  8
_0-d_寸法3
  6
CONTINUOUS
 62
    7
 10
472.25304136542263
 20
285.1750927436326
 11
552.25304136542206
 21
285.1750927436326
  0
TEXT
  8
_0-d_寸法3
 62
    7
 10
500.2530413654224
 20
285.1750927436326
 40
24
 41
1
 50
0
  1
30
  0
LINE
  8
_0-d_寸法3
  6
CONTINUOUS
 62
    7
 10
456.25304136542297
 20
443.27326645174844
 11
382.73299163967999
 21
443.27326645174838
  0
LINE
  8
_0-d_寸法3
  6
CONTINUOUS
 62
    7
 10
390.73299163967999
 20
443.27326645174838
 11
394.8740963613202
 21
427.81845323112327
  0
LINE
  8
_0-d_寸法3
  6
CONTINUOUS
 62
    7
 10
390.73299163967999
 20
443.27326645174838
 11
386.59188691803956
 21
427.81845323112333
  0
LINE
  8
_0-d_寸法3
  6
CONTINUOUS
 62
    7
 10
453.05304136542304
 20
381.93993311841484
 11
382.73299163968011
 21
381.93993311841479
  0
LINE
  8
_0-d_寸法3
  6
CONTINUOUS
 62
    7
 10
390.73299163968011
 20
381.93993311841479
 11
386.59188691803979
 21
397.39474633903984
  0
LINE
  8
_0-d_寸法3
  6
CONTINUOUS
 62
    7
 10
390.73299163968011
 20
381.93993311841479
 11
394.87409636132043
 21
397.3947463390399
  0
LINE
  8
_0-d_寸法3
  6
CONTINUOUS
 62
    7
 10
390.73299163967999
 20
443.27326645174838
 11
390.73299163968011
 21
381.93993311841479
  0
TEXT
  8
_0-d_寸法3
 62
    7
 10
390.73299163967999
 20
400.60659978508124
 40
24
 41
1
 50
90
  1
23
  0
LINE
  8
_0-a_極細3
  6
CONTINUOUS
 62
    7
 10
1235.4104838515334
 20
301.75065497842002
 11
1243.6189672913497
 21
324.30327787728243
  0
LINE
  8
_0-a_極細3
  6
CONTINUOUS
 62
    7
 10
1155.4200155734591
 20
356.4050709960764
 11
1147.2115321336435
 21
333.85244809721411
  0
LINE
  8
_0-a_極細3
  6
CONTINUOUS
 62
    7
 10
1243.6189672913497
 20
324.30327787728243
 11
1155.4200155734591
 21
356.4050709960764
  0
LINE
  8
_0-a_極細3
  6
CONTINUOUS
 62
    7
 10
1235.4104838515334
 20
301.75065497842002
 11
1147.2115321336435
 21
333.85244809721411
  0
LINE
  8
_0-a_極細3
  6
CENTER1
 62
    7
 10
1247.44341899863
 20
310.1411583638037
 11
1144.9937862265244
 21
347.42977513985971
  0
LINE
  8
_0-a_極細3
  6
CONTINUOUS
 62
    7
 10
1205.5863746987568
 20
261.93993311841473
 11
1205.5863746987568
 21
332.4768312757202
  0
LINE
  8
_0-a_極細3
  6
CONTINUOUS
 62
    7
 10
1229.5863746987568
 20
332.4768312757202
 11
1229.5863746987568
 21
261.93993311841473
  0
LINE
  8
_0-a_極細3
  6
CENTER1
 62
    7
 10
1217.5863746987568
 20
248.69714866329014
 11
1217.5863746987568
 21
339.31798353909545
  0
LINE
  8
_0-d_寸法3
  6
CONTINUOUS
 62
    7
 10
1165.586374698757
 20
304.60659978508193
 11
1165.5863746987573
 21
277.1750927436326
  0
LINE
  8
_0-d_寸法3
  6
CONTINUOUS
 62
    7
 10
1165.5863746987573
 20
285.1750927436326
 11
1150.1315614781322
 21
281.03398802199217
  0
LINE
  8
_0-d_寸法3
  6
CONTINUOUS
 62
    7
 10
1165.5863746987573
 20
285.1750927436326
 11
1150.1315614781322
 21
289.31619746527281
  0
LINE
  8
_0-d_寸法3
  6
CONTINUOUS
 62
    7
 10
1085.5863746987568
 20
365.93993311841479
 11
1085.5863746987575
 21
277.1750927436326
  0
LINE
  8
_0-d_寸法3
  6
CONTINUOUS
 62
    7
 10
1085.5863746987575
 20
285.1750927436326
 11
1101.0411879193825
 21
289.31619746527292
  0
LINE
  8
_0-d_寸法3
  6
CONTINUOUS
 62
    7
 10
1085.5863746987575
 20
285.1750927436326
 11
1101.0411879193825
 21
281.03398802199229
  0
LINE
  8
_0-d_寸法3
  6
CONTINUOUS
 62
    7
 10
1165.5863746987573
 20
285.1750927436326
 11
1085.5863746987575
 21
285.1750927436326
  0
TEXT
  8
_0-d_寸法3
 62
    7
 10
1113.5863746987575
 20
285.17509274363249
 40
24
 41
1
 50
0.0000000000002714
  1
30
  0
LINE
  8
_0-a_極細3
  6
CONTINUOUS
 62
    7
 10
1205.5863746987568
 20
332.4768312757202
 11
1229.5863746987568
 21
332.4768312757202
  0
CIRCLE
  8
_0-a_極細3
  6
CONTINUOUS
 62
    7
 10
1242.1109828060337
 20
341.03943642430318
 40
0.884938271604915
  0
CIRCLE
  8
_0-a_極細3
  6
CONTINUOUS
 62
    7
 10
1210.7509828060338
 20
349.99943642430298
 40
0.884938271604915
  0
TEXT
  8
_0-7_枠細線
 62
    5
 10
739.04443180931662
 20
149.93934911572944
 40
40
 41
0.8
 50
0
  1
断面詳細図
  0
LINE
  8
_0-a_極細3
  6
CENTER1
 62
    7
 10
1162.5788141047201
 20
413.40659978508165
 11
469.60665345415805
 21
413.40659978508165
  0
LINE
  8
_0-b_細線3
  6
CONTINUOUS
 62
    7
 10
914.11970803549116
 20
396.07326645174811
 11
950.38637470215838
 21
396.07326645174811
  0
LINE
  8
_0-b_細線3
  6
CONTINUOUS
 62
    7
 10
868.78637470119224
 20
396.07326645174811
 11
905.05304136785924
 21
396.07326645174811
  0
LINE
  8
_0-b_細線3
  6
CONTINUOUS
 62
    7
 10
778.11970803259624
 20
396.07326645174811
 11
814.38637469926266
 21
396.07326645174811
  0
LINE
  8
_0-b_細線3
  6
CONTINUOUS
 62
    7
 10
732.78637469829857
 20
396.07326645174811
 11
769.053041364965
 21
396.07326645174811
  0
LINE
  8
_0-b_細線3
  6
CONTINUOUS
 62
    7
 10
687.45304136399943
 20
396.07326645174811
 11
723.71970803066654
 21
396.07326645174811
  0
LINE
  8
_0-b_細線3
  6
CONTINUOUS
 62
    7
 10
959.45304136978882
 20
396.07326645174811
 11
995.71970803645604
 21
396.07326645174811
  0
LINE
  8
_0-b_細線3
  6
CONTINUOUS
 62
    7
 10
1004.7863747040872
 20
396.07326645174811
 11
1041.0530413707536
 21
396.07326645174811
  0
LINE
  8
_0-b_細線3
  6
CONTINUOUS
 62
    7
 10
1050.1197080383856
 20
396.07326645174811
 11
1086.3863747050527
 21
396.07326645174811
  0
LINE
  8
_0-b_細線3
  6
CONTINUOUS
 62
    7
 10
642.11970802919541
 20
396.07326645174811
 11
678.38637469586251
 21
396.07326645174811
  0
LINE
  8
_0-b_細線3
  6
CONTINUOUS
 62
    7
 10
596.78637469439059
 20
396.07326645174811
 11
633.05304136105781
 21
396.07326645174811
  0
LINE
  8
_0-b_細線3
  6
CONTINUOUS
 62
    7
 10
551.45304135958656
 20
396.07326645174811
 11
587.71970802625299
 21
396.07326645174811
  0
LINE
  8
_0-b_細線3
  6
CONTINUOUS
 62
    7
 10
505.31970802427611
 20
396.07326645174811
 11
542.38637469094328
 21
396.07326645174811
  0
LINE
  8
_0-b_細線3
  6
CONTINUOUS
 62
    7
 10
1095.4530413726832
 20
396.07326645174811
 11
1132.5197080393505
 21
396.07326645174811
  0
LINE
  8
_0-b_細線3
  6
CONTINUOUS
 62
    7
 10
914.11970803549082
 20
430.73993311841451
 11
950.38637470215804
 21
430.73993311841451
  0
LINE
  8
_0-b_細線3
  6
CONTINUOUS
 62
    7
 10
868.78637470119259
 20
430.73993311841451
 11
905.0530413678589
 21
430.73993311841451
  0
LINE
  8
_0-b_細線3
  6
CONTINUOUS
 62
    7
 10
778.11970803259646
 20
430.73993311841451
 11
814.38637469926289
 21
430.73993311841451
  0
LINE
  8
_0-b_細線3
  6
CONTINUOUS
 62
    7
 10
732.7863746982988
 20
430.73993311841451
 11
769.05304136496522
 21
430.73993311841451
  0
LINE
  8
_0-b_細線3
  6
CONTINUOUS
 62
    7
 10
687.45304136399966
 20
430.73993311841451
 11
723.71970803066688
 21
430.73993311841451
  0
LINE
  8
_0-b_細線3
  6
CONTINUOUS
 62
    7
 10
959.45304136978916
 20
430.73993311841451
 11
995.71970803645559
 21
430.73993311841451
  0
LINE
  8
_0-b_細線3
  6
CONTINUOUS
 62
    7
 10
1004.7863747040872
 20
430.73993311841451
 11
1041.053041370754
 21
430.73993311841451
  0
LINE
  8
_0-b_細線3
  6
CONTINUOUS
 62
    7
 10
1050.1197080383852
 20
430.73993311841451
 11
1086.3863747050523
 21
430.73993311841451
  0
LINE
  8
_0-b_細線3
  6
CONTINUOUS
 62
    7
 10
642.11970802919564
 20
430.73993311841451
 11
678.38637469586286
 21
430.73993311841451
  0
LINE
  8
_0-b_細線3
  6
CONTINUOUS
 62
    7
 10
596.78637469439104
 20
430.73993311841451
 11
633.05304136105804
 21
430.73993311841451
  0
LINE
  8
_0-b_細線3
  6
CONTINUOUS
 62
    7
 10
551.45304135958622
 20
430.73993311841451
 11
587.71970802625333
 21
430.73993311841451
  0
LINE
  8
_0-b_細線3
  6
CONTINUOUS
 62
    7
 10
505.31970802427577
 20
430.73993311841451
 11
542.38637469094283
 21
430.73993311841451
  0
LINE
  8
_0-b_細線3
  6
CONTINUOUS
 62
    7
 10
1095.4530413726836
 20
430.73993311841451
 11
1132.5197080393507
 21
430.73993311841451
  0
ARC
  8
_0-b_細線3
  6
CONTINUOUS
 62
    7
 10
492.79504669342521
 20
396.60659978508215
 40
0.5333333333333335
 50
179.99999999999983
 51
269.99999999999977
  0
LINE
  8
_0-b_細線3
  6
CONTINUOUS
 62
    7
 10
496.25304136009242
 20
396.07326645174862
 11
492.79504669342521
 21
396.07326645174862
  0
ARC
  8
_0-b_細線3
  6
CONTINUOUS
 62
    7
 10
492.79504669342521
 20
430.20659978508149
 40
0.5333333333333335
 50
89.999999999999915
 51
179.99999999999983
  0
LINE
  8
_0-b_細線3
  6
CONTINUOUS
 62
    7
 10
496.25304136009242
 20
430.73993311841582
 11
492.79504669342521
 21
430.73993311841582
  0
LINE
  8
_0-b_細線3
  6
CONTINUOUS
 62
    7
 10
492.26171336009133
 20
412.07326645174862
 11
492.26171336009133
 21
396.60659978508215
  0
LINE
  8
_0-b_細線3
  6
CONTINUOUS
 62
    7
 10
492.26171336009133
 20
430.20659978508149
 11
492.26171336009133
 21
412.07326645174862
  0
LINE
  8
_0-b_細線3
  6
CONTINUOUS
 62
    7
 10
492.26171336009133
 20
413.40659978508148
 11
484.24967069342438
 21
413.40659978508148
  0
LINE
  8
_0-b_細線3
  6
CONTINUOUS
 62
    7
 10
492.26171336009133
 20
404.07326645174936
 11
484.24963869342605
 21
404.07326645174936
  0
ARC
  8
_0-b_細線3
  6
CONTINUOUS
 62
    7
 10
484.24963869342605
 20
404.60659978508221
 40
0.5333333333333335
 50
179.99999999999983
 51
269.99999999999977
  0
ARC
  8
_0-b_細線3
  6
CONTINUOUS
 62
    7
 10
504.40425202675829
 20
408.73954378508307
 40
20.687882666666667
 50
166.96197800000505
 51
193.03566999999961
  0
ARC
  8
_0-b_細線3
  6
CONTINUOUS
 62
    7
 10
484.24963869342605
 20
422.20659978508297
 40
0.5333333333333335
 50
89.999999999999915
 51
179.99999999999983
  0
ARC
  8
_0-b_細線3
  6
CONTINUOUS
 62
    7
 10
504.40425202675829
 20
418.07365045174839
 40
20.687882666666667
 50
166.96433000000002
 51
193.03802199999842
  0
LINE
  8
_0-b_細線3
  6
CONTINUOUS
 62
    7
 10
492.26171336009133
 20
422.73993311841582
 11
484.24963869342605
 21
422.73993311841582
  0
LINE
  8
_0-b_細線3
  6
CONTINUOUS
 62
    7
 10
483.71630536009161
 20
404.60659978508221
 11
483.71630536009161
 21
422.20659978508297
  0
ARC
  8
_0-b_細線3
  6
CONTINUOUS
 62
    7
 10
1145.0443693707548
 20
396.60659978508215
 40
0.5333333333333335
 50
269.99999999999977
 51
359.99999999999966
  0
LINE
  8
_0-b_細線3
  6
CONTINUOUS
 62
    7
 10
1141.5863747040876
 20
396.07326645174862
 11
1145.0443693707548
 21
396.07326645174862
  0
ARC
  8
_0-b_細線3
  6
CONTINUOUS
 62
    7
 10
1145.0443693707548
 20
430.20659978508149
 40
0.5333333333333335
 50
0
 51
89.999999999999915
  0
LINE
  8
_0-b_細線3
  6
CONTINUOUS
 62
    7
 10
1141.5863747040876
 20
430.73993311841582
 11
1145.0443693707548
 21
430.73993311841582
  0
LINE
  8
_0-b_細線3
  6
CONTINUOUS
 62
    7
 10
1145.5777027040888
 20
412.07326645174862
 11
1145.5777027040888
 21
396.60659978508215
  0
LINE
  8
_0-b_細線3
  6
CONTINUOUS
 62
    7
 10
1145.5777027040888
 20
430.20659978508149
 11
1145.5777027040888
 21
412.07326645174862
  0
LINE
  8
_0-b_細線3
  6
CONTINUOUS
 62
    7
 10
1145.5777027040888
 20
413.40659978508148
 11
1153.5897453707555
 21
413.40659978508148
  0
LINE
  8
_0-b_細線3
  6
CONTINUOUS
 62
    7
 10
1145.5777027040888
 20
404.07326645174936
 11
1153.5897773707541
 21
404.07326645174936
  0
ARC
  8
_0-b_細線3
  6
CONTINUOUS
 62
    7
 10
1153.5897773707541
 20
404.60659978508221
 40
0.5333333333333335
 50
269.99999999999977
 51
359.99999999999966
  0
ARC
  8
_0-b_細線3
  6
CONTINUOUS
 62
    7
 10
1133.4351640374218
 20
408.73954378508307
 40
20.687882666666667
 50
346.96432999999968
 51
13.038021999994573
  0
ARC
  8
_0-b_細線3
  6
CONTINUOUS
 62
    7
 10
1153.5897773707541
 20
422.20659978508297
 40
0.5333333333333335
 50
0
 51
89.999999999999915
  0
ARC
  8
_0-b_細線3
  6
CONTINUOUS
 62
    7
 10
1133.4351640374218
 20
418.07365045174839
 40
20.687882666666667
 50
346.96197800000084
 51
13.035669999999625
  0
LINE
  8
_0-b_細線3
  6
CONTINUOUS
 62
    7
 10
1145.5777027040888
 20
422.73993311841582
 11
1153.5897773707541
 21
422.73993311841582
  0
LINE
  8
_0-b_細線3
  6
CONTINUOUS
 62
    7
 10
1154.1231107040883
 20
404.60659978508221
 11
1154.1231107040883
 21
422.20659978508297
  0
ARC
  8
_0-b_細線3
  6
CONTINUOUS
 62
    7
 10
806.38637470169886
 20
437.93993311841479
 40
2.666666666666667
 50
89.999999999999915
 51
179.99999999999983
  0
ARC
  8
_0-b_細線3
  6
CONTINUOUS
 62
    7
 10
807.63423921190588
 20
443.27326645174838
 40
2.666666666666667
 50
269.99999999999977
 51
329.9999999999946
  0
ARC
  8
_0-b_細線3
  6
CONTINUOUS
 62
    7
 10
812.25304136542286
 20
440.60659978508193
 40
2.666666666666667
 50
89.999999999999915
 51
150.0000000000087
  0
LINE
  8
_0-b_細線3
  6
CONTINUOUS
 62
    7
 10
806.38637470169886
 20
440.60659978508193
 11
807.63423921190588
 21
440.60659978508193
  0
ARC
  8
_0-b_細線3
  6
CONTINUOUS
 62
    7
 10
831.45304136248046
 20
437.93993311841479
 40
2.666666666666667
 50
0
 51
89.999999999999915
  0
ARC
  8
_0-b_細線3
  6
CONTINUOUS
 62
    7
 10
830.20517685227355
 20
443.27326645174838
 40
2.666666666666667
 50
210.00000000000347
 51
269.99999999999977
  0
ARC
  8
_0-b_細線3
  6
CONTINUOUS
 62
    7
 10
825.58637469875646
 20
440.60659978508193
 40
2.666666666666667
 50
29.999999999991321
 51
89.999999999999901
  0
LINE
  8
_0-b_細線3
  6
CONTINUOUS
 62
    7
 10
831.45304136248046
 20
440.60659978508193
 11
830.20517685227355
 21
440.60659978508193
  0
ARC
  8
_0-b_細線3
  6
CONTINUOUS
 62
    7
 10
805.05304136836605
 20
434.20659978508195
 40
1.3333333333333335
 50
179.99999999999983
 51
269.99999999999977
  0
LINE
  8
_0-b_細線3
  6
CONTINUOUS
 62
    7
 10
803.71970803503245
 20
437.93993311841479
 11
803.71970803503245
 21
434.20659978508195
  0
ARC
  8
_0-b_細線3
  6
CONTINUOUS
 62
    7
 10
832.78637469581406
 20
434.20659978508195
 40
1.3333333333333335
 50
269.99999999999977
 51
359.99999999999966
  0
LINE
  8
_0-b_細線3
  6
CONTINUOUS
 62
    7
 10
834.11970802914698
 20
437.93993311841479
 11
834.11970802914698
 21
434.20659978508195
  0
ARC
  8
_0-b_細線3
  6
CONTINUOUS
 62
    7
 10
811.71970803503245
 20
430.20659978508195
 40
2.666666666666667
 50
0
 51
89.999999999999915
  0
LINE
  8
_0-b_細線3
  6
CONTINUOUS
 62
    7
 10
811.71970803503245
 20
432.87326645174835
 11
805.05304136836605
 21
432.87326645174835
  0
ARC
  8
_0-b_細線3
  6
CONTINUOUS
 62
    7
 10
826.11970803503243
 20
430.20659978508195
 40
2.666666666666667
 50
89.999999999999915
 51
179.99999999999983
  0
LINE
  8
_0-b_細線3
  6
CONTINUOUS
 62
    7
 10
826.11970802914618
 20
432.87326645174835
 11
832.78637469581406
 21
432.87326645174835
  0
LINE
  8
_0-b_細線3
  6
CONTINUOUS
 62
    7
 10
825.58637469875646
 20
443.27326645174838
 11
812.25304136542286
 21
443.27326645174838
  0
LINE
  8
_0-b_細線3
  6
CONTINUOUS
 62
    7
 10
814.38637469875653
 20
389.93993311841479
 11
814.38637470169886
 21
430.20659978508195
  0
LINE
  8
_0-b_細線3
  6
CONTINUOUS
 62
    7
 10
823.45304136542291
 20
389.93993311841479
 11
823.45304136836603
 21
430.20659978508195
  0
LINE
  8
_0-b_細線3
  6
CONTINUOUS
 62
    7
 10
823.45304136542291
 20
389.93993311841479
 11
814.38637469875653
 21
389.93993311841479
  0
LINE
  8
_0-b_細線3
  6
CONTINUOUS
 62
    7
 10
823.45304136583229
 20
396.07326645174811
 11
835.31970803404295
 21
396.07326645174811
  0
LINE
  8
_0-b_細線3
  6
CONTINUOUS
 62
    7
 10
823.45304136840491
 20
430.73993311841451
 11
835.31970803404295
 21
430.73993311841451
  0
LINE
  8
_0-b_細線3
  6
CONTINUOUS
 62
    7
 10
847.85304136737727
 20
443.95014938013668
 11
847.85304136737727
 21
390.61681604680228
  0
LINE
  8
_0-b_細線3
  6
CONTINUOUS
 62
    7
 10
835.31970803404306
 20
390.61681604680228
 11
835.31970803404306
 21
443.95014938013668
  0
LINE
  8
_0-b_細線3
  6
CONTINUOUS
 62
    7
 10
847.85304136737727
 20
390.61681604680228
 11
835.31970803404306
 21
390.61681604680228
  0
LINE
  8
_0-b_細線3
  6
CONTINUOUS
 62
    7
 10
835.31970803404306
 20
443.95014938013668
 11
847.85304136737727
 21
443.95014938013668
  0
LINE
  8
_0-b_細線3
  6
DASHED2
 62
    7
 10
835.31970803404306
 20
398.61681604680234
 11
847.85304136737727
 21
398.61681604680234
  0
LINE
  8
_0-b_細線3
  6
DASHED2
 62
    7
 10
835.31970803404306
 20
435.95014938013668
 11
847.85304136737727
 21
435.95014938013668
  0
LINE
  8
_0-b_細線3
  6
CONTINUOUS
 62
    7
 10
847.85304136737727
 20
396.07326645174811
 11
859.71970803356169
 21
396.07326645174811
  0
LINE
  8
_0-b_細線3
  6
CONTINUOUS
 62
    7
 10
847.85304136737727
 20
430.73993311841451
 11
859.71970803356135
 21
430.73993311841451
  0
LINE
  8
_0-b_細線3
  6
CONTINUOUS
 62
    7
 10
472.25304136542297
 20
413.93993311841484
 11
472.25304136542297
 21
320.60659978508158
  0
LINE
  8
_0-b_細線3
  6
CONTINUOUS
 62
    7
 10
472.25304136542297
 20
320.60659978508158
 11
466.11970803208965
 21
320.60659978508158
  0
LINE
  8
_0-b_細線3
  6
CONTINUOUS
 62
    7
 10
466.11970803208965
 20
320.60659978508158
 11
466.11970803208965
 21
413.93993311841484
  0
LINE
  8
_0-b_細線3
  6
CONTINUOUS
 62
    7
 10
466.11970803208965
 20
413.93993311841484
 11
472.25304136542297
 21
413.93993311841484
  0
LINE
  8
_0-a_極細3
  6
CONTINUOUS
 62
    7
 10
466.11970803208965
 20
371.27326645174816
 11
472.25304136542297
 21
371.27326645174816
  0
LINE
  8
_0-a_極細3
  6
CONTINUOUS
 62
    7
 10
466.11970803208965
 20
376.60659978508158
 11
472.25304136542297
 21
376.60659978508158
  0
LINE
  8
_0-a_極細3
  6
CONTINUOUS
 62
    7
 10
466.11970803208965
 20
365.93993311841479
 11
472.25304136542297
 21
365.93993311841479
  0
LINE
  8
_0-a_極細3
  6
CONTINUOUS
 62
    7
 10
466.11970803208965
 20
381.93993311841479
 11
472.25304136542297
 21
381.93993311841479
  0
LINE
  8
_0-a_極細3
  6
CONTINUOUS
 62
    7
 10
472.25304136542297
 20
328.60659978508158
 11
466.11970803208965
 21
328.60659978508158
  0
LINE
  8
_0-a_極細3
  6
CONTINUOUS
 62
    7
 10
466.11970803208965
 20
408.60659978508158
 11
472.25304136542297
 21
408.60659978508158
  0
LINE
  8
_0-b_細線3
  6
CONTINUOUS
 62
    7
 10
1165.586374698757
 20
413.93993311841484
 11
1165.586374698757
 21
320.60659978508158
  0
LINE
  8
_0-b_細線3
  6
CONTINUOUS
 62
    7
 10
1165.586374698757
 20
320.60659978508158
 11
1171.7197080320902
 21
320.60659978508158
  0
LINE
  8
_0-b_細線3
  6
CONTINUOUS
 62
    7
 10
1171.7197080320902
 20
320.60659978508158
 11
1171.7197080320902
 21
413.93993311841484
  0
LINE
  8
_0-b_細線3
  6
CONTINUOUS
 62
    7
 10
1171.7197080320902
 20
413.93993311841484
 11
1165.586374698757
 21
413.93993311841484
  0
LINE
  8
_0-a_極細3
  6
CONTINUOUS
 62
    7
 10
1171.7197080320902
 20
371.27326645174816
 11
1165.586374698757
 21
371.27326645174816
  0
LINE
  8
_0-a_極細3
  6
CONTINUOUS
 62
    7
 10
1171.7197080320902
 20
376.60659978508158
 11
1165.586374698757
 21
376.60659978508158
  0
LINE
  8
_0-a_極細3
  6
CONTINUOUS
 62
    7
 10
1171.7197080320902
 20
365.93993311841479
 11
1165.586374698757
 21
365.93993311841479
  0
LINE
  8
_0-a_極細3
  6
CONTINUOUS
 62
    7
 10
1171.7197080320902
 20
381.93993311841479
 11
1165.586374698757
 21
381.93993311841479
  0
LINE
  8
_0-a_極細3
  6
CONTINUOUS
 62
    7
 10
1165.586374698757
 20
328.60659978508158
 11
1171.7197080320902
 21
328.60659978508158
  0
LINE
  8
_0-a_極細3
  6
CONTINUOUS
 62
    7
 10
1171.7197080320902
 20
408.60659978508158
 11
1165.586374698757
 21
408.60659978508158
  0
LINE
  8
_0-7_枠細線
  6
CONTINUOUS
 62
    5
 10
1200.4088549770859
 20
396.87324799831862
 11
1188.4088549770859
 21
420.87324799831862
  0
LINE
  8
_0-7_枠細線
  6
CONTINUOUS
 62
    5
 10
1176.4088549770859
 20
396.87324799831862
 11
1200.4088549770859
 21
396.87324799831862
  0
LINE
  8
_0-7_枠細線
  6
CONTINUOUS
 62
    5
 10
1188.4088549770859
 20
420.87324799831862
 11
1176.4088549770859
 21
396.87324799831862
  0
TEXT
  8
_0-7_枠細線
 62
    5
 10
1180.193097006123
 20
395.35513605455878
 40
20
 41
0.8
 50
0
  1
５
  0
LINE
  8
_0-d_寸法3
  6
CONTINUOUS
 62
    7
 10
472.25304136542297
 20
563.27326378239673
 11
456.7982281447978
 21
559.13215906075641
  0
LINE
  8
_0-d_寸法3
  6
CONTINUOUS
 62
    7
 10
472.25304136542297
 20
563.27326378239673
 11
456.79822814479792
 21
567.41436850403716
  0
LINE
  8
_0-d_寸法3
  6
CONTINUOUS
 62
    7
 10
480.25304136542297
 20
449.93993311841479
 11
480.25304136542297
 21
571.27326378239673
  0
CIRCLE
  8
_0-d_寸法3
  6
CONTINUOUS
 62
    1
 10
480.25304136542297
 20
563.27326378239673
 40
2.4000000000000004
  0
LINE
  8
_0-d_寸法3
  6
CONTINUOUS
 62
    7
 10
432.25304136542297
 20
563.27326378239673
 11
480.25304136542297
 21
563.27326378239673
  0
TEXT
  8
_0-d_寸法3
 62
    7
 10
438.42157265514584
 20
563.27326378239673
 40
24
 41
1
 50
0
  1
3
  0
LINE
  8
_0-d_寸法3
  6
CONTINUOUS
 62
    7
 10
485.58637469875589
 20
445.93993044906387
 11
485.58637469875737
 21
571.27326378239673
  0
LINE
  8
_0-d_寸法3
  6
CONTINUOUS
 62
    7
 10
480.25304136542297
 20
563.27326378239673
 11
485.58637469875725
 21
563.27326378239673
  0
TEXT
  8
_0-d_寸法3
 62
    7
 10
476.91970803209006
 20
563.27326378239673
 40
24
 41
1
 50
0
  1
2
  0
LINE
  8
_0-d_寸法3
  6
CONTINUOUS
 62
    7
 10
485.58637469875725
 20
563.27326378239673
 11
501.04118791938231
 21
567.41436850403704
  0
LINE
  8
_0-d_寸法3
  6
CONTINUOUS
 62
    7
 10
485.58637469875725
 20
563.27326378239673
 11
501.04118791938231
 21
559.13215906075641
  0
LINE
  8
_0-d_寸法3
  6
CONTINUOUS
 62
    7
 10
1152.2530413654235
 20
445.93993044906387
 11
1152.2530413654235
 21
571.27326378239673
  0
LINE
  8
_0-d_寸法3
  6
CONTINUOUS
 62
    7
 10
1152.2530413654235
 20
563.27326378239673
 11
1136.7982281447985
 21
559.13215906075641
  0
LINE
  8
_0-d_寸法3
  6
CONTINUOUS
 62
    7
 10
1152.2530413654235
 20
563.27326378239673
 11
1136.7982281447985
 21
567.41436850403716
  0
LINE
  8
_0-d_寸法3
  6
CONTINUOUS
 62
    7
 10
485.58637469875725
 20
563.27326378239673
 11
1152.2530413654235
 21
563.27326378239673
  0
TEXT
  8
_0-d_寸法3
 62
    7
 10
800.91970803209006
 20
563.27326378239673
 40
24
 41
1
 50
0
  1
250
  0
LINE
  8
_0-d_寸法3
  6
CONTINUOUS
 62
    7
 10
1157.5863746987566
 20
449.93993311841479
 11
1157.5863746987573
 21
571.27326378239673
  0
CIRCLE
  8
_0-d_寸法3
  6
CONTINUOUS
 62
    1
 10
1157.5863746987573
 20
563.27326378239673
 40
2.4000000000000004
  0
LINE
  8
_0-d_寸法3
  6
CONTINUOUS
 62
    7
 10
1152.2530413654235
 20
563.27326378239673
 11
1157.5863746987573
 21
563.27326378239673
  0
TEXT
  8
_0-d_寸法3
 62
    7
 10
1148.9197080320905
 20
563.27326378239673
 40
24
 41
1
 50
0
  1
2
  0
LINE
  8
_0-d_寸法3
  6
CONTINUOUS
 62
    7
 10
1165.5863746987573
 20
563.27326378239673
 11
1181.0411879193823
 21
567.41436850403693
  0
LINE
  8
_0-d_寸法3
  6
CONTINUOUS
 62
    7
 10
1165.5863746987573
 20
563.27326378239673
 11
1181.0411879193823
 21
559.13215906075629
  0
LINE
  8
_0-d_寸法3
  6
CONTINUOUS
 62
    7
 10
1157.5863746987573
 20
563.27326378239673
 11
1205.5863746987573
 21
563.27326378239673
  0
TEXT
  8
_0-d_寸法3
 62
    7
 10
1192.0215726551426
 20
563.27326378239673
 40
24
 41
1
 50
0
  1
3
  0
TEXT
  8
_0-7_枠細線
 62
    5
 10
922.96278340798563
 20
152.91104722893704
 40
32
 41
0.6
 50
0
  1
Ｓ＝１：３
  0
TEXT
  8
_0-5_寸法線
 62
    7
 10
638.70946531563106
 20
779.75614043660903
 40
24
 41
0.7999999999999999
 50
0
  1
ＧＳＬ－２０
  0
LINE
  8
_0-5_寸法線
  6
CONTINUOUS
 62
    7
 10
619.56352718550488
 20
867.40399719769403
 11
627.58061069305654
 21
853.55746795629409
  0
LINE
  8
_0-5_寸法線
  6
CONTINUOUS
 62
    7
 10
619.56352718550488
 20
867.40399719769403
 11
619.58326054660586
 21
851.40400936662184
  0
LINE
  8
_0-5_寸法線
  6
CONTINUOUS
 62
    7
 10
619.56352718550488
 20
867.40399719769403
 11
636.33845962536918
 21
805.10653345818287
  0
LINE
  8
_0-5_寸法線
  6
CONTINUOUS
 62
    7
 10
636.33845962536918
 20
805.10653345818287
 11
809.13845962536925
 21
805.10653345818287
  0
TEXT
  8
_0-5_寸法線
 62
    7
 10
636.33845962536918
 20
806.06653345818268
 40
24
 41
0.8000000000000001
 50
0
  1
ＳＵＳアングル受枠
  0
LINE
  8
_0-5_寸法線
  6
CONTINUOUS
 62
    7
 10
437.24875009011998
 20
1002.6055239565035
 11
445.24875009011998
 21
988.74911749595242
  0
LINE
  8
_0-5_寸法線
  6
CONTINUOUS
 62
    7
 10
437.24875009011998
 20
1002.6055239565035
 11
437.24875009011998
 21
986.60552395650348
  0
LINE
  8
_0-5_寸法線
  6
CONTINUOUS
 62
    7
 10
437.24875009011998
 20
1002.6055239565035
 11
490.16844510010594
 21
805.10653345818287
  0
LINE
  8
_0-5_寸法線
  6
CONTINUOUS
 62
    7
 10
490.16844510010594
 20
805.10653345818287
 11
586.16844510010583
 21
805.10653345818287
  0
TEXT
  8
_0-5_寸法線
 62
    7
 10
490.16844510010594
 20
805.10653345818287
 40
24
 41
0.8000000000000001
 50
0
  1
取　外　具
  0
TEXT
  8
_0-5_寸法線
 62
    7
 10
492.95038048598167
 20
777.98773822963972
 40
24
 41
0.7999999999999999
 50
0
  1
(標準付属)
  0
TEXT
  8
_0-7_枠細線
 62
    5
 10
499.51733871269835
 20
833.04586043965878
 40
20
 41
0.8
 50
0
  1
２
  0
LINE
  8
_0-7_枠細線
  6
CONTINUOUS
 62
    5
 10
519.7330966836621
 20
833.53706403226749
 11
507.7330966836621
 21
857.53706403226749
  0
LINE
  8
_0-7_枠細線
  6
CONTINUOUS
 62
    5
 10
495.7330966836621
 20
833.53706403226749
 11
519.7330966836621
 21
833.53706403226749
  0
LINE
  8
_0-7_枠細線
  6
CONTINUOUS
 62
    5
 10
507.7330966836621
 20
857.53706403226749
 11
495.7330966836621
 21
833.53706403226749
  0
LINE
  8
_0-7_枠細線
  6
CONTINUOUS
 62
    5
 10
549.67547094717565
 20
833.53706403226749
 11
537.67547094717565
 21
857.53706403226749
  0
LINE
  8
_0-7_枠細線
  6
CONTINUOUS
 62
    5
 10
525.67547094717565
 20
833.53706403226749
 11
549.67547094717565
 21
833.53706403226749
  0
LINE
  8
_0-7_枠細線
  6
CONTINUOUS
 62
    5
 10
537.67547094717565
 20
857.53706403226749
 11
525.67547094717565
 21
833.53706403226749
  0
TEXT
  8
_0-7_枠細線
 62
    5
 10
529.45971297621281
 20
832.66076980797732
 40
20
 41
0.8
 50
0
  1
３
  0
LINE
  8
_0-7_枠細線
  6
CONTINUOUS
 62
    5
 10
566.09195047669664
 20
857.53706403226749
 11
554.09195047669664
 21
833.53706403226749
  0
LINE
  8
_0-7_枠細線
  6
CONTINUOUS
 62
    5
 10
554.09195047669664
 20
833.53706403226749
 11
578.09195047669664
 21
833.53706403226749
  0
LINE
  8
_0-7_枠細線
  6
CONTINUOUS
 62
    5
 10
578.09195047669664
 20
833.53706403226749
 11
566.09195047669664
 21
857.53706403226749
  0
TEXT
  8
_0-7_枠細線
 62
    5
 10
1502.1605925925933
 20
1316
 40
20
 41
1
 50
0
  1
クロスバーピッチ変更
  0
TEXT
  8
_0-7_枠細線
 62
    5
 10
1502.1605925925933
 20
1288
 40
20
 41
1
 50
0
  1
取外具形状変更
  0
TEXT
  8
_0-7_枠細線
 62
    5
 10
1888.0000000000009
 20
1316
 40
20
 41
0.7199999999999999
 50
0
  1
２０２０．０９．０１
  0
TEXT
  8
_0-7_枠細線
 62
    5
 10
1888.0000000000009
 20
1288
 40
20
 41
0.7199999999999999
 50
0
  1
２０２０．１０．０１
  0
TEXT
  8
_0-7_枠細線
 62
    5
 10
784.93008285594669
 20
1230.519495366613
 40
20
 41
0.8
 50
0
  1
６
  0
TEXT
  8
_0-7_枠細線
 62
    5
 10
557.8761925057338
 20
832.66076980797732
 40
20
 41
0.8
 50
0
  1
７
  0
ENDSEC
  0
EOF
