  0
SECTION
  2
HEADER
  9
$ACADVER
  1
AC1009
  9
$INSBASE
 10
0
 20
0
 30
0
  9
$EXTMIN
 10
0
 20
0
  9
$EXTMAX
 10
2376
 20
1680
  9
$LIMMIN
 10
0
 20
0
  9
$LIMMAX
 10
2376
 20
1680
  9
$LTSCALE
 40
8
  0
ENDSEC
  0
SECTION
  2
TABLES
  0
TABLE
  2
LTYPE
 70
     9
  0
LTYPE
  2
CONTINUOUS
 70
    64
  3
実線
 72
    65
 73
     0
 40
0.0
  0
LTYPE
  2
DASHED1
 70
    64
  3
--  --  --  --  --  --  --  --  
 72
    65
 73
     2
 40
2.5
 49
1.25
 49
-1.25
  0
LTYPE
  2
DASHED2
 70
    64
  3
----    ----    ----    ----    
 72
    65
 73
     2
 40
5.0
 49
2.5
 49
-2.5
  0
LTYPE
  2
DASHED3
 70
    64
  3
------  ------  ------  ------  
 72
    65
 73
     2
 40
5.0
 49
3.75
 49
-1.25
  0
LTYPE
  2
CENTER1
 70
    64
  3
----- - ----- - ----- - ----- - 
 72
    65
 73
     4
 40
10.0
 49
6.25
 49
-1.25
 49
1.25
 49
-1.25
  0
LTYPE
  2
CENTER2
 70
    64
  3
----------  --  ----------  --  
 72
    65
 73
     4
 40
20.0
 49
12.5
 49
-2.5
 49
2.5
 49
-2.5
  0
LTYPE
  2
PHANTOM1
 70
    64
  3
--- - - --- - - --- - - --- - - 
 72
    65
 73
     6
 40
10.0
 49
3.25
 49
-1.25
 49
1.25
 49
-1.25
 49
1.25
 49
-1.25
  0
LTYPE
  2
PHANTOM2
 70
    64
  3
--------  -  -  --------  -  -  
 72
    65
 73
     6
 40
20.0
 49
10.0
 49
-2.5
 49
1.25
 49
-2.5
 49
1.25
 49
-2.5
  0
LTYPE
  2
DOT
 70
    64
  3
-   -   -   -   -   -   -   -   
 72
    65
 73
     2
 40
2.5
 49
0.625
 49
-1.875
  0
LTYPE
  2
DUMMY
 70
    64
  3
ダミー
 72
    65
 73
     0
 40
0.0
  0
LTYPE
  2
RAND1
 70
    64
  3
ランダム線1
 72
    65
 73
     4
 40
10.0
 49
1.0
 49
-2.0
 49
3.0
 49
-4.0
  0
LTYPE
  2
RAND2
 70
    64
  3
ランダム線2
 72
    65
 73
     4
 40
14.0
 49
2.0
 49
-3.0
 49
4.0
 49
-5.0
  0
LTYPE
  2
RAND3
 70
    64
  3
ランダム線3
 72
    65
 73
     4
 40
18.0
 49
3.0
 49
-4.0
 49
5.0
 49
-6.0
  0
LTYPE
  2
RAND4
 70
    64
  3
ランダム線4
 72
    65
 73
     4
 40
22.0
 49
4.0
 49
-5.0
 49
6.0
 49
-7.0
  0
LTYPE
  2
RAND5
 70
    64
  3
ランダム線5
 72
    65
 73
     4
 40
26.0
 49
5.0
 49
-6.0
 49
7.0
 49
-8.0
  0
LTYPE
  2
LONG1
 70
    64
  3
----------  --  ----------  --  
 72
    65
 73
     4
 40
40.0
 49
32.5
 49
-2.5
 49
2.5
 49
-2.5
  0
LTYPE
  2
LONG2
 70
    64
  3
--------  -  -  --------  -  -  
 72
    65
 73
     6
 40
40.0
 49
30.0
 49
-2.5
 49
1.25
 49
-2.5
 49
1.25
 49
-2.5
  0
LTYPE
  2
LONG3
 70
    64
  3
+++++++++++++++..+++++++++++++++
 72
    65
 73
     2
 40
40.0
 49
37.5
 49
-2.5
  0
LTYPE
  2
LONG4
 70
    64
  3
+++++++++++++++..+++++++++++++++
 72
    65
 73
     2
 40
80.0
 49
75.0
 49
-5.0
  0
LTYPE
  2
LONG5
 70
    64
  3
----------  --  ----------  --  
 72
    65
 73
     4
 40
60.0
 49
37.5
 49
-7.5
 49
7.5
 49
-7.5
  0
LTYPE
  2
dashed
 70
   64
  3
-------   -------------   ------
 72
   65
 73
    2
 40
7.5
 49
6
 49
-1.5
  0
LTYPE
  2
dashed_spaced
 70
   64
  3
----        --------        ----
 72
   65
 73
    2
 40
12
 49
6
 49
-6
  0
LTYPE
  2
long_dashed_dotted
 70
   64
  3
------------- --- --------------
 72
   65
 73
    4
 40
15.25
 49
12
 49
-1.5
 49
0.25
 49
-1.5
  0
LTYPE
  2
long_dashed_double-dotted
 70
   64
  3
----------- --- --- ------------
 72
   65
 73
    6
 40
17
 49
12
 49
-1.5
 49
0.25
 49
-1.5
 49
0.25
 49
-1.5
  0
LTYPE
  2
long_dashed_triplicate-dotted
 70
   64
  3
--------- --- --- --- ----------
 72
   65
 73
    8
 40
18.75
 49
12
 49
-1.5
 49
0.25
 49
-1.5
 49
0.25
 49
-1.5
 49
0.25
 49
-1.5
  0
LTYPE
  2
dotted
 70
   64
  3
   -       -       -       -    
 72
   65
 73
    2
 40
1.75
 49
0.25
 49
-1.5
  0
LTYPE
  2
chain
 70
   64
  3
-------------- -- --------------
 72
   65
 73
    4
 40
18.5
 49
12
 49
-1.5
 49
3.5
 49
-1.5
  0
LTYPE
  2
chain_double_dash
 70
   64
  3
------------ -- -- -------------
 72
   65
 73
    6
 40
23.5
 49
12
 49
-1.5
 49
3.5
 49
-1.5
 49
3.5
 49
-1.5
  0
LTYPE
  2
dashed_dotted
 70
   64
  3
-----------     -     ----------
 72
   65
 73
    4
 40
9.25
 49
6
 49
-1.5
 49
0.25
 49
-1.5
  0
LTYPE
  2
double-dashed_dotted
 70
   64
  3
------   -----------   -   -----
 72
   65
 73
    6
 40
16.75
 49
6
 49
-1.5
 49
6
 49
-1.5
 49
0.25
 49
-1.5
  0
LTYPE
  2
dashed_double-dotted
 70
   64
  3
---------    -    -    ---------
 72
   65
 73
    6
 40
11
 49
6
 49
-1.5
 49
0.25
 49
-1.5
 49
0.25
 49
-1.5
  0
LTYPE
  2
double-dashed_double-dotted
 70
   64
  3
-----   ---------   -   -   ----
 72
   65
 73
    8
 40
18.5
 49
6
 49
-1.5
 49
6
 49
-1.5
 49
0.25
 49
-1.5
 49
0.25
 49
-1.5
  0
LTYPE
  2
dashed_triplicate-dotted
 70
   64
  3
-------    -    -    -    ------
 72
   65
 73
    8
 40
12.75
 49
6
 49
-1.5
 49
0.25
 49
-1.5
 49
0.25
 49
-1.5
 49
0.25
 49
-1.5
  0
LTYPE
  2
double-dashed_triplicate-dotted
 70
   64
  3
-----  ---------  -  -  -  -----
 72
   65
 73
   10
 40
20.25
 49
6
 49
-1.5
 49
6
 49
-1.5
 49
0.25
 49
-1.5
 49
0.25
 49
-1.5
 49
0.25
 49
-1.5
  0
LTYPE
  2
undefined
 70
   64
  3
--------------------------------
 72
   65
 73
    0
 40
0
  0
ENDTAB
  0
TABLE
  2
STYLE
  5
3
100
AcDbSymbolTable
 70
     1
  0
STYLE
  5
10
100
AcDbSymbolTableRecord
100
AcDbTextStyleTableRecord
  2
STANDARD
 70
     0
 40
0.0
 41
1.0
 50
0.0
 71
     0
 42
0.2
  3
txt
  4
bigfont.shx
  0
STYLE
  5
26
100
AcDbSymbolTableRecord
100
AcDbTextStyleTableRecord
  2
TATEGAKI
 70
    68
 40
0.0
 41
1.0
 50
0.0
 71
     0
 42
1.0
  3
txt
  4
bigfont.shx
  0
ENDTAB
  0
TABLE
  2
LAYER
 70
   10
  0
LAYER
  2
_0-0_計極細
 70
   64
 62
    7
  6
CONTINUOUS
  0
LAYER
  2
_0-1_計細線
 70
   64
 62
    7
  6
CONTINUOUS
  0
LAYER
  2
_0-5_寸法線
 70
   64
 62
    7
  6
CONTINUOUS
  0
LAYER
  2
_0-7_枠細線
 70
   64
 62
    7
  6
CONTINUOUS
  0
LAYER
  2
_0-8_枠中線
 70
   64
 62
    7
  6
CONTINUOUS
  0
LAYER
  2
_0-9_枠極太
 70
   64
 62
    7
  6
CONTINUOUS
  0
LAYER
  2
_0-a_極細3
 70
   64
 62
    7
  6
CONTINUOUS
  0
LAYER
  2
_0-b_細線3
 70
   64
 62
    7
  6
CONTINUOUS
  0
LAYER
  2
_0-d_寸法3
 70
   64
 62
    7
  6
CONTINUOUS
  0
LAYER
  2
ADD_LINE
 70
   64
 62
    7
  6
CONTINUOUS
  0
ENDTAB
  0
ENDSEC
  0
SECTION
  2
BLOCKS
  0
ENDSEC
  0
SECTION
  2
ENTITIES
  0
LINE
  8
_0-7_枠細線
  6
CONTINUOUS
 62
    5
 10
1896
 20
288
 11
1896
 21
160
  0
TEXT
  8
_0-7_枠細線
 62
    5
 10
1500
 20
156
 40
28
 41
1
 50
0
  1
備考
  7
TATEGAKI
  0
TEXT
  8
_0-7_枠細線
 62
    5
 10
1500
 20
220
 40
28
 41
1
 50
0
  1
品番
  7
TATEGAKI
  0
TEXT
  8
_0-7_枠細線
 62
    5
 10
1500
 20
284
 40
28
 41
1
 50
0
  1
品名
  7
TATEGAKI
  0
LINE
  8
_0-7_枠細線
  6
CONTINUOUS
 62
    5
 10
1896
 20
224
 11
1480
 21
224
  0
LINE
  8
_0-7_枠細線
  6
CONTINUOUS
 62
    5
 10
1520
 20
288
 11
1520
 21
96
  0
LINE
  8
_0-8_枠中線
  6
CONTINUOUS
 62
    5
 10
2280
 20
288
 11
1480
 21
288
  0
LINE
  8
_0-8_枠中線
  6
CONTINUOUS
 62
    5
 10
1480
 20
288
 11
1480
 21
96
  0
LINE
  8
_0-7_枠細線
  6
CONTINUOUS
 62
    5
 10
1992
 20
288
 11
1992
 21
96
  0
TEXT
  8
_0-7_枠細線
 62
    5
 10
1908
 20
256
 40
24
 41
1
 50
0
  1
縮　尺
  0
LINE
  8
_0-7_枠細線
  6
CONTINUOUS
 62
    5
 10
1896
 20
248
 11
1992
 21
248
  0
LINE
  8
_0-7_枠細線
  6
CONTINUOUS
 62
    5
 10
1992
 20
160
 11
1480
 21
160
  0
LINE
  8
_0-7_枠細線
  6
CONTINUOUS
 62
    5
 10
2280
 20
144
 11
1992
 21
144
  0
LINE
  8
_0-7_枠細線
  6
CONTINUOUS
 62
    5
 10
1992
 20
192
 11
2280
 21
192
  0
LINE
  8
_0-7_枠細線
  6
CONTINUOUS
 62
    5
 10
2280
 20
224
 11
1992
 21
224
  0
TEXT
  8
_0-7_枠細線
 62
    5
 10
2008
 20
236
 40
40
 41
0.8
 50
0
  1
株式会社シマブン
  0
TEXT
  8
_0-7_枠細線
 62
    5
 10
2004
 20
96
 40
24
 41
1
 50
0
  1
年月日
  0
TEXT
  8
_0-7_枠細線
 62
    5
 10
2004
 20
120
 40
24
 41
1
 50
0
  1
作　成
  0
TEXT
  8
_0-7_枠細線
 62
    5
 10
2010
 20
196
 40
24
 41
1
 50
0
  1
承 認
  0
LINE
  8
_0-7_枠細線
  6
CONTINUOUS
 62
    5
 10
2088
 20
224
 11
2088
 21
96
  0
TEXT
  8
_0-7_枠細線
 62
    5
 10
2106
 20
196
 40
24
 41
1
 50
0
  1
検 図
  0
LINE
  8
_0-7_枠細線
  6
CONTINUOUS
 62
    5
 10
2184
 20
224
 11
2184
 21
144
  0
TEXT
  8
_0-7_枠細線
 62
    5
 10
2200
 20
152
 40
32
 41
1
 50
0
  1
藤戸
  0
TEXT
  8
_0-7_枠細線
 62
    5
 10
2202
 20
196
 40
24
 41
1
 50
0
  1
設 計
  0
TEXT
  8
_0-7_枠細線
 62
    5
 10
708.98619554229481
 20
149.93993311841473
 40
40
 41
0.8
 50
0
  1
断面詳細図
  0
TEXT
  8
_0-7_枠細線
 62
    5
 10
2008
 20
152
 40
32
 41
1
 50
0
  1
隠塚
  0
TEXT
  8
_0-7_枠細線
 62
    5
 10
2104
 20
152
 40
32
 41
1
 50
0
  1
渋田
  0
TEXT
  8
_0-7_枠細線
 62
    5
 10
1536.8000000000002
 20
240
 40
32
 41
0.5
 50
0
  1
セーフティグレーチング補強仕様Ｈ２０タイプ
  0
TEXT
  8
_0-7_枠細線
 62
    5
 10
1910.3999999999996
 20
188
 40
32
 41
0.7000000000000001
 50
0
  1
１：８
  0
TEXT
  8
_0-7_枠細線
 62
    5
 10
2096
 20
108
 40
24
 41
0.6666666666666666
 50
0
  1
２０１０年０３月０１日
  0
TEXT
  8
_0-7_枠細線
 62
    5
 10
1536.8000000000002
 20
112
 40
32
 41
0.5999999999999998
 50
0
  1
色については品番表参照のこと
  0
TEXT
  8
_0-7_枠細線
 62
    5
 10
1536.8000000000002
 20
176
 40
32
 41
0.6
 50
0
  1
ＧＲＳＫ－２０Ｗ３５０　ＳＥＴ
  0
LINE
  8
_0-7_枠細線
  6
CONTINUOUS
 62
    5
 10
1668.445396090538
 20
768
 11
1668.445396090538
 21
896
  0
TEXT
  8
_0-7_枠細線
 62
    5
 10
1704.445396090538
 20
860
 40
24
 41
1
 50
0
  1
耐荷重
  0
TEXT
  8
_0-7_枠細線
 62
    5
 10
1680.445396090538
 20
780
 40
24
 41
1
 50
0
  1
（歩道用）
  0
LINE
  8
_0-7_枠細線
  6
CONTINUOUS
 62
    5
 10
1812.445396090538
 20
768
 11
1812.445396090538
 21
896
  0
TEXT
  8
_0-7_枠細線
 62
    5
 10
1848.445396090538
 20
860
 40
24
 41
1
 50
0
  1
蓋重量
  0
LINE
  8
_0-7_枠細線
  6
CONTINUOUS
 62
    5
 10
1956.445396090538
 20
768
 11
1956.445396090538
 21
896
  0
TEXT
  8
_0-7_枠細線
 62
    5
 10
1992.445396090538
 20
860
 40
24
 41
1
 50
0
  1
枠重量
  0
LINE
  8
_0-7_枠細線
  6
CONTINUOUS
 62
    5
 10
1668.445396090538
 20
848
 11
2100.4453960905375
 21
848
  0
LINE
  8
_0-7_枠細線
  6
CONTINUOUS
 62
    5
 10
1668.445396090538
 20
896
 11
2100.4453960905375
 21
896
  0
LINE
  8
_0-7_枠細線
  6
CONTINUOUS
 62
    5
 10
1668.445396090538
 20
768
 11
2100.4453960905375
 21
768
  0
LINE
  8
_0-7_枠細線
  6
CONTINUOUS
 62
    5
 10
2100.4453960905375
 20
768
 11
2100.4453960905375
 21
896
  0
TEXT
  8
_0-7_枠細線
 62
    5
 10
1980.445396090538
 20
798
 40
24
 41
0.8000000000000001
 50
0
  1
2.4kg/ｍ組
  0
TEXT
  8
_0-7_枠細線
 62
    5
 10
1726.0453960905375
 20
688
 40
24
 41
0.8000000000000001
 50
0
  1
品　　番
  0
LINE
  8
_0-7_枠細線
  6
CONTINUOUS
 62
    5
 10
1668.4453960905371
 20
600
 11
2180.4453960905375
 21
600
  0
LINE
  8
_0-7_枠細線
  6
CONTINUOUS
 62
    5
 10
1668.4453960905371
 20
640
 11
2180.4453960905375
 21
640
  0
LINE
  8
_0-7_枠細線
  6
CONTINUOUS
 62
    5
 10
1668.4453960905371
 20
680
 11
2180.4453960905375
 21
680
  0
TEXT
  8
_0-7_枠細線
 62
    5
 10
1930.8453960905381
 20
688
 40
24
 41
0.8000000000000001
 50
0
  1
色
  0
TEXT
  8
_0-7_枠細線
 62
    5
 10
2062.0453960905379
 20
688
 40
24
 41
0.8000000000000001
 50
0
  1
備　　考
  0
LINE
  8
_0-7_枠細線
  6
CONTINUOUS
 62
    5
 10
1668.4453960905371
 20
720
 11
2180.4453960905375
 21
720
  0
LINE
  8
_0-7_枠細線
  6
CONTINUOUS
 62
    5
 10
1668.4453960905371
 20
360
 11
2180.4453960905375
 21
360
  0
LINE
  8
_0-7_枠細線
  6
CONTINUOUS
 62
    5
 10
1668.4453960905371
 20
560
 11
2180.4453960905375
 21
560
  0
LINE
  8
_0-7_枠細線
  6
CONTINUOUS
 62
    5
 10
1668.4453960905371
 20
520
 11
2180.4453960905375
 21
520
  0
LINE
  8
_0-7_枠細線
  6
CONTINUOUS
 62
    5
 10
1668.4453960905371
 20
480
 11
2180.4453960905375
 21
480
  0
LINE
  8
_0-7_枠細線
  6
CONTINUOUS
 62
    5
 10
1668.4453960905371
 20
440
 11
2180.4453960905375
 21
440
  0
LINE
  8
_0-7_枠細線
  6
CONTINUOUS
 62
    5
 10
1668.4453960905371
 20
400
 11
2180.4453960905375
 21
400
  0
TEXT
  8
_0-7_枠細線
 62
    5
 10
1826.4453960905371
 20
728
 40
28
 41
1
 50
0
  1
品番表
  0
TEXT
  8
_0-7_枠細線
 62
    5
 10
1692.445396090538
 20
812
 40
24
 41
1
 50
0
  1
5.0kN/㎡
  0
TEXT
  8
_0-7_枠細線
 62
    5
 10
1676.0453960905379
 20
648
 40
24
 41
0.5666666666666666
 50
0
  1
ＧＲＳＫ－２０Ｗ３５０－Ｂ
  0
TEXT
  8
_0-7_枠細線
 62
    5
 10
1676.0453960905384
 20
608
 40
24
 41
0.5666666666666666
 50
0
  1
ＧＲＳＫ－２０Ｗ３５０－Ｇ
  0
TEXT
  8
_0-7_枠細線
 62
    5
 10
1676.0453960905384
 20
568
 40
24
 41
0.5666666666666666
 50
0
  1
ＧＲＳＫ－２０Ｗ３５０－Ｓ
  0
TEXT
  8
_0-7_枠細線
 62
    5
 10
1676.0453960905384
 20
528
 40
24
 41
0.5666666666666666
 50
0
  1
ＧＲＳＫ－２０Ｗ３５０－Ｐ
  0
TEXT
  8
_0-7_枠細線
 62
    5
 10
1676.0453960905384
 20
488
 40
24
 41
0.5666666666666666
 50
0
  1
ＧＲＳＫ－２０Ｗ３５０－Ａ
  0
TEXT
  8
_0-7_枠細線
 62
    5
 10
1676.0453960905384
 20
448
 40
24
 41
0.5666666666666666
 50
0
  1
ＧＲＳＫ－２０Ｗ３５０－Ｄ
  0
TEXT
  8
_0-7_枠細線
 62
    5
 10
1676.0453960905384
 20
408
 40
24
 41
0.5666666666666666
 50
0
  1
ＧＲＳＫ－２０Ｗ３５０－Ｍ
  0
TEXT
  8
_0-7_枠細線
 62
    5
 10
1846.0453960905379
 20
798
 40
24
 41
0.8000000000000001
 50
0
  1
5.5kg/ｍ
  0
LINE
  8
_0-7_枠細線
  6
CONTINUOUS
 62
    5
 10
1668.4453960905371
 20
320
 11
2180.4453960905375
 21
320
  0
TEXT
  8
_0-7_枠細線
 62
    5
 10
1676.0453960905384
 20
328
 40
24
 41
0.5666666666666666
 50
0
  1
ＧＲＳＫ－２０Ｗ３５０－Ｋ
  0
LINE
  8
_0-7_枠細線
  6
CONTINUOUS
 62
    5
 10
2180.4453960905375
 20
720
 11
2180.4453960905375
 21
320
  0
LINE
  8
_0-7_枠細線
  6
CONTINUOUS
 62
    5
 10
2020.4453960905371
 20
720
 11
2020.4453960905371
 21
320
  0
LINE
  8
_0-7_枠細線
  6
CONTINUOUS
 62
    5
 10
1860.445396090538
 20
720
 11
1860.445396090538
 21
320
  0
LINE
  8
_0-7_枠細線
  6
CONTINUOUS
 62
    5
 10
1668.4453960905371
 20
720
 11
1668.4453960905371
 21
320
  0
TEXT
  8
_0-7_枠細線
 62
    5
 10
1676.0453960905379
 20
368
 40
24
 41
0.5666666666666666
 50
0
  1
ＧＲＳＫ－２０Ｗ３５０－Ｃ
  0
LINE
  8
_0-7_枠細線
  6
CONTINUOUS
 62
    5
 10
2280.0000000000009
 20
1508
 11
1424.0000000000009
 21
1508
  0
TEXT
  8
_0-7_枠細線
 62
    5
 10
1432.0000000000009
 20
1512
 40
20
 41
1
 50
0
  1
記号
  0
TEXT
  8
_0-7_枠細線
 62
    5
 10
1595.0000000000009
 20
1512
 40
20
 41
1
 50
0
  1
訂　 正　 記　 事
  0
TEXT
  8
_0-7_枠細線
 62
    5
 10
1890.0000000000009
 20
1512
 40
20
 41
1
 50
0
  1
訂 正 年 月 日
  0
TEXT
  8
_0-7_枠細線
 62
    5
 10
2090.0000000000009
 20
1512
 40
20
 41
1
 50
0
  1
備　　　　　考
  0
LINE
  8
_0-7_枠細線
  6
CONTINUOUS
 62
    5
 10
2280.0000000000009
 20
1480
 11
1424.0000000000009
 21
1480
  0
TEXT
  8
_0-7_枠細線
 62
    5
 10
1502.1605925925933
 20
1484
 40
20
 41
1
 50
0
  1
品番・色記号変更
  0
TEXT
  8
_0-7_枠細線
 62
    5
 10
1888.0000000000009
 20
1484
 40
20
 41
0.7199999999999999
 50
0
  1
２０１３．０３．１３
  0
LINE
  8
_0-7_枠細線
  6
CONTINUOUS
 62
    5
 10
2280.0000000000009
 20
1452
 11
1424.0000000000009
 21
1452
  0
LINE
  8
_0-7_枠細線
  6
CONTINUOUS
 62
    5
 10
2280.0000000000009
 20
1424
 11
1424.0000000000009
 21
1424
  0
TEXT
  8
_0-7_枠細線
 62
    5
 10
1502.1605925925933
 20
1456
 40
20
 41
1
 50
0
  1
クロスバーピッチ変更
  0
TEXT
  8
_0-7_枠細線
 62
    5
 10
1502.1605925925933
 20
1428
 40
20
 41
1
 50
0
  1
取外具形状変更
  0
TEXT
  8
_0-7_枠細線
 62
    5
 10
1888.0000000000009
 20
1456
 40
20
 41
0.7199999999999999
 50
0
  1
２０１５．１１．２０
  0
LINE
  8
_0-7_枠細線
  6
CONTINUOUS
 62
    5
 10
1464.0000000000009
 20
1454.307734354795
 11
1452.0000000000009
 21
1478.307734354795
  0
LINE
  8
_0-7_枠細線
  6
CONTINUOUS
 62
    5
 10
1440.0000000000009
 20
1454.307734354795
 11
1464.0000000000009
 21
1454.307734354795
  0
LINE
  8
_0-7_枠細線
  6
CONTINUOUS
 62
    5
 10
1452.0000000000009
 20
1478.307734354795
 11
1440.0000000000009
 21
1454.307734354795
  0
TEXT
  8
_0-7_枠細線
 62
    5
 10
1443.7842420290381
 20
1453.8165307621866
 40
20
 41
0.8
 50
0
  1
１
  0
TEXT
  8
_0-7_枠細線
 62
    5
 10
1443.7842420290381
 20
1425.8165307621866
 40
20
 41
0.8
 50
0
  1
２
  0
LINE
  8
_0-7_枠細線
  6
CONTINUOUS
 62
    5
 10
2280.0000000000009
 20
1396
 11
1424.0000000000009
 21
1396
  0
LINE
  8
_0-7_枠細線
  6
CONTINUOUS
 62
    5
 10
1452.0000000000009
 20
1450.307734354795
 11
1440.0000000000009
 21
1426.307734354795
  0
LINE
  8
_0-7_枠細線
  6
CONTINUOUS
 62
    5
 10
1440.0000000000009
 20
1426.307734354795
 11
1464.0000000000009
 21
1426.307734354795
  0
LINE
  8
_0-7_枠細線
  6
CONTINUOUS
 62
    5
 10
1464.0000000000009
 20
1426.307734354795
 11
1452.0000000000009
 21
1450.307734354795
  0
TEXT
  8
_0-7_枠細線
 62
    5
 10
1443.7842420290381
 20
1397.4314401305048
 40
20
 41
0.8
 50
0
  1
３
  0
TEXT
  8
_0-7_枠細線
 62
    5
 10
1888.0000000000009
 20
1400
 40
20
 41
0.7199999999999999
 50
0
  1
２０１７．０４．０１
  0
LINE
  8
_0-7_枠細線
  6
CONTINUOUS
 62
    5
 10
1464.0000000000009
 20
1370.307734354795
 11
1452.0000000000009
 21
1394.307734354795
  0
LINE
  8
_0-7_枠細線
  6
CONTINUOUS
 62
    5
 10
1440.0000000000009
 20
1370.307734354795
 11
1464.0000000000009
 21
1370.307734354795
  0
LINE
  8
_0-7_枠細線
  6
CONTINUOUS
 62
    5
 10
1452.0000000000009
 20
1394.307734354795
 11
1440.0000000000009
 21
1370.307734354795
  0
TEXT
  8
_0-7_枠細線
 62
    5
 10
1888.0000000000009
 20
1372
 40
20
 41
0.7199999999999999
 50
0
  1
２０１７．０４．０１
  0
TEXT
  8
_0-7_枠細線
 62
    5
 10
1502.1605925925933
 20
1372
 40
20
 41
1
 50
0
  1
ブラウン色（Ｃ）追加
  0
LINE
  8
_0-7_枠細線
  6
CONTINUOUS
 62
    5
 10
2280.0000000000009
 20
1368
 11
1424.0000000000009
 21
1368
  0
LINE
  8
_0-7_枠細線
  6
CONTINUOUS
 62
    5
 10
1452.0000000000009
 20
1422.307734354795
 11
1440.0000000000009
 21
1398.307734354795
  0
LINE
  8
_0-7_枠細線
  6
CONTINUOUS
 62
    5
 10
1440.0000000000009
 20
1398.307734354795
 11
1464.0000000000009
 21
1398.307734354795
  0
LINE
  8
_0-7_枠細線
  6
CONTINUOUS
 62
    5
 10
1464.0000000000009
 20
1398.307734354795
 11
1452.0000000000009
 21
1422.307734354795
  0
TEXT
  8
_0-7_枠細線
 62
    5
 10
1443.7842420290381
 20
1368.7896224110355
 40
20
 41
0.8
 50
0
  1
４
  0
TEXT
  8
_0-7_枠細線
 62
    5
 10
1502.1605925925933
 20
1400
 40
20
 41
1
 50
0
  1
取外具形状変更
  0
TEXT
  8
_0-7_枠細線
 62
    5
 10
1888.0000000000009
 20
1428
 40
20
 41
0.7199999999999999
 50
0
  1
２０１５．１１．２０
  0
LINE
  8
_0-7_枠細線
  6
CONTINUOUS
 62
    5
 10
1658.170919783531
 20
370.28953996854926
 11
1646.170919783531
 21
394.28953996854926
  0
LINE
  8
_0-7_枠細線
  6
CONTINUOUS
 62
    5
 10
1634.170919783531
 20
370.28953996854926
 11
1658.170919783531
 21
370.28953996854926
  0
LINE
  8
_0-7_枠細線
  6
CONTINUOUS
 62
    5
 10
1646.170919783531
 20
394.28953996854926
 11
1634.170919783531
 21
370.28953996854926
  0
TEXT
  8
_0-7_枠細線
 62
    5
 10
1637.9551618125681
 20
368.77142802478971
 40
20
 41
0.8
 50
0
  1
４
  0
LINE
  8
_0-9_枠極太
  6
CONTINUOUS
 62
    5
 10
96
 20
96
 11
96
 21
1536
  0
LINE
  8
_0-9_枠極太
  6
CONTINUOUS
 62
    5
 10
96
 20
1536
 11
2280
 21
1536
  0
LINE
  8
_0-9_枠極太
  6
CONTINUOUS
 62
    5
 10
2280
 20
1536
 11
2280
 21
96
  0
LINE
  8
_0-9_枠極太
  6
CONTINUOUS
 62
    5
 10
2280
 20
96
 11
96
 21
96
  0
LINE
  8
_0-7_枠細線
  6
CONTINUOUS
 62
    5
 10
1464.0000000000009
 20
1342.307734354795
 11
1452.0000000000009
 21
1366.307734354795
  0
LINE
  8
_0-7_枠細線
  6
CONTINUOUS
 62
    5
 10
1440.0000000000009
 20
1342.307734354795
 11
1464.0000000000009
 21
1342.307734354795
  0
LINE
  8
_0-7_枠細線
  6
CONTINUOUS
 62
    5
 10
1452.0000000000009
 20
1366.307734354795
 11
1440.0000000000009
 21
1342.307734354795
  0
LINE
  8
_0-7_枠細線
  6
CONTINUOUS
 62
    5
 10
2280.0000000000009
 20
1340
 11
1424.0000000000009
 21
1340
  0
TEXT
  8
_0-7_枠細線
 62
    5
 10
1888.0000000000009
 20
1344
 40
20
 41
0.7199999999999999
 50
0
  1
２０１９．０９．０１
  0
TEXT
  8
_0-7_枠細線
 62
    5
 10
1443.7842420290378
 20
1340.789622411035
 40
20
 41
0.8
 50
0
  1
５
  0
ARC
  8
_0-0_計極細
  6
CONTINUOUS
 62
    2
 10
324.68344743405623
 20
1167.8867850222425
 40
11.295514677412786
 50
138.39585046827571
 51
221.60414953172395
  0
ARC
  8
_0-0_計極細
  6
CONTINUOUS
 62
    2
 10
307.7910051206859
 20
1152.8867850222407
 40
11.295514677412786
 50
318.39585046827227
 51
41.60414953172549
  0
LINE
  8
_0-1_計細線
  6
CONTINUOUS
 62
    3
 10
316.23722627737016
 20
1175.3867850222425
 11
1358.2372262773715
 21
1175.3867850222425
  0
ARC
  8
_0-0_計極細
  6
CONTINUOUS
 62
    2
 10
1366.6834474340571
 20
1167.8867850222425
 40
11.295514677412786
 50
138.39585046827494
 51
221.60414953172469
  0
ARC
  8
_0-0_計極細
  6
CONTINUOUS
 62
    2
 10
1349.7910051206866
 20
1152.8867850222407
 40
11.295514677412786
 50
318.39585046827455
 51
41.604149531724723
  0
LINE
  8
_0-1_計細線
  6
CONTINUOUS
 62
    3
 10
314.32301057899758
 20
1172.3867850222425
 11
1356.3230105789989
 21
1172.3867850222425
  0
LINE
  8
_0-1_計細線
  6
CONTINUOUS
 62
    3
 10
1336.737226277372
 20
1145.3867850222425
 11
1358.2372262773715
 21
1145.3867850222425
  0
LINE
  8
_0-1_計細線
  6
CONTINUOUS
 62
    3
 10
316.23722627737016
 20
1145.3867850222425
 11
337.73722627737197
 21
1145.3867850222425
  0
ARC
  8
_0-0_計極細
  6
CONTINUOUS
 62
    2
 10
324.68344743405623
 20
837.88678502224252
 40
11.295514677412786
 50
138.39585046827415
 51
221.60414953172548
  0
ARC
  8
_0-0_計極細
  6
CONTINUOUS
 62
    2
 10
307.7910051206859
 20
822.8867850222407
 40
11.295514677412786
 50
318.39585046827534
 51
41.604149531723962
  0
LINE
  8
_0-1_計細線
  6
CONTINUOUS
 62
    3
 10
1358.237226277372
 20
815.38678502224343
 11
316.23722627737106
 21
815.38678502224343
  0
ARC
  8
_0-0_計極細
  6
CONTINUOUS
 62
    2
 10
1366.6834474340576
 20
837.88678502224252
 40
11.295514677412786
 50
138.39585046827494
 51
221.60414953172469
  0
ARC
  8
_0-0_計極細
  6
CONTINUOUS
 62
    2
 10
1349.791005120687
 20
822.8867850222407
 40
11.295514677412786
 50
318.39585046827455
 51
41.604149531724723
  0
LINE
  8
_0-1_計細線
  6
CONTINUOUS
 62
    3
 10
1360.1514419757466
 20
818.38678502224343
 11
318.15144197574682
 21
818.38678502224343
  0
LINE
  8
_0-1_計細線
  6
CONTINUOUS
 62
    3
 10
1336.737226277372
 20
845.38678502224343
 11
1358.237226277372
 21
845.38678502224343
  0
LINE
  8
_0-1_計細線
  6
CONTINUOUS
 62
    3
 10
316.23722627737106
 20
845.38678502224343
 11
337.73722627737197
 21
845.38678502224343
  0
LINE
  8
_0-5_寸法線
  6
CONTINUOUS
 62
    7
 10
300.23722627737016
 20
1175.3867850222425
 11
228.23722627737016
 21
1175.3867850222425
  0
LINE
  8
_0-5_寸法線
  6
CONTINUOUS
 62
    7
 10
236.23722627737016
 20
1175.3867850222425
 11
240.37833099901036
 21
1159.9319718016175
  0
LINE
  8
_0-5_寸法線
  6
CONTINUOUS
 62
    7
 10
236.23722627737016
 20
1175.3867850222425
 11
232.09612155572972
 21
1159.9319718016175
  0
LINE
  8
_0-5_寸法線
  6
CONTINUOUS
 62
    7
 10
300.23722627737288
 20
1145.3867850222425
 11
228.23722627737106
 21
1145.3867850222425
  0
LINE
  8
_0-5_寸法線
  6
CONTINUOUS
 62
    7
 10
236.23722627737106
 20
1145.3867850222425
 11
232.09612155573075
 21
1160.8415982428676
  0
LINE
  8
_0-5_寸法線
  6
CONTINUOUS
 62
    7
 10
236.23722627737106
 20
1145.3867850222425
 11
240.37833099901138
 21
1160.8415982428676
  0
LINE
  8
_0-5_寸法線
  6
CONTINUOUS
 62
    7
 10
236.23722627737016
 20
1175.3867850222425
 11
236.23722627737106
 21
1145.3867850222425
  0
TEXT
  8
_0-5_寸法線
 62
    7
 10
236.23722627737061
 20
1148.3867850222425
 40
24
 41
1
 50
90
  1
30
  0
LINE
  8
_0-5_寸法線
  6
CONTINUOUS
 62
    7
 10
236.23722627737106
 20
1145.3867850222425
 11
240.37833099901138
 21
1129.9319718016175
  0
LINE
  8
_0-5_寸法線
  6
CONTINUOUS
 62
    7
 10
236.23722627737106
 20
1145.3867850222425
 11
232.09612155573075
 21
1129.9319718016175
  0
LINE
  8
_0-5_寸法線
  6
CONTINUOUS
 62
    7
 10
300.23722627737106
 20
845.38678502224252
 11
228.23722627737106
 21
845.38678502224252
  0
LINE
  8
_0-5_寸法線
  6
CONTINUOUS
 62
    7
 10
236.23722627737106
 20
845.38678502224252
 11
232.09612155573075
 21
860.84159824286758
  0
LINE
  8
_0-5_寸法線
  6
CONTINUOUS
 62
    7
 10
236.23722627737106
 20
845.38678502224252
 11
240.37833099901138
 21
860.84159824286758
  0
LINE
  8
_0-5_寸法線
  6
CONTINUOUS
 62
    7
 10
236.23722627737106
 20
1145.3867850222425
 11
236.23722627737106
 21
845.38678502224252
  0
TEXT
  8
_0-5_寸法線
 62
    7
 10
236.23722627737106
 20
977.38678502224252
 40
24
 41
1
 50
90
  1
300
  0
LINE
  8
_0-5_寸法線
  6
CONTINUOUS
 62
    7
 10
236.23722627737106
 20
845.38678502224252
 11
240.37833099901138
 21
829.93197180161746
  0
LINE
  8
_0-5_寸法線
  6
CONTINUOUS
 62
    7
 10
236.23722627737106
 20
845.38678502224252
 11
232.09612155573075
 21
829.93197180161746
  0
LINE
  8
_0-5_寸法線
  6
CONTINUOUS
 62
    7
 10
300.23722627737561
 20
815.38678502224525
 11
228.23722627737106
 21
815.38678502224525
  0
LINE
  8
_0-5_寸法線
  6
CONTINUOUS
 62
    7
 10
236.23722627737106
 20
815.38678502224525
 11
232.09612155573075
 21
830.8415982428703
  0
LINE
  8
_0-5_寸法線
  6
CONTINUOUS
 62
    7
 10
236.23722627737106
 20
815.38678502224525
 11
240.37833099901138
 21
830.8415982428703
  0
LINE
  8
_0-5_寸法線
  6
CONTINUOUS
 62
    7
 10
236.23722627737106
 20
845.38678502224252
 11
236.23722627737106
 21
815.38678502224525
  0
TEXT
  8
_0-5_寸法線
 62
    7
 10
236.23722627737106
 20
818.38678502224388
 40
24
 41
1
 50
90
  1
30
  0
LINE
  8
_0-5_寸法線
  6
CONTINUOUS
 62
    7
 10
1374.2372262773715
 20
1175.3867850222425
 11
1502.2372262773706
 21
1175.3867850222425
  0
LINE
  8
_0-5_寸法線
  6
CONTINUOUS
 62
    7
 10
1494.2372262773706
 20
1175.3867850222425
 11
1498.3783309990108
 21
1159.9319718016175
  0
LINE
  8
_0-5_寸法線
  6
CONTINUOUS
 62
    7
 10
1494.2372262773706
 20
1175.3867850222425
 11
1490.0961215557302
 21
1159.9319718016175
  0
LINE
  8
_0-5_寸法線
  6
CONTINUOUS
 62
    7
 10
1374.2372262773711
 20
815.38678502223888
 11
1502.2372262773713
 21
815.38678502223888
  0
LINE
  8
_0-5_寸法線
  6
CONTINUOUS
 62
    7
 10
1494.2372262773713
 20
815.38678502223888
 11
1490.0961215557309
 21
830.84159824286394
  0
LINE
  8
_0-5_寸法線
  6
CONTINUOUS
 62
    7
 10
1494.2372262773713
 20
815.38678502223888
 11
1498.3783309990115
 21
830.84159824286394
  0
LINE
  8
_0-5_寸法線
  6
CONTINUOUS
 62
    7
 10
1494.2372262773706
 20
1175.3867850222425
 11
1494.2372262773713
 21
815.38678502223888
  0
TEXT
  8
_0-5_寸法線
 62
    7
 10
1494.2372262773715
 20
977.3867850222407
 40
24
 41
1
 50
90
  1
360
  0
LINE
  8
_0-1_計細線
  6
CONTINUOUS
 62
    3
 10
337.73722627737197
 20
972.68678502224725
 11
1336.737226277372
 21
972.68678502224725
  0
LINE
  8
_0-1_計細線
  6
CONTINUOUS
 62
    3
 10
337.73722627737197
 20
984.0867850222478
 11
1336.737226277372
 21
984.0867850222478
  0
LINE
  8
_0-1_計細線
  6
CONTINUOUS
 62
    3
 10
337.73722627737197
 20
972.68678502224725
 11
337.73722627737197
 21
984.0867850222478
  0
LINE
  8
_0-1_計細線
  6
CONTINUOUS
 62
    3
 10
1336.737226277372
 20
972.68678502224725
 11
1336.737226277372
 21
984.0867850222478
  0
LINE
  8
_0-0_計極細
  6
CONTINUOUS
 62
    2
 10
337.73722627737197
 20
980.88678502224752
 11
1336.737226277372
 21
980.88678502224752
  0
LINE
  8
_0-0_計極細
  6
CONTINUOUS
 62
    2
 10
337.73722627737197
 20
975.88678502224752
 11
1336.737226277372
 21
975.88678502224752
  0
LINE
  8
_0-1_計細線
  6
CONTINUOUS
 62
    3
 10
337.73722627737197
 20
1069.0867850222451
 11
1336.737226277372
 21
1069.0867850222451
  0
LINE
  8
_0-1_計細線
  6
CONTINUOUS
 62
    3
 10
337.73722627737197
 20
1057.6867850222445
 11
1336.737226277372
 21
1057.6867850222445
  0
LINE
  8
_0-1_計細線
  6
CONTINUOUS
 62
    3
 10
337.73722627737197
 20
1069.0867850222451
 11
337.73722627737197
 21
1057.6867850222445
  0
LINE
  8
_0-1_計細線
  6
CONTINUOUS
 62
    3
 10
1336.737226277372
 20
1069.0867850222451
 11
1336.737226277372
 21
1057.6867850222445
  0
LINE
  8
_0-0_計極細
  6
CONTINUOUS
 62
    2
 10
337.73722627737197
 20
1060.8867850222448
 11
1336.737226277372
 21
1060.8867850222448
  0
LINE
  8
_0-0_計極細
  6
CONTINUOUS
 62
    2
 10
337.73722627737197
 20
1065.8867850222448
 11
1336.737226277372
 21
1065.8867850222448
  0
LINE
  8
_0-1_計細線
  6
CONTINUOUS
 62
    3
 10
337.73722627737197
 20
1035.0867850222451
 11
1336.737226277372
 21
1035.0867850222451
  0
LINE
  8
_0-1_計細線
  6
CONTINUOUS
 62
    3
 10
337.73722627737197
 20
1023.6867850222445
 11
1336.737226277372
 21
1023.6867850222445
  0
LINE
  8
_0-1_計細線
  6
CONTINUOUS
 62
    3
 10
337.73722627737197
 20
1035.0867850222451
 11
337.73722627737197
 21
1023.6867850222445
  0
LINE
  8
_0-1_計細線
  6
CONTINUOUS
 62
    3
 10
1336.737226277372
 20
1035.0867850222451
 11
1336.737226277372
 21
1023.6867850222445
  0
LINE
  8
_0-0_計極細
  6
CONTINUOUS
 62
    2
 10
337.73722627737197
 20
1026.8867850222448
 11
1336.737226277372
 21
1026.8867850222448
  0
LINE
  8
_0-0_計極細
  6
CONTINUOUS
 62
    2
 10
337.73722627737197
 20
1031.8867850222448
 11
1336.737226277372
 21
1031.8867850222448
  0
LINE
  8
_0-1_計細線
  6
CONTINUOUS
 62
    3
 10
337.73722627737197
 20
1052.086785022246
 11
1336.737226277372
 21
1052.086785022246
  0
LINE
  8
_0-1_計細線
  6
CONTINUOUS
 62
    3
 10
337.73722627737197
 20
1040.6867850222454
 11
1336.737226277372
 21
1040.6867850222454
  0
LINE
  8
_0-1_計細線
  6
CONTINUOUS
 62
    3
 10
337.73722627737197
 20
1052.086785022246
 11
337.73722627737197
 21
1040.6867850222454
  0
LINE
  8
_0-1_計細線
  6
CONTINUOUS
 62
    3
 10
1336.737226277372
 20
1052.086785022246
 11
1336.737226277372
 21
1040.6867850222454
  0
LINE
  8
_0-0_計極細
  6
CONTINUOUS
 62
    2
 10
337.73722627737197
 20
1043.8867850222457
 11
1336.737226277372
 21
1043.8867850222457
  0
LINE
  8
_0-0_計極細
  6
CONTINUOUS
 62
    2
 10
337.73722627737197
 20
1048.8867850222457
 11
1336.737226277372
 21
1048.8867850222457
  0
LINE
  8
_0-1_計細線
  6
CONTINUOUS
 62
    3
 10
337.73722627737197
 20
1137.0867850222455
 11
1336.737226277372
 21
1137.0867850222455
  0
LINE
  8
_0-1_計細線
  6
CONTINUOUS
 62
    3
 10
337.73722627737197
 20
1125.686785022245
 11
1336.737226277372
 21
1125.686785022245
  0
LINE
  8
_0-1_計細線
  6
CONTINUOUS
 62
    3
 10
337.73722627737197
 20
1137.0867850222455
 11
337.73722627737197
 21
1125.686785022245
  0
LINE
  8
_0-1_計細線
  6
CONTINUOUS
 62
    3
 10
1336.737226277372
 20
1137.0867850222455
 11
1336.737226277372
 21
1125.686785022245
  0
LINE
  8
_0-0_計極細
  6
CONTINUOUS
 62
    2
 10
337.73722627737197
 20
1128.8867850222457
 11
1336.737226277372
 21
1128.8867850222457
  0
LINE
  8
_0-0_計極細
  6
CONTINUOUS
 62
    2
 10
337.73722627737197
 20
1133.8867850222457
 11
1336.737226277372
 21
1133.8867850222457
  0
LINE
  8
_0-1_計細線
  6
CONTINUOUS
 62
    3
 10
337.73722627737197
 20
1086.0867850222442
 11
1336.737226277372
 21
1086.0867850222442
  0
LINE
  8
_0-1_計細線
  6
CONTINUOUS
 62
    3
 10
337.73722627737197
 20
1074.6867850222436
 11
1336.737226277372
 21
1074.6867850222436
  0
LINE
  8
_0-1_計細線
  6
CONTINUOUS
 62
    3
 10
337.73722627737197
 20
1086.0867850222442
 11
337.73722627737197
 21
1074.6867850222436
  0
LINE
  8
_0-1_計細線
  6
CONTINUOUS
 62
    3
 10
1336.737226277372
 20
1086.0867850222442
 11
1336.737226277372
 21
1074.6867850222436
  0
LINE
  8
_0-0_計極細
  6
CONTINUOUS
 62
    2
 10
337.73722627737197
 20
1077.8867850222439
 11
1336.737226277372
 21
1077.8867850222439
  0
LINE
  8
_0-0_計極細
  6
CONTINUOUS
 62
    2
 10
337.73722627737197
 20
1082.8867850222439
 11
1336.737226277372
 21
1082.8867850222439
  0
LINE
  8
_0-1_計細線
  6
CONTINUOUS
 62
    3
 10
337.73722627737197
 20
1103.0867850222432
 11
1336.737226277372
 21
1103.0867850222432
  0
LINE
  8
_0-1_計細線
  6
CONTINUOUS
 62
    3
 10
337.73722627737197
 20
1091.6867850222427
 11
1336.737226277372
 21
1091.6867850222427
  0
LINE
  8
_0-1_計細線
  6
CONTINUOUS
 62
    3
 10
337.73722627737197
 20
1103.0867850222432
 11
337.73722627737197
 21
1091.6867850222427
  0
LINE
  8
_0-1_計細線
  6
CONTINUOUS
 62
    3
 10
1336.737226277372
 20
1103.0867850222432
 11
1336.737226277372
 21
1091.6867850222427
  0
LINE
  8
_0-0_計極細
  6
CONTINUOUS
 62
    2
 10
337.73722627737197
 20
1094.886785022243
 11
1336.737226277372
 21
1094.886785022243
  0
LINE
  8
_0-0_計極細
  6
CONTINUOUS
 62
    2
 10
337.73722627737197
 20
1099.886785022243
 11
1336.737226277372
 21
1099.886785022243
  0
LINE
  8
_0-1_計細線
  6
CONTINUOUS
 62
    3
 10
337.73722627737197
 20
1120.0867850222423
 11
1336.737226277372
 21
1120.0867850222423
  0
LINE
  8
_0-1_計細線
  6
CONTINUOUS
 62
    3
 10
337.73722627737197
 20
1108.6867850222418
 11
1336.737226277372
 21
1108.6867850222418
  0
LINE
  8
_0-1_計細線
  6
CONTINUOUS
 62
    3
 10
337.73722627737197
 20
1120.0867850222423
 11
337.73722627737197
 21
1108.6867850222418
  0
LINE
  8
_0-1_計細線
  6
CONTINUOUS
 62
    3
 10
1336.737226277372
 20
1120.0867850222423
 11
1336.737226277372
 21
1108.6867850222418
  0
LINE
  8
_0-0_計極細
  6
CONTINUOUS
 62
    2
 10
337.73722627737197
 20
1111.8867850222421
 11
1336.737226277372
 21
1111.8867850222421
  0
LINE
  8
_0-0_計極細
  6
CONTINUOUS
 62
    2
 10
337.73722627737197
 20
1116.8867850222421
 11
1336.737226277372
 21
1116.8867850222421
  0
LINE
  8
_0-0_計極細
  6
CENTER2
 62
    2
 10
321.84862674035276
 20
995.38678502224343
 11
1352.78196007373
 21
995.38678502224343
  0
LINE
  8
_0-1_計細線
  6
CONTINUOUS
 62
    3
 10
337.73722627737197
 20
1153.7867850222444
 11
1336.737226277372
 21
1153.7867850222444
  0
LINE
  8
_0-1_計細線
  6
CONTINUOUS
 62
    3
 10
337.73722627737197
 20
1142.3867850222439
 11
1336.737226277372
 21
1142.3867850222439
  0
LINE
  8
_0-1_計細線
  6
CONTINUOUS
 62
    3
 10
337.73722627737197
 20
1153.7867850222444
 11
337.73722627737197
 21
1142.3867850222439
  0
LINE
  8
_0-1_計細線
  6
CONTINUOUS
 62
    3
 10
1336.737226277372
 20
1153.7867850222444
 11
1336.737226277372
 21
1142.3867850222439
  0
LINE
  8
_0-0_計極細
  6
CONTINUOUS
 62
    2
 10
337.73722627737197
 20
1145.5867850222442
 11
1336.737226277372
 21
1145.5867850222442
  0
LINE
  8
_0-0_計極細
  6
CONTINUOUS
 62
    2
 10
337.73722627737197
 20
1150.5867850222442
 11
1336.737226277372
 21
1150.5867850222442
  0
LINE
  8
_0-1_計細線
  6
CONTINUOUS
 62
    3
 10
337.73722627737197
 20
1170.3867850222484
 11
1336.737226277372
 21
1170.3867850222484
  0
LINE
  8
_0-1_計細線
  6
CONTINUOUS
 62
    3
 10
337.73722627737197
 20
1158.9867850222479
 11
1336.737226277372
 21
1158.9867850222479
  0
LINE
  8
_0-1_計細線
  6
CONTINUOUS
 62
    3
 10
337.73722627737197
 20
1170.3867850222484
 11
337.73722627737197
 21
1158.9867850222479
  0
LINE
  8
_0-1_計細線
  6
CONTINUOUS
 62
    3
 10
1336.737226277372
 20
1170.3867850222484
 11
1336.737226277372
 21
1158.9867850222479
  0
LINE
  8
_0-0_計極細
  6
CONTINUOUS
 62
    2
 10
337.73722627737197
 20
1162.1867850222482
 11
1336.737226277372
 21
1162.1867850222482
  0
LINE
  8
_0-0_計極細
  6
CONTINUOUS
 62
    2
 10
337.73722627737197
 20
1167.1867850222482
 11
1336.737226277372
 21
1167.1867850222482
  0
LINE
  8
_0-1_計細線
  6
CONTINUOUS
 62
    3
 10
337.73722627737197
 20
921.68678502224179
 11
1336.737226277372
 21
921.68678502224179
  0
LINE
  8
_0-1_計細線
  6
CONTINUOUS
 62
    3
 10
337.73722627737197
 20
933.08678502224234
 11
1336.737226277372
 21
933.08678502224234
  0
LINE
  8
_0-1_計細線
  6
CONTINUOUS
 62
    3
 10
337.73722627737197
 20
921.68678502224179
 11
337.73722627737197
 21
933.08678502224234
  0
LINE
  8
_0-1_計細線
  6
CONTINUOUS
 62
    3
 10
1336.737226277372
 20
921.68678502224179
 11
1336.737226277372
 21
933.08678502224234
  0
LINE
  8
_0-0_計極細
  6
CONTINUOUS
 62
    2
 10
337.73722627737197
 20
929.88678502224207
 11
1336.737226277372
 21
929.88678502224207
  0
LINE
  8
_0-0_計極細
  6
CONTINUOUS
 62
    2
 10
337.73722627737197
 20
924.88678502224207
 11
1336.737226277372
 21
924.88678502224207
  0
LINE
  8
_0-1_計細線
  6
CONTINUOUS
 62
    3
 10
337.73722627737197
 20
955.68678502224179
 11
1336.737226277372
 21
955.68678502224179
  0
LINE
  8
_0-1_計細線
  6
CONTINUOUS
 62
    3
 10
337.73722627737197
 20
967.08678502224234
 11
1336.737226277372
 21
967.08678502224234
  0
LINE
  8
_0-1_計細線
  6
CONTINUOUS
 62
    3
 10
337.73722627737197
 20
955.68678502224179
 11
337.73722627737197
 21
967.08678502224234
  0
LINE
  8
_0-1_計細線
  6
CONTINUOUS
 62
    3
 10
1336.737226277372
 20
955.68678502224179
 11
1336.737226277372
 21
967.08678502224234
  0
LINE
  8
_0-0_計極細
  6
CONTINUOUS
 62
    2
 10
337.73722627737197
 20
963.88678502224207
 11
1336.737226277372
 21
963.88678502224207
  0
LINE
  8
_0-0_計極細
  6
CONTINUOUS
 62
    2
 10
337.73722627737197
 20
958.88678502224207
 11
1336.737226277372
 21
958.88678502224207
  0
LINE
  8
_0-1_計細線
  6
CONTINUOUS
 62
    3
 10
337.73722627737197
 20
938.68678502224088
 11
1336.737226277372
 21
938.68678502224088
  0
LINE
  8
_0-1_計細線
  6
CONTINUOUS
 62
    3
 10
337.73722627737197
 20
950.08678502224143
 11
1336.737226277372
 21
950.08678502224143
  0
LINE
  8
_0-1_計細線
  6
CONTINUOUS
 62
    3
 10
337.73722627737197
 20
938.68678502224088
 11
337.73722627737197
 21
950.08678502224143
  0
LINE
  8
_0-1_計細線
  6
CONTINUOUS
 62
    3
 10
1336.737226277372
 20
938.68678502224088
 11
1336.737226277372
 21
950.08678502224143
  0
LINE
  8
_0-0_計極細
  6
CONTINUOUS
 62
    2
 10
337.73722627737197
 20
946.88678502224116
 11
1336.737226277372
 21
946.88678502224116
  0
LINE
  8
_0-0_計極細
  6
CONTINUOUS
 62
    2
 10
337.73722627737197
 20
941.88678502224116
 11
1336.737226277372
 21
941.88678502224116
  0
LINE
  8
_0-1_計細線
  6
CONTINUOUS
 62
    3
 10
337.73722627737197
 20
853.68678502224134
 11
1336.737226277372
 21
853.68678502224134
  0
LINE
  8
_0-1_計細線
  6
CONTINUOUS
 62
    3
 10
337.73722627737197
 20
865.08678502224188
 11
1336.737226277372
 21
865.08678502224188
  0
LINE
  8
_0-1_計細線
  6
CONTINUOUS
 62
    3
 10
337.73722627737197
 20
853.68678502224134
 11
337.73722627737197
 21
865.08678502224188
  0
LINE
  8
_0-1_計細線
  6
CONTINUOUS
 62
    3
 10
1336.737226277372
 20
853.68678502224134
 11
1336.737226277372
 21
865.08678502224188
  0
LINE
  8
_0-0_計極細
  6
CONTINUOUS
 62
    2
 10
337.73722627737197
 20
861.88678502224116
 11
1336.737226277372
 21
861.88678502224116
  0
LINE
  8
_0-0_計極細
  6
CONTINUOUS
 62
    2
 10
337.73722627737197
 20
856.88678502224116
 11
1336.737226277372
 21
856.88678502224116
  0
LINE
  8
_0-1_計細線
  6
CONTINUOUS
 62
    3
 10
337.73722627737197
 20
904.6867850222427
 11
1336.737226277372
 21
904.6867850222427
  0
LINE
  8
_0-1_計細線
  6
CONTINUOUS
 62
    3
 10
337.73722627737197
 20
916.08678502224325
 11
1336.737226277372
 21
916.08678502224325
  0
LINE
  8
_0-1_計細線
  6
CONTINUOUS
 62
    3
 10
337.73722627737197
 20
904.6867850222427
 11
337.73722627737197
 21
916.08678502224325
  0
LINE
  8
_0-1_計細線
  6
CONTINUOUS
 62
    3
 10
1336.737226277372
 20
904.6867850222427
 11
1336.737226277372
 21
916.08678502224325
  0
LINE
  8
_0-0_計極細
  6
CONTINUOUS
 62
    2
 10
337.73722627737197
 20
912.88678502224298
 11
1336.737226277372
 21
912.88678502224298
  0
LINE
  8
_0-0_計極細
  6
CONTINUOUS
 62
    2
 10
337.73722627737197
 20
907.88678502224298
 11
1336.737226277372
 21
907.88678502224298
  0
LINE
  8
_0-1_計細線
  6
CONTINUOUS
 62
    3
 10
337.73722627737197
 20
887.68678502224361
 11
1336.737226277372
 21
887.68678502224361
  0
LINE
  8
_0-1_計細線
  6
CONTINUOUS
 62
    3
 10
337.73722627737197
 20
899.08678502224416
 11
1336.737226277372
 21
899.08678502224416
  0
LINE
  8
_0-1_計細線
  6
CONTINUOUS
 62
    3
 10
337.73722627737197
 20
887.68678502224361
 11
337.73722627737197
 21
899.08678502224416
  0
LINE
  8
_0-1_計細線
  6
CONTINUOUS
 62
    3
 10
1336.737226277372
 20
887.68678502224361
 11
1336.737226277372
 21
899.08678502224416
  0
LINE
  8
_0-0_計極細
  6
CONTINUOUS
 62
    2
 10
337.73722627737197
 20
895.88678502224388
 11
1336.737226277372
 21
895.88678502224388
  0
LINE
  8
_0-0_計極細
  6
CONTINUOUS
 62
    2
 10
337.73722627737197
 20
890.88678502224388
 11
1336.737226277372
 21
890.88678502224388
  0
LINE
  8
_0-1_計細線
  6
CONTINUOUS
 62
    3
 10
337.73722627737197
 20
870.68678502224452
 11
1336.737226277372
 21
870.68678502224452
  0
LINE
  8
_0-1_計細線
  6
CONTINUOUS
 62
    3
 10
337.73722627737197
 20
882.08678502224507
 11
1336.737226277372
 21
882.08678502224507
  0
LINE
  8
_0-1_計細線
  6
CONTINUOUS
 62
    3
 10
337.73722627737197
 20
870.68678502224452
 11
337.73722627737197
 21
882.08678502224507
  0
LINE
  8
_0-1_計細線
  6
CONTINUOUS
 62
    3
 10
1336.737226277372
 20
870.68678502224452
 11
1336.737226277372
 21
882.08678502224507
  0
LINE
  8
_0-0_計極細
  6
CONTINUOUS
 62
    2
 10
337.73722627737197
 20
878.88678502224479
 11
1336.737226277372
 21
878.88678502224479
  0
LINE
  8
_0-0_計極細
  6
CONTINUOUS
 62
    2
 10
337.73722627737197
 20
873.88678502224479
 11
1336.737226277372
 21
873.88678502224479
  0
LINE
  8
_0-1_計細線
  6
CONTINUOUS
 62
    3
 10
337.73722627737197
 20
836.98678502224243
 11
1336.737226277372
 21
836.98678502224243
  0
LINE
  8
_0-1_計細線
  6
CONTINUOUS
 62
    3
 10
337.73722627737197
 20
848.38678502224298
 11
1336.737226277372
 21
848.38678502224298
  0
LINE
  8
_0-1_計細線
  6
CONTINUOUS
 62
    3
 10
337.73722627737197
 20
836.98678502224243
 11
337.73722627737197
 21
848.38678502224298
  0
LINE
  8
_0-1_計細線
  6
CONTINUOUS
 62
    3
 10
1336.737226277372
 20
836.98678502224243
 11
1336.737226277372
 21
848.38678502224298
  0
LINE
  8
_0-0_計極細
  6
CONTINUOUS
 62
    2
 10
337.73722627737197
 20
845.1867850222427
 11
1336.737226277372
 21
845.1867850222427
  0
LINE
  8
_0-0_計極細
  6
CONTINUOUS
 62
    2
 10
337.73722627737197
 20
840.1867850222427
 11
1336.737226277372
 21
840.1867850222427
  0
LINE
  8
_0-1_計細線
  6
CONTINUOUS
 62
    3
 10
337.73722627737197
 20
820.38678502223843
 11
1336.737226277372
 21
820.38678502223843
  0
LINE
  8
_0-1_計細線
  6
CONTINUOUS
 62
    3
 10
337.73722627737197
 20
831.78678502223897
 11
1336.737226277372
 21
831.78678502223897
  0
LINE
  8
_0-1_計細線
  6
CONTINUOUS
 62
    3
 10
337.73722627737197
 20
820.38678502223843
 11
337.73722627737197
 21
831.78678502223897
  0
LINE
  8
_0-1_計細線
  6
CONTINUOUS
 62
    3
 10
1336.737226277372
 20
820.38678502223843
 11
1336.737226277372
 21
831.78678502223897
  0
LINE
  8
_0-0_計極細
  6
CONTINUOUS
 62
    2
 10
337.73722627737197
 20
828.5867850222387
 11
1336.737226277372
 21
828.5867850222387
  0
LINE
  8
_0-0_計極細
  6
CONTINUOUS
 62
    2
 10
337.73722627737197
 20
823.5867850222387
 11
1336.737226277372
 21
823.5867850222387
  0
LINE
  8
_0-0_計極細
  6
CONTINUOUS
 62
    2
 10
345.73722627737197
 20
989.68678502224316
 11
345.73722627737197
 21
984.08678502224325
  0
LINE
  8
_0-0_計極細
  6
CONTINUOUS
 62
    2
 10
358.73722627737197
 20
989.68678502224316
 11
358.73722627737197
 21
984.08678502224325
  0
LINE
  8
_0-0_計極細
  6
CONTINUOUS
 62
    2
 10
345.73722627737197
 20
1006.6867850222441
 11
345.73722627737197
 21
1001.0867850222437
  0
LINE
  8
_0-0_計極細
  6
CONTINUOUS
 62
    2
 10
358.73722627737197
 20
1006.6867850222441
 11
358.73722627737197
 21
1001.0867850222437
  0
LINE
  8
_0-0_計極細
  6
CONTINUOUS
 62
    2
 10
345.73722627737197
 20
1023.6867850222445
 11
345.73722627737197
 21
1018.0867850222446
  0
LINE
  8
_0-0_計極細
  6
CONTINUOUS
 62
    2
 10
358.73722627737197
 20
1023.6867850222445
 11
358.73722627737197
 21
1018.0867850222446
  0
LINE
  8
_0-0_計極細
  6
CONTINUOUS
 62
    2
 10
345.73722627737197
 20
1040.6867850222454
 11
345.73722627737197
 21
1035.0867850222451
  0
LINE
  8
_0-0_計極細
  6
CONTINUOUS
 62
    2
 10
358.73722627737197
 20
1040.6867850222454
 11
358.73722627737197
 21
1035.0867850222451
  0
LINE
  8
_0-0_計極細
  6
CONTINUOUS
 62
    2
 10
345.73722627737197
 20
1057.6867850222459
 11
345.73722627737197
 21
1052.086785022246
  0
LINE
  8
_0-0_計極細
  6
CONTINUOUS
 62
    2
 10
358.73722627737197
 20
1057.6867850222459
 11
358.73722627737197
 21
1052.086785022246
  0
LINE
  8
_0-0_計極細
  6
CONTINUOUS
 62
    2
 10
345.73722627737197
 20
1074.686785022245
 11
345.73722627737197
 21
1069.0867850222451
  0
LINE
  8
_0-0_計極細
  6
CONTINUOUS
 62
    2
 10
358.73722627737197
 20
1074.686785022245
 11
358.73722627737197
 21
1069.0867850222451
  0
LINE
  8
_0-0_計極細
  6
CONTINUOUS
 62
    2
 10
345.73722627737197
 20
1091.6867850222441
 11
345.73722627737197
 21
1086.0867850222442
  0
LINE
  8
_0-0_計極細
  6
CONTINUOUS
 62
    2
 10
358.73722627737197
 20
1091.6867850222441
 11
358.73722627737197
 21
1086.0867850222442
  0
LINE
  8
_0-0_計極細
  6
CONTINUOUS
 62
    2
 10
345.73722627737197
 20
1108.6867850222432
 11
345.73722627737197
 21
1103.0867850222432
  0
LINE
  8
_0-0_計極細
  6
CONTINUOUS
 62
    2
 10
358.73722627737197
 20
1108.6867850222432
 11
358.73722627737197
 21
1103.0867850222432
  0
LINE
  8
_0-0_計極細
  6
CONTINUOUS
 62
    2
 10
345.73722627737197
 20
1125.6867850222422
 11
345.73722627737197
 21
1120.0867850222423
  0
LINE
  8
_0-0_計極細
  6
CONTINUOUS
 62
    2
 10
358.73722627737197
 20
1125.6867850222422
 11
358.73722627737197
 21
1120.0867850222423
  0
LINE
  8
_0-0_計極細
  6
CONTINUOUS
 62
    2
 10
345.73722627737197
 20
1142.3867850222452
 11
345.73722627737197
 21
1137.0867850222455
  0
LINE
  8
_0-0_計極細
  6
CONTINUOUS
 62
    2
 10
358.73722627737197
 20
1142.3867850222452
 11
358.73722627737197
 21
1137.0867850222455
  0
LINE
  8
_0-0_計極細
  6
CONTINUOUS
 62
    2
 10
345.73722627737197
 20
1158.9867850222442
 11
345.73722627737197
 21
1153.7867850222444
  0
LINE
  8
_0-0_計極細
  6
CONTINUOUS
 62
    2
 10
358.73722627737197
 20
1158.9867850222442
 11
358.73722627737197
 21
1153.7867850222444
  0
LINE
  8
_0-0_計極細
  6
CONTINUOUS
 62
    2
 10
345.73722627737197
 20
967.08678502224234
 11
345.73722627737197
 21
972.68678502224225
  0
LINE
  8
_0-0_計極細
  6
CONTINUOUS
 62
    2
 10
358.73722627737197
 20
967.08678502224234
 11
358.73722627737197
 21
972.68678502224225
  0
LINE
  8
_0-0_計極細
  6
CONTINUOUS
 62
    2
 10
345.73722627737197
 20
950.08678502224143
 11
345.73722627737197
 21
955.68678502224179
  0
LINE
  8
_0-0_計極細
  6
CONTINUOUS
 62
    2
 10
358.73722627737197
 20
950.08678502224143
 11
358.73722627737197
 21
955.68678502224179
  0
LINE
  8
_0-0_計極細
  6
CONTINUOUS
 62
    2
 10
345.73722627737197
 20
933.08678502224097
 11
345.73722627737197
 21
938.68678502224088
  0
LINE
  8
_0-0_計極細
  6
CONTINUOUS
 62
    2
 10
358.73722627737197
 20
933.08678502224097
 11
358.73722627737197
 21
938.68678502224088
  0
LINE
  8
_0-0_計極細
  6
CONTINUOUS
 62
    2
 10
345.73722627737197
 20
916.08678502224188
 11
345.73722627737197
 21
921.68678502224179
  0
LINE
  8
_0-0_計極細
  6
CONTINUOUS
 62
    2
 10
358.73722627737197
 20
916.08678502224188
 11
358.73722627737197
 21
921.68678502224179
  0
LINE
  8
_0-0_計極細
  6
CONTINUOUS
 62
    2
 10
345.73722627737197
 20
899.08678502224279
 11
345.73722627737197
 21
904.6867850222427
  0
LINE
  8
_0-0_計極細
  6
CONTINUOUS
 62
    2
 10
358.73722627737197
 20
899.08678502224279
 11
358.73722627737197
 21
904.6867850222427
  0
LINE
  8
_0-0_計極細
  6
CONTINUOUS
 62
    2
 10
345.73722627737197
 20
882.0867850222437
 11
345.73722627737197
 21
887.68678502224361
  0
LINE
  8
_0-0_計極細
  6
CONTINUOUS
 62
    2
 10
358.73722627737197
 20
882.0867850222437
 11
358.73722627737197
 21
887.68678502224361
  0
LINE
  8
_0-0_計極細
  6
CONTINUOUS
 62
    2
 10
345.73722627737197
 20
865.08678502224461
 11
345.73722627737197
 21
870.68678502224452
  0
LINE
  8
_0-0_計極細
  6
CONTINUOUS
 62
    2
 10
358.73722627737197
 20
865.08678502224461
 11
358.73722627737197
 21
870.68678502224452
  0
LINE
  8
_0-0_計極細
  6
CONTINUOUS
 62
    2
 10
345.73722627737197
 20
848.38678502224161
 11
345.73722627737197
 21
853.68678502224134
  0
LINE
  8
_0-0_計極細
  6
CONTINUOUS
 62
    2
 10
358.73722627737197
 20
848.38678502224161
 11
358.73722627737197
 21
853.68678502224134
  0
LINE
  8
_0-0_計極細
  6
CONTINUOUS
 62
    2
 10
345.73722627737197
 20
831.78678502224261
 11
345.73722627737197
 21
836.98678502224243
  0
LINE
  8
_0-0_計極細
  6
CONTINUOUS
 62
    2
 10
358.73722627737197
 20
831.78678502224261
 11
358.73722627737197
 21
836.98678502224243
  0
LINE
  8
_0-0_計極細
  6
CENTER1
 62
    2
 10
352.23722627737197
 20
1179.1375044467102
 11
352.23722627737197
 21
812.82896128123116
  0
LINE
  8
_0-0_計極細
  6
CONTINUOUS
 62
    2
 10
1315.737226277372
 20
989.68678502224316
 11
1315.737226277372
 21
984.08678502224325
  0
LINE
  8
_0-0_計極細
  6
CONTINUOUS
 62
    2
 10
1328.737226277372
 20
989.68678502224316
 11
1328.737226277372
 21
984.08678502224325
  0
LINE
  8
_0-0_計極細
  6
CONTINUOUS
 62
    2
 10
1315.737226277372
 20
1006.6867850222441
 11
1315.737226277372
 21
1001.0867850222437
  0
LINE
  8
_0-0_計極細
  6
CONTINUOUS
 62
    2
 10
1328.737226277372
 20
1006.6867850222441
 11
1328.737226277372
 21
1001.0867850222437
  0
LINE
  8
_0-0_計極細
  6
CONTINUOUS
 62
    2
 10
1315.737226277372
 20
1023.6867850222445
 11
1315.737226277372
 21
1018.0867850222446
  0
LINE
  8
_0-0_計極細
  6
CONTINUOUS
 62
    2
 10
1328.737226277372
 20
1023.6867850222445
 11
1328.737226277372
 21
1018.0867850222446
  0
LINE
  8
_0-0_計極細
  6
CONTINUOUS
 62
    2
 10
1315.737226277372
 20
1040.6867850222454
 11
1315.737226277372
 21
1035.0867850222451
  0
LINE
  8
_0-0_計極細
  6
CONTINUOUS
 62
    2
 10
1328.737226277372
 20
1040.6867850222454
 11
1328.737226277372
 21
1035.0867850222451
  0
LINE
  8
_0-0_計極細
  6
CONTINUOUS
 62
    2
 10
1315.737226277372
 20
1057.6867850222459
 11
1315.737226277372
 21
1052.086785022246
  0
LINE
  8
_0-0_計極細
  6
CONTINUOUS
 62
    2
 10
1328.737226277372
 20
1057.6867850222459
 11
1328.737226277372
 21
1052.086785022246
  0
LINE
  8
_0-0_計極細
  6
CONTINUOUS
 62
    2
 10
1315.737226277372
 20
1074.686785022245
 11
1315.737226277372
 21
1069.0867850222451
  0
LINE
  8
_0-0_計極細
  6
CONTINUOUS
 62
    2
 10
1328.737226277372
 20
1074.686785022245
 11
1328.737226277372
 21
1069.0867850222451
  0
LINE
  8
_0-0_計極細
  6
CONTINUOUS
 62
    2
 10
1315.737226277372
 20
1091.6867850222441
 11
1315.737226277372
 21
1086.0867850222442
  0
LINE
  8
_0-0_計極細
  6
CONTINUOUS
 62
    2
 10
1328.737226277372
 20
1091.6867850222441
 11
1328.737226277372
 21
1086.0867850222442
  0
LINE
  8
_0-0_計極細
  6
CONTINUOUS
 62
    2
 10
1315.737226277372
 20
1108.6867850222432
 11
1315.737226277372
 21
1103.0867850222432
  0
LINE
  8
_0-0_計極細
  6
CONTINUOUS
 62
    2
 10
1328.737226277372
 20
1108.6867850222432
 11
1328.737226277372
 21
1103.0867850222432
  0
LINE
  8
_0-0_計極細
  6
CONTINUOUS
 62
    2
 10
1315.737226277372
 20
1125.6867850222422
 11
1315.737226277372
 21
1120.0867850222423
  0
LINE
  8
_0-0_計極細
  6
CONTINUOUS
 62
    2
 10
1328.737226277372
 20
1125.6867850222422
 11
1328.737226277372
 21
1120.0867850222423
  0
LINE
  8
_0-0_計極細
  6
CONTINUOUS
 62
    2
 10
1315.737226277372
 20
1142.3867850222452
 11
1315.737226277372
 21
1137.0867850222455
  0
LINE
  8
_0-0_計極細
  6
CONTINUOUS
 62
    2
 10
1328.737226277372
 20
1142.3867850222452
 11
1328.737226277372
 21
1137.0867850222455
  0
LINE
  8
_0-0_計極細
  6
CONTINUOUS
 62
    2
 10
1315.737226277372
 20
1158.9867850222442
 11
1315.737226277372
 21
1153.7867850222444
  0
LINE
  8
_0-0_計極細
  6
CONTINUOUS
 62
    2
 10
1328.737226277372
 20
1158.9867850222442
 11
1328.737226277372
 21
1153.7867850222444
  0
LINE
  8
_0-0_計極細
  6
CONTINUOUS
 62
    2
 10
1315.737226277372
 20
967.08678502224234
 11
1315.737226277372
 21
972.68678502224225
  0
LINE
  8
_0-0_計極細
  6
CONTINUOUS
 62
    2
 10
1328.737226277372
 20
967.08678502224234
 11
1328.737226277372
 21
972.68678502224225
  0
LINE
  8
_0-0_計極細
  6
CONTINUOUS
 62
    2
 10
1315.737226277372
 20
950.08678502224143
 11
1315.737226277372
 21
955.68678502224179
  0
LINE
  8
_0-0_計極細
  6
CONTINUOUS
 62
    2
 10
1328.737226277372
 20
950.08678502224143
 11
1328.737226277372
 21
955.68678502224179
  0
LINE
  8
_0-0_計極細
  6
CONTINUOUS
 62
    2
 10
1315.737226277372
 20
933.08678502224097
 11
1315.737226277372
 21
938.68678502224088
  0
LINE
  8
_0-0_計極細
  6
CONTINUOUS
 62
    2
 10
1328.737226277372
 20
933.08678502224097
 11
1328.737226277372
 21
938.68678502224088
  0
LINE
  8
_0-0_計極細
  6
CONTINUOUS
 62
    2
 10
1315.737226277372
 20
916.08678502224188
 11
1315.737226277372
 21
921.68678502224179
  0
LINE
  8
_0-0_計極細
  6
CONTINUOUS
 62
    2
 10
1328.737226277372
 20
916.08678502224188
 11
1328.737226277372
 21
921.68678502224179
  0
LINE
  8
_0-0_計極細
  6
CONTINUOUS
 62
    2
 10
1315.737226277372
 20
899.08678502224279
 11
1315.737226277372
 21
904.6867850222427
  0
LINE
  8
_0-0_計極細
  6
CONTINUOUS
 62
    2
 10
1328.737226277372
 20
899.08678502224279
 11
1328.737226277372
 21
904.6867850222427
  0
LINE
  8
_0-0_計極細
  6
CONTINUOUS
 62
    2
 10
1315.737226277372
 20
882.0867850222437
 11
1315.737226277372
 21
887.68678502224361
  0
LINE
  8
_0-0_計極細
  6
CONTINUOUS
 62
    2
 10
1328.737226277372
 20
882.0867850222437
 11
1328.737226277372
 21
887.68678502224361
  0
LINE
  8
_0-0_計極細
  6
CONTINUOUS
 62
    2
 10
1315.737226277372
 20
865.08678502224461
 11
1315.737226277372
 21
870.68678502224452
  0
LINE
  8
_0-0_計極細
  6
CONTINUOUS
 62
    2
 10
1328.737226277372
 20
865.08678502224461
 11
1328.737226277372
 21
870.68678502224452
  0
LINE
  8
_0-0_計極細
  6
CONTINUOUS
 62
    2
 10
1315.737226277372
 20
848.38678502224161
 11
1315.737226277372
 21
853.68678502224134
  0
LINE
  8
_0-0_計極細
  6
CONTINUOUS
 62
    2
 10
1328.737226277372
 20
848.38678502224161
 11
1328.737226277372
 21
853.68678502224134
  0
LINE
  8
_0-0_計極細
  6
CONTINUOUS
 62
    2
 10
1315.737226277372
 20
831.78678502224261
 11
1315.737226277372
 21
836.98678502224243
  0
LINE
  8
_0-0_計極細
  6
CONTINUOUS
 62
    2
 10
1328.737226277372
 20
831.78678502224261
 11
1328.737226277372
 21
836.98678502224243
  0
LINE
  8
_0-0_計極細
  6
CENTER1
 62
    2
 10
1322.237226277372
 20
1179.1375044467102
 11
1322.237226277372
 21
812.82896128123116
  0
LINE
  8
_0-0_計極細
  6
CONTINUOUS
 62
    2
 10
442.73722627737197
 20
989.68678502224316
 11
442.73722627737197
 21
984.08678502224325
  0
LINE
  8
_0-0_計極細
  6
CONTINUOUS
 62
    2
 10
455.73722627737197
 20
989.68678502224316
 11
455.73722627737197
 21
984.08678502224325
  0
LINE
  8
_0-0_計極細
  6
CONTINUOUS
 62
    2
 10
442.73722627737197
 20
1023.6867850222445
 11
442.73722627737197
 21
1018.0867850222446
  0
LINE
  8
_0-0_計極細
  6
CONTINUOUS
 62
    2
 10
455.73722627737197
 20
1023.6867850222445
 11
455.73722627737197
 21
1018.0867850222446
  0
LINE
  8
_0-0_計極細
  6
CONTINUOUS
 62
    2
 10
442.73722627737197
 20
1040.6867850222454
 11
442.73722627737197
 21
1035.0867850222451
  0
LINE
  8
_0-0_計極細
  6
CONTINUOUS
 62
    2
 10
455.73722627737197
 20
1040.6867850222454
 11
455.73722627737197
 21
1035.0867850222451
  0
LINE
  8
_0-0_計極細
  6
CONTINUOUS
 62
    2
 10
442.73722627737197
 20
1057.6867850222459
 11
442.73722627737197
 21
1052.086785022246
  0
LINE
  8
_0-0_計極細
  6
CONTINUOUS
 62
    2
 10
455.73722627737197
 20
1057.6867850222459
 11
455.73722627737197
 21
1052.086785022246
  0
LINE
  8
_0-0_計極細
  6
CONTINUOUS
 62
    2
 10
442.73722627737197
 20
1074.686785022245
 11
442.73722627737197
 21
1069.0867850222451
  0
LINE
  8
_0-0_計極細
  6
CONTINUOUS
 62
    2
 10
455.73722627737197
 20
1074.686785022245
 11
455.73722627737197
 21
1069.0867850222451
  0
LINE
  8
_0-0_計極細
  6
CONTINUOUS
 62
    2
 10
442.73722627737197
 20
1091.6867850222441
 11
442.73722627737197
 21
1086.0867850222442
  0
LINE
  8
_0-0_計極細
  6
CONTINUOUS
 62
    2
 10
455.73722627737197
 20
1091.6867850222441
 11
455.73722627737197
 21
1086.0867850222442
  0
LINE
  8
_0-0_計極細
  6
CONTINUOUS
 62
    2
 10
442.73722627737197
 20
1108.6867850222432
 11
442.73722627737197
 21
1103.0867850222432
  0
LINE
  8
_0-0_計極細
  6
CONTINUOUS
 62
    2
 10
455.73722627737197
 20
1108.6867850222432
 11
455.73722627737197
 21
1103.0867850222432
  0
LINE
  8
_0-0_計極細
  6
CONTINUOUS
 62
    2
 10
442.73722627737197
 20
1125.6867850222422
 11
442.73722627737197
 21
1120.0867850222423
  0
LINE
  8
_0-0_計極細
  6
CONTINUOUS
 62
    2
 10
455.73722627737197
 20
1125.6867850222422
 11
455.73722627737197
 21
1120.0867850222423
  0
LINE
  8
_0-0_計極細
  6
CONTINUOUS
 62
    2
 10
442.73722627737197
 20
1142.3867850222452
 11
442.73722627737197
 21
1137.0867850222455
  0
LINE
  8
_0-0_計極細
  6
CONTINUOUS
 62
    2
 10
455.73722627737197
 20
1142.3867850222452
 11
455.73722627737197
 21
1137.0867850222455
  0
LINE
  8
_0-0_計極細
  6
CONTINUOUS
 62
    2
 10
442.73722627737197
 20
1158.9867850222442
 11
442.73722627737197
 21
1153.7867850222444
  0
LINE
  8
_0-0_計極細
  6
CONTINUOUS
 62
    2
 10
455.73722627737197
 20
1158.9867850222442
 11
455.73722627737197
 21
1153.7867850222444
  0
LINE
  8
_0-0_計極細
  6
CONTINUOUS
 62
    2
 10
442.73722627737197
 20
967.08678502224234
 11
442.73722627737197
 21
972.68678502224225
  0
LINE
  8
_0-0_計極細
  6
CONTINUOUS
 62
    2
 10
455.73722627737197
 20
967.08678502224234
 11
455.73722627737197
 21
972.68678502224225
  0
LINE
  8
_0-0_計極細
  6
CONTINUOUS
 62
    2
 10
442.73722627737197
 20
950.08678502224143
 11
442.73722627737197
 21
955.68678502224179
  0
LINE
  8
_0-0_計極細
  6
CONTINUOUS
 62
    2
 10
455.73722627737197
 20
950.08678502224143
 11
455.73722627737197
 21
955.68678502224179
  0
LINE
  8
_0-0_計極細
  6
CONTINUOUS
 62
    2
 10
442.73722627737197
 20
933.08678502224097
 11
442.73722627737197
 21
938.68678502224088
  0
LINE
  8
_0-0_計極細
  6
CONTINUOUS
 62
    2
 10
455.73722627737197
 20
933.08678502224097
 11
455.73722627737197
 21
938.68678502224088
  0
LINE
  8
_0-0_計極細
  6
CONTINUOUS
 62
    2
 10
442.73722627737197
 20
916.08678502224188
 11
442.73722627737197
 21
921.68678502224179
  0
LINE
  8
_0-0_計極細
  6
CONTINUOUS
 62
    2
 10
455.73722627737197
 20
916.08678502224188
 11
455.73722627737197
 21
921.68678502224179
  0
LINE
  8
_0-0_計極細
  6
CONTINUOUS
 62
    2
 10
442.73722627737197
 20
899.08678502224279
 11
442.73722627737197
 21
904.6867850222427
  0
LINE
  8
_0-0_計極細
  6
CONTINUOUS
 62
    2
 10
455.73722627737197
 20
899.08678502224279
 11
455.73722627737197
 21
904.6867850222427
  0
LINE
  8
_0-0_計極細
  6
CONTINUOUS
 62
    2
 10
442.73722627737197
 20
882.0867850222437
 11
442.73722627737197
 21
887.68678502224361
  0
LINE
  8
_0-0_計極細
  6
CONTINUOUS
 62
    2
 10
455.73722627737197
 20
882.0867850222437
 11
455.73722627737197
 21
887.68678502224361
  0
LINE
  8
_0-0_計極細
  6
CONTINUOUS
 62
    2
 10
442.73722627737197
 20
865.08678502224461
 11
442.73722627737197
 21
870.68678502224452
  0
LINE
  8
_0-0_計極細
  6
CONTINUOUS
 62
    2
 10
455.73722627737197
 20
865.08678502224461
 11
455.73722627737197
 21
870.68678502224452
  0
LINE
  8
_0-0_計極細
  6
CONTINUOUS
 62
    2
 10
442.73722627737197
 20
848.38678502224161
 11
442.73722627737197
 21
853.68678502224134
  0
LINE
  8
_0-0_計極細
  6
CONTINUOUS
 62
    2
 10
455.73722627737197
 20
848.38678502224161
 11
455.73722627737197
 21
853.68678502224134
  0
LINE
  8
_0-0_計極細
  6
CONTINUOUS
 62
    2
 10
442.73722627737197
 20
831.78678502224261
 11
442.73722627737197
 21
836.98678502224243
  0
LINE
  8
_0-0_計極細
  6
CONTINUOUS
 62
    2
 10
455.73722627737197
 20
831.78678502224261
 11
455.73722627737197
 21
836.98678502224243
  0
LINE
  8
_0-0_計極細
  6
CENTER1
 62
    2
 10
449.23722627737197
 20
1179.1375044467102
 11
449.23722627737197
 21
812.82896128123116
  0
LINE
  8
_0-0_計極細
  6
CONTINUOUS
 62
    2
 10
1218.737226277372
 20
989.68678502224316
 11
1218.737226277372
 21
984.08678502224325
  0
LINE
  8
_0-0_計極細
  6
CONTINUOUS
 62
    2
 10
1231.737226277372
 20
989.68678502224316
 11
1231.737226277372
 21
984.08678502224325
  0
LINE
  8
_0-0_計極細
  6
CONTINUOUS
 62
    2
 10
1218.737226277372
 20
1006.6867850222441
 11
1218.737226277372
 21
1001.0867850222437
  0
LINE
  8
_0-0_計極細
  6
CONTINUOUS
 62
    2
 10
1231.737226277372
 20
1006.6867850222441
 11
1231.737226277372
 21
1001.0867850222437
  0
LINE
  8
_0-0_計極細
  6
CONTINUOUS
 62
    2
 10
1218.737226277372
 20
1023.6867850222445
 11
1218.737226277372
 21
1018.0867850222446
  0
LINE
  8
_0-0_計極細
  6
CONTINUOUS
 62
    2
 10
1231.737226277372
 20
1023.6867850222445
 11
1231.737226277372
 21
1018.0867850222446
  0
LINE
  8
_0-0_計極細
  6
CONTINUOUS
 62
    2
 10
1218.737226277372
 20
1040.6867850222454
 11
1218.737226277372
 21
1035.0867850222451
  0
LINE
  8
_0-0_計極細
  6
CONTINUOUS
 62
    2
 10
1231.737226277372
 20
1040.6867850222454
 11
1231.737226277372
 21
1035.0867850222451
  0
LINE
  8
_0-0_計極細
  6
CONTINUOUS
 62
    2
 10
1218.737226277372
 20
1057.6867850222459
 11
1218.737226277372
 21
1052.086785022246
  0
LINE
  8
_0-0_計極細
  6
CONTINUOUS
 62
    2
 10
1231.737226277372
 20
1057.6867850222459
 11
1231.737226277372
 21
1052.086785022246
  0
LINE
  8
_0-0_計極細
  6
CONTINUOUS
 62
    2
 10
1218.737226277372
 20
1074.686785022245
 11
1218.737226277372
 21
1069.0867850222451
  0
LINE
  8
_0-0_計極細
  6
CONTINUOUS
 62
    2
 10
1231.737226277372
 20
1074.686785022245
 11
1231.737226277372
 21
1069.0867850222451
  0
LINE
  8
_0-0_計極細
  6
CONTINUOUS
 62
    2
 10
1218.737226277372
 20
1091.6867850222441
 11
1218.737226277372
 21
1086.0867850222442
  0
LINE
  8
_0-0_計極細
  6
CONTINUOUS
 62
    2
 10
1231.737226277372
 20
1091.6867850222441
 11
1231.737226277372
 21
1086.0867850222442
  0
LINE
  8
_0-0_計極細
  6
CONTINUOUS
 62
    2
 10
1218.737226277372
 20
1108.6867850222432
 11
1218.737226277372
 21
1103.0867850222432
  0
LINE
  8
_0-0_計極細
  6
CONTINUOUS
 62
    2
 10
1231.737226277372
 20
1108.6867850222432
 11
1231.737226277372
 21
1103.0867850222432
  0
LINE
  8
_0-0_計極細
  6
CONTINUOUS
 62
    2
 10
1218.737226277372
 20
1125.6867850222422
 11
1218.737226277372
 21
1120.0867850222423
  0
LINE
  8
_0-0_計極細
  6
CONTINUOUS
 62
    2
 10
1231.737226277372
 20
1125.6867850222422
 11
1231.737226277372
 21
1120.0867850222423
  0
LINE
  8
_0-0_計極細
  6
CONTINUOUS
 62
    2
 10
1218.737226277372
 20
1142.3867850222452
 11
1218.737226277372
 21
1137.0867850222455
  0
LINE
  8
_0-0_計極細
  6
CONTINUOUS
 62
    2
 10
1231.737226277372
 20
1142.3867850222452
 11
1231.737226277372
 21
1137.0867850222455
  0
LINE
  8
_0-0_計極細
  6
CONTINUOUS
 62
    2
 10
1218.737226277372
 20
1158.9867850222442
 11
1218.737226277372
 21
1153.7867850222444
  0
LINE
  8
_0-0_計極細
  6
CONTINUOUS
 62
    2
 10
1231.737226277372
 20
1158.9867850222442
 11
1231.737226277372
 21
1153.7867850222444
  0
LINE
  8
_0-0_計極細
  6
CONTINUOUS
 62
    2
 10
1218.737226277372
 20
967.08678502224234
 11
1218.737226277372
 21
972.68678502224225
  0
LINE
  8
_0-0_計極細
  6
CONTINUOUS
 62
    2
 10
1231.737226277372
 20
967.08678502224234
 11
1231.737226277372
 21
972.68678502224225
  0
LINE
  8
_0-0_計極細
  6
CONTINUOUS
 62
    2
 10
1218.737226277372
 20
950.08678502224143
 11
1218.737226277372
 21
955.68678502224179
  0
LINE
  8
_0-0_計極細
  6
CONTINUOUS
 62
    2
 10
1231.737226277372
 20
950.08678502224143
 11
1231.737226277372
 21
955.68678502224179
  0
LINE
  8
_0-0_計極細
  6
CONTINUOUS
 62
    2
 10
1218.737226277372
 20
933.08678502224097
 11
1218.737226277372
 21
938.68678502224088
  0
LINE
  8
_0-0_計極細
  6
CONTINUOUS
 62
    2
 10
1231.737226277372
 20
933.08678502224097
 11
1231.737226277372
 21
938.68678502224088
  0
LINE
  8
_0-0_計極細
  6
CONTINUOUS
 62
    2
 10
1218.737226277372
 20
916.08678502224188
 11
1218.737226277372
 21
921.68678502224179
  0
LINE
  8
_0-0_計極細
  6
CONTINUOUS
 62
    2
 10
1231.737226277372
 20
916.08678502224188
 11
1231.737226277372
 21
921.68678502224179
  0
LINE
  8
_0-0_計極細
  6
CONTINUOUS
 62
    2
 10
1218.737226277372
 20
899.08678502224279
 11
1218.737226277372
 21
904.6867850222427
  0
LINE
  8
_0-0_計極細
  6
CONTINUOUS
 62
    2
 10
1231.737226277372
 20
899.08678502224279
 11
1231.737226277372
 21
904.6867850222427
  0
LINE
  8
_0-0_計極細
  6
CONTINUOUS
 62
    2
 10
1218.737226277372
 20
882.0867850222437
 11
1218.737226277372
 21
887.68678502224361
  0
LINE
  8
_0-0_計極細
  6
CONTINUOUS
 62
    2
 10
1231.737226277372
 20
882.0867850222437
 11
1231.737226277372
 21
887.68678502224361
  0
LINE
  8
_0-0_計極細
  6
CONTINUOUS
 62
    2
 10
1218.737226277372
 20
865.08678502224461
 11
1218.737226277372
 21
870.68678502224452
  0
LINE
  8
_0-0_計極細
  6
CONTINUOUS
 62
    2
 10
1231.737226277372
 20
865.08678502224461
 11
1231.737226277372
 21
870.68678502224452
  0
LINE
  8
_0-0_計極細
  6
CONTINUOUS
 62
    2
 10
1218.737226277372
 20
848.38678502224161
 11
1218.737226277372
 21
853.68678502224134
  0
LINE
  8
_0-0_計極細
  6
CONTINUOUS
 62
    2
 10
1231.737226277372
 20
848.38678502224161
 11
1231.737226277372
 21
853.68678502224134
  0
LINE
  8
_0-0_計極細
  6
CONTINUOUS
 62
    2
 10
1218.737226277372
 20
831.78678502224261
 11
1218.737226277372
 21
836.98678502224243
  0
LINE
  8
_0-0_計極細
  6
CONTINUOUS
 62
    2
 10
1231.737226277372
 20
831.78678502224261
 11
1231.737226277372
 21
836.98678502224243
  0
LINE
  8
_0-0_計極細
  6
CENTER1
 62
    2
 10
1225.237226277372
 20
1179.1375044467102
 11
1225.237226277372
 21
812.82896128123116
  0
LINE
  8
_0-0_計極細
  6
CONTINUOUS
 62
    2
 10
491.23722627737197
 20
989.68678502224316
 11
491.23722627737197
 21
984.08678502224325
  0
LINE
  8
_0-0_計極細
  6
CONTINUOUS
 62
    2
 10
504.23722627737197
 20
989.68678502224316
 11
504.23722627737197
 21
984.08678502224325
  0
LINE
  8
_0-0_計極細
  6
CONTINUOUS
 62
    2
 10
491.23722627737197
 20
1006.6867850222441
 11
491.23722627737197
 21
1001.0867850222437
  0
LINE
  8
_0-0_計極細
  6
CONTINUOUS
 62
    2
 10
504.23722627737197
 20
1006.6867850222441
 11
504.23722627737197
 21
1001.0867850222437
  0
LINE
  8
_0-0_計極細
  6
CONTINUOUS
 62
    2
 10
491.23722627737197
 20
1023.6867850222445
 11
491.23722627737197
 21
1018.0867850222446
  0
LINE
  8
_0-0_計極細
  6
CONTINUOUS
 62
    2
 10
504.23722627737197
 20
1023.6867850222445
 11
504.23722627737197
 21
1018.0867850222446
  0
LINE
  8
_0-0_計極細
  6
CONTINUOUS
 62
    2
 10
491.23722627737197
 20
1040.6867850222454
 11
491.23722627737197
 21
1035.0867850222451
  0
LINE
  8
_0-0_計極細
  6
CONTINUOUS
 62
    2
 10
504.23722627737197
 20
1040.6867850222454
 11
504.23722627737197
 21
1035.0867850222451
  0
LINE
  8
_0-0_計極細
  6
CONTINUOUS
 62
    2
 10
491.23722627737197
 20
1057.6867850222459
 11
491.23722627737197
 21
1052.086785022246
  0
LINE
  8
_0-0_計極細
  6
CONTINUOUS
 62
    2
 10
504.23722627737197
 20
1057.6867850222459
 11
504.23722627737197
 21
1052.086785022246
  0
LINE
  8
_0-0_計極細
  6
CONTINUOUS
 62
    2
 10
491.23722627737197
 20
1074.686785022245
 11
491.23722627737197
 21
1069.0867850222451
  0
LINE
  8
_0-0_計極細
  6
CONTINUOUS
 62
    2
 10
504.23722627737197
 20
1074.686785022245
 11
504.23722627737197
 21
1069.0867850222451
  0
LINE
  8
_0-0_計極細
  6
CONTINUOUS
 62
    2
 10
491.23722627737197
 20
1091.6867850222441
 11
491.23722627737197
 21
1086.0867850222442
  0
LINE
  8
_0-0_計極細
  6
CONTINUOUS
 62
    2
 10
504.23722627737197
 20
1091.6867850222441
 11
504.23722627737197
 21
1086.0867850222442
  0
LINE
  8
_0-0_計極細
  6
CONTINUOUS
 62
    2
 10
491.23722627737197
 20
1108.6867850222432
 11
491.23722627737197
 21
1103.0867850222432
  0
LINE
  8
_0-0_計極細
  6
CONTINUOUS
 62
    2
 10
504.23722627737197
 20
1108.6867850222432
 11
504.23722627737197
 21
1103.0867850222432
  0
LINE
  8
_0-0_計極細
  6
CONTINUOUS
 62
    2
 10
491.23722627737197
 20
1125.6867850222422
 11
491.23722627737197
 21
1120.0867850222423
  0
LINE
  8
_0-0_計極細
  6
CONTINUOUS
 62
    2
 10
504.23722627737197
 20
1125.6867850222422
 11
504.23722627737197
 21
1120.0867850222423
  0
LINE
  8
_0-0_計極細
  6
CONTINUOUS
 62
    2
 10
491.23722627737197
 20
1142.3867850222452
 11
491.23722627737197
 21
1137.0867850222455
  0
LINE
  8
_0-0_計極細
  6
CONTINUOUS
 62
    2
 10
504.23722627737197
 20
1142.3867850222452
 11
504.23722627737197
 21
1137.0867850222455
  0
LINE
  8
_0-0_計極細
  6
CONTINUOUS
 62
    2
 10
491.23722627737197
 20
1158.9867850222442
 11
491.23722627737197
 21
1153.7867850222444
  0
LINE
  8
_0-0_計極細
  6
CONTINUOUS
 62
    2
 10
504.23722627737197
 20
1158.9867850222442
 11
504.23722627737197
 21
1153.7867850222444
  0
LINE
  8
_0-0_計極細
  6
CONTINUOUS
 62
    2
 10
491.23722627737197
 20
967.08678502224234
 11
491.23722627737197
 21
972.68678502224225
  0
LINE
  8
_0-0_計極細
  6
CONTINUOUS
 62
    2
 10
504.23722627737197
 20
967.08678502224234
 11
504.23722627737197
 21
972.68678502224225
  0
LINE
  8
_0-0_計極細
  6
CONTINUOUS
 62
    2
 10
491.23722627737197
 20
950.08678502224143
 11
491.23722627737197
 21
955.68678502224179
  0
LINE
  8
_0-0_計極細
  6
CONTINUOUS
 62
    2
 10
504.23722627737197
 20
950.08678502224143
 11
504.23722627737197
 21
955.68678502224179
  0
LINE
  8
_0-0_計極細
  6
CONTINUOUS
 62
    2
 10
491.23722627737197
 20
933.08678502224097
 11
491.23722627737197
 21
938.68678502224088
  0
LINE
  8
_0-0_計極細
  6
CONTINUOUS
 62
    2
 10
504.23722627737197
 20
933.08678502224097
 11
504.23722627737197
 21
938.68678502224088
  0
LINE
  8
_0-0_計極細
  6
CONTINUOUS
 62
    2
 10
491.23722627737197
 20
916.08678502224188
 11
491.23722627737197
 21
921.68678502224179
  0
LINE
  8
_0-0_計極細
  6
CONTINUOUS
 62
    2
 10
504.23722627737197
 20
916.08678502224188
 11
504.23722627737197
 21
921.68678502224179
  0
LINE
  8
_0-0_計極細
  6
CONTINUOUS
 62
    2
 10
491.23722627737197
 20
899.08678502224279
 11
491.23722627737197
 21
904.6867850222427
  0
LINE
  8
_0-0_計極細
  6
CONTINUOUS
 62
    2
 10
504.23722627737197
 20
899.08678502224279
 11
504.23722627737197
 21
904.6867850222427
  0
LINE
  8
_0-0_計極細
  6
CONTINUOUS
 62
    2
 10
491.23722627737197
 20
882.0867850222437
 11
491.23722627737197
 21
887.68678502224361
  0
LINE
  8
_0-0_計極細
  6
CONTINUOUS
 62
    2
 10
504.23722627737197
 20
882.0867850222437
 11
504.23722627737197
 21
887.68678502224361
  0
LINE
  8
_0-0_計極細
  6
CONTINUOUS
 62
    2
 10
491.23722627737197
 20
865.08678502224461
 11
491.23722627737197
 21
870.68678502224452
  0
LINE
  8
_0-0_計極細
  6
CONTINUOUS
 62
    2
 10
504.23722627737197
 20
865.08678502224461
 11
504.23722627737197
 21
870.68678502224452
  0
LINE
  8
_0-0_計極細
  6
CONTINUOUS
 62
    2
 10
491.23722627737197
 20
848.38678502224161
 11
491.23722627737197
 21
853.68678502224134
  0
LINE
  8
_0-0_計極細
  6
CONTINUOUS
 62
    2
 10
504.23722627737197
 20
848.38678502224161
 11
504.23722627737197
 21
853.68678502224134
  0
LINE
  8
_0-0_計極細
  6
CONTINUOUS
 62
    2
 10
491.23722627737197
 20
831.78678502224261
 11
491.23722627737197
 21
836.98678502224243
  0
LINE
  8
_0-0_計極細
  6
CONTINUOUS
 62
    2
 10
504.23722627737197
 20
831.78678502224261
 11
504.23722627737197
 21
836.98678502224243
  0
LINE
  8
_0-0_計極細
  6
CENTER1
 62
    2
 10
497.73722627737197
 20
1179.1375044467102
 11
497.73722627737197
 21
812.82896128123116
  0
LINE
  8
_0-0_計極細
  6
CONTINUOUS
 62
    2
 10
539.73722627737197
 20
989.68678502224316
 11
539.73722627737197
 21
984.08678502224325
  0
LINE
  8
_0-0_計極細
  6
CONTINUOUS
 62
    2
 10
552.73722627737197
 20
989.68678502224316
 11
552.73722627737197
 21
984.08678502224325
  0
LINE
  8
_0-0_計極細
  6
CONTINUOUS
 62
    2
 10
539.73722627737197
 20
1006.6867850222441
 11
539.73722627737197
 21
1001.0867850222437
  0
LINE
  8
_0-0_計極細
  6
CONTINUOUS
 62
    2
 10
552.73722627737197
 20
1006.6867850222441
 11
552.73722627737197
 21
1001.0867850222437
  0
LINE
  8
_0-0_計極細
  6
CONTINUOUS
 62
    2
 10
539.73722627737197
 20
1023.6867850222445
 11
539.73722627737197
 21
1018.0867850222446
  0
LINE
  8
_0-0_計極細
  6
CONTINUOUS
 62
    2
 10
552.73722627737197
 20
1023.6867850222445
 11
552.73722627737197
 21
1018.0867850222446
  0
LINE
  8
_0-0_計極細
  6
CONTINUOUS
 62
    2
 10
539.73722627737197
 20
1040.6867850222454
 11
539.73722627737197
 21
1035.0867850222451
  0
LINE
  8
_0-0_計極細
  6
CONTINUOUS
 62
    2
 10
552.73722627737197
 20
1040.6867850222454
 11
552.73722627737197
 21
1035.0867850222451
  0
LINE
  8
_0-0_計極細
  6
CONTINUOUS
 62
    2
 10
539.73722627737197
 20
1057.6867850222459
 11
539.73722627737197
 21
1052.086785022246
  0
LINE
  8
_0-0_計極細
  6
CONTINUOUS
 62
    2
 10
552.73722627737197
 20
1057.6867850222459
 11
552.73722627737197
 21
1052.086785022246
  0
LINE
  8
_0-0_計極細
  6
CONTINUOUS
 62
    2
 10
539.73722627737197
 20
1074.686785022245
 11
539.73722627737197
 21
1069.0867850222451
  0
LINE
  8
_0-0_計極細
  6
CONTINUOUS
 62
    2
 10
552.73722627737197
 20
1074.686785022245
 11
552.73722627737197
 21
1069.0867850222451
  0
LINE
  8
_0-0_計極細
  6
CONTINUOUS
 62
    2
 10
539.73722627737197
 20
1091.6867850222441
 11
539.73722627737197
 21
1086.0867850222442
  0
LINE
  8
_0-0_計極細
  6
CONTINUOUS
 62
    2
 10
552.73722627737197
 20
1091.6867850222441
 11
552.73722627737197
 21
1086.0867850222442
  0
LINE
  8
_0-0_計極細
  6
CONTINUOUS
 62
    2
 10
539.73722627737197
 20
1108.6867850222432
 11
539.73722627737197
 21
1103.0867850222432
  0
LINE
  8
_0-0_計極細
  6
CONTINUOUS
 62
    2
 10
552.73722627737197
 20
1108.6867850222432
 11
552.73722627737197
 21
1103.0867850222432
  0
LINE
  8
_0-0_計極細
  6
CONTINUOUS
 62
    2
 10
539.73722627737197
 20
1125.6867850222422
 11
539.73722627737197
 21
1120.0867850222423
  0
LINE
  8
_0-0_計極細
  6
CONTINUOUS
 62
    2
 10
552.73722627737197
 20
1125.6867850222422
 11
552.73722627737197
 21
1120.0867850222423
  0
LINE
  8
_0-0_計極細
  6
CONTINUOUS
 62
    2
 10
539.73722627737197
 20
1142.3867850222452
 11
539.73722627737197
 21
1137.0867850222455
  0
LINE
  8
_0-0_計極細
  6
CONTINUOUS
 62
    2
 10
552.73722627737197
 20
1142.3867850222452
 11
552.73722627737197
 21
1137.0867850222455
  0
LINE
  8
_0-0_計極細
  6
CONTINUOUS
 62
    2
 10
539.73722627737197
 20
1158.9867850222442
 11
539.73722627737197
 21
1153.7867850222444
  0
LINE
  8
_0-0_計極細
  6
CONTINUOUS
 62
    2
 10
552.73722627737197
 20
1158.9867850222442
 11
552.73722627737197
 21
1153.7867850222444
  0
LINE
  8
_0-0_計極細
  6
CONTINUOUS
 62
    2
 10
539.73722627737197
 20
967.08678502224234
 11
539.73722627737197
 21
972.68678502224225
  0
LINE
  8
_0-0_計極細
  6
CONTINUOUS
 62
    2
 10
552.73722627737197
 20
967.08678502224234
 11
552.73722627737197
 21
972.68678502224225
  0
LINE
  8
_0-0_計極細
  6
CONTINUOUS
 62
    2
 10
539.73722627737197
 20
950.08678502224143
 11
539.73722627737197
 21
955.68678502224179
  0
LINE
  8
_0-0_計極細
  6
CONTINUOUS
 62
    2
 10
552.73722627737197
 20
950.08678502224143
 11
552.73722627737197
 21
955.68678502224179
  0
LINE
  8
_0-0_計極細
  6
CONTINUOUS
 62
    2
 10
539.73722627737197
 20
933.08678502224097
 11
539.73722627737197
 21
938.68678502224088
  0
LINE
  8
_0-0_計極細
  6
CONTINUOUS
 62
    2
 10
552.73722627737197
 20
933.08678502224097
 11
552.73722627737197
 21
938.68678502224088
  0
LINE
  8
_0-0_計極細
  6
CONTINUOUS
 62
    2
 10
539.73722627737197
 20
916.08678502224188
 11
539.73722627737197
 21
921.68678502224179
  0
LINE
  8
_0-0_計極細
  6
CONTINUOUS
 62
    2
 10
552.73722627737197
 20
916.08678502224188
 11
552.73722627737197
 21
921.68678502224179
  0
LINE
  8
_0-0_計極細
  6
CONTINUOUS
 62
    2
 10
539.73722627737197
 20
899.08678502224279
 11
539.73722627737197
 21
904.6867850222427
  0
LINE
  8
_0-0_計極細
  6
CONTINUOUS
 62
    2
 10
552.73722627737197
 20
899.08678502224279
 11
552.73722627737197
 21
904.6867850222427
  0
LINE
  8
_0-0_計極細
  6
CONTINUOUS
 62
    2
 10
539.73722627737197
 20
882.0867850222437
 11
539.73722627737197
 21
887.68678502224361
  0
LINE
  8
_0-0_計極細
  6
CONTINUOUS
 62
    2
 10
552.73722627737197
 20
882.0867850222437
 11
552.73722627737197
 21
887.68678502224361
  0
LINE
  8
_0-0_計極細
  6
CONTINUOUS
 62
    2
 10
539.73722627737197
 20
865.08678502224461
 11
539.73722627737197
 21
870.68678502224452
  0
LINE
  8
_0-0_計極細
  6
CONTINUOUS
 62
    2
 10
552.73722627737197
 20
865.08678502224461
 11
552.73722627737197
 21
870.68678502224452
  0
LINE
  8
_0-0_計極細
  6
CONTINUOUS
 62
    2
 10
539.73722627737197
 20
848.38678502224161
 11
539.73722627737197
 21
853.68678502224134
  0
LINE
  8
_0-0_計極細
  6
CONTINUOUS
 62
    2
 10
552.73722627737197
 20
848.38678502224161
 11
552.73722627737197
 21
853.68678502224134
  0
LINE
  8
_0-0_計極細
  6
CONTINUOUS
 62
    2
 10
539.73722627737197
 20
831.78678502224261
 11
539.73722627737197
 21
836.98678502224243
  0
LINE
  8
_0-0_計極細
  6
CONTINUOUS
 62
    2
 10
552.73722627737197
 20
831.78678502224261
 11
552.73722627737197
 21
836.98678502224243
  0
LINE
  8
_0-0_計極細
  6
CENTER1
 62
    2
 10
546.23722627737197
 20
1179.1375044467102
 11
546.23722627737197
 21
812.82896128123116
  0
LINE
  8
_0-0_計極細
  6
CONTINUOUS
 62
    2
 10
588.23722627737197
 20
989.68678502224316
 11
588.23722627737197
 21
984.08678502224325
  0
LINE
  8
_0-0_計極細
  6
CONTINUOUS
 62
    2
 10
601.23722627737197
 20
989.68678502224316
 11
601.23722627737197
 21
984.08678502224325
  0
LINE
  8
_0-0_計極細
  6
CONTINUOUS
 62
    2
 10
588.23722627737197
 20
1006.6867850222441
 11
588.23722627737197
 21
1001.0867850222437
  0
LINE
  8
_0-0_計極細
  6
CONTINUOUS
 62
    2
 10
601.23722627737197
 20
1006.6867850222441
 11
601.23722627737197
 21
1001.0867850222437
  0
LINE
  8
_0-0_計極細
  6
CONTINUOUS
 62
    2
 10
588.23722627737197
 20
1023.6867850222445
 11
588.23722627737197
 21
1018.0867850222446
  0
LINE
  8
_0-0_計極細
  6
CONTINUOUS
 62
    2
 10
601.23722627737197
 20
1023.6867850222445
 11
601.23722627737197
 21
1018.0867850222446
  0
LINE
  8
_0-0_計極細
  6
CONTINUOUS
 62
    2
 10
588.23722627737197
 20
1040.6867850222454
 11
588.23722627737197
 21
1035.0867850222451
  0
LINE
  8
_0-0_計極細
  6
CONTINUOUS
 62
    2
 10
601.23722627737197
 20
1040.6867850222454
 11
601.23722627737197
 21
1035.0867850222451
  0
LINE
  8
_0-0_計極細
  6
CONTINUOUS
 62
    2
 10
588.23722627737197
 20
1057.6867850222459
 11
588.23722627737197
 21
1052.086785022246
  0
LINE
  8
_0-0_計極細
  6
CONTINUOUS
 62
    2
 10
601.23722627737197
 20
1057.6867850222459
 11
601.23722627737197
 21
1052.086785022246
  0
LINE
  8
_0-0_計極細
  6
CONTINUOUS
 62
    2
 10
588.23722627737197
 20
1074.686785022245
 11
588.23722627737197
 21
1069.0867850222451
  0
LINE
  8
_0-0_計極細
  6
CONTINUOUS
 62
    2
 10
601.23722627737197
 20
1074.686785022245
 11
601.23722627737197
 21
1069.0867850222451
  0
LINE
  8
_0-0_計極細
  6
CONTINUOUS
 62
    2
 10
588.23722627737197
 20
1091.6867850222441
 11
588.23722627737197
 21
1086.0867850222442
  0
LINE
  8
_0-0_計極細
  6
CONTINUOUS
 62
    2
 10
601.23722627737197
 20
1091.6867850222441
 11
601.23722627737197
 21
1086.0867850222442
  0
LINE
  8
_0-0_計極細
  6
CONTINUOUS
 62
    2
 10
588.23722627737197
 20
1108.6867850222432
 11
588.23722627737197
 21
1103.0867850222432
  0
LINE
  8
_0-0_計極細
  6
CONTINUOUS
 62
    2
 10
601.23722627737197
 20
1108.6867850222432
 11
601.23722627737197
 21
1103.0867850222432
  0
LINE
  8
_0-0_計極細
  6
CONTINUOUS
 62
    2
 10
588.23722627737197
 20
1125.6867850222422
 11
588.23722627737197
 21
1120.0867850222423
  0
LINE
  8
_0-0_計極細
  6
CONTINUOUS
 62
    2
 10
601.23722627737197
 20
1125.6867850222422
 11
601.23722627737197
 21
1120.0867850222423
  0
LINE
  8
_0-0_計極細
  6
CONTINUOUS
 62
    2
 10
588.23722627737197
 20
1142.3867850222452
 11
588.23722627737197
 21
1137.0867850222455
  0
LINE
  8
_0-0_計極細
  6
CONTINUOUS
 62
    2
 10
601.23722627737197
 20
1142.3867850222452
 11
601.23722627737197
 21
1137.0867850222455
  0
LINE
  8
_0-0_計極細
  6
CONTINUOUS
 62
    2
 10
588.23722627737197
 20
1158.9867850222442
 11
588.23722627737197
 21
1153.7867850222444
  0
LINE
  8
_0-0_計極細
  6
CONTINUOUS
 62
    2
 10
601.23722627737197
 20
1158.9867850222442
 11
601.23722627737197
 21
1153.7867850222444
  0
LINE
  8
_0-0_計極細
  6
CONTINUOUS
 62
    2
 10
588.23722627737197
 20
967.08678502224234
 11
588.23722627737197
 21
972.68678502224225
  0
LINE
  8
_0-0_計極細
  6
CONTINUOUS
 62
    2
 10
601.23722627737197
 20
967.08678502224234
 11
601.23722627737197
 21
972.68678502224225
  0
LINE
  8
_0-0_計極細
  6
CONTINUOUS
 62
    2
 10
588.23722627737197
 20
950.08678502224143
 11
588.23722627737197
 21
955.68678502224179
  0
LINE
  8
_0-0_計極細
  6
CONTINUOUS
 62
    2
 10
601.23722627737197
 20
950.08678502224143
 11
601.23722627737197
 21
955.68678502224179
  0
LINE
  8
_0-0_計極細
  6
CONTINUOUS
 62
    2
 10
588.23722627737197
 20
933.08678502224097
 11
588.23722627737197
 21
938.68678502224088
  0
LINE
  8
_0-0_計極細
  6
CONTINUOUS
 62
    2
 10
601.23722627737197
 20
933.08678502224097
 11
601.23722627737197
 21
938.68678502224088
  0
LINE
  8
_0-0_計極細
  6
CONTINUOUS
 62
    2
 10
588.23722627737197
 20
916.08678502224188
 11
588.23722627737197
 21
921.68678502224179
  0
LINE
  8
_0-0_計極細
  6
CONTINUOUS
 62
    2
 10
601.23722627737197
 20
916.08678502224188
 11
601.23722627737197
 21
921.68678502224179
  0
LINE
  8
_0-0_計極細
  6
CONTINUOUS
 62
    2
 10
588.23722627737197
 20
899.08678502224279
 11
588.23722627737197
 21
904.6867850222427
  0
LINE
  8
_0-0_計極細
  6
CONTINUOUS
 62
    2
 10
601.23722627737197
 20
899.08678502224279
 11
601.23722627737197
 21
904.6867850222427
  0
LINE
  8
_0-0_計極細
  6
CONTINUOUS
 62
    2
 10
588.23722627737197
 20
882.0867850222437
 11
588.23722627737197
 21
887.68678502224361
  0
LINE
  8
_0-0_計極細
  6
CONTINUOUS
 62
    2
 10
601.23722627737197
 20
882.0867850222437
 11
601.23722627737197
 21
887.68678502224361
  0
LINE
  8
_0-0_計極細
  6
CONTINUOUS
 62
    2
 10
588.23722627737197
 20
865.08678502224461
 11
588.23722627737197
 21
870.68678502224452
  0
LINE
  8
_0-0_計極細
  6
CONTINUOUS
 62
    2
 10
601.23722627737197
 20
865.08678502224461
 11
601.23722627737197
 21
870.68678502224452
  0
LINE
  8
_0-0_計極細
  6
CONTINUOUS
 62
    2
 10
588.23722627737197
 20
848.38678502224161
 11
588.23722627737197
 21
853.68678502224134
  0
LINE
  8
_0-0_計極細
  6
CONTINUOUS
 62
    2
 10
601.23722627737197
 20
848.38678502224161
 11
601.23722627737197
 21
853.68678502224134
  0
LINE
  8
_0-0_計極細
  6
CONTINUOUS
 62
    2
 10
588.23722627737197
 20
831.78678502224261
 11
588.23722627737197
 21
836.98678502224243
  0
LINE
  8
_0-0_計極細
  6
CONTINUOUS
 62
    2
 10
601.23722627737197
 20
831.78678502224261
 11
601.23722627737197
 21
836.98678502224243
  0
LINE
  8
_0-0_計極細
  6
CENTER1
 62
    2
 10
594.73722627737197
 20
1179.1375044467102
 11
594.73722627737197
 21
812.82896128123116
  0
LINE
  8
_0-0_計極細
  6
CONTINUOUS
 62
    2
 10
636.73722627737197
 20
989.68678502224316
 11
636.73722627737197
 21
984.08678502224325
  0
LINE
  8
_0-0_計極細
  6
CONTINUOUS
 62
    2
 10
649.73722627737197
 20
989.68678502224316
 11
649.73722627737197
 21
984.08678502224325
  0
LINE
  8
_0-0_計極細
  6
CONTINUOUS
 62
    2
 10
636.73722627737197
 20
1006.6867850222441
 11
636.73722627737197
 21
1001.0867850222437
  0
LINE
  8
_0-0_計極細
  6
CONTINUOUS
 62
    2
 10
649.73722627737197
 20
1006.6867850222441
 11
649.73722627737197
 21
1001.0867850222437
  0
LINE
  8
_0-0_計極細
  6
CONTINUOUS
 62
    2
 10
636.73722627737197
 20
1023.6867850222445
 11
636.73722627737197
 21
1018.0867850222446
  0
LINE
  8
_0-0_計極細
  6
CONTINUOUS
 62
    2
 10
649.73722627737197
 20
1023.6867850222445
 11
649.73722627737197
 21
1018.0867850222446
  0
LINE
  8
_0-0_計極細
  6
CONTINUOUS
 62
    2
 10
636.73722627737197
 20
1040.6867850222454
 11
636.73722627737197
 21
1035.0867850222451
  0
LINE
  8
_0-0_計極細
  6
CONTINUOUS
 62
    2
 10
649.73722627737197
 20
1040.6867850222454
 11
649.73722627737197
 21
1035.0867850222451
  0
LINE
  8
_0-0_計極細
  6
CONTINUOUS
 62
    2
 10
636.73722627737197
 20
1057.6867850222459
 11
636.73722627737197
 21
1052.086785022246
  0
LINE
  8
_0-0_計極細
  6
CONTINUOUS
 62
    2
 10
649.73722627737197
 20
1057.6867850222459
 11
649.73722627737197
 21
1052.086785022246
  0
LINE
  8
_0-0_計極細
  6
CONTINUOUS
 62
    2
 10
636.73722627737197
 20
1074.686785022245
 11
636.73722627737197
 21
1069.0867850222451
  0
LINE
  8
_0-0_計極細
  6
CONTINUOUS
 62
    2
 10
649.73722627737197
 20
1074.686785022245
 11
649.73722627737197
 21
1069.0867850222451
  0
LINE
  8
_0-0_計極細
  6
CONTINUOUS
 62
    2
 10
636.73722627737197
 20
1091.6867850222441
 11
636.73722627737197
 21
1086.0867850222442
  0
LINE
  8
_0-0_計極細
  6
CONTINUOUS
 62
    2
 10
649.73722627737197
 20
1091.6867850222441
 11
649.73722627737197
 21
1086.0867850222442
  0
LINE
  8
_0-0_計極細
  6
CONTINUOUS
 62
    2
 10
636.73722627737197
 20
1108.6867850222432
 11
636.73722627737197
 21
1103.0867850222432
  0
LINE
  8
_0-0_計極細
  6
CONTINUOUS
 62
    2
 10
649.73722627737197
 20
1108.6867850222432
 11
649.73722627737197
 21
1103.0867850222432
  0
LINE
  8
_0-0_計極細
  6
CONTINUOUS
 62
    2
 10
636.73722627737197
 20
1125.6867850222422
 11
636.73722627737197
 21
1120.0867850222423
  0
LINE
  8
_0-0_計極細
  6
CONTINUOUS
 62
    2
 10
649.73722627737197
 20
1125.6867850222422
 11
649.73722627737197
 21
1120.0867850222423
  0
LINE
  8
_0-0_計極細
  6
CONTINUOUS
 62
    2
 10
636.73722627737197
 20
1142.3867850222452
 11
636.73722627737197
 21
1137.0867850222455
  0
LINE
  8
_0-0_計極細
  6
CONTINUOUS
 62
    2
 10
649.73722627737197
 20
1142.3867850222452
 11
649.73722627737197
 21
1137.0867850222455
  0
LINE
  8
_0-0_計極細
  6
CONTINUOUS
 62
    2
 10
636.73722627737197
 20
1158.9867850222442
 11
636.73722627737197
 21
1153.7867850222444
  0
LINE
  8
_0-0_計極細
  6
CONTINUOUS
 62
    2
 10
649.73722627737197
 20
1158.9867850222442
 11
649.73722627737197
 21
1153.7867850222444
  0
LINE
  8
_0-0_計極細
  6
CONTINUOUS
 62
    2
 10
636.73722627737197
 20
967.08678502224234
 11
636.73722627737197
 21
972.68678502224225
  0
LINE
  8
_0-0_計極細
  6
CONTINUOUS
 62
    2
 10
649.73722627737197
 20
967.08678502224234
 11
649.73722627737197
 21
972.68678502224225
  0
LINE
  8
_0-0_計極細
  6
CONTINUOUS
 62
    2
 10
636.73722627737197
 20
950.08678502224143
 11
636.73722627737197
 21
955.68678502224179
  0
LINE
  8
_0-0_計極細
  6
CONTINUOUS
 62
    2
 10
649.73722627737197
 20
950.08678502224143
 11
649.73722627737197
 21
955.68678502224179
  0
LINE
  8
_0-0_計極細
  6
CONTINUOUS
 62
    2
 10
636.73722627737197
 20
933.08678502224097
 11
636.73722627737197
 21
938.68678502224088
  0
LINE
  8
_0-0_計極細
  6
CONTINUOUS
 62
    2
 10
649.73722627737197
 20
933.08678502224097
 11
649.73722627737197
 21
938.68678502224088
  0
LINE
  8
_0-0_計極細
  6
CONTINUOUS
 62
    2
 10
636.73722627737197
 20
916.08678502224188
 11
636.73722627737197
 21
921.68678502224179
  0
LINE
  8
_0-0_計極細
  6
CONTINUOUS
 62
    2
 10
649.73722627737197
 20
916.08678502224188
 11
649.73722627737197
 21
921.68678502224179
  0
LINE
  8
_0-0_計極細
  6
CONTINUOUS
 62
    2
 10
636.73722627737197
 20
899.08678502224279
 11
636.73722627737197
 21
904.6867850222427
  0
LINE
  8
_0-0_計極細
  6
CONTINUOUS
 62
    2
 10
649.73722627737197
 20
899.08678502224279
 11
649.73722627737197
 21
904.6867850222427
  0
LINE
  8
_0-0_計極細
  6
CONTINUOUS
 62
    2
 10
636.73722627737197
 20
882.0867850222437
 11
636.73722627737197
 21
887.68678502224361
  0
LINE
  8
_0-0_計極細
  6
CONTINUOUS
 62
    2
 10
649.73722627737197
 20
882.0867850222437
 11
649.73722627737197
 21
887.68678502224361
  0
LINE
  8
_0-0_計極細
  6
CONTINUOUS
 62
    2
 10
636.73722627737197
 20
865.08678502224461
 11
636.73722627737197
 21
870.68678502224452
  0
LINE
  8
_0-0_計極細
  6
CONTINUOUS
 62
    2
 10
649.73722627737197
 20
865.08678502224461
 11
649.73722627737197
 21
870.68678502224452
  0
LINE
  8
_0-0_計極細
  6
CONTINUOUS
 62
    2
 10
636.73722627737197
 20
848.38678502224161
 11
636.73722627737197
 21
853.68678502224134
  0
LINE
  8
_0-0_計極細
  6
CONTINUOUS
 62
    2
 10
649.73722627737197
 20
848.38678502224161
 11
649.73722627737197
 21
853.68678502224134
  0
LINE
  8
_0-0_計極細
  6
CONTINUOUS
 62
    2
 10
636.73722627737197
 20
831.78678502224261
 11
636.73722627737197
 21
836.98678502224243
  0
LINE
  8
_0-0_計極細
  6
CONTINUOUS
 62
    2
 10
649.73722627737197
 20
831.78678502224261
 11
649.73722627737197
 21
836.98678502224243
  0
LINE
  8
_0-0_計極細
  6
CENTER1
 62
    2
 10
643.23722627737197
 20
1179.1375044467102
 11
643.23722627737197
 21
812.82896128123116
  0
LINE
  8
_0-0_計極細
  6
CONTINUOUS
 62
    2
 10
685.23722627737197
 20
989.68678502224316
 11
685.23722627737197
 21
984.08678502224325
  0
LINE
  8
_0-0_計極細
  6
CONTINUOUS
 62
    2
 10
698.23722627737197
 20
989.68678502224316
 11
698.23722627737197
 21
984.08678502224325
  0
LINE
  8
_0-0_計極細
  6
CONTINUOUS
 62
    2
 10
685.23722627737197
 20
1006.6867850222441
 11
685.23722627737197
 21
1001.0867850222437
  0
LINE
  8
_0-0_計極細
  6
CONTINUOUS
 62
    2
 10
698.23722627737197
 20
1006.6867850222441
 11
698.23722627737197
 21
1001.0867850222437
  0
LINE
  8
_0-0_計極細
  6
CONTINUOUS
 62
    2
 10
685.23722627737197
 20
1023.6867850222445
 11
685.23722627737197
 21
1018.0867850222446
  0
LINE
  8
_0-0_計極細
  6
CONTINUOUS
 62
    2
 10
698.23722627737197
 20
1023.6867850222445
 11
698.23722627737197
 21
1018.0867850222446
  0
LINE
  8
_0-0_計極細
  6
CONTINUOUS
 62
    2
 10
685.23722627737197
 20
1040.6867850222454
 11
685.23722627737197
 21
1035.0867850222451
  0
LINE
  8
_0-0_計極細
  6
CONTINUOUS
 62
    2
 10
698.23722627737197
 20
1040.6867850222454
 11
698.23722627737197
 21
1035.0867850222451
  0
LINE
  8
_0-0_計極細
  6
CONTINUOUS
 62
    2
 10
685.23722627737197
 20
1057.6867850222459
 11
685.23722627737197
 21
1052.086785022246
  0
LINE
  8
_0-0_計極細
  6
CONTINUOUS
 62
    2
 10
698.23722627737197
 20
1057.6867850222459
 11
698.23722627737197
 21
1052.086785022246
  0
LINE
  8
_0-0_計極細
  6
CONTINUOUS
 62
    2
 10
685.23722627737197
 20
1074.686785022245
 11
685.23722627737197
 21
1069.0867850222451
  0
LINE
  8
_0-0_計極細
  6
CONTINUOUS
 62
    2
 10
698.23722627737197
 20
1074.686785022245
 11
698.23722627737197
 21
1069.0867850222451
  0
LINE
  8
_0-0_計極細
  6
CONTINUOUS
 62
    2
 10
685.23722627737197
 20
1091.6867850222441
 11
685.23722627737197
 21
1086.0867850222442
  0
LINE
  8
_0-0_計極細
  6
CONTINUOUS
 62
    2
 10
698.23722627737197
 20
1091.6867850222441
 11
698.23722627737197
 21
1086.0867850222442
  0
LINE
  8
_0-0_計極細
  6
CONTINUOUS
 62
    2
 10
685.23722627737197
 20
1108.6867850222432
 11
685.23722627737197
 21
1103.0867850222432
  0
LINE
  8
_0-0_計極細
  6
CONTINUOUS
 62
    2
 10
698.23722627737197
 20
1108.6867850222432
 11
698.23722627737197
 21
1103.0867850222432
  0
LINE
  8
_0-0_計極細
  6
CONTINUOUS
 62
    2
 10
685.23722627737197
 20
1125.6867850222422
 11
685.23722627737197
 21
1120.0867850222423
  0
LINE
  8
_0-0_計極細
  6
CONTINUOUS
 62
    2
 10
698.23722627737197
 20
1125.6867850222422
 11
698.23722627737197
 21
1120.0867850222423
  0
LINE
  8
_0-0_計極細
  6
CONTINUOUS
 62
    2
 10
685.23722627737197
 20
1142.3867850222452
 11
685.23722627737197
 21
1137.0867850222455
  0
LINE
  8
_0-0_計極細
  6
CONTINUOUS
 62
    2
 10
698.23722627737197
 20
1142.3867850222452
 11
698.23722627737197
 21
1137.0867850222455
  0
LINE
  8
_0-0_計極細
  6
CONTINUOUS
 62
    2
 10
685.23722627737197
 20
1158.9867850222442
 11
685.23722627737197
 21
1153.7867850222444
  0
LINE
  8
_0-0_計極細
  6
CONTINUOUS
 62
    2
 10
698.23722627737197
 20
1158.9867850222442
 11
698.23722627737197
 21
1153.7867850222444
  0
LINE
  8
_0-0_計極細
  6
CONTINUOUS
 62
    2
 10
685.23722627737197
 20
967.08678502224234
 11
685.23722627737197
 21
972.68678502224225
  0
LINE
  8
_0-0_計極細
  6
CONTINUOUS
 62
    2
 10
698.23722627737197
 20
967.08678502224234
 11
698.23722627737197
 21
972.68678502224225
  0
LINE
  8
_0-0_計極細
  6
CONTINUOUS
 62
    2
 10
685.23722627737197
 20
950.08678502224143
 11
685.23722627737197
 21
955.68678502224179
  0
LINE
  8
_0-0_計極細
  6
CONTINUOUS
 62
    2
 10
698.23722627737197
 20
950.08678502224143
 11
698.23722627737197
 21
955.68678502224179
  0
LINE
  8
_0-0_計極細
  6
CONTINUOUS
 62
    2
 10
685.23722627737197
 20
933.08678502224097
 11
685.23722627737197
 21
938.68678502224088
  0
LINE
  8
_0-0_計極細
  6
CONTINUOUS
 62
    2
 10
698.23722627737197
 20
933.08678502224097
 11
698.23722627737197
 21
938.68678502224088
  0
LINE
  8
_0-0_計極細
  6
CONTINUOUS
 62
    2
 10
685.23722627737197
 20
916.08678502224188
 11
685.23722627737197
 21
921.68678502224179
  0
LINE
  8
_0-0_計極細
  6
CONTINUOUS
 62
    2
 10
698.23722627737197
 20
916.08678502224188
 11
698.23722627737197
 21
921.68678502224179
  0
LINE
  8
_0-0_計極細
  6
CONTINUOUS
 62
    2
 10
685.23722627737197
 20
899.08678502224279
 11
685.23722627737197
 21
904.6867850222427
  0
LINE
  8
_0-0_計極細
  6
CONTINUOUS
 62
    2
 10
698.23722627737197
 20
899.08678502224279
 11
698.23722627737197
 21
904.6867850222427
  0
LINE
  8
_0-0_計極細
  6
CONTINUOUS
 62
    2
 10
685.23722627737197
 20
882.0867850222437
 11
685.23722627737197
 21
887.68678502224361
  0
LINE
  8
_0-0_計極細
  6
CONTINUOUS
 62
    2
 10
698.23722627737197
 20
882.0867850222437
 11
698.23722627737197
 21
887.68678502224361
  0
LINE
  8
_0-0_計極細
  6
CONTINUOUS
 62
    2
 10
685.23722627737197
 20
865.08678502224461
 11
685.23722627737197
 21
870.68678502224452
  0
LINE
  8
_0-0_計極細
  6
CONTINUOUS
 62
    2
 10
698.23722627737197
 20
865.08678502224461
 11
698.23722627737197
 21
870.68678502224452
  0
LINE
  8
_0-0_計極細
  6
CONTINUOUS
 62
    2
 10
685.23722627737197
 20
848.38678502224161
 11
685.23722627737197
 21
853.68678502224134
  0
LINE
  8
_0-0_計極細
  6
CONTINUOUS
 62
    2
 10
698.23722627737197
 20
848.38678502224161
 11
698.23722627737197
 21
853.68678502224134
  0
LINE
  8
_0-0_計極細
  6
CONTINUOUS
 62
    2
 10
685.23722627737197
 20
831.78678502224261
 11
685.23722627737197
 21
836.98678502224243
  0
LINE
  8
_0-0_計極細
  6
CONTINUOUS
 62
    2
 10
698.23722627737197
 20
831.78678502224261
 11
698.23722627737197
 21
836.98678502224243
  0
LINE
  8
_0-0_計極細
  6
CENTER1
 62
    2
 10
691.73722627737197
 20
1179.1375044467102
 11
691.73722627737197
 21
812.82896128123116
  0
LINE
  8
_0-0_計極細
  6
CONTINUOUS
 62
    2
 10
733.73722627737197
 20
989.68678502224316
 11
733.73722627737197
 21
984.08678502224325
  0
LINE
  8
_0-0_計極細
  6
CONTINUOUS
 62
    2
 10
746.73722627737197
 20
989.68678502224316
 11
746.73722627737197
 21
984.08678502224325
  0
LINE
  8
_0-0_計極細
  6
CONTINUOUS
 62
    2
 10
733.73722627737197
 20
1006.6867850222441
 11
733.73722627737197
 21
1001.0867850222437
  0
LINE
  8
_0-0_計極細
  6
CONTINUOUS
 62
    2
 10
746.73722627737197
 20
1006.6867850222441
 11
746.73722627737197
 21
1001.0867850222437
  0
LINE
  8
_0-0_計極細
  6
CONTINUOUS
 62
    2
 10
733.73722627737197
 20
1023.6867850222445
 11
733.73722627737197
 21
1018.0867850222446
  0
LINE
  8
_0-0_計極細
  6
CONTINUOUS
 62
    2
 10
746.73722627737197
 20
1023.6867850222445
 11
746.73722627737197
 21
1018.0867850222446
  0
LINE
  8
_0-0_計極細
  6
CONTINUOUS
 62
    2
 10
733.73722627737197
 20
1040.6867850222454
 11
733.73722627737197
 21
1035.0867850222451
  0
LINE
  8
_0-0_計極細
  6
CONTINUOUS
 62
    2
 10
746.73722627737197
 20
1040.6867850222454
 11
746.73722627737197
 21
1035.0867850222451
  0
LINE
  8
_0-0_計極細
  6
CONTINUOUS
 62
    2
 10
733.73722627737197
 20
1057.6867850222459
 11
733.73722627737197
 21
1052.086785022246
  0
LINE
  8
_0-0_計極細
  6
CONTINUOUS
 62
    2
 10
746.73722627737197
 20
1057.6867850222459
 11
746.73722627737197
 21
1052.086785022246
  0
LINE
  8
_0-0_計極細
  6
CONTINUOUS
 62
    2
 10
733.73722627737197
 20
1074.686785022245
 11
733.73722627737197
 21
1069.0867850222451
  0
LINE
  8
_0-0_計極細
  6
CONTINUOUS
 62
    2
 10
746.73722627737197
 20
1074.686785022245
 11
746.73722627737197
 21
1069.0867850222451
  0
LINE
  8
_0-0_計極細
  6
CONTINUOUS
 62
    2
 10
733.73722627737197
 20
1091.6867850222441
 11
733.73722627737197
 21
1086.0867850222442
  0
LINE
  8
_0-0_計極細
  6
CONTINUOUS
 62
    2
 10
746.73722627737197
 20
1091.6867850222441
 11
746.73722627737197
 21
1086.0867850222442
  0
LINE
  8
_0-0_計極細
  6
CONTINUOUS
 62
    2
 10
733.73722627737197
 20
1108.6867850222432
 11
733.73722627737197
 21
1103.0867850222432
  0
LINE
  8
_0-0_計極細
  6
CONTINUOUS
 62
    2
 10
746.73722627737197
 20
1108.6867850222432
 11
746.73722627737197
 21
1103.0867850222432
  0
LINE
  8
_0-0_計極細
  6
CONTINUOUS
 62
    2
 10
733.73722627737197
 20
1125.6867850222422
 11
733.73722627737197
 21
1120.0867850222423
  0
LINE
  8
_0-0_計極細
  6
CONTINUOUS
 62
    2
 10
746.73722627737197
 20
1125.6867850222422
 11
746.73722627737197
 21
1120.0867850222423
  0
LINE
  8
_0-0_計極細
  6
CONTINUOUS
 62
    2
 10
733.73722627737197
 20
1142.3867850222452
 11
733.73722627737197
 21
1137.0867850222455
  0
LINE
  8
_0-0_計極細
  6
CONTINUOUS
 62
    2
 10
746.73722627737197
 20
1142.3867850222452
 11
746.73722627737197
 21
1137.0867850222455
  0
LINE
  8
_0-0_計極細
  6
CONTINUOUS
 62
    2
 10
733.73722627737197
 20
1158.9867850222442
 11
733.73722627737197
 21
1153.7867850222444
  0
LINE
  8
_0-0_計極細
  6
CONTINUOUS
 62
    2
 10
746.73722627737197
 20
1158.9867850222442
 11
746.73722627737197
 21
1153.7867850222444
  0
LINE
  8
_0-0_計極細
  6
CONTINUOUS
 62
    2
 10
733.73722627737197
 20
967.08678502224234
 11
733.73722627737197
 21
972.68678502224225
  0
LINE
  8
_0-0_計極細
  6
CONTINUOUS
 62
    2
 10
746.73722627737197
 20
967.08678502224234
 11
746.73722627737197
 21
972.68678502224225
  0
LINE
  8
_0-0_計極細
  6
CONTINUOUS
 62
    2
 10
733.73722627737197
 20
950.08678502224143
 11
733.73722627737197
 21
955.68678502224179
  0
LINE
  8
_0-0_計極細
  6
CONTINUOUS
 62
    2
 10
746.73722627737197
 20
950.08678502224143
 11
746.73722627737197
 21
955.68678502224179
  0
LINE
  8
_0-0_計極細
  6
CONTINUOUS
 62
    2
 10
733.73722627737197
 20
933.08678502224097
 11
733.73722627737197
 21
938.68678502224088
  0
LINE
  8
_0-0_計極細
  6
CONTINUOUS
 62
    2
 10
746.73722627737197
 20
933.08678502224097
 11
746.73722627737197
 21
938.68678502224088
  0
LINE
  8
_0-0_計極細
  6
CONTINUOUS
 62
    2
 10
733.73722627737197
 20
916.08678502224188
 11
733.73722627737197
 21
921.68678502224179
  0
LINE
  8
_0-0_計極細
  6
CONTINUOUS
 62
    2
 10
746.73722627737197
 20
916.08678502224188
 11
746.73722627737197
 21
921.68678502224179
  0
LINE
  8
_0-0_計極細
  6
CONTINUOUS
 62
    2
 10
733.73722627737197
 20
899.08678502224279
 11
733.73722627737197
 21
904.6867850222427
  0
LINE
  8
_0-0_計極細
  6
CONTINUOUS
 62
    2
 10
746.73722627737197
 20
899.08678502224279
 11
746.73722627737197
 21
904.6867850222427
  0
LINE
  8
_0-0_計極細
  6
CONTINUOUS
 62
    2
 10
733.73722627737197
 20
882.0867850222437
 11
733.73722627737197
 21
887.68678502224361
  0
LINE
  8
_0-0_計極細
  6
CONTINUOUS
 62
    2
 10
746.73722627737197
 20
882.0867850222437
 11
746.73722627737197
 21
887.68678502224361
  0
LINE
  8
_0-0_計極細
  6
CONTINUOUS
 62
    2
 10
733.73722627737197
 20
865.08678502224461
 11
733.73722627737197
 21
870.68678502224452
  0
LINE
  8
_0-0_計極細
  6
CONTINUOUS
 62
    2
 10
746.73722627737197
 20
865.08678502224461
 11
746.73722627737197
 21
870.68678502224452
  0
LINE
  8
_0-0_計極細
  6
CONTINUOUS
 62
    2
 10
733.73722627737197
 20
848.38678502224161
 11
733.73722627737197
 21
853.68678502224134
  0
LINE
  8
_0-0_計極細
  6
CONTINUOUS
 62
    2
 10
746.73722627737197
 20
848.38678502224161
 11
746.73722627737197
 21
853.68678502224134
  0
LINE
  8
_0-0_計極細
  6
CONTINUOUS
 62
    2
 10
733.73722627737197
 20
831.78678502224261
 11
733.73722627737197
 21
836.98678502224243
  0
LINE
  8
_0-0_計極細
  6
CONTINUOUS
 62
    2
 10
746.73722627737197
 20
831.78678502224261
 11
746.73722627737197
 21
836.98678502224243
  0
LINE
  8
_0-0_計極細
  6
CENTER1
 62
    2
 10
740.23722627737197
 20
1179.1375044467102
 11
740.23722627737197
 21
812.82896128123116
  0
LINE
  8
_0-0_計極細
  6
CONTINUOUS
 62
    2
 10
782.23722627737197
 20
989.68678502224316
 11
782.23722627737197
 21
984.08678502224325
  0
LINE
  8
_0-0_計極細
  6
CONTINUOUS
 62
    2
 10
795.23722627737197
 20
989.68678502224316
 11
795.23722627737197
 21
984.08678502224325
  0
LINE
  8
_0-0_計極細
  6
CONTINUOUS
 62
    2
 10
782.23722627737197
 20
1006.6867850222441
 11
782.23722627737197
 21
1001.0867850222437
  0
LINE
  8
_0-0_計極細
  6
CONTINUOUS
 62
    2
 10
795.23722627737197
 20
1006.6867850222441
 11
795.23722627737197
 21
1001.0867850222437
  0
LINE
  8
_0-0_計極細
  6
CONTINUOUS
 62
    2
 10
782.23722627737197
 20
1023.6867850222445
 11
782.23722627737197
 21
1018.0867850222446
  0
LINE
  8
_0-0_計極細
  6
CONTINUOUS
 62
    2
 10
795.23722627737197
 20
1023.6867850222445
 11
795.23722627737197
 21
1018.0867850222446
  0
LINE
  8
_0-0_計極細
  6
CONTINUOUS
 62
    2
 10
782.23722627737197
 20
1040.6867850222454
 11
782.23722627737197
 21
1035.0867850222451
  0
LINE
  8
_0-0_計極細
  6
CONTINUOUS
 62
    2
 10
795.23722627737197
 20
1040.6867850222454
 11
795.23722627737197
 21
1035.0867850222451
  0
LINE
  8
_0-0_計極細
  6
CONTINUOUS
 62
    2
 10
782.23722627737197
 20
1057.6867850222459
 11
782.23722627737197
 21
1052.086785022246
  0
LINE
  8
_0-0_計極細
  6
CONTINUOUS
 62
    2
 10
795.23722627737197
 20
1057.6867850222459
 11
795.23722627737197
 21
1052.086785022246
  0
LINE
  8
_0-0_計極細
  6
CONTINUOUS
 62
    2
 10
782.23722627737197
 20
1074.686785022245
 11
782.23722627737197
 21
1069.0867850222451
  0
LINE
  8
_0-0_計極細
  6
CONTINUOUS
 62
    2
 10
795.23722627737197
 20
1074.686785022245
 11
795.23722627737197
 21
1069.0867850222451
  0
LINE
  8
_0-0_計極細
  6
CONTINUOUS
 62
    2
 10
782.23722627737197
 20
1091.6867850222441
 11
782.23722627737197
 21
1086.0867850222442
  0
LINE
  8
_0-0_計極細
  6
CONTINUOUS
 62
    2
 10
795.23722627737197
 20
1091.6867850222441
 11
795.23722627737197
 21
1086.0867850222442
  0
LINE
  8
_0-0_計極細
  6
CONTINUOUS
 62
    2
 10
782.23722627737197
 20
1108.6867850222432
 11
782.23722627737197
 21
1103.0867850222432
  0
LINE
  8
_0-0_計極細
  6
CONTINUOUS
 62
    2
 10
795.23722627737197
 20
1108.6867850222432
 11
795.23722627737197
 21
1103.0867850222432
  0
LINE
  8
_0-0_計極細
  6
CONTINUOUS
 62
    2
 10
782.23722627737197
 20
1125.6867850222422
 11
782.23722627737197
 21
1120.0867850222423
  0
LINE
  8
_0-0_計極細
  6
CONTINUOUS
 62
    2
 10
795.23722627737197
 20
1125.6867850222422
 11
795.23722627737197
 21
1120.0867850222423
  0
LINE
  8
_0-0_計極細
  6
CONTINUOUS
 62
    2
 10
782.23722627737197
 20
1142.3867850222452
 11
782.23722627737197
 21
1137.0867850222455
  0
LINE
  8
_0-0_計極細
  6
CONTINUOUS
 62
    2
 10
795.23722627737197
 20
1142.3867850222452
 11
795.23722627737197
 21
1137.0867850222455
  0
LINE
  8
_0-0_計極細
  6
CONTINUOUS
 62
    2
 10
782.23722627737197
 20
1158.9867850222442
 11
782.23722627737197
 21
1153.7867850222444
  0
LINE
  8
_0-0_計極細
  6
CONTINUOUS
 62
    2
 10
795.23722627737197
 20
1158.9867850222442
 11
795.23722627737197
 21
1153.7867850222444
  0
LINE
  8
_0-0_計極細
  6
CONTINUOUS
 62
    2
 10
782.23722627737197
 20
967.08678502224234
 11
782.23722627737197
 21
972.68678502224225
  0
LINE
  8
_0-0_計極細
  6
CONTINUOUS
 62
    2
 10
795.23722627737197
 20
967.08678502224234
 11
795.23722627737197
 21
972.68678502224225
  0
LINE
  8
_0-0_計極細
  6
CONTINUOUS
 62
    2
 10
782.23722627737197
 20
950.08678502224143
 11
782.23722627737197
 21
955.68678502224179
  0
LINE
  8
_0-0_計極細
  6
CONTINUOUS
 62
    2
 10
795.23722627737197
 20
950.08678502224143
 11
795.23722627737197
 21
955.68678502224179
  0
LINE
  8
_0-0_計極細
  6
CONTINUOUS
 62
    2
 10
782.23722627737197
 20
933.08678502224097
 11
782.23722627737197
 21
938.68678502224088
  0
LINE
  8
_0-0_計極細
  6
CONTINUOUS
 62
    2
 10
795.23722627737197
 20
933.08678502224097
 11
795.23722627737197
 21
938.68678502224088
  0
LINE
  8
_0-0_計極細
  6
CONTINUOUS
 62
    2
 10
782.23722627737197
 20
916.08678502224188
 11
782.23722627737197
 21
921.68678502224179
  0
LINE
  8
_0-0_計極細
  6
CONTINUOUS
 62
    2
 10
795.23722627737197
 20
916.08678502224188
 11
795.23722627737197
 21
921.68678502224179
  0
LINE
  8
_0-0_計極細
  6
CONTINUOUS
 62
    2
 10
782.23722627737197
 20
899.08678502224279
 11
782.23722627737197
 21
904.6867850222427
  0
LINE
  8
_0-0_計極細
  6
CONTINUOUS
 62
    2
 10
795.23722627737197
 20
899.08678502224279
 11
795.23722627737197
 21
904.6867850222427
  0
LINE
  8
_0-0_計極細
  6
CONTINUOUS
 62
    2
 10
782.23722627737197
 20
882.0867850222437
 11
782.23722627737197
 21
887.68678502224361
  0
LINE
  8
_0-0_計極細
  6
CONTINUOUS
 62
    2
 10
795.23722627737197
 20
882.0867850222437
 11
795.23722627737197
 21
887.68678502224361
  0
LINE
  8
_0-0_計極細
  6
CONTINUOUS
 62
    2
 10
782.23722627737197
 20
865.08678502224461
 11
782.23722627737197
 21
870.68678502224452
  0
LINE
  8
_0-0_計極細
  6
CONTINUOUS
 62
    2
 10
795.23722627737197
 20
865.08678502224461
 11
795.23722627737197
 21
870.68678502224452
  0
LINE
  8
_0-0_計極細
  6
CONTINUOUS
 62
    2
 10
782.23722627737197
 20
848.38678502224161
 11
782.23722627737197
 21
853.68678502224134
  0
LINE
  8
_0-0_計極細
  6
CONTINUOUS
 62
    2
 10
795.23722627737197
 20
848.38678502224161
 11
795.23722627737197
 21
853.68678502224134
  0
LINE
  8
_0-0_計極細
  6
CONTINUOUS
 62
    2
 10
782.23722627737197
 20
831.78678502224261
 11
782.23722627737197
 21
836.98678502224243
  0
LINE
  8
_0-0_計極細
  6
CONTINUOUS
 62
    2
 10
795.23722627737197
 20
831.78678502224261
 11
795.23722627737197
 21
836.98678502224243
  0
LINE
  8
_0-0_計極細
  6
CENTER1
 62
    2
 10
788.73722627737197
 20
1179.1375044467102
 11
788.73722627737197
 21
812.82896128123116
  0
LINE
  8
_0-0_計極細
  6
CONTINUOUS
 62
    2
 10
830.73722627737197
 20
989.68678502224316
 11
830.73722627737197
 21
984.08678502224325
  0
LINE
  8
_0-0_計極細
  6
CONTINUOUS
 62
    2
 10
843.73722627737197
 20
989.68678502224316
 11
843.73722627737197
 21
984.08678502224325
  0
LINE
  8
_0-0_計極細
  6
CONTINUOUS
 62
    2
 10
830.73722627737197
 20
1006.6867850222441
 11
830.73722627737197
 21
1001.0867850222437
  0
LINE
  8
_0-0_計極細
  6
CONTINUOUS
 62
    2
 10
843.73722627737197
 20
1006.6867850222441
 11
843.73722627737197
 21
1001.0867850222437
  0
LINE
  8
_0-0_計極細
  6
CONTINUOUS
 62
    2
 10
830.73722627737197
 20
1023.6867850222445
 11
830.73722627737197
 21
1018.0867850222446
  0
LINE
  8
_0-0_計極細
  6
CONTINUOUS
 62
    2
 10
843.73722627737197
 20
1023.6867850222445
 11
843.73722627737197
 21
1018.0867850222446
  0
LINE
  8
_0-0_計極細
  6
CONTINUOUS
 62
    2
 10
830.73722627737197
 20
1040.6867850222454
 11
830.73722627737197
 21
1035.0867850222451
  0
LINE
  8
_0-0_計極細
  6
CONTINUOUS
 62
    2
 10
843.73722627737197
 20
1040.6867850222454
 11
843.73722627737197
 21
1035.0867850222451
  0
LINE
  8
_0-0_計極細
  6
CONTINUOUS
 62
    2
 10
830.73722627737197
 20
1057.6867850222459
 11
830.73722627737197
 21
1052.086785022246
  0
LINE
  8
_0-0_計極細
  6
CONTINUOUS
 62
    2
 10
843.73722627737197
 20
1057.6867850222459
 11
843.73722627737197
 21
1052.086785022246
  0
LINE
  8
_0-0_計極細
  6
CONTINUOUS
 62
    2
 10
830.73722627737197
 20
1074.686785022245
 11
830.73722627737197
 21
1069.0867850222451
  0
LINE
  8
_0-0_計極細
  6
CONTINUOUS
 62
    2
 10
843.73722627737197
 20
1074.686785022245
 11
843.73722627737197
 21
1069.0867850222451
  0
LINE
  8
_0-0_計極細
  6
CONTINUOUS
 62
    2
 10
830.73722627737197
 20
1091.6867850222441
 11
830.73722627737197
 21
1086.0867850222442
  0
LINE
  8
_0-0_計極細
  6
CONTINUOUS
 62
    2
 10
843.73722627737197
 20
1091.6867850222441
 11
843.73722627737197
 21
1086.0867850222442
  0
LINE
  8
_0-0_計極細
  6
CONTINUOUS
 62
    2
 10
830.73722627737197
 20
1108.6867850222432
 11
830.73722627737197
 21
1103.0867850222432
  0
LINE
  8
_0-0_計極細
  6
CONTINUOUS
 62
    2
 10
843.73722627737197
 20
1108.6867850222432
 11
843.73722627737197
 21
1103.0867850222432
  0
LINE
  8
_0-0_計極細
  6
CONTINUOUS
 62
    2
 10
830.73722627737197
 20
1125.6867850222422
 11
830.73722627737197
 21
1120.0867850222423
  0
LINE
  8
_0-0_計極細
  6
CONTINUOUS
 62
    2
 10
843.73722627737197
 20
1125.6867850222422
 11
843.73722627737197
 21
1120.0867850222423
  0
LINE
  8
_0-0_計極細
  6
CONTINUOUS
 62
    2
 10
830.73722627737197
 20
1142.3867850222452
 11
830.73722627737197
 21
1137.0867850222455
  0
LINE
  8
_0-0_計極細
  6
CONTINUOUS
 62
    2
 10
843.73722627737197
 20
1142.3867850222452
 11
843.73722627737197
 21
1137.0867850222455
  0
LINE
  8
_0-0_計極細
  6
CONTINUOUS
 62
    2
 10
830.73722627737197
 20
1158.9867850222442
 11
830.73722627737197
 21
1153.7867850222444
  0
LINE
  8
_0-0_計極細
  6
CONTINUOUS
 62
    2
 10
843.73722627737197
 20
1158.9867850222442
 11
843.73722627737197
 21
1153.7867850222444
  0
LINE
  8
_0-0_計極細
  6
CONTINUOUS
 62
    2
 10
830.73722627737197
 20
967.08678502224234
 11
830.73722627737197
 21
972.68678502224225
  0
LINE
  8
_0-0_計極細
  6
CONTINUOUS
 62
    2
 10
843.73722627737197
 20
967.08678502224234
 11
843.73722627737197
 21
972.68678502224225
  0
LINE
  8
_0-0_計極細
  6
CONTINUOUS
 62
    2
 10
830.73722627737197
 20
950.08678502224143
 11
830.73722627737197
 21
955.68678502224179
  0
LINE
  8
_0-0_計極細
  6
CONTINUOUS
 62
    2
 10
843.73722627737197
 20
950.08678502224143
 11
843.73722627737197
 21
955.68678502224179
  0
LINE
  8
_0-0_計極細
  6
CONTINUOUS
 62
    2
 10
830.73722627737197
 20
933.08678502224097
 11
830.73722627737197
 21
938.68678502224088
  0
LINE
  8
_0-0_計極細
  6
CONTINUOUS
 62
    2
 10
843.73722627737197
 20
933.08678502224097
 11
843.73722627737197
 21
938.68678502224088
  0
LINE
  8
_0-0_計極細
  6
CONTINUOUS
 62
    2
 10
830.73722627737197
 20
916.08678502224188
 11
830.73722627737197
 21
921.68678502224179
  0
LINE
  8
_0-0_計極細
  6
CONTINUOUS
 62
    2
 10
843.73722627737197
 20
916.08678502224188
 11
843.73722627737197
 21
921.68678502224179
  0
LINE
  8
_0-0_計極細
  6
CONTINUOUS
 62
    2
 10
830.73722627737197
 20
899.08678502224279
 11
830.73722627737197
 21
904.6867850222427
  0
LINE
  8
_0-0_計極細
  6
CONTINUOUS
 62
    2
 10
843.73722627737197
 20
899.08678502224279
 11
843.73722627737197
 21
904.6867850222427
  0
LINE
  8
_0-0_計極細
  6
CONTINUOUS
 62
    2
 10
830.73722627737197
 20
882.0867850222437
 11
830.73722627737197
 21
887.68678502224361
  0
LINE
  8
_0-0_計極細
  6
CONTINUOUS
 62
    2
 10
843.73722627737197
 20
882.0867850222437
 11
843.73722627737197
 21
887.68678502224361
  0
LINE
  8
_0-0_計極細
  6
CONTINUOUS
 62
    2
 10
830.73722627737197
 20
865.08678502224461
 11
830.73722627737197
 21
870.68678502224452
  0
LINE
  8
_0-0_計極細
  6
CONTINUOUS
 62
    2
 10
843.73722627737197
 20
865.08678502224461
 11
843.73722627737197
 21
870.68678502224452
  0
LINE
  8
_0-0_計極細
  6
CONTINUOUS
 62
    2
 10
830.73722627737197
 20
848.38678502224161
 11
830.73722627737197
 21
853.68678502224134
  0
LINE
  8
_0-0_計極細
  6
CONTINUOUS
 62
    2
 10
843.73722627737197
 20
848.38678502224161
 11
843.73722627737197
 21
853.68678502224134
  0
LINE
  8
_0-0_計極細
  6
CONTINUOUS
 62
    2
 10
830.73722627737197
 20
831.78678502224261
 11
830.73722627737197
 21
836.98678502224243
  0
LINE
  8
_0-0_計極細
  6
CONTINUOUS
 62
    2
 10
843.73722627737197
 20
831.78678502224261
 11
843.73722627737197
 21
836.98678502224243
  0
LINE
  8
_0-0_計極細
  6
CENTER1
 62
    2
 10
837.23722627737197
 20
1179.1375044467102
 11
837.23722627737197
 21
812.82896128123116
  0
LINE
  8
_0-0_計極細
  6
CONTINUOUS
 62
    2
 10
879.23722627737209
 20
989.68678502224316
 11
879.23722627737209
 21
984.08678502224325
  0
LINE
  8
_0-0_計極細
  6
CONTINUOUS
 62
    2
 10
892.23722627737209
 20
989.68678502224316
 11
892.23722627737209
 21
984.08678502224325
  0
LINE
  8
_0-0_計極細
  6
CONTINUOUS
 62
    2
 10
879.23722627737209
 20
1006.6867850222441
 11
879.23722627737209
 21
1001.0867850222437
  0
LINE
  8
_0-0_計極細
  6
CONTINUOUS
 62
    2
 10
892.23722627737209
 20
1006.6867850222441
 11
892.23722627737209
 21
1001.0867850222437
  0
LINE
  8
_0-0_計極細
  6
CONTINUOUS
 62
    2
 10
879.23722627737209
 20
1023.6867850222445
 11
879.23722627737209
 21
1018.0867850222446
  0
LINE
  8
_0-0_計極細
  6
CONTINUOUS
 62
    2
 10
892.23722627737209
 20
1023.6867850222445
 11
892.23722627737209
 21
1018.0867850222446
  0
LINE
  8
_0-0_計極細
  6
CONTINUOUS
 62
    2
 10
879.23722627737209
 20
1040.6867850222454
 11
879.23722627737209
 21
1035.0867850222451
  0
LINE
  8
_0-0_計極細
  6
CONTINUOUS
 62
    2
 10
892.23722627737209
 20
1040.6867850222454
 11
892.23722627737209
 21
1035.0867850222451
  0
LINE
  8
_0-0_計極細
  6
CONTINUOUS
 62
    2
 10
879.23722627737209
 20
1057.6867850222459
 11
879.23722627737209
 21
1052.086785022246
  0
LINE
  8
_0-0_計極細
  6
CONTINUOUS
 62
    2
 10
892.23722627737209
 20
1057.6867850222459
 11
892.23722627737209
 21
1052.086785022246
  0
LINE
  8
_0-0_計極細
  6
CONTINUOUS
 62
    2
 10
879.23722627737209
 20
1074.686785022245
 11
879.23722627737209
 21
1069.0867850222451
  0
LINE
  8
_0-0_計極細
  6
CONTINUOUS
 62
    2
 10
892.23722627737209
 20
1074.686785022245
 11
892.23722627737209
 21
1069.0867850222451
  0
LINE
  8
_0-0_計極細
  6
CONTINUOUS
 62
    2
 10
879.23722627737209
 20
1091.6867850222441
 11
879.23722627737209
 21
1086.0867850222442
  0
LINE
  8
_0-0_計極細
  6
CONTINUOUS
 62
    2
 10
892.23722627737209
 20
1091.6867850222441
 11
892.23722627737209
 21
1086.0867850222442
  0
LINE
  8
_0-0_計極細
  6
CONTINUOUS
 62
    2
 10
879.23722627737209
 20
1108.6867850222432
 11
879.23722627737209
 21
1103.0867850222432
  0
LINE
  8
_0-0_計極細
  6
CONTINUOUS
 62
    2
 10
892.23722627737209
 20
1108.6867850222432
 11
892.23722627737209
 21
1103.0867850222432
  0
LINE
  8
_0-0_計極細
  6
CONTINUOUS
 62
    2
 10
879.23722627737209
 20
1125.6867850222422
 11
879.23722627737209
 21
1120.0867850222423
  0
LINE
  8
_0-0_計極細
  6
CONTINUOUS
 62
    2
 10
892.23722627737209
 20
1125.6867850222422
 11
892.23722627737209
 21
1120.0867850222423
  0
LINE
  8
_0-0_計極細
  6
CONTINUOUS
 62
    2
 10
879.23722627737209
 20
1142.3867850222452
 11
879.23722627737209
 21
1137.0867850222455
  0
LINE
  8
_0-0_計極細
  6
CONTINUOUS
 62
    2
 10
892.23722627737209
 20
1142.3867850222452
 11
892.23722627737209
 21
1137.0867850222455
  0
LINE
  8
_0-0_計極細
  6
CONTINUOUS
 62
    2
 10
879.23722627737209
 20
1158.9867850222442
 11
879.23722627737209
 21
1153.7867850222444
  0
LINE
  8
_0-0_計極細
  6
CONTINUOUS
 62
    2
 10
892.23722627737209
 20
1158.9867850222442
 11
892.23722627737209
 21
1153.7867850222444
  0
LINE
  8
_0-0_計極細
  6
CONTINUOUS
 62
    2
 10
879.23722627737209
 20
967.08678502224234
 11
879.23722627737209
 21
972.68678502224225
  0
LINE
  8
_0-0_計極細
  6
CONTINUOUS
 62
    2
 10
892.23722627737209
 20
967.08678502224234
 11
892.23722627737209
 21
972.68678502224225
  0
LINE
  8
_0-0_計極細
  6
CONTINUOUS
 62
    2
 10
879.23722627737209
 20
950.08678502224143
 11
879.23722627737209
 21
955.68678502224179
  0
LINE
  8
_0-0_計極細
  6
CONTINUOUS
 62
    2
 10
892.23722627737209
 20
950.08678502224143
 11
892.23722627737209
 21
955.68678502224179
  0
LINE
  8
_0-0_計極細
  6
CONTINUOUS
 62
    2
 10
879.23722627737209
 20
933.08678502224097
 11
879.23722627737209
 21
938.68678502224088
  0
LINE
  8
_0-0_計極細
  6
CONTINUOUS
 62
    2
 10
892.23722627737209
 20
933.08678502224097
 11
892.23722627737209
 21
938.68678502224088
  0
LINE
  8
_0-0_計極細
  6
CONTINUOUS
 62
    2
 10
879.23722627737209
 20
916.08678502224188
 11
879.23722627737209
 21
921.68678502224179
  0
LINE
  8
_0-0_計極細
  6
CONTINUOUS
 62
    2
 10
892.23722627737209
 20
916.08678502224188
 11
892.23722627737209
 21
921.68678502224179
  0
LINE
  8
_0-0_計極細
  6
CONTINUOUS
 62
    2
 10
879.23722627737209
 20
899.08678502224279
 11
879.23722627737209
 21
904.6867850222427
  0
LINE
  8
_0-0_計極細
  6
CONTINUOUS
 62
    2
 10
892.23722627737209
 20
899.08678502224279
 11
892.23722627737209
 21
904.6867850222427
  0
LINE
  8
_0-0_計極細
  6
CONTINUOUS
 62
    2
 10
879.23722627737209
 20
882.0867850222437
 11
879.23722627737209
 21
887.68678502224361
  0
LINE
  8
_0-0_計極細
  6
CONTINUOUS
 62
    2
 10
892.23722627737209
 20
882.0867850222437
 11
892.23722627737209
 21
887.68678502224361
  0
LINE
  8
_0-0_計極細
  6
CONTINUOUS
 62
    2
 10
879.23722627737209
 20
865.08678502224461
 11
879.23722627737209
 21
870.68678502224452
  0
LINE
  8
_0-0_計極細
  6
CONTINUOUS
 62
    2
 10
892.23722627737209
 20
865.08678502224461
 11
892.23722627737209
 21
870.68678502224452
  0
LINE
  8
_0-0_計極細
  6
CONTINUOUS
 62
    2
 10
879.23722627737209
 20
848.38678502224161
 11
879.23722627737209
 21
853.68678502224134
  0
LINE
  8
_0-0_計極細
  6
CONTINUOUS
 62
    2
 10
892.23722627737209
 20
848.38678502224161
 11
892.23722627737209
 21
853.68678502224134
  0
LINE
  8
_0-0_計極細
  6
CONTINUOUS
 62
    2
 10
879.23722627737209
 20
831.78678502224261
 11
879.23722627737209
 21
836.98678502224243
  0
LINE
  8
_0-0_計極細
  6
CONTINUOUS
 62
    2
 10
892.23722627737209
 20
831.78678502224261
 11
892.23722627737209
 21
836.98678502224243
  0
LINE
  8
_0-0_計極細
  6
CENTER1
 62
    2
 10
885.73722627737209
 20
1179.1375044467102
 11
885.73722627737209
 21
812.82896128123116
  0
LINE
  8
_0-0_計極細
  6
CONTINUOUS
 62
    2
 10
927.73722627737209
 20
989.68678502224316
 11
927.73722627737209
 21
984.08678502224325
  0
LINE
  8
_0-0_計極細
  6
CONTINUOUS
 62
    2
 10
940.73722627737209
 20
989.68678502224316
 11
940.73722627737209
 21
984.08678502224325
  0
LINE
  8
_0-0_計極細
  6
CONTINUOUS
 62
    2
 10
927.73722627737209
 20
1006.6867850222441
 11
927.73722627737209
 21
1001.0867850222437
  0
LINE
  8
_0-0_計極細
  6
CONTINUOUS
 62
    2
 10
940.73722627737209
 20
1006.6867850222441
 11
940.73722627737209
 21
1001.0867850222437
  0
LINE
  8
_0-0_計極細
  6
CONTINUOUS
 62
    2
 10
927.73722627737209
 20
1023.6867850222445
 11
927.73722627737209
 21
1018.0867850222446
  0
LINE
  8
_0-0_計極細
  6
CONTINUOUS
 62
    2
 10
940.73722627737209
 20
1023.6867850222445
 11
940.73722627737209
 21
1018.0867850222446
  0
LINE
  8
_0-0_計極細
  6
CONTINUOUS
 62
    2
 10
927.73722627737209
 20
1040.6867850222454
 11
927.73722627737209
 21
1035.0867850222451
  0
LINE
  8
_0-0_計極細
  6
CONTINUOUS
 62
    2
 10
940.73722627737209
 20
1040.6867850222454
 11
940.73722627737209
 21
1035.0867850222451
  0
LINE
  8
_0-0_計極細
  6
CONTINUOUS
 62
    2
 10
927.73722627737209
 20
1057.6867850222459
 11
927.73722627737209
 21
1052.086785022246
  0
LINE
  8
_0-0_計極細
  6
CONTINUOUS
 62
    2
 10
940.73722627737209
 20
1057.6867850222459
 11
940.73722627737209
 21
1052.086785022246
  0
LINE
  8
_0-0_計極細
  6
CONTINUOUS
 62
    2
 10
927.73722627737209
 20
1074.686785022245
 11
927.73722627737209
 21
1069.0867850222451
  0
LINE
  8
_0-0_計極細
  6
CONTINUOUS
 62
    2
 10
940.73722627737209
 20
1074.686785022245
 11
940.73722627737209
 21
1069.0867850222451
  0
LINE
  8
_0-0_計極細
  6
CONTINUOUS
 62
    2
 10
927.73722627737209
 20
1091.6867850222441
 11
927.73722627737209
 21
1086.0867850222442
  0
LINE
  8
_0-0_計極細
  6
CONTINUOUS
 62
    2
 10
940.73722627737209
 20
1091.6867850222441
 11
940.73722627737209
 21
1086.0867850222442
  0
LINE
  8
_0-0_計極細
  6
CONTINUOUS
 62
    2
 10
927.73722627737209
 20
1108.6867850222432
 11
927.73722627737209
 21
1103.0867850222432
  0
LINE
  8
_0-0_計極細
  6
CONTINUOUS
 62
    2
 10
940.73722627737209
 20
1108.6867850222432
 11
940.73722627737209
 21
1103.0867850222432
  0
LINE
  8
_0-0_計極細
  6
CONTINUOUS
 62
    2
 10
927.73722627737209
 20
1125.6867850222422
 11
927.73722627737209
 21
1120.0867850222423
  0
LINE
  8
_0-0_計極細
  6
CONTINUOUS
 62
    2
 10
940.73722627737209
 20
1125.6867850222422
 11
940.73722627737209
 21
1120.0867850222423
  0
LINE
  8
_0-0_計極細
  6
CONTINUOUS
 62
    2
 10
927.73722627737209
 20
1142.3867850222452
 11
927.73722627737209
 21
1137.0867850222455
  0
LINE
  8
_0-0_計極細
  6
CONTINUOUS
 62
    2
 10
940.73722627737209
 20
1142.3867850222452
 11
940.73722627737209
 21
1137.0867850222455
  0
LINE
  8
_0-0_計極細
  6
CONTINUOUS
 62
    2
 10
927.73722627737209
 20
1158.9867850222442
 11
927.73722627737209
 21
1153.7867850222444
  0
LINE
  8
_0-0_計極細
  6
CONTINUOUS
 62
    2
 10
940.73722627737209
 20
1158.9867850222442
 11
940.73722627737209
 21
1153.7867850222444
  0
LINE
  8
_0-0_計極細
  6
CONTINUOUS
 62
    2
 10
927.73722627737209
 20
967.08678502224234
 11
927.73722627737209
 21
972.68678502224225
  0
LINE
  8
_0-0_計極細
  6
CONTINUOUS
 62
    2
 10
940.73722627737209
 20
967.08678502224234
 11
940.73722627737209
 21
972.68678502224225
  0
LINE
  8
_0-0_計極細
  6
CONTINUOUS
 62
    2
 10
927.73722627737209
 20
950.08678502224143
 11
927.73722627737209
 21
955.68678502224179
  0
LINE
  8
_0-0_計極細
  6
CONTINUOUS
 62
    2
 10
940.73722627737209
 20
950.08678502224143
 11
940.73722627737209
 21
955.68678502224179
  0
LINE
  8
_0-0_計極細
  6
CONTINUOUS
 62
    2
 10
927.73722627737209
 20
933.08678502224097
 11
927.73722627737209
 21
938.68678502224088
  0
LINE
  8
_0-0_計極細
  6
CONTINUOUS
 62
    2
 10
940.73722627737209
 20
933.08678502224097
 11
940.73722627737209
 21
938.68678502224088
  0
LINE
  8
_0-0_計極細
  6
CONTINUOUS
 62
    2
 10
927.73722627737209
 20
916.08678502224188
 11
927.73722627737209
 21
921.68678502224179
  0
LINE
  8
_0-0_計極細
  6
CONTINUOUS
 62
    2
 10
940.73722627737209
 20
916.08678502224188
 11
940.73722627737209
 21
921.68678502224179
  0
LINE
  8
_0-0_計極細
  6
CONTINUOUS
 62
    2
 10
927.73722627737209
 20
899.08678502224279
 11
927.73722627737209
 21
904.6867850222427
  0
LINE
  8
_0-0_計極細
  6
CONTINUOUS
 62
    2
 10
940.73722627737209
 20
899.08678502224279
 11
940.73722627737209
 21
904.6867850222427
  0
LINE
  8
_0-0_計極細
  6
CONTINUOUS
 62
    2
 10
927.73722627737209
 20
882.0867850222437
 11
927.73722627737209
 21
887.68678502224361
  0
LINE
  8
_0-0_計極細
  6
CONTINUOUS
 62
    2
 10
940.73722627737209
 20
882.0867850222437
 11
940.73722627737209
 21
887.68678502224361
  0
LINE
  8
_0-0_計極細
  6
CONTINUOUS
 62
    2
 10
927.73722627737209
 20
865.08678502224461
 11
927.73722627737209
 21
870.68678502224452
  0
LINE
  8
_0-0_計極細
  6
CONTINUOUS
 62
    2
 10
940.73722627737209
 20
865.08678502224461
 11
940.73722627737209
 21
870.68678502224452
  0
LINE
  8
_0-0_計極細
  6
CONTINUOUS
 62
    2
 10
927.73722627737209
 20
848.38678502224161
 11
927.73722627737209
 21
853.68678502224134
  0
LINE
  8
_0-0_計極細
  6
CONTINUOUS
 62
    2
 10
940.73722627737209
 20
848.38678502224161
 11
940.73722627737209
 21
853.68678502224134
  0
LINE
  8
_0-0_計極細
  6
CONTINUOUS
 62
    2
 10
927.73722627737209
 20
831.78678502224261
 11
927.73722627737209
 21
836.98678502224243
  0
LINE
  8
_0-0_計極細
  6
CONTINUOUS
 62
    2
 10
940.73722627737209
 20
831.78678502224261
 11
940.73722627737209
 21
836.98678502224243
  0
LINE
  8
_0-0_計極細
  6
CENTER1
 62
    2
 10
934.23722627737209
 20
1179.1375044467102
 11
934.23722627737209
 21
812.82896128123116
  0
LINE
  8
_0-0_計極細
  6
CONTINUOUS
 62
    2
 10
976.23722627737197
 20
989.68678502224316
 11
976.23722627737197
 21
984.08678502224325
  0
LINE
  8
_0-0_計極細
  6
CONTINUOUS
 62
    2
 10
989.23722627737197
 20
989.68678502224316
 11
989.23722627737197
 21
984.08678502224325
  0
LINE
  8
_0-0_計極細
  6
CONTINUOUS
 62
    2
 10
976.23722627737197
 20
1006.6867850222441
 11
976.23722627737197
 21
1001.0867850222437
  0
LINE
  8
_0-0_計極細
  6
CONTINUOUS
 62
    2
 10
989.23722627737197
 20
1006.6867850222441
 11
989.23722627737197
 21
1001.0867850222437
  0
LINE
  8
_0-0_計極細
  6
CONTINUOUS
 62
    2
 10
976.23722627737197
 20
1023.6867850222445
 11
976.23722627737197
 21
1018.0867850222446
  0
LINE
  8
_0-0_計極細
  6
CONTINUOUS
 62
    2
 10
989.23722627737197
 20
1023.6867850222445
 11
989.23722627737197
 21
1018.0867850222446
  0
LINE
  8
_0-0_計極細
  6
CONTINUOUS
 62
    2
 10
976.23722627737197
 20
1040.6867850222454
 11
976.23722627737197
 21
1035.0867850222451
  0
LINE
  8
_0-0_計極細
  6
CONTINUOUS
 62
    2
 10
989.23722627737197
 20
1040.6867850222454
 11
989.23722627737197
 21
1035.0867850222451
  0
LINE
  8
_0-0_計極細
  6
CONTINUOUS
 62
    2
 10
976.23722627737197
 20
1057.6867850222459
 11
976.23722627737197
 21
1052.086785022246
  0
LINE
  8
_0-0_計極細
  6
CONTINUOUS
 62
    2
 10
989.23722627737197
 20
1057.6867850222459
 11
989.23722627737197
 21
1052.086785022246
  0
LINE
  8
_0-0_計極細
  6
CONTINUOUS
 62
    2
 10
976.23722627737197
 20
1074.686785022245
 11
976.23722627737197
 21
1069.0867850222451
  0
LINE
  8
_0-0_計極細
  6
CONTINUOUS
 62
    2
 10
989.23722627737197
 20
1074.686785022245
 11
989.23722627737197
 21
1069.0867850222451
  0
LINE
  8
_0-0_計極細
  6
CONTINUOUS
 62
    2
 10
976.23722627737197
 20
1091.6867850222441
 11
976.23722627737197
 21
1086.0867850222442
  0
LINE
  8
_0-0_計極細
  6
CONTINUOUS
 62
    2
 10
989.23722627737197
 20
1091.6867850222441
 11
989.23722627737197
 21
1086.0867850222442
  0
LINE
  8
_0-0_計極細
  6
CONTINUOUS
 62
    2
 10
976.23722627737197
 20
1108.6867850222432
 11
976.23722627737197
 21
1103.0867850222432
  0
LINE
  8
_0-0_計極細
  6
CONTINUOUS
 62
    2
 10
989.23722627737197
 20
1108.6867850222432
 11
989.23722627737197
 21
1103.0867850222432
  0
LINE
  8
_0-0_計極細
  6
CONTINUOUS
 62
    2
 10
976.23722627737197
 20
1125.6867850222422
 11
976.23722627737197
 21
1120.0867850222423
  0
LINE
  8
_0-0_計極細
  6
CONTINUOUS
 62
    2
 10
989.23722627737197
 20
1125.6867850222422
 11
989.23722627737197
 21
1120.0867850222423
  0
LINE
  8
_0-0_計極細
  6
CONTINUOUS
 62
    2
 10
976.23722627737197
 20
1142.3867850222452
 11
976.23722627737197
 21
1137.0867850222455
  0
LINE
  8
_0-0_計極細
  6
CONTINUOUS
 62
    2
 10
989.23722627737197
 20
1142.3867850222452
 11
989.23722627737197
 21
1137.0867850222455
  0
LINE
  8
_0-0_計極細
  6
CONTINUOUS
 62
    2
 10
976.23722627737197
 20
1158.9867850222442
 11
976.23722627737197
 21
1153.7867850222444
  0
LINE
  8
_0-0_計極細
  6
CONTINUOUS
 62
    2
 10
989.23722627737197
 20
1158.9867850222442
 11
989.23722627737197
 21
1153.7867850222444
  0
LINE
  8
_0-0_計極細
  6
CONTINUOUS
 62
    2
 10
976.23722627737197
 20
967.08678502224234
 11
976.23722627737197
 21
972.68678502224225
  0
LINE
  8
_0-0_計極細
  6
CONTINUOUS
 62
    2
 10
989.23722627737197
 20
967.08678502224234
 11
989.23722627737197
 21
972.68678502224225
  0
LINE
  8
_0-0_計極細
  6
CONTINUOUS
 62
    2
 10
976.23722627737197
 20
950.08678502224143
 11
976.23722627737197
 21
955.68678502224179
  0
LINE
  8
_0-0_計極細
  6
CONTINUOUS
 62
    2
 10
989.23722627737197
 20
950.08678502224143
 11
989.23722627737197
 21
955.68678502224179
  0
LINE
  8
_0-0_計極細
  6
CONTINUOUS
 62
    2
 10
976.23722627737197
 20
933.08678502224097
 11
976.23722627737197
 21
938.68678502224088
  0
LINE
  8
_0-0_計極細
  6
CONTINUOUS
 62
    2
 10
989.23722627737197
 20
933.08678502224097
 11
989.23722627737197
 21
938.68678502224088
  0
LINE
  8
_0-0_計極細
  6
CONTINUOUS
 62
    2
 10
976.23722627737197
 20
916.08678502224188
 11
976.23722627737197
 21
921.68678502224179
  0
LINE
  8
_0-0_計極細
  6
CONTINUOUS
 62
    2
 10
989.23722627737197
 20
916.08678502224188
 11
989.23722627737197
 21
921.68678502224179
  0
LINE
  8
_0-0_計極細
  6
CONTINUOUS
 62
    2
 10
976.23722627737197
 20
899.08678502224279
 11
976.23722627737197
 21
904.6867850222427
  0
LINE
  8
_0-0_計極細
  6
CONTINUOUS
 62
    2
 10
989.23722627737197
 20
899.08678502224279
 11
989.23722627737197
 21
904.6867850222427
  0
LINE
  8
_0-0_計極細
  6
CONTINUOUS
 62
    2
 10
976.23722627737197
 20
882.0867850222437
 11
976.23722627737197
 21
887.68678502224361
  0
LINE
  8
_0-0_計極細
  6
CONTINUOUS
 62
    2
 10
989.23722627737197
 20
882.0867850222437
 11
989.23722627737197
 21
887.68678502224361
  0
LINE
  8
_0-0_計極細
  6
CONTINUOUS
 62
    2
 10
976.23722627737197
 20
865.08678502224461
 11
976.23722627737197
 21
870.68678502224452
  0
LINE
  8
_0-0_計極細
  6
CONTINUOUS
 62
    2
 10
989.23722627737197
 20
865.08678502224461
 11
989.23722627737197
 21
870.68678502224452
  0
LINE
  8
_0-0_計極細
  6
CONTINUOUS
 62
    2
 10
976.23722627737197
 20
848.38678502224161
 11
976.23722627737197
 21
853.68678502224134
  0
LINE
  8
_0-0_計極細
  6
CONTINUOUS
 62
    2
 10
989.23722627737197
 20
848.38678502224161
 11
989.23722627737197
 21
853.68678502224134
  0
LINE
  8
_0-0_計極細
  6
CONTINUOUS
 62
    2
 10
976.23722627737197
 20
831.78678502224261
 11
976.23722627737197
 21
836.98678502224243
  0
LINE
  8
_0-0_計極細
  6
CONTINUOUS
 62
    2
 10
989.23722627737197
 20
831.78678502224261
 11
989.23722627737197
 21
836.98678502224243
  0
LINE
  8
_0-0_計極細
  6
CENTER1
 62
    2
 10
982.73722627737197
 20
1179.1375044467102
 11
982.73722627737197
 21
812.82896128123116
  0
LINE
  8
_0-0_計極細
  6
CONTINUOUS
 62
    2
 10
1170.237226277372
 20
989.68678502224316
 11
1170.237226277372
 21
984.08678502224325
  0
LINE
  8
_0-0_計極細
  6
CONTINUOUS
 62
    2
 10
1183.237226277372
 20
989.68678502224316
 11
1183.237226277372
 21
984.08678502224325
  0
LINE
  8
_0-0_計極細
  6
CONTINUOUS
 62
    2
 10
1170.237226277372
 20
1006.6867850222441
 11
1170.237226277372
 21
1001.0867850222437
  0
LINE
  8
_0-0_計極細
  6
CONTINUOUS
 62
    2
 10
1183.237226277372
 20
1006.6867850222441
 11
1183.237226277372
 21
1001.0867850222437
  0
LINE
  8
_0-0_計極細
  6
CONTINUOUS
 62
    2
 10
1170.237226277372
 20
1023.6867850222445
 11
1170.237226277372
 21
1018.0867850222446
  0
LINE
  8
_0-0_計極細
  6
CONTINUOUS
 62
    2
 10
1183.237226277372
 20
1023.6867850222445
 11
1183.237226277372
 21
1018.0867850222446
  0
LINE
  8
_0-0_計極細
  6
CONTINUOUS
 62
    2
 10
1170.237226277372
 20
1040.6867850222454
 11
1170.237226277372
 21
1035.0867850222451
  0
LINE
  8
_0-0_計極細
  6
CONTINUOUS
 62
    2
 10
1183.237226277372
 20
1040.6867850222454
 11
1183.237226277372
 21
1035.0867850222451
  0
LINE
  8
_0-0_計極細
  6
CONTINUOUS
 62
    2
 10
1170.237226277372
 20
1057.6867850222459
 11
1170.237226277372
 21
1052.086785022246
  0
LINE
  8
_0-0_計極細
  6
CONTINUOUS
 62
    2
 10
1183.237226277372
 20
1057.6867850222459
 11
1183.237226277372
 21
1052.086785022246
  0
LINE
  8
_0-0_計極細
  6
CONTINUOUS
 62
    2
 10
1170.237226277372
 20
1074.686785022245
 11
1170.237226277372
 21
1069.0867850222451
  0
LINE
  8
_0-0_計極細
  6
CONTINUOUS
 62
    2
 10
1183.237226277372
 20
1074.686785022245
 11
1183.237226277372
 21
1069.0867850222451
  0
LINE
  8
_0-0_計極細
  6
CONTINUOUS
 62
    2
 10
1170.237226277372
 20
1091.6867850222441
 11
1170.237226277372
 21
1086.0867850222442
  0
LINE
  8
_0-0_計極細
  6
CONTINUOUS
 62
    2
 10
1183.237226277372
 20
1091.6867850222441
 11
1183.237226277372
 21
1086.0867850222442
  0
LINE
  8
_0-0_計極細
  6
CONTINUOUS
 62
    2
 10
1170.237226277372
 20
1108.6867850222432
 11
1170.237226277372
 21
1103.0867850222432
  0
LINE
  8
_0-0_計極細
  6
CONTINUOUS
 62
    2
 10
1183.237226277372
 20
1108.6867850222432
 11
1183.237226277372
 21
1103.0867850222432
  0
LINE
  8
_0-0_計極細
  6
CONTINUOUS
 62
    2
 10
1170.237226277372
 20
1125.6867850222422
 11
1170.237226277372
 21
1120.0867850222423
  0
LINE
  8
_0-0_計極細
  6
CONTINUOUS
 62
    2
 10
1183.237226277372
 20
1125.6867850222422
 11
1183.237226277372
 21
1120.0867850222423
  0
LINE
  8
_0-0_計極細
  6
CONTINUOUS
 62
    2
 10
1170.237226277372
 20
1142.3867850222452
 11
1170.237226277372
 21
1137.0867850222455
  0
LINE
  8
_0-0_計極細
  6
CONTINUOUS
 62
    2
 10
1183.237226277372
 20
1142.3867850222452
 11
1183.237226277372
 21
1137.0867850222455
  0
LINE
  8
_0-0_計極細
  6
CONTINUOUS
 62
    2
 10
1170.237226277372
 20
1158.9867850222442
 11
1170.237226277372
 21
1153.7867850222444
  0
LINE
  8
_0-0_計極細
  6
CONTINUOUS
 62
    2
 10
1183.237226277372
 20
1158.9867850222442
 11
1183.237226277372
 21
1153.7867850222444
  0
LINE
  8
_0-0_計極細
  6
CONTINUOUS
 62
    2
 10
1170.237226277372
 20
967.08678502224234
 11
1170.237226277372
 21
972.68678502224225
  0
LINE
  8
_0-0_計極細
  6
CONTINUOUS
 62
    2
 10
1183.237226277372
 20
967.08678502224234
 11
1183.237226277372
 21
972.68678502224225
  0
LINE
  8
_0-0_計極細
  6
CONTINUOUS
 62
    2
 10
1170.237226277372
 20
950.08678502224143
 11
1170.237226277372
 21
955.68678502224179
  0
LINE
  8
_0-0_計極細
  6
CONTINUOUS
 62
    2
 10
1183.237226277372
 20
950.08678502224143
 11
1183.237226277372
 21
955.68678502224179
  0
LINE
  8
_0-0_計極細
  6
CONTINUOUS
 62
    2
 10
1170.237226277372
 20
933.08678502224097
 11
1170.237226277372
 21
938.68678502224088
  0
LINE
  8
_0-0_計極細
  6
CONTINUOUS
 62
    2
 10
1183.237226277372
 20
933.08678502224097
 11
1183.237226277372
 21
938.68678502224088
  0
LINE
  8
_0-0_計極細
  6
CONTINUOUS
 62
    2
 10
1170.237226277372
 20
916.08678502224188
 11
1170.237226277372
 21
921.68678502224179
  0
LINE
  8
_0-0_計極細
  6
CONTINUOUS
 62
    2
 10
1183.237226277372
 20
916.08678502224188
 11
1183.237226277372
 21
921.68678502224179
  0
LINE
  8
_0-0_計極細
  6
CONTINUOUS
 62
    2
 10
1170.237226277372
 20
899.08678502224279
 11
1170.237226277372
 21
904.6867850222427
  0
LINE
  8
_0-0_計極細
  6
CONTINUOUS
 62
    2
 10
1183.237226277372
 20
899.08678502224279
 11
1183.237226277372
 21
904.6867850222427
  0
LINE
  8
_0-0_計極細
  6
CONTINUOUS
 62
    2
 10
1170.237226277372
 20
882.0867850222437
 11
1170.237226277372
 21
887.68678502224361
  0
LINE
  8
_0-0_計極細
  6
CONTINUOUS
 62
    2
 10
1183.237226277372
 20
882.0867850222437
 11
1183.237226277372
 21
887.68678502224361
  0
LINE
  8
_0-0_計極細
  6
CONTINUOUS
 62
    2
 10
1170.237226277372
 20
865.08678502224461
 11
1170.237226277372
 21
870.68678502224452
  0
LINE
  8
_0-0_計極細
  6
CONTINUOUS
 62
    2
 10
1183.237226277372
 20
865.08678502224461
 11
1183.237226277372
 21
870.68678502224452
  0
LINE
  8
_0-0_計極細
  6
CONTINUOUS
 62
    2
 10
1170.237226277372
 20
848.38678502224161
 11
1170.237226277372
 21
853.68678502224134
  0
LINE
  8
_0-0_計極細
  6
CONTINUOUS
 62
    2
 10
1183.237226277372
 20
848.38678502224161
 11
1183.237226277372
 21
853.68678502224134
  0
LINE
  8
_0-0_計極細
  6
CONTINUOUS
 62
    2
 10
1170.237226277372
 20
831.78678502224261
 11
1170.237226277372
 21
836.98678502224243
  0
LINE
  8
_0-0_計極細
  6
CONTINUOUS
 62
    2
 10
1183.237226277372
 20
831.78678502224261
 11
1183.237226277372
 21
836.98678502224243
  0
LINE
  8
_0-0_計極細
  6
CENTER1
 62
    2
 10
1176.737226277372
 20
1179.1375044467102
 11
1176.737226277372
 21
812.82896128123116
  0
LINE
  8
_0-1_計細線
  6
CONTINUOUS
 62
    3
 10
337.73722627737197
 20
989.68678502224316
 11
1336.737226277372
 21
989.68678502224316
  0
LINE
  8
_0-1_計細線
  6
CONTINUOUS
 62
    3
 10
1336.737226277372
 20
1001.0867850222437
 11
1336.737226277372
 21
989.68678502224316
  0
LINE
  8
_0-0_計極細
  6
CONTINUOUS
 62
    2
 10
337.73722627737197
 20
992.88678502224343
 11
1336.737226277372
 21
992.88678502224343
  0
LINE
  8
_0-0_計極細
  6
CONTINUOUS
 62
    2
 10
337.73722627737197
 20
997.88678502224343
 11
1336.737226277372
 21
997.88678502224343
  0
LINE
  8
_0-1_計細線
  6
CONTINUOUS
 62
    3
 10
337.73722627737197
 20
1001.0867850222437
 11
337.73722627737197
 21
989.68678502224316
  0
LINE
  8
_0-1_計細線
  6
CONTINUOUS
 62
    3
 10
337.73722627737197
 20
1001.0867850222437
 11
1336.737226277372
 21
1001.0867850222437
  0
LINE
  8
_0-1_計細線
  6
CONTINUOUS
 62
    3
 10
337.73722627737197
 20
1018.0867850222446
 11
1336.737226277372
 21
1018.0867850222446
  0
LINE
  8
_0-1_計細線
  6
CONTINUOUS
 62
    3
 10
1336.737226277372
 20
1018.0867850222446
 11
1336.737226277372
 21
1006.6867850222441
  0
LINE
  8
_0-0_計極細
  6
CONTINUOUS
 62
    2
 10
337.73722627737197
 20
1009.8867850222443
 11
1336.737226277372
 21
1009.8867850222443
  0
LINE
  8
_0-0_計極細
  6
CONTINUOUS
 62
    2
 10
337.73722627737197
 20
1014.8867850222443
 11
1336.737226277372
 21
1014.8867850222443
  0
LINE
  8
_0-1_計細線
  6
CONTINUOUS
 62
    3
 10
337.73722627737197
 20
1006.6867850222441
 11
1336.737226277372
 21
1006.6867850222441
  0
LINE
  8
_0-1_計細線
  6
CONTINUOUS
 62
    3
 10
337.73722627737197
 20
1018.0867850222446
 11
337.73722627737197
 21
1006.6867850222441
  0
LINE
  8
_0-0_計極細
  6
CONTINUOUS
 62
    2
 10
442.73722627737197
 20
1006.6867850222441
 11
442.73722627737197
 21
1006.2367850222438
  0
LINE
  8
_0-0_計極細
  6
CONTINUOUS
 62
    2
 10
442.73722627737197
 20
1001.536785022244
 11
442.73722627737197
 21
1001.0867850222437
  0
LINE
  8
_0-0_計極細
  6
CONTINUOUS
 62
    2
 10
455.73722627737197
 20
1006.6867850222441
 11
455.73722627737197
 21
1006.2367850222438
  0
LINE
  8
_0-0_計極細
  6
CONTINUOUS
 62
    2
 10
455.73722627737197
 20
1001.536785022244
 11
455.73722627737197
 21
1001.0867850222437
  0
TEXT
  8
_0-7_枠細線
 62
    5
 10
1502.1605925925933
 20
1344
 40
20
 41
1
 50
0
  1
アンカー材質･厚み変更
  0
LINE
  8
_0-a_極細3
  6
CONTINUOUS
 62
    7
 10
1405.5863746987568
 20
371.27385045443407
 11
1405.5863746987568
 21
261.9405171210999
  0
LINE
  8
_0-a_極細3
  6
CONTINUOUS
 62
    7
 10
1272.2530413654233
 20
261.9405171210999
 11
1405.5863746987568
 21
261.9405171210999
  0
LINE
  8
_0-a_極細3
  6
CONTINUOUS
 62
    7
 10
1405.5863746987568
 20
371.27385045443407
 11
1454.937436797607
 21
371.27385045443407
  0
LINE
  8
_0-a_極細3
  6
CONTINUOUS
 62
    7
 10
1272.2530413654233
 20
261.9405171210999
 11
1272.2530413654233
 21
219.95395664945431
  0
LINE
  8
_0-a_極細3
  6
CONTINUOUS
 62
    7
 10
1418.8503785621056
 20
219.95395664945431
 11
1454.937436864072
 21
256.04101495141981
  0
LINE
  8
_0-a_極細3
  6
CONTINUOUS
 62
    7
 10
1305.713293572258
 20
219.95395664945431
 11
1347.6998540439042
 21
261.9405171210999
  0
LINE
  8
_0-a_極細3
  6
CONTINUOUS
 62
    7
 10
1405.5863746987568
 20
319.82703777595282
 11
1454.9374367988157
 21
369.17809987601106
  0
LINE
  8
_0-a_極細3
  6
CONTINUOUS
 62
    7
 10
1407.5366700631207
 20
219.95395664945431
 11
1454.9374368575463
 21
267.35472344387927
  0
LINE
  8
_0-a_極細3
  6
CONTINUOUS
 62
    7
 10
1294.3995850732729
 20
219.95395664945431
 11
1336.3861455449198
 21
261.9405171210999
  0
LINE
  8
_0-a_極細3
  6
CONTINUOUS
 62
    7
 10
1405.5863746987568
 20
331.14074627493733
 11
1445.7194785909724
 21
371.27385016715311
  0
LINE
  8
_0-a_極細3
  6
CONTINUOUS
 62
    7
 10
1396.2229615641361
 20
219.95395664945431
 11
1454.9374368510205
 21
278.66843193633872
  0
LINE
  8
_0-a_極細3
  6
CONTINUOUS
 62
    7
 10
1283.085876574288
 20
219.95395664945431
 11
1325.0724370459347
 21
261.9405171210999
  0
LINE
  8
_0-a_極細3
  6
CONTINUOUS
 62
    7
 10
1405.5863746987568
 20
342.45445477392241
 11
1434.4057701729737
 21
371.27385024813896
  0
CIRCLE
  8
_0-a_極細3
  6
CONTINUOUS
 62
    7
 10
1250.5023133958832
 20
356.10745526923824
 40
0.884938271604915
  0
CIRCLE
  8
_0-a_極細3
  6
CONTINUOUS
 62
    7
 10
1266.4312022847719
 20
363.78745526923785
 40
0.884938271604915
  0
CIRCLE
  8
_0-a_極細3
  6
CONTINUOUS
 62
    7
 10
1259.8889800625504
 20
323.82301082479432
 40
0.884938271604915
  0
CIRCLE
  8
_0-a_極細3
  6
CONTINUOUS
 62
    7
 10
1287.942313395883
 20
296.58745526923849
 40
0.884938271604915
  0
CIRCLE
  8
_0-a_極細3
  6
CONTINUOUS
 62
    7
 10
1259.40898006255
 20
259.30745526923897
 40
0.884938271604915
  0
CIRCLE
  8
_0-a_極細3
  6
CONTINUOUS
 62
    7
 10
1244.4756467292173
 20
230.72078860257284
 40
0.884938271604915
  0
CIRCLE
  8
_0-a_極細3
  6
CONTINUOUS
 62
    7
 10
1262.8223133958829
 20
278.50745526923879
 40
0.884938271604915
  0
CIRCLE
  8
_0-a_極細3
  6
CONTINUOUS
 62
    7
 10
1285.0089800625494
 20
270.8274552692385
 40
0.884938271604915
  0
CIRCLE
  8
_0-a_極細3
  6
CONTINUOUS
 62
    7
 10
1328.1023133958831
 20
271.25412193590569
 40
0.884938271604915
  0
CIRCLE
  8
_0-a_極細3
  6
CONTINUOUS
 62
    7
 10
1308.9023133958831
 20
285.76078860257223
 40
0.884938271604915
  0
CIRCLE
  8
_0-a_極細3
  6
CONTINUOUS
 62
    7
 10
1326.8223133958827
 20
294.72078860257216
 40
0.884938271604915
  0
CIRCLE
  8
_0-a_極細3
  6
CONTINUOUS
 62
    7
 10
1311.6400911736605
 20
413.15634415812644
 40
0.884938271604915
  0
CIRCLE
  8
_0-a_極細3
  6
CONTINUOUS
 62
    7
 10
1307.6578689514383
 20
381.58301082479352
 40
0.884938271604915
  0
CIRCLE
  8
_0-a_極細3
  6
CONTINUOUS
 62
    7
 10
1340.5112022847713
 20
380.44523304701545
 40
0.884938271604915
  0
CIRCLE
  8
_0-a_極細3
  6
CONTINUOUS
 62
    7
 10
1321.9512022847714
 20
358.04523304701627
 40
0.884938271604915
  0
CIRCLE
  8
_0-a_極細3
  6
CONTINUOUS
 62
    7
 10
1384.6712022847707
 20
272.92523304701649
 40
0.884938271604915
  0
CIRCLE
  8
_0-a_極細3
  6
CONTINUOUS
 62
    7
 10
1396.1912022847707
 20
295.32523304701658
 40
0.884938271604915
  0
CIRCLE
  8
_0-a_極細3
  6
CONTINUOUS
 62
    7
 10
1393.6312022847706
 20
328.6052330470161
 40
0.884938271604915
  0
CIRCLE
  8
_0-a_極細3
  6
CONTINUOUS
 62
    7
 10
1364.8312022847711
 20
362.52523304701572
 40
0.884938271604915
  0
CIRCLE
  8
_0-a_極細3
  6
CONTINUOUS
 62
    7
 10
1391.7112022847705
 20
393.88523304701562
 40
0.884938271604915
  0
CIRCLE
  8
_0-a_極細3
  6
CONTINUOUS
 62
    7
 10
1387.2312022847707
 20
351.00523304701619
 40
0.884938271604915
  0
CIRCLE
  8
_0-a_極細3
  6
CONTINUOUS
 62
    7
 10
1434.5912022847704
 20
384.92523304701513
 40
0.884938271604915
  0
CIRCLE
  8
_0-a_極細3
  6
CONTINUOUS
 62
    7
 10
1426.9112022847701
 20
406.95733181244771
 40
2.9208503562902273
  0
CIRCLE
  8
_0-a_極細3
  6
CONTINUOUS
 62
    7
 10
1401.8800911736589
 20
382.21066514578172
 40
2.9208503562902273
  0
CIRCLE
  8
_0-a_極細3
  6
CONTINUOUS
 62
    7
 10
1313.2045356181045
 20
392.73510959022576
 40
2.9208503562902273
  0
CIRCLE
  8
_0-a_極細3
  6
CONTINUOUS
 62
    7
 10
1364.4045356181039
 20
341.53510959022572
 40
2.9208503562902273
  0
CIRCLE
  8
_0-a_極細3
  6
CONTINUOUS
 62
    7
 10
1251.7734245069948
 20
270.25510959022699
 40
2.9208503562902273
  0
CIRCLE
  8
_0-a_極細3
  6
CONTINUOUS
 62
    7
 10
1268.1289800625495
 20
318.04177625689317
 40
2.9208503562902273
  0
CIRCLE
  8
_0-a_極細3
  6
CONTINUOUS
 62
    7
 10
1324.448980062549
 20
282.2017762568936
 40
2.9208503562902273
  0
CIRCLE
  8
_0-a_極細3
  6
CONTINUOUS
 62
    7
 10
1398.4732882790031
 20
265.9024924297421
 40
2.9208503562902273
  0
CIRCLE
  8
_0-a_極細3
  6
CONTINUOUS
 62
    7
 10
1317.4089800625491
 20
351.32177625689269
 40
2.9208503562902273
  0
CIRCLE
  8
_0-a_極細3
  6
CONTINUOUS
 62
    7
 10
1241.4633010502046
 20
342.64464760563476
 40
0.884938271604915
  0
CIRCLE
  8
_0-a_極細3
  6
CONTINUOUS
 62
    7
 10
1241.7833010502056
 20
304.31575871674613
 40
0.884938271604915
  0
CIRCLE
  8
_0-a_極細3
  6
CONTINUOUS
 62
    7
 10
1414.1112022847706
 20
419.69856638034889
 40
0.884938271604915
  0
CIRCLE
  8
_0-a_極細3
  6
CONTINUOUS
 62
    7
 10
1364.8312022847711
 20
411.59189971368221
 40
0.884938271604915
  0
CIRCLE
  8
_0-a_極細3
  6
CONTINUOUS
 62
    7
 10
1365.0445356181042
 20
401.48177625689175
 40
2.9208503562902273
  0
CIRCLE
  8
_0-a_極細3
  6
CONTINUOUS
 62
    7
 10
1330.9112022847712
 20
421.19189971368223
 40
0.884938271604915
  0
LINE
  8
_0-a_極細3
  6
CONTINUOUS
 62
    7
 10
1220.2530413654226
 20
381.9405171210999
 11
1218.9197080320896
 21
381.9405171210999
  0
LINE
  8
_0-a_極細3
  6
CONTINUOUS
 62
    7
 10
1218.9197080320896
 20
381.9405171210999
 11
1218.9197080320896
 21
219.95395664945431
  0
CIRCLE
  8
_0-a_極細3
  6
CONTINUOUS
 62
    7
 10
1228.494741379423
 20
317.84967749146051
 40
0.884938271604915
  0
CIRCLE
  8
_0-a_極細3
  6
CONTINUOUS
 62
    7
 10
1230.5852763588468
 20
255.04078860257255
 40
0.884938271604915
  0
CIRCLE
  8
_0-a_極細3
  6
CONTINUOUS
 62
    7
 10
1229.5630541366234
 20
360.5662207013379
 40
2.9208503562902273
  0
CIRCLE
  8
_0-a_極細3
  6
CONTINUOUS
 62
    7
 10
1234.2800911736601
 20
244.37066514578214
 40
2.9208503562902273
  0
LINE
  8
_0-a_極細3
  6
CONTINUOUS
 62
    7
 10
1312.2530413654233
 20
443.27385045443418
 11
1312.2530413654233
 21
424.6071837877671
  0
LINE
  8
_0-a_極細3
  6
CONTINUOUS
 62
    7
 10
1312.2530413654233
 20
443.27385045443418
 11
1454.937436797607
 21
443.27385045443418
  0
LINE
  8
_0-a_極細3
  6
CONTINUOUS
 62
    7
 10
1298.9197080320901
 20
424.6071837877671
 11
1454.937436797607
 21
424.6071837877671
  0
LINE
  8
_0-a_極細3
  6
CONTINUOUS
 62
    7
 10
1298.9197080320901
 20
443.27385045443418
 11
1312.2530413654233
 21
443.27385045443418
  0
LINE
  8
_0-a_極細3
  6
CONTINUOUS
 62
    7
 10
1298.9197080320901
 20
441.94051712109979
 11
1298.9197080320901
 21
443.27385045443418
  0
LINE
  8
_0-a_極細3
  6
CONTINUOUS
 62
    7
 10
1312.2530413654233
 20
430.47772183692621
 11
1306.3825033162636
 21
424.6071837877671
  0
LINE
  8
_0-a_極細3
  6
CONTINUOUS
 62
    7
 10
1312.2530413654233
 20
437.26594693631671
 11
1299.5942782168731
 21
424.6071837877671
  0
LINE
  8
_0-a_極細3
  6
CONTINUOUS
 62
    7
 10
1298.9197080320901
 20
430.72083870237509
 11
1311.4727197841489
 21
443.27385045443418
  0
LINE
  8
_0-a_極細3
  6
CONTINUOUS
 62
    7
 10
1298.9197080320901
 20
437.50906380176571
 11
1304.6844946847575
 21
443.27385045443339
  0
LINE
  8
_0-a_極細3
  6
CONTINUOUS
 62
    7
 10
1312.2530413654233
 20
440.85893491922525
 11
1309.8381258302147
 21
443.27385045443418
  0
LINE
  8
_0-a_極細3
  6
CONTINUOUS
 62
    7
 10
1312.2530413654233
 20
434.07070981983384
 11
1303.0499007308238
 21
443.27385045443418
  0
LINE
  8
_0-a_極細3
  6
CONTINUOUS
 62
    7
 10
1312.2530413654233
 20
427.28248472044334
 11
1298.9197080320901
 21
440.61581805377682
  0
LINE
  8
_0-a_極細3
  6
CONTINUOUS
 62
    7
 10
1308.1401171987086
 20
424.6071837877671
 11
1298.9197080320901
 21
433.82759295438564
  0
LINE
  8
_0-a_極細3
  6
CONTINUOUS
 62
    7
 10
1301.3518920993181
 20
424.6071837877671
 11
1298.9197080320901
 21
427.03936785499434
  0
LINE
  8
_0-a_極細3
  6
CONTINUOUS
 62
    7
 10
1421.7823300059088
 20
424.6071837877671
 11
1440.4489956697125
 21
443.27384945157155
  0
LINE
  8
_0-a_極細3
  6
CONTINUOUS
 62
    7
 10
1387.841204508954
 20
424.6071837877671
 11
1406.5078704382763
 21
443.27384971708864
  0
LINE
  8
_0-a_極細3
  6
CONTINUOUS
 62
    7
 10
1353.9000790119997
 20
424.6071837877671
 11
1372.5667452068392
 21
443.27384998260652
  0
LINE
  8
_0-a_極細3
  6
CONTINUOUS
 62
    7
 10
1319.9589535150456
 20
424.6071837877671
 11
1338.625619975403
 21
443.2738502481244
  0
LINE
  8
_0-a_極細3
  6
DASHED2
 62
    7
 10
1438.752892754386
 20
424.6071837877671
 11
1454.937436797607
 21
440.79172783098818
  0
LINE
  8
_0-a_極細3
  6
DASHED2
 62
    7
 10
1404.8117672574308
 20
424.6071837877671
 11
1423.4784330539942
 21
443.27384958433004
  0
LINE
  8
_0-a_極細3
  6
DASHED2
 62
    7
 10
1370.8706417604769
 20
424.6071837877671
 11
1389.5373078225578
 21
443.27384984984724
  0
LINE
  8
_0-a_極細3
  6
DASHED2
 62
    7
 10
1336.9295162635224
 20
424.6071837877671
 11
1355.5961825911204
 21
443.27385011536512
  0
LINE
  8
_0-a_極細3
  6
DASHED2
 62
    7
 10
1312.2530413654233
 20
433.87183438662225
 11
1321.6550573596844
 21
443.273850380883
  0
ARC
  8
_0-b_細線3
  6
CONTINUOUS
 62
    7
 10
1290.9197080320901
 20
389.9405171210999
 40
8
 50
269.99999999999977
 51
359.99999999999966
  0
LINE
  8
_0-b_細線3
  6
CONTINUOUS
 62
    7
 10
1298.9197080320901
 20
389.9405171210999
 11
1298.9197080320901
 21
441.94051712109979
  0
LINE
  8
_0-b_細線3
  6
CONTINUOUS
 62
    7
 10
1290.9197080320901
 20
381.9405171210999
 11
1220.2530413654226
 21
381.9405171210999
  0
LINE
  8
_0-b_細線3
  6
CONTINUOUS
 62
    7
 10
1218.9197080320896
 20
383.27385045443418
 11
1220.2530413654226
 21
381.9405171210999
  0
LINE
  8
_0-b_細線3
  6
CONTINUOUS
 62
    7
 10
1218.9197080320896
 20
388.60718378776699
 11
1218.9197080320896
 21
383.27385045443418
  0
LINE
  8
_0-b_細線3
  6
CONTINUOUS
 62
    7
 10
1220.2530413654226
 20
389.9405171210999
 11
1218.9197080320896
 21
388.60718378776699
  0
LINE
  8
_0-b_細線3
  6
CONTINUOUS
 62
    7
 10
1290.9197080320901
 20
389.9405171210999
 11
1220.2530413654226
 21
389.9405171210999
  0
LINE
  8
_0-b_細線3
  6
CONTINUOUS
 62
    7
 10
1297.5863746987573
 20
443.27385045443418
 11
1298.9197080320901
 21
441.94051712109979
  0
LINE
  8
_0-b_細線3
  6
CONTINUOUS
 62
    7
 10
1292.2530413654233
 20
443.27385045443418
 11
1297.5863746987573
 21
443.27385045443418
  0
LINE
  8
_0-b_細線3
  6
CONTINUOUS
 62
    7
 10
1290.9197080320901
 20
441.94051712109979
 11
1292.2530413654233
 21
443.27385045443418
  0
LINE
  8
_0-b_細線3
  6
CONTINUOUS
 62
    7
 10
1290.9197080320901
 20
389.9405171210999
 11
1290.9197080320901
 21
441.94051712109979
  0
LINE
  8
_0-a_極細3
  6
CONTINUOUS
 62
    7
 10
1368.7438171848669
 20
301.75123898110519
 11
1376.9523006246834
 21
324.30386187996749
  0
LINE
  8
_0-a_極細3
  6
CONTINUOUS
 62
    7
 10
1288.7533489067921
 20
356.40565499876152
 11
1280.5448654669767
 21
333.85303209989911
  0
LINE
  8
_0-a_極細3
  6
CONTINUOUS
 62
    7
 10
1376.9523006246834
 20
324.30386187996749
 11
1288.7533489067921
 21
356.40565499876152
  0
LINE
  8
_0-a_極細3
  6
CONTINUOUS
 62
    7
 10
1368.7438171848669
 20
301.75123898110519
 11
1280.5448654669767
 21
333.85303209989911
  0
LINE
  8
_0-a_極細3
  6
CENTER1
 62
    7
 10
1380.7767523319633
 20
310.14174236648887
 11
1278.3271195598577
 21
347.43035914254483
  0
LINE
  8
_0-a_極細3
  6
CONTINUOUS
 62
    7
 10
1338.9197080320905
 20
261.9405171210999
 11
1338.9197080320905
 21
332.47741527840526
  0
LINE
  8
_0-a_極細3
  6
CONTINUOUS
 62
    7
 10
1362.9197080320905
 20
332.47741527840526
 11
1362.9197080320905
 21
261.9405171210999
  0
LINE
  8
_0-a_極細3
  6
CENTER1
 62
    7
 10
1350.9197080320905
 20
248.69773266597508
 11
1350.9197080320905
 21
339.31856754178045
  0
LINE
  8
_0-a_極細3
  6
CONTINUOUS
 62
    7
 10
1338.9197080320905
 20
332.47741527840526
 11
1362.9197080320905
 21
332.47741527840526
  0
CIRCLE
  8
_0-a_極細3
  6
CONTINUOUS
 62
    7
 10
1374.0045356181049
 20
341.27881329392881
 40
0.884938271604915
  0
CIRCLE
  8
_0-a_極細3
  6
CONTINUOUS
 62
    7
 10
1342.6445356181052
 20
350.23881329392952
 40
0.884938271604915
  0
LINE
  8
_0-a_極細3
  6
CONTINUOUS
 62
    7
 10
232.25304136542263
 20
371.27385045443407
 11
232.25304136542263
 21
261.9405171210999
  0
LINE
  8
_0-a_極細3
  6
CONTINUOUS
 62
    7
 10
365.58637469875634
 20
261.9405171210999
 11
232.25304136542263
 21
261.9405171210999
  0
LINE
  8
_0-a_極細3
  6
CONTINUOUS
 62
    7
 10
232.25304136542263
 20
371.27385045443407
 11
182.90197926657288
 21
371.27385045443407
  0
LINE
  8
_0-a_極細3
  6
CONTINUOUS
 62
    7
 10
365.58637469875634
 20
261.9405171210999
 11
365.58637469875634
 21
219.95395664945431
  0
LINE
  8
_0-a_極細3
  6
CONTINUOUS
 62
    7
 10
305.71121539477258
 20
219.95395683575248
 11
347.6977756801208
 21
261.9405171210999
  0
LINE
  8
_0-a_極細3
  6
CONTINUOUS
 62
    7
 10
192.57413075694626
 20
219.95395718777399
 11
234.56069069027308
 21
261.9405171210999
  0
LINE
  8
_0-a_極細3
  6
CONTINUOUS
 62
    7
 10
182.90197926657288
 20
323.41889068724743
 11
230.75693903375873
 21
371.27385045443407
  0
LINE
  8
_0-a_極細3
  6
CONTINUOUS
 62
    7
 10
294.39750693099006
 20
219.95395687095493
 11
336.38406718113549
 21
261.9405171210999
  0
LINE
  8
_0-a_極細3
  6
CONTINUOUS
 62
    7
 10
182.90197926657288
 20
221.59551419638478
 11
232.25304136542263
 21
270.94657629523545
  0
LINE
  8
_0-a_極細3
  6
CONTINUOUS
 62
    7
 10
182.90197926657288
 20
334.73259918623273
 11
219.44323053477342
 21
371.27385045443407
  0
LINE
  8
_0-a_極細3
  6
CONTINUOUS
 62
    7
 10
283.08379846720788
 20
219.95395690615737
 11
325.07035868215098
 21
261.9405171210999
  0
LINE
  8
_0-a_極細3
  6
CONTINUOUS
 62
    7
 10
182.90197926657288
 20
232.90922269537009
 11
232.25304136542263
 21
282.26028479421996
  0
LINE
  8
_0-a_極細3
  6
CONTINUOUS
 62
    7
 10
182.90197926657288
 20
346.04630768521793
 11
208.12952203578902
 21
371.27385045443407
  0
CIRCLE
  8
_0-a_極細3
  6
CONTINUOUS
 62
    7
 10
211.5353998156404
 20
395.59930712108962
 40
0.884938271604915
  0
CIRCLE
  8
_0-a_極細3
  6
CONTINUOUS
 62
    7
 10
195.00601709959187
 20
379.67041823220109
 40
0.884938271604915
  0
CIRCLE
  8
_0-a_極細3
  6
CONTINUOUS
 62
    7
 10
211.9778689514435
 20
381.37708489886768
 40
0.884938271604915
  0
CIRCLE
  8
_0-a_極細3
  6
CONTINUOUS
 62
    7
 10
232.17342450699857
 20
384.50597378775615
 40
0.884938271604915
  0
CIRCLE
  8
_0-a_極細3
  6
CONTINUOUS
 62
    7
 10
277.68453561810929
 20
403.27930712108991
 40
0.884938271604915
  0
CIRCLE
  8
_0-a_極細3
  6
CONTINUOUS
 62
    7
 10
317.50675784033092
 20
419.20819600997834
 40
0.884938271604915
  0
CIRCLE
  8
_0-a_極細3
  6
CONTINUOUS
 62
    7
 10
326.6089800625532
 20
393.32375156553371
 40
0.884938271604915
  0
CIRCLE
  8
_0-a_極細3
  6
CONTINUOUS
 62
    7
 10
286.78675784033123
 20
392.47041823220104
 40
0.884938271604915
  0
CIRCLE
  8
_0-a_極細3
  6
CONTINUOUS
 62
    7
 10
268.01342450699849
 20
416.36375156553379
 40
0.884938271604915
  0
CIRCLE
  8
_0-a_極細3
  6
CONTINUOUS
 62
    7
 10
243.28453561810989
 20
372.89708489886743
 40
0.884938271604915
  0
CIRCLE
  8
_0-a_極細3
  6
CONTINUOUS
 62
    7
 10
275.99564672921997
 20
370.90597378775601
 40
0.884938271604915
  0
CIRCLE
  8
_0-a_極細3
  6
CONTINUOUS
 62
    7
 10
316.10231339588677
 20
364.93264045442311
 40
0.884938271604915
  0
CIRCLE
  8
_0-a_極細3
  6
CONTINUOUS
 62
    7
 10
295.90675784033078
 20
355.83041823220094
 40
0.884938271604915
  0
CIRCLE
  8
_0-a_極細3
  6
CONTINUOUS
 62
    7
 10
272.29786895144298
 20
334.21264045442331
 40
0.884938271604915
  0
CIRCLE
  8
_0-a_極細3
  6
CONTINUOUS
 62
    7
 10
316.10231339588677
 20
345.87486267664553
 40
0.884938271604915
  0
CIRCLE
  8
_0-a_極細3
  6
CONTINUOUS
 62
    7
 10
250.32453561810894
 20
302.49708489886802
 40
0.884938271604915
  0
CIRCLE
  8
_0-a_極細3
  6
CONTINUOUS
 62
    7
 10
241.22231339588711
 20
273.76819600997965
 40
0.884938271604915
  0
CIRCLE
  8
_0-a_極細3
  6
CONTINUOUS
 62
    7
 10
255.16009117366525
 20
284.57708489886829
 40
0.884938271604915
  0
CIRCLE
  8
_0-a_極細3
  6
CONTINUOUS
 62
    7
 10
265.11564672922032
 20
270.92375156553499
 40
0.884938271604915
  0
CIRCLE
  8
_0-a_極細3
  6
CONTINUOUS
 62
    7
 10
327.99564672922008
 20
299.54597378775691
 40
0.884938271604915
  0
CIRCLE
  8
_0-a_極細3
  6
CONTINUOUS
 62
    7
 10
310.07564672922013
 20
290.72819600997934
 40
0.884938271604915
  0
CIRCLE
  8
_0-a_極細3
  6
CONTINUOUS
 62
    7
 10
320.03120228477576
 20
286.74597378775707
 40
0.884938271604915
  0
CIRCLE
  8
_0-a_極細3
  6
CONTINUOUS
 62
    7
 10
314.34231339588678
 20
271.95486267664569
 40
0.884938271604915
  0
CIRCLE
  8
_0-a_極細3
  6
CONTINUOUS
 62
    7
 10
346.20009117366442
 20
273.66152934331308
 40
0.884938271604915
  0
CIRCLE
  8
_0-a_極細3
  6
CONTINUOUS
 62
    7
 10
366.96453561810881
 20
278.78152934331274
 40
0.884938271604915
  0
CIRCLE
  8
_0-a_極細3
  6
CONTINUOUS
 62
    7
 10
388.86675784033059
 20
254.88819600997999
 40
0.884938271604915
  0
CIRCLE
  8
_0-a_極細3
  6
CONTINUOUS
 62
    7
 10
377.77342450699734
 20
230.99486267664656
 40
0.884938271604915
  0
CIRCLE
  8
_0-a_極細3
  6
CONTINUOUS
 62
    7
 10
351.10675784033106
 20
300.77856638034984
 40
0.884938271604915
  0
CIRCLE
  8
_0-a_極細3
  6
CONTINUOUS
 62
    7
 10
374.71564672921954
 20
355.39189971368228
 40
0.884938271604915
  0
CIRCLE
  8
_0-a_極細3
  6
CONTINUOUS
 62
    7
 10
398.89342450699701
 20
339.46301082479386
 40
0.884938271604915
  0
CIRCLE
  8
_0-a_極細3
  6
CONTINUOUS
 62
    7
 10
399.74675784033025
 20
310.73412193590525
 40
0.884938271604915
  0
CIRCLE
  8
_0-a_極細3
  6
CONTINUOUS
 62
    7
 10
343.35564672921987
 20
358.30745526923829
 40
0.884938271604915
  0
CIRCLE
  8
_0-a_極細3
  6
CONTINUOUS
 62
    7
 10
310.8934245069978
 20
393.48177625689186
 40
2.9208503562902273
  0
CIRCLE
  8
_0-a_極細3
  6
CONTINUOUS
 62
    7
 10
228.07403298470194
 20
404.56915909640861
 40
2.9208503562902273
  0
CIRCLE
  8
_0-a_極細3
  6
CONTINUOUS
 62
    7
 10
306.37786895144245
 20
340.78844292355984
 40
2.9208503562902273
  0
CIRCLE
  8
_0-a_極細3
  6
CONTINUOUS
 62
    7
 10
270.53786895144208
 20
357.00177625689298
 40
2.9208503562902273
  0
CIRCLE
  8
_0-a_極細3
  6
CONTINUOUS
 62
    7
 10
239.17786895144241
 20
296.20177625689291
 40
2.9208503562902273
  0
CIRCLE
  8
_0-a_極細3
  6
CONTINUOUS
 62
    7
 10
324.29786895144161
 20
275.72177625689324
 40
2.9208503562902273
  0
CIRCLE
  8
_0-a_極細3
  6
CONTINUOUS
 62
    7
 10
381.86231339588551
 20
269.96177625689347
 40
2.9208503562902273
  0
CIRCLE
  8
_0-a_極細3
  6
CONTINUOUS
 62
    7
 10
389.542313395885
 20
240.09510959022782
 40
2.9208503562902273
  0
CIRCLE
  8
_0-a_極細3
  6
CONTINUOUS
 62
    7
 10
195.75870571897462
 20
405.99733181244778
 40
2.9208503562902273
  0
LINE
  8
_0-a_極細3
  6
CONTINUOUS
 62
    7
 10
417.58637469875634
 20
381.9405171210999
 11
418.91970803209006
 21
381.9405171210999
  0
LINE
  8
_0-a_極細3
  6
CONTINUOUS
 62
    7
 10
418.91970803209006
 20
381.9405171210999
 11
418.91970803209006
 21
219.95395664945431
  0
CIRCLE
  8
_0-a_極細3
  6
CONTINUOUS
 62
    7
 10
407.89981339588348
 20
356.36177625689345
 40
2.9208503562902273
  0
CIRCLE
  8
_0-a_極細3
  6
CONTINUOUS
 62
    7
 10
406.31268376625599
 20
268.82597378775722
 40
0.884938271604915
  0
CIRCLE
  8
_0-a_極細3
  6
CONTINUOUS
 62
    7
 10
408.44601709959034
 20
232.57626013468575
 40
0.884938271604915
  0
CIRCLE
  8
_0-a_極細3
  6
CONTINUOUS
 62
    7
 10
388.65342450699018
 20
325.78399847911544
 40
2.9208503562902273
  0
LINE
  8
_0-a_極細3
  6
CONTINUOUS
 62
    7
 10
325.58637469875634
 20
443.27385045443418
 11
325.58637469875634
 21
424.6071837877671
  0
LINE
  8
_0-a_極細3
  6
CONTINUOUS
 62
    7
 10
325.58637469875634
 20
443.27385045443418
 11
182.90197926657288
 21
443.27385045443418
  0
LINE
  8
_0-a_極細3
  6
CONTINUOUS
 62
    7
 10
338.91970803209006
 20
424.6071837877671
 11
182.90197926657288
 21
424.6071837877671
  0
LINE
  8
_0-a_極細3
  6
CONTINUOUS
 62
    7
 10
338.91970803209006
 20
443.27385045443418
 11
325.58637469875634
 21
443.27385045443418
  0
LINE
  8
_0-a_極細3
  6
CONTINUOUS
 62
    7
 10
338.91970803209006
 20
441.94051712109979
 11
338.91970803209006
 21
443.27385045443418
  0
LINE
  8
_0-a_極細3
  6
CONTINUOUS
 62
    7
 10
338.60276362191439
 20
424.6071837877671
 11
338.91970803208926
 21
424.92412819794163
  0
LINE
  8
_0-a_極細3
  6
CONTINUOUS
 62
    7
 10
331.81453852252389
 20
424.6071837877671
 11
338.91970803209006
 21
431.71235329733213
  0
LINE
  8
_0-a_極細3
  6
CONTINUOUS
 62
    7
 10
325.58637469875634
 20
425.16724506338994
 11
338.91970803209006
 21
438.50057839672343
  0
LINE
  8
_0-a_極細3
  6
CONTINUOUS
 62
    7
 10
325.58637469875634
 20
431.95547016278124
 11
336.90475499040826
 21
443.27385045443418
  0
LINE
  8
_0-a_極細3
  6
CONTINUOUS
 62
    7
 10
325.58637469875634
 20
438.74369526217242
 11
330.1165298910181
 21
443.27385045443418
  0
LINE
  8
_0-a_極細3
  6
CONTINUOUS
 62
    7
 10
338.91970803209006
 20
439.6243034588199
 11
335.27016103647645
 21
443.27385045443418
  0
LINE
  8
_0-a_極細3
  6
CONTINUOUS
 62
    7
 10
338.91970803209006
 20
432.83607835942871
 11
328.48193593708515
 21
443.27385045443418
  0
LINE
  8
_0-a_極細3
  6
CONTINUOUS
 62
    7
 10
325.58637469875634
 20
439.38118659337169
 11
338.91970803209006
 21
426.0478532600381
  0
LINE
  8
_0-a_極細3
  6
CONTINUOUS
 62
    7
 10
325.58637469875634
 20
432.59296149398051
 11
333.57215240496953
 21
424.6071837877671
  0
LINE
  8
_0-a_極細3
  6
CONTINUOUS
 62
    7
 10
325.58637469875634
 20
425.8047363945899
 11
326.78392730557903
 21
424.6071837877671
  0
LINE
  8
_0-a_極細3
  6
CONTINUOUS
 62
    7
 10
311.44986321454701
 20
424.60718377796343
 11
325.58637469875634
 21
438.74369526217242
  0
LINE
  8
_0-a_極細3
  6
CONTINUOUS
 62
    7
 10
277.5087376940553
 20
424.60718375442571
 11
296.17540439406366
 21
443.27385045443339
  0
LINE
  8
_0-a_極細3
  6
CONTINUOUS
 62
    7
 10
243.56761217356279
 20
424.6071837308873
 11
262.23427889710888
 21
443.27385045443418
  0
LINE
  8
_0-a_極細3
  6
CONTINUOUS
 62
    7
 10
209.62648665306983
 20
424.60718370734878
 11
228.29315340015455
 21
443.27385045443418
  0
LINE
  8
_0-a_極細3
  6
CONTINUOUS
 62
    7
 10
182.90197926657288
 20
431.8238018178057
 11
194.35202790320045
 21
443.27385045443339
  0
LINE
  8
_0-a_極細3
  6
DASHED2
 62
    7
 10
294.47930045430132
 20
424.60718376619388
 11
313.14596714254094
 21
443.27385045443418
  0
LINE
  8
_0-a_極細3
  6
DASHED2
 62
    7
 10
260.53817493380848
 20
424.60718374265616
 11
279.2048416455865
 21
443.27385045443418
  0
LINE
  8
_0-a_極細3
  6
DASHED2
 62
    7
 10
226.59704941331665
 20
424.60718371911844
 11
245.2637161486316
 21
443.27385045443418
  0
LINE
  8
_0-a_極細3
  6
DASHED2
 62
    7
 10
192.65592389282415
 20
424.60718369558072
 11
211.32259065167773
 21
443.27385045443418
  0
ARC
  8
_0-b_細線3
  6
CONTINUOUS
 62
    7
 10
346.91970803208994
 20
389.9405171210999
 40
8
 50
179.99999999999983
 51
269.99999999999977
  0
LINE
  8
_0-b_細線3
  6
CONTINUOUS
 62
    7
 10
338.91970803209006
 20
389.9405171210999
 11
338.91970803209006
 21
441.94051712109979
  0
LINE
  8
_0-b_細線3
  6
CONTINUOUS
 62
    7
 10
346.91970803208994
 20
381.9405171210999
 11
417.58637469875634
 21
381.9405171210999
  0
LINE
  8
_0-b_細線3
  6
CONTINUOUS
 62
    7
 10
418.91970803209006
 20
383.27385045443418
 11
417.58637469875634
 21
381.9405171210999
  0
LINE
  8
_0-b_細線3
  6
CONTINUOUS
 62
    7
 10
418.91970803209006
 20
388.60718378776699
 11
418.91970803209006
 21
383.27385045443418
  0
LINE
  8
_0-b_細線3
  6
CONTINUOUS
 62
    7
 10
417.58637469875634
 20
389.9405171210999
 11
418.91970803209006
 21
388.60718378776699
  0
LINE
  8
_0-b_細線3
  6
CONTINUOUS
 62
    7
 10
346.91970803208994
 20
389.9405171210999
 11
417.58637469875634
 21
389.9405171210999
  0
LINE
  8
_0-b_細線3
  6
CONTINUOUS
 62
    7
 10
340.25304136542286
 20
443.27385045443418
 11
338.91970803209006
 21
441.94051712109979
  0
LINE
  8
_0-b_細線3
  6
CONTINUOUS
 62
    7
 10
345.58637469875634
 20
443.27385045443418
 11
340.25304136542286
 21
443.27385045443418
  0
LINE
  8
_0-b_細線3
  6
CONTINUOUS
 62
    7
 10
346.91970803208994
 20
441.94051712109979
 11
345.58637469875634
 21
443.27385045443418
  0
LINE
  8
_0-b_細線3
  6
CONTINUOUS
 62
    7
 10
346.91970803208994
 20
389.9405171210999
 11
346.91970803208994
 21
441.94051712109979
  0
CIRCLE
  8
_0-a_極細3
  6
CONTINUOUS
 62
    7
 10
291.20749858107229
 20
411.89955403466786
 40
2.9208503562902273
  0
LINE
  8
_0-a_極細3
  6
CONTINUOUS
 62
    7
 10
269.09559887931368
 20
301.75123898110519
 11
260.88711543949717
 21
324.30386187996749
  0
LINE
  8
_0-a_極細3
  6
CONTINUOUS
 62
    7
 10
349.0860671573879
 20
356.40565499876152
 11
357.29455059720328
 21
333.85303209989911
  0
LINE
  8
_0-a_極細3
  6
CONTINUOUS
 62
    7
 10
260.88711543949717
 20
324.30386187996749
 11
349.0860671573879
 21
356.40565499876152
  0
LINE
  8
_0-a_極細3
  6
CONTINUOUS
 62
    7
 10
269.09559887931368
 20
301.75123898110519
 11
357.29455059720328
 21
333.85303209989911
  0
LINE
  8
_0-a_極細3
  6
CENTER1
 62
    7
 10
257.06266373221683
 20
310.14174236648887
 11
359.51229650432197
 21
347.43035914254483
  0
LINE
  8
_0-a_極細3
  6
CONTINUOUS
 62
    7
 10
298.91970803209006
 20
261.9405171210999
 11
298.91970803209006
 21
332.47741527840526
  0
LINE
  8
_0-a_極細3
  6
CONTINUOUS
 62
    7
 10
298.91970803209006
 20
332.47741527840526
 11
274.91970803208983
 21
332.47741527840526
  0
LINE
  8
_0-a_極細3
  6
CONTINUOUS
 62
    7
 10
274.91970803208983
 20
332.47741527840526
 11
274.91970803208983
 21
261.9405171210999
  0
LINE
  8
_0-a_極細3
  6
CENTER1
 62
    7
 10
286.91970803208994
 20
248.69773266597508
 11
286.91970803208994
 21
339.31856754178045
  0
LINE
  8
_0-d_寸法3
  6
CONTINUOUS
 62
    7
 10
322.91970803209006
 20
381.9405171210999
 11
139.29594259999135
 21
381.94051712109967
  0
LINE
  8
_0-d_寸法3
  6
CONTINUOUS
 62
    7
 10
147.29594259999135
 20
381.94051712109967
 11
151.43704732163155
 21
366.48570390047456
  0
LINE
  8
_0-d_寸法3
  6
CONTINUOUS
 62
    7
 10
147.29594259999135
 20
381.94051712109967
 11
143.15483787835092
 21
366.48570390047462
  0
LINE
  8
_0-d_寸法3
  6
CONTINUOUS
 62
    7
 10
319.7197080320899
 20
320.6071837877663
 11
139.29594259999135
 21
320.60718378776619
  0
LINE
  8
_0-d_寸法3
  6
CONTINUOUS
 62
    7
 10
147.29594259999135
 20
320.60718378776619
 11
143.15483787835092
 21
336.06199700839124
  0
LINE
  8
_0-d_寸法3
  6
CONTINUOUS
 62
    7
 10
147.29594259999135
 20
320.60718378776619
 11
151.43704732163155
 21
336.0619970083913
  0
LINE
  8
_0-d_寸法3
  6
CONTINUOUS
 62
    7
 10
147.29594259999135
 20
381.94051712109967
 11
147.29594259999135
 21
320.60718378776619
  0
TEXT
  8
_0-d_寸法3
 62
    7
 10
147.29594259999135
 20
339.27385045443293
 40
24
 41
1
 50
90
  1
23
  0
LINE
  8
_0-d_寸法3
  6
CONTINUOUS
 62
    7
 10
322.91970803209006
 20
443.27385045443339
 11
139.29594259999135
 21
443.27385045443327
  0
LINE
  8
_0-d_寸法3
  6
CONTINUOUS
 62
    7
 10
147.29594259999135
 20
443.27385045443327
 11
151.43704732163155
 21
427.81903723380816
  0
LINE
  8
_0-d_寸法3
  6
CONTINUOUS
 62
    7
 10
147.29594259999135
 20
443.27385045443327
 11
143.15483787835092
 21
427.81903723380822
  0
LINE
  8
_0-d_寸法3
  6
CONTINUOUS
 62
    7
 10
319.7197080320899
 20
381.9405171210999
 11
139.29594259999135
 21
381.94051712109967
  0
LINE
  8
_0-d_寸法3
  6
CONTINUOUS
 62
    7
 10
147.29594259999135
 20
381.94051712109967
 11
143.15483787835092
 21
397.39533034172473
  0
LINE
  8
_0-d_寸法3
  6
CONTINUOUS
 62
    7
 10
147.29594259999135
 20
381.94051712109967
 11
151.43704732163155
 21
397.39533034172479
  0
LINE
  8
_0-d_寸法3
  6
CONTINUOUS
 62
    7
 10
147.29594259999135
 20
443.27385045443327
 11
147.29594259999135
 21
381.94051712109967
  0
TEXT
  8
_0-d_寸法3
 62
    7
 10
147.29594259999135
 20
400.60718378776642
 40
24
 41
1
 50
90
  1
23
  0
LINE
  8
_0-a_極細3
  6
CENTER1
 62
    7
 10
818.91970803209006
 20
364.04318994438131
 11
818.91970803209006
 21
465.56318994439084
  0
ARC
  8
_0-b_細線3
  6
CONTINUOUS
 62
    7
 10
942.38637470459366
 20
437.9399331184153
 40
2.6666666666666674
 50
89.999999999999915
 51
179.99999999999983
  0
ARC
  8
_0-b_細線3
  6
CONTINUOUS
 62
    7
 10
943.6342392148008
 20
443.27326645174799
 40
2.6666666666666674
 50
269.99999999999977
 51
330.00000000000847
  0
ARC
  8
_0-b_細線3
  6
CONTINUOUS
 62
    7
 10
948.25304136831687
 20
440.60659978508215
 40
2.6666666666666674
 50
89.999999999999915
 51
149.99999999999662
  0
LINE
  8
_0-b_細線3
  6
CONTINUOUS
 62
    7
 10
942.38637470459366
 20
440.60659978508215
 11
943.6342392148008
 21
440.60659978508215
  0
ARC
  8
_0-b_細線3
  6
CONTINUOUS
 62
    7
 10
967.4530413653747
 20
437.9399331184153
 40
2.6666666666666674
 50
0
 51
89.999999999999915
  0
ARC
  8
_0-b_細線3
  6
CONTINUOUS
 62
    7
 10
966.20517685516847
 20
443.27326645174799
 40
2.6666666666666674
 50
209.99999999998838
 51
269.99999999999977
  0
ARC
  8
_0-b_細線3
  6
CONTINUOUS
 62
    7
 10
961.58637470165149
 20
440.60659978508215
 40
2.6666666666666674
 50
29.999999999996042
 51
89.999999999999929
  0
LINE
  8
_0-b_細線3
  6
CONTINUOUS
 62
    7
 10
967.4530413653747
 20
440.60659978508215
 11
966.20517685516847
 21
440.60659978508215
  0
ARC
  8
_0-b_細線3
  6
CONTINUOUS
 62
    7
 10
941.05304137126086
 20
434.20659978508229
 40
1.3333333333333337
 50
179.99999999999983
 51
269.99999999999977
  0
LINE
  8
_0-b_細線3
  6
CONTINUOUS
 62
    7
 10
939.71970803792715
 20
437.9399331184153
 11
939.71970803792715
 21
434.20659978508229
  0
ARC
  8
_0-b_細線3
  6
CONTINUOUS
 62
    7
 10
968.78637469870841
 20
434.20659978508229
 40
1.3333333333333337
 50
269.99999999999977
 51
359.99999999999966
  0
LINE
  8
_0-b_細線3
  6
CONTINUOUS
 62
    7
 10
970.1197080320419
 20
437.9399331184153
 11
970.1197080320419
 21
434.20659978508229
  0
ARC
  8
_0-b_細線3
  6
CONTINUOUS
 62
    7
 10
947.71970803792738
 20
430.20659978508252
 40
2.6666666666666674
 50
0
 51
89.999999999999915
  0
LINE
  8
_0-b_細線3
  6
CONTINUOUS
 62
    7
 10
947.71970803792738
 20
432.87326645174835
 11
941.05304137126086
 21
432.87326645174835
  0
ARC
  8
_0-b_細線3
  6
CONTINUOUS
 62
    7
 10
962.11970803792724
 20
430.20659978508252
 40
2.6666666666666674
 50
89.999999999999915
 51
179.99999999999983
  0
LINE
  8
_0-b_細線3
  6
CONTINUOUS
 62
    7
 10
962.11970803204122
 20
432.87326645174835
 11
968.78637469870841
 21
432.87326645174835
  0
LINE
  8
_0-b_細線3
  6
CONTINUOUS
 62
    7
 10
961.58637470165149
 20
443.27326645174799
 11
948.25304136831687
 21
443.27326645174799
  0
LINE
  8
_0-b_細線3
  6
CONTINUOUS
 62
    7
 10
950.38637470165145
 20
389.93993311841541
 11
950.38637470459389
 21
430.20659978508252
  0
LINE
  8
_0-b_細線3
  6
CONTINUOUS
 62
    7
 10
959.45304136831783
 20
389.93993311841541
 11
959.45304137126072
 21
430.20659978508252
  0
LINE
  8
_0-b_細線3
  6
CONTINUOUS
 62
    7
 10
959.45304136831783
 20
389.93993311841541
 11
950.38637470165145
 21
389.93993311841541
  0
ARC
  8
_0-b_細線3
  6
CONTINUOUS
 62
    7
 10
897.05304137029611
 20
437.9399331184153
 40
2.6666666666666674
 50
89.999999999999915
 51
179.99999999999983
  0
ARC
  8
_0-b_細線3
  6
CONTINUOUS
 62
    7
 10
898.30090588050257
 20
443.27326645174799
 40
2.6666666666666674
 50
269.99999999999977
 51
330.00000000000358
  0
ARC
  8
_0-b_細線3
  6
CONTINUOUS
 62
    7
 10
902.91970803401955
 20
440.60659978508215
 40
2.6666666666666674
 50
89.999999999999915
 51
150.00000000001128
  0
LINE
  8
_0-b_細線3
  6
CONTINUOUS
 62
    7
 10
897.05304137029611
 20
440.60659978508215
 11
898.30090588050257
 21
440.60659978508215
  0
ARC
  8
_0-b_細線3
  6
CONTINUOUS
 62
    7
 10
922.11970803107602
 20
437.9399331184153
 40
2.6666666666666674
 50
0
 51
89.999999999999915
  0
ARC
  8
_0-b_細線3
  6
CONTINUOUS
 62
    7
 10
920.87184352087024
 20
443.27326645174799
 40
2.6666666666666674
 50
209.99999999998104
 51
269.99999999999977
  0
ARC
  8
_0-b_細線3
  6
CONTINUOUS
 62
    7
 10
916.25304136735281
 20
440.60659978508215
 40
2.6666666666666674
 50
29.999999999998483
 51
89.999999999999929
  0
LINE
  8
_0-b_細線3
  6
CONTINUOUS
 62
    7
 10
922.11970803107602
 20
440.60659978508215
 11
920.87184352087024
 21
440.60659978508215
  0
ARC
  8
_0-b_細線3
  6
CONTINUOUS
 62
    7
 10
895.71970803696263
 20
434.20659978508229
 40
1.3333333333333337
 50
179.99999999999983
 51
269.99999999999977
  0
LINE
  8
_0-b_細線3
  6
CONTINUOUS
 62
    7
 10
894.38637470362892
 20
437.9399331184153
 11
894.38637470362892
 21
434.20659978508229
  0
ARC
  8
_0-b_細線3
  6
CONTINUOUS
 62
    7
 10
923.45304136440973
 20
434.20659978508229
 40
1.3333333333333337
 50
269.99999999999977
 51
359.99999999999966
  0
LINE
  8
_0-b_細線3
  6
CONTINUOUS
 62
    7
 10
924.78637469774344
 20
437.9399331184153
 11
924.78637469774344
 21
434.20659978508229
  0
ARC
  8
_0-b_細線3
  6
CONTINUOUS
 62
    7
 10
902.38637470362892
 20
430.20659978508252
 40
2.6666666666666674
 50
0
 51
89.999999999999915
  0
LINE
  8
_0-b_細線3
  6
CONTINUOUS
 62
    7
 10
902.38637470362892
 20
432.87326645174835
 11
895.71970803696263
 21
432.87326645174835
  0
ARC
  8
_0-b_細線3
  6
CONTINUOUS
 62
    7
 10
916.78637470362969
 20
430.20659978508252
 40
2.6666666666666674
 50
89.999999999999915
 51
179.99999999999983
  0
LINE
  8
_0-b_細線3
  6
CONTINUOUS
 62
    7
 10
916.78637469774344
 20
432.87326645174835
 11
923.45304136440973
 21
432.87326645174835
  0
LINE
  8
_0-b_細線3
  6
CONTINUOUS
 62
    7
 10
916.25304136735281
 20
443.27326645174799
 11
902.91970803401955
 21
443.27326645174799
  0
LINE
  8
_0-b_細線3
  6
CONTINUOUS
 62
    7
 10
905.05304136735322
 20
389.93993311841541
 11
905.05304137029611
 21
430.20659978508252
  0
LINE
  8
_0-b_細線3
  6
CONTINUOUS
 62
    7
 10
914.1197080340196
 20
389.93993311841541
 11
914.11970803696249
 21
430.20659978508252
  0
LINE
  8
_0-b_細線3
  6
CONTINUOUS
 62
    7
 10
914.1197080340196
 20
389.93993311841541
 11
905.05304136735322
 21
389.93993311841541
  0
ARC
  8
_0-b_細線3
  6
CONTINUOUS
 62
    7
 10
851.71970803599766
 20
437.9399331184153
 40
2.6666666666666674
 50
89.999999999999915
 51
179.99999999999983
  0
ARC
  8
_0-b_細線3
  6
CONTINUOUS
 62
    7
 10
852.96757254620456
 20
443.27326645174799
 40
2.6666666666666674
 50
269.99999999999977
 51
330.00000000001091
  0
ARC
  8
_0-b_細線3
  6
CONTINUOUS
 62
    7
 10
857.586374699722
 20
440.60659978508215
 40
2.6666666666666674
 50
89.999999999999915
 51
150.00000000000884
  0
LINE
  8
_0-b_細線3
  6
CONTINUOUS
 62
    7
 10
851.71970803599766
 20
440.60659978508215
 11
852.96757254620456
 21
440.60659978508215
  0
ARC
  8
_0-b_細線3
  6
CONTINUOUS
 62
    7
 10
876.78637469677869
 20
437.9399331184153
 40
2.6666666666666674
 50
0
 51
89.999999999999915
  0
ARC
  8
_0-b_細線3
  6
CONTINUOUS
 62
    7
 10
875.53851018657156
 20
443.27326645174799
 40
2.6666666666666674
 50
209.99999999999082
 51
269.99999999999977
  0
ARC
  8
_0-b_細線3
  6
CONTINUOUS
 62
    7
 10
870.91970803305458
 20
440.60659978508215
 40
2.6666666666666674
 50
29.999999999993598
 51
89.999999999985349
  0
LINE
  8
_0-b_細線3
  6
CONTINUOUS
 62
    7
 10
876.78637469677869
 20
440.60659978508215
 11
875.53851018657156
 21
440.60659978508215
  0
ARC
  8
_0-b_細線3
  6
CONTINUOUS
 62
    7
 10
850.3863747026644
 20
434.20659978508229
 40
1.3333333333333337
 50
179.99999999999983
 51
269.99999999999977
  0
LINE
  8
_0-b_細線3
  6
CONTINUOUS
 62
    7
 10
849.05304136933114
 20
437.9399331184153
 11
849.05304136933114
 21
434.20659978508229
  0
ARC
  8
_0-b_細線3
  6
CONTINUOUS
 62
    7
 10
878.11970803011218
 20
434.20659978508229
 40
1.3333333333333337
 50
269.99999999999977
 51
359.99999999999966
  0
LINE
  8
_0-b_細線3
  6
CONTINUOUS
 62
    7
 10
879.45304136344521
 20
437.9399331184153
 11
879.45304136344521
 21
434.20659978508229
  0
ARC
  8
_0-b_細線3
  6
CONTINUOUS
 62
    7
 10
857.05304136933137
 20
430.20659978508252
 40
2.6666666666666674
 50
0
 51
89.999999999999915
  0
LINE
  8
_0-b_細線3
  6
CONTINUOUS
 62
    7
 10
857.05304136933137
 20
432.87326645174835
 11
850.3863747026644
 21
432.87326645174835
  0
ARC
  8
_0-b_細線3
  6
CONTINUOUS
 62
    7
 10
871.45304136933123
 20
430.20659978508252
 40
2.6666666666666674
 50
89.999999999999915
 51
179.99999999999983
  0
LINE
  8
_0-b_細線3
  6
CONTINUOUS
 62
    7
 10
871.45304136344521
 20
432.87326645174835
 11
878.11970803011218
 21
432.87326645174835
  0
LINE
  8
_0-b_細線3
  6
CONTINUOUS
 62
    7
 10
870.91970803305458
 20
443.27326645174799
 11
857.586374699722
 21
443.27326645174799
  0
LINE
  8
_0-b_細線3
  6
CONTINUOUS
 62
    7
 10
859.71970803305453
 20
389.93993311841541
 11
859.71970803599788
 21
430.20659978508252
  0
LINE
  8
_0-b_細線3
  6
CONTINUOUS
 62
    7
 10
868.78637469972159
 20
389.93993311841541
 11
868.78637470266472
 21
430.20659978508252
  0
LINE
  8
_0-b_細線3
  6
CONTINUOUS
 62
    7
 10
868.78637469972159
 20
389.93993311841541
 11
859.71970803305453
 21
389.93993311841541
  0
ARC
  8
_0-b_細線3
  6
CONTINUOUS
 62
    7
 10
761.05304136740187
 20
437.9399331184153
 40
2.6666666666666674
 50
89.999999999999915
 51
179.99999999999983
  0
ARC
  8
_0-b_細線3
  6
CONTINUOUS
 62
    7
 10
762.30090587760901
 20
443.27326645174799
 40
2.6666666666666674
 50
269.99999999999977
 51
330.00000000000358
  0
ARC
  8
_0-b_細線3
  6
CONTINUOUS
 62
    7
 10
766.91970803112599
 20
440.60659978508215
 40
2.6666666666666674
 50
89.999999999999915
 51
150.00000000001128
  0
LINE
  8
_0-b_細線3
  6
CONTINUOUS
 62
    7
 10
761.05304136740187
 20
440.60659978508215
 11
762.30090587760901
 21
440.60659978508215
  0
ARC
  8
_0-b_細線3
  6
CONTINUOUS
 62
    7
 10
786.11970802818246
 20
437.9399331184153
 40
2.6666666666666674
 50
0
 51
89.999999999999915
  0
ARC
  8
_0-b_細線3
  6
CONTINUOUS
 62
    7
 10
784.87184351797623
 20
443.27326645174799
 40
2.6666666666666674
 50
209.99999999998593
 51
269.99999999999977
  0
ARC
  8
_0-b_細線3
  6
CONTINUOUS
 62
    7
 10
780.25304136445857
 20
440.60659978508215
 40
2.6666666666666674
 50
29.999999999991157
 51
89.999999999975572
  0
LINE
  8
_0-b_細線3
  6
CONTINUOUS
 62
    7
 10
786.11970802818246
 20
440.60659978508215
 11
784.87184351797623
 21
440.60659978508215
  0
ARC
  8
_0-b_細線3
  6
CONTINUOUS
 62
    7
 10
759.71970803406816
 20
434.20659978508229
 40
1.3333333333333337
 50
179.99999999999983
 51
269.99999999999977
  0
LINE
  8
_0-b_細線3
  6
CONTINUOUS
 62
    7
 10
758.38637470073536
 20
437.9399331184153
 11
758.38637470073536
 21
434.20659978508229
  0
ARC
  8
_0-b_細線3
  6
CONTINUOUS
 62
    7
 10
787.45304136151617
 20
434.20659978508229
 40
1.3333333333333337
 50
269.99999999999977
 51
359.99999999999966
  0
LINE
  8
_0-b_細線3
  6
CONTINUOUS
 62
    7
 10
788.78637469484988
 20
437.9399331184153
 11
788.78637469484988
 21
434.20659978508229
  0
ARC
  8
_0-b_細線3
  6
CONTINUOUS
 62
    7
 10
766.38637470073536
 20
430.20659978508252
 40
2.6666666666666674
 50
0
 51
89.999999999999915
  0
LINE
  8
_0-b_細線3
  6
CONTINUOUS
 62
    7
 10
766.38637470073536
 20
432.87326645174835
 11
759.71970803406816
 21
432.87326645174835
  0
ARC
  8
_0-b_細線3
  6
CONTINUOUS
 62
    7
 10
780.78637470073545
 20
430.20659978508252
 40
2.6666666666666674
 50
89.999999999999915
 51
179.99999999999983
  0
LINE
  8
_0-b_細線3
  6
CONTINUOUS
 62
    7
 10
780.7863746948492
 20
432.87326645174835
 11
787.45304136151617
 21
432.87326645174835
  0
LINE
  8
_0-b_細線3
  6
CONTINUOUS
 62
    7
 10
780.25304136445857
 20
443.27326645174799
 11
766.91970803112599
 21
443.27326645174799
  0
LINE
  8
_0-b_細線3
  6
CONTINUOUS
 62
    7
 10
769.0530413644592
 20
389.93993311841541
 11
769.05304136740187
 21
430.20659978508252
  0
LINE
  8
_0-b_細線3
  6
CONTINUOUS
 62
    7
 10
778.11970803112604
 20
389.93993311841541
 11
778.11970803406894
 21
430.20659978508252
  0
LINE
  8
_0-b_細線3
  6
CONTINUOUS
 62
    7
 10
778.11970803112604
 20
389.93993311841541
 11
769.0530413644592
 21
389.93993311841541
  0
ARC
  8
_0-b_細線3
  6
CONTINUOUS
 62
    7
 10
715.71970803310319
 20
437.9399331184153
 40
2.6666666666666674
 50
89.999999999999915
 51
179.99999999999983
  0
ARC
  8
_0-b_細線3
  6
CONTINUOUS
 62
    7
 10
716.96757254331033
 20
443.27326645174799
 40
2.6666666666666674
 50
269.99999999999977
 51
330.00000000000603
  0
ARC
  8
_0-b_細線3
  6
CONTINUOUS
 62
    7
 10
721.58637469682776
 20
440.60659978508215
 40
2.6666666666666674
 50
89.999999999999915
 51
150.00000000001373
  0
LINE
  8
_0-b_細線3
  6
CONTINUOUS
 62
    7
 10
715.71970803310319
 20
440.60659978508215
 11
716.96757254331033
 21
440.60659978508215
  0
ARC
  8
_0-b_細線3
  6
CONTINUOUS
 62
    7
 10
740.786374693884
 20
437.9399331184153
 40
2.6666666666666674
 50
0
 51
89.999999999999915
  0
ARC
  8
_0-b_細線3
  6
CONTINUOUS
 62
    7
 10
739.53851018367732
 20
443.27326645174799
 40
2.6666666666666674
 50
209.99999999998838
 51
269.99999999999977
  0
ARC
  8
_0-b_細線3
  6
CONTINUOUS
 62
    7
 10
734.91970803016102
 20
440.60659978508215
 40
2.6666666666666674
 50
30.000000000003368
 51
89.999999999999929
  0
LINE
  8
_0-b_細線3
  6
CONTINUOUS
 62
    7
 10
740.786374693884
 20
440.60659978508215
 11
739.53851018367732
 21
440.60659978508215
  0
ARC
  8
_0-b_細線3
  6
CONTINUOUS
 62
    7
 10
714.38637469977039
 20
434.20659978508229
 40
1.3333333333333337
 50
179.99999999999983
 51
269.99999999999977
  0
LINE
  8
_0-b_細線3
  6
CONTINUOUS
 62
    7
 10
713.05304136643667
 20
437.9399331184153
 11
713.05304136643667
 21
434.20659978508229
  0
ARC
  8
_0-b_細線3
  6
CONTINUOUS
 62
    7
 10
742.11970802721748
 20
434.20659978508229
 40
1.3333333333333337
 50
269.99999999999977
 51
359.99999999999966
  0
LINE
  8
_0-b_細線3
  6
CONTINUOUS
 62
    7
 10
743.45304136055051
 20
437.9399331184153
 11
743.45304136055051
 21
434.20659978508229
  0
ARC
  8
_0-b_細線3
  6
CONTINUOUS
 62
    7
 10
721.05304136643713
 20
430.20659978508252
 40
2.6666666666666674
 50
0
 51
89.999999999999915
  0
LINE
  8
_0-b_細線3
  6
CONTINUOUS
 62
    7
 10
721.05304136643713
 20
432.87326645174835
 11
714.38637469977039
 21
432.87326645174835
  0
ARC
  8
_0-b_細線3
  6
CONTINUOUS
 62
    7
 10
735.45304136643676
 20
430.20659978508252
 40
2.6666666666666674
 50
89.999999999999915
 51
179.99999999999983
  0
LINE
  8
_0-b_細線3
  6
CONTINUOUS
 62
    7
 10
735.45304136055097
 20
432.87326645174835
 11
742.11970802721748
 21
432.87326645174835
  0
LINE
  8
_0-b_細線3
  6
CONTINUOUS
 62
    7
 10
734.91970803016102
 20
443.27326645174799
 11
721.58637469682776
 21
443.27326645174799
  0
LINE
  8
_0-b_細線3
  6
CONTINUOUS
 62
    7
 10
723.71970803016029
 20
389.93993311841541
 11
723.71970803310364
 21
430.20659978508252
  0
LINE
  8
_0-b_細線3
  6
CONTINUOUS
 62
    7
 10
732.78637469682735
 20
389.93993311841541
 11
732.78637469977025
 21
430.20659978508252
  0
LINE
  8
_0-b_細線3
  6
CONTINUOUS
 62
    7
 10
732.78637469682735
 20
389.93993311841541
 11
723.71970803016029
 21
389.93993311841541
  0
ARC
  8
_0-b_細線3
  6
CONTINUOUS
 62
    7
 10
670.38637469880473
 20
437.9399331184153
 40
2.6666666666666674
 50
89.999999999999915
 51
179.99999999999983
  0
ARC
  8
_0-b_細線3
  6
CONTINUOUS
 62
    7
 10
671.63423920901164
 20
443.27326645174799
 40
2.6666666666666674
 50
269.99999999999977
 51
330.00000000001091
  0
ARC
  8
_0-b_細線3
  6
CONTINUOUS
 62
    7
 10
676.25304136252907
 20
440.60659978508215
 40
2.6666666666666674
 50
89.999999999999915
 51
150.00000000000884
  0
LINE
  8
_0-b_細線3
  6
CONTINUOUS
 62
    7
 10
670.38637469880473
 20
440.60659978508215
 11
671.63423920901164
 21
440.60659978508215
  0
ARC
  8
_0-b_細線3
  6
CONTINUOUS
 62
    7
 10
695.45304135958577
 20
437.9399331184153
 40
2.6666666666666674
 50
0
 51
89.999999999999915
  0
ARC
  8
_0-b_細線3
  6
CONTINUOUS
 62
    7
 10
694.20517684937977
 20
443.27326645174799
 40
2.6666666666666674
 50
209.99999999998104
 51
269.99999999999977
  0
ARC
  8
_0-b_細線3
  6
CONTINUOUS
 62
    7
 10
689.5863746958621
 20
440.60659978508215
 40
2.6666666666666674
 50
29.999999999996042
 51
89.999999999995111
  0
LINE
  8
_0-b_細線3
  6
CONTINUOUS
 62
    7
 10
695.45304135958577
 20
440.60659978508215
 11
694.20517684937977
 21
440.60659978508215
  0
ARC
  8
_0-b_細線3
  6
CONTINUOUS
 62
    7
 10
669.05304136547215
 20
434.20659978508229
 40
1.3333333333333337
 50
179.99999999999983
 51
269.99999999999977
  0
LINE
  8
_0-b_細線3
  6
CONTINUOUS
 62
    7
 10
667.71970803213844
 20
437.9399331184153
 11
667.71970803213844
 21
434.20659978508229
  0
ARC
  8
_0-b_細線3
  6
CONTINUOUS
 62
    7
 10
696.78637469291971
 20
434.20659978508229
 40
1.3333333333333337
 50
269.99999999999977
 51
359.99999999999966
  0
LINE
  8
_0-b_細線3
  6
CONTINUOUS
 62
    7
 10
698.11970802625342
 20
437.9399331184153
 11
698.11970802625342
 21
434.20659978508229
  0
ARC
  8
_0-b_細線3
  6
CONTINUOUS
 62
    7
 10
675.71970803213844
 20
430.20659978508252
 40
2.6666666666666674
 50
0
 51
89.999999999999915
  0
LINE
  8
_0-b_細線3
  6
CONTINUOUS
 62
    7
 10
675.71970803213844
 20
432.87326645174835
 11
669.05304136547215
 21
432.87326645174835
  0
ARC
  8
_0-b_細線3
  6
CONTINUOUS
 62
    7
 10
690.11970803213831
 20
430.20659978508252
 40
2.6666666666666674
 50
89.999999999999915
 51
179.99999999999983
  0
LINE
  8
_0-b_細線3
  6
CONTINUOUS
 62
    7
 10
690.11970802625228
 20
432.87326645174835
 11
696.78637469291971
 21
432.87326645174835
  0
LINE
  8
_0-b_細線3
  6
CONTINUOUS
 62
    7
 10
689.5863746958621
 20
443.27326645174799
 11
676.25304136252907
 21
443.27326645174799
  0
LINE
  8
_0-b_細線3
  6
CONTINUOUS
 62
    7
 10
678.38637469586274
 20
389.93993311841541
 11
678.38637469880496
 21
430.20659978508252
  0
LINE
  8
_0-b_細線3
  6
CONTINUOUS
 62
    7
 10
687.45304136252867
 20
389.93993311841541
 11
687.45304136547202
 21
430.20659978508252
  0
LINE
  8
_0-b_細線3
  6
CONTINUOUS
 62
    7
 10
687.45304136252867
 20
389.93993311841541
 11
678.38637469586274
 21
389.93993311841541
  0
ARC
  8
_0-b_細線3
  6
CONTINUOUS
 62
    7
 10
987.71970803838485
 20
437.9399331184153
 40
2.6666666666666674
 50
89.999999999999915
 51
179.99999999999983
  0
ARC
  8
_0-b_細線3
  6
CONTINUOUS
 62
    7
 10
988.96757254859108
 20
443.27326645174799
 40
2.6666666666666674
 50
269.99999999999977
 51
330.00000000001091
  0
ARC
  8
_0-b_細線3
  6
CONTINUOUS
 62
    7
 10
993.58637470210806
 20
440.60659978508215
 40
2.6666666666666674
 50
89.999999999999915
 51
150.00000000000395
  0
LINE
  8
_0-b_細線3
  6
CONTINUOUS
 62
    7
 10
987.71970803838485
 20
440.60659978508215
 11
988.96757254859108
 21
440.60659978508215
  0
ARC
  8
_0-b_細線3
  6
CONTINUOUS
 62
    7
 10
1012.7863746991659
 20
437.9399331184153
 40
2.6666666666666674
 50
0
 51
89.999999999999915
  0
ARC
  8
_0-b_細線3
  6
CONTINUOUS
 62
    7
 10
1011.5385101889588
 20
443.27326645174799
 40
2.6666666666666674
 50
209.99999999999568
 51
269.99999999999977
  0
ARC
  8
_0-b_細線3
  6
CONTINUOUS
 62
    7
 10
1006.9197080354418
 20
440.60659978508215
 40
2.6666666666666674
 50
29.999999999988713
 51
89.999999999999929
  0
LINE
  8
_0-b_細線3
  6
CONTINUOUS
 62
    7
 10
1012.7863746991659
 20
440.60659978508215
 11
1011.5385101889588
 21
440.60659978508215
  0
ARC
  8
_0-b_細線3
  6
CONTINUOUS
 62
    7
 10
986.38637470505228
 20
434.20659978508229
 40
1.3333333333333337
 50
179.99999999999983
 51
269.99999999999977
  0
LINE
  8
_0-b_細線3
  6
CONTINUOUS
 62
    7
 10
985.05304137171788
 20
437.9399331184153
 11
985.05304137171788
 21
434.20659978508229
  0
ARC
  8
_0-b_細線3
  6
CONTINUOUS
 62
    7
 10
1014.1197080324996
 20
434.20659978508229
 40
1.3333333333333337
 50
269.99999999999977
 51
359.99999999999966
  0
LINE
  8
_0-b_細線3
  6
CONTINUOUS
 62
    7
 10
1015.4530413658324
 20
437.9399331184153
 11
1015.4530413658324
 21
434.20659978508229
  0
ARC
  8
_0-b_細線3
  6
CONTINUOUS
 62
    7
 10
993.05304137171788
 20
430.20659978508252
 40
2.6666666666666674
 50
0
 51
89.999999999999915
  0
LINE
  8
_0-b_細線3
  6
CONTINUOUS
 62
    7
 10
993.05304137171788
 20
432.87326645174835
 11
986.38637470505228
 21
432.87326645174835
  0
ARC
  8
_0-b_細線3
  6
CONTINUOUS
 62
    7
 10
1007.4530413717184
 20
430.20659978508252
 40
2.6666666666666674
 50
89.999999999999915
 51
179.99999999999983
  0
LINE
  8
_0-b_細線3
  6
CONTINUOUS
 62
    7
 10
1007.4530413658324
 20
432.87326645174835
 11
1014.1197080324996
 21
432.87326645174835
  0
LINE
  8
_0-b_細線3
  6
CONTINUOUS
 62
    7
 10
1006.9197080354418
 20
443.27326645174799
 11
993.58637470210806
 21
443.27326645174799
  0
LINE
  8
_0-b_細線3
  6
CONTINUOUS
 62
    7
 10
995.71970803544264
 20
389.93993311841541
 11
995.71970803838508
 21
430.20659978508252
  0
LINE
  8
_0-b_細線3
  6
CONTINUOUS
 62
    7
 10
1004.786374702109
 20
389.93993311841541
 11
1004.7863747050524
 21
430.20659978508252
  0
LINE
  8
_0-b_細線3
  6
CONTINUOUS
 62
    7
 10
1004.786374702109
 20
389.93993311841541
 11
995.71970803544264
 21
389.93993311841541
  0
ARC
  8
_0-b_細線3
  6
CONTINUOUS
 62
    7
 10
1033.0530413726831
 20
437.9399331184153
 40
2.6666666666666674
 50
89.999999999999915
 51
179.99999999999983
  0
ARC
  8
_0-b_細線3
  6
CONTINUOUS
 62
    7
 10
1034.3009058828902
 20
443.27326645174799
 40
2.6666666666666674
 50
269.99999999999977
 51
330.00000000000358
  0
ARC
  8
_0-b_細線3
  6
CONTINUOUS
 62
    7
 10
1038.9197080364067
 20
440.60659978508215
 40
2.6666666666666674
 50
89.999999999999915
 51
150.00000000000639
  0
LINE
  8
_0-b_細線3
  6
CONTINUOUS
 62
    7
 10
1033.0530413726831
 20
440.60659978508215
 11
1034.3009058828902
 21
440.60659978508215
  0
ARC
  8
_0-b_細線3
  6
CONTINUOUS
 62
    7
 10
1058.1197080334641
 20
437.9399331184153
 40
2.6666666666666674
 50
0
 51
89.999999999999915
  0
ARC
  8
_0-b_細線3
  6
CONTINUOUS
 62
    7
 10
1056.871843523257
 20
443.27326645174799
 40
2.6666666666666674
 50
209.99999999999568
 51
269.99999999999977
  0
ARC
  8
_0-b_細線3
  6
CONTINUOUS
 62
    7
 10
1052.25304136974
 20
440.60659978508215
 40
2.6666666666666674
 50
29.999999999988713
 51
89.999999999990223
  0
LINE
  8
_0-b_細線3
  6
CONTINUOUS
 62
    7
 10
1058.1197080334641
 20
440.60659978508215
 11
1056.871843523257
 21
440.60659978508215
  0
ARC
  8
_0-b_細線3
  6
CONTINUOUS
 62
    7
 10
1031.7197080393498
 20
434.20659978508229
 40
1.3333333333333337
 50
179.99999999999983
 51
269.99999999999977
  0
LINE
  8
_0-b_細線3
  6
CONTINUOUS
 62
    7
 10
1030.3863747060166
 20
437.9399331184153
 11
1030.3863747060166
 21
434.20659978508229
  0
ARC
  8
_0-b_細線3
  6
CONTINUOUS
 62
    7
 10
1059.4530413667974
 20
434.20659978508229
 40
1.3333333333333337
 50
269.99999999999977
 51
359.99999999999966
  0
LINE
  8
_0-b_細線3
  6
CONTINUOUS
 62
    7
 10
1060.7863747001306
 20
437.9399331184153
 11
1060.7863747001306
 21
434.20659978508229
  0
ARC
  8
_0-b_細線3
  6
CONTINUOUS
 62
    7
 10
1038.3863747060166
 20
430.20659978508252
 40
2.6666666666666674
 50
0
 51
89.999999999999915
  0
LINE
  8
_0-b_細線3
  6
CONTINUOUS
 62
    7
 10
1038.3863747060166
 20
432.87326645174835
 11
1031.7197080393498
 21
432.87326645174835
  0
ARC
  8
_0-b_細線3
  6
CONTINUOUS
 62
    7
 10
1052.7863747060167
 20
430.20659978508252
 40
2.6666666666666674
 50
89.999999999999915
 51
179.99999999999983
  0
LINE
  8
_0-b_細線3
  6
CONTINUOUS
 62
    7
 10
1052.7863747001304
 20
432.87326645174835
 11
1059.4530413667974
 21
432.87326645174835
  0
LINE
  8
_0-b_細線3
  6
CONTINUOUS
 62
    7
 10
1052.25304136974
 20
443.27326645174799
 11
1038.9197080364067
 21
443.27326645174799
  0
LINE
  8
_0-b_細線3
  6
CONTINUOUS
 62
    7
 10
1041.05304136974
 20
389.93993311841541
 11
1041.0530413726831
 21
430.20659978508252
  0
LINE
  8
_0-b_細線3
  6
CONTINUOUS
 62
    7
 10
1050.1197080364072
 20
389.93993311841541
 11
1050.1197080393501
 21
430.20659978508252
  0
LINE
  8
_0-b_細線3
  6
CONTINUOUS
 62
    7
 10
1050.1197080364072
 20
389.93993311841541
 11
1041.05304136974
 21
389.93993311841541
  0
ARC
  8
_0-b_細線3
  6
CONTINUOUS
 62
    7
 10
625.05304136547124
 20
437.9399331184153
 40
2.6666666666666674
 50
89.999999999999915
 51
179.99999999999983
  0
ARC
  8
_0-b_細線3
  6
CONTINUOUS
 62
    7
 10
626.30090587567838
 20
443.27326645174799
 40
2.6666666666666674
 50
269.99999999999977
 51
330.00000000000847
  0
ARC
  8
_0-b_細線3
  6
CONTINUOUS
 62
    7
 10
630.91970802919536
 20
440.60659978508215
 40
2.6666666666666674
 50
89.999999999999915
 51
150.00000000000639
  0
LINE
  8
_0-b_細線3
  6
CONTINUOUS
 62
    7
 10
625.05304136547124
 20
440.60659978508215
 11
626.30090587567838
 21
440.60659978508215
  0
ARC
  8
_0-b_細線3
  6
CONTINUOUS
 62
    7
 10
650.11970802625228
 20
437.9399331184153
 40
2.6666666666666674
 50
0
 51
89.999999999999915
  0
ARC
  8
_0-b_細線3
  6
CONTINUOUS
 62
    7
 10
648.87184351604606
 20
443.27326645174799
 40
2.6666666666666674
 50
209.99999999998593
 51
269.99999999999977
  0
ARC
  8
_0-b_細線3
  6
CONTINUOUS
 62
    7
 10
644.25304136252817
 20
440.60659978508215
 40
2.6666666666666674
 50
29.999999999988713
 51
89.99999999998046
  0
LINE
  8
_0-b_細線3
  6
CONTINUOUS
 62
    7
 10
650.11970802625228
 20
440.60659978508215
 11
648.87184351604606
 21
440.60659978508215
  0
ARC
  8
_0-b_細線3
  6
CONTINUOUS
 62
    7
 10
623.71970803213844
 20
434.20659978508229
 40
1.3333333333333337
 50
179.99999999999983
 51
269.99999999999977
  0
LINE
  8
_0-b_細線3
  6
CONTINUOUS
 62
    7
 10
622.38637469880518
 20
437.9399331184153
 11
622.38637469880518
 21
434.20659978508229
  0
ARC
  8
_0-b_細線3
  6
CONTINUOUS
 62
    7
 10
651.453041359586
 20
434.20659978508229
 40
1.3333333333333337
 50
269.99999999999977
 51
359.99999999999966
  0
LINE
  8
_0-b_細線3
  6
CONTINUOUS
 62
    7
 10
652.78637469291948
 20
437.9399331184153
 11
652.78637469291948
 21
434.20659978508229
  0
ARC
  8
_0-b_細線3
  6
CONTINUOUS
 62
    7
 10
630.38637469880473
 20
430.20659978508252
 40
2.6666666666666674
 50
0
 51
89.999999999999915
  0
LINE
  8
_0-b_細線3
  6
CONTINUOUS
 62
    7
 10
630.38637469880473
 20
432.87326645174835
 11
623.71970803213844
 21
432.87326645174835
  0
ARC
  8
_0-b_細線3
  6
CONTINUOUS
 62
    7
 10
644.78637469880482
 20
430.20659978508252
 40
2.6666666666666674
 50
89.999999999999915
 51
179.99999999999983
  0
LINE
  8
_0-b_細線3
  6
CONTINUOUS
 62
    7
 10
644.78637469291857
 20
432.87326645174835
 11
651.453041359586
 21
432.87326645174835
  0
LINE
  8
_0-b_細線3
  6
CONTINUOUS
 62
    7
 10
644.25304136252817
 20
443.27326645174799
 11
630.91970802919536
 21
443.27326645174799
  0
LINE
  8
_0-b_細線3
  6
CONTINUOUS
 62
    7
 10
633.05304136252903
 20
389.93993311841541
 11
633.05304136547124
 21
430.20659978508252
  0
LINE
  8
_0-b_細線3
  6
CONTINUOUS
 62
    7
 10
642.11970802919541
 20
389.93993311841541
 11
642.11970803213876
 21
430.20659978508252
  0
LINE
  8
_0-b_細線3
  6
CONTINUOUS
 62
    7
 10
642.11970802919541
 20
389.93993311841541
 11
633.05304136252903
 21
389.93993311841541
  0
ARC
  8
_0-b_細線3
  6
CONTINUOUS
 62
    7
 10
1078.3863747064747
 20
437.9399331184153
 40
2.6666666666666674
 50
89.999999999999915
 51
179.99999999999983
  0
ARC
  8
_0-b_細線3
  6
CONTINUOUS
 62
    7
 10
1079.6342392166816
 20
443.27326645174799
 40
2.6666666666666674
 50
269.99999999999977
 51
330.00000000000603
  0
ARC
  8
_0-b_細線3
  6
CONTINUOUS
 62
    7
 10
1084.2530413701979
 20
440.60659978508215
 40
2.6666666666666674
 50
89.999999999999915
 51
150.00000000000151
  0
LINE
  8
_0-b_細線3
  6
CONTINUOUS
 62
    7
 10
1078.3863747064747
 20
440.60659978508215
 11
1079.6342392166816
 21
440.60659978508215
  0
ARC
  8
_0-b_細線3
  6
CONTINUOUS
 62
    7
 10
1103.4530413672553
 20
437.9399331184153
 40
2.6666666666666674
 50
0
 51
89.999999999999915
  0
ARC
  8
_0-b_細線3
  6
CONTINUOUS
 62
    7
 10
1102.2051768570486
 20
443.27326645174799
 40
2.6666666666666674
 50
209.99999999999082
 51
269.99999999999977
  0
ARC
  8
_0-b_細線3
  6
CONTINUOUS
 62
    7
 10
1097.5863747035316
 20
440.60659978508215
 40
2.6666666666666674
 50
29.999999999993598
 51
89.999999999985349
  0
LINE
  8
_0-b_細線3
  6
CONTINUOUS
 62
    7
 10
1103.4530413672553
 20
440.60659978508215
 11
1102.2051768570486
 21
440.60659978508215
  0
ARC
  8
_0-b_細線3
  6
CONTINUOUS
 62
    7
 10
1077.053041373141
 20
434.20659978508229
 40
1.3333333333333337
 50
179.99999999999983
 51
269.99999999999977
  0
LINE
  8
_0-b_細線3
  6
CONTINUOUS
 62
    7
 10
1075.7197080398082
 20
437.9399331184153
 11
1075.7197080398082
 21
434.20659978508229
  0
ARC
  8
_0-b_細線3
  6
CONTINUOUS
 62
    7
 10
1104.7863747005892
 20
434.20659978508229
 40
1.3333333333333337
 50
269.99999999999977
 51
359.99999999999966
  0
LINE
  8
_0-b_細線3
  6
CONTINUOUS
 62
    7
 10
1106.1197080339218
 20
437.9399331184153
 11
1106.1197080339218
 21
434.20659978508229
  0
ARC
  8
_0-b_細線3
  6
CONTINUOUS
 62
    7
 10
1083.719708039808
 20
430.20659978508252
 40
2.6666666666666674
 50
0
 51
89.999999999999915
  0
LINE
  8
_0-b_細線3
  6
CONTINUOUS
 62
    7
 10
1083.719708039808
 20
432.87326645174835
 11
1077.053041373141
 21
432.87326645174835
  0
ARC
  8
_0-b_細線3
  6
CONTINUOUS
 62
    7
 10
1098.1197080398083
 20
430.20659978508252
 40
2.6666666666666674
 50
89.999999999999915
 51
179.99999999999983
  0
LINE
  8
_0-b_細線3
  6
CONTINUOUS
 62
    7
 10
1098.1197080339218
 20
432.87326645174835
 11
1104.7863747005892
 21
432.87326645174835
  0
LINE
  8
_0-b_細線3
  6
CONTINUOUS
 62
    7
 10
1097.5863747035316
 20
443.27326645174799
 11
1084.2530413701979
 21
443.27326645174799
  0
LINE
  8
_0-b_細線3
  6
CONTINUOUS
 62
    7
 10
1086.3863747035316
 20
389.93993311841541
 11
1086.3863747064745
 21
430.20659978508252
  0
LINE
  8
_0-b_細線3
  6
CONTINUOUS
 62
    7
 10
1095.4530413701987
 20
389.93993311841541
 11
1095.4530413731418
 21
430.20659978508252
  0
LINE
  8
_0-b_細線3
  6
CONTINUOUS
 62
    7
 10
1095.4530413701987
 20
389.93993311841541
 11
1086.3863747035316
 21
389.93993311841541
  0
ARC
  8
_0-b_細線3
  6
CONTINUOUS
 62
    7
 10
1123.7197080402659
 20
437.9399331184153
 40
2.6666666666666674
 50
89.999999999999915
 51
179.99999999999983
  0
ARC
  8
_0-b_細線3
  6
CONTINUOUS
 62
    7
 10
1124.9675725504728
 20
443.27326645174799
 40
2.6666666666666674
 50
269.99999999999977
 51
330.00000000000603
  0
ARC
  8
_0-b_細線3
  6
CONTINUOUS
 62
    7
 10
1129.5863747039896
 20
440.60659978508215
 40
2.6666666666666674
 50
89.999999999999915
 51
150.00000000000639
  0
LINE
  8
_0-b_細線3
  6
CONTINUOUS
 62
    7
 10
1123.7197080402659
 20
440.60659978508215
 11
1124.9675725504728
 21
440.60659978508215
  0
ARC
  8
_0-b_細線3
  6
CONTINUOUS
 62
    7
 10
1148.7863747010472
 20
437.9399331184153
 40
2.6666666666666674
 50
0
 51
89.999999999999915
  0
ARC
  8
_0-b_細線3
  6
CONTINUOUS
 62
    7
 10
1147.5385101908403
 20
443.27326645174799
 40
2.6666666666666674
 50
209.99999999998838
 51
269.99999999999977
  0
ARC
  8
_0-b_細線3
  6
CONTINUOUS
 62
    7
 10
1142.9197080373228
 20
440.60659978508215
 40
2.6666666666666674
 50
29.999999999991157
 51
89.999999999985349
  0
LINE
  8
_0-b_細線3
  6
CONTINUOUS
 62
    7
 10
1148.7863747010472
 20
440.60659978508215
 11
1147.5385101908403
 21
440.60659978508215
  0
ARC
  8
_0-b_細線3
  6
CONTINUOUS
 62
    7
 10
1122.3863747069327
 20
434.20659978508229
 40
1.3333333333333337
 50
179.99999999999983
 51
269.99999999999977
  0
LINE
  8
_0-b_細線3
  6
CONTINUOUS
 62
    7
 10
1121.0530413735994
 20
437.9399331184153
 11
1121.0530413735994
 21
434.20659978508229
  0
ARC
  8
_0-b_細線3
  6
CONTINUOUS
 62
    7
 10
1150.1197080343804
 20
434.20659978508229
 40
1.3333333333333337
 50
269.99999999999977
 51
359.99999999999966
  0
LINE
  8
_0-b_細線3
  6
CONTINUOUS
 62
    7
 10
1151.4530413677137
 20
437.9399331184153
 11
1151.4530413677137
 21
434.20659978508229
  0
ARC
  8
_0-b_細線3
  6
CONTINUOUS
 62
    7
 10
1129.0530413735992
 20
430.20659978508252
 40
2.6666666666666674
 50
0
 51
89.999999999999915
  0
LINE
  8
_0-b_細線3
  6
CONTINUOUS
 62
    7
 10
1129.0530413735992
 20
432.87326645174835
 11
1122.3863747069327
 21
432.87326645174835
  0
ARC
  8
_0-b_細線3
  6
CONTINUOUS
 62
    7
 10
1143.4530413735995
 20
430.20659978508252
 40
2.6666666666666674
 50
89.999999999999915
 51
179.99999999999983
  0
LINE
  8
_0-b_細線3
  6
CONTINUOUS
 62
    7
 10
1143.453041367713
 20
432.87326645174835
 11
1150.1197080343804
 21
432.87326645174835
  0
LINE
  8
_0-b_細線3
  6
CONTINUOUS
 62
    7
 10
1142.9197080373228
 20
443.27326645174799
 11
1129.5863747039896
 21
443.27326645174799
  0
LINE
  8
_0-b_細線3
  6
CONTINUOUS
 62
    7
 10
1131.7197080373232
 20
389.93993311841541
 11
1131.7197080402657
 21
430.20659978508252
  0
LINE
  8
_0-b_細線3
  6
CONTINUOUS
 62
    7
 10
1140.7863747039898
 20
389.93993311841541
 11
1140.786374706933
 21
430.20659978508252
  0
LINE
  8
_0-b_細線3
  6
CONTINUOUS
 62
    7
 10
1140.7863747039898
 20
389.93993311841541
 11
1131.7197080373232
 21
389.93993311841541
  0
ARC
  8
_0-b_細線3
  6
CONTINUOUS
 62
    7
 10
1169.0530413740571
 20
437.9399331184153
 40
2.6666666666666674
 50
89.999999999999915
 51
179.99999999999983
  0
ARC
  8
_0-b_細線3
  6
CONTINUOUS
 62
    7
 10
1170.300905884264
 20
443.27326645174799
 40
2.6666666666666674
 50
269.99999999999977
 51
330.00000000000603
  0
ARC
  8
_0-b_細線3
  6
CONTINUOUS
 62
    7
 10
1174.919708037781
 20
440.60659978508215
 40
2.6666666666666674
 50
89.999999999999915
 51
150.00000000000884
  0
LINE
  8
_0-b_細線3
  6
CONTINUOUS
 62
    7
 10
1169.0530413740571
 20
440.60659978508215
 11
1170.300905884264
 21
440.60659978508215
  0
ARC
  8
_0-b_細線3
  6
CONTINUOUS
 62
    7
 10
1194.1197080348388
 20
437.9399331184153
 40
2.6666666666666674
 50
0
 51
89.999999999999915
  0
ARC
  8
_0-b_細線3
  6
CONTINUOUS
 62
    7
 10
1192.8718435246317
 20
443.27326645174799
 40
2.6666666666666674
 50
209.99999999999082
 51
269.99999999999977
  0
ARC
  8
_0-b_細線3
  6
CONTINUOUS
 62
    7
 10
1188.2530413711147
 20
440.60659978508215
 40
2.6666666666666674
 50
29.999999999993598
 51
89.999999999999929
  0
LINE
  8
_0-b_細線3
  6
CONTINUOUS
 62
    7
 10
1194.1197080348388
 20
440.60659978508215
 11
1192.8718435246317
 21
440.60659978508215
  0
ARC
  8
_0-b_細線3
  6
CONTINUOUS
 62
    7
 10
1167.7197080407241
 20
434.20659978508229
 40
1.3333333333333337
 50
179.99999999999983
 51
269.99999999999977
  0
LINE
  8
_0-b_細線3
  6
CONTINUOUS
 62
    7
 10
1166.3863747073908
 20
437.9399331184153
 11
1166.3863747073908
 21
434.20659978508229
  0
ARC
  8
_0-b_細線3
  6
CONTINUOUS
 62
    7
 10
1195.4530413681716
 20
434.20659978508229
 40
1.3333333333333337
 50
269.99999999999977
 51
359.99999999999966
  0
LINE
  8
_0-b_細線3
  6
CONTINUOUS
 62
    7
 10
1196.7863747015049
 20
437.9399331184153
 11
1196.7863747015049
 21
434.20659978508229
  0
ARC
  8
_0-b_細線3
  6
CONTINUOUS
 62
    7
 10
1174.3863747073908
 20
430.20659978508252
 40
2.6666666666666674
 50
0
 51
89.999999999999915
  0
LINE
  8
_0-b_細線3
  6
CONTINUOUS
 62
    7
 10
1174.3863747073908
 20
432.87326645174835
 11
1167.7197080407241
 21
432.87326645174835
  0
ARC
  8
_0-b_細線3
  6
CONTINUOUS
 62
    7
 10
1188.7863747073907
 20
430.20659978508252
 40
2.6666666666666674
 50
89.999999999999915
 51
179.99999999999983
  0
LINE
  8
_0-b_細線3
  6
CONTINUOUS
 62
    7
 10
1188.7863747015042
 20
432.87326645174835
 11
1195.4530413681716
 21
432.87326645174835
  0
LINE
  8
_0-b_細線3
  6
CONTINUOUS
 62
    7
 10
1188.2530413711147
 20
443.27326645174799
 11
1174.919708037781
 21
443.27326645174799
  0
LINE
  8
_0-b_細線3
  6
CONTINUOUS
 62
    7
 10
1177.0530413711147
 20
389.93993311841541
 11
1177.0530413740569
 21
430.20659978508252
  0
LINE
  8
_0-b_細線3
  6
CONTINUOUS
 62
    7
 10
1186.119708037781
 20
389.93993311841541
 11
1186.1197080407244
 21
430.20659978508252
  0
LINE
  8
_0-b_細線3
  6
CONTINUOUS
 62
    7
 10
1186.119708037781
 20
389.93993311841541
 11
1177.0530413711147
 21
389.93993311841541
  0
LINE
  8
_0-d_寸法3
  6
CONTINUOUS
 62
    7
 10
805.81327532346609
 20
399.11715610003205
 11
749.24952856236939
 21
438.7235179715363
  0
LINE
  8
_0-d_寸法3
  6
CONTINUOUS
 62
    7
 10
755.80274491668138
 20
434.13490648072798
 11
751.66164019504106
 21
449.58971970135309
  0
LINE
  8
_0-d_寸法3
  6
CONTINUOUS
 62
    7
 10
755.80274491668138
 20
434.13490648072798
 11
759.94384963832169
 21
449.58971970135309
  0
LINE
  8
_0-d_寸法3
  6
CONTINUOUS
 62
    7
 10
805.81327532346631
 20
452.45048943336485
 11
749.24952856236951
 21
492.05685130487092
  0
LINE
  8
_0-d_寸法3
  6
CONTINUOUS
 62
    7
 10
755.80274491668138
 20
487.46823981406249
 11
759.94384963832158
 21
472.01342659343737
  0
LINE
  8
_0-d_寸法3
  6
CONTINUOUS
 62
    7
 10
755.80274491668138
 20
487.46823981406249
 11
751.66164019504095
 21
472.01342659343743
  0
LINE
  8
_0-d_寸法3
  6
CONTINUOUS
 62
    7
 10
755.80274491668138
 20
434.13490648072798
 11
755.80274491668138
 21
487.46823981406249
  0
TEXT
  8
_0-d_寸法3
 62
    7
 10
755.80274491668138
 20
448.8015731473954
 40
24
 41
1
 50
90
  1
20
  0
ARC
  8
_0-b_細線3
  6
CONTINUOUS
 62
    7
 10
1213.5863747074388
 20
437.9399331184153
 40
2.6666666666666674
 50
89.999999999999915
 51
179.99999999999983
  0
ARC
  8
_0-b_細線3
  6
CONTINUOUS
 62
    7
 10
1214.834239217646
 20
443.27326645174799
 40
2.6666666666666674
 50
269.99999999999977
 51
330.00000000000603
  0
ARC
  8
_0-b_細線3
  6
CONTINUOUS
 62
    7
 10
1219.4530413711625
 20
440.60659978508215
 40
2.6666666666666674
 50
89.999999999999915
 51
150.00000000000395
  0
LINE
  8
_0-b_細線3
  6
CONTINUOUS
 62
    7
 10
1213.5863747074388
 20
440.60659978508215
 11
1214.834239217646
 21
440.60659978508215
  0
ARC
  8
_0-b_細線3
  6
CONTINUOUS
 62
    7
 10
1238.6530413682203
 20
437.9399331184153
 40
2.6666666666666674
 50
0
 51
89.999999999999915
  0
ARC
  8
_0-b_細線3
  6
CONTINUOUS
 62
    7
 10
1237.4051768580132
 20
443.27326645174799
 40
2.6666666666666674
 50
209.99999999999082
 51
269.99999999999977
  0
ARC
  8
_0-b_細線3
  6
CONTINUOUS
 62
    7
 10
1232.786374704496
 20
440.60659978508215
 40
2.6666666666666674
 50
29.999999999991157
 51
89.999999999985349
  0
LINE
  8
_0-b_細線3
  6
CONTINUOUS
 62
    7
 10
1238.6530413682203
 20
440.60659978508215
 11
1237.4051768580132
 21
440.60659978508215
  0
ARC
  8
_0-b_細線3
  6
CONTINUOUS
 62
    7
 10
1212.2530413741056
 20
434.20659978508229
 40
1.3333333333333337
 50
179.99999999999983
 51
269.99999999999977
  0
LINE
  8
_0-b_細線3
  6
CONTINUOUS
 62
    7
 10
1210.9197080407723
 20
437.9399331184153
 11
1210.9197080407723
 21
434.20659978508229
  0
ARC
  8
_0-b_細線3
  6
CONTINUOUS
 62
    7
 10
1239.9863747015536
 20
434.20659978508229
 40
1.3333333333333337
 50
269.99999999999977
 51
359.99999999999966
  0
LINE
  8
_0-b_細線3
  6
CONTINUOUS
 62
    7
 10
1241.3197080348868
 20
437.9399331184153
 11
1241.3197080348868
 21
434.20659978508229
  0
ARC
  8
_0-b_細線3
  6
CONTINUOUS
 62
    7
 10
1218.9197080407723
 20
430.20659978508252
 40
2.6666666666666674
 50
0
 51
89.999999999999915
  0
LINE
  8
_0-b_細線3
  6
CONTINUOUS
 62
    7
 10
1218.9197080407723
 20
432.87326645174835
 11
1212.2530413741056
 21
432.87326645174835
  0
ARC
  8
_0-b_細線3
  6
CONTINUOUS
 62
    7
 10
1233.3197080407724
 20
430.20659978508252
 40
2.6666666666666674
 50
89.999999999999915
 51
179.99999999999983
  0
LINE
  8
_0-b_細線3
  6
CONTINUOUS
 62
    7
 10
1233.3197080348862
 20
432.87326645174835
 11
1239.9863747015536
 21
432.87326645174835
  0
LINE
  8
_0-b_細線3
  6
CONTINUOUS
 62
    7
 10
1232.786374704496
 20
443.27326645174799
 11
1219.4530413711625
 21
443.27326645174799
  0
LINE
  8
_0-b_細線3
  6
CONTINUOUS
 62
    7
 10
1221.5863747044962
 20
389.93993311841541
 11
1221.5863747074388
 21
430.20659978508252
  0
LINE
  8
_0-b_細線3
  6
CONTINUOUS
 62
    7
 10
1230.653041371163
 20
389.93993311841541
 11
1230.6530413741059
 21
430.20659978508252
  0
LINE
  8
_0-b_細線3
  6
CONTINUOUS
 62
    7
 10
1230.653041371163
 20
389.93993311841541
 11
1221.5863747044962
 21
389.93993311841541
  0
ARC
  8
_0-b_細線3
  6
CONTINUOUS
 62
    7
 10
1257.8530413749734
 20
437.9399331184153
 40
2.6666666666666674
 50
89.999999999999915
 51
179.99999999999983
  0
ARC
  8
_0-b_細線3
  6
CONTINUOUS
 62
    7
 10
1259.1009058851803
 20
443.27326645174799
 40
2.6666666666666674
 50
269.99999999999977
 51
330.00000000000603
  0
ARC
  8
_0-b_細線3
  6
CONTINUOUS
 62
    7
 10
1263.7197080386966
 20
440.60659978508215
 40
2.6666666666666674
 50
89.999999999999915
 51
150.00000000000151
  0
LINE
  8
_0-b_細線3
  6
CONTINUOUS
 62
    7
 10
1257.8530413749734
 20
440.60659978508215
 11
1259.1009058851803
 21
440.60659978508215
  0
ARC
  8
_0-b_細線3
  6
CONTINUOUS
 62
    7
 10
1282.9197080357544
 20
437.9399331184153
 40
2.6666666666666674
 50
0
 51
89.999999999999915
  0
ARC
  8
_0-b_細線3
  6
CONTINUOUS
 62
    7
 10
1281.6718435255473
 20
443.27326645174799
 40
2.6666666666666674
 50
209.99999999999324
 51
269.99999999999977
  0
ARC
  8
_0-b_細線3
  6
CONTINUOUS
 62
    7
 10
1277.0530413720303
 20
440.60659978508215
 40
2.6666666666666674
 50
29.999999999991157
 51
89.999999999985349
  0
LINE
  8
_0-b_細線3
  6
CONTINUOUS
 62
    7
 10
1282.9197080357544
 20
440.60659978508215
 11
1281.6718435255473
 21
440.60659978508215
  0
ARC
  8
_0-b_細線3
  6
CONTINUOUS
 62
    7
 10
1256.5197080416397
 20
434.20659978508229
 40
1.3333333333333337
 50
179.99999999999983
 51
269.99999999999977
  0
LINE
  8
_0-b_細線3
  6
CONTINUOUS
 62
    7
 10
1255.1863747083071
 20
437.9399331184153
 11
1255.1863747083071
 21
434.20659978508229
  0
ARC
  8
_0-b_細線3
  6
CONTINUOUS
 62
    7
 10
1284.2530413690879
 20
434.20659978508229
 40
1.3333333333333337
 50
269.99999999999977
 51
359.99999999999966
  0
LINE
  8
_0-b_細線3
  6
CONTINUOUS
 62
    7
 10
1285.5863747024205
 20
437.9399331184153
 11
1285.5863747024205
 21
434.20659978508229
  0
ARC
  8
_0-b_細線3
  6
CONTINUOUS
 62
    7
 10
1263.1863747083071
 20
430.20659978508252
 40
2.6666666666666674
 50
0
 51
89.999999999999915
  0
LINE
  8
_0-b_細線3
  6
CONTINUOUS
 62
    7
 10
1263.1863747083071
 20
432.87326645174835
 11
1256.5197080416397
 21
432.87326645174835
  0
ARC
  8
_0-b_細線3
  6
CONTINUOUS
 62
    7
 10
1277.5863747083069
 20
430.20659978508252
 40
2.6666666666666674
 50
89.999999999999915
 51
179.99999999999983
  0
LINE
  8
_0-b_細線3
  6
CONTINUOUS
 62
    7
 10
1277.5863747024205
 20
432.87326645174835
 11
1284.2530413690879
 21
432.87326645174835
  0
LINE
  8
_0-b_細線3
  6
CONTINUOUS
 62
    7
 10
1277.0530413720303
 20
443.27326645174799
 11
1263.7197080386966
 21
443.27326645174799
  0
LINE
  8
_0-b_細線3
  6
CONTINUOUS
 62
    7
 10
1265.8530413720302
 20
389.93993311841541
 11
1265.8530413749731
 21
430.20659978508252
  0
LINE
  8
_0-b_細線3
  6
CONTINUOUS
 62
    7
 10
1274.9197080386973
 20
389.93993311841541
 11
1274.9197080416407
 21
430.20659978508252
  0
LINE
  8
_0-b_細線3
  6
CONTINUOUS
 62
    7
 10
1274.9197080386973
 20
389.93993311841541
 11
1265.8530413720302
 21
389.93993311841541
  0
ARC
  8
_0-b_細線3
  6
CONTINUOUS
 62
    7
 10
604.78637520174971
 20
437.9399331184153
 40
2.6666666666666674
 50
0
 51
89.999999999999915
  0
ARC
  8
_0-b_細線3
  6
CONTINUOUS
 62
    7
 10
603.53851069154257
 20
443.27326645174799
 40
2.6666666666666674
 50
209.99999999999568
 51
269.99999999999977
  0
ARC
  8
_0-b_細線3
  6
CONTINUOUS
 62
    7
 10
598.91970853802604
 20
440.60659978508215
 40
2.6666666666666674
 50
29.999999999993598
 51
89.999999999999929
  0
LINE
  8
_0-b_細線3
  6
CONTINUOUS
 62
    7
 10
604.78637520174971
 20
440.60659978508215
 11
603.53851069154257
 21
440.60659978508215
  0
ARC
  8
_0-b_細線3
  6
CONTINUOUS
 62
    7
 10
579.71970854096912
 20
437.9399331184153
 40
2.6666666666666674
 50
89.999999999999915
 51
179.99999999999983
  0
ARC
  8
_0-b_細線3
  6
CONTINUOUS
 62
    7
 10
580.96757305117603
 20
443.27326645174799
 40
2.6666666666666674
 50
269.99999999999977
 51
330.00000000000603
  0
ARC
  8
_0-b_細線3
  6
CONTINUOUS
 62
    7
 10
585.58637520469279
 20
440.60659978508215
 40
2.6666666666666674
 50
89.999999999999915
 51
150.00000000000639
  0
LINE
  8
_0-b_細線3
  6
CONTINUOUS
 62
    7
 10
579.71970854096912
 20
440.60659978508215
 11
580.96757305117603
 21
440.60659978508215
  0
ARC
  8
_0-b_細線3
  6
CONTINUOUS
 62
    7
 10
606.11970853508342
 20
434.20659978508229
 40
1.3333333333333337
 50
269.99999999999977
 51
359.99999999999966
  0
LINE
  8
_0-b_細線3
  6
CONTINUOUS
 62
    7
 10
607.45304186841622
 20
437.9399331184153
 11
607.45304186841622
 21
434.20659978508229
  0
ARC
  8
_0-b_細線3
  6
CONTINUOUS
 62
    7
 10
578.38637520763541
 20
434.20659978508229
 40
1.3333333333333337
 50
179.99999999999983
 51
269.99999999999977
  0
LINE
  8
_0-b_細線3
  6
CONTINUOUS
 62
    7
 10
577.05304187430261
 20
437.9399331184153
 11
577.05304187430261
 21
434.20659978508229
  0
ARC
  8
_0-b_細線3
  6
CONTINUOUS
 62
    7
 10
599.45304186841668
 20
430.20659978508252
 40
2.6666666666666674
 50
89.999999999999915
 51
179.99999999999983
  0
LINE
  8
_0-b_細線3
  6
CONTINUOUS
 62
    7
 10
599.45304186841668
 20
432.87326645174835
 11
606.11970853508342
 21
432.87326645174835
  0
ARC
  8
_0-b_細線3
  6
CONTINUOUS
 62
    7
 10
585.05304186841613
 20
430.20659978508252
 40
2.6666666666666674
 50
0
 51
89.999999999999915
  0
LINE
  8
_0-b_細線3
  6
CONTINUOUS
 62
    7
 10
585.05304187430283
 20
432.87326645174835
 11
578.38637520763541
 21
432.87326645174835
  0
LINE
  8
_0-b_細線3
  6
CONTINUOUS
 62
    7
 10
585.58637520469279
 20
443.27326645174799
 11
598.91970853802604
 21
443.27326645174799
  0
LINE
  8
_0-b_細線3
  6
CONTINUOUS
 62
    7
 10
596.78637520469306
 20
389.93993311841541
 11
596.78637520175016
 21
430.20659978508252
  0
LINE
  8
_0-b_細線3
  6
CONTINUOUS
 62
    7
 10
587.71970853802554
 20
389.93993311841541
 11
587.71970853508265
 21
430.20659978508252
  0
LINE
  8
_0-b_細線3
  6
CONTINUOUS
 62
    7
 10
587.71970853802554
 20
389.93993311841541
 11
596.78637520469306
 21
389.93993311841541
  0
ARC
  8
_0-b_細線3
  6
CONTINUOUS
 62
    7
 10
559.45304186795806
 20
437.9399331184153
 40
2.6666666666666674
 50
0
 51
89.999999999999915
  0
ARC
  8
_0-b_細線3
  6
CONTINUOUS
 62
    7
 10
558.20517735775115
 20
443.27326645174799
 40
2.6666666666666674
 50
209.99999999999324
 51
269.99999999999977
  0
ARC
  8
_0-b_細線3
  6
CONTINUOUS
 62
    7
 10
553.58637520423531
 20
440.60659978508215
 40
2.6666666666666674
 50
30.000000000003368
 51
89.999999999999929
  0
LINE
  8
_0-b_細線3
  6
CONTINUOUS
 62
    7
 10
559.45304186795806
 20
440.60659978508215
 11
558.20517735775115
 21
440.60659978508215
  0
ARC
  8
_0-b_細線3
  6
CONTINUOUS
 62
    7
 10
534.38637520717748
 20
437.9399331184153
 40
2.6666666666666674
 50
89.999999999999915
 51
179.99999999999983
  0
ARC
  8
_0-b_細線3
  6
CONTINUOUS
 62
    7
 10
535.63423971738462
 20
443.27326645174799
 40
2.6666666666666674
 50
269.99999999999977
 51
330.00000000000358
  0
ARC
  8
_0-b_細線3
  6
CONTINUOUS
 62
    7
 10
540.25304187090114
 20
440.60659978508215
 40
2.6666666666666674
 50
90.000000000014651
 51
150.00000000000639
  0
LINE
  8
_0-b_細線3
  6
CONTINUOUS
 62
    7
 10
534.38637520717748
 20
440.60659978508215
 11
535.63423971738462
 21
440.60659978508215
  0
ARC
  8
_0-b_細線3
  6
CONTINUOUS
 62
    7
 10
560.78637520129178
 20
434.20659978508229
 40
1.3333333333333337
 50
269.99999999999977
 51
359.99999999999966
  0
LINE
  8
_0-b_細線3
  6
CONTINUOUS
 62
    7
 10
562.11970853462458
 20
437.9399331184153
 11
562.11970853462458
 21
434.20659978508229
  0
ARC
  8
_0-b_細線3
  6
CONTINUOUS
 62
    7
 10
533.05304187384377
 20
434.20659978508229
 40
1.3333333333333337
 50
179.99999999999983
 51
269.99999999999977
  0
LINE
  8
_0-b_細線3
  6
CONTINUOUS
 62
    7
 10
531.71970854051096
 20
437.9399331184153
 11
531.71970854051096
 21
434.20659978508229
  0
ARC
  8
_0-b_細線3
  6
CONTINUOUS
 62
    7
 10
554.11970853462503
 20
430.20659978508252
 40
2.6666666666666674
 50
89.999999999999915
 51
179.99999999999983
  0
LINE
  8
_0-b_細線3
  6
CONTINUOUS
 62
    7
 10
554.11970853462503
 20
432.87326645174835
 11
560.78637520129178
 21
432.87326645174835
  0
ARC
  8
_0-b_細線3
  6
CONTINUOUS
 62
    7
 10
539.71970853462449
 20
430.20659978508252
 40
2.6666666666666674
 50
0
 51
89.999999999999915
  0
LINE
  8
_0-b_細線3
  6
CONTINUOUS
 62
    7
 10
539.71970854051119
 20
432.87326645174835
 11
533.05304187384377
 21
432.87326645174835
  0
LINE
  8
_0-b_細線3
  6
CONTINUOUS
 62
    7
 10
540.25304187090114
 20
443.27326645174799
 11
553.58637520423531
 21
443.27326645174799
  0
LINE
  8
_0-b_細線3
  6
CONTINUOUS
 62
    7
 10
551.45304187090164
 20
389.93993311841541
 11
551.45304186795852
 21
430.20659978508252
  0
LINE
  8
_0-b_細線3
  6
CONTINUOUS
 62
    7
 10
542.38637520423413
 20
389.93993311841541
 11
542.386375201291
 21
430.20659978508252
  0
LINE
  8
_0-b_細線3
  6
CONTINUOUS
 62
    7
 10
542.38637520423413
 20
389.93993311841541
 11
551.45304187090164
 21
389.93993311841541
  0
ARC
  8
_0-b_細線3
  6
CONTINUOUS
 62
    7
 10
514.11970853416733
 20
437.9399331184153
 40
2.6666666666666674
 50
0
 51
89.999999999999915
  0
ARC
  8
_0-b_細線3
  6
CONTINUOUS
 62
    7
 10
512.87184402396019
 20
443.27326645174799
 40
2.6666666666666674
 50
209.99999999999446
 51
269.99999999999977
  0
ARC
  8
_0-b_細線3
  6
CONTINUOUS
 62
    7
 10
508.25304187044367
 20
440.60659978508215
 40
2.6666666666666674
 50
29.99999999999482
 51
89.999999999999929
  0
LINE
  8
_0-b_細線3
  6
CONTINUOUS
 62
    7
 10
514.11970853416733
 20
440.60659978508215
 11
512.87184402396019
 21
440.60659978508215
  0
ARC
  8
_0-b_細線3
  6
CONTINUOUS
 62
    7
 10
489.05304187338584
 20
437.9399331184153
 40
2.6666666666666674
 50
89.999999999999915
 51
179.99999999999983
  0
ARC
  8
_0-b_細線3
  6
CONTINUOUS
 62
    7
 10
490.30090638359297
 20
443.27326645174799
 40
2.6666666666666674
 50
269.99999999999977
 51
330.00000000000483
  0
ARC
  8
_0-b_細線3
  6
CONTINUOUS
 62
    7
 10
494.9197085371103
 20
440.60659978508215
 40
2.6666666666666674
 50
90.000000000017096
 51
150.00000000001373
  0
LINE
  8
_0-b_細線3
  6
CONTINUOUS
 62
    7
 10
489.05304187338584
 20
440.60659978508215
 11
490.30090638359297
 21
440.60659978508215
  0
ARC
  8
_0-b_細線3
  6
CONTINUOUS
 62
    7
 10
515.45304186750013
 20
434.20659978508229
 40
1.3333333333333337
 50
269.99999999999977
 51
359.99999999999966
  0
LINE
  8
_0-b_細線3
  6
CONTINUOUS
 62
    7
 10
516.78637520083385
 20
437.9399331184153
 11
516.78637520083385
 21
434.20659978508229
  0
ARC
  8
_0-b_細線3
  6
CONTINUOUS
 62
    7
 10
487.71970854005224
 20
434.20659978508229
 40
1.3333333333333337
 50
179.99999999999983
 51
269.99999999999977
  0
LINE
  8
_0-b_細線3
  6
CONTINUOUS
 62
    7
 10
486.38637520671932
 20
437.9399331184153
 11
486.38637520671932
 21
434.20659978508229
  0
ARC
  8
_0-b_細線3
  6
CONTINUOUS
 62
    7
 10
508.7863752008335
 20
430.20659978508252
 40
2.6666666666666674
 50
89.999999999999915
 51
179.99999999999983
  0
LINE
  8
_0-b_細線3
  6
CONTINUOUS
 62
    7
 10
508.7863752008335
 20
432.87326645174835
 11
515.45304186750013
 21
432.87326645174835
  0
ARC
  8
_0-b_細線3
  6
CONTINUOUS
 62
    7
 10
494.38637520083375
 20
430.20659978508252
 40
2.6666666666666674
 50
0
 51
89.999999999999915
  0
LINE
  8
_0-b_細線3
  6
CONTINUOUS
 62
    7
 10
494.38637520671966
 20
432.87326645174835
 11
487.71970854005224
 21
432.87326645174835
  0
LINE
  8
_0-b_細線3
  6
CONTINUOUS
 62
    7
 10
494.9197085371103
 20
443.27326645174799
 11
508.25304187044367
 21
443.27326645174799
  0
LINE
  8
_0-b_細線3
  6
CONTINUOUS
 62
    7
 10
506.11970853711
 20
389.93993311841541
 11
506.11970853416699
 21
430.20659978508252
  0
LINE
  8
_0-b_細線3
  6
CONTINUOUS
 62
    7
 10
497.05304187044317
 20
389.93993311841541
 11
497.05304186750027
 21
430.20659978508252
  0
LINE
  8
_0-b_細線3
  6
CONTINUOUS
 62
    7
 10
497.05304187044317
 20
389.93993311841541
 11
506.11970853711
 21
389.93993311841541
  0
ARC
  8
_0-b_細線3
  6
CONTINUOUS
 62
    7
 10
468.78637520037569
 20
437.9399331184153
 40
2.6666666666666674
 50
0
 51
89.999999999999915
  0
ARC
  8
_0-b_細線3
  6
CONTINUOUS
 62
    7
 10
467.53851069016866
 20
443.27326645174799
 40
2.6666666666666674
 50
209.99999999999446
 51
269.99999999999977
  0
ARC
  8
_0-b_細線3
  6
CONTINUOUS
 62
    7
 10
462.91970853665202
 20
440.60659978508215
 40
2.6666666666666674
 50
29.999999999993598
 51
89.999999999999929
  0
LINE
  8
_0-b_細線3
  6
CONTINUOUS
 62
    7
 10
468.78637520037569
 20
440.60659978508215
 11
467.53851069016866
 21
440.60659978508215
  0
ARC
  8
_0-b_細線3
  6
CONTINUOUS
 62
    7
 10
443.71970853959431
 20
437.9399331184153
 40
2.6666666666666674
 50
89.999999999999915
 51
179.99999999999983
  0
ARC
  8
_0-b_細線3
  6
CONTINUOUS
 62
    7
 10
444.96757304980133
 20
443.27326645174799
 40
2.6666666666666674
 50
269.99999999999977
 51
330.00000000000603
  0
ARC
  8
_0-b_細線3
  6
CONTINUOUS
 62
    7
 10
449.58637520331797
 20
440.60659978508215
 40
2.6666666666666674
 50
89.999999999999915
 51
150.00000000000517
  0
LINE
  8
_0-b_細線3
  6
CONTINUOUS
 62
    7
 10
443.71970853959431
 20
440.60659978508215
 11
444.96757304980133
 21
440.60659978508215
  0
ARC
  8
_0-b_細線3
  6
CONTINUOUS
 62
    7
 10
470.1197085337086
 20
434.20659978508229
 40
1.3333333333333337
 50
269.99999999999977
 51
359.99999999999966
  0
LINE
  8
_0-b_細線3
  6
CONTINUOUS
 62
    7
 10
471.4530418670422
 20
437.9399331184153
 11
471.4530418670422
 21
434.20659978508229
  0
ARC
  8
_0-b_細線3
  6
CONTINUOUS
 62
    7
 10
442.38637520626139
 20
434.20659978508229
 40
1.3333333333333337
 50
179.99999999999983
 51
269.99999999999977
  0
LINE
  8
_0-b_細線3
  6
CONTINUOUS
 62
    7
 10
441.05304187292779
 20
437.9399331184153
 11
441.05304187292779
 21
434.20659978508229
  0
ARC
  8
_0-b_細線3
  6
CONTINUOUS
 62
    7
 10
463.45304186704197
 20
430.20659978508252
 40
2.6666666666666674
 50
89.999999999999915
 51
179.99999999999983
  0
LINE
  8
_0-b_細線3
  6
CONTINUOUS
 62
    7
 10
463.45304186704197
 20
432.87326645174835
 11
470.1197085337086
 21
432.87326645174835
  0
ARC
  8
_0-b_細線3
  6
CONTINUOUS
 62
    7
 10
449.05304186704211
 20
430.20659978508252
 40
2.6666666666666674
 50
0
 51
89.999999999999915
  0
LINE
  8
_0-b_細線3
  6
CONTINUOUS
 62
    7
 10
449.05304187292882
 20
432.87326645174835
 11
442.38637520626139
 21
432.87326645174835
  0
LINE
  8
_0-b_細線3
  6
CONTINUOUS
 62
    7
 10
449.58637520331797
 20
443.27326645174799
 11
462.91970853665202
 21
443.27326645174799
  0
LINE
  8
_0-b_細線3
  6
CONTINUOUS
 62
    7
 10
460.78637520331836
 20
389.93993311841541
 11
460.78637520037614
 21
430.20659978508252
  0
LINE
  8
_0-b_細線3
  6
CONTINUOUS
 62
    7
 10
451.71970853665164
 20
389.93993311841541
 11
451.71970853370863
 21
430.20659978508252
  0
LINE
  8
_0-b_細線3
  6
CONTINUOUS
 62
    7
 10
451.71970853665164
 20
389.93993311841541
 11
460.78637520331836
 21
389.93993311841541
  0
ARC
  8
_0-b_細線3
  6
CONTINUOUS
 62
    7
 10
424.25304186699418
 20
437.9399331184153
 40
2.6666666666666674
 50
0
 51
89.999999999999915
  0
ARC
  8
_0-b_細線3
  6
CONTINUOUS
 62
    7
 10
423.00517735678716
 20
443.27326645174799
 40
2.6666666666666674
 50
209.99999999999446
 51
269.99999999999977
  0
ARC
  8
_0-b_細線3
  6
CONTINUOUS
 62
    7
 10
418.38637520327052
 20
440.60659978508215
 40
2.6666666666666674
 50
29.999999999993598
 51
89.999999999999929
  0
LINE
  8
_0-b_細線3
  6
CONTINUOUS
 62
    7
 10
424.25304186699418
 20
440.60659978508215
 11
423.00517735678716
 21
440.60659978508215
  0
ARC
  8
_0-b_細線3
  6
CONTINUOUS
 62
    7
 10
399.1863752062128
 20
437.9399331184153
 40
2.6666666666666674
 50
89.999999999999915
 51
179.99999999999983
  0
ARC
  8
_0-b_細線3
  6
CONTINUOUS
 62
    7
 10
400.43423971641982
 20
443.27326645174799
 40
2.6666666666666674
 50
269.99999999999977
 51
330.00000000000603
  0
ARC
  8
_0-b_細線3
  6
CONTINUOUS
 62
    7
 10
405.05304186993726
 20
440.60659978508215
 40
2.6666666666666674
 50
90.000000000017096
 51
150.00000000001373
  0
LINE
  8
_0-b_細線3
  6
CONTINUOUS
 62
    7
 10
399.1863752062128
 20
440.60659978508215
 11
400.43423971641982
 21
440.60659978508215
  0
ARC
  8
_0-b_細線3
  6
CONTINUOUS
 62
    7
 10
425.5863752003271
 20
434.20659978508229
 40
1.3333333333333337
 50
269.99999999999977
 51
359.99999999999966
  0
LINE
  8
_0-b_細線3
  6
CONTINUOUS
 62
    7
 10
426.9197085336607
 20
437.9399331184153
 11
426.9197085336607
 21
434.20659978508229
  0
ARC
  8
_0-b_細線3
  6
CONTINUOUS
 62
    7
 10
397.8530418728792
 20
434.20659978508229
 40
1.3333333333333337
 50
179.99999999999983
 51
269.99999999999977
  0
LINE
  8
_0-b_細線3
  6
CONTINUOUS
 62
    7
 10
396.51970853954629
 20
437.9399331184153
 11
396.51970853954629
 21
434.20659978508229
  0
ARC
  8
_0-b_細線3
  6
CONTINUOUS
 62
    7
 10
418.91970853366047
 20
430.20659978508252
 40
2.6666666666666674
 50
89.999999999999915
 51
179.99999999999983
  0
LINE
  8
_0-b_細線3
  6
CONTINUOUS
 62
    7
 10
418.91970853366047
 20
432.87326645174835
 11
425.5863752003271
 21
432.87326645174835
  0
ARC
  8
_0-b_細線3
  6
CONTINUOUS
 62
    7
 10
404.51970853366061
 20
430.20659978508252
 40
2.6666666666666674
 50
0
 51
89.999999999999915
  0
LINE
  8
_0-b_細線3
  6
CONTINUOUS
 62
    7
 10
404.51970853954663
 20
432.87326645174835
 11
397.8530418728792
 21
432.87326645174835
  0
LINE
  8
_0-b_細線3
  6
CONTINUOUS
 62
    7
 10
405.05304186993726
 20
443.27326645174799
 11
418.38637520327052
 21
443.27326645174799
  0
LINE
  8
_0-b_細線3
  6
CONTINUOUS
 62
    7
 10
416.25304186993685
 20
389.93993311841541
 11
416.25304186699395
 21
430.20659978508252
  0
LINE
  8
_0-b_細線3
  6
CONTINUOUS
 62
    7
 10
407.18637520327013
 20
389.93993311841541
 11
407.18637520032712
 21
430.20659978508252
  0
LINE
  8
_0-b_細線3
  6
CONTINUOUS
 62
    7
 10
407.18637520327013
 20
389.93993311841541
 11
416.25304186993685
 21
389.93993311841541
  0
ARC
  8
_0-b_細線3
  6
CONTINUOUS
 62
    7
 10
379.98637519945987
 20
437.9399331184153
 40
2.6666666666666674
 50
0
 51
89.999999999999915
  0
ARC
  8
_0-b_細線3
  6
CONTINUOUS
 62
    7
 10
378.73851068925273
 20
443.27326645174799
 40
2.6666666666666674
 50
209.99999999999446
 51
269.99999999999977
  0
ARC
  8
_0-b_細線3
  6
CONTINUOUS
 62
    7
 10
374.11970853573621
 20
440.60659978508215
 40
2.6666666666666674
 50
29.99999999999482
 51
89.999999999999929
  0
LINE
  8
_0-b_細線3
  6
CONTINUOUS
 62
    7
 10
379.98637519945987
 20
440.60659978508215
 11
378.73851068925273
 21
440.60659978508215
  0
ARC
  8
_0-b_細線3
  6
CONTINUOUS
 62
    7
 10
354.91970853867838
 20
437.9399331184153
 40
2.6666666666666674
 50
89.999999999999915
 51
179.99999999999983
  0
ARC
  8
_0-b_細線3
  6
CONTINUOUS
 62
    7
 10
356.16757304888552
 20
443.27326645174799
 40
2.6666666666666674
 50
269.99999999999977
 51
330.00000000000483
  0
ARC
  8
_0-b_細線3
  6
CONTINUOUS
 62
    7
 10
360.78637520240284
 20
440.60659978508215
 40
2.6666666666666674
 50
90.000000000017096
 51
150.00000000001373
  0
LINE
  8
_0-b_細線3
  6
CONTINUOUS
 62
    7
 10
354.91970853867838
 20
440.60659978508215
 11
356.16757304888552
 21
440.60659978508215
  0
ARC
  8
_0-b_細線3
  6
CONTINUOUS
 62
    7
 10
381.31970853279347
 20
434.20659978508229
 40
1.3333333333333337
 50
269.99999999999977
 51
359.99999999999966
  0
LINE
  8
_0-b_細線3
  6
CONTINUOUS
 62
    7
 10
382.65304186612559
 20
437.9399331184153
 11
382.65304186612559
 21
434.20659978508229
  0
ARC
  8
_0-b_細線3
  6
CONTINUOUS
 62
    7
 10
353.58637520534478
 20
434.20659978508229
 40
1.3333333333333337
 50
179.99999999999983
 51
269.99999999999977
  0
LINE
  8
_0-b_細線3
  6
CONTINUOUS
 62
    7
 10
352.25304187201266
 20
437.9399331184153
 11
352.25304187201266
 21
434.20659978508229
  0
ARC
  8
_0-b_細線3
  6
CONTINUOUS
 62
    7
 10
374.65304186612605
 20
430.20659978508252
 40
2.6666666666666674
 50
89.999999999999915
 51
179.99999999999983
  0
LINE
  8
_0-b_細線3
  6
CONTINUOUS
 62
    7
 10
374.65304186612605
 20
432.87326645174835
 11
381.31970853279347
 21
432.87326645174835
  0
ARC
  8
_0-b_細線3
  6
CONTINUOUS
 62
    7
 10
360.2530418661263
 20
430.20659978508252
 40
2.6666666666666674
 50
0
 51
89.999999999999915
  0
LINE
  8
_0-b_細線3
  6
CONTINUOUS
 62
    7
 10
360.2530418720122
 20
432.87326645174835
 11
353.58637520534478
 21
432.87326645174835
  0
LINE
  8
_0-b_細線3
  6
CONTINUOUS
 62
    7
 10
360.78637520240284
 20
443.27326645174799
 11
374.11970853573621
 21
443.27326645174799
  0
LINE
  8
_0-b_細線3
  6
CONTINUOUS
 62
    7
 10
371.98637520240254
 20
389.93993311841541
 11
371.98637519945953
 21
430.20659978508252
  0
LINE
  8
_0-b_細線3
  6
CONTINUOUS
 62
    7
 10
362.91970853573571
 20
389.93993311841541
 11
362.91970853279201
 21
430.20659978508252
  0
LINE
  8
_0-b_細線3
  6
CONTINUOUS
 62
    7
 10
362.91970853573571
 20
389.93993311841541
 11
371.98637520240254
 21
389.93993311841541
  0
LINE
  8
_0-b_細線3
  6
CONTINUOUS
 62
    7
 10
914.11970803549093
 20
396.07326645174885
 11
950.38637470215804
 21
396.07326645174885
  0
LINE
  8
_0-b_細線3
  6
CONTINUOUS
 62
    7
 10
868.7863747011927
 20
396.07326645174885
 11
905.05304136785912
 21
396.07326645174885
  0
LINE
  8
_0-b_細線3
  6
CONTINUOUS
 62
    7
 10
778.11970803259669
 20
396.07326645174885
 11
814.38637469926289
 21
396.07326645174885
  0
LINE
  8
_0-b_細線3
  6
CONTINUOUS
 62
    7
 10
732.78637469829891
 20
396.07326645174885
 11
769.05304136496557
 21
396.07326645174885
  0
LINE
  8
_0-b_細線3
  6
CONTINUOUS
 62
    7
 10
687.45304136399977
 20
396.07326645174885
 11
723.71970803066688
 21
396.07326645174885
  0
LINE
  8
_0-b_細線3
  6
CONTINUOUS
 62
    7
 10
959.45304136928212
 20
396.07326645174885
 11
995.71970803594922
 21
396.07326645174885
  0
LINE
  8
_0-b_細線3
  6
CONTINUOUS
 62
    7
 10
1004.7863747035797
 20
396.07326645174885
 11
1041.053041370247
 21
396.07326645174885
  0
LINE
  8
_0-b_細線3
  6
CONTINUOUS
 62
    7
 10
642.11970803066652
 20
396.07326645174885
 11
678.38637469733339
 21
396.07326645174885
  0
LINE
  8
_0-b_細線3
  6
CONTINUOUS
 62
    7
 10
1050.1197080373715
 20
396.07326645174885
 11
1086.3863747040382
 21
396.07326645174885
  0
LINE
  8
_0-b_細線3
  6
CONTINUOUS
 62
    7
 10
1095.4530413711639
 20
396.07326645174885
 11
1131.7197080378303
 21
396.07326645174885
  0
LINE
  8
_0-b_細線3
  6
CONTINUOUS
 62
    7
 10
1140.7863747049551
 20
396.07326645174885
 11
1177.0530413716222
 21
396.07326645174885
  0
LINE
  8
_0-b_細線3
  6
CONTINUOUS
 62
    7
 10
914.11970803549139
 20
430.73993311841514
 11
950.38637470215758
 21
430.73993311841514
  0
LINE
  8
_0-b_細線3
  6
CONTINUOUS
 62
    7
 10
868.7863747011927
 20
430.73993311841514
 11
905.05304136785935
 21
430.73993311841514
  0
LINE
  8
_0-b_細線3
  6
CONTINUOUS
 62
    7
 10
778.11970803259715
 20
430.73993311841514
 11
814.38637469926334
 21
430.73993311841514
  0
LINE
  8
_0-b_細線3
  6
CONTINUOUS
 62
    7
 10
732.78637469829914
 20
430.73993311841514
 11
769.05304136496557
 21
430.73993311841514
  0
LINE
  8
_0-b_細線3
  6
CONTINUOUS
 62
    7
 10
687.45304136400068
 20
430.73993311841514
 11
723.71970803066733
 21
430.73993311841514
  0
LINE
  8
_0-b_細線3
  6
CONTINUOUS
 62
    7
 10
959.45304136928189
 20
430.73993311841514
 11
995.71970803594877
 21
430.73993311841514
  0
LINE
  8
_0-b_細線3
  6
CONTINUOUS
 62
    7
 10
1004.7863747035803
 20
430.73993311841514
 11
1041.0530413702475
 21
430.73993311841514
  0
LINE
  8
_0-b_細線3
  6
CONTINUOUS
 62
    7
 10
642.11970803066674
 20
430.73993311841514
 11
678.38637469733385
 21
430.73993311841514
  0
LINE
  8
_0-b_細線3
  6
CONTINUOUS
 62
    7
 10
1050.1197080373715
 20
430.73993311841514
 11
1086.3863747040386
 21
430.73993311841514
  0
LINE
  8
_0-b_細線3
  6
CONTINUOUS
 62
    7
 10
1095.4530413711632
 20
430.73993311841514
 11
1131.7197080378303
 21
430.73993311841514
  0
LINE
  8
_0-b_細線3
  6
CONTINUOUS
 62
    7
 10
1140.7863747049548
 20
430.73993311841514
 11
1177.0530413716217
 21
430.73993311841514
  0
LINE
  8
_0-b_細線3
  6
CONTINUOUS
 62
    7
 10
1186.119708038337
 20
396.07326645174885
 11
1221.5863747050032
 21
396.07326645174885
  0
LINE
  8
_0-b_細線3
  6
CONTINUOUS
 62
    7
 10
1186.1197080383363
 20
430.73993311841514
 11
1221.5863747050032
 21
430.73993311841514
  0
LINE
  8
_0-b_細線3
  6
CONTINUOUS
 62
    7
 10
1230.6530413721282
 20
396.07326645174885
 11
1265.8530413721285
 21
396.07326645174885
  0
LINE
  8
_0-b_細線3
  6
CONTINUOUS
 62
    7
 10
1230.6530413721277
 20
430.73993311841514
 11
1265.853041372128
 21
430.73993311841514
  0
LINE
  8
_0-b_細線3
  6
CONTINUOUS
 62
    7
 10
633.05304187085312
 20
396.07326645174885
 11
596.78637520418602
 21
396.07326645174885
  0
LINE
  8
_0-b_細線3
  6
CONTINUOUS
 62
    7
 10
587.71970853706148
 20
396.07326645174885
 11
551.4530418703946
 21
396.07326645174885
  0
LINE
  8
_0-b_細線3
  6
CONTINUOUS
 62
    7
 10
542.38637520326915
 20
396.07326645174885
 11
506.11970853660296
 21
396.07326645174885
  0
LINE
  8
_0-b_細線3
  6
CONTINUOUS
 62
    7
 10
497.05304186947762
 20
396.07326645174885
 11
460.78637520281063
 21
396.07326645174885
  0
LINE
  8
_0-b_細線3
  6
CONTINUOUS
 62
    7
 10
633.05304187085244
 20
430.73993311841514
 11
596.78637520418533
 21
430.73993311841514
  0
LINE
  8
_0-b_細線3
  6
CONTINUOUS
 62
    7
 10
587.71970853706148
 20
430.73993311841514
 11
551.4530418703946
 21
430.73993311841514
  0
LINE
  8
_0-b_細線3
  6
CONTINUOUS
 62
    7
 10
542.38637520327006
 20
430.73993311841514
 11
506.11970853660296
 21
430.73993311841514
  0
LINE
  8
_0-b_細線3
  6
CONTINUOUS
 62
    7
 10
497.05304186947842
 20
430.73993311841514
 11
460.78637520281131
 21
430.73993311841514
  0
LINE
  8
_0-b_細線3
  6
CONTINUOUS
 62
    7
 10
451.71970853609605
 20
396.07326645174885
 11
416.25304186942981
 21
396.07326645174885
  0
LINE
  8
_0-b_細線3
  6
CONTINUOUS
 62
    7
 10
451.71970853609685
 20
430.73993311841514
 11
416.25304186942981
 21
430.73993311841514
  0
LINE
  8
_0-b_細線3
  6
CONTINUOUS
 62
    7
 10
407.18637520230459
 20
396.07326645174885
 11
371.98637520230477
 21
396.07326645174885
  0
LINE
  8
_0-b_細線3
  6
CONTINUOUS
 62
    7
 10
407.18637520230527
 20
430.73993311841514
 11
371.98637520230477
 21
430.73993311841514
  0
LINE
  8
_0-a_極細3
  6
CENTER1
 62
    7
 10
1305.0899450386389
 20
413.40659978508165
 11
330.88912199337221
 21
413.40659978508165
  0
ARC
  8
_0-b_細線3
  6
CONTINUOUS
 62
    7
 10
359.4617138646538
 20
396.60659978508227
 40
0.5333333333333335
 50
179.99999999999983
 51
269.99999999999977
  0
LINE
  8
_0-b_細線3
  6
CONTINUOUS
 62
    7
 10
362.91970853132091
 20
396.07326645174874
 11
359.4617138646538
 21
396.07326645174874
  0
ARC
  8
_0-b_細線3
  6
CONTINUOUS
 62
    7
 10
359.4617138646538
 20
430.20659978508161
 40
0.5333333333333335
 50
89.999999999999915
 51
179.99999999999983
  0
LINE
  8
_0-b_細線3
  6
CONTINUOUS
 62
    7
 10
362.91970853132091
 20
430.73993311841593
 11
359.4617138646538
 21
430.73993311841593
  0
LINE
  8
_0-b_細線3
  6
CONTINUOUS
 62
    7
 10
358.92838053131982
 20
412.07326645174874
 11
358.92838053131982
 21
396.60659978508227
  0
LINE
  8
_0-b_細線3
  6
CONTINUOUS
 62
    7
 10
358.92838053131982
 20
430.20659978508161
 11
358.92838053131982
 21
412.07326645174874
  0
LINE
  8
_0-b_細線3
  6
CONTINUOUS
 62
    7
 10
358.92838053131982
 20
413.40659978508165
 11
350.91633786465297
 21
413.40659978508165
  0
LINE
  8
_0-b_細線3
  6
CONTINUOUS
 62
    7
 10
358.92838053131982
 20
404.07326645174953
 11
350.91630586465442
 21
404.07326645174953
  0
ARC
  8
_0-b_細線3
  6
CONTINUOUS
 62
    7
 10
350.91630586465442
 20
404.60659978508238
 40
0.5333333333333335
 50
179.99999999999983
 51
269.99999999999977
  0
ARC
  8
_0-b_細線3
  6
CONTINUOUS
 62
    7
 10
371.07091919798677
 20
408.73954378508324
 40
20.687882666666667
 50
166.96197800000505
 51
193.03566999999961
  0
ARC
  8
_0-b_細線3
  6
CONTINUOUS
 62
    7
 10
350.91630586465442
 20
422.20659978508309
 40
0.5333333333333335
 50
89.999999999999915
 51
179.99999999999983
  0
ARC
  8
_0-b_細線3
  6
CONTINUOUS
 62
    7
 10
371.07091919798677
 20
418.07365045174856
 40
20.687882666666667
 50
166.96433000000002
 51
193.03802199999856
  0
LINE
  8
_0-b_細線3
  6
CONTINUOUS
 62
    7
 10
358.92838053131982
 20
422.73993311841593
 11
350.91630586465442
 21
422.73993311841593
  0
LINE
  8
_0-b_細線3
  6
CONTINUOUS
 62
    7
 10
350.38297253132021
 20
404.60659978508238
 11
350.38297253132021
 21
422.20659978508309
  0
ARC
  8
_0-b_細線3
  6
CONTINUOUS
 62
    7
 10
1278.3777021995263
 20
396.60659978508227
 40
0.5333333333333335
 50
269.99999999999977
 51
359.99999999999966
  0
LINE
  8
_0-b_細線3
  6
CONTINUOUS
 62
    7
 10
1274.9197075328591
 20
396.07326645174874
 11
1278.3777021995263
 21
396.07326645174874
  0
ARC
  8
_0-b_細線3
  6
CONTINUOUS
 62
    7
 10
1278.3777021995263
 20
430.20659978508161
 40
0.5333333333333335
 50
0
 51
89.999999999999915
  0
LINE
  8
_0-b_細線3
  6
CONTINUOUS
 62
    7
 10
1274.9197075328591
 20
430.73993311841593
 11
1278.3777021995263
 21
430.73993311841593
  0
LINE
  8
_0-b_細線3
  6
CONTINUOUS
 62
    7
 10
1278.9110355328603
 20
412.07326645174874
 11
1278.9110355328603
 21
396.60659978508227
  0
LINE
  8
_0-b_細線3
  6
CONTINUOUS
 62
    7
 10
1278.9110355328603
 20
430.20659978508161
 11
1278.9110355328603
 21
412.07326645174874
  0
LINE
  8
_0-b_細線3
  6
CONTINUOUS
 62
    7
 10
1278.9110355328603
 20
413.40659978508165
 11
1286.923078199527
 21
413.40659978508165
  0
LINE
  8
_0-b_細線3
  6
CONTINUOUS
 62
    7
 10
1278.9110355328603
 20
404.07326645174953
 11
1286.9231101995256
 21
404.07326645174953
  0
ARC
  8
_0-b_細線3
  6
CONTINUOUS
 62
    7
 10
1286.9231101995256
 20
404.60659978508238
 40
0.5333333333333335
 50
269.99999999999977
 51
359.99999999999966
  0
ARC
  8
_0-b_細線3
  6
CONTINUOUS
 62
    7
 10
1266.7684968661933
 20
408.73954378508324
 40
20.687882666666667
 50
346.96432999999979
 51
13.038021999994573
  0
ARC
  8
_0-b_細線3
  6
CONTINUOUS
 62
    7
 10
1286.9231101995256
 20
422.20659978508309
 40
0.5333333333333335
 50
0
 51
89.999999999999915
  0
ARC
  8
_0-b_細線3
  6
CONTINUOUS
 62
    7
 10
1266.7684968661933
 20
418.07365045174856
 40
20.687882666666667
 50
346.96197800000067
 51
13.035669999999472
  0
LINE
  8
_0-b_細線3
  6
CONTINUOUS
 62
    7
 10
1278.9110355328603
 20
422.73993311841593
 11
1286.9231101995256
 21
422.73993311841593
  0
LINE
  8
_0-b_細線3
  6
CONTINUOUS
 62
    7
 10
1287.4564435328598
 20
404.60659978508238
 11
1287.4564435328598
 21
422.20659978508309
  0
ARC
  8
_0-b_細線3
  6
CONTINUOUS
 62
    7
 10
806.38637470169942
 20
437.9399331184153
 40
2.6666666666666674
 50
89.999999999999915
 51
179.99999999999983
  0
ARC
  8
_0-b_細線3
  6
CONTINUOUS
 62
    7
 10
807.63423921190611
 20
443.27326645174799
 40
2.6666666666666674
 50
269.99999999999977
 51
330.00000000001336
  0
ARC
  8
_0-b_細線3
  6
CONTINUOUS
 62
    7
 10
812.25304136542331
 20
440.60659978508215
 40
2.6666666666666674
 50
89.999999999999915
 51
150.00000000000395
  0
LINE
  8
_0-b_細線3
  6
CONTINUOUS
 62
    7
 10
806.38637470169942
 20
440.60659978508215
 11
807.63423921190611
 21
440.60659978508215
  0
ARC
  8
_0-b_細線3
  6
CONTINUOUS
 62
    7
 10
831.45304136248114
 20
437.9399331184153
 40
2.6666666666666674
 50
0
 51
89.999999999999915
  0
ARC
  8
_0-b_細線3
  6
CONTINUOUS
 62
    7
 10
830.20517685227401
 20
443.27326645174799
 40
2.6666666666666674
 50
209.99999999999082
 51
269.99999999999977
  0
ARC
  8
_0-b_細線3
  6
CONTINUOUS
 62
    7
 10
825.5863746987568
 20
440.60659978508215
 40
2.6666666666666674
 50
29.999999999991157
 51
89.999999999999929
  0
LINE
  8
_0-b_細線3
  6
CONTINUOUS
 62
    7
 10
831.45304136248114
 20
440.60659978508215
 11
830.20517685227401
 21
440.60659978508215
  0
ARC
  8
_0-b_細線3
  6
CONTINUOUS
 62
    7
 10
805.05304136836639
 20
434.20659978508229
 40
1.3333333333333337
 50
179.99999999999983
 51
269.99999999999977
  0
LINE
  8
_0-b_細線3
  6
CONTINUOUS
 62
    7
 10
803.71970803503291
 20
437.9399331184153
 11
803.71970803503291
 21
434.20659978508229
  0
ARC
  8
_0-b_細線3
  6
CONTINUOUS
 62
    7
 10
832.7863746958144
 20
434.20659978508229
 40
1.3333333333333337
 50
269.99999999999977
 51
359.99999999999966
  0
LINE
  8
_0-b_細線3
  6
CONTINUOUS
 62
    7
 10
834.11970802914766
 20
437.9399331184153
 11
834.11970802914766
 21
434.20659978508229
  0
ARC
  8
_0-b_細線3
  6
CONTINUOUS
 62
    7
 10
811.71970803503268
 20
430.20659978508252
 40
2.6666666666666674
 50
0
 51
89.999999999999915
  0
LINE
  8
_0-b_細線3
  6
CONTINUOUS
 62
    7
 10
811.71970803503268
 20
432.87326645174835
 11
805.05304136836639
 21
432.87326645174835
  0
ARC
  8
_0-b_細線3
  6
CONTINUOUS
 62
    7
 10
826.119708035033
 20
430.20659978508252
 40
2.6666666666666674
 50
89.999999999999915
 51
179.99999999999983
  0
LINE
  8
_0-b_細線3
  6
CONTINUOUS
 62
    7
 10
826.11970802914652
 20
432.87326645174835
 11
832.7863746958144
 21
432.87326645174835
  0
LINE
  8
_0-b_細線3
  6
CONTINUOUS
 62
    7
 10
825.5863746987568
 20
443.27326645174799
 11
812.25304136542331
 21
443.27326645174799
  0
LINE
  8
_0-b_細線3
  6
CONTINUOUS
 62
    7
 10
814.38637469875698
 20
389.93993311841541
 11
814.3863747016992
 21
430.20659978508252
  0
LINE
  8
_0-b_細線3
  6
CONTINUOUS
 62
    7
 10
823.45304136542313
 20
389.93993311841541
 11
823.45304136836648
 21
430.20659978508252
  0
LINE
  8
_0-b_細線3
  6
CONTINUOUS
 62
    7
 10
823.45304136542313
 20
389.93993311841541
 11
814.38637469875698
 21
389.93993311841541
  0
LINE
  8
_0-b_細線3
  6
CONTINUOUS
 62
    7
 10
847.85304136737795
 20
443.80724314456836
 11
847.85304136737795
 21
390.47390981123397
  0
LINE
  8
_0-b_細線3
  6
CONTINUOUS
 62
    7
 10
835.31970803404351
 20
390.47390981123397
 11
835.31970803404351
 21
443.80724314456836
  0
LINE
  8
_0-b_細線3
  6
CONTINUOUS
 62
    7
 10
847.85304136737795
 20
390.47390981123397
 11
835.31970803404351
 21
390.47390981123397
  0
LINE
  8
_0-b_細線3
  6
CONTINUOUS
 62
    7
 10
835.31970803404351
 20
443.80724314456836
 11
847.85304136737795
 21
443.80724314456836
  0
LINE
  8
_0-b_細線3
  6
DASHED2
 62
    7
 10
835.31970803404351
 20
398.47390981123397
 11
847.85304136737795
 21
398.47390981123397
  0
LINE
  8
_0-b_細線3
  6
DASHED2
 62
    7
 10
835.31970803404351
 20
435.80724314456836
 11
847.85304136737795
 21
435.80724314456836
  0
LINE
  8
_0-b_細線3
  6
CONTINUOUS
 62
    7
 10
847.85304136737795
 20
430.73993311841514
 11
859.71970803356157
 21
430.73993311841514
  0
LINE
  8
_0-b_細線3
  6
CONTINUOUS
 62
    7
 10
823.45304136840537
 20
430.73993311841514
 11
835.31970803404351
 21
430.73993311841514
  0
LINE
  8
_0-b_細線3
  6
CONTINUOUS
 62
    7
 10
823.45304136583241
 20
396.07326645174885
 11
835.31970803404351
 21
396.07326645174885
  0
LINE
  8
_0-b_細線3
  6
CONTINUOUS
 62
    7
 10
847.85304136737795
 20
396.07326645174885
 11
859.71970803356112
 21
396.07326645174885
  0
LINE
  8
_0-b_細線3
  6
CONTINUOUS
 62
    7
 10
338.91970803208994
 20
413.9405171210999
 11
338.91970803208994
 21
320.60718378776676
  0
LINE
  8
_0-b_細線3
  6
CONTINUOUS
 62
    7
 10
338.91970803208994
 20
320.60718378776676
 11
332.78637469875662
 21
320.60718378776676
  0
LINE
  8
_0-b_細線3
  6
CONTINUOUS
 62
    7
 10
332.78637469875662
 20
320.60718378776676
 11
332.78637469875662
 21
413.9405171210999
  0
LINE
  8
_0-b_細線3
  6
CONTINUOUS
 62
    7
 10
332.78637469875662
 20
413.9405171210999
 11
338.91970803208994
 21
413.9405171210999
  0
LINE
  8
_0-a_極細3
  6
CONTINUOUS
 62
    7
 10
332.78637469875662
 20
371.27385045443327
 11
338.91970803208994
 21
371.27385045443327
  0
LINE
  8
_0-a_極細3
  6
CONTINUOUS
 62
    7
 10
332.78637469875662
 20
376.60718378776664
 11
338.91970803208994
 21
376.60718378776664
  0
LINE
  8
_0-a_極細3
  6
CONTINUOUS
 62
    7
 10
332.78637469875662
 20
365.9405171210999
 11
338.91970803208994
 21
365.9405171210999
  0
LINE
  8
_0-a_極細3
  6
CONTINUOUS
 62
    7
 10
332.78637469875662
 20
381.9405171210999
 11
338.91970803208994
 21
381.9405171210999
  0
LINE
  8
_0-a_極細3
  6
CONTINUOUS
 62
    7
 10
338.91970803208994
 20
328.60718378776664
 11
332.78637469875662
 21
328.60718378776664
  0
LINE
  8
_0-a_極細3
  6
CONTINUOUS
 62
    7
 10
332.78637469875662
 20
408.60718378776664
 11
338.91970803208994
 21
408.60718378776664
  0
LINE
  8
_0-b_細線3
  6
CONTINUOUS
 62
    7
 10
1298.9197080320905
 20
413.9405171210999
 11
1298.9197080320905
 21
320.60718378776676
  0
LINE
  8
_0-b_細線3
  6
CONTINUOUS
 62
    7
 10
1298.9197080320905
 20
320.60718378776676
 11
1305.053041365424
 21
320.60718378776676
  0
LINE
  8
_0-b_細線3
  6
CONTINUOUS
 62
    7
 10
1305.053041365424
 20
320.60718378776676
 11
1305.053041365424
 21
413.9405171210999
  0
LINE
  8
_0-b_細線3
  6
CONTINUOUS
 62
    7
 10
1305.053041365424
 20
413.9405171210999
 11
1298.9197080320905
 21
413.9405171210999
  0
LINE
  8
_0-a_極細3
  6
CONTINUOUS
 62
    7
 10
1305.053041365424
 20
371.27385045443327
 11
1298.9197080320905
 21
371.27385045443327
  0
LINE
  8
_0-a_極細3
  6
CONTINUOUS
 62
    7
 10
1305.053041365424
 20
376.60718378776664
 11
1298.9197080320905
 21
376.60718378776664
  0
LINE
  8
_0-a_極細3
  6
CONTINUOUS
 62
    7
 10
1305.053041365424
 20
365.9405171210999
 11
1298.9197080320905
 21
365.9405171210999
  0
LINE
  8
_0-a_極細3
  6
CONTINUOUS
 62
    7
 10
1305.053041365424
 20
381.9405171210999
 11
1298.9197080320905
 21
381.9405171210999
  0
LINE
  8
_0-a_極細3
  6
CONTINUOUS
 62
    7
 10
1298.9197080320905
 20
328.60718378776664
 11
1305.053041365424
 21
328.60718378776664
  0
LINE
  8
_0-a_極細3
  6
CONTINUOUS
 62
    7
 10
1305.053041365424
 20
408.60718378776664
 11
1298.9197080320905
 21
408.60718378776664
  0
LINE
  8
_0-7_枠細線
  6
CONTINUOUS
 62
    5
 10
1333.7421883104194
 20
396.87383200100373
 11
1321.7421883104194
 21
420.87383200100373
  0
LINE
  8
_0-7_枠細線
  6
CONTINUOUS
 62
    5
 10
1309.7421883104196
 20
396.87383200100373
 11
1333.7421883104194
 21
396.87383200100373
  0
LINE
  8
_0-7_枠細線
  6
CONTINUOUS
 62
    5
 10
1321.7421883104194
 20
420.87383200100373
 11
1309.7421883104196
 21
396.87383200100373
  0
TEXT
  8
_0-7_枠細線
 62
    5
 10
1313.5264303394565
 20
395.35572005724384
 40
20
 41
0.8
 50
0
  1
５
  0
LINE
  8
_0-d_寸法3
  6
CONTINUOUS
 62
    7
 10
954.9197080349843
 20
459.27326645174799
 11
954.9197080349843
 21
531.27326645174799
  0
LINE
  8
_0-d_寸法3
  6
CONTINUOUS
 62
    7
 10
954.9197080349843
 20
523.27326645174799
 11
970.37452125560935
 21
527.4143711733883
  0
LINE
  8
_0-d_寸法3
  6
CONTINUOUS
 62
    7
 10
954.9197080349843
 20
523.27326645174799
 11
970.37452125560935
 21
519.13216173010767
  0
LINE
  8
_0-d_寸法3
  6
CONTINUOUS
 62
    7
 10
1000.2530413692825
 20
459.27326645174799
 11
1000.2530413692825
 21
531.27326645174799
  0
LINE
  8
_0-d_寸法3
  6
CONTINUOUS
 62
    7
 10
1000.2530413692825
 20
523.27326645174799
 11
984.79822814865747
 21
519.13216173010767
  0
LINE
  8
_0-d_寸法3
  6
CONTINUOUS
 62
    7
 10
1000.2530413692825
 20
523.27326645174799
 11
984.79822814865747
 21
527.41437117338842
  0
LINE
  8
_0-d_寸法3
  6
CONTINUOUS
 62
    7
 10
954.9197080349843
 20
523.27326645174799
 11
1000.2530413692825
 21
523.27326645174799
  0
TEXT
  8
_0-d_寸法3
 62
    7
 10
951.73681103396552
 20
499.27326645174799
 40
24
 41
1
 50
0
  1
(17)
  0
LINE
  8
_0-d_寸法3
  6
CONTINUOUS
 62
    7
 10
1000.2530413692825
 20
523.27326645174799
 11
1015.7078545899077
 21
527.41437117338819
  0
LINE
  8
_0-d_寸法3
  6
CONTINUOUS
 62
    7
 10
1000.2530413692825
 20
523.27326645174799
 11
1015.7078545899076
 21
519.13216173010755
  0
LINE
  8
_0-d_寸法3
  6
CONTINUOUS
 62
    7
 10
1045.5863747035805
 20
459.27326645174799
 11
1045.5863747035805
 21
531.27326645174799
  0
LINE
  8
_0-d_寸法3
  6
CONTINUOUS
 62
    7
 10
1045.5863747035805
 20
523.27326645174799
 11
1030.1315614829555
 21
519.13216173010767
  0
LINE
  8
_0-d_寸法3
  6
CONTINUOUS
 62
    7
 10
1045.5863747035805
 20
523.27326645174799
 11
1030.1315614829555
 21
527.41437117338842
  0
LINE
  8
_0-d_寸法3
  6
CONTINUOUS
 62
    7
 10
1000.2530413692825
 20
523.27326645174799
 11
1045.5863747035805
 21
523.27326645174799
  0
TEXT
  8
_0-d_寸法3
 62
    7
 10
1000.3768110339656
 20
523.27326645174799
 40
24
 41
1
 50
0
  1
(17)
  0
LINE
  8
_0-d_寸法3
  6
CONTINUOUS
 62
    7
 10
652.78637469195542
 20
453.9399331184153
 11
652.78637469195542
 21
531.27326645174799
  0
LINE
  8
_0-d_寸法3
  6
CONTINUOUS
 62
    7
 10
652.78637469195542
 20
523.27326645174799
 11
637.33156147133036
 21
519.13216173010767
  0
LINE
  8
_0-d_寸法3
  6
CONTINUOUS
 62
    7
 10
652.78637469195542
 20
523.27326645174799
 11
637.33156147133036
 21
527.41437117338842
  0
LINE
  8
_0-d_寸法3
  6
CONTINUOUS
 62
    7
 10
667.71970803213935
 20
453.9399331184153
 11
667.71970803213935
 21
531.27326645174799
  0
LINE
  8
_0-d_寸法3
  6
CONTINUOUS
 62
    7
 10
589.78804559888817
 20
523.27326645174799
 11
667.71970803213935
 21
523.27326645174799
  0
TEXT
  8
_0-d_寸法3
 62
    7
 10
589.78804559888817
 20
499.27326645174799
 40
24
 41
1
 50
0
  1
(5.6)
  0
LINE
  8
_0-d_寸法3
  6
CONTINUOUS
 62
    7
 10
667.71970803213935
 20
523.27326645174799
 11
683.17452125276441
 21
527.4143711733883
  0
LINE
  8
_0-d_寸法3
  6
CONTINUOUS
 62
    7
 10
667.71970803213935
 20
523.27326645174799
 11
683.17452125276441
 21
519.13216173010767
  0
LINE
  8
_0-d_寸法3
  6
CONTINUOUS
 62
    7
 10
698.11970802625342
 20
453.9399331184153
 11
698.11970802625342
 21
531.27326645174799
  0
LINE
  8
_0-d_寸法3
  6
CONTINUOUS
 62
    7
 10
698.11970802625342
 20
523.27326645174799
 11
682.66489480562836
 21
519.13216173010767
  0
LINE
  8
_0-d_寸法3
  6
CONTINUOUS
 62
    7
 10
698.11970802625342
 20
523.27326645174799
 11
682.66489480562836
 21
527.41437117338842
  0
LINE
  8
_0-d_寸法3
  6
CONTINUOUS
 62
    7
 10
667.71970803213935
 20
523.27326645174799
 11
698.11970802625342
 21
523.27326645174799
  0
TEXT
  8
_0-d_寸法3
 62
    7
 10
652.89619374703602
 20
523.27326645174799
 40
24
 41
1
 50
0
  1
11.4
  0
LINE
  8
_0-d_寸法3
  6
CONTINUOUS
 62
    7
 10
338.91970803209006
 20
451.27385045443418
 11
338.91970803209006
 21
643.27326645174799
  0
LINE
  8
_0-d_寸法3
  6
CONTINUOUS
 62
    7
 10
338.91970803209006
 20
635.27326645174799
 11
354.37452125271511
 21
639.4143711733883
  0
LINE
  8
_0-d_寸法3
  6
CONTINUOUS
 62
    7
 10
338.91970803209006
 20
635.27326645174799
 11
354.37452125271511
 21
631.13216173010767
  0
LINE
  8
_0-d_寸法3
  6
CONTINUOUS
 62
    7
 10
1298.9197080320901
 20
451.27385045443418
 11
1298.9197080320905
 21
643.27326645174799
  0
LINE
  8
_0-d_寸法3
  6
CONTINUOUS
 62
    7
 10
1298.9197080320905
 20
635.27326645174799
 11
1283.4648948114655
 21
631.13216173010767
  0
LINE
  8
_0-d_寸法3
  6
CONTINUOUS
 62
    7
 10
1298.9197080320905
 20
635.27326645174799
 11
1283.4648948114655
 21
639.41437117338842
  0
LINE
  8
_0-d_寸法3
  6
CONTINUOUS
 62
    7
 10
338.91970803209006
 20
635.27326645174799
 11
1298.9197080320905
 21
635.27326645174799
  0
TEXT
  8
_0-d_寸法3
 62
    7
 10
800.9197080320904
 20
635.27326645174799
 40
24
 41
1
 50
0
  1
360
  0
LINE
  8
_0-d_寸法3
  6
CONTINUOUS
 62
    7
 10
1298.9197080320905
 20
304.6071837877671
 11
1298.9197080320905
 21
232.60718378776676
  0
LINE
  8
_0-d_寸法3
  6
CONTINUOUS
 62
    7
 10
1298.9197080320905
 20
240.60718378776676
 11
1283.4648948114655
 21
236.46607906612644
  0
LINE
  8
_0-d_寸法3
  6
CONTINUOUS
 62
    7
 10
1298.9197080320905
 20
240.60718378776676
 11
1283.4648948114655
 21
244.74828850940708
  0
LINE
  8
_0-d_寸法3
  6
CONTINUOUS
 62
    7
 10
1218.9197080320905
 20
365.9405171210999
 11
1218.919708032091
 21
232.60718378776676
  0
LINE
  8
_0-d_寸法3
  6
CONTINUOUS
 62
    7
 10
1218.919708032091
 20
240.60718378776676
 11
1234.374521252716
 21
244.74828850940708
  0
LINE
  8
_0-d_寸法3
  6
CONTINUOUS
 62
    7
 10
1218.919708032091
 20
240.60718378776676
 11
1234.374521252716
 21
236.46607906612644
  0
LINE
  8
_0-d_寸法3
  6
CONTINUOUS
 62
    7
 10
1298.9197080320905
 20
240.60718378776676
 11
1218.919708032091
 21
240.60718378776676
  0
TEXT
  8
_0-d_寸法3
 62
    7
 10
1246.9197080320905
 20
240.60718378776676
 40
24
 41
1
 50
0
  1
30
  0
LINE
  8
_0-d_寸法3
  6
CONTINUOUS
 62
    7
 10
338.91970803208983
 20
304.6071837877671
 11
338.91970803208858
 21
232.60718378776676
  0
LINE
  8
_0-d_寸法3
  6
CONTINUOUS
 62
    7
 10
338.91970803208869
 20
240.60718378776676
 11
354.37452125271375
 21
244.74828850940708
  0
LINE
  8
_0-d_寸法3
  6
CONTINUOUS
 62
    7
 10
338.91970803208869
 20
240.60718378776676
 11
354.37452125271375
 21
236.46607906612644
  0
LINE
  8
_0-d_寸法3
  6
CONTINUOUS
 62
    7
 10
418.91970803208983
 20
365.9405171210999
 11
418.91970803208778
 21
232.60718378776676
  0
LINE
  8
_0-d_寸法3
  6
CONTINUOUS
 62
    7
 10
418.91970803208778
 20
240.60718378776676
 11
403.46489481146273
 21
236.46607906612644
  0
LINE
  8
_0-d_寸法3
  6
CONTINUOUS
 62
    7
 10
418.91970803208778
 20
240.60718378776676
 11
403.46489481146273
 21
244.74828850940708
  0
LINE
  8
_0-d_寸法3
  6
CONTINUOUS
 62
    7
 10
338.91970803208869
 20
240.60718378776676
 11
418.91970803208778
 21
240.60718378776676
  0
TEXT
  8
_0-d_寸法3
 62
    7
 10
366.91970803208824
 20
240.60718378776676
 40
24
 41
1
 50
0
  1
30
  0
LINE
  8
_0-d_寸法3
  6
CONTINUOUS
 62
    7
 10
418.91970803209006
 20
373.9405171210999
 11
418.91970803208937
 21
232.60718378776676
  0
LINE
  8
_0-d_寸法3
  6
CONTINUOUS
 62
    7
 10
418.91970803208949
 20
240.60718378776676
 11
434.37452125271466
 21
244.74828850940708
  0
LINE
  8
_0-d_寸法3
  6
CONTINUOUS
 62
    7
 10
418.91970803208949
 20
240.60718378776676
 11
434.37452125271466
 21
236.46607906612644
  0
LINE
  8
_0-d_寸法3
  6
CONTINUOUS
 62
    7
 10
1218.9197080320896
 20
373.9405171210999
 11
1218.9197080320894
 21
232.60718378776676
  0
LINE
  8
_0-d_寸法3
  6
CONTINUOUS
 62
    7
 10
1218.9197080320894
 20
240.60718378776676
 11
1203.4648948114643
 21
236.46607906612644
  0
LINE
  8
_0-d_寸法3
  6
CONTINUOUS
 62
    7
 10
1218.9197080320894
 20
240.60718378776676
 11
1203.4648948114643
 21
244.74828850940719
  0
LINE
  8
_0-d_寸法3
  6
CONTINUOUS
 62
    7
 10
418.91970803208949
 20
240.60718378776676
 11
1218.9197080320894
 21
240.60718378776676
  0
TEXT
  8
_0-d_寸法3
 62
    7
 10
800.91970803208937
 20
240.60718378776676
 40
24
 41
1
 50
0
  1
300
  0
LINE
  8
_0-5_寸法線
  6
CONTINUOUS
 62
    7
 10
1438.2372262773702
 20
1175.3867850222425
 11
1434.09612155573
 21
1190.8415982428676
  0
LINE
  8
_0-5_寸法線
  6
CONTINUOUS
 62
    7
 10
1438.2372262773702
 20
1175.3867850222425
 11
1442.3783309990106
 21
1190.8415982428676
  0
LINE
  8
_0-5_寸法線
  6
CONTINUOUS
 62
    7
 10
1374.2372262773715
 20
1172.3867850222425
 11
1446.2372262773702
 21
1172.3867850222425
  0
CIRCLE
  8
_0-5_寸法線
  6
CONTINUOUS
 62
    1
 10
1438.2372262773702
 20
1172.3867850222425
 40
2.4000000000000004
  0
LINE
  8
_0-5_寸法線
  6
CONTINUOUS
 62
    7
 10
1438.2372262773702
 20
1215.3867850222425
 11
1438.2372262773702
 21
1172.3867850222425
  0
TEXT
  8
_0-5_寸法線
 62
    7
 10
1438.2372262773702
 20
1195.9836173867093
 40
24
 41
1
 50
90
  1
3
  0
LINE
  8
_0-5_寸法線
  6
CONTINUOUS
 62
    7
 10
1374.2372262773715
 20
1170.3867850222434
 11
1446.2372262773702
 21
1170.3867850222434
  0
LINE
  8
_0-5_寸法線
  6
CONTINUOUS
 62
    7
 10
1438.2372262773702
 20
1172.3867850222425
 11
1438.2372262773702
 21
1170.3867850222434
  0
TEXT
  8
_0-5_寸法線
 62
    7
 10
1468.9426168141986
 20
1158.3867850222434
 40
24
 41
1
 50
90
  1
2
  0
LINE
  8
_0-5_寸法線
  6
CONTINUOUS
 62
    7
 10
1438.2372262773702
 20
1170.3867850222434
 11
1442.3783309990104
 21
1154.9319718016184
  0
LINE
  8
_0-5_寸法線
  6
CONTINUOUS
 62
    7
 10
1438.2372262773702
 20
1170.3867850222434
 11
1434.0961215557297
 21
1154.9319718016184
  0
LINE
  8
_0-5_寸法線
  6
CONTINUOUS
 62
    7
 10
1374.237226277372
 20
820.38678502224343
 11
1446.2372262773711
 21
820.38678502224343
  0
LINE
  8
_0-5_寸法線
  6
CONTINUOUS
 62
    7
 10
1438.2372262773711
 20
820.38678502224343
 11
1434.0961215557306
 21
835.84159824286849
  0
LINE
  8
_0-5_寸法線
  6
CONTINUOUS
 62
    7
 10
1438.2372262773711
 20
820.38678502224343
 11
1442.3783309990113
 21
835.84159824286849
  0
LINE
  8
_0-5_寸法線
  6
CONTINUOUS
 62
    7
 10
1438.2372262773702
 20
1170.3867850222434
 11
1438.2372262773711
 21
820.38678502224343
  0
TEXT
  8
_0-5_寸法線
 62
    7
 10
1438.2372262773706
 20
977.38678502224343
 40
24
 41
1
 50
90
  1
350
  0
LINE
  8
_0-5_寸法線
  6
CONTINUOUS
 62
    7
 10
1374.237226277372
 20
818.38678502224343
 11
1446.2372262773649
 21
818.38678502224343
  0
CIRCLE
  8
_0-5_寸法線
  6
CONTINUOUS
 62
    1
 10
1438.2372262773649
 20
818.38678502224343
 40
2.4000000000000004
  0
LINE
  8
_0-5_寸法線
  6
CONTINUOUS
 62
    7
 10
1438.2372262773711
 20
820.38678502224343
 11
1438.2372262773649
 21
818.38678502224343
  0
TEXT
  8
_0-5_寸法線
 62
    7
 10
1469.7975660956245
 20
818.16180032589091
 40
24
 41
1
 50
90
  1
2
  0
LINE
  8
_0-5_寸法線
  6
CONTINUOUS
 62
    7
 10
1438.2372262773727
 20
815.38678502223888
 11
1442.3783309990527
 21
799.9319718016244
  0
LINE
  8
_0-5_寸法線
  6
CONTINUOUS
 62
    7
 10
1438.2372262773727
 20
815.38678502223888
 11
1434.096121555772
 21
799.93197180160314
  0
LINE
  8
_0-5_寸法線
  6
CONTINUOUS
 62
    7
 10
1438.2372262773649
 20
818.38678502224343
 11
1438.2372262774757
 21
775.38678502223888
  0
TEXT
  8
_0-5_寸法線
 62
    7
 10
1438.2372262773649
 20
781.69709781124789
 40
24
 41
1
 50
90
  1
3
  0
LINE
  8
_0-d_寸法3
  6
CONTINUOUS
 62
    7
 10
338.91970803209006
 20
579.27326645174799
 11
323.464894811465
 21
575.13216173010767
  0
LINE
  8
_0-d_寸法3
  6
CONTINUOUS
 62
    7
 10
338.91970803209006
 20
579.27326645174799
 11
323.464894811465
 21
583.41437117338842
  0
LINE
  8
_0-d_寸法3
  6
CONTINUOUS
 62
    7
 10
346.91970803208994
 20
449.94051712109979
 11
346.91970803208994
 21
587.27326645174799
  0
CIRCLE
  8
_0-d_寸法3
  6
CONTINUOUS
 62
    1
 10
346.91970803208994
 20
579.27326645174799
 40
2.4000000000000004
  0
LINE
  8
_0-d_寸法3
  6
CONTINUOUS
 62
    7
 10
298.91970803209006
 20
579.27326645174799
 11
346.91970803208994
 21
579.27326645174799
  0
TEXT
  8
_0-d_寸法3
 62
    7
 10
305.08823932181281
 20
579.27326645174799
 40
24
 41
1
 50
0
  1
3
  0
LINE
  8
_0-d_寸法3
  6
CONTINUOUS
 62
    7
 10
352.25304136542263
 20
445.94051445174898
 11
352.25304136542377
 21
587.27326645174799
  0
LINE
  8
_0-d_寸法3
  6
CONTINUOUS
 62
    7
 10
346.91970803208994
 20
579.27326645174799
 11
352.25304136542366
 21
579.27326645174799
  0
TEXT
  8
_0-d_寸法3
 62
    7
 10
343.58637469875623
 20
579.27326645174799
 40
24
 41
1
 50
0
  1
2
  0
LINE
  8
_0-d_寸法3
  6
CONTINUOUS
 62
    7
 10
352.25304136542366
 20
579.27326645174799
 11
367.70785458604882
 21
583.4143711733883
  0
LINE
  8
_0-d_寸法3
  6
CONTINUOUS
 62
    7
 10
352.25304136542366
 20
579.27326645174799
 11
367.70785458604882
 21
575.13216173010767
  0
LINE
  8
_0-d_寸法3
  6
CONTINUOUS
 62
    7
 10
1285.586374698757
 20
445.94051445174898
 11
1285.586374698757
 21
587.27326645174799
  0
LINE
  8
_0-d_寸法3
  6
CONTINUOUS
 62
    7
 10
1285.586374698757
 20
579.27326645174799
 11
1270.131561478132
 21
575.13216173010767
  0
LINE
  8
_0-d_寸法3
  6
CONTINUOUS
 62
    7
 10
1285.586374698757
 20
579.27326645174799
 11
1270.131561478132
 21
583.41437117338842
  0
LINE
  8
_0-d_寸法3
  6
CONTINUOUS
 62
    7
 10
352.25304136542366
 20
579.27326645174799
 11
1285.586374698757
 21
579.27326645174799
  0
TEXT
  8
_0-d_寸法3
 62
    7
 10
800.91970803209006
 20
579.27326645174799
 40
24
 41
1
 50
0
  1
350
  0
LINE
  8
_0-d_寸法3
  6
CONTINUOUS
 62
    7
 10
1290.9197080320901
 20
449.94051712109979
 11
1290.9197080320907
 21
587.27326645174799
  0
CIRCLE
  8
_0-d_寸法3
  6
CONTINUOUS
 62
    1
 10
1290.9197080320907
 20
579.27326645174799
 40
2.4000000000000004
  0
LINE
  8
_0-d_寸法3
  6
CONTINUOUS
 62
    7
 10
1285.586374698757
 20
579.27326645174799
 11
1290.9197080320907
 21
579.27326645174799
  0
TEXT
  8
_0-d_寸法3
 62
    7
 10
1282.253041365424
 20
579.27326645174799
 40
24
 41
1
 50
0
  1
2
  0
LINE
  8
_0-d_寸法3
  6
CONTINUOUS
 62
    7
 10
1298.9197080320905
 20
579.27326645174799
 11
1314.3745212527156
 21
583.41437117338819
  0
LINE
  8
_0-d_寸法3
  6
CONTINUOUS
 62
    7
 10
1298.9197080320905
 20
579.27326645174799
 11
1314.3745212527156
 21
575.13216173010755
  0
LINE
  8
_0-d_寸法3
  6
CONTINUOUS
 62
    7
 10
1290.9197080320907
 20
579.27326645174799
 11
1338.9197080320905
 21
579.27326645174799
  0
TEXT
  8
_0-d_寸法3
 62
    7
 10
1323.0257923401023
 20
579.27326645174799
 40
24
 41
1
 50
0
  1
3
  0
LINE
  8
_0-7_枠細線
  6
CONTINUOUS
 62
    5
 10
1464.0000000000009
 20
1314.307734354795
 11
1452.0000000000009
 21
1338.307734354795
  0
LINE
  8
_0-7_枠細線
  6
CONTINUOUS
 62
    5
 10
1440.0000000000009
 20
1314.307734354795
 11
1464.0000000000009
 21
1314.307734354795
  0
LINE
  8
_0-7_枠細線
  6
CONTINUOUS
 62
    5
 10
1452.0000000000009
 20
1338.307734354795
 11
1440.0000000000009
 21
1314.307734354795
  0
LINE
  8
_0-7_枠細線
  6
CONTINUOUS
 62
    5
 10
2280.0000000000009
 20
1312
 11
1424.0000000000009
 21
1312
  0
LINE
  8
_0-7_枠細線
  6
CONTINUOUS
 62
    5
 10
1464.0000000000009
 20
1286.307734354795
 11
1452.0000000000009
 21
1310.307734354795
  0
LINE
  8
_0-7_枠細線
  6
CONTINUOUS
 62
    5
 10
1440.0000000000009
 20
1286.307734354795
 11
1464.0000000000009
 21
1286.307734354795
  0
LINE
  8
_0-7_枠細線
  6
CONTINUOUS
 62
    5
 10
1452.0000000000009
 20
1310.307734354795
 11
1440.0000000000009
 21
1286.307734354795
  0
LINE
  8
_0-7_枠細線
  6
CONTINUOUS
 62
    5
 10
2280.0000000000009
 20
1284
 11
1424.0000000000009
 21
1284
  0
TEXT
  8
_0-7_枠細線
 62
    5
 10
1443.7842420290381
 20
1312.7896224110355
 40
20
 41
0.8
 50
0
  1
６
  0
TEXT
  8
_0-7_枠細線
 62
    5
 10
1443.7842420290381
 20
1284.7896224110352
 40
20
 41
0.8
 50
0
  1
７
  0
LINE
  8
_0-7_枠細線
  6
CONTINUOUS
 62
    5
 10
1424.0000000000009
 20
1284
 11
1424.0000000000009
 21
1535.9999999999986
  0
LINE
  8
_0-7_枠細線
  6
CONTINUOUS
 62
    5
 10
1480.0000000000009
 20
1284
 11
1480.0000000000009
 21
1535.9999999999986
  0
LINE
  8
_0-7_枠細線
  6
CONTINUOUS
 62
    5
 10
1880.0000000000009
 20
1284
 11
1880.0000000000009
 21
1535.9999999999986
  0
LINE
  8
_0-7_枠細線
  6
CONTINUOUS
 62
    5
 10
2040.0000000000009
 20
1284
 11
2040.0000000000009
 21
1535.9999999999986
  0
LINE
  8
_0-5_寸法線
  6
CONTINUOUS
 62
    7
 10
837.23722627737197
 20
1191.3867850222425
 11
837.23722627737197
 21
1263.3867850222425
  0
LINE
  8
_0-5_寸法線
  6
CONTINUOUS
 62
    7
 10
837.23722627737197
 20
1255.3867850222425
 11
852.69203949799703
 21
1259.527889743883
  0
LINE
  8
_0-5_寸法線
  6
CONTINUOUS
 62
    7
 10
837.23722627737197
 20
1255.3867850222425
 11
852.69203949799703
 21
1251.2456803006021
  0
LINE
  8
_0-5_寸法線
  6
CONTINUOUS
 62
    7
 10
885.73722627737197
 20
1191.3867850222425
 11
885.73722627737197
 21
1263.3867850222425
  0
LINE
  8
_0-5_寸法線
  6
CONTINUOUS
 62
    7
 10
885.73722627737197
 20
1255.3867850222425
 11
870.28241305674692
 21
1251.2456803006023
  0
LINE
  8
_0-5_寸法線
  6
CONTINUOUS
 62
    7
 10
885.73722627737197
 20
1255.3867850222425
 11
870.28241305674692
 21
1259.527889743883
  0
LINE
  8
_0-5_寸法線
  6
CONTINUOUS
 62
    7
 10
837.23722627737197
 20
1255.3867850222425
 11
885.73722627737197
 21
1255.3867850222425
  0
TEXT
  8
_0-5_寸法線
 62
    7
 10
849.48722627737288
 20
1255.3867850222425
 40
24
 41
1
 50
0
  1
Ｂ
  0
LINE
  8
_0-5_寸法線
  6
CONTINUOUS
 62
    7
 10
337.73722627737197
 20
1191.3867850222425
 11
337.73722627737197
 21
1263.3867850222425
  0
LINE
  8
_0-5_寸法線
  6
CONTINUOUS
 62
    7
 10
337.73722627737197
 20
1255.3867850222425
 11
353.19203949799703
 21
1259.527889743883
  0
LINE
  8
_0-5_寸法線
  6
CONTINUOUS
 62
    7
 10
337.73722627737197
 20
1255.3867850222425
 11
353.19203949799703
 21
1251.2456803006021
  0
LINE
  8
_0-5_寸法線
  6
CONTINUOUS
 62
    7
 10
352.23722627737197
 20
1191.3867850222425
 11
352.23722627737197
 21
1263.3867850222425
  0
LINE
  8
_0-5_寸法線
  6
CONTINUOUS
 62
    7
 10
352.23722627737197
 20
1255.3867850222425
 11
336.78241305674692
 21
1251.2456803006023
  0
LINE
  8
_0-5_寸法線
  6
CONTINUOUS
 62
    7
 10
352.23722627737197
 20
1255.3867850222425
 11
336.78241305674692
 21
1259.527889743883
  0
LINE
  8
_0-5_寸法線
  6
CONTINUOUS
 62
    7
 10
337.73722627737197
 20
1255.3867850222425
 11
352.23722627737197
 21
1255.3867850222425
  0
TEXT
  8
_0-5_寸法線
 62
    7
 10
332.98722627737197
 20
1255.3867850222425
 40
24
 41
1
 50
0
  1
Ａ
  0
LINE
  8
_0-5_寸法線
  6
CONTINUOUS
 62
    7
 10
1322.237226277372
 20
1191.3867850222425
 11
1322.237226277372
 21
1263.3867850222425
  0
LINE
  8
_0-5_寸法線
  6
CONTINUOUS
 62
    7
 10
1322.237226277372
 20
1255.3867850222425
 11
1337.692039497997
 21
1259.527889743883
  0
LINE
  8
_0-5_寸法線
  6
CONTINUOUS
 62
    7
 10
1322.237226277372
 20
1255.3867850222425
 11
1337.692039497997
 21
1251.2456803006021
  0
LINE
  8
_0-5_寸法線
  6
CONTINUOUS
 62
    7
 10
1336.737226277372
 20
1191.3867850222425
 11
1336.737226277372
 21
1263.3867850222425
  0
LINE
  8
_0-5_寸法線
  6
CONTINUOUS
 62
    7
 10
1336.737226277372
 20
1255.3867850222425
 11
1321.2824130567469
 21
1251.2456803006023
  0
LINE
  8
_0-5_寸法線
  6
CONTINUOUS
 62
    7
 10
1336.737226277372
 20
1255.3867850222425
 11
1321.2824130567469
 21
1259.527889743883
  0
LINE
  8
_0-5_寸法線
  6
CONTINUOUS
 62
    7
 10
1322.237226277372
 20
1255.3867850222425
 11
1336.737226277372
 21
1255.3867850222425
  0
TEXT
  8
_0-5_寸法線
 62
    7
 10
1317.487226277372
 20
1255.3867850222425
 40
24
 41
1
 50
0
  1
Ａ
  0
LINE
  8
_0-5_寸法線
  6
CONTINUOUS
 62
    7
 10
337.73722627737197
 20
1191.3867850222416
 11
337.73722627737266
 21
1319.3867850222425
  0
LINE
  8
_0-5_寸法線
  6
CONTINUOUS
 62
    7
 10
337.73722627737266
 20
1311.3867850222425
 11
349.32833619284145
 21
1314.4926135634728
  0
LINE
  8
_0-5_寸法線
  6
CONTINUOUS
 62
    7
 10
337.73722627737266
 20
1311.3867850222425
 11
349.32833619284145
 21
1308.2809564810123
  0
LINE
  8
_0-5_寸法線
  6
CONTINUOUS
 62
    7
 10
1336.737226277372
 20
1191.3867850222416
 11
1336.737226277372
 21
1319.3867850222425
  0
LINE
  8
_0-5_寸法線
  6
CONTINUOUS
 62
    7
 10
1336.737226277372
 20
1311.3867850222425
 11
1325.1461163619031
 21
1308.2809564810123
  0
LINE
  8
_0-5_寸法線
  6
CONTINUOUS
 62
    7
 10
1336.737226277372
 20
1311.3867850222425
 11
1325.1461163619031
 21
1314.4926135634728
  0
LINE
  8
_0-5_寸法線
  6
CONTINUOUS
 62
    7
 10
337.73722627737266
 20
1311.3867850222425
 11
1336.737226277372
 21
1311.3867850222425
  0
TEXT
  8
_0-5_寸法線
 62
    7
 10
825.23722627737277
 20
1311.3867850222425
 40
24
 41
1
 50
0
  1
Ｌ
  0
LINE
  8
_0-5_寸法線
  6
CONTINUOUS
 62
    7
 10
740.23722627737288
 20
1191.3867850222425
 11
740.23722627737288
 21
1263.3867850222425
  0
LINE
  8
_0-5_寸法線
  6
CONTINUOUS
 62
    7
 10
740.23722627737288
 20
1255.3867850222425
 11
755.69203949799794
 21
1259.527889743883
  0
LINE
  8
_0-5_寸法線
  6
CONTINUOUS
 62
    7
 10
740.23722627737288
 20
1255.3867850222425
 11
755.69203949799794
 21
1251.2456803006021
  0
LINE
  8
_0-5_寸法線
  6
CONTINUOUS
 62
    7
 10
788.73722627737288
 20
1191.3867850222425
 11
788.73722627737288
 21
1263.3867850222425
  0
LINE
  8
_0-5_寸法線
  6
CONTINUOUS
 62
    7
 10
788.73722627737288
 20
1255.3867850222425
 11
773.28241305674783
 21
1251.2456803006023
  0
LINE
  8
_0-5_寸法線
  6
CONTINUOUS
 62
    7
 10
788.73722627737288
 20
1255.3867850222425
 11
773.28241305674783
 21
1259.527889743883
  0
LINE
  8
_0-5_寸法線
  6
CONTINUOUS
 62
    7
 10
740.23722627737288
 20
1255.3867850222425
 11
788.73722627737288
 21
1255.3867850222425
  0
TEXT
  8
_0-5_寸法線
 62
    7
 10
740.48722627737288
 20
1255.3867850222425
 40
24
 41
1
 50
0
  1
48.5
  0
LINE
  8
_0-5_寸法線
  6
CONTINUOUS
 62
    7
 10
788.73722627737288
 20
1255.3867850222425
 11
804.19203949799805
 21
1259.5278897438827
  0
LINE
  8
_0-5_寸法線
  6
CONTINUOUS
 62
    7
 10
788.73722627737288
 20
1255.3867850222425
 11
804.19203949799794
 21
1251.2456803006021
  0
LINE
  8
_0-5_寸法線
  6
CONTINUOUS
 62
    7
 10
837.23722627737288
 20
1191.3867850222425
 11
837.23722627737288
 21
1263.3867850222425
  0
LINE
  8
_0-5_寸法線
  6
CONTINUOUS
 62
    7
 10
837.23722627737288
 20
1255.3867850222425
 11
821.78241305674783
 21
1251.2456803006023
  0
LINE
  8
_0-5_寸法線
  6
CONTINUOUS
 62
    7
 10
837.23722627737288
 20
1255.3867850222425
 11
821.78241305674783
 21
1259.527889743883
  0
LINE
  8
_0-5_寸法線
  6
CONTINUOUS
 62
    7
 10
788.73722627737288
 20
1255.3867850222425
 11
837.23722627737288
 21
1255.3867850222425
  0
TEXT
  8
_0-5_寸法線
 62
    7
 10
789.86375900395933
 20
1231.3867850222425
 40
24
 41
1
 50
0
  1
48.5
  0
LINE
  8
_0-7_枠細線
  6
CONTINUOUS
 62
    5
 10
778.27137945941968
 20
1283.8711232398373
 11
766.27137945941968
 21
1307.8711232398373
  0
LINE
  8
_0-7_枠細線
  6
CONTINUOUS
 62
    5
 10
754.27137945941968
 20
1283.8711232398373
 11
778.27137945941968
 21
1283.8711232398373
  0
LINE
  8
_0-7_枠細線
  6
CONTINUOUS
 62
    5
 10
766.27137945941968
 20
1307.8711232398373
 11
754.27137945941968
 21
1283.8711232398373
  0
TEXT
  8
_0-7_枠細線
 62
    5
 10
758.05562148845661
 20
1283.3799196472285
 40
20
 41
0.8
 50
0
  1
１
  0
LINE
  8
_0-7_枠細線
  6
CONTINUOUS
 62
    5
 10
794.68785898894066
 20
1307.8711232398373
 11
782.68785898894066
 21
1283.8711232398373
  0
LINE
  8
_0-7_枠細線
  6
CONTINUOUS
 62
    5
 10
782.68785898894066
 20
1283.8711232398373
 11
806.68785898894066
 21
1283.8711232398373
  0
LINE
  8
_0-7_枠細線
  6
CONTINUOUS
 62
    5
 10
806.68785898894066
 20
1283.8711232398373
 11
794.68785898894066
 21
1307.8711232398373
  0
LINE
  8
_0-0_計極細
  6
CONTINUOUS
 62
    2
 10
394.23722627737197
 20
989.68678502224316
 11
394.23722627737197
 21
984.08678502224325
  0
LINE
  8
_0-0_計極細
  6
CONTINUOUS
 62
    2
 10
407.23722627737197
 20
989.68678502224316
 11
407.23722627737197
 21
984.08678502224325
  0
LINE
  8
_0-0_計極細
  6
CONTINUOUS
 62
    2
 10
394.23722627737197
 20
1006.6867850222441
 11
394.23722627737197
 21
1001.0867850222437
  0
LINE
  8
_0-0_計極細
  6
CONTINUOUS
 62
    2
 10
407.23722627737197
 20
1006.6867850222441
 11
407.23722627737197
 21
1001.0867850222437
  0
LINE
  8
_0-0_計極細
  6
CONTINUOUS
 62
    2
 10
394.23722627737197
 20
1023.6867850222445
 11
394.23722627737197
 21
1018.0867850222446
  0
LINE
  8
_0-0_計極細
  6
CONTINUOUS
 62
    2
 10
407.23722627737197
 20
1023.6867850222445
 11
407.23722627737197
 21
1018.0867850222446
  0
LINE
  8
_0-0_計極細
  6
CONTINUOUS
 62
    2
 10
394.23722627737197
 20
1040.6867850222454
 11
394.23722627737197
 21
1035.0867850222451
  0
LINE
  8
_0-0_計極細
  6
CONTINUOUS
 62
    2
 10
407.23722627737197
 20
1040.6867850222454
 11
407.23722627737197
 21
1035.0867850222451
  0
LINE
  8
_0-0_計極細
  6
CONTINUOUS
 62
    2
 10
394.23722627737197
 20
1057.6867850222459
 11
394.23722627737197
 21
1052.086785022246
  0
LINE
  8
_0-0_計極細
  6
CONTINUOUS
 62
    2
 10
407.23722627737197
 20
1057.6867850222459
 11
407.23722627737197
 21
1052.086785022246
  0
LINE
  8
_0-0_計極細
  6
CONTINUOUS
 62
    2
 10
394.23722627737197
 20
1074.686785022245
 11
394.23722627737197
 21
1069.0867850222451
  0
LINE
  8
_0-0_計極細
  6
CONTINUOUS
 62
    2
 10
407.23722627737197
 20
1074.686785022245
 11
407.23722627737197
 21
1069.0867850222451
  0
LINE
  8
_0-0_計極細
  6
CONTINUOUS
 62
    2
 10
394.23722627737197
 20
1091.6867850222441
 11
394.23722627737197
 21
1086.0867850222442
  0
LINE
  8
_0-0_計極細
  6
CONTINUOUS
 62
    2
 10
407.23722627737197
 20
1091.6867850222441
 11
407.23722627737197
 21
1086.0867850222442
  0
LINE
  8
_0-0_計極細
  6
CONTINUOUS
 62
    2
 10
394.23722627737197
 20
1108.6867850222432
 11
394.23722627737197
 21
1103.0867850222432
  0
LINE
  8
_0-0_計極細
  6
CONTINUOUS
 62
    2
 10
407.23722627737197
 20
1108.6867850222432
 11
407.23722627737197
 21
1103.0867850222432
  0
LINE
  8
_0-0_計極細
  6
CONTINUOUS
 62
    2
 10
394.23722627737197
 20
1125.6867850222422
 11
394.23722627737197
 21
1120.0867850222423
  0
LINE
  8
_0-0_計極細
  6
CONTINUOUS
 62
    2
 10
407.23722627737197
 20
1125.6867850222422
 11
407.23722627737197
 21
1120.0867850222423
  0
LINE
  8
_0-0_計極細
  6
CONTINUOUS
 62
    2
 10
394.23722627737197
 20
1142.3867850222452
 11
394.23722627737197
 21
1137.0867850222455
  0
LINE
  8
_0-0_計極細
  6
CONTINUOUS
 62
    2
 10
407.23722627737197
 20
1142.3867850222452
 11
407.23722627737197
 21
1137.0867850222455
  0
LINE
  8
_0-0_計極細
  6
CONTINUOUS
 62
    2
 10
394.23722627737197
 20
1158.9867850222442
 11
394.23722627737197
 21
1153.7867850222444
  0
LINE
  8
_0-0_計極細
  6
CONTINUOUS
 62
    2
 10
407.23722627737197
 20
1158.9867850222442
 11
407.23722627737197
 21
1153.7867850222444
  0
LINE
  8
_0-0_計極細
  6
CONTINUOUS
 62
    2
 10
394.23722627737197
 20
967.08678502224234
 11
394.23722627737197
 21
972.68678502224225
  0
LINE
  8
_0-0_計極細
  6
CONTINUOUS
 62
    2
 10
407.23722627737197
 20
967.08678502224234
 11
407.23722627737197
 21
972.68678502224225
  0
LINE
  8
_0-0_計極細
  6
CONTINUOUS
 62
    2
 10
394.23722627737197
 20
950.08678502224143
 11
394.23722627737197
 21
955.68678502224179
  0
LINE
  8
_0-0_計極細
  6
CONTINUOUS
 62
    2
 10
407.23722627737197
 20
950.08678502224143
 11
407.23722627737197
 21
955.68678502224179
  0
LINE
  8
_0-0_計極細
  6
CONTINUOUS
 62
    2
 10
394.23722627737197
 20
933.08678502224097
 11
394.23722627737197
 21
938.68678502224088
  0
LINE
  8
_0-0_計極細
  6
CONTINUOUS
 62
    2
 10
407.23722627737197
 20
933.08678502224097
 11
407.23722627737197
 21
938.68678502224088
  0
LINE
  8
_0-0_計極細
  6
CONTINUOUS
 62
    2
 10
394.23722627737197
 20
916.08678502224188
 11
394.23722627737197
 21
921.68678502224179
  0
LINE
  8
_0-0_計極細
  6
CONTINUOUS
 62
    2
 10
407.23722627737197
 20
916.08678502224188
 11
407.23722627737197
 21
921.68678502224179
  0
LINE
  8
_0-0_計極細
  6
CONTINUOUS
 62
    2
 10
394.23722627737197
 20
899.08678502224279
 11
394.23722627737197
 21
904.6867850222427
  0
LINE
  8
_0-0_計極細
  6
CONTINUOUS
 62
    2
 10
407.23722627737197
 20
899.08678502224279
 11
407.23722627737197
 21
904.6867850222427
  0
LINE
  8
_0-0_計極細
  6
CONTINUOUS
 62
    2
 10
394.23722627737197
 20
882.0867850222437
 11
394.23722627737197
 21
887.68678502224361
  0
LINE
  8
_0-0_計極細
  6
CONTINUOUS
 62
    2
 10
407.23722627737197
 20
882.0867850222437
 11
407.23722627737197
 21
887.68678502224361
  0
LINE
  8
_0-0_計極細
  6
CONTINUOUS
 62
    2
 10
394.23722627737197
 20
865.08678502224461
 11
394.23722627737197
 21
870.68678502224452
  0
LINE
  8
_0-0_計極細
  6
CONTINUOUS
 62
    2
 10
407.23722627737197
 20
865.08678502224461
 11
407.23722627737197
 21
870.68678502224452
  0
LINE
  8
_0-0_計極細
  6
CONTINUOUS
 62
    2
 10
394.23722627737197
 20
848.38678502224161
 11
394.23722627737197
 21
853.68678502224134
  0
LINE
  8
_0-0_計極細
  6
CONTINUOUS
 62
    2
 10
407.23722627737197
 20
848.38678502224161
 11
407.23722627737197
 21
853.68678502224134
  0
LINE
  8
_0-0_計極細
  6
CONTINUOUS
 62
    2
 10
394.23722627737197
 20
831.78678502224261
 11
394.23722627737197
 21
836.98678502224243
  0
LINE
  8
_0-0_計極細
  6
CONTINUOUS
 62
    2
 10
407.23722627737197
 20
831.78678502224261
 11
407.23722627737197
 21
836.98678502224243
  0
LINE
  8
_0-0_計極細
  6
CENTER1
 62
    2
 10
400.73722627737197
 20
1179.1375044467102
 11
400.73722627737197
 21
812.82896128123116
  0
LINE
  8
_0-0_計極細
  6
CONTINUOUS
 62
    2
 10
1267.237226277372
 20
989.68678502224316
 11
1267.237226277372
 21
984.08678502224325
  0
LINE
  8
_0-0_計極細
  6
CONTINUOUS
 62
    2
 10
1280.237226277372
 20
989.68678502224316
 11
1280.237226277372
 21
984.08678502224325
  0
LINE
  8
_0-0_計極細
  6
CONTINUOUS
 62
    2
 10
1267.237226277372
 20
1006.6867850222441
 11
1267.237226277372
 21
1001.0867850222437
  0
LINE
  8
_0-0_計極細
  6
CONTINUOUS
 62
    2
 10
1280.237226277372
 20
1006.6867850222441
 11
1280.237226277372
 21
1001.0867850222437
  0
LINE
  8
_0-0_計極細
  6
CONTINUOUS
 62
    2
 10
1267.237226277372
 20
1023.6867850222445
 11
1267.237226277372
 21
1018.0867850222446
  0
LINE
  8
_0-0_計極細
  6
CONTINUOUS
 62
    2
 10
1280.237226277372
 20
1023.6867850222445
 11
1280.237226277372
 21
1018.0867850222446
  0
LINE
  8
_0-0_計極細
  6
CONTINUOUS
 62
    2
 10
1267.237226277372
 20
1040.6867850222454
 11
1267.237226277372
 21
1035.0867850222451
  0
LINE
  8
_0-0_計極細
  6
CONTINUOUS
 62
    2
 10
1280.237226277372
 20
1040.6867850222454
 11
1280.237226277372
 21
1035.0867850222451
  0
LINE
  8
_0-0_計極細
  6
CONTINUOUS
 62
    2
 10
1267.237226277372
 20
1057.6867850222459
 11
1267.237226277372
 21
1052.086785022246
  0
LINE
  8
_0-0_計極細
  6
CONTINUOUS
 62
    2
 10
1280.237226277372
 20
1057.6867850222459
 11
1280.237226277372
 21
1052.086785022246
  0
LINE
  8
_0-0_計極細
  6
CONTINUOUS
 62
    2
 10
1267.237226277372
 20
1074.686785022245
 11
1267.237226277372
 21
1069.0867850222451
  0
LINE
  8
_0-0_計極細
  6
CONTINUOUS
 62
    2
 10
1280.237226277372
 20
1074.686785022245
 11
1280.237226277372
 21
1069.0867850222451
  0
LINE
  8
_0-0_計極細
  6
CONTINUOUS
 62
    2
 10
1267.237226277372
 20
1091.6867850222441
 11
1267.237226277372
 21
1086.0867850222442
  0
LINE
  8
_0-0_計極細
  6
CONTINUOUS
 62
    2
 10
1280.237226277372
 20
1091.6867850222441
 11
1280.237226277372
 21
1086.0867850222442
  0
LINE
  8
_0-0_計極細
  6
CONTINUOUS
 62
    2
 10
1267.237226277372
 20
1108.6867850222432
 11
1267.237226277372
 21
1103.0867850222432
  0
LINE
  8
_0-0_計極細
  6
CONTINUOUS
 62
    2
 10
1280.237226277372
 20
1108.6867850222432
 11
1280.237226277372
 21
1103.0867850222432
  0
LINE
  8
_0-0_計極細
  6
CONTINUOUS
 62
    2
 10
1267.237226277372
 20
1125.6867850222422
 11
1267.237226277372
 21
1120.0867850222423
  0
LINE
  8
_0-0_計極細
  6
CONTINUOUS
 62
    2
 10
1280.237226277372
 20
1125.6867850222422
 11
1280.237226277372
 21
1120.0867850222423
  0
LINE
  8
_0-0_計極細
  6
CONTINUOUS
 62
    2
 10
1267.237226277372
 20
1142.3867850222452
 11
1267.237226277372
 21
1137.0867850222455
  0
LINE
  8
_0-0_計極細
  6
CONTINUOUS
 62
    2
 10
1280.237226277372
 20
1142.3867850222452
 11
1280.237226277372
 21
1137.0867850222455
  0
LINE
  8
_0-0_計極細
  6
CONTINUOUS
 62
    2
 10
1267.237226277372
 20
1158.9867850222442
 11
1267.237226277372
 21
1153.7867850222444
  0
LINE
  8
_0-0_計極細
  6
CONTINUOUS
 62
    2
 10
1280.237226277372
 20
1158.9867850222442
 11
1280.237226277372
 21
1153.7867850222444
  0
LINE
  8
_0-0_計極細
  6
CONTINUOUS
 62
    2
 10
1267.237226277372
 20
967.08678502224234
 11
1267.237226277372
 21
972.68678502224225
  0
LINE
  8
_0-0_計極細
  6
CONTINUOUS
 62
    2
 10
1280.237226277372
 20
967.08678502224234
 11
1280.237226277372
 21
972.68678502224225
  0
LINE
  8
_0-0_計極細
  6
CONTINUOUS
 62
    2
 10
1267.237226277372
 20
950.08678502224143
 11
1267.237226277372
 21
955.68678502224179
  0
LINE
  8
_0-0_計極細
  6
CONTINUOUS
 62
    2
 10
1280.237226277372
 20
950.08678502224143
 11
1280.237226277372
 21
955.68678502224179
  0
LINE
  8
_0-0_計極細
  6
CONTINUOUS
 62
    2
 10
1267.237226277372
 20
933.08678502224097
 11
1267.237226277372
 21
938.68678502224088
  0
LINE
  8
_0-0_計極細
  6
CONTINUOUS
 62
    2
 10
1280.237226277372
 20
933.08678502224097
 11
1280.237226277372
 21
938.68678502224088
  0
LINE
  8
_0-0_計極細
  6
CONTINUOUS
 62
    2
 10
1267.237226277372
 20
916.08678502224188
 11
1267.237226277372
 21
921.68678502224179
  0
LINE
  8
_0-0_計極細
  6
CONTINUOUS
 62
    2
 10
1280.237226277372
 20
916.08678502224188
 11
1280.237226277372
 21
921.68678502224179
  0
LINE
  8
_0-0_計極細
  6
CONTINUOUS
 62
    2
 10
1267.237226277372
 20
899.08678502224279
 11
1267.237226277372
 21
904.6867850222427
  0
LINE
  8
_0-0_計極細
  6
CONTINUOUS
 62
    2
 10
1280.237226277372
 20
899.08678502224279
 11
1280.237226277372
 21
904.6867850222427
  0
LINE
  8
_0-0_計極細
  6
CONTINUOUS
 62
    2
 10
1267.237226277372
 20
882.0867850222437
 11
1267.237226277372
 21
887.68678502224361
  0
LINE
  8
_0-0_計極細
  6
CONTINUOUS
 62
    2
 10
1280.237226277372
 20
882.0867850222437
 11
1280.237226277372
 21
887.68678502224361
  0
LINE
  8
_0-0_計極細
  6
CONTINUOUS
 62
    2
 10
1267.237226277372
 20
865.08678502224461
 11
1267.237226277372
 21
870.68678502224452
  0
LINE
  8
_0-0_計極細
  6
CONTINUOUS
 62
    2
 10
1280.237226277372
 20
865.08678502224461
 11
1280.237226277372
 21
870.68678502224452
  0
LINE
  8
_0-0_計極細
  6
CONTINUOUS
 62
    2
 10
1267.237226277372
 20
848.38678502224161
 11
1267.237226277372
 21
853.68678502224134
  0
LINE
  8
_0-0_計極細
  6
CONTINUOUS
 62
    2
 10
1280.237226277372
 20
848.38678502224161
 11
1280.237226277372
 21
853.68678502224134
  0
LINE
  8
_0-0_計極細
  6
CONTINUOUS
 62
    2
 10
1267.237226277372
 20
831.78678502224261
 11
1267.237226277372
 21
836.98678502224243
  0
LINE
  8
_0-0_計極細
  6
CONTINUOUS
 62
    2
 10
1280.237226277372
 20
831.78678502224261
 11
1280.237226277372
 21
836.98678502224243
  0
LINE
  8
_0-0_計極細
  6
CENTER1
 62
    2
 10
1273.737226277372
 20
1179.1375044467102
 11
1273.737226277372
 21
812.82896128123116
  0
LINE
  8
_0-0_計極細
  6
CONTINUOUS
 62
    2
 10
1024.737226277372
 20
989.68678502224316
 11
1024.737226277372
 21
984.08678502224325
  0
LINE
  8
_0-0_計極細
  6
CONTINUOUS
 62
    2
 10
1037.737226277372
 20
989.68678502224316
 11
1037.737226277372
 21
984.08678502224325
  0
LINE
  8
_0-0_計極細
  6
CONTINUOUS
 62
    2
 10
1024.737226277372
 20
1006.6867850222441
 11
1024.737226277372
 21
1001.0867850222437
  0
LINE
  8
_0-0_計極細
  6
CONTINUOUS
 62
    2
 10
1037.737226277372
 20
1006.6867850222441
 11
1037.737226277372
 21
1001.0867850222437
  0
LINE
  8
_0-0_計極細
  6
CONTINUOUS
 62
    2
 10
1024.737226277372
 20
1023.6867850222445
 11
1024.737226277372
 21
1018.0867850222446
  0
LINE
  8
_0-0_計極細
  6
CONTINUOUS
 62
    2
 10
1037.737226277372
 20
1023.6867850222445
 11
1037.737226277372
 21
1018.0867850222446
  0
LINE
  8
_0-0_計極細
  6
CONTINUOUS
 62
    2
 10
1024.737226277372
 20
1040.6867850222454
 11
1024.737226277372
 21
1035.0867850222451
  0
LINE
  8
_0-0_計極細
  6
CONTINUOUS
 62
    2
 10
1037.737226277372
 20
1040.6867850222454
 11
1037.737226277372
 21
1035.0867850222451
  0
LINE
  8
_0-0_計極細
  6
CONTINUOUS
 62
    2
 10
1024.737226277372
 20
1057.6867850222459
 11
1024.737226277372
 21
1052.086785022246
  0
LINE
  8
_0-0_計極細
  6
CONTINUOUS
 62
    2
 10
1037.737226277372
 20
1057.6867850222459
 11
1037.737226277372
 21
1052.086785022246
  0
LINE
  8
_0-0_計極細
  6
CONTINUOUS
 62
    2
 10
1024.737226277372
 20
1074.686785022245
 11
1024.737226277372
 21
1069.0867850222451
  0
LINE
  8
_0-0_計極細
  6
CONTINUOUS
 62
    2
 10
1037.737226277372
 20
1074.686785022245
 11
1037.737226277372
 21
1069.0867850222451
  0
LINE
  8
_0-0_計極細
  6
CONTINUOUS
 62
    2
 10
1024.737226277372
 20
1091.6867850222441
 11
1024.737226277372
 21
1086.0867850222442
  0
LINE
  8
_0-0_計極細
  6
CONTINUOUS
 62
    2
 10
1037.737226277372
 20
1091.6867850222441
 11
1037.737226277372
 21
1086.0867850222442
  0
LINE
  8
_0-0_計極細
  6
CONTINUOUS
 62
    2
 10
1024.737226277372
 20
1108.6867850222432
 11
1024.737226277372
 21
1103.0867850222432
  0
LINE
  8
_0-0_計極細
  6
CONTINUOUS
 62
    2
 10
1037.737226277372
 20
1108.6867850222432
 11
1037.737226277372
 21
1103.0867850222432
  0
LINE
  8
_0-0_計極細
  6
CONTINUOUS
 62
    2
 10
1024.737226277372
 20
1125.6867850222422
 11
1024.737226277372
 21
1120.0867850222423
  0
LINE
  8
_0-0_計極細
  6
CONTINUOUS
 62
    2
 10
1037.737226277372
 20
1125.6867850222422
 11
1037.737226277372
 21
1120.0867850222423
  0
LINE
  8
_0-0_計極細
  6
CONTINUOUS
 62
    2
 10
1024.737226277372
 20
1142.3867850222452
 11
1024.737226277372
 21
1137.0867850222455
  0
LINE
  8
_0-0_計極細
  6
CONTINUOUS
 62
    2
 10
1037.737226277372
 20
1142.3867850222452
 11
1037.737226277372
 21
1137.0867850222455
  0
LINE
  8
_0-0_計極細
  6
CONTINUOUS
 62
    2
 10
1024.737226277372
 20
1158.9867850222442
 11
1024.737226277372
 21
1153.7867850222444
  0
LINE
  8
_0-0_計極細
  6
CONTINUOUS
 62
    2
 10
1037.737226277372
 20
1158.9867850222442
 11
1037.737226277372
 21
1153.7867850222444
  0
LINE
  8
_0-0_計極細
  6
CONTINUOUS
 62
    2
 10
1024.737226277372
 20
967.08678502224234
 11
1024.737226277372
 21
972.68678502224225
  0
LINE
  8
_0-0_計極細
  6
CONTINUOUS
 62
    2
 10
1037.737226277372
 20
967.08678502224234
 11
1037.737226277372
 21
972.68678502224225
  0
LINE
  8
_0-0_計極細
  6
CONTINUOUS
 62
    2
 10
1024.737226277372
 20
950.08678502224143
 11
1024.737226277372
 21
955.68678502224179
  0
LINE
  8
_0-0_計極細
  6
CONTINUOUS
 62
    2
 10
1037.737226277372
 20
950.08678502224143
 11
1037.737226277372
 21
955.68678502224179
  0
LINE
  8
_0-0_計極細
  6
CONTINUOUS
 62
    2
 10
1024.737226277372
 20
933.08678502224097
 11
1024.737226277372
 21
938.68678502224088
  0
LINE
  8
_0-0_計極細
  6
CONTINUOUS
 62
    2
 10
1037.737226277372
 20
933.08678502224097
 11
1037.737226277372
 21
938.68678502224088
  0
LINE
  8
_0-0_計極細
  6
CONTINUOUS
 62
    2
 10
1024.737226277372
 20
916.08678502224188
 11
1024.737226277372
 21
921.68678502224179
  0
LINE
  8
_0-0_計極細
  6
CONTINUOUS
 62
    2
 10
1037.737226277372
 20
916.08678502224188
 11
1037.737226277372
 21
921.68678502224179
  0
LINE
  8
_0-0_計極細
  6
CONTINUOUS
 62
    2
 10
1024.737226277372
 20
899.08678502224279
 11
1024.737226277372
 21
904.6867850222427
  0
LINE
  8
_0-0_計極細
  6
CONTINUOUS
 62
    2
 10
1037.737226277372
 20
899.08678502224279
 11
1037.737226277372
 21
904.6867850222427
  0
LINE
  8
_0-0_計極細
  6
CONTINUOUS
 62
    2
 10
1024.737226277372
 20
882.0867850222437
 11
1024.737226277372
 21
887.68678502224361
  0
LINE
  8
_0-0_計極細
  6
CONTINUOUS
 62
    2
 10
1037.737226277372
 20
882.0867850222437
 11
1037.737226277372
 21
887.68678502224361
  0
LINE
  8
_0-0_計極細
  6
CONTINUOUS
 62
    2
 10
1024.737226277372
 20
865.08678502224461
 11
1024.737226277372
 21
870.68678502224452
  0
LINE
  8
_0-0_計極細
  6
CONTINUOUS
 62
    2
 10
1037.737226277372
 20
865.08678502224461
 11
1037.737226277372
 21
870.68678502224452
  0
LINE
  8
_0-0_計極細
  6
CONTINUOUS
 62
    2
 10
1024.737226277372
 20
848.38678502224161
 11
1024.737226277372
 21
853.68678502224134
  0
LINE
  8
_0-0_計極細
  6
CONTINUOUS
 62
    2
 10
1037.737226277372
 20
848.38678502224161
 11
1037.737226277372
 21
853.68678502224134
  0
LINE
  8
_0-0_計極細
  6
CONTINUOUS
 62
    2
 10
1024.737226277372
 20
831.78678502224261
 11
1024.737226277372
 21
836.98678502224243
  0
LINE
  8
_0-0_計極細
  6
CONTINUOUS
 62
    2
 10
1037.737226277372
 20
831.78678502224261
 11
1037.737226277372
 21
836.98678502224243
  0
LINE
  8
_0-0_計極細
  6
CENTER1
 62
    2
 10
1031.237226277372
 20
1179.1375044467102
 11
1031.237226277372
 21
812.82896128123116
  0
LINE
  8
_0-0_計極細
  6
CONTINUOUS
 62
    2
 10
1073.237226277372
 20
989.68678502224316
 11
1073.237226277372
 21
984.08678502224325
  0
LINE
  8
_0-0_計極細
  6
CONTINUOUS
 62
    2
 10
1086.237226277372
 20
989.68678502224316
 11
1086.237226277372
 21
984.08678502224325
  0
LINE
  8
_0-0_計極細
  6
CONTINUOUS
 62
    2
 10
1073.237226277372
 20
1006.6867850222441
 11
1073.237226277372
 21
1001.0867850222437
  0
LINE
  8
_0-0_計極細
  6
CONTINUOUS
 62
    2
 10
1086.237226277372
 20
1006.6867850222441
 11
1086.237226277372
 21
1001.0867850222437
  0
LINE
  8
_0-0_計極細
  6
CONTINUOUS
 62
    2
 10
1073.237226277372
 20
1023.6867850222445
 11
1073.237226277372
 21
1018.0867850222446
  0
LINE
  8
_0-0_計極細
  6
CONTINUOUS
 62
    2
 10
1086.237226277372
 20
1023.6867850222445
 11
1086.237226277372
 21
1018.0867850222446
  0
LINE
  8
_0-0_計極細
  6
CONTINUOUS
 62
    2
 10
1073.237226277372
 20
1040.6867850222454
 11
1073.237226277372
 21
1035.0867850222451
  0
LINE
  8
_0-0_計極細
  6
CONTINUOUS
 62
    2
 10
1086.237226277372
 20
1040.6867850222454
 11
1086.237226277372
 21
1035.0867850222451
  0
LINE
  8
_0-0_計極細
  6
CONTINUOUS
 62
    2
 10
1073.237226277372
 20
1057.6867850222459
 11
1073.237226277372
 21
1052.086785022246
  0
LINE
  8
_0-0_計極細
  6
CONTINUOUS
 62
    2
 10
1086.237226277372
 20
1057.6867850222459
 11
1086.237226277372
 21
1052.086785022246
  0
LINE
  8
_0-0_計極細
  6
CONTINUOUS
 62
    2
 10
1073.237226277372
 20
1074.686785022245
 11
1073.237226277372
 21
1069.0867850222451
  0
LINE
  8
_0-0_計極細
  6
CONTINUOUS
 62
    2
 10
1086.237226277372
 20
1074.686785022245
 11
1086.237226277372
 21
1069.0867850222451
  0
LINE
  8
_0-0_計極細
  6
CONTINUOUS
 62
    2
 10
1073.237226277372
 20
1091.6867850222441
 11
1073.237226277372
 21
1086.0867850222442
  0
LINE
  8
_0-0_計極細
  6
CONTINUOUS
 62
    2
 10
1086.237226277372
 20
1091.6867850222441
 11
1086.237226277372
 21
1086.0867850222442
  0
LINE
  8
_0-0_計極細
  6
CONTINUOUS
 62
    2
 10
1073.237226277372
 20
1108.6867850222432
 11
1073.237226277372
 21
1103.0867850222432
  0
LINE
  8
_0-0_計極細
  6
CONTINUOUS
 62
    2
 10
1086.237226277372
 20
1108.6867850222432
 11
1086.237226277372
 21
1103.0867850222432
  0
LINE
  8
_0-0_計極細
  6
CONTINUOUS
 62
    2
 10
1073.237226277372
 20
1125.6867850222422
 11
1073.237226277372
 21
1120.0867850222423
  0
LINE
  8
_0-0_計極細
  6
CONTINUOUS
 62
    2
 10
1086.237226277372
 20
1125.6867850222422
 11
1086.237226277372
 21
1120.0867850222423
  0
LINE
  8
_0-0_計極細
  6
CONTINUOUS
 62
    2
 10
1073.237226277372
 20
1142.3867850222452
 11
1073.237226277372
 21
1137.0867850222455
  0
LINE
  8
_0-0_計極細
  6
CONTINUOUS
 62
    2
 10
1086.237226277372
 20
1142.3867850222452
 11
1086.237226277372
 21
1137.0867850222455
  0
LINE
  8
_0-0_計極細
  6
CONTINUOUS
 62
    2
 10
1073.237226277372
 20
1158.9867850222442
 11
1073.237226277372
 21
1153.7867850222444
  0
LINE
  8
_0-0_計極細
  6
CONTINUOUS
 62
    2
 10
1086.237226277372
 20
1158.9867850222442
 11
1086.237226277372
 21
1153.7867850222444
  0
LINE
  8
_0-0_計極細
  6
CONTINUOUS
 62
    2
 10
1073.237226277372
 20
967.08678502224234
 11
1073.237226277372
 21
972.68678502224225
  0
LINE
  8
_0-0_計極細
  6
CONTINUOUS
 62
    2
 10
1086.237226277372
 20
967.08678502224234
 11
1086.237226277372
 21
972.68678502224225
  0
LINE
  8
_0-0_計極細
  6
CONTINUOUS
 62
    2
 10
1073.237226277372
 20
950.08678502224143
 11
1073.237226277372
 21
955.68678502224179
  0
LINE
  8
_0-0_計極細
  6
CONTINUOUS
 62
    2
 10
1086.237226277372
 20
950.08678502224143
 11
1086.237226277372
 21
955.68678502224179
  0
LINE
  8
_0-0_計極細
  6
CONTINUOUS
 62
    2
 10
1073.237226277372
 20
933.08678502224097
 11
1073.237226277372
 21
938.68678502224088
  0
LINE
  8
_0-0_計極細
  6
CONTINUOUS
 62
    2
 10
1086.237226277372
 20
933.08678502224097
 11
1086.237226277372
 21
938.68678502224088
  0
LINE
  8
_0-0_計極細
  6
CONTINUOUS
 62
    2
 10
1073.237226277372
 20
916.08678502224188
 11
1073.237226277372
 21
921.68678502224179
  0
LINE
  8
_0-0_計極細
  6
CONTINUOUS
 62
    2
 10
1086.237226277372
 20
916.08678502224188
 11
1086.237226277372
 21
921.68678502224179
  0
LINE
  8
_0-0_計極細
  6
CONTINUOUS
 62
    2
 10
1073.237226277372
 20
899.08678502224279
 11
1073.237226277372
 21
904.6867850222427
  0
LINE
  8
_0-0_計極細
  6
CONTINUOUS
 62
    2
 10
1086.237226277372
 20
899.08678502224279
 11
1086.237226277372
 21
904.6867850222427
  0
LINE
  8
_0-0_計極細
  6
CONTINUOUS
 62
    2
 10
1073.237226277372
 20
882.0867850222437
 11
1073.237226277372
 21
887.68678502224361
  0
LINE
  8
_0-0_計極細
  6
CONTINUOUS
 62
    2
 10
1086.237226277372
 20
882.0867850222437
 11
1086.237226277372
 21
887.68678502224361
  0
LINE
  8
_0-0_計極細
  6
CONTINUOUS
 62
    2
 10
1073.237226277372
 20
865.08678502224461
 11
1073.237226277372
 21
870.68678502224452
  0
LINE
  8
_0-0_計極細
  6
CONTINUOUS
 62
    2
 10
1086.237226277372
 20
865.08678502224461
 11
1086.237226277372
 21
870.68678502224452
  0
LINE
  8
_0-0_計極細
  6
CONTINUOUS
 62
    2
 10
1073.237226277372
 20
848.38678502224161
 11
1073.237226277372
 21
853.68678502224134
  0
LINE
  8
_0-0_計極細
  6
CONTINUOUS
 62
    2
 10
1086.237226277372
 20
848.38678502224161
 11
1086.237226277372
 21
853.68678502224134
  0
LINE
  8
_0-0_計極細
  6
CONTINUOUS
 62
    2
 10
1073.237226277372
 20
831.78678502224261
 11
1073.237226277372
 21
836.98678502224243
  0
LINE
  8
_0-0_計極細
  6
CONTINUOUS
 62
    2
 10
1086.237226277372
 20
831.78678502224261
 11
1086.237226277372
 21
836.98678502224243
  0
LINE
  8
_0-0_計極細
  6
CENTER1
 62
    2
 10
1079.737226277372
 20
1179.1375044467102
 11
1079.737226277372
 21
812.82896128123116
  0
LINE
  8
_0-0_計極細
  6
CONTINUOUS
 62
    2
 10
1121.737226277372
 20
989.68678502224316
 11
1121.737226277372
 21
984.08678502224325
  0
LINE
  8
_0-0_計極細
  6
CONTINUOUS
 62
    2
 10
1134.737226277372
 20
989.68678502224316
 11
1134.737226277372
 21
984.08678502224325
  0
LINE
  8
_0-0_計極細
  6
CONTINUOUS
 62
    2
 10
1121.737226277372
 20
1006.6867850222441
 11
1121.737226277372
 21
1001.0867850222437
  0
LINE
  8
_0-0_計極細
  6
CONTINUOUS
 62
    2
 10
1134.737226277372
 20
1006.6867850222441
 11
1134.737226277372
 21
1001.0867850222437
  0
LINE
  8
_0-0_計極細
  6
CONTINUOUS
 62
    2
 10
1121.737226277372
 20
1023.6867850222445
 11
1121.737226277372
 21
1018.0867850222446
  0
LINE
  8
_0-0_計極細
  6
CONTINUOUS
 62
    2
 10
1134.737226277372
 20
1023.6867850222445
 11
1134.737226277372
 21
1018.0867850222446
  0
LINE
  8
_0-0_計極細
  6
CONTINUOUS
 62
    2
 10
1121.737226277372
 20
1040.6867850222454
 11
1121.737226277372
 21
1035.0867850222451
  0
LINE
  8
_0-0_計極細
  6
CONTINUOUS
 62
    2
 10
1134.737226277372
 20
1040.6867850222454
 11
1134.737226277372
 21
1035.0867850222451
  0
LINE
  8
_0-0_計極細
  6
CONTINUOUS
 62
    2
 10
1121.737226277372
 20
1057.6867850222459
 11
1121.737226277372
 21
1052.086785022246
  0
LINE
  8
_0-0_計極細
  6
CONTINUOUS
 62
    2
 10
1134.737226277372
 20
1057.6867850222459
 11
1134.737226277372
 21
1052.086785022246
  0
LINE
  8
_0-0_計極細
  6
CONTINUOUS
 62
    2
 10
1121.737226277372
 20
1074.686785022245
 11
1121.737226277372
 21
1069.0867850222451
  0
LINE
  8
_0-0_計極細
  6
CONTINUOUS
 62
    2
 10
1134.737226277372
 20
1074.686785022245
 11
1134.737226277372
 21
1069.0867850222451
  0
LINE
  8
_0-0_計極細
  6
CONTINUOUS
 62
    2
 10
1121.737226277372
 20
1091.6867850222441
 11
1121.737226277372
 21
1086.0867850222442
  0
LINE
  8
_0-0_計極細
  6
CONTINUOUS
 62
    2
 10
1134.737226277372
 20
1091.6867850222441
 11
1134.737226277372
 21
1086.0867850222442
  0
LINE
  8
_0-0_計極細
  6
CONTINUOUS
 62
    2
 10
1121.737226277372
 20
1108.6867850222432
 11
1121.737226277372
 21
1103.0867850222432
  0
LINE
  8
_0-0_計極細
  6
CONTINUOUS
 62
    2
 10
1134.737226277372
 20
1108.6867850222432
 11
1134.737226277372
 21
1103.0867850222432
  0
LINE
  8
_0-0_計極細
  6
CONTINUOUS
 62
    2
 10
1121.737226277372
 20
1125.6867850222422
 11
1121.737226277372
 21
1120.0867850222423
  0
LINE
  8
_0-0_計極細
  6
CONTINUOUS
 62
    2
 10
1134.737226277372
 20
1125.6867850222422
 11
1134.737226277372
 21
1120.0867850222423
  0
LINE
  8
_0-0_計極細
  6
CONTINUOUS
 62
    2
 10
1121.737226277372
 20
1142.3867850222452
 11
1121.737226277372
 21
1137.0867850222455
  0
LINE
  8
_0-0_計極細
  6
CONTINUOUS
 62
    2
 10
1134.737226277372
 20
1142.3867850222452
 11
1134.737226277372
 21
1137.0867850222455
  0
LINE
  8
_0-0_計極細
  6
CONTINUOUS
 62
    2
 10
1121.737226277372
 20
1158.9867850222442
 11
1121.737226277372
 21
1153.7867850222444
  0
LINE
  8
_0-0_計極細
  6
CONTINUOUS
 62
    2
 10
1134.737226277372
 20
1158.9867850222442
 11
1134.737226277372
 21
1153.7867850222444
  0
LINE
  8
_0-0_計極細
  6
CONTINUOUS
 62
    2
 10
1121.737226277372
 20
967.08678502224234
 11
1121.737226277372
 21
972.68678502224225
  0
LINE
  8
_0-0_計極細
  6
CONTINUOUS
 62
    2
 10
1134.737226277372
 20
967.08678502224234
 11
1134.737226277372
 21
972.68678502224225
  0
LINE
  8
_0-0_計極細
  6
CONTINUOUS
 62
    2
 10
1121.737226277372
 20
950.08678502224143
 11
1121.737226277372
 21
955.68678502224179
  0
LINE
  8
_0-0_計極細
  6
CONTINUOUS
 62
    2
 10
1134.737226277372
 20
950.08678502224143
 11
1134.737226277372
 21
955.68678502224179
  0
LINE
  8
_0-0_計極細
  6
CONTINUOUS
 62
    2
 10
1121.737226277372
 20
933.08678502224097
 11
1121.737226277372
 21
938.68678502224088
  0
LINE
  8
_0-0_計極細
  6
CONTINUOUS
 62
    2
 10
1134.737226277372
 20
933.08678502224097
 11
1134.737226277372
 21
938.68678502224088
  0
LINE
  8
_0-0_計極細
  6
CONTINUOUS
 62
    2
 10
1121.737226277372
 20
916.08678502224188
 11
1121.737226277372
 21
921.68678502224179
  0
LINE
  8
_0-0_計極細
  6
CONTINUOUS
 62
    2
 10
1134.737226277372
 20
916.08678502224188
 11
1134.737226277372
 21
921.68678502224179
  0
LINE
  8
_0-0_計極細
  6
CONTINUOUS
 62
    2
 10
1121.737226277372
 20
899.08678502224279
 11
1121.737226277372
 21
904.6867850222427
  0
LINE
  8
_0-0_計極細
  6
CONTINUOUS
 62
    2
 10
1134.737226277372
 20
899.08678502224279
 11
1134.737226277372
 21
904.6867850222427
  0
LINE
  8
_0-0_計極細
  6
CONTINUOUS
 62
    2
 10
1121.737226277372
 20
882.0867850222437
 11
1121.737226277372
 21
887.68678502224361
  0
LINE
  8
_0-0_計極細
  6
CONTINUOUS
 62
    2
 10
1134.737226277372
 20
882.0867850222437
 11
1134.737226277372
 21
887.68678502224361
  0
LINE
  8
_0-0_計極細
  6
CONTINUOUS
 62
    2
 10
1121.737226277372
 20
865.08678502224461
 11
1121.737226277372
 21
870.68678502224452
  0
LINE
  8
_0-0_計極細
  6
CONTINUOUS
 62
    2
 10
1134.737226277372
 20
865.08678502224461
 11
1134.737226277372
 21
870.68678502224452
  0
LINE
  8
_0-0_計極細
  6
CONTINUOUS
 62
    2
 10
1121.737226277372
 20
848.38678502224161
 11
1121.737226277372
 21
853.68678502224134
  0
LINE
  8
_0-0_計極細
  6
CONTINUOUS
 62
    2
 10
1134.737226277372
 20
848.38678502224161
 11
1134.737226277372
 21
853.68678502224134
  0
LINE
  8
_0-0_計極細
  6
CONTINUOUS
 62
    2
 10
1121.737226277372
 20
831.78678502224261
 11
1121.737226277372
 21
836.98678502224243
  0
LINE
  8
_0-0_計極細
  6
CONTINUOUS
 62
    2
 10
1134.737226277372
 20
831.78678502224261
 11
1134.737226277372
 21
836.98678502224243
  0
LINE
  8
_0-0_計極細
  6
CENTER1
 62
    2
 10
1128.237226277372
 20
1179.1375044467102
 11
1128.237226277372
 21
812.82896128123116
  0
LINE
  8
_0-7_枠細線
  6
CONTINUOUS
 62
    5
 10
1668.445396090538
 20
1133.8946910356817
 11
1668.445396090538
 21
1013.8946910356817
  0
TEXT
  8
_0-7_枠細線
 62
    5
 10
1671.7225259619299
 20
980.73377816458571
 40
24
 41
0.8000000000000001
 50
0
  1
※ 特寸品はAが20以下となるようBにて調整
  0
TEXT
  8
_0-7_枠細線
 62
    5
 10
1671.7225259619299
 20
949.54143699835424
 40
24
 41
0.8000000000000001
 50
0
  1
※ 角型の場合は、集水マス補強仕様による
  0
TEXT
  8
_0-7_枠細線
 62
    5
 10
1709.6453960905401
 20
1101.8946910356817
 40
24
 41
0.8000000000000001
 50
0
  1
種　別
  0
TEXT
  8
_0-7_枠細線
 62
    5
 10
1709.6453960905394
 20
1061.8946910356817
 40
24
 41
0.8000000000000001
 50
0
  1
定尺品
  0
TEXT
  8
_0-7_枠細線
 62
    5
 10
1709.6453960905394
 20
1021.8946910356817
 40
24
 41
0.8000000000000001
 50
0
  1
特寸品
  0
LINE
  8
_0-7_枠細線
  6
CONTINUOUS
 62
    5
 10
1808.4453960905403
 20
1133.8946910356817
 11
1808.4453960905403
 21
1013.8946910356817
  0
TEXT
  8
_0-7_枠細線
 62
    5
 10
1856.8453960905424
 20
1061.8946910356817
 40
24
 41
0.5999999999999999
 50
0
  1
９９９
  0
TEXT
  8
_0-7_枠細線
 62
    5
 10
1868.8453960905424
 20
1101.8946910356817
 40
24
 41
0.8000000000000001
 50
0
  1
Ｌ
  0
TEXT
  8
_0-7_枠細線
 62
    5
 10
1820.8453960905408
 20
1021.8946910356817
 40
24
 41
0.5999999999999999
 50
0
  1
３０５～１３０５
  0
LINE
  8
_0-7_枠細線
  6
CONTINUOUS
 62
    5
 10
1948.4453960905403
 20
1133.8946910356817
 11
1948.4453960905403
 21
1013.8946910356817
  0
TEXT
  8
_0-7_枠細線
 62
    5
 10
1849.254021948771
 20
1141.8946910356817
 40
28
 41
1
 50
0
  1
寸法表
  0
LINE
  8
_0-7_枠細線
  6
CONTINUOUS
 62
    5
 10
2228.4453960905416
 20
1133.8946910356817
 11
2228.4453960905416
 21
1013.8946910356817
  0
LINE
  8
_0-7_枠細線
  6
CONTINUOUS
 62
    5
 10
1668.445396090538
 20
1133.8946910356817
 11
2228.4453960905416
 21
1133.8946910356817
  0
LINE
  8
_0-7_枠細線
  6
CONTINUOUS
 62
    5
 10
1668.445396090538
 20
1093.8946910356817
 11
2228.4453960905416
 21
1093.8946910356817
  0
LINE
  8
_0-7_枠細線
  6
CONTINUOUS
 62
    5
 10
1668.445396090538
 20
1053.8946910356817
 11
2228.4453960905416
 21
1053.8946910356817
  0
LINE
  8
_0-7_枠細線
  6
CONTINUOUS
 62
    5
 10
1668.445396090538
 20
1013.8946910356817
 11
2228.4453960905416
 21
1013.8946910356817
  0
LINE
  8
_0-7_枠細線
  6
CONTINUOUS
 62
    5
 10
2088.4453960905412
 20
1133.8946910356817
 11
2088.4453960905412
 21
1013.8946910356817
  0
TEXT
  8
_0-7_枠細線
 62
    5
 10
1989.6453960905446
 20
1021.8946910356817
 40
24
 41
0.5999999999999999
 50
0
  1
７～２０
  0
TEXT
  8
_0-7_枠細線
 62
    5
 10
2008.8453960905458
 20
1101.8946910356817
 40
24
 41
0.8000000000000001
 50
0
  1
Ａ
  0
TEXT
  8
_0-7_枠細線
 62
    5
 10
2148.8453960905431
 20
1101.8946910356817
 40
24
 41
0.8000000000000001
 50
0
  1
Ｂ
  0
TEXT
  8
_0-7_枠細線
 62
    5
 10
2129.6453960905396
 20
1061.8946910356817
 40
24
 41
0.5999999999999999
 50
0
  1
４８．５
  0
TEXT
  8
_0-7_枠細線
 62
    5
 10
1989.6453960905405
 20
1061.8946910356817
 40
24
 41
0.5999999999999999
 50
0
  1
１４．５
  0
TEXT
  8
_0-7_枠細線
 62
    5
 10
2093.6453960905415
 20
1021.8946910356817
 40
24
 41
0.5999999999999999
 50
0
  1
２６．５～４８．５
  0
TEXT
  8
_0-7_枠細線
 62
    5
 10
1882.8453960905381
 20
608
 40
24
 41
0.7999999999999999
 50
0
  1
ライトグレー
  0
TEXT
  8
_0-7_枠細線
 62
    5
 10
1902.0453960905379
 20
648
 40
24
 41
0.7999999999999999
 50
0
  1
ベージュ
  0
TEXT
  8
_0-7_枠細線
 62
    5
 10
1902.0453960905379
 20
568
 40
24
 41
0.7999999999999999
 50
0
  1
ホワイト
  0
TEXT
  8
_0-7_枠細線
 62
    5
 10
1911.645396090538
 20
528
 40
24
 41
0.7999999999999999
 50
0
  1
ピンク
  0
TEXT
  8
_0-7_枠細線
 62
    5
 10
1911.645396090538
 20
488
 40
24
 41
0.7999999999999999
 50
0
  1
ブルー
  0
TEXT
  8
_0-7_枠細線
 62
    5
 10
1882.8453960905381
 20
448
 40
24
 41
0.7999999999999999
 50
0
  1
ダークグレー
  0
TEXT
  8
_0-7_枠細線
 62
    5
 10
1911.645396090538
 20
408
 40
24
 41
0.7999999999999999
 50
0
  1
ウッド
  0
TEXT
  8
_0-7_枠細線
 62
    5
 10
1902.0453960905379
 20
328
 40
24
 41
0.7999999999999999
 50
0
  1
ブラック
  0
TEXT
  8
_0-7_枠細線
 62
    5
 10
1902.0453960905379
 20
368
 40
24
 41
0.7999999999999999
 50
0
  1
ブラウン
  0
TEXT
  8
_0-7_枠細線
 62
    5
 10
892.90454714096359
 20
154.27365953350909
 40
32
 41
0.6
 50
0
  1
Ｓ＝１：３
  0
LINE
  8
_0-1_計細線
  6
CONTINUOUS
 62
    3
 10
410.23722627737152
 20
1001.536785022244
 11
463.23722627737152
 21
1001.536785022244
  0
LINE
  8
_0-1_計細線
  6
CONTINUOUS
 62
    3
 10
463.23722627737152
 20
1006.2367850222438
 11
410.23722627737152
 21
1006.2367850222438
  0
LINE
  8
_0-1_計細線
  6
CONTINUOUS
 62
    3
 10
410.23722627737152
 20
1006.2367850222438
 11
410.23722627737152
 21
1001.536785022244
  0
LINE
  8
_0-1_計細線
  6
CONTINUOUS
 62
    3
 10
453.23722627737152
 20
1006.2367850222438
 11
453.23722627737152
 21
1001.536785022244
  0
LINE
  8
_0-1_計細線
  6
CONTINUOUS
 62
    3
 10
461.23722627737152
 20
1006.2367850222438
 11
461.23722627737152
 21
1001.536785022244
  0
LINE
  8
_0-1_計細線
  6
CONTINUOUS
 62
    3
 10
463.23722627737152
 20
1006.2367850222438
 11
463.23722627737152
 21
1001.536785022244
  0
LINE
  8
_0-1_計細線
  6
CONTINUOUS
 62
    3
 10
459.23722627737152
 20
1006.2367850222438
 11
459.23722627737152
 21
1001.536785022244
  0
LINE
  8
_0-1_計細線
  6
CONTINUOUS
 62
    3
 10
457.23722627737152
 20
1006.2367850222438
 11
457.23722627737152
 21
1001.536785022244
  0
LINE
  8
_0-1_計細線
  6
CONTINUOUS
 62
    3
 10
455.23722627737152
 20
1006.2367850222438
 11
455.23722627737152
 21
1001.536785022244
  0
TEXT
  8
_0-5_寸法線
 62
    7
 10
879.02475656935394
 20
731.10653345818196
 40
24
 41
0.7999999999999999
 50
0
  1
ＧＲＳＫ－２０Ｗ３５０
  0
LINE
  8
_0-5_寸法線
  6
CONTINUOUS
 62
    7
 10
851.20687638965251
 20
858.58088837201331
 11
859.20687638965251
 21
844.72448191146225
  0
LINE
  8
_0-5_寸法線
  6
CONTINUOUS
 62
    7
 10
851.20687638965251
 20
858.58088837201331
 11
851.20687638965251
 21
842.58088837201331
  0
LINE
  8
_0-5_寸法線
  6
CONTINUOUS
 62
    7
 10
851.20687638965251
 20
858.58088837201331
 11
878.9327462261449
 21
755.10653345818196
  0
LINE
  8
_0-5_寸法線
  6
CONTINUOUS
 62
    7
 10
878.9327462261449
 20
755.10653345818196
 11
1166.9327462261449
 21
755.10653345818196
  0
TEXT
  8
_0-5_寸法線
 62
    7
 10
878.9327462261449
 20
755.10653345818196
 40
24
 41
0.8000000000000001
 50
0
  1
セーフティグレーチング補強仕様
  0
TEXT
  8
_0-5_寸法線
 62
    7
 10
490.16844510010606
 20
731.10653345818196
 40
24
 41
0.7999999999999999
 50
0
  1
(標準付属)
  0
TEXT
  8
_0-7_枠細線
 62
    5
 10
497.34000304237497
 20
784.66267755060369
 40
20
 41
0.8
 50
0
  1
２
  0
LINE
  8
_0-7_枠細線
  6
CONTINUOUS
 62
    5
 10
517.55576101333804
 20
785.15388114321252
 11
505.55576101333804
 21
809.15388114321252
  0
LINE
  8
_0-7_枠細線
  6
CONTINUOUS
 62
    5
 10
493.55576101333804
 20
785.15388114321252
 11
517.55576101333804
 21
785.15388114321252
  0
LINE
  8
_0-7_枠細線
  6
CONTINUOUS
 62
    5
 10
505.55576101333804
 20
809.15388114321252
 11
493.55576101333804
 21
785.15388114321252
  0
TEXT
  8
_0-7_枠細線
 62
    5
 10
525.75648257189619
 20
783.84466081033179
 40
20
 41
0.8
 50
0
  1
３
  0
LINE
  8
_0-7_枠細線
  6
CONTINUOUS
 62
    5
 10
533.97224054285903
 20
808.72095503462197
 11
521.97224054285903
 21
784.72095503462197
  0
LINE
  8
_0-7_枠細線
  6
CONTINUOUS
 62
    5
 10
521.97224054285903
 20
784.72095503462197
 11
545.97224054285903
 21
784.72095503462197
  0
LINE
  8
_0-7_枠細線
  6
CONTINUOUS
 62
    5
 10
545.97224054285903
 20
784.72095503462197
 11
533.97224054285903
 21
808.72095503462197
  0
LINE
  8
_0-7_枠細線
  6
CONTINUOUS
 62
    5
 10
562.38872007238001
 20
808.72095503462197
 11
550.38872007238001
 21
784.72095503462197
  0
LINE
  8
_0-7_枠細線
  6
CONTINUOUS
 62
    5
 10
550.38872007238001
 20
784.72095503462197
 11
574.38872007238001
 21
784.72095503462197
  0
LINE
  8
_0-7_枠細線
  6
CONTINUOUS
 62
    5
 10
574.38872007238001
 20
784.72095503462197
 11
562.38872007238001
 21
808.72095503462197
  0
LINE
  8
_0-5_寸法線
  6
CONTINUOUS
 62
    7
 10
423.8397388458252
 20
1002.6486349105835
 11
431.8397388498679
 21
988.79222845236654
  0
LINE
  8
_0-5_寸法線
  6
CONTINUOUS
 62
    7
 10
423.8397388458252
 20
1002.6486349105835
 11
423.83973885049329
 21
986.6486349105835
  0
LINE
  8
_0-5_寸法線
  6
CONTINUOUS
 62
    7
 10
423.8397388458252
 20
1002.6486349105835
 11
490.16844510010606
 21
755.10653345818196
  0
LINE
  8
_0-5_寸法線
  6
CONTINUOUS
 62
    7
 10
490.16844510010606
 20
755.10653345818196
 11
586.16844510010606
 21
755.10653345818196
  0
TEXT
  8
_0-5_寸法線
 62
    7
 10
490.16844510010606
 20
755.10653345818196
 40
24
 41
0.8000000000000001
 50
0
  1
取　外　具
  0
TEXT
  8
_0-5_寸法線
 62
    7
 10
636.33845962536907
 20
731.10653345818196
 40
24
 41
0.7999999999999999
 50
0
  1
ＧＳＬ－２０
  0
LINE
  8
_0-5_寸法線
  6
CONTINUOUS
 62
    7
 10
619.56352718550488
 20
817.40399719769312
 11
627.58061069305643
 21
803.55746795629318
  0
LINE
  8
_0-5_寸法線
  6
CONTINUOUS
 62
    7
 10
619.56352718550488
 20
817.40399719769312
 11
619.58326054660586
 21
801.40400936662093
  0
LINE
  8
_0-5_寸法線
  6
CONTINUOUS
 62
    7
 10
619.56352718550488
 20
817.40399719769312
 11
636.33845962536907
 21
755.10653345818196
  0
LINE
  8
_0-5_寸法線
  6
CONTINUOUS
 62
    7
 10
636.33845962536907
 20
755.10653345818196
 11
810.4587949618392
 21
755.10653345818196
  0
TEXT
  8
_0-5_寸法線
 62
    7
 10
637.65879496183925
 20
756.06653345818199
 40
24
 41
0.8000000000000001
 50
0
  1
ＳＵＳアングル受枠
  0
TEXT
  8
_0-7_枠細線
 62
    5
 10
1502.1605925925933
 20
1316
 40
20
 41
1
 50
0
  1
クロスバーピッチ変更
  0
TEXT
  8
_0-7_枠細線
 62
    5
 10
1502.1605925925933
 20
1288
 40
20
 41
1
 50
0
  1
取外具形状変更
  0
TEXT
  8
_0-7_枠細線
 62
    5
 10
1888.0000000000009
 20
1316
 40
20
 41
0.7199999999999999
 50
0
  1
２０２０．０９．０１
  0
TEXT
  8
_0-7_枠細線
 62
    5
 10
1888.0000000000009
 20
1288
 40
20
 41
0.7199999999999999
 50
0
  1
２０２０．１０．０１
  0
TEXT
  8
_0-7_枠細線
 62
    5
 10
786.47210101797782
 20
1282.9948290155471
 40
20
 41
0.8
 50
0
  1
６
  0
TEXT
  8
_0-7_枠細線
 62
    5
 10
554.17296210141717
 20
783.84466081033179
 40
20
 41
0.8
 50
0
  1
７
  0
ENDSEC
  0
EOF
