  0
SECTION
  2
HEADER
  9
$ACADVER
  1
AC1009
  9
$INSBASE
 10
0
 20
0
 30
0
  9
$EXTMIN
 10
0
 20
0
  9
$EXTMAX
 10
1485
 20
1050
  9
$LIMMIN
 10
0
 20
0
  9
$LIMMAX
 10
1485
 20
1050
  9
$LTSCALE
 40
5
  0
ENDSEC
  0
SECTION
  2
TABLES
  0
TABLE
  2
LTYPE
 70
     9
  0
LTYPE
  2
CONTINUOUS
 70
    64
  3
実線
 72
    65
 73
     0
 40
0.0
  0
LTYPE
  2
DASHED1
 70
    64
  3
--  --  --  --  --  --  --  --  
 72
    65
 73
     2
 40
2.5
 49
1.25
 49
-1.25
  0
LTYPE
  2
DASHED2
 70
    64
  3
----    ----    ----    ----    
 72
    65
 73
     2
 40
5.0
 49
2.5
 49
-2.5
  0
LTYPE
  2
DASHED3
 70
    64
  3
------  ------  ------  ------  
 72
    65
 73
     2
 40
5.0
 49
3.75
 49
-1.25
  0
LTYPE
  2
CENTER1
 70
    64
  3
----- - ----- - ----- - ----- - 
 72
    65
 73
     4
 40
10.0
 49
6.25
 49
-1.25
 49
1.25
 49
-1.25
  0
LTYPE
  2
CENTER2
 70
    64
  3
----------  --  ----------  --  
 72
    65
 73
     4
 40
20.0
 49
12.5
 49
-2.5
 49
2.5
 49
-2.5
  0
LTYPE
  2
PHANTOM1
 70
    64
  3
--- - - --- - - --- - - --- - - 
 72
    65
 73
     6
 40
10.0
 49
3.25
 49
-1.25
 49
1.25
 49
-1.25
 49
1.25
 49
-1.25
  0
LTYPE
  2
PHANTOM2
 70
    64
  3
--------  -  -  --------  -  -  
 72
    65
 73
     6
 40
20.0
 49
10.0
 49
-2.5
 49
1.25
 49
-2.5
 49
1.25
 49
-2.5
  0
LTYPE
  2
DOT
 70
    64
  3
-   -   -   -   -   -   -   -   
 72
    65
 73
     2
 40
2.5
 49
0.625
 49
-1.875
  0
LTYPE
  2
DUMMY
 70
    64
  3
ダミー
 72
    65
 73
     0
 40
0.0
  0
LTYPE
  2
RAND1
 70
    64
  3
ランダム線1
 72
    65
 73
     4
 40
10.0
 49
1.0
 49
-2.0
 49
3.0
 49
-4.0
  0
LTYPE
  2
RAND2
 70
    64
  3
ランダム線2
 72
    65
 73
     4
 40
14.0
 49
2.0
 49
-3.0
 49
4.0
 49
-5.0
  0
LTYPE
  2
RAND3
 70
    64
  3
ランダム線3
 72
    65
 73
     4
 40
18.0
 49
3.0
 49
-4.0
 49
5.0
 49
-6.0
  0
LTYPE
  2
RAND4
 70
    64
  3
ランダム線4
 72
    65
 73
     4
 40
22.0
 49
4.0
 49
-5.0
 49
6.0
 49
-7.0
  0
LTYPE
  2
RAND5
 70
    64
  3
ランダム線5
 72
    65
 73
     4
 40
26.0
 49
5.0
 49
-6.0
 49
7.0
 49
-8.0
  0
LTYPE
  2
LONG1
 70
    64
  3
----------  --  ----------  --  
 72
    65
 73
     4
 40
40.0
 49
32.5
 49
-2.5
 49
2.5
 49
-2.5
  0
LTYPE
  2
LONG2
 70
    64
  3
--------  -  -  --------  -  -  
 72
    65
 73
     6
 40
40.0
 49
30.0
 49
-2.5
 49
1.25
 49
-2.5
 49
1.25
 49
-2.5
  0
LTYPE
  2
LONG3
 70
    64
  3
+++++++++++++++..+++++++++++++++
 72
    65
 73
     2
 40
40.0
 49
37.5
 49
-2.5
  0
LTYPE
  2
LONG4
 70
    64
  3
+++++++++++++++..+++++++++++++++
 72
    65
 73
     2
 40
80.0
 49
75.0
 49
-5.0
  0
LTYPE
  2
LONG5
 70
    64
  3
----------  --  ----------  --  
 72
    65
 73
     4
 40
60.0
 49
37.5
 49
-7.5
 49
7.5
 49
-7.5
  0
LTYPE
  2
dashed
 70
   64
  3
-------   -------------   ------
 72
   65
 73
    2
 40
7.5
 49
6
 49
-1.5
  0
LTYPE
  2
dashed_spaced
 70
   64
  3
----        --------        ----
 72
   65
 73
    2
 40
12
 49
6
 49
-6
  0
LTYPE
  2
long_dashed_dotted
 70
   64
  3
------------- --- --------------
 72
   65
 73
    4
 40
15.25
 49
12
 49
-1.5
 49
0.25
 49
-1.5
  0
LTYPE
  2
long_dashed_double-dotted
 70
   64
  3
----------- --- --- ------------
 72
   65
 73
    6
 40
17
 49
12
 49
-1.5
 49
0.25
 49
-1.5
 49
0.25
 49
-1.5
  0
LTYPE
  2
long_dashed_triplicate-dotted
 70
   64
  3
--------- --- --- --- ----------
 72
   65
 73
    8
 40
18.75
 49
12
 49
-1.5
 49
0.25
 49
-1.5
 49
0.25
 49
-1.5
 49
0.25
 49
-1.5
  0
LTYPE
  2
dotted
 70
   64
  3
   -       -       -       -    
 72
   65
 73
    2
 40
1.75
 49
0.25
 49
-1.5
  0
LTYPE
  2
chain
 70
   64
  3
-------------- -- --------------
 72
   65
 73
    4
 40
18.5
 49
12
 49
-1.5
 49
3.5
 49
-1.5
  0
LTYPE
  2
chain_double_dash
 70
   64
  3
------------ -- -- -------------
 72
   65
 73
    6
 40
23.5
 49
12
 49
-1.5
 49
3.5
 49
-1.5
 49
3.5
 49
-1.5
  0
LTYPE
  2
dashed_dotted
 70
   64
  3
-----------     -     ----------
 72
   65
 73
    4
 40
9.25
 49
6
 49
-1.5
 49
0.25
 49
-1.5
  0
LTYPE
  2
double-dashed_dotted
 70
   64
  3
------   -----------   -   -----
 72
   65
 73
    6
 40
16.75
 49
6
 49
-1.5
 49
6
 49
-1.5
 49
0.25
 49
-1.5
  0
LTYPE
  2
dashed_double-dotted
 70
   64
  3
---------    -    -    ---------
 72
   65
 73
    6
 40
11
 49
6
 49
-1.5
 49
0.25
 49
-1.5
 49
0.25
 49
-1.5
  0
LTYPE
  2
double-dashed_double-dotted
 70
   64
  3
-----   ---------   -   -   ----
 72
   65
 73
    8
 40
18.5
 49
6
 49
-1.5
 49
6
 49
-1.5
 49
0.25
 49
-1.5
 49
0.25
 49
-1.5
  0
LTYPE
  2
dashed_triplicate-dotted
 70
   64
  3
-------    -    -    -    ------
 72
   65
 73
    8
 40
12.75
 49
6
 49
-1.5
 49
0.25
 49
-1.5
 49
0.25
 49
-1.5
 49
0.25
 49
-1.5
  0
LTYPE
  2
double-dashed_triplicate-dotted
 70
   64
  3
-----  ---------  -  -  -  -----
 72
   65
 73
   10
 40
20.25
 49
6
 49
-1.5
 49
6
 49
-1.5
 49
0.25
 49
-1.5
 49
0.25
 49
-1.5
 49
0.25
 49
-1.5
  0
LTYPE
  2
undefined
 70
   64
  3
--------------------------------
 72
   65
 73
    0
 40
0
  0
ENDTAB
  0
TABLE
  2
STYLE
  5
3
100
AcDbSymbolTable
 70
     1
  0
STYLE
  5
10
100
AcDbSymbolTableRecord
100
AcDbTextStyleTableRecord
  2
STANDARD
 70
     0
 40
0.0
 41
1.0
 50
0.0
 71
     0
 42
0.2
  3
txt
  4
bigfont.shx
  0
STYLE
  5
26
100
AcDbSymbolTableRecord
100
AcDbTextStyleTableRecord
  2
TATEGAKI
 70
    68
 40
0.0
 41
1.0
 50
0.0
 71
     0
 42
1.0
  3
txt
  4
bigfont.shx
  0
ENDTAB
  0
TABLE
  2
LAYER
 70
    7
  0
LAYER
  2
_0-0_計極細
 70
   64
 62
    7
  6
CONTINUOUS
  0
LAYER
  2
_0-1_計細線
 70
   64
 62
    7
  6
CONTINUOUS
  0
LAYER
  2
_0-5_寸法線
 70
   64
 62
    7
  6
CONTINUOUS
  0
LAYER
  2
_0-7_枠細線
 70
   64
 62
    7
  6
CONTINUOUS
  0
LAYER
  2
_0-8_枠中線
 70
   64
 62
    7
  6
CONTINUOUS
  0
LAYER
  2
_0-9_枠極太
 70
   64
 62
    7
  6
CONTINUOUS
  0
LAYER
  2
ADD_LINE
 70
   64
 62
    7
  6
CONTINUOUS
  0
ENDTAB
  0
ENDSEC
  0
SECTION
  2
BLOCKS
  0
ENDSEC
  0
SECTION
  2
ENTITIES
  0
LINE
  8
_0-7_枠細線
  6
CONTINUOUS
 62
    5
 10
1185
 20
180
 11
1185
 21
100
  0
TEXT
  8
_0-7_枠細線
 62
    5
 10
937.5
 20
97.5
 40
17.5
 41
1
 50
0
  1
備考
  7
TATEGAKI
  0
TEXT
  8
_0-7_枠細線
 62
    5
 10
937.5
 20
137.5
 40
17.5
 41
1
 50
0
  1
品番
  7
TATEGAKI
  0
TEXT
  8
_0-7_枠細線
 62
    5
 10
937.5
 20
177.5
 40
17.5
 41
1
 50
0
  1
品名
  7
TATEGAKI
  0
LINE
  8
_0-7_枠細線
  6
CONTINUOUS
 62
    5
 10
1185
 20
140
 11
925
 21
140
  0
LINE
  8
_0-7_枠細線
  6
CONTINUOUS
 62
    5
 10
950
 20
180
 11
950
 21
60
  0
LINE
  8
_0-8_枠中線
  6
CONTINUOUS
 62
    5
 10
1425
 20
180
 11
925
 21
180
  0
LINE
  8
_0-8_枠中線
  6
CONTINUOUS
 62
    5
 10
925
 20
180
 11
925
 21
60
  0
LINE
  8
_0-7_枠細線
  6
CONTINUOUS
 62
    5
 10
1245
 20
180
 11
1245
 21
60
  0
TEXT
  8
_0-7_枠細線
 62
    5
 10
1192.5
 20
160
 40
15
 41
1
 50
0
  1
縮　尺
  0
LINE
  8
_0-7_枠細線
  6
CONTINUOUS
 62
    5
 10
1185
 20
155
 11
1245
 21
155
  0
LINE
  8
_0-7_枠細線
  6
CONTINUOUS
 62
    5
 10
1245
 20
100
 11
925
 21
100
  0
LINE
  8
_0-7_枠細線
  6
CONTINUOUS
 62
    5
 10
1425
 20
90
 11
1245
 21
90
  0
LINE
  8
_0-7_枠細線
  6
CONTINUOUS
 62
    5
 10
1245
 20
120
 11
1425
 21
120
  0
LINE
  8
_0-7_枠細線
  6
CONTINUOUS
 62
    5
 10
1425
 20
140
 11
1245
 21
140
  0
TEXT
  8
_0-7_枠細線
 62
    5
 10
1255
 20
147.5
 40
25
 41
0.8
 50
0
  1
株式会社シマブン
  0
TEXT
  8
_0-7_枠細線
 62
    5
 10
1252.5
 20
60
 40
15
 41
1
 50
0
  1
年月日
  0
TEXT
  8
_0-7_枠細線
 62
    5
 10
1252.5
 20
75
 40
15
 41
1
 50
0
  1
作　成
  0
TEXT
  8
_0-7_枠細線
 62
    5
 10
1256.25
 20
122.5
 40
15
 41
1
 50
0
  1
承 認
  0
LINE
  8
_0-7_枠細線
  6
CONTINUOUS
 62
    5
 10
1305
 20
140
 11
1305
 21
60
  0
TEXT
  8
_0-7_枠細線
 62
    5
 10
1316.25
 20
122.5
 40
15
 41
1
 50
0
  1
検 図
  0
LINE
  8
_0-7_枠細線
  6
CONTINUOUS
 62
    5
 10
1365
 20
140
 11
1365
 21
90
  0
TEXT
  8
_0-7_枠細線
 62
    5
 10
1375
 20
95
 40
20
 41
1
 50
0
  1
藤戸
  0
TEXT
  8
_0-7_枠細線
 62
    5
 10
1376.25
 20
122.5
 40
15
 41
1
 50
0
  1
設 計
  0
TEXT
  8
_0-7_枠細線
 62
    5
 10
1193.9999999999998
 20
117.5
 40
20
 41
0.7000000000000001
 50
0
  1
１：５
  0
TEXT
  8
_0-7_枠細線
 62
    5
 10
960.5
 20
158.74999999999994
 40
20.000000000000007
 41
0.5999999999999998
 50
0
  1
セーフティグレーチングＨ２５タイプ
  0
TEXT
  8
_0-7_枠細線
 62
    5
 10
1068.5
 20
141.25
 40
20.000000000000007
 41
0.5999999999999998
 50
0
  1
集水マス　補強仕様
  0
LINE
  8
_0-0_計極細
  6
CONTINUOUS
 62
    2
 10
1253.0265603328767
 20
691.295828800408
 11
1311.5332086199455
 21
691.295828800408
  0
LINE
  8
_0-0_計極細
  6
CONTINUOUS
 62
    2
 10
943.02656033287633
 20
691.295828800408
 11
884.51991204580736
 21
691.295828800408
  0
LINE
  8
_0-0_計極細
  6
CENTER1
 62
    2
 10
1251.898725110113
 20
680.09582880040841
 11
942.03416486615197
 21
680.09582880040841
  0
CIRCLE
  8
_0-0_計極細
  6
CONTINUOUS
 62
    2
 10
1270.4189262331874
 20
651.59731949484865
 40
0.3318518518518431
  0
CIRCLE
  8
_0-0_計極細
  6
CONTINUOUS
 62
    2
 10
1282.1789262331868
 20
648.23731949484898
 40
0.3318518518518431
  0
LINE
  8
_0-0_計極細
  6
CONTINUOUS
 62
    2
 10
1268.0265603328767
 20
644.74716560939771
 11
1277.0265603328767
 21
644.74716560939771
  0
LINE
  8
_0-0_計極細
  6
CENTER1
 62
    2
 10
1272.5265603328767
 20
613.32978462973642
 11
1272.5265603328767
 21
647.31259770816337
  0
LINE
  8
_0-0_計極細
  6
CONTINUOUS
 62
    2
 10
1277.0265603328767
 20
644.74716560939771
 11
1277.0265603328767
 21
618.29582880040812
  0
LINE
  8
_0-0_計極細
  6
CONTINUOUS
 62
    2
 10
1268.0265603328767
 20
618.29582880040812
 11
1268.0265603328767
 21
644.74716560939771
  0
LINE
  8
_0-0_計極細
  6
CENTER1
 62
    2
 10
1283.7229519453285
 20
636.37128826742901
 11
1245.3043396557896
 21
650.35451955845008
  0
LINE
  8
_0-0_計極細
  6
CONTINUOUS
 62
    2
 10
1279.2106012651675
 20
633.2248494979101
 11
1246.135994370959
 21
645.26302191745788
  0
LINE
  8
_0-0_計極細
  6
CONTINUOUS
 62
    2
 10
1282.288782555099
 20
641.68208308498356
 11
1249.2141756608899
 21
653.72025550453134
  0
LINE
  8
_0-0_計極細
  6
CONTINUOUS
 62
    2
 10
1249.2141756608899
 20
653.72025550453134
 11
1246.135994370959
 21
645.26302191745788
  0
LINE
  8
_0-0_計極細
  6
CONTINUOUS
 62
    2
 10
1279.2106012651675
 20
633.2248494979101
 11
1282.288782555099
 21
641.68208308498356
  0
LINE
  8
_0-0_計極細
  6
CENTER1
 62
    2
 10
923.52656033287633
 20
613.32978462973642
 11
923.52656033287633
 21
647.31259770816337
  0
LINE
  8
_0-0_計極細
  6
CONTINUOUS
 62
    2
 10
919.02656033287622
 20
644.74716560939771
 11
919.02656033287622
 21
618.29582880040812
  0
LINE
  8
_0-0_計極細
  6
CONTINUOUS
 62
    2
 10
928.02656033287633
 20
644.74716560939771
 11
919.02656033287622
 21
644.74716560939771
  0
LINE
  8
_0-0_計極細
  6
CONTINUOUS
 62
    2
 10
928.02656033287633
 20
618.29582880040812
 11
928.02656033287633
 21
644.74716560939771
  0
LINE
  8
_0-0_計極細
  6
CENTER1
 62
    2
 10
912.33016872042401
 20
636.37128826742901
 11
950.74878100996284
 21
650.35451955845008
  0
LINE
  8
_0-0_計極細
  6
CONTINUOUS
 62
    2
 10
916.84251940058505
 20
633.2248494979101
 11
949.91712629479355
 21
645.26302191745788
  0
LINE
  8
_0-0_計極細
  6
CONTINUOUS
 62
    2
 10
913.76433811065363
 20
641.68208308498356
 11
946.83894500486304
 21
653.72025550453134
  0
LINE
  8
_0-0_計極細
  6
CONTINUOUS
 62
    2
 10
946.83894500486304
 20
653.72025550453134
 11
949.91712629479355
 21
645.26302191745788
  0
LINE
  8
_0-0_計極細
  6
CONTINUOUS
 62
    2
 10
916.84251940058505
 20
633.2248494979101
 11
913.76433811065363
 21
641.68208308498356
  0
CIRCLE
  8
_0-0_計極細
  6
CONTINUOUS
 62
    2
 10
1228.7867040109654
 20
611.70713430966339
 40
1.0953188836088352
  0
CIRCLE
  8
_0-0_計極細
  6
CONTINUOUS
 62
    2
 10
1227.0178151220766
 20
655.28046764299711
 40
1.0953188836088352
  0
CIRCLE
  8
_0-0_計極細
  6
CONTINUOUS
 62
    2
 10
1227.4011484554103
 20
615.70843060596007
 40
0.3318518518518431
  0
CIRCLE
  8
_0-0_計極細
  6
CONTINUOUS
 62
    2
 10
1226.6171978381262
 20
639.26176393929313
 40
0.3318518518518431
  0
LINE
  8
_0-0_計極細
  6
CONTINUOUS
 62
    2
 10
1223.0265603328767
 20
663.29582880040812
 11
1223.0265603328767
 21
602.55086862354051
  0
LINE
  8
_0-0_計極細
  6
CONTINUOUS
 62
    2
 10
1223.5265603328762
 20
663.29582880040812
 11
1223.0265603328767
 21
663.29582880040812
  0
CIRCLE
  8
_0-0_計極細
  6
CONTINUOUS
 62
    2
 10
1265.0233706776321
 20
678.01509727262601
 40
0.3318518518518431
  0
CIRCLE
  8
_0-0_計極細
  6
CONTINUOUS
 62
    2
 10
1277.8233706776318
 20
670.62380097633013
 40
1.0953188836088352
  0
CIRCLE
  8
_0-0_計極細
  6
CONTINUOUS
 62
    2
 10
1277.7433706776319
 20
674.41509727262633
 40
0.3318518518518431
  0
CIRCLE
  8
_0-0_計極細
  6
CONTINUOUS
 62
    2
 10
1286.9433706776317
 20
677.98380097633003
 40
1.0953188836088352
  0
CIRCLE
  8
_0-0_計極細
  6
CONTINUOUS
 62
    2
 10
1280.1433706776315
 20
679.13509727262613
 40
0.3318518518518431
  0
CIRCLE
  8
_0-0_計極細
  6
CONTINUOUS
 62
    2
 10
1296.2233706776315
 20
677.45509727262584
 40
0.3318518518518431
  0
CIRCLE
  8
_0-0_計極細
  6
CONTINUOUS
 62
    2
 10
1306.3033706776314
 20
677.45509727262584
 40
0.3318518518518431
  0
LINE
  8
_0-0_計極細
  6
CONTINUOUS
 62
    2
 10
1299.1000435730584
 20
684.29582880040812
 11
1306.1000431969846
 21
691.29582842433479
  0
LINE
  8
_0-0_計極細
  6
CONTINUOUS
 62
    2
 10
1286.3721215117002
 20
684.29582880040812
 11
1293.3721212351966
 21
691.29582852390388
  0
LINE
  8
_0-0_計極細
  6
CONTINUOUS
 62
    2
 10
1273.6441994503421
 20
684.29582880040812
 11
1280.6441992734071
 21
691.29582862347263
  0
LINE
  8
_0-0_計極細
  6
CONTINUOUS
 62
    2
 10
1260.9162773889848
 20
684.29582880040812
 11
1267.9162773116186
 21
691.29582872304229
  0
LINE
  8
_0-0_計極細
  6
DASHED2
 62
    2
 10
1305.4640046037375
 20
684.29582880040812
 11
1311.5332086199455
 21
690.36503281661612
  0
LINE
  8
_0-0_計極細
  6
DASHED2
 62
    2
 10
1292.7360825423793
 20
684.29582880040812
 11
1299.7360822160908
 21
691.29582847411928
  0
LINE
  8
_0-0_計極細
  6
DASHED2
 62
    2
 10
1280.0081604810212
 20
684.29582880040812
 11
1287.0081602543019
 21
691.29582857368814
  0
LINE
  8
_0-0_計極細
  6
DASHED2
 62
    2
 10
1267.280238419663
 20
684.29582880040812
 11
1274.2802382925129
 21
691.29582867325735
  0
LINE
  8
_0-0_計極細
  6
DASHED2
 62
    2
 10
1258.0265603328762
 20
687.77007277497864
 11
1261.5523163307244
 21
691.29582877282655
  0
LINE
  8
_0-0_計極細
  6
CONTINUOUS
 62
    2
 10
1258.0265603328762
 20
686.49728056884283
 11
1255.8251085644415
 21
684.29582880040812
  0
LINE
  8
_0-0_計極細
  6
CONTINUOUS
 62
    2
 10
1258.0265603328762
 20
689.04286498111435
 11
1253.2795241521703
 21
684.29582880040812
  0
LINE
  8
_0-0_計極細
  6
CONTINUOUS
 62
    2
 10
1253.0265603328767
 20
686.58844939338587
 11
1257.7339397398982
 21
691.295828800408
  0
LINE
  8
_0-0_計極細
  6
CONTINUOUS
 62
    2
 10
1253.0265603328767
 20
689.13403380565774
 11
1255.1883553276271
 21
691.295828800408
  0
LINE
  8
_0-0_計極細
  6
CONTINUOUS
 62
    2
 10
1258.0265603328762
 20
690.39023547470492
 11
1257.120967007173
 21
691.295828800408
  0
LINE
  8
_0-0_計極細
  6
CONTINUOUS
 62
    2
 10
1258.0265603328762
 20
687.84465106243317
 11
1254.5753825949014
 21
691.295828800408
  0
LINE
  8
_0-0_計極細
  6
CONTINUOUS
 62
    2
 10
1258.0265603328762
 20
685.29906665016142
 11
1253.0265603328767
 21
690.29906665016154
  0
LINE
  8
_0-0_計極細
  6
CONTINUOUS
 62
    2
 10
1256.4842137703581
 20
684.29582880040812
 11
1253.0265603328767
 21
687.75348223789013
  0
LINE
  8
_0-0_計極細
  6
CONTINUOUS
 62
    2
 10
1253.9386293580865
 20
684.29582880040812
 11
1253.0265603328767
 21
685.20789782561837
  0
LINE
  8
_0-0_計極細
  6
CONTINUOUS
 62
    2
 10
1253.0265603328767
 20
690.79582880040789
 11
1253.0265603328767
 21
691.295828800408
  0
LINE
  8
_0-0_計極細
  6
CONTINUOUS
 62
    2
 10
1253.0265603328767
 20
684.29582880040812
 11
1311.5332086199455
 21
684.29582880040812
  0
LINE
  8
_0-0_計極細
  6
CONTINUOUS
 62
    2
 10
1258.0265603328762
 20
691.295828800408
 11
1258.0265603328762
 21
684.29582880040812
  0
CIRCLE
  8
_0-0_計極細
  6
CONTINUOUS
 62
    2
 10
1231.6004077146699
 20
634.18654439877491
 40
0.3318518518518431
  0
CIRCLE
  8
_0-0_計極細
  6
CONTINUOUS
 62
    2
 10
1231.4804077146696
 20
648.55987773210836
 40
0.3318518518518431
  0
CIRCLE
  8
_0-0_計極細
  6
CONTINUOUS
 62
    2
 10
1259.9600373442986
 20
651.81380097633007
 40
1.0953188836088352
  0
CIRCLE
  8
_0-0_計極細
  6
CONTINUOUS
 62
    2
 10
1290.3591529254686
 20
619.78156954114866
 40
1.0953188836088352
  0
CIRCLE
  8
_0-0_計極細
  6
CONTINUOUS
 62
    2
 10
1262.6000373442985
 20
625.89380097633045
 40
1.0953188836088352
  0
CIRCLE
  8
_0-0_計極細
  6
CONTINUOUS
 62
    2
 10
1241.480037344299
 20
639.33380097633039
 40
1.0953188836088352
  0
CIRCLE
  8
_0-0_計極細
  6
CONTINUOUS
 62
    2
 10
1235.3467040109663
 20
621.41380097633044
 40
1.0953188836088352
  0
CIRCLE
  8
_0-0_計極細
  6
CONTINUOUS
 62
    2
 10
1277.5833706776316
 20
648.14380097633034
 40
1.0953188836088352
  0
CIRCLE
  8
_0-0_計極細
  6
CONTINUOUS
 62
    2
 10
1258.3833706776322
 20
667.34380097632982
 40
1.0953188836088352
  0
CIRCLE
  8
_0-0_計極細
  6
CONTINUOUS
 62
    2
 10
1291.6367040109644
 20
663.39713430966322
 40
1.0953188836088352
  0
CIRCLE
  8
_0-0_計極細
  6
CONTINUOUS
 62
    2
 10
1301.0233706776316
 20
672.67713430966319
 40
1.0953188836088352
  0
CIRCLE
  8
_0-0_計極細
  6
CONTINUOUS
 62
    2
 10
1303.9033706776318
 20
664.41509727262644
 40
0.3318518518518431
  0
CIRCLE
  8
_0-0_計極細
  6
CONTINUOUS
 62
    2
 10
1286.1433706776315
 20
651.69509727262653
 40
0.3318518518518431
  0
CIRCLE
  8
_0-0_計極細
  6
CONTINUOUS
 62
    2
 10
1287.8233706776311
 20
667.775097272626
 40
0.3318518518518431
  0
CIRCLE
  8
_0-0_計極細
  6
CONTINUOUS
 62
    2
 10
1277.7433706776319
 20
656.01509727262624
 40
0.3318518518518431
  0
CIRCLE
  8
_0-0_計極細
  6
CONTINUOUS
 62
    2
 10
1288.5433706776323
 20
643.29509727262644
 40
0.3318518518518431
  0
CIRCLE
  8
_0-0_計極細
  6
CONTINUOUS
 62
    2
 10
1289.5033706776317
 20
630.81509727262664
 40
0.3318518518518431
  0
CIRCLE
  8
_0-0_計極細
  6
CONTINUOUS
 62
    2
 10
1285.1833706776315
 20
622.41509727262678
 40
0.3318518518518431
  0
CIRCLE
  8
_0-0_計極細
  6
CONTINUOUS
 62
    2
 10
1261.663370677632
 20
654.33509727262617
 40
0.3318518518518431
  0
CIRCLE
  8
_0-0_計極細
  6
CONTINUOUS
 62
    2
 10
1268.623370677632
 20
662.73509727262638
 40
0.3318518518518431
  0
CIRCLE
  8
_0-0_計極細
  6
CONTINUOUS
 62
    2
 10
1256.3033706776323
 20
663.161763939293
 40
0.3318518518518431
  0
CIRCLE
  8
_0-0_計極細
  6
CONTINUOUS
 62
    2
 10
1257.7967040109652
 20
675.0017639392928
 40
0.3318518518518431
  0
CIRCLE
  8
_0-0_計極細
  6
CONTINUOUS
 62
    2
 10
1263.4900373442988
 20
630.58843060595996
 40
0.3318518518518431
  0
CIRCLE
  8
_0-0_計極細
  6
CONTINUOUS
 62
    2
 10
1256.7700373442985
 20
627.22843060595994
 40
0.3318518518518431
  0
CIRCLE
  8
_0-0_計極細
  6
CONTINUOUS
 62
    2
 10
1263.9700373442988
 20
621.78843060596
 40
0.3318518518518431
  0
CIRCLE
  8
_0-0_計極細
  6
CONTINUOUS
 62
    2
 10
1247.8100373442985
 20
621.62843060596015
 40
0.3318518518518431
  0
CIRCLE
  8
_0-0_計極細
  6
CONTINUOUS
 62
    2
 10
1239.4900373442993
 20
624.50843060596003
 40
0.3318518518518431
  0
CIRCLE
  8
_0-0_計極細
  6
CONTINUOUS
 62
    2
 10
1232.6100373442996
 20
606.58843060596018
 40
0.3318518518518431
  0
CIRCLE
  8
_0-0_計極細
  6
CONTINUOUS
 62
    2
 10
1238.2100373442991
 20
617.30843060595998
 40
0.3318518518518431
  0
CIRCLE
  8
_0-0_計極細
  6
CONTINUOUS
 62
    2
 10
1248.9100373442989
 20
631.28843060595977
 40
0.3318518518518431
  0
CIRCLE
  8
_0-0_計極細
  6
CONTINUOUS
 62
    2
 10
1238.3900373442993
 20
641.50176393929303
 40
0.3318518518518431
  0
CIRCLE
  8
_0-0_計極細
  6
CONTINUOUS
 62
    2
 10
1240.8433706776323
 20
656.48843060595982
 40
0.3318518518518431
  0
CIRCLE
  8
_0-0_計極細
  6
CONTINUOUS
 62
    2
 10
1234.8700373442989
 20
653.60843060595971
 40
0.3318518518518431
  0
LINE
  8
_0-0_計極細
  6
CONTINUOUS
 62
    2
 10
1298.0005617816323
 20
602.55086862354051
 11
1311.5332086448698
 21
616.0835154867782
  0
LINE
  8
_0-0_計極細
  6
CONTINUOUS
 62
    2
 10
1255.5741549104396
 20
602.55086862354051
 11
1271.3191150873063
 21
618.29582880040812
  0
LINE
  8
_0-0_計極細
  6
CONTINUOUS
 62
    2
 10
1293.0265603328762
 20
640.00327404597772
 11
1311.5332086203989
 21
658.50992233349984
  0
LINE
  8
_0-0_計極細
  6
CONTINUOUS
 62
    2
 10
1293.7579210945134
 20
602.55086862354051
 11
1311.5332086424228
 21
620.32615617145007
  0
LINE
  8
_0-0_計極細
  6
CONTINUOUS
 62
    2
 10
1251.33151422332
 20
602.55086862354051
 11
1267.0764744001872
 21
618.29582880040812
  0
LINE
  8
_0-0_計極細
  6
CONTINUOUS
 62
    2
 10
1293.0265603328762
 20
644.24591473309715
 11
1308.0764742924571
 21
659.29582869267779
  0
LINE
  8
_0-0_計極細
  6
CONTINUOUS
 62
    2
 10
1289.5152804073932
 20
602.55086862354051
 11
1311.5332086399756
 21
624.56879685612216
  0
LINE
  8
_0-0_計極細
  6
CONTINUOUS
 62
    2
 10
1247.0888735362005
 20
602.55086862354051
 11
1262.8338337130681
 21
618.29582880040812
  0
LINE
  8
_0-0_計極細
  6
CONTINUOUS
 62
    2
 10
1293.0265603328762
 20
648.48855542021613
 11
1303.8338336357074
 21
659.29582872304752
  0
LINE
  8
_0-0_計極細
  6
CONTINUOUS
 62
    2
 10
1243.0265603328762
 20
618.29582880040812
 11
1243.0265603328762
 21
602.55086862354051
  0
LINE
  8
_0-0_計極細
  6
CONTINUOUS
 62
    2
 10
1293.0265603328762
 20
659.295828800408
 11
1311.5332086199455
 21
659.295828800408
  0
LINE
  8
_0-0_計極細
  6
CONTINUOUS
 62
    2
 10
1243.0265603328762
 20
618.29582880040812
 11
1293.0265603328762
 21
618.29582880040812
  0
LINE
  8
_0-0_計極細
  6
CONTINUOUS
 62
    2
 10
1293.0265603328762
 20
659.295828800408
 11
1293.0265603328762
 21
618.29582880040812
  0
CIRCLE
  8
_0-0_計極細
  6
CONTINUOUS
 62
    2
 10
961.67670401096404
 20
642.23713430966404
 40
1.0953188836088352
  0
CIRCLE
  8
_0-0_計極細
  6
CONTINUOUS
 62
    2
 10
969.09892623318865
 20
607.28423243050224
 40
0.3318518518518431
  0
CIRCLE
  8
_0-0_計極細
  6
CONTINUOUS
 62
    2
 10
968.29892623318858
 20
620.87787505040433
 40
0.3318518518518431
  0
CIRCLE
  8
_0-0_計極細
  6
CONTINUOUS
 62
    2
 10
968.89409984429858
 20
653.70380097633017
 40
1.0953188836088352
  0
LINE
  8
_0-0_計極細
  6
CONTINUOUS
 62
    2
 10
973.02656033287633
 20
663.29582880040812
 11
973.02656033287633
 21
602.55086862354051
  0
LINE
  8
_0-0_計極細
  6
CONTINUOUS
 62
    2
 10
972.52656033287622
 20
663.29582880040812
 11
973.02656033287633
 21
663.29582880040812
  0
CIRCLE
  8
_0-0_計極細
  6
CONTINUOUS
 62
    2
 10
889.3411844654579
 20
672.3171343096634
 40
1.0953188836088352
  0
CIRCLE
  8
_0-0_計極細
  6
CONTINUOUS
 62
    2
 10
924.83670401096697
 20
678.90380097632988
 40
1.0953188836088352
  0
CIRCLE
  8
_0-0_計極細
  6
CONTINUOUS
 62
    2
 10
925.29003734429989
 20
676.31120838373727
 40
0.3318518518518431
  0
CIRCLE
  8
_0-0_計極細
  6
CONTINUOUS
 62
    2
 10
898.09003734430007
 20
679.88454171707065
 40
0.3318518518518431
  0
CIRCLE
  8
_0-0_計極細
  6
CONTINUOUS
 62
    2
 10
889.0589262331896
 20
680.21639356892251
 40
0.3318518518518431
  0
LINE
  8
_0-0_計極細
  6
CONTINUOUS
 62
    2
 10
932.72536852629764
 20
684.29582879673171
 11
938.02656033287633
 21
689.59702060330983
  0
LINE
  8
_0-0_計極細
  6
CONTINUOUS
 62
    2
 10
919.99744645611327
 20
684.29582878790484
 11
926.99744646861654
 21
691.295828800408
  0
LINE
  8
_0-0_計極細
  6
CONTINUOUS
 62
    2
 10
907.26952438592889
 20
684.29582877907808
 11
914.26952440725836
 21
691.295828800408
  0
LINE
  8
_0-0_計極細
  6
CONTINUOUS
 62
    2
 10
894.5416023157436
 20
684.29582877025143
 11
901.54160234590063
 21
691.295828800408
  0
LINE
  8
_0-0_計極細
  6
CONTINUOUS
 62
    2
 10
884.51991204580736
 20
687.00206056167235
 11
888.8136802845429
 21
691.295828800408
  0
LINE
  8
_0-0_計極細
  6
DASHED2
 62
    2
 10
926.36140749120568
 20
684.29582879231816
 11
933.3614074992953
 21
691.29582880040846
  0
LINE
  8
_0-0_計極細
  6
DASHED2
 62
    2
 10
913.63348542102085
 20
684.29582878349152
 11
920.63348543793745
 21
691.295828800408
  0
LINE
  8
_0-0_計極細
  6
DASHED2
 62
    2
 10
900.90556335083602
 20
684.29582877466487
 11
907.90556337657972
 21
691.295828800408
  0
LINE
  8
_0-0_計極細
  6
DASHED2
 62
    2
 10
888.17764128065164
 20
684.29582876583811
 11
895.17764131522199
 21
691.295828800408
  0
LINE
  8
_0-0_計極細
  6
CONTINUOUS
 62
    2
 10
942.90770617906048
 20
684.29582880040812
 11
943.02656033287576
 21
684.41468295422351
  0
LINE
  8
_0-0_計極細
  6
CONTINUOUS
 62
    2
 10
940.36212176678873
 20
684.29582880040812
 11
943.02656033287633
 21
686.96026736649503
  0
LINE
  8
_0-0_計極細
  6
CONTINUOUS
 62
    2
 10
938.02656033287633
 20
684.50585177876678
 11
943.02656033287633
 21
689.50585177876678
  0
LINE
  8
_0-0_計極細
  6
CONTINUOUS
 62
    2
 10
938.02656033287633
 20
687.05143619103819
 11
942.27095294224557
 21
691.295828800408
  0
LINE
  8
_0-0_計極細
  6
CONTINUOUS
 62
    2
 10
938.02656033287633
 20
689.59702060330983
 11
939.72536852997439
 21
691.295828800408
  0
LINE
  8
_0-0_計極細
  6
CONTINUOUS
 62
    2
 10
943.02656033287633
 20
689.92724867705294
 11
941.65798020952127
 21
691.295828800408
  0
LINE
  8
_0-0_計極細
  6
CONTINUOUS
 62
    2
 10
943.02656033287633
 20
687.38166426478119
 11
939.11239579724963
 21
691.295828800408
  0
LINE
  8
_0-0_計極細
  6
CONTINUOUS
 62
    2
 10
938.02656033287633
 20
689.83607985250978
 11
943.02656033287633
 21
684.83607985250978
  0
LINE
  8
_0-0_計極細
  6
CONTINUOUS
 62
    2
 10
938.02656033287633
 20
687.29049544023826
 11
941.02122697270624
 21
684.29582880040812
  0
LINE
  8
_0-0_計極細
  6
CONTINUOUS
 62
    2
 10
938.02656033287633
 20
684.74491102796674
 11
938.47564256043472
 21
684.29582880040812
  0
LINE
  8
_0-0_計極細
  6
CONTINUOUS
 62
    2
 10
943.02656033287633
 20
690.79582880040789
 11
943.02656033287633
 21
691.295828800408
  0
LINE
  8
_0-0_計極細
  6
CONTINUOUS
 62
    2
 10
943.02656033287633
 20
684.29582880040812
 11
884.51991204580736
 21
684.29582880040812
  0
LINE
  8
_0-0_計極細
  6
CONTINUOUS
 62
    2
 10
938.02656033287633
 20
691.295828800408
 11
938.02656033287633
 21
684.29582880040812
  0
CIRCLE
  8
_0-0_計極細
  6
CONTINUOUS
 62
    2
 10
962.01003734429935
 20
610.1038009763306
 40
1.0953188836088352
  0
CIRCLE
  8
_0-0_計極細
  6
CONTINUOUS
 62
    2
 10
959.13003734430004
 20
621.30380097633042
 40
1.0953188836088352
  0
CIRCLE
  8
_0-0_計極細
  6
CONTINUOUS
 62
    2
 10
937.54337067763299
 20
623.46380097633028
 40
1.0953188836088352
  0
CIRCLE
  8
_0-0_計極細
  6
CONTINUOUS
 62
    2
 10
905.62337067763394
 20
631.14380097633057
 40
1.0953188836088352
  0
CIRCLE
  8
_0-0_計極細
  6
CONTINUOUS
 62
    2
 10
917.38337067763325
 20
653.94380097633007
 40
1.0953188836088352
  0
CIRCLE
  8
_0-0_計極細
  6
CONTINUOUS
 62
    2
 10
930.82337067763376
 20
647.86380097633003
 40
1.0953188836088352
  0
CIRCLE
  8
_0-0_計極細
  6
CONTINUOUS
 62
    2
 10
901.45943219010587
 20
671.781569541149
 40
1.0953188836088352
  0
CIRCLE
  8
_0-0_計極細
  6
CONTINUOUS
 62
    2
 10
932.51670401096692
 20
667.62380097633013
 40
1.0953188836088352
  0
CIRCLE
  8
_0-0_計極細
  6
CONTINUOUS
 62
    2
 10
944.69003734429998
 20
654.43343060595976
 40
0.3318518518518431
  0
CIRCLE
  8
_0-0_計極細
  6
CONTINUOUS
 62
    2
 10
965.83670401096651
 20
636.59343060595984
 40
0.3318518518518431
  0
CIRCLE
  8
_0-0_計極細
  6
CONTINUOUS
 62
    2
 10
965.51670401096646
 20
647.36676393929304
 40
0.3318518518518431
  0
CIRCLE
  8
_0-0_計極細
  6
CONTINUOUS
 62
    2
 10
956.4500373443002
 20
653.34009727262651
 40
0.3318518518518431
  0
CIRCLE
  8
_0-0_計極細
  6
CONTINUOUS
 62
    2
 10
947.59670401096685
 20
632.86009727262649
 40
0.3318518518518431
  0
CIRCLE
  8
_0-0_計極細
  6
CONTINUOUS
 62
    2
 10
957.59670401096628
 20
606.69120838373783
 40
0.3318518518518431
  0
CIRCLE
  8
_0-0_計極細
  6
CONTINUOUS
 62
    2
 10
961.7567040109667
 20
615.65120838373764
 40
0.3318518518518431
  0
CIRCLE
  8
_0-0_計極細
  6
CONTINUOUS
 62
    2
 10
953.54337067763311
 20
624.61120838373768
 40
0.3318518518518431
  0
CIRCLE
  8
_0-0_計極細
  6
CONTINUOUS
 62
    2
 10
945.75670401096716
 20
622.69120838373772
 40
0.3318518518518431
  0
CIRCLE
  8
_0-0_計極細
  6
CONTINUOUS
 62
    2
 10
933.81003734429999
 20
622.05120838373773
 40
0.3318518518518431
  0
CIRCLE
  8
_0-0_計極細
  6
CONTINUOUS
 62
    2
 10
935.94337067763365
 20
627.59787505040447
 40
0.3318518518518431
  0
CIRCLE
  8
_0-0_計極細
  6
CONTINUOUS
 62
    2
 10
932.21003734430042
 20
629.09120838373769
 40
0.3318518518518431
  0
CIRCLE
  8
_0-0_計極細
  6
CONTINUOUS
 62
    2
 10
938.93003734430022
 20
632.39787505040454
 40
0.3318518518518431
  0
CIRCLE
  8
_0-0_計極細
  6
CONTINUOUS
 62
    2
 10
915.35003734430029
 20
621.66454171707096
 40
0.3318518518518431
  0
CIRCLE
  8
_0-0_計極細
  6
CONTINUOUS
 62
    2
 10
911.61670401096728
 20
626.78454171707108
 40
0.3318518518518431
  0
CIRCLE
  8
_0-0_計極細
  6
CONTINUOUS
 62
    2
 10
906.39003734430037
 20
622.73120838373768
 40
0.3318518518518431
  0
CIRCLE
  8
_0-0_計極細
  6
CONTINUOUS
 62
    2
 10
909.80337067763332
 20
633.50454171707088
 40
0.3318518518518431
  0
CIRCLE
  8
_0-0_計極細
  6
CONTINUOUS
 62
    2
 10
934.47003734430029
 20
649.77120838373753
 40
0.3318518518518431
  0
CIRCLE
  8
_0-0_計極細
  6
CONTINUOUS
 62
    2
 10
918.04337067763356
 20
645.39787505040408
 40
0.3318518518518431
  0
CIRCLE
  8
_0-0_計極細
  6
CONTINUOUS
 62
    2
 10
926.89670401096691
 20
653.50454171707065
 40
0.3318518518518431
  0
CIRCLE
  8
_0-0_計極細
  6
CONTINUOUS
 62
    2
 10
934.47003734430029
 20
656.91787505040406
 40
0.3318518518518431
  0
CIRCLE
  8
_0-0_計極細
  6
CONTINUOUS
 62
    2
 10
919.43003734430022
 20
659.1578750504043
 40
0.3318518518518431
  0
CIRCLE
  8
_0-0_計極細
  6
CONTINUOUS
 62
    2
 10
907.16337067763391
 20
659.90454171707074
 40
0.3318518518518431
  0
CIRCLE
  8
_0-0_計極細
  6
CONTINUOUS
 62
    2
 10
916.43670401096699
 20
676.20454171707047
 40
0.3318518518518431
  0
CIRCLE
  8
_0-0_計極細
  6
CONTINUOUS
 62
    2
 10
923.47670401096696
 20
667.24454171707055
 40
0.3318518518518431
  0
CIRCLE
  8
_0-0_計極細
  6
CONTINUOUS
 62
    2
 10
938.41003734430035
 20
667.56454171707094
 40
0.3318518518518431
  0
CIRCLE
  8
_0-0_計極細
  6
CONTINUOUS
 62
    2
 10
934.99670401096694
 20
677.2712083837373
 40
0.3318518518518431
  0
CIRCLE
  8
_0-0_計極細
  6
CONTINUOUS
 62
    2
 10
920.06337067763354
 20
671.29787505040372
 40
0.3318518518518431
  0
CIRCLE
  8
_0-0_計極細
  6
CONTINUOUS
 62
    2
 10
902.99670401096694
 20
664.25787505040421
 40
0.3318518518518431
  0
CIRCLE
  8
_0-0_計極細
  6
CONTINUOUS
 62
    2
 10
895.42337067763356
 20
663.08454171707081
 40
0.3318518518518431
  0
CIRCLE
  8
_0-0_計極細
  6
CONTINUOUS
 62
    2
 10
889.0589262331896
 20
662.44454171707071
 40
0.3318518518518431
  0
CIRCLE
  8
_0-0_計極細
  6
CONTINUOUS
 62
    2
 10
895.25744475170768
 20
668.41787505040406
 40
0.3318518518518431
  0
LINE
  8
_0-0_計極細
  6
CONTINUOUS
 62
    2
 10
930.57337559388225
 20
602.55086869340266
 11
946.31833570088804
 21
618.29582880040812
  0
LINE
  8
_0-0_計極細
  6
CONTINUOUS
 62
    2
 10
888.14696885469766
 20
602.55086882541059
 11
903.89192882969519
 21
618.29582880040812
  0
LINE
  8
_0-0_計極細
  6
CONTINUOUS
 62
    2
 10
884.51991204580736
 20
641.35021888771348
 11
902.46552195850199
 21
659.295828800408
  0
LINE
  8
_0-0_計極細
  6
CONTINUOUS
 62
    2
 10
926.33073491996356
 20
602.55086870660352
 11
942.07569501376838
 21
618.29582880040812
  0
LINE
  8
_0-0_計極細
  6
CONTINUOUS
 62
    2
 10
884.51991204580736
 20
603.16645270364006
 11
903.02656033287633
 21
621.67310099070869
  0
LINE
  8
_0-0_計極細
  6
CONTINUOUS
 62
    2
 10
884.51991204580736
 20
645.59285957483257
 11
898.22288127138245
 21
659.295828800408
  0
LINE
  8
_0-0_計極細
  6
CONTINUOUS
 62
    2
 10
922.08809424604578
 20
602.55086871980416
 11
937.83305432664929
 21
618.29582880040812
  0
LINE
  8
_0-0_計極細
  6
CONTINUOUS
 62
    2
 10
884.51991204580736
 20
607.40909339075893
 11
903.02656033287633
 21
625.91574167782778
  0
LINE
  8
_0-0_計極細
  6
CONTINUOUS
 62
    2
 10
884.51991204580736
 20
649.83550026195178
 11
893.98024058426381
 21
659.295828800408
  0
LINE
  8
_0-0_計極細
  6
CONTINUOUS
 62
    2
 10
953.02656033287633
 20
618.29582880040812
 11
953.02656033287633
 21
602.55086862354051
  0
LINE
  8
_0-0_計極細
  6
CONTINUOUS
 62
    2
 10
903.02656033287633
 20
659.295828800408
 11
884.51991204580736
 21
659.295828800408
  0
LINE
  8
_0-0_計極細
  6
CONTINUOUS
 62
    2
 10
953.02656033287633
 20
618.29582880040812
 11
903.02656033287633
 21
618.29582880040812
  0
LINE
  8
_0-0_計極細
  6
CONTINUOUS
 62
    2
 10
903.02656033287633
 20
659.295828800408
 11
903.02656033287633
 21
618.29582880040812
  0
LINE
  8
_0-0_計極細
  6
CENTER1
 62
    2
 10
1098.0265603328762
 20
656.58433110913802
 11
1098.0265603328762
 21
699.65433110914205
  0
LINE
  8
_0-1_計細線
  6
CONTINUOUS
 62
    3
 10
1100.376560332877
 20
673.5958288004083
 11
1104.8265603334285
 21
673.5958288004083
  0
LINE
  8
_0-1_計細線
  6
CONTINUOUS
 62
    3
 10
1091.2265603332662
 20
673.5958288004083
 11
1095.6765603328768
 21
673.5958288004083
  0
LINE
  8
_0-1_計細線
  6
CONTINUOUS
 62
    3
 10
1100.376560332877
 20
691.49607006021586
 11
1100.376560332877
 21
671.49607006021529
  0
LINE
  8
_0-1_計細線
  6
CONTINUOUS
 62
    3
 10
1095.6765603328768
 20
671.49607006021529
 11
1095.6765603328768
 21
691.49607006021586
  0
LINE
  8
_0-1_計細線
  6
CONTINUOUS
 62
    3
 10
1100.376560332877
 20
671.49607006021529
 11
1095.6765603328768
 21
671.49607006021529
  0
LINE
  8
_0-1_計細線
  6
CONTINUOUS
 62
    3
 10
1095.6765603328768
 20
691.49607006021586
 11
1100.376560332877
 21
691.49607006021586
  0
LINE
  8
_0-1_計細線
  6
DASHED2
 62
    3
 10
1095.6765603328768
 20
674.4960700602154
 11
1100.376560332877
 21
674.4960700602154
  0
LINE
  8
_0-1_計細線
  6
DASHED2
 62
    3
 10
1095.6765603328768
 20
688.49607006021574
 11
1100.376560332877
 21
688.49607006021574
  0
LINE
  8
_0-1_計細線
  6
CONTINUOUS
 62
    3
 10
1245.5233083348758
 20
680.09582880040841
 11
1248.5278243348762
 21
680.09582880040841
  0
LINE
  8
_0-1_計細線
  6
CONTINUOUS
 62
    3
 10
1245.5233083348758
 20
676.59582880040875
 11
1248.5278363348752
 21
676.59582880040875
  0
ARC
  8
_0-1_計細線
  6
CONTINUOUS
 62
    3
 10
1248.5278363348752
 20
676.79582880040857
 40
0.2000000000000001
 50
269.99999999999977
 51
359.99999999999966
  0
ARC
  8
_0-1_計細線
  6
CONTINUOUS
 62
    3
 10
1240.9698563348757
 20
678.34568280040901
 40
7.7579560000000001
 50
346.96433000000042
 51
13.038021999995337
  0
ARC
  8
_0-1_計細線
  6
CONTINUOUS
 62
    3
 10
1248.5278363348752
 20
683.39582880040882
 40
0.2000000000000001
 50
0
 51
89.999999999999915
  0
ARC
  8
_0-1_計細線
  6
CONTINUOUS
 62
    3
 10
1240.9698563348757
 20
681.8459728004085
 40
7.7579560000000001
 50
346.96197799999902
 51
13.035669999998861
  0
LINE
  8
_0-1_計細線
  6
CONTINUOUS
 62
    3
 10
1245.5233083348758
 20
683.59582880040864
 11
1248.5278363348752
 21
683.59582880040864
  0
LINE
  8
_0-1_計細線
  6
CONTINUOUS
 62
    3
 10
1248.7278363348755
 20
676.79582880040857
 11
1248.7278363348755
 21
683.39582880040882
  0
ARC
  8
_0-1_計細線
  6
CONTINUOUS
 62
    3
 10
1245.3233083348755
 20
673.79582880040857
 40
0.2000000000000001
 50
269.99999999999977
 51
359.99999999999966
  0
LINE
  8
_0-1_計細線
  6
CONTINUOUS
 62
    3
 10
1244.0265603348748
 20
673.59582880040853
 11
1245.3233083348755
 21
673.59582880040853
  0
ARC
  8
_0-1_計細線
  6
CONTINUOUS
 62
    3
 10
1245.3233083348755
 20
686.39582880040837
 40
0.2000000000000001
 50
0
 51
89.999999999999915
  0
LINE
  8
_0-1_計細線
  6
CONTINUOUS
 62
    3
 10
1244.0265603348748
 20
686.59582880040853
 11
1245.3233083348755
 21
686.59582880040853
  0
LINE
  8
_0-1_計細線
  6
CONTINUOUS
 62
    3
 10
1245.5233083348758
 20
679.59582880040841
 11
1245.5233083348758
 21
673.79582880040857
  0
LINE
  8
_0-1_計細線
  6
CONTINUOUS
 62
    3
 10
1245.5233083348758
 20
686.39582880040837
 11
1245.5233083348758
 21
679.59582880040841
  0
LINE
  8
_0-1_計細線
  6
CONTINUOUS
 62
    3
 10
950.52981233087723
 20
680.09582880040841
 11
947.5252963308767
 21
680.09582880040841
  0
LINE
  8
_0-1_計細線
  6
CONTINUOUS
 62
    3
 10
950.52981233087723
 20
676.59582880040875
 11
947.52528433087775
 21
676.59582880040875
  0
ARC
  8
_0-1_計細線
  6
CONTINUOUS
 62
    3
 10
947.52528433087775
 20
676.79582880040857
 40
0.2000000000000001
 50
179.99999999999983
 51
269.99999999999977
  0
ARC
  8
_0-1_計細線
  6
CONTINUOUS
 62
    3
 10
955.08326433087734
 20
678.34568280040901
 40
7.7579560000000001
 50
166.96197800000505
 51
193.03566999999961
  0
ARC
  8
_0-1_計細線
  6
CONTINUOUS
 62
    3
 10
947.52528433087775
 20
683.39582880040882
 40
0.2000000000000001
 50
89.999999999999915
 51
179.99999999999983
  0
ARC
  8
_0-1_計細線
  6
CONTINUOUS
 62
    3
 10
955.08326433087734
 20
681.8459728004085
 40
7.7579560000000001
 50
166.96433000000002
 51
193.0380219999995
  0
LINE
  8
_0-1_計細線
  6
CONTINUOUS
 62
    3
 10
950.52981233087723
 20
683.59582880040864
 11
947.52528433087775
 21
683.59582880040864
  0
LINE
  8
_0-1_計細線
  6
CONTINUOUS
 62
    3
 10
947.32528433087737
 20
676.79582880040857
 11
947.32528433087737
 21
683.39582880040882
  0
ARC
  8
_0-1_計細線
  6
CONTINUOUS
 62
    3
 10
950.72981233087739
 20
673.79582880040857
 40
0.2000000000000001
 50
179.99999999999983
 51
269.99999999999977
  0
LINE
  8
_0-1_計細線
  6
CONTINUOUS
 62
    3
 10
952.0265603308776
 20
673.59582880040853
 11
950.72981233087739
 21
673.59582880040853
  0
ARC
  8
_0-1_計細線
  6
CONTINUOUS
 62
    3
 10
950.72981233087739
 20
686.39582880040837
 40
0.2000000000000001
 50
89.999999999999915
 51
179.99999999999983
  0
LINE
  8
_0-1_計細線
  6
CONTINUOUS
 62
    3
 10
952.0265603308776
 20
686.59582880040853
 11
950.72981233087739
 21
686.59582880040853
  0
LINE
  8
_0-1_計細線
  6
CONTINUOUS
 62
    3
 10
950.52981233087723
 20
679.59582880040841
 11
950.52981233087723
 21
673.79582880040857
  0
LINE
  8
_0-1_計細線
  6
CONTINUOUS
 62
    3
 10
950.52981233087723
 20
686.39582880040837
 11
950.52981233087723
 21
679.59582880040841
  0
LINE
  8
_0-1_計細線
  6
CONTINUOUS
 62
    3
 10
1100.626560371697
 20
686.59582880040819
 11
1104.8265603334285
 21
686.59582880040819
  0
LINE
  8
_0-1_計細線
  6
CONTINUOUS
 62
    3
 10
1091.2265603334281
 20
686.59582880040819
 11
1095.4265602940559
 21
686.59582880040819
  0
LINE
  8
_0-1_計細線
  6
CONTINUOUS
 62
    3
 10
968.82656033038029
 20
686.59582880040819
 11
955.42656033038065
 21
686.59582880040819
  0
LINE
  8
_0-1_計細線
  6
CONTINUOUS
 62
    3
 10
1227.2265603353726
 20
686.59582880040819
 11
1240.6265603353722
 21
686.59582880040819
  0
LINE
  8
_0-1_計細線
  6
CONTINUOUS
 62
    3
 10
985.8265603305523
 20
686.59582880040819
 11
972.22656033055182
 21
686.59582880040819
  0
LINE
  8
_0-1_計細線
  6
CONTINUOUS
 62
    3
 10
1002.8265603307237
 20
686.59582880040819
 11
989.22656033072371
 21
686.59582880040819
  0
LINE
  8
_0-1_計細線
  6
CONTINUOUS
 62
    3
 10
1019.826560330896
 20
686.59582880040819
 11
1006.2265603308961
 21
686.59582880040819
  0
LINE
  8
_0-1_計細線
  6
CONTINUOUS
 62
    3
 10
1210.2265603352007
 20
686.59582880040819
 11
1223.8265603352011
 21
686.59582880040819
  0
LINE
  8
_0-1_計細線
  6
CONTINUOUS
 62
    3
 10
1193.2265603350293
 20
686.59582880040819
 11
1206.8265603350292
 21
686.59582880040819
  0
LINE
  8
_0-1_計細線
  6
CONTINUOUS
 62
    3
 10
1176.2265603348574
 20
686.59582880040819
 11
1189.8265603348573
 21
686.59582880040819
  0
LINE
  8
_0-1_計細線
  6
CONTINUOUS
 62
    3
 10
1023.2265603323423
 20
686.59582880040819
 11
1036.8265603323425
 21
686.59582880040819
  0
LINE
  8
_0-1_計細線
  6
CONTINUOUS
 62
    3
 10
1159.2265603346846
 20
686.59582880040819
 11
1172.8265603346849
 21
686.59582880040819
  0
LINE
  8
_0-1_計細線
  6
CONTINUOUS
 62
    3
 10
1142.226560334323
 20
686.59582880040819
 11
1155.8265603343234
 21
686.59582880040819
  0
LINE
  8
_0-1_計細線
  6
CONTINUOUS
 62
    3
 10
1040.2265603323426
 20
686.59582880040819
 11
1053.826560332343
 21
686.59582880040819
  0
LINE
  8
_0-1_計細線
  6
CONTINUOUS
 62
    3
 10
1057.226560332705
 20
686.59582880040819
 11
1070.8265603327045
 21
686.59582880040819
  0
LINE
  8
_0-1_計細線
  6
CONTINUOUS
 62
    3
 10
1074.2265603330666
 20
686.59582880040819
 11
1087.826560333066
 21
686.59582880040819
  0
LINE
  8
_0-1_計細線
  6
CONTINUOUS
 62
    3
 10
1108.2265603337896
 20
686.59582880040819
 11
1121.82656033379
 21
686.59582880040819
  0
LINE
  8
_0-1_計細線
  6
CONTINUOUS
 62
    3
 10
1125.2265603341521
 20
686.59582880040819
 11
1138.8265603341515
 21
686.59582880040819
  0
LINE
  8
_0-1_計細線
  6
CONTINUOUS
 62
    3
 10
968.82656033038029
 20
673.5958288004083
 11
955.42656033038065
 21
673.5958288004083
  0
LINE
  8
_0-1_計細線
  6
CONTINUOUS
 62
    3
 10
1227.2265603353726
 20
673.5958288004083
 11
1240.6265603353722
 21
673.5958288004083
  0
LINE
  8
_0-1_計細線
  6
CONTINUOUS
 62
    3
 10
985.8265603305523
 20
673.5958288004083
 11
972.22656033055182
 21
673.5958288004083
  0
LINE
  8
_0-1_計細線
  6
CONTINUOUS
 62
    3
 10
1002.8265603307237
 20
673.5958288004083
 11
989.22656033072371
 21
673.5958288004083
  0
LINE
  8
_0-1_計細線
  6
CONTINUOUS
 62
    3
 10
1019.826560330896
 20
673.5958288004083
 11
1006.2265603308961
 21
673.5958288004083
  0
LINE
  8
_0-1_計細線
  6
CONTINUOUS
 62
    3
 10
1210.2265603352007
 20
673.5958288004083
 11
1223.8265603352011
 21
673.5958288004083
  0
LINE
  8
_0-1_計細線
  6
CONTINUOUS
 62
    3
 10
1193.2265603350293
 20
673.5958288004083
 11
1206.8265603350292
 21
673.5958288004083
  0
LINE
  8
_0-1_計細線
  6
CONTINUOUS
 62
    3
 10
1176.2265603348574
 20
673.5958288004083
 11
1189.8265603348573
 21
673.5958288004083
  0
LINE
  8
_0-1_計細線
  6
CONTINUOUS
 62
    3
 10
1023.2265603323423
 20
673.5958288004083
 11
1036.8265603323425
 21
673.5958288004083
  0
LINE
  8
_0-1_計細線
  6
CONTINUOUS
 62
    3
 10
1159.2265603346846
 20
673.5958288004083
 11
1172.8265603346849
 21
673.5958288004083
  0
LINE
  8
_0-1_計細線
  6
CONTINUOUS
 62
    3
 10
1142.226560334323
 20
673.5958288004083
 11
1155.8265603343234
 21
673.5958288004083
  0
LINE
  8
_0-1_計細線
  6
CONTINUOUS
 62
    3
 10
1040.2265603323426
 20
673.5958288004083
 11
1053.826560332343
 21
673.5958288004083
  0
LINE
  8
_0-1_計細線
  6
CONTINUOUS
 62
    3
 10
1057.226560332705
 20
673.5958288004083
 11
1070.8265603327045
 21
673.5958288004083
  0
LINE
  8
_0-1_計細線
  6
CONTINUOUS
 62
    3
 10
1074.2265603330666
 20
673.5958288004083
 11
1087.826560333066
 21
673.5958288004083
  0
LINE
  8
_0-1_計細線
  6
CONTINUOUS
 62
    3
 10
1108.2265603337896
 20
673.5958288004083
 11
1121.82656033379
 21
673.5958288004083
  0
LINE
  8
_0-1_計細線
  6
CONTINUOUS
 62
    3
 10
1125.2265603341521
 20
673.5958288004083
 11
1138.8265603341515
 21
673.5958288004083
  0
ARC
  8
_0-1_計細線
  6
CONTINUOUS
 62
    3
 10
949.02656033253334
 20
689.295828800408
 40
1.0000000000000004
 50
89.999999999999915
 51
179.99999999999983
  0
ARC
  8
_0-1_計細線
  6
CONTINUOUS
 62
    3
 10
949.49450952386042
 20
691.29582880040766
 40
1.0000000000000004
 50
269.99999999999977
 51
330.00000000001364
  0
ARC
  8
_0-1_計細線
  6
CONTINUOUS
 62
    3
 10
951.2265603314296
 20
690.29582880040823
 40
1.0000000000000004
 50
89.999999999999915
 51
150.00000000001401
  0
LINE
  8
_0-1_計細線
  6
CONTINUOUS
 62
    3
 10
949.02656033253334
 20
690.29582880040823
 11
949.49450952386042
 21
690.29582880040823
  0
ARC
  8
_0-1_計細線
  6
CONTINUOUS
 62
    3
 10
958.42656033032608
 20
689.295828800408
 40
1.0000000000000004
 50
0
 51
89.999999999999915
  0
ARC
  8
_0-1_計細線
  6
CONTINUOUS
 62
    3
 10
957.95861113899821
 20
691.29582880040766
 40
1.0000000000000004
 50
209.99999999998565
 51
269.99999999999977
  0
ARC
  8
_0-1_計細線
  6
CONTINUOUS
 62
    3
 10
956.22656033142903
 20
690.29582880040823
 40
1.0000000000000004
 50
29.999999999986002
 51
89.999999999999901
  0
LINE
  8
_0-1_計細線
  6
CONTINUOUS
 62
    3
 10
958.42656033032608
 20
690.29582880040823
 11
957.95861113899821
 21
690.29582880040823
  0
ARC
  8
_0-1_計細線
  6
CONTINUOUS
 62
    3
 10
948.52656033253299
 20
687.89582880040814
 40
0.5000000000000002
 50
179.99999999999983
 51
269.99999999999977
  0
LINE
  8
_0-1_計細線
  6
CONTINUOUS
 62
    3
 10
948.02656033253243
 20
689.295828800408
 11
948.02656033253243
 21
687.89582880040814
  0
ARC
  8
_0-1_計細線
  6
CONTINUOUS
 62
    3
 10
958.92656033032563
 20
687.89582880040814
 40
0.5000000000000002
 50
269.99999999999977
 51
359.99999999999966
  0
LINE
  8
_0-1_計細線
  6
CONTINUOUS
 62
    3
 10
959.42656033032563
 20
689.295828800408
 11
959.42656033032563
 21
687.89582880040814
  0
ARC
  8
_0-1_計細線
  6
CONTINUOUS
 62
    3
 10
951.02656033253254
 20
686.39582880040803
 40
1.0000000000000004
 50
0
 51
89.999999999999915
  0
LINE
  8
_0-1_計細線
  6
CONTINUOUS
 62
    3
 10
951.02656033253254
 20
687.3958288004078
 11
948.52656033253299
 21
687.3958288004078
  0
ARC
  8
_0-1_計細線
  6
CONTINUOUS
 62
    3
 10
956.42656033253297
 20
686.39582880040803
 40
1.0000000000000004
 50
89.999999999999915
 51
179.99999999999983
  0
LINE
  8
_0-1_計細線
  6
CONTINUOUS
 62
    3
 10
956.42656033032563
 20
687.3958288004078
 11
958.92656033032563
 21
687.3958288004078
  0
LINE
  8
_0-1_計細線
  6
CONTINUOUS
 62
    3
 10
956.22656033142903
 20
691.29582880040766
 11
951.2265603314296
 21
691.29582880040766
  0
LINE
  8
_0-1_計細線
  6
CONTINUOUS
 62
    3
 10
952.02656033142932
 20
666.29582880040812
 11
952.02656033253334
 21
686.39582880040803
  0
LINE
  8
_0-1_計細線
  6
CONTINUOUS
 62
    3
 10
955.4265603314293
 20
666.29582880040812
 11
955.42656033253309
 21
686.39582880040803
  0
LINE
  8
_0-1_計細線
  6
CONTINUOUS
 62
    3
 10
955.4265603314293
 20
666.29582880040812
 11
952.02656033142932
 21
666.29582880040812
  0
ARC
  8
_0-1_計細線
  6
CONTINUOUS
 62
    3
 10
1237.6265603362858
 20
689.295828800408
 40
1.0000000000000004
 50
89.999999999999915
 51
179.99999999999983
  0
ARC
  8
_0-1_計細線
  6
CONTINUOUS
 62
    3
 10
1238.0945095276138
 20
691.29582880040766
 40
1.0000000000000004
 50
269.99999999999977
 51
330.00000000001364
  0
ARC
  8
_0-1_計細線
  6
CONTINUOUS
 62
    3
 10
1239.826560335182
 20
690.29582880040823
 40
1.0000000000000004
 50
89.999999999999915
 51
149.99999999998795
  0
LINE
  8
_0-1_計細線
  6
CONTINUOUS
 62
    3
 10
1237.6265603362858
 20
690.29582880040823
 11
1238.0945095276138
 21
690.29582880040823
  0
ARC
  8
_0-1_計細線
  6
CONTINUOUS
 62
    3
 10
1247.0265603340786
 20
689.295828800408
 40
1.0000000000000004
 50
0
 51
89.999999999999915
  0
ARC
  8
_0-1_計細線
  6
CONTINUOUS
 62
    3
 10
1246.558611142751
 20
691.29582880040766
 40
1.0000000000000004
 50
209.99999999999866
 51
269.99999999999977
  0
ARC
  8
_0-1_計細線
  6
CONTINUOUS
 62
    3
 10
1244.8265603351824
 20
690.29582880040823
 40
1.0000000000000004
 50
29.999999999986002
 51
89.999999999999901
  0
LINE
  8
_0-1_計細線
  6
CONTINUOUS
 62
    3
 10
1247.0265603340786
 20
690.29582880040823
 11
1246.558611142751
 21
690.29582880040823
  0
ARC
  8
_0-1_計細線
  6
CONTINUOUS
 62
    3
 10
1237.1265603362863
 20
687.89582880040814
 40
0.5000000000000002
 50
179.99999999999983
 51
269.99999999999977
  0
LINE
  8
_0-1_計細線
  6
CONTINUOUS
 62
    3
 10
1236.6265603362863
 20
689.295828800408
 11
1236.6265603362863
 21
687.89582880040814
  0
ARC
  8
_0-1_計細線
  6
CONTINUOUS
 62
    3
 10
1247.526560334079
 20
687.89582880040814
 40
0.5000000000000002
 50
269.99999999999977
 51
359.99999999999966
  0
LINE
  8
_0-1_計細線
  6
CONTINUOUS
 62
    3
 10
1248.026560334079
 20
689.295828800408
 11
1248.026560334079
 21
687.89582880040814
  0
ARC
  8
_0-1_計細線
  6
CONTINUOUS
 62
    3
 10
1239.6265603362863
 20
686.39582880040803
 40
1.0000000000000004
 50
0
 51
89.999999999999915
  0
LINE
  8
_0-1_計細線
  6
CONTINUOUS
 62
    3
 10
1239.6265603362863
 20
687.3958288004078
 11
1237.1265603362863
 21
687.3958288004078
  0
ARC
  8
_0-1_計細線
  6
CONTINUOUS
 62
    3
 10
1245.0265603362859
 20
686.39582880040803
 40
1.0000000000000004
 50
89.999999999999915
 51
179.99999999999983
  0
LINE
  8
_0-1_計細線
  6
CONTINUOUS
 62
    3
 10
1245.026560334079
 20
687.3958288004078
 11
1247.526560334079
 21
687.3958288004078
  0
LINE
  8
_0-1_計細線
  6
CONTINUOUS
 62
    3
 10
1244.8265603351824
 20
691.29582880040766
 11
1239.826560335182
 21
691.29582880040766
  0
LINE
  8
_0-1_計細線
  6
CONTINUOUS
 62
    3
 10
1240.6265603351821
 20
666.29582880040812
 11
1240.6265603362858
 21
686.39582880040803
  0
LINE
  8
_0-1_計細線
  6
CONTINUOUS
 62
    3
 10
1244.0265603351827
 20
666.29582880040812
 11
1244.0265603362859
 21
686.39582880040803
  0
LINE
  8
_0-1_計細線
  6
CONTINUOUS
 62
    3
 10
1244.0265603351827
 20
666.29582880040812
 11
1240.6265603351821
 21
666.29582880040812
  0
ARC
  8
_0-1_計細線
  6
CONTINUOUS
 62
    3
 10
975.22656032963926
 20
689.295828800408
 40
1.0000000000000004
 50
0
 51
89.999999999999915
  0
ARC
  8
_0-1_計細線
  6
CONTINUOUS
 62
    3
 10
974.75861113831115
 20
691.29582880040766
 40
1.0000000000000004
 50
209.99999999998565
 51
269.99999999999977
  0
ARC
  8
_0-1_計細線
  6
CONTINUOUS
 62
    3
 10
973.02656033074209
 20
690.29582880040823
 40
1.0000000000000004
 50
29.999999999986002
 51
89.999999999999901
  0
LINE
  8
_0-1_計細線
  6
CONTINUOUS
 62
    3
 10
975.22656032963926
 20
690.29582880040823
 11
974.75861113831115
 21
690.29582880040823
  0
ARC
  8
_0-1_計細線
  6
CONTINUOUS
 62
    3
 10
965.82656033184549
 20
689.295828800408
 40
1.0000000000000004
 50
89.999999999999915
 51
179.99999999999983
  0
ARC
  8
_0-1_計細線
  6
CONTINUOUS
 62
    3
 10
966.29450952317359
 20
691.29582880040766
 40
1.0000000000000004
 50
269.99999999999977
 51
330.00000000001364
  0
ARC
  8
_0-1_計細線
  6
CONTINUOUS
 62
    3
 10
968.02656033074254
 20
690.29582880040823
 40
1.0000000000000004
 50
89.999999999999915
 51
150.00000000001401
  0
LINE
  8
_0-1_計細線
  6
CONTINUOUS
 62
    3
 10
965.82656033184549
 20
690.29582880040823
 11
966.29450952317359
 21
690.29582880040823
  0
ARC
  8
_0-1_計細線
  6
CONTINUOUS
 62
    3
 10
975.7265603296388
 20
687.89582880040814
 40
0.5000000000000002
 50
269.99999999999977
 51
359.99999999999966
  0
LINE
  8
_0-1_計細線
  6
CONTINUOUS
 62
    3
 10
976.22656032963869
 20
689.295828800408
 11
976.22656032963869
 21
687.89582880040814
  0
ARC
  8
_0-1_計細線
  6
CONTINUOUS
 62
    3
 10
965.32656033184594
 20
687.89582880040814
 40
0.5000000000000002
 50
179.99999999999983
 51
269.99999999999977
  0
LINE
  8
_0-1_計細線
  6
CONTINUOUS
 62
    3
 10
964.82656033184594
 20
689.295828800408
 11
964.82656033184594
 21
687.89582880040814
  0
ARC
  8
_0-1_計細線
  6
CONTINUOUS
 62
    3
 10
973.2265603296388
 20
686.39582880040803
 40
1.0000000000000004
 50
89.999999999999915
 51
179.99999999999983
  0
LINE
  8
_0-1_計細線
  6
CONTINUOUS
 62
    3
 10
973.2265603296388
 20
687.3958288004078
 11
975.7265603296388
 21
687.3958288004078
  0
ARC
  8
_0-1_計細線
  6
CONTINUOUS
 62
    3
 10
967.82656032963871
 20
686.39582880040803
 40
1.0000000000000004
 50
0
 51
89.999999999999915
  0
LINE
  8
_0-1_計細線
  6
CONTINUOUS
 62
    3
 10
967.82656033184594
 20
687.3958288004078
 11
965.32656033184594
 21
687.3958288004078
  0
LINE
  8
_0-1_計細線
  6
CONTINUOUS
 62
    3
 10
968.02656033074254
 20
691.29582880040766
 11
973.02656033074209
 21
691.29582880040766
  0
LINE
  8
_0-1_計細線
  6
CONTINUOUS
 62
    3
 10
972.22656033074247
 20
666.29582880040812
 11
972.22656032963926
 21
686.39582880040803
  0
LINE
  8
_0-1_計細線
  6
CONTINUOUS
 62
    3
 10
968.82656033074227
 20
666.29582880040812
 11
968.8265603296386
 21
686.39582880040803
  0
LINE
  8
_0-1_計細線
  6
CONTINUOUS
 62
    3
 10
968.82656033074227
 20
666.29582880040812
 11
972.22656033074247
 21
666.29582880040812
  0
ARC
  8
_0-1_計細線
  6
CONTINUOUS
 62
    3
 10
992.22656032981058
 20
689.295828800408
 40
1.0000000000000004
 50
0
 51
89.999999999999915
  0
ARC
  8
_0-1_計細線
  6
CONTINUOUS
 62
    3
 10
991.75861113848271
 20
691.29582880040766
 40
1.0000000000000004
 50
209.99999999999866
 51
269.99999999999977
  0
ARC
  8
_0-1_計細線
  6
CONTINUOUS
 62
    3
 10
990.02656033091398
 20
690.29582880040823
 40
1.0000000000000004
 50
29.999999999986002
 51
89.999999999999901
  0
LINE
  8
_0-1_計細線
  6
CONTINUOUS
 62
    3
 10
992.22656032981058
 20
690.29582880040823
 11
991.75861113848271
 21
690.29582880040823
  0
ARC
  8
_0-1_計細線
  6
CONTINUOUS
 62
    3
 10
982.82656033201749
 20
689.295828800408
 40
1.0000000000000004
 50
89.999999999999915
 51
179.99999999999983
  0
ARC
  8
_0-1_計細線
  6
CONTINUOUS
 62
    3
 10
983.29450952334537
 20
691.29582880040766
 40
1.0000000000000004
 50
269.99999999999977
 51
330.00000000000057
  0
ARC
  8
_0-1_計細線
  6
CONTINUOUS
 62
    3
 10
985.02656033091398
 20
690.29582880040823
 40
1.0000000000000004
 50
89.999999999999915
 51
150.00000000001401
  0
LINE
  8
_0-1_計細線
  6
CONTINUOUS
 62
    3
 10
982.82656033201749
 20
690.29582880040823
 11
983.29450952334537
 21
690.29582880040823
  0
ARC
  8
_0-1_計細線
  6
CONTINUOUS
 62
    3
 10
992.72656032981058
 20
687.89582880040814
 40
0.5000000000000002
 50
269.99999999999977
 51
359.99999999999966
  0
LINE
  8
_0-1_計細線
  6
CONTINUOUS
 62
    3
 10
993.22656032981013
 20
689.295828800408
 11
993.22656032981013
 21
687.89582880040814
  0
ARC
  8
_0-1_計細線
  6
CONTINUOUS
 62
    3
 10
982.32656033201749
 20
687.89582880040814
 40
0.5000000000000002
 50
179.99999999999983
 51
269.99999999999977
  0
LINE
  8
_0-1_計細線
  6
CONTINUOUS
 62
    3
 10
981.82656033201795
 20
689.295828800408
 11
981.82656033201795
 21
687.89582880040814
  0
ARC
  8
_0-1_計細線
  6
CONTINUOUS
 62
    3
 10
990.22656032981013
 20
686.39582880040803
 40
1.0000000000000004
 50
89.999999999999915
 51
179.99999999999983
  0
LINE
  8
_0-1_計細線
  6
CONTINUOUS
 62
    3
 10
990.22656032981013
 20
687.3958288004078
 11
992.72656032981058
 21
687.3958288004078
  0
ARC
  8
_0-1_計細線
  6
CONTINUOUS
 62
    3
 10
984.82656032981049
 20
686.39582880040803
 40
1.0000000000000004
 50
0
 51
89.999999999999915
  0
LINE
  8
_0-1_計細線
  6
CONTINUOUS
 62
    3
 10
984.82656033201795
 20
687.3958288004078
 11
982.32656033201749
 21
687.3958288004078
  0
LINE
  8
_0-1_計細線
  6
CONTINUOUS
 62
    3
 10
985.02656033091398
 20
691.29582880040766
 11
990.02656033091398
 21
691.29582880040766
  0
LINE
  8
_0-1_計細線
  6
CONTINUOUS
 62
    3
 10
989.22656033091425
 20
666.29582880040812
 11
989.2265603298107
 21
686.39582880040803
  0
LINE
  8
_0-1_計細線
  6
CONTINUOUS
 62
    3
 10
985.82656033091382
 20
666.29582880040812
 11
985.82656032981049
 21
686.39582880040803
  0
LINE
  8
_0-1_計細線
  6
CONTINUOUS
 62
    3
 10
985.82656033091382
 20
666.29582880040812
 11
989.22656033091425
 21
666.29582880040812
  0
ARC
  8
_0-1_計細線
  6
CONTINUOUS
 62
    3
 10
1009.2265603299825
 20
689.295828800408
 40
1.0000000000000004
 50
0
 51
89.999999999999915
  0
ARC
  8
_0-1_計細線
  6
CONTINUOUS
 62
    3
 10
1008.7586111386545
 20
691.29582880040766
 40
1.0000000000000004
 50
209.99999999998565
 51
269.99999999999977
  0
ARC
  8
_0-1_計細線
  6
CONTINUOUS
 62
    3
 10
1007.0265603310863
 20
690.29582880040823
 40
1.0000000000000004
 50
30.000000000012058
 51
89.999999999999901
  0
LINE
  8
_0-1_計細線
  6
CONTINUOUS
 62
    3
 10
1009.2265603299825
 20
690.29582880040823
 11
1008.7586111386545
 21
690.29582880040823
  0
ARC
  8
_0-1_計細線
  6
CONTINUOUS
 62
    3
 10
999.82656033218973
 20
689.295828800408
 40
1.0000000000000004
 50
89.999999999999915
 51
179.99999999999983
  0
ARC
  8
_0-1_計細線
  6
CONTINUOUS
 62
    3
 10
1000.2945095235168
 20
691.29582880040766
 40
1.0000000000000004
 50
269.99999999999977
 51
330.00000000001364
  0
ARC
  8
_0-1_計細線
  6
CONTINUOUS
 62
    3
 10
1002.026560331086
 20
690.29582880040823
 40
1.0000000000000004
 50
89.999999999999915
 51
150.00000000001401
  0
LINE
  8
_0-1_計細線
  6
CONTINUOUS
 62
    3
 10
999.82656033218973
 20
690.29582880040823
 11
1000.2945095235168
 21
690.29582880040823
  0
ARC
  8
_0-1_計細線
  6
CONTINUOUS
 62
    3
 10
1009.726560329982
 20
687.89582880040814
 40
0.5000000000000002
 50
269.99999999999977
 51
359.99999999999966
  0
LINE
  8
_0-1_計細線
  6
CONTINUOUS
 62
    3
 10
1010.2265603299821
 20
689.295828800408
 11
1010.2265603299821
 21
687.89582880040814
  0
ARC
  8
_0-1_計細線
  6
CONTINUOUS
 62
    3
 10
999.32656033218927
 20
687.89582880040814
 40
0.5000000000000002
 50
179.99999999999983
 51
269.99999999999977
  0
LINE
  8
_0-1_計細線
  6
CONTINUOUS
 62
    3
 10
998.82656033218939
 20
689.295828800408
 11
998.82656033218939
 21
687.89582880040814
  0
ARC
  8
_0-1_計細線
  6
CONTINUOUS
 62
    3
 10
1007.226560329982
 20
686.39582880040803
 40
1.0000000000000004
 50
89.999999999999915
 51
179.99999999999983
  0
LINE
  8
_0-1_計細線
  6
CONTINUOUS
 62
    3
 10
1007.226560329982
 20
687.3958288004078
 11
1009.726560329982
 21
687.3958288004078
  0
ARC
  8
_0-1_計細線
  6
CONTINUOUS
 62
    3
 10
1001.8265603299819
 20
686.39582880040803
 40
1.0000000000000004
 50
0
 51
89.999999999999915
  0
LINE
  8
_0-1_計細線
  6
CONTINUOUS
 62
    3
 10
1001.8265603321893
 20
687.3958288004078
 11
999.32656033218927
 21
687.3958288004078
  0
LINE
  8
_0-1_計細線
  6
CONTINUOUS
 62
    3
 10
1002.026560331086
 20
691.29582880040766
 11
1007.0265603310863
 21
691.29582880040766
  0
LINE
  8
_0-1_計細線
  6
CONTINUOUS
 62
    3
 10
1006.2265603310857
 20
666.29582880040812
 11
1006.2265603299825
 21
686.39582880040803
  0
LINE
  8
_0-1_計細線
  6
CONTINUOUS
 62
    3
 10
1002.8265603310856
 20
666.29582880040812
 11
1002.8265603299825
 21
686.39582880040803
  0
LINE
  8
_0-1_計細線
  6
CONTINUOUS
 62
    3
 10
1002.8265603310856
 20
666.29582880040812
 11
1006.2265603310857
 21
666.29582880040812
  0
ARC
  8
_0-1_計細線
  6
CONTINUOUS
 62
    3
 10
1220.8265603361142
 20
689.295828800408
 40
1.0000000000000004
 50
89.999999999999915
 51
179.99999999999983
  0
ARC
  8
_0-1_計細線
  6
CONTINUOUS
 62
    3
 10
1221.2945095274417
 20
691.29582880040766
 40
1.0000000000000004
 50
269.99999999999977
 51
330.00000000001364
  0
ARC
  8
_0-1_計細線
  6
CONTINUOUS
 62
    3
 10
1223.0265603350108
 20
690.29582880040823
 40
1.0000000000000004
 50
89.999999999999915
 51
150.00000000001401
  0
LINE
  8
_0-1_計細線
  6
CONTINUOUS
 62
    3
 10
1220.8265603361142
 20
690.29582880040823
 11
1221.2945095274417
 21
690.29582880040823
  0
ARC
  8
_0-1_計細線
  6
CONTINUOUS
 62
    3
 10
1230.2265603339074
 20
689.295828800408
 40
1.0000000000000004
 50
0
 51
89.999999999999915
  0
ARC
  8
_0-1_計細線
  6
CONTINUOUS
 62
    3
 10
1229.7586111425794
 20
691.29582880040766
 40
1.0000000000000004
 50
209.99999999998565
 51
269.99999999999977
  0
ARC
  8
_0-1_計細線
  6
CONTINUOUS
 62
    3
 10
1228.0265603350108
 20
690.29582880040823
 40
1.0000000000000004
 50
29.99999999999903
 51
89.999999999999901
  0
LINE
  8
_0-1_計細線
  6
CONTINUOUS
 62
    3
 10
1230.2265603339074
 20
690.29582880040823
 11
1229.7586111425794
 21
690.29582880040823
  0
ARC
  8
_0-1_計細線
  6
CONTINUOUS
 62
    3
 10
1220.3265603361142
 20
687.89582880040814
 40
0.5000000000000002
 50
179.99999999999983
 51
269.99999999999977
  0
LINE
  8
_0-1_計細線
  6
CONTINUOUS
 62
    3
 10
1219.8265603361142
 20
689.295828800408
 11
1219.8265603361142
 21
687.89582880040814
  0
ARC
  8
_0-1_計細線
  6
CONTINUOUS
 62
    3
 10
1230.7265603339074
 20
687.89582880040814
 40
0.5000000000000002
 50
269.99999999999977
 51
359.99999999999966
  0
LINE
  8
_0-1_計細線
  6
CONTINUOUS
 62
    3
 10
1231.2265603339069
 20
689.295828800408
 11
1231.2265603339069
 21
687.89582880040814
  0
ARC
  8
_0-1_計細線
  6
CONTINUOUS
 62
    3
 10
1222.8265603361142
 20
686.39582880040803
 40
1.0000000000000004
 50
0
 51
89.999999999999915
  0
LINE
  8
_0-1_計細線
  6
CONTINUOUS
 62
    3
 10
1222.8265603361142
 20
687.3958288004078
 11
1220.3265603361142
 21
687.3958288004078
  0
ARC
  8
_0-1_計細線
  6
CONTINUOUS
 62
    3
 10
1228.2265603361143
 20
686.39582880040803
 40
1.0000000000000004
 50
89.999999999999915
 51
179.99999999999983
  0
LINE
  8
_0-1_計細線
  6
CONTINUOUS
 62
    3
 10
1228.2265603339069
 20
687.3958288004078
 11
1230.7265603339074
 21
687.3958288004078
  0
LINE
  8
_0-1_計細線
  6
CONTINUOUS
 62
    3
 10
1228.0265603350108
 20
691.29582880040766
 11
1223.0265603350108
 21
691.29582880040766
  0
LINE
  8
_0-1_計細線
  6
CONTINUOUS
 62
    3
 10
1223.8265603350105
 20
666.29582880040812
 11
1223.8265603361142
 21
686.39582880040803
  0
LINE
  8
_0-1_計細線
  6
CONTINUOUS
 62
    3
 10
1227.2265603350106
 20
666.29582880040812
 11
1227.2265603361138
 21
686.39582880040803
  0
LINE
  8
_0-1_計細線
  6
CONTINUOUS
 62
    3
 10
1227.2265603350106
 20
666.29582880040812
 11
1223.8265603350105
 21
666.29582880040812
  0
ARC
  8
_0-1_計細線
  6
CONTINUOUS
 62
    3
 10
1203.8265603359423
 20
689.295828800408
 40
1.0000000000000004
 50
89.999999999999915
 51
179.99999999999983
  0
ARC
  8
_0-1_計細線
  6
CONTINUOUS
 62
    3
 10
1204.2945095272703
 20
691.29582880040766
 40
1.0000000000000004
 50
269.99999999999977
 51
330.00000000001364
  0
ARC
  8
_0-1_計細線
  6
CONTINUOUS
 62
    3
 10
1206.0265603348389
 20
690.29582880040823
 40
1.0000000000000004
 50
89.999999999999915
 51
150.00000000000097
  0
LINE
  8
_0-1_計細線
  6
CONTINUOUS
 62
    3
 10
1203.8265603359423
 20
690.29582880040823
 11
1204.2945095272703
 21
690.29582880040823
  0
ARC
  8
_0-1_計細線
  6
CONTINUOUS
 62
    3
 10
1213.2265603337355
 20
689.295828800408
 40
1.0000000000000004
 50
0
 51
89.999999999999915
  0
ARC
  8
_0-1_計細線
  6
CONTINUOUS
 62
    3
 10
1212.758611142408
 20
691.29582880040766
 40
1.0000000000000004
 50
209.99999999998565
 51
269.99999999999977
  0
ARC
  8
_0-1_計細線
  6
CONTINUOUS
 62
    3
 10
1211.0265603348389
 20
690.29582880040823
 40
1.0000000000000004
 50
29.999999999986002
 51
89.999999999999901
  0
LINE
  8
_0-1_計細線
  6
CONTINUOUS
 62
    3
 10
1213.2265603337355
 20
690.29582880040823
 11
1212.758611142408
 21
690.29582880040823
  0
ARC
  8
_0-1_計細線
  6
CONTINUOUS
 62
    3
 10
1203.3265603359423
 20
687.89582880040814
 40
0.5000000000000002
 50
179.99999999999983
 51
269.99999999999977
  0
LINE
  8
_0-1_計細線
  6
CONTINUOUS
 62
    3
 10
1202.8265603359428
 20
689.295828800408
 11
1202.8265603359428
 21
687.89582880040814
  0
ARC
  8
_0-1_計細線
  6
CONTINUOUS
 62
    3
 10
1213.7265603337355
 20
687.89582880040814
 40
0.5000000000000002
 50
269.99999999999977
 51
359.99999999999966
  0
LINE
  8
_0-1_計細線
  6
CONTINUOUS
 62
    3
 10
1214.2265603337355
 20
689.295828800408
 11
1214.2265603337355
 21
687.89582880040814
  0
ARC
  8
_0-1_計細線
  6
CONTINUOUS
 62
    3
 10
1205.8265603359428
 20
686.39582880040803
 40
1.0000000000000004
 50
0
 51
89.999999999999915
  0
LINE
  8
_0-1_計細線
  6
CONTINUOUS
 62
    3
 10
1205.8265603359428
 20
687.3958288004078
 11
1203.3265603359423
 21
687.3958288004078
  0
ARC
  8
_0-1_計細線
  6
CONTINUOUS
 62
    3
 10
1211.2265603359428
 20
686.39582880040803
 40
1.0000000000000004
 50
89.999999999999915
 51
179.99999999999983
  0
LINE
  8
_0-1_計細線
  6
CONTINUOUS
 62
    3
 10
1211.2265603337355
 20
687.3958288004078
 11
1213.7265603337355
 21
687.3958288004078
  0
LINE
  8
_0-1_計細線
  6
CONTINUOUS
 62
    3
 10
1211.0265603348389
 20
691.29582880040766
 11
1206.0265603348389
 21
691.29582880040766
  0
LINE
  8
_0-1_計細線
  6
CONTINUOUS
 62
    3
 10
1206.8265603348391
 20
666.29582880040812
 11
1206.8265603359423
 21
686.39582880040803
  0
LINE
  8
_0-1_計細線
  6
CONTINUOUS
 62
    3
 10
1210.2265603348392
 20
666.29582880040812
 11
1210.2265603359424
 21
686.39582880040803
  0
LINE
  8
_0-1_計細線
  6
CONTINUOUS
 62
    3
 10
1210.2265603348392
 20
666.29582880040812
 11
1206.8265603348391
 21
666.29582880040812
  0
ARC
  8
_0-1_計細線
  6
CONTINUOUS
 62
    3
 10
1186.8265603357704
 20
689.295828800408
 40
1.0000000000000004
 50
89.999999999999915
 51
179.99999999999983
  0
ARC
  8
_0-1_計細線
  6
CONTINUOUS
 62
    3
 10
1187.2945095270984
 20
691.29582880040766
 40
1.0000000000000004
 50
269.99999999999977
 51
330.00000000001364
  0
ARC
  8
_0-1_計細線
  6
CONTINUOUS
 62
    3
 10
1189.026560334667
 20
690.29582880040823
 40
1.0000000000000004
 50
89.999999999999915
 51
150.00000000000097
  0
LINE
  8
_0-1_計細線
  6
CONTINUOUS
 62
    3
 10
1186.8265603357704
 20
690.29582880040823
 11
1187.2945095270984
 21
690.29582880040823
  0
ARC
  8
_0-1_計細線
  6
CONTINUOUS
 62
    3
 10
1196.2265603335636
 20
689.295828800408
 40
1.0000000000000004
 50
0
 51
89.999999999999915
  0
ARC
  8
_0-1_計細線
  6
CONTINUOUS
 62
    3
 10
1195.7586111422361
 20
691.29582880040766
 40
1.0000000000000004
 50
209.99999999998565
 51
269.99999999999977
  0
ARC
  8
_0-1_計細線
  6
CONTINUOUS
 62
    3
 10
1194.026560334667
 20
690.29582880040823
 40
1.0000000000000004
 50
29.999999999986002
 51
89.999999999999901
  0
LINE
  8
_0-1_計細線
  6
CONTINUOUS
 62
    3
 10
1196.2265603335636
 20
690.29582880040823
 11
1195.7586111422361
 21
690.29582880040823
  0
ARC
  8
_0-1_計細線
  6
CONTINUOUS
 62
    3
 10
1186.3265603357709
 20
687.89582880040814
 40
0.5000000000000002
 50
179.99999999999983
 51
269.99999999999977
  0
LINE
  8
_0-1_計細線
  6
CONTINUOUS
 62
    3
 10
1185.8265603357709
 20
689.295828800408
 11
1185.8265603357709
 21
687.89582880040814
  0
ARC
  8
_0-1_計細線
  6
CONTINUOUS
 62
    3
 10
1196.7265603335636
 20
687.89582880040814
 40
0.5000000000000002
 50
269.99999999999977
 51
359.99999999999966
  0
LINE
  8
_0-1_計細線
  6
CONTINUOUS
 62
    3
 10
1197.2265603335636
 20
689.295828800408
 11
1197.2265603335636
 21
687.89582880040814
  0
ARC
  8
_0-1_計細線
  6
CONTINUOUS
 62
    3
 10
1188.8265603357709
 20
686.39582880040803
 40
1.0000000000000004
 50
0
 51
89.999999999999915
  0
LINE
  8
_0-1_計細線
  6
CONTINUOUS
 62
    3
 10
1188.8265603357709
 20
687.3958288004078
 11
1186.3265603357709
 21
687.3958288004078
  0
ARC
  8
_0-1_計細線
  6
CONTINUOUS
 62
    3
 10
1194.226560335771
 20
686.39582880040803
 40
1.0000000000000004
 50
89.999999999999915
 51
179.99999999999983
  0
LINE
  8
_0-1_計細線
  6
CONTINUOUS
 62
    3
 10
1194.2265603335636
 20
687.3958288004078
 11
1196.7265603335636
 21
687.3958288004078
  0
LINE
  8
_0-1_計細線
  6
CONTINUOUS
 62
    3
 10
1194.026560334667
 20
691.29582880040766
 11
1189.026560334667
 21
691.29582880040766
  0
LINE
  8
_0-1_計細線
  6
CONTINUOUS
 62
    3
 10
1189.8265603346672
 20
666.29582880040812
 11
1189.8265603357704
 21
686.39582880040803
  0
LINE
  8
_0-1_計細線
  6
CONTINUOUS
 62
    3
 10
1193.2265603346673
 20
666.29582880040812
 11
1193.226560335771
 21
686.39582880040803
  0
LINE
  8
_0-1_計細線
  6
CONTINUOUS
 62
    3
 10
1193.2265603346673
 20
666.29582880040812
 11
1189.8265603346672
 21
666.29582880040812
  0
ARC
  8
_0-1_計細線
  6
CONTINUOUS
 62
    3
 10
1016.8265603328946
 20
689.295828800408
 40
1.0000000000000004
 50
89.999999999999915
 51
179.99999999999983
  0
ARC
  8
_0-1_計細線
  6
CONTINUOUS
 62
    3
 10
1017.2945095242217
 20
691.29582880040766
 40
1.0000000000000004
 50
269.99999999999977
 51
330.00000000001364
  0
ARC
  8
_0-1_計細線
  6
CONTINUOUS
 62
    3
 10
1019.0265603317908
 20
690.29582880040823
 40
1.0000000000000004
 50
89.999999999999915
 51
150.00000000001401
  0
LINE
  8
_0-1_計細線
  6
CONTINUOUS
 62
    3
 10
1016.8265603328946
 20
690.29582880040823
 11
1017.2945095242217
 21
690.29582880040823
  0
ARC
  8
_0-1_計細線
  6
CONTINUOUS
 62
    3
 10
1026.2265603306873
 20
689.295828800408
 40
1.0000000000000004
 50
0
 51
89.999999999999915
  0
ARC
  8
_0-1_計細線
  6
CONTINUOUS
 62
    3
 10
1025.7586111393598
 20
691.29582880040766
 40
1.0000000000000004
 50
209.9999999999726
 51
269.99999999999977
  0
ARC
  8
_0-1_計細線
  6
CONTINUOUS
 62
    3
 10
1024.0265603317903
 20
690.29582880040823
 40
1.0000000000000004
 50
29.999999999986002
 51
89.999999999947889
  0
LINE
  8
_0-1_計細線
  6
CONTINUOUS
 62
    3
 10
1026.2265603306873
 20
690.29582880040823
 11
1025.7586111393598
 21
690.29582880040823
  0
ARC
  8
_0-1_計細線
  6
CONTINUOUS
 62
    3
 10
1016.3265603328946
 20
687.89582880040814
 40
0.5000000000000002
 50
179.99999999999983
 51
269.99999999999977
  0
LINE
  8
_0-1_計細線
  6
CONTINUOUS
 62
    3
 10
1015.8265603328942
 20
689.295828800408
 11
1015.8265603328942
 21
687.89582880040814
  0
ARC
  8
_0-1_計細線
  6
CONTINUOUS
 62
    3
 10
1026.7265603306869
 20
687.89582880040814
 40
0.5000000000000002
 50
269.99999999999977
 51
359.99999999999966
  0
LINE
  8
_0-1_計細線
  6
CONTINUOUS
 62
    3
 10
1027.2265603306873
 20
689.295828800408
 11
1027.2265603306873
 21
687.89582880040814
  0
ARC
  8
_0-1_計細線
  6
CONTINUOUS
 62
    3
 10
1018.8265603328942
 20
686.39582880040803
 40
1.0000000000000004
 50
0
 51
89.999999999999915
  0
LINE
  8
_0-1_計細線
  6
CONTINUOUS
 62
    3
 10
1018.8265603328942
 20
687.3958288004078
 11
1016.3265603328946
 21
687.3958288004078
  0
ARC
  8
_0-1_計細線
  6
CONTINUOUS
 62
    3
 10
1024.2265603328942
 20
686.39582880040803
 40
1.0000000000000004
 50
89.999999999999915
 51
179.99999999999983
  0
LINE
  8
_0-1_計細線
  6
CONTINUOUS
 62
    3
 10
1024.2265603306869
 20
687.3958288004078
 11
1026.7265603306869
 21
687.3958288004078
  0
LINE
  8
_0-1_計細線
  6
CONTINUOUS
 62
    3
 10
1024.0265603317903
 20
691.29582880040766
 11
1019.0265603317908
 21
691.29582880040766
  0
LINE
  8
_0-1_計細線
  6
CONTINUOUS
 62
    3
 10
1019.8265603317909
 20
666.29582880040812
 11
1019.8265603328946
 21
686.39582880040803
  0
LINE
  8
_0-1_計細線
  6
CONTINUOUS
 62
    3
 10
1023.2265603317906
 20
666.29582880040812
 11
1023.2265603328948
 21
686.39582880040803
  0
LINE
  8
_0-1_計細線
  6
CONTINUOUS
 62
    3
 10
1023.2265603317906
 20
666.29582880040812
 11
1019.8265603317909
 21
666.29582880040812
  0
ARC
  8
_0-1_計細線
  6
CONTINUOUS
 62
    3
 10
1169.8265603355985
 20
689.295828800408
 40
1.0000000000000004
 50
89.999999999999915
 51
179.99999999999983
  0
ARC
  8
_0-1_計細線
  6
CONTINUOUS
 62
    3
 10
1170.294509526926
 20
691.29582880040766
 40
1.0000000000000004
 50
269.99999999999977
 51
330.00000000001364
  0
ARC
  8
_0-1_計細線
  6
CONTINUOUS
 62
    3
 10
1172.0265603344947
 20
690.29582880040823
 40
1.0000000000000004
 50
89.999999999999915
 51
150.00000000000097
  0
LINE
  8
_0-1_計細線
  6
CONTINUOUS
 62
    3
 10
1169.8265603355985
 20
690.29582880040823
 11
1170.294509526926
 21
690.29582880040823
  0
ARC
  8
_0-1_計細線
  6
CONTINUOUS
 62
    3
 10
1179.2265603333917
 20
689.295828800408
 40
1.0000000000000004
 50
0
 51
89.999999999999915
  0
ARC
  8
_0-1_計細線
  6
CONTINUOUS
 62
    3
 10
1178.7586111420642
 20
691.29582880040766
 40
1.0000000000000004
 50
209.99999999999866
 51
269.99999999999977
  0
ARC
  8
_0-1_計細線
  6
CONTINUOUS
 62
    3
 10
1177.0265603344956
 20
690.29582880040823
 40
1.0000000000000004
 50
29.999999999986002
 51
89.999999999999901
  0
LINE
  8
_0-1_計細線
  6
CONTINUOUS
 62
    3
 10
1179.2265603333917
 20
690.29582880040823
 11
1178.7586111420642
 21
690.29582880040823
  0
ARC
  8
_0-1_計細線
  6
CONTINUOUS
 62
    3
 10
1169.3265603355985
 20
687.89582880040814
 40
0.5000000000000002
 50
179.99999999999983
 51
269.99999999999977
  0
LINE
  8
_0-1_計細線
  6
CONTINUOUS
 62
    3
 10
1168.8265603355985
 20
689.295828800408
 11
1168.8265603355985
 21
687.89582880040814
  0
ARC
  8
_0-1_計細線
  6
CONTINUOUS
 62
    3
 10
1179.7265603333922
 20
687.89582880040814
 40
0.5000000000000002
 50
269.99999999999977
 51
359.99999999999966
  0
LINE
  8
_0-1_計細線
  6
CONTINUOUS
 62
    3
 10
1180.2265603333917
 20
689.295828800408
 11
1180.2265603333917
 21
687.89582880040814
  0
ARC
  8
_0-1_計細線
  6
CONTINUOUS
 62
    3
 10
1171.8265603355985
 20
686.39582880040803
 40
1.0000000000000004
 50
0
 51
89.999999999999915
  0
LINE
  8
_0-1_計細線
  6
CONTINUOUS
 62
    3
 10
1171.8265603355985
 20
687.3958288004078
 11
1169.3265603355985
 21
687.3958288004078
  0
ARC
  8
_0-1_計細線
  6
CONTINUOUS
 62
    3
 10
1177.2265603355991
 20
686.39582880040803
 40
1.0000000000000004
 50
89.999999999999915
 51
179.99999999999983
  0
LINE
  8
_0-1_計細線
  6
CONTINUOUS
 62
    3
 10
1177.2265603333917
 20
687.3958288004078
 11
1179.7265603333922
 21
687.3958288004078
  0
LINE
  8
_0-1_計細線
  6
CONTINUOUS
 62
    3
 10
1177.0265603344956
 20
691.29582880040766
 11
1172.0265603344947
 21
691.29582880040766
  0
LINE
  8
_0-1_計細線
  6
CONTINUOUS
 62
    3
 10
1172.8265603344948
 20
666.29582880040812
 11
1172.8265603355985
 21
686.39582880040803
  0
LINE
  8
_0-1_計細線
  6
CONTINUOUS
 62
    3
 10
1176.2265603344958
 20
666.29582880040812
 11
1176.2265603355991
 21
686.39582880040803
  0
LINE
  8
_0-1_計細線
  6
CONTINUOUS
 62
    3
 10
1176.2265603344958
 20
666.29582880040812
 11
1172.8265603344948
 21
666.29582880040812
  0
ARC
  8
_0-1_計細線
  6
CONTINUOUS
 62
    3
 10
1152.8265603352365
 20
689.295828800408
 40
1.0000000000000004
 50
89.999999999999915
 51
179.99999999999983
  0
ARC
  8
_0-1_計細線
  6
CONTINUOUS
 62
    3
 10
1153.2945095265641
 20
691.29582880040766
 40
1.0000000000000004
 50
269.99999999999977
 51
330.00000000001364
  0
ARC
  8
_0-1_計細線
  6
CONTINUOUS
 62
    3
 10
1155.0265603341331
 20
690.29582880040823
 40
1.0000000000000004
 50
89.999999999999915
 51
150.00000000001401
  0
LINE
  8
_0-1_計細線
  6
CONTINUOUS
 62
    3
 10
1152.8265603352365
 20
690.29582880040823
 11
1153.2945095265641
 21
690.29582880040823
  0
ARC
  8
_0-1_計細線
  6
CONTINUOUS
 62
    3
 10
1162.2265603330297
 20
689.295828800408
 40
1.0000000000000004
 50
0
 51
89.999999999999915
  0
ARC
  8
_0-1_計細線
  6
CONTINUOUS
 62
    3
 10
1161.7586111417017
 20
691.29582880040766
 40
1.0000000000000004
 50
209.99999999998565
 51
269.99999999999977
  0
ARC
  8
_0-1_計細線
  6
CONTINUOUS
 62
    3
 10
1160.0265603341327
 20
690.29582880040823
 40
1.0000000000000004
 50
29.999999999986002
 51
89.999999999999901
  0
LINE
  8
_0-1_計細線
  6
CONTINUOUS
 62
    3
 10
1162.2265603330297
 20
690.29582880040823
 11
1161.7586111417017
 21
690.29582880040823
  0
ARC
  8
_0-1_計細線
  6
CONTINUOUS
 62
    3
 10
1152.326560335237
 20
687.89582880040814
 40
0.5000000000000002
 50
179.99999999999983
 51
269.99999999999977
  0
LINE
  8
_0-1_計細線
  6
CONTINUOUS
 62
    3
 10
1151.8265603352365
 20
689.295828800408
 11
1151.8265603352365
 21
687.89582880040814
  0
ARC
  8
_0-1_計細線
  6
CONTINUOUS
 62
    3
 10
1162.7265603330293
 20
687.89582880040814
 40
0.5000000000000002
 50
269.99999999999977
 51
359.99999999999966
  0
LINE
  8
_0-1_計細線
  6
CONTINUOUS
 62
    3
 10
1163.2265603330293
 20
689.295828800408
 11
1163.2265603330293
 21
687.89582880040814
  0
ARC
  8
_0-1_計細線
  6
CONTINUOUS
 62
    3
 10
1154.8265603352365
 20
686.39582880040803
 40
1.0000000000000004
 50
0
 51
89.999999999999915
  0
LINE
  8
_0-1_計細線
  6
CONTINUOUS
 62
    3
 10
1154.8265603352365
 20
687.3958288004078
 11
1152.326560335237
 21
687.3958288004078
  0
ARC
  8
_0-1_計細線
  6
CONTINUOUS
 62
    3
 10
1160.2265603352366
 20
686.39582880040803
 40
1.0000000000000004
 50
89.999999999999915
 51
179.99999999999983
  0
LINE
  8
_0-1_計細線
  6
CONTINUOUS
 62
    3
 10
1160.2265603330293
 20
687.3958288004078
 11
1162.7265603330293
 21
687.3958288004078
  0
LINE
  8
_0-1_計細線
  6
CONTINUOUS
 62
    3
 10
1160.0265603341327
 20
691.29582880040766
 11
1155.0265603341331
 21
691.29582880040766
  0
LINE
  8
_0-1_計細線
  6
CONTINUOUS
 62
    3
 10
1155.8265603341333
 20
666.29582880040812
 11
1155.8265603352365
 21
686.39582880040803
  0
LINE
  8
_0-1_計細線
  6
CONTINUOUS
 62
    3
 10
1159.226560334133
 20
666.29582880040812
 11
1159.2265603352371
 21
686.39582880040803
  0
LINE
  8
_0-1_計細線
  6
CONTINUOUS
 62
    3
 10
1159.226560334133
 20
666.29582880040812
 11
1155.8265603341333
 21
666.29582880040812
  0
ARC
  8
_0-1_計細線
  6
CONTINUOUS
 62
    3
 10
1033.8265603328941
 20
689.295828800408
 40
1.0000000000000004
 50
89.999999999999915
 51
179.99999999999983
  0
ARC
  8
_0-1_計細線
  6
CONTINUOUS
 62
    3
 10
1034.2945095242221
 20
691.29582880040766
 40
1.0000000000000004
 50
269.99999999999977
 51
330.00000000001364
  0
ARC
  8
_0-1_計細線
  6
CONTINUOUS
 62
    3
 10
1036.0265603317912
 20
690.29582880040823
 40
1.0000000000000004
 50
89.999999999999915
 51
150.00000000001401
  0
LINE
  8
_0-1_計細線
  6
CONTINUOUS
 62
    3
 10
1033.8265603328941
 20
690.29582880040823
 11
1034.2945095242221
 21
690.29582880040823
  0
ARC
  8
_0-1_計細線
  6
CONTINUOUS
 62
    3
 10
1043.2265603306869
 20
689.295828800408
 40
1.0000000000000004
 50
0
 51
89.999999999999915
  0
ARC
  8
_0-1_計細線
  6
CONTINUOUS
 62
    3
 10
1042.7586111393598
 20
691.29582880040766
 40
1.0000000000000004
 50
209.99999999998565
 51
269.99999999999977
  0
ARC
  8
_0-1_計細線
  6
CONTINUOUS
 62
    3
 10
1041.0265603317907
 20
690.29582880040823
 40
1.0000000000000004
 50
29.999999999986002
 51
89.999999999999901
  0
LINE
  8
_0-1_計細線
  6
CONTINUOUS
 62
    3
 10
1043.2265603306869
 20
690.29582880040823
 11
1042.7586111393598
 21
690.29582880040823
  0
ARC
  8
_0-1_計細線
  6
CONTINUOUS
 62
    3
 10
1033.3265603328946
 20
687.89582880040814
 40
0.5000000000000002
 50
179.99999999999983
 51
269.99999999999977
  0
LINE
  8
_0-1_計細線
  6
CONTINUOUS
 62
    3
 10
1032.8265603328946
 20
689.295828800408
 11
1032.8265603328946
 21
687.89582880040814
  0
ARC
  8
_0-1_計細線
  6
CONTINUOUS
 62
    3
 10
1043.7265603306873
 20
687.89582880040814
 40
0.5000000000000002
 50
269.99999999999977
 51
359.99999999999966
  0
LINE
  8
_0-1_計細線
  6
CONTINUOUS
 62
    3
 10
1044.2265603306873
 20
689.295828800408
 11
1044.2265603306873
 21
687.89582880040814
  0
ARC
  8
_0-1_計細線
  6
CONTINUOUS
 62
    3
 10
1035.8265603328946
 20
686.39582880040803
 40
1.0000000000000004
 50
0
 51
89.999999999999915
  0
LINE
  8
_0-1_計細線
  6
CONTINUOUS
 62
    3
 10
1035.8265603328946
 20
687.3958288004078
 11
1033.3265603328946
 21
687.3958288004078
  0
ARC
  8
_0-1_計細線
  6
CONTINUOUS
 62
    3
 10
1041.2265603328947
 20
686.39582880040803
 40
1.0000000000000004
 50
89.999999999999915
 51
179.99999999999983
  0
LINE
  8
_0-1_計細線
  6
CONTINUOUS
 62
    3
 10
1041.2265603306873
 20
687.3958288004078
 11
1043.7265603306873
 21
687.3958288004078
  0
LINE
  8
_0-1_計細線
  6
CONTINUOUS
 62
    3
 10
1041.0265603317907
 20
691.29582880040766
 11
1036.0265603317912
 21
691.29582880040766
  0
LINE
  8
_0-1_計細線
  6
CONTINUOUS
 62
    3
 10
1036.8265603317909
 20
666.29582880040812
 11
1036.8265603328941
 21
686.39582880040803
  0
LINE
  8
_0-1_計細線
  6
CONTINUOUS
 62
    3
 10
1040.226560331791
 20
666.29582880040812
 11
1040.2265603328942
 21
686.39582880040803
  0
LINE
  8
_0-1_計細線
  6
CONTINUOUS
 62
    3
 10
1040.226560331791
 20
666.29582880040812
 11
1036.8265603317909
 21
666.29582880040812
  0
ARC
  8
_0-1_計細線
  6
CONTINUOUS
 62
    3
 10
1050.8265603332566
 20
689.295828800408
 40
1.0000000000000004
 50
89.999999999999915
 51
179.99999999999983
  0
ARC
  8
_0-1_計細線
  6
CONTINUOUS
 62
    3
 10
1051.2945095245836
 20
691.29582880040766
 40
1.0000000000000004
 50
269.99999999999977
 51
330.00000000001364
  0
ARC
  8
_0-1_計細線
  6
CONTINUOUS
 62
    3
 10
1053.0265603321527
 20
690.29582880040823
 40
1.0000000000000004
 50
89.999999999999915
 51
150.00000000001401
  0
LINE
  8
_0-1_計細線
  6
CONTINUOUS
 62
    3
 10
1050.8265603332566
 20
690.29582880040823
 11
1051.2945095245836
 21
690.29582880040823
  0
ARC
  8
_0-1_計細線
  6
CONTINUOUS
 62
    3
 10
1060.2265603310493
 20
689.295828800408
 40
1.0000000000000004
 50
0
 51
89.999999999999915
  0
ARC
  8
_0-1_計細線
  6
CONTINUOUS
 62
    3
 10
1059.7586111397213
 20
691.29582880040766
 40
1.0000000000000004
 50
209.99999999998565
 51
269.99999999999977
  0
ARC
  8
_0-1_計細線
  6
CONTINUOUS
 62
    3
 10
1058.0265603321532
 20
690.29582880040823
 40
1.0000000000000004
 50
30.000000000012058
 51
89.999999999999901
  0
LINE
  8
_0-1_計細線
  6
CONTINUOUS
 62
    3
 10
1060.2265603310493
 20
690.29582880040823
 11
1059.7586111397213
 21
690.29582880040823
  0
ARC
  8
_0-1_計細線
  6
CONTINUOUS
 62
    3
 10
1050.3265603332566
 20
687.89582880040814
 40
0.5000000000000002
 50
179.99999999999983
 51
269.99999999999977
  0
LINE
  8
_0-1_計細線
  6
CONTINUOUS
 62
    3
 10
1049.8265603332561
 20
689.295828800408
 11
1049.8265603332561
 21
687.89582880040814
  0
ARC
  8
_0-1_計細線
  6
CONTINUOUS
 62
    3
 10
1060.7265603310489
 20
687.89582880040814
 40
0.5000000000000002
 50
269.99999999999977
 51
359.99999999999966
  0
LINE
  8
_0-1_計細線
  6
CONTINUOUS
 62
    3
 10
1061.2265603310489
 20
689.295828800408
 11
1061.2265603310489
 21
687.89582880040814
  0
ARC
  8
_0-1_計細線
  6
CONTINUOUS
 62
    3
 10
1052.8265603332561
 20
686.39582880040803
 40
1.0000000000000004
 50
0
 51
89.999999999999915
  0
LINE
  8
_0-1_計細線
  6
CONTINUOUS
 62
    3
 10
1052.8265603332561
 20
687.3958288004078
 11
1050.3265603332566
 21
687.3958288004078
  0
ARC
  8
_0-1_計細線
  6
CONTINUOUS
 62
    3
 10
1058.2265603332562
 20
686.39582880040803
 40
1.0000000000000004
 50
89.999999999999915
 51
179.99999999999983
  0
LINE
  8
_0-1_計細線
  6
CONTINUOUS
 62
    3
 10
1058.2265603310489
 20
687.3958288004078
 11
1060.7265603310489
 21
687.3958288004078
  0
LINE
  8
_0-1_計細線
  6
CONTINUOUS
 62
    3
 10
1058.0265603321532
 20
691.29582880040766
 11
1053.0265603321527
 21
691.29582880040766
  0
LINE
  8
_0-1_計細線
  6
CONTINUOUS
 62
    3
 10
1053.8265603321524
 20
666.29582880040812
 11
1053.8265603332566
 21
686.39582880040803
  0
LINE
  8
_0-1_計細線
  6
CONTINUOUS
 62
    3
 10
1057.2265603321525
 20
666.29582880040812
 11
1057.2265603332567
 21
686.39582880040803
  0
LINE
  8
_0-1_計細線
  6
CONTINUOUS
 62
    3
 10
1057.2265603321525
 20
666.29582880040812
 11
1053.8265603321524
 21
666.29582880040812
  0
ARC
  8
_0-1_計細線
  6
CONTINUOUS
 62
    3
 10
1067.8265603336181
 20
689.295828800408
 40
1.0000000000000004
 50
89.999999999999915
 51
179.99999999999983
  0
ARC
  8
_0-1_計細線
  6
CONTINUOUS
 62
    3
 10
1068.2945095249461
 20
691.29582880040766
 40
1.0000000000000004
 50
269.99999999999977
 51
330.00000000000057
  0
ARC
  8
_0-1_計細線
  6
CONTINUOUS
 62
    3
 10
1070.0265603325147
 20
690.29582880040823
 40
1.0000000000000004
 50
89.999999999999915
 51
150.00000000001401
  0
LINE
  8
_0-1_計細線
  6
CONTINUOUS
 62
    3
 10
1067.8265603336181
 20
690.29582880040823
 11
1068.2945095249461
 21
690.29582880040823
  0
ARC
  8
_0-1_計細線
  6
CONTINUOUS
 62
    3
 10
1077.2265603314108
 20
689.295828800408
 40
1.0000000000000004
 50
0
 51
89.999999999999915
  0
ARC
  8
_0-1_計細線
  6
CONTINUOUS
 62
    3
 10
1076.7586111400833
 20
691.29582880040766
 40
1.0000000000000004
 50
209.99999999999866
 51
269.99999999999977
  0
ARC
  8
_0-1_計細線
  6
CONTINUOUS
 62
    3
 10
1075.0265603325147
 20
690.29582880040823
 40
1.0000000000000004
 50
29.999999999986002
 51
89.999999999999901
  0
LINE
  8
_0-1_計細線
  6
CONTINUOUS
 62
    3
 10
1077.2265603314108
 20
690.29582880040823
 11
1076.7586111400833
 21
690.29582880040823
  0
ARC
  8
_0-1_計細線
  6
CONTINUOUS
 62
    3
 10
1067.3265603336181
 20
687.89582880040814
 40
0.5000000000000002
 50
179.99999999999983
 51
269.99999999999977
  0
LINE
  8
_0-1_計細線
  6
CONTINUOUS
 62
    3
 10
1066.8265603336185
 20
689.295828800408
 11
1066.8265603336185
 21
687.89582880040814
  0
ARC
  8
_0-1_計細線
  6
CONTINUOUS
 62
    3
 10
1077.7265603314113
 20
687.89582880040814
 40
0.5000000000000002
 50
269.99999999999977
 51
359.99999999999966
  0
LINE
  8
_0-1_計細線
  6
CONTINUOUS
 62
    3
 10
1078.2265603314108
 20
689.295828800408
 11
1078.2265603314108
 21
687.89582880040814
  0
ARC
  8
_0-1_計細線
  6
CONTINUOUS
 62
    3
 10
1069.8265603336185
 20
686.39582880040803
 40
1.0000000000000004
 50
0
 51
89.999999999999915
  0
LINE
  8
_0-1_計細線
  6
CONTINUOUS
 62
    3
 10
1069.8265603336185
 20
687.3958288004078
 11
1067.3265603336181
 21
687.3958288004078
  0
ARC
  8
_0-1_計細線
  6
CONTINUOUS
 62
    3
 10
1075.2265603336182
 20
686.39582880040803
 40
1.0000000000000004
 50
89.999999999999915
 51
179.99999999999983
  0
LINE
  8
_0-1_計細線
  6
CONTINUOUS
 62
    3
 10
1075.2265603314108
 20
687.3958288004078
 11
1077.7265603314113
 21
687.3958288004078
  0
LINE
  8
_0-1_計細線
  6
CONTINUOUS
 62
    3
 10
1075.0265603325147
 20
691.29582880040766
 11
1070.0265603325147
 21
691.29582880040766
  0
LINE
  8
_0-1_計細線
  6
CONTINUOUS
 62
    3
 10
1070.8265603325144
 20
666.29582880040812
 11
1070.8265603336181
 21
686.39582880040803
  0
LINE
  8
_0-1_計細線
  6
CONTINUOUS
 62
    3
 10
1074.226560332515
 20
666.29582880040812
 11
1074.2265603336182
 21
686.39582880040803
  0
LINE
  8
_0-1_計細線
  6
CONTINUOUS
 62
    3
 10
1074.226560332515
 20
666.29582880040812
 11
1070.8265603325144
 21
666.29582880040812
  0
ARC
  8
_0-1_計細線
  6
CONTINUOUS
 62
    3
 10
1084.8265603339796
 20
689.295828800408
 40
1.0000000000000004
 50
89.999999999999915
 51
179.99999999999983
  0
ARC
  8
_0-1_計細線
  6
CONTINUOUS
 62
    3
 10
1085.2945095253076
 20
691.29582880040766
 40
1.0000000000000004
 50
269.99999999999977
 51
330.00000000001364
  0
ARC
  8
_0-1_計細線
  6
CONTINUOUS
 62
    3
 10
1087.0265603328762
 20
690.29582880040823
 40
1.0000000000000004
 50
89.999999999999915
 51
150.00000000000097
  0
LINE
  8
_0-1_計細線
  6
CONTINUOUS
 62
    3
 10
1084.8265603339796
 20
690.29582880040823
 11
1085.2945095253076
 21
690.29582880040823
  0
ARC
  8
_0-1_計細線
  6
CONTINUOUS
 62
    3
 10
1094.2265603317728
 20
689.295828800408
 40
1.0000000000000004
 50
0
 51
89.999999999999915
  0
ARC
  8
_0-1_計細線
  6
CONTINUOUS
 62
    3
 10
1093.7586111404453
 20
691.29582880040766
 40
1.0000000000000004
 50
209.99999999998565
 51
269.99999999999977
  0
ARC
  8
_0-1_計細線
  6
CONTINUOUS
 62
    3
 10
1092.0265603328762
 20
690.29582880040823
 40
1.0000000000000004
 50
29.999999999986002
 51
89.999999999999901
  0
LINE
  8
_0-1_計細線
  6
CONTINUOUS
 62
    3
 10
1094.2265603317728
 20
690.29582880040823
 11
1093.7586111404453
 21
690.29582880040823
  0
ARC
  8
_0-1_計細線
  6
CONTINUOUS
 62
    3
 10
1084.3265603339796
 20
687.89582880040814
 40
0.5000000000000002
 50
179.99999999999983
 51
269.99999999999977
  0
LINE
  8
_0-1_計細線
  6
CONTINUOUS
 62
    3
 10
1083.8265603339801
 20
689.295828800408
 11
1083.8265603339801
 21
687.89582880040814
  0
ARC
  8
_0-1_計細線
  6
CONTINUOUS
 62
    3
 10
1094.7265603317728
 20
687.89582880040814
 40
0.5000000000000002
 50
269.99999999999977
 51
359.99999999999966
  0
LINE
  8
_0-1_計細線
  6
CONTINUOUS
 62
    3
 10
1095.2265603317728
 20
689.295828800408
 11
1095.2265603317728
 21
687.89582880040814
  0
ARC
  8
_0-1_計細線
  6
CONTINUOUS
 62
    3
 10
1086.8265603339801
 20
686.39582880040803
 40
1.0000000000000004
 50
0
 51
89.999999999999915
  0
LINE
  8
_0-1_計細線
  6
CONTINUOUS
 62
    3
 10
1086.8265603339801
 20
687.3958288004078
 11
1084.3265603339796
 21
687.3958288004078
  0
ARC
  8
_0-1_計細線
  6
CONTINUOUS
 62
    3
 10
1092.2265603339802
 20
686.39582880040803
 40
1.0000000000000004
 50
89.999999999999915
 51
179.99999999999983
  0
LINE
  8
_0-1_計細線
  6
CONTINUOUS
 62
    3
 10
1092.2265603317728
 20
687.3958288004078
 11
1094.7265603317728
 21
687.3958288004078
  0
LINE
  8
_0-1_計細線
  6
CONTINUOUS
 62
    3
 10
1092.0265603328762
 20
691.29582880040766
 11
1087.0265603328762
 21
691.29582880040766
  0
LINE
  8
_0-1_計細線
  6
CONTINUOUS
 62
    3
 10
1087.8265603328764
 20
666.29582880040812
 11
1087.8265603339796
 21
686.39582880040803
  0
LINE
  8
_0-1_計細線
  6
CONTINUOUS
 62
    3
 10
1091.2265603328765
 20
666.29582880040812
 11
1091.2265603339802
 21
686.39582880040803
  0
LINE
  8
_0-1_計細線
  6
CONTINUOUS
 62
    3
 10
1091.2265603328765
 20
666.29582880040812
 11
1087.8265603328764
 21
666.29582880040812
  0
ARC
  8
_0-1_計細線
  6
CONTINUOUS
 62
    3
 10
1101.8265603343416
 20
689.295828800408
 40
1.0000000000000004
 50
89.999999999999915
 51
179.99999999999983
  0
ARC
  8
_0-1_計細線
  6
CONTINUOUS
 62
    3
 10
1102.2945095256691
 20
691.29582880040766
 40
1.0000000000000004
 50
269.99999999999977
 51
330.00000000001364
  0
ARC
  8
_0-1_計細線
  6
CONTINUOUS
 62
    3
 10
1104.0265603332382
 20
690.29582880040823
 40
1.0000000000000004
 50
89.999999999999915
 51
150.00000000001401
  0
LINE
  8
_0-1_計細線
  6
CONTINUOUS
 62
    3
 10
1101.8265603343416
 20
690.29582880040823
 11
1102.2945095256691
 21
690.29582880040823
  0
ARC
  8
_0-1_計細線
  6
CONTINUOUS
 62
    3
 10
1111.2265603321348
 20
689.295828800408
 40
1.0000000000000004
 50
0
 51
89.999999999999915
  0
ARC
  8
_0-1_計細線
  6
CONTINUOUS
 62
    3
 10
1110.7586111408068
 20
691.29582880040766
 40
1.0000000000000004
 50
209.99999999998565
 51
269.99999999999977
  0
ARC
  8
_0-1_計細線
  6
CONTINUOUS
 62
    3
 10
1109.0265603332377
 20
690.29582880040823
 40
1.0000000000000004
 50
29.999999999986002
 51
89.999999999973952
  0
LINE
  8
_0-1_計細線
  6
CONTINUOUS
 62
    3
 10
1111.2265603321348
 20
690.29582880040823
 11
1110.7586111408068
 21
690.29582880040823
  0
ARC
  8
_0-1_計細線
  6
CONTINUOUS
 62
    3
 10
1101.3265603343416
 20
687.89582880040814
 40
0.5000000000000002
 50
179.99999999999983
 51
269.99999999999977
  0
LINE
  8
_0-1_計細線
  6
CONTINUOUS
 62
    3
 10
1100.8265603343416
 20
689.295828800408
 11
1100.8265603343416
 21
687.89582880040814
  0
ARC
  8
_0-1_計細線
  6
CONTINUOUS
 62
    3
 10
1111.7265603321343
 20
687.89582880040814
 40
0.5000000000000002
 50
269.99999999999977
 51
359.99999999999966
  0
LINE
  8
_0-1_計細線
  6
CONTINUOUS
 62
    3
 10
1112.2265603321343
 20
689.295828800408
 11
1112.2265603321343
 21
687.89582880040814
  0
ARC
  8
_0-1_計細線
  6
CONTINUOUS
 62
    3
 10
1103.8265603343416
 20
686.39582880040803
 40
1.0000000000000004
 50
0
 51
89.999999999999915
  0
LINE
  8
_0-1_計細線
  6
CONTINUOUS
 62
    3
 10
1103.8265603343416
 20
687.3958288004078
 11
1101.3265603343416
 21
687.3958288004078
  0
ARC
  8
_0-1_計細線
  6
CONTINUOUS
 62
    3
 10
1109.2265603343417
 20
686.39582880040803
 40
1.0000000000000004
 50
89.999999999999915
 51
179.99999999999983
  0
LINE
  8
_0-1_計細線
  6
CONTINUOUS
 62
    3
 10
1109.2265603321343
 20
687.3958288004078
 11
1111.7265603321343
 21
687.3958288004078
  0
LINE
  8
_0-1_計細線
  6
CONTINUOUS
 62
    3
 10
1109.0265603332377
 20
691.29582880040766
 11
1104.0265603332382
 21
691.29582880040766
  0
LINE
  8
_0-1_計細線
  6
CONTINUOUS
 62
    3
 10
1104.8265603332379
 20
666.29582880040812
 11
1104.8265603343416
 21
686.39582880040803
  0
LINE
  8
_0-1_計細線
  6
CONTINUOUS
 62
    3
 10
1108.226560333238
 20
666.29582880040812
 11
1108.2265603343421
 21
686.39582880040803
  0
LINE
  8
_0-1_計細線
  6
CONTINUOUS
 62
    3
 10
1108.226560333238
 20
666.29582880040812
 11
1104.8265603332379
 21
666.29582880040812
  0
ARC
  8
_0-1_計細線
  6
CONTINUOUS
 62
    3
 10
1118.8265603347036
 20
689.295828800408
 40
1.0000000000000004
 50
89.999999999999915
 51
179.99999999999983
  0
ARC
  8
_0-1_計細線
  6
CONTINUOUS
 62
    3
 10
1119.2945095260311
 20
691.29582880040766
 40
1.0000000000000004
 50
269.99999999999977
 51
330.00000000000057
  0
ARC
  8
_0-1_計細線
  6
CONTINUOUS
 62
    3
 10
1121.0265603335997
 20
690.29582880040823
 40
1.0000000000000004
 50
89.999999999999915
 51
150.00000000001401
  0
LINE
  8
_0-1_計細線
  6
CONTINUOUS
 62
    3
 10
1118.8265603347036
 20
690.29582880040823
 11
1119.2945095260311
 21
690.29582880040823
  0
ARC
  8
_0-1_計細線
  6
CONTINUOUS
 62
    3
 10
1128.2265603324963
 20
689.295828800408
 40
1.0000000000000004
 50
0
 51
89.999999999999915
  0
ARC
  8
_0-1_計細線
  6
CONTINUOUS
 62
    3
 10
1127.7586111411688
 20
691.29582880040766
 40
1.0000000000000004
 50
209.9999999999726
 51
269.99999999999977
  0
ARC
  8
_0-1_計細線
  6
CONTINUOUS
 62
    3
 10
1126.0265603336002
 20
690.29582880040823
 40
1.0000000000000004
 50
30.000000000012058
 51
89.999999999999901
  0
LINE
  8
_0-1_計細線
  6
CONTINUOUS
 62
    3
 10
1128.2265603324963
 20
690.29582880040823
 11
1127.7586111411688
 21
690.29582880040823
  0
ARC
  8
_0-1_計細線
  6
CONTINUOUS
 62
    3
 10
1118.3265603347036
 20
687.89582880040814
 40
0.5000000000000002
 50
179.99999999999983
 51
269.99999999999977
  0
LINE
  8
_0-1_計細線
  6
CONTINUOUS
 62
    3
 10
1117.8265603347031
 20
689.295828800408
 11
1117.8265603347031
 21
687.89582880040814
  0
ARC
  8
_0-1_計細線
  6
CONTINUOUS
 62
    3
 10
1128.7265603324959
 20
687.89582880040814
 40
0.5000000000000002
 50
269.99999999999977
 51
359.99999999999966
  0
LINE
  8
_0-1_計細線
  6
CONTINUOUS
 62
    3
 10
1129.2265603324963
 20
689.295828800408
 11
1129.2265603324963
 21
687.89582880040814
  0
ARC
  8
_0-1_計細線
  6
CONTINUOUS
 62
    3
 10
1120.8265603347031
 20
686.39582880040803
 40
1.0000000000000004
 50
0
 51
89.999999999999915
  0
LINE
  8
_0-1_計細線
  6
CONTINUOUS
 62
    3
 10
1120.8265603347031
 20
687.3958288004078
 11
1118.3265603347036
 21
687.3958288004078
  0
ARC
  8
_0-1_計細線
  6
CONTINUOUS
 62
    3
 10
1126.2265603347037
 20
686.39582880040803
 40
1.0000000000000004
 50
89.999999999999915
 51
179.99999999999983
  0
LINE
  8
_0-1_計細線
  6
CONTINUOUS
 62
    3
 10
1126.2265603324963
 20
687.3958288004078
 11
1128.7265603324959
 21
687.3958288004078
  0
LINE
  8
_0-1_計細線
  6
CONTINUOUS
 62
    3
 10
1126.0265603336002
 20
691.29582880040766
 11
1121.0265603335997
 21
691.29582880040766
  0
LINE
  8
_0-1_計細線
  6
CONTINUOUS
 62
    3
 10
1121.8265603335999
 20
666.29582880040812
 11
1121.8265603347036
 21
686.39582880040803
  0
LINE
  8
_0-1_計細線
  6
CONTINUOUS
 62
    3
 10
1125.2265603336
 20
666.29582880040812
 11
1125.2265603347037
 21
686.39582880040803
  0
LINE
  8
_0-1_計細線
  6
CONTINUOUS
 62
    3
 10
1125.2265603336
 20
666.29582880040812
 11
1121.8265603335999
 21
666.29582880040812
  0
ARC
  8
_0-1_計細線
  6
CONTINUOUS
 62
    3
 10
1135.8265603350651
 20
689.295828800408
 40
1.0000000000000004
 50
89.999999999999915
 51
179.99999999999983
  0
ARC
  8
_0-1_計細線
  6
CONTINUOUS
 62
    3
 10
1136.2945095263931
 20
691.29582880040766
 40
1.0000000000000004
 50
269.99999999999977
 51
330.00000000000057
  0
ARC
  8
_0-1_計細線
  6
CONTINUOUS
 62
    3
 10
1138.0265603339612
 20
690.29582880040823
 40
1.0000000000000004
 50
89.999999999999915
 51
150.00000000000097
  0
LINE
  8
_0-1_計細線
  6
CONTINUOUS
 62
    3
 10
1135.8265603350651
 20
690.29582880040823
 11
1136.2945095263931
 21
690.29582880040823
  0
ARC
  8
_0-1_計細線
  6
CONTINUOUS
 62
    3
 10
1145.2265603328578
 20
689.295828800408
 40
1.0000000000000004
 50
0
 51
89.999999999999915
  0
ARC
  8
_0-1_計細線
  6
CONTINUOUS
 62
    3
 10
1144.7586111415303
 20
691.29582880040766
 40
1.0000000000000004
 50
209.99999999999866
 51
269.99999999999977
  0
ARC
  8
_0-1_計細線
  6
CONTINUOUS
 62
    3
 10
1143.0265603339617
 20
690.29582880040823
 40
1.0000000000000004
 50
29.999999999986002
 51
89.999999999999901
  0
LINE
  8
_0-1_計細線
  6
CONTINUOUS
 62
    3
 10
1145.2265603328578
 20
690.29582880040823
 11
1144.7586111415303
 21
690.29582880040823
  0
ARC
  8
_0-1_計細線
  6
CONTINUOUS
 62
    3
 10
1135.3265603350651
 20
687.89582880040814
 40
0.5000000000000002
 50
179.99999999999983
 51
269.99999999999977
  0
LINE
  8
_0-1_計細線
  6
CONTINUOUS
 62
    3
 10
1134.8265603350656
 20
689.295828800408
 11
1134.8265603350656
 21
687.89582880040814
  0
ARC
  8
_0-1_計細線
  6
CONTINUOUS
 62
    3
 10
1145.7265603328578
 20
687.89582880040814
 40
0.5000000000000002
 50
269.99999999999977
 51
359.99999999999966
  0
LINE
  8
_0-1_計細線
  6
CONTINUOUS
 62
    3
 10
1146.2265603328578
 20
689.295828800408
 11
1146.2265603328578
 21
687.89582880040814
  0
ARC
  8
_0-1_計細線
  6
CONTINUOUS
 62
    3
 10
1137.8265603350656
 20
686.39582880040803
 40
1.0000000000000004
 50
0
 51
89.999999999999915
  0
LINE
  8
_0-1_計細線
  6
CONTINUOUS
 62
    3
 10
1137.8265603350656
 20
687.3958288004078
 11
1135.3265603350651
 21
687.3958288004078
  0
ARC
  8
_0-1_計細線
  6
CONTINUOUS
 62
    3
 10
1143.2265603350647
 20
686.39582880040803
 40
1.0000000000000004
 50
89.999999999999915
 51
179.99999999999983
  0
LINE
  8
_0-1_計細線
  6
CONTINUOUS
 62
    3
 10
1143.2265603328574
 20
687.3958288004078
 11
1145.7265603328578
 21
687.3958288004078
  0
LINE
  8
_0-1_計細線
  6
CONTINUOUS
 62
    3
 10
1143.0265603339617
 20
691.29582880040766
 11
1138.0265603339612
 21
691.29582880040766
  0
LINE
  8
_0-1_計細線
  6
CONTINUOUS
 62
    3
 10
1138.8265603339614
 20
666.29582880040812
 11
1138.8265603350651
 21
686.39582880040803
  0
LINE
  8
_0-1_計細線
  6
CONTINUOUS
 62
    3
 10
1142.2265603339611
 20
666.29582880040812
 11
1142.2265603350652
 21
686.39582880040803
  0
LINE
  8
_0-1_計細線
  6
CONTINUOUS
 62
    3
 10
1142.2265603339611
 20
666.29582880040812
 11
1138.8265603339614
 21
666.29582880040812
  0
ARC
  8
_0-1_計細線
  6
CONTINUOUS
 62
    3
 10
1250.0265603328767
 20
666.29582880040812
 40
3.0000000000000004
 50
269.99999999999977
 51
359.99999999999966
  0
LINE
  8
_0-1_計細線
  6
CONTINUOUS
 62
    3
 10
1253.0265603328767
 20
666.29582880040812
 11
1253.0265603328767
 21
690.79582880040789
  0
LINE
  8
_0-1_計細線
  6
CONTINUOUS
 62
    3
 10
1250.0265603328767
 20
663.29582880040812
 11
1223.5265603328762
 21
663.29582880040812
  0
LINE
  8
_0-1_計細線
  6
CONTINUOUS
 62
    3
 10
1223.0265603328767
 20
663.79582880040789
 11
1223.5265603328762
 21
663.29582880040812
  0
LINE
  8
_0-1_計細線
  6
CONTINUOUS
 62
    3
 10
1223.0265603328767
 20
665.795828800408
 11
1223.0265603328767
 21
663.79582880040789
  0
LINE
  8
_0-1_計細線
  6
CONTINUOUS
 62
    3
 10
1223.5265603328762
 20
666.29582880040812
 11
1223.0265603328767
 21
665.795828800408
  0
LINE
  8
_0-1_計細線
  6
CONTINUOUS
 62
    3
 10
1250.0265603328767
 20
666.29582880040812
 11
1223.5265603328762
 21
666.29582880040812
  0
LINE
  8
_0-1_計細線
  6
CONTINUOUS
 62
    3
 10
1252.5265603328767
 20
691.295828800408
 11
1253.0265603328767
 21
690.79582880040789
  0
LINE
  8
_0-1_計細線
  6
CONTINUOUS
 62
    3
 10
1250.5265603328762
 20
691.295828800408
 11
1252.5265603328767
 21
691.295828800408
  0
LINE
  8
_0-1_計細線
  6
CONTINUOUS
 62
    3
 10
1250.0265603328767
 20
690.79582880040789
 11
1250.5265603328762
 21
691.295828800408
  0
LINE
  8
_0-1_計細線
  6
CONTINUOUS
 62
    3
 10
1250.0265603328767
 20
666.29582880040812
 11
1250.0265603328767
 21
690.79582880040789
  0
ARC
  8
_0-1_計細線
  6
CONTINUOUS
 62
    3
 10
946.02656033287633
 20
666.29582880040812
 40
3.0000000000000004
 50
179.99999999999983
 51
269.99999999999977
  0
LINE
  8
_0-1_計細線
  6
CONTINUOUS
 62
    3
 10
943.02656033287633
 20
666.29582880040812
 11
943.02656033287633
 21
690.79582880040789
  0
LINE
  8
_0-1_計細線
  6
CONTINUOUS
 62
    3
 10
946.02656033287633
 20
663.29582880040812
 11
972.52656033287622
 21
663.29582880040812
  0
LINE
  8
_0-1_計細線
  6
CONTINUOUS
 62
    3
 10
973.02656033287633
 20
663.79582880040789
 11
972.52656033287622
 21
663.29582880040812
  0
LINE
  8
_0-1_計細線
  6
CONTINUOUS
 62
    3
 10
973.02656033287633
 20
665.795828800408
 11
973.02656033287633
 21
663.79582880040789
  0
LINE
  8
_0-1_計細線
  6
CONTINUOUS
 62
    3
 10
972.52656033287622
 20
666.29582880040812
 11
973.02656033287633
 21
665.795828800408
  0
LINE
  8
_0-1_計細線
  6
CONTINUOUS
 62
    3
 10
946.02656033287633
 20
666.29582880040812
 11
972.52656033287622
 21
666.29582880040812
  0
LINE
  8
_0-1_計細線
  6
CONTINUOUS
 62
    3
 10
943.52656033287633
 20
691.295828800408
 11
943.02656033287633
 21
690.79582880040789
  0
LINE
  8
_0-1_計細線
  6
CONTINUOUS
 62
    3
 10
945.52656033287633
 20
691.295828800408
 11
943.52656033287633
 21
691.295828800408
  0
LINE
  8
_0-1_計細線
  6
CONTINUOUS
 62
    3
 10
946.02656033287633
 20
690.79582880040789
 11
945.52656033287633
 21
691.295828800408
  0
LINE
  8
_0-1_計細線
  6
CONTINUOUS
 62
    3
 10
946.02656033287633
 20
666.29582880040812
 11
946.02656033287633
 21
690.79582880040789
  0
LINE
  8
_0-5_寸法線
  6
CONTINUOUS
 62
    7
 10
874.51991204580736
 20
691.295828800408
 11
853.79326650768292
 21
691.295828800408
  0
LINE
  8
_0-5_寸法線
  6
CONTINUOUS
 62
    7
 10
858.79326650768292
 20
691.295828800408
 11
861.38145695870799
 21
681.6365705375174
  0
LINE
  8
_0-5_寸法線
  6
CONTINUOUS
 62
    7
 10
858.79326650768292
 20
691.295828800408
 11
856.20507605665762
 21
681.6365705375174
  0
LINE
  8
_0-5_寸法線
  6
CONTINUOUS
 62
    7
 10
931.82656033287628
 20
663.29582880040812
 11
853.79326650768292
 21
663.29582880040834
  0
LINE
  8
_0-5_寸法線
  6
CONTINUOUS
 62
    7
 10
858.79326650768292
 20
663.29582880040834
 11
856.20507605665762
 21
672.95508706329895
  0
LINE
  8
_0-5_寸法線
  6
CONTINUOUS
 62
    7
 10
858.79326650768292
 20
663.29582880040834
 11
861.38145695870799
 21
672.95508706329895
  0
LINE
  8
_0-5_寸法線
  6
CONTINUOUS
 62
    7
 10
858.79326650768292
 20
691.295828800408
 11
858.79326650768292
 21
663.29582880040834
  0
TEXT
  8
_0-5_寸法線
 62
    7
 10
858.79326650768292
 20
669.79582880040823
 40
15
 41
1
 50
90
  1
28
  0
LINE
  8
_0-5_寸法線
  6
CONTINUOUS
 62
    7
 10
931.82656033287628
 20
663.29582880040812
 11
853.79326650768292
 21
663.29582880040834
  0
LINE
  8
_0-5_寸法線
  6
CONTINUOUS
 62
    7
 10
858.79326650768292
 20
663.29582880040834
 11
861.38145695870799
 21
653.63657053751763
  0
LINE
  8
_0-5_寸法線
  6
CONTINUOUS
 62
    7
 10
858.79326650768292
 20
663.29582880040834
 11
856.20507605665762
 21
653.63657053751763
  0
LINE
  8
_0-5_寸法線
  6
CONTINUOUS
 62
    7
 10
931.82656033287628
 20
640.29582880040823
 11
853.79326650768292
 21
640.29582880040846
  0
LINE
  8
_0-5_寸法線
  6
CONTINUOUS
 62
    7
 10
858.79326650768292
 20
640.29582880040846
 11
856.20507605665762
 21
649.95508706329917
  0
LINE
  8
_0-5_寸法線
  6
CONTINUOUS
 62
    7
 10
858.79326650768292
 20
640.29582880040846
 11
861.38145695870799
 21
649.95508706329917
  0
LINE
  8
_0-5_寸法線
  6
CONTINUOUS
 62
    7
 10
858.79326650768292
 20
663.29582880040834
 11
858.79326650768292
 21
640.29582880040846
  0
TEXT
  8
_0-5_寸法線
 62
    7
 10
858.79326650768292
 20
644.29582880040857
 40
15
 41
1
 50
90
  1
23
  0
LINE
  8
_0-5_寸法線
  6
CONTINUOUS
 62
    7
 10
973.02656033287633
 20
658.29582880040812
 11
973.02656033287633
 21
565.97332884829734
  0
LINE
  8
_0-5_寸法線
  6
CONTINUOUS
 62
    7
 10
973.02656033287633
 20
570.97332884829734
 11
982.68581859576693
 21
573.56151929932253
  0
LINE
  8
_0-5_寸法線
  6
CONTINUOUS
 62
    7
 10
973.02656033287633
 20
570.97332884829734
 11
982.68581859576693
 21
568.38513839727216
  0
LINE
  8
_0-5_寸法線
  6
CONTINUOUS
 62
    7
 10
1223.0265603328767
 20
658.29582880040812
 11
1223.0265603328767
 21
565.97332884829734
  0
LINE
  8
_0-5_寸法線
  6
CONTINUOUS
 62
    7
 10
1223.0265603328767
 20
570.97332884829734
 11
1213.367302069986
 21
568.38513839727216
  0
LINE
  8
_0-5_寸法線
  6
CONTINUOUS
 62
    7
 10
1223.0265603328767
 20
570.97332884829734
 11
1213.367302069986
 21
573.56151929932253
  0
LINE
  8
_0-5_寸法線
  6
CONTINUOUS
 62
    7
 10
973.02656033287633
 20
570.97332884829734
 11
1223.0265603328767
 21
570.97332884829734
  0
TEXT
  8
_0-5_寸法線
 62
    7
 10
1086.7765603328764
 20
570.97332884829734
 40
15
 41
1
 50
0
  1
250
  0
LINE
  8
_0-5_寸法線
  6
CONTINUOUS
 62
    7
 10
943.02656033287622
 20
630.29582880040823
 11
943.02656033287508
 21
565.97332884829734
  0
LINE
  8
_0-5_寸法線
  6
CONTINUOUS
 62
    7
 10
943.02656033287519
 20
570.97332884829734
 11
952.6858185957658
 21
573.56151929932253
  0
LINE
  8
_0-5_寸法線
  6
CONTINUOUS
 62
    7
 10
943.02656033287519
 20
570.97332884829734
 11
952.6858185957658
 21
568.38513839727216
  0
LINE
  8
_0-5_寸法線
  6
CONTINUOUS
 62
    7
 10
973.02656033287622
 20
653.29582880040812
 11
973.02656033287508
 21
565.97332884829734
  0
LINE
  8
_0-5_寸法線
  6
CONTINUOUS
 62
    7
 10
973.02656033287519
 20
570.97332884829734
 11
963.36730206998436
 21
568.38513839727216
  0
LINE
  8
_0-5_寸法線
  6
CONTINUOUS
 62
    7
 10
973.02656033287519
 20
570.97332884829734
 11
963.36730206998436
 21
573.56151929932253
  0
LINE
  8
_0-5_寸法線
  6
CONTINUOUS
 62
    7
 10
943.02656033287519
 20
570.97332884829734
 11
973.02656033287519
 21
570.97332884829734
  0
TEXT
  8
_0-5_寸法線
 62
    7
 10
950.52656033287519
 20
570.97332884829734
 40
15
 41
1
 50
0
  1
30
  0
LINE
  8
_0-5_寸法線
  6
CONTINUOUS
 62
    7
 10
1253.0265603328767
 20
630.29582880040823
 11
1253.0265603328767
 21
565.97332884829734
  0
LINE
  8
_0-5_寸法線
  6
CONTINUOUS
 62
    7
 10
1253.0265603328767
 20
570.97332884829734
 11
1243.367302069986
 21
568.38513839727216
  0
LINE
  8
_0-5_寸法線
  6
CONTINUOUS
 62
    7
 10
1253.0265603328767
 20
570.97332884829734
 11
1243.367302069986
 21
573.56151929932253
  0
LINE
  8
_0-5_寸法線
  6
CONTINUOUS
 62
    7
 10
1223.0265603328767
 20
653.29582880040812
 11
1223.026560332876
 21
565.97332884829734
  0
LINE
  8
_0-5_寸法線
  6
CONTINUOUS
 62
    7
 10
1223.026560332876
 20
570.97332884829734
 11
1232.6858185957667
 21
573.56151929932253
  0
LINE
  8
_0-5_寸法線
  6
CONTINUOUS
 62
    7
 10
1223.026560332876
 20
570.97332884829734
 11
1232.6858185957667
 21
568.38513839727216
  0
LINE
  8
_0-5_寸法線
  6
CONTINUOUS
 62
    7
 10
1253.0265603328767
 20
570.97332884829734
 11
1223.026560332876
 21
570.97332884829734
  0
TEXT
  8
_0-5_寸法線
 62
    7
 10
1230.5265603328762
 20
570.97332884829734
 40
15
 41
1
 50
0
  1
30
  0
TEXT
  8
_0-7_枠細線
 62
    5
 10
960.5
 20
109.99999999999993
 40
20.000000000000007
 41
0.5999999999999998
 50
0
  1
ＧＲＳＫ－２５Ｋ３００
  0
TEXT
  8
_0-7_枠細線
 62
    5
 10
960.5
 20
69.999999999999858
 40
20
 41
0.5999999999999998
 50
0
  1
色については表参照のこと
  0
TEXT
  8
_0-7_枠細線
 62
    5
 10
961.00000000000023
 20
453.73352999148574
 40
15
 41
0.8000000000000001
 50
0
  1
品　　番
  0
LINE
  8
_0-7_枠細線
  6
CONTINUOUS
 62
    5
 10
925
 20
398.73352999148574
 11
1245.0000000000002
 21
398.73352999148574
  0
LINE
  8
_0-7_枠細線
  6
CONTINUOUS
 62
    5
 10
925
 20
423.73352999148574
 11
1245.0000000000002
 21
423.73352999148574
  0
LINE
  8
_0-7_枠細線
  6
CONTINUOUS
 62
    5
 10
925
 20
448.73352999148574
 11
1245.0000000000002
 21
448.73352999148574
  0
TEXT
  8
_0-7_枠細線
 62
    5
 10
1089.0000000000005
 20
453.73352999148574
 40
15
 41
0.8000000000000001
 50
0
  1
色
  0
TEXT
  8
_0-7_枠細線
 62
    5
 10
1171.0000000000005
 20
453.73352999148574
 40
15
 41
0.8000000000000001
 50
0
  1
備　　考
  0
LINE
  8
_0-7_枠細線
  6
CONTINUOUS
 62
    5
 10
925
 20
473.73352999148574
 11
1245.0000000000002
 21
473.73352999148574
  0
LINE
  8
_0-7_枠細線
  6
CONTINUOUS
 62
    5
 10
925
 20
248.73352999148568
 11
1245.0000000000002
 21
248.73352999148568
  0
LINE
  8
_0-7_枠細線
  6
CONTINUOUS
 62
    5
 10
925
 20
373.73352999148574
 11
1245.0000000000002
 21
373.73352999148574
  0
LINE
  8
_0-7_枠細線
  6
CONTINUOUS
 62
    5
 10
925
 20
348.73352999148574
 11
1245.0000000000002
 21
348.73352999148574
  0
LINE
  8
_0-7_枠細線
  6
CONTINUOUS
 62
    5
 10
925
 20
323.73352999148574
 11
1245.0000000000002
 21
323.73352999148574
  0
LINE
  8
_0-7_枠細線
  6
CONTINUOUS
 62
    5
 10
925
 20
298.73352999148568
 11
1245.0000000000002
 21
298.73352999148568
  0
LINE
  8
_0-7_枠細線
  6
CONTINUOUS
 62
    5
 10
925
 20
273.73352999148568
 11
1245.0000000000002
 21
273.73352999148568
  0
TEXT
  8
_0-7_枠細線
 62
    5
 10
1023.75
 20
478.73352999148574
 40
17.5
 41
1
 50
0
  1
品番表
  0
LINE
  8
_0-7_枠細線
  6
CONTINUOUS
 62
    5
 10
925
 20
223.73352999148568
 11
1245.0000000000002
 21
223.73352999148568
  0
LINE
  8
_0-7_枠細線
  6
CONTINUOUS
 62
    5
 10
1245.0000000000002
 20
473.73352999148574
 11
1245.0000000000002
 21
223.73352999148568
  0
LINE
  8
_0-7_枠細線
  6
CONTINUOUS
 62
    5
 10
1145
 20
473.73352999148574
 11
1145
 21
223.73352999148568
  0
LINE
  8
_0-7_枠細線
  6
CONTINUOUS
 62
    5
 10
1045.0000000000005
 20
473.73352999148574
 11
1045.0000000000005
 21
223.73352999148568
  0
LINE
  8
_0-7_枠細線
  6
CONTINUOUS
 62
    5
 10
925
 20
473.73352999148574
 11
925
 21
223.73352999148568
  0
LINE
  8
_0-7_枠細線
  6
CONTINUOUS
 62
    5
 10
1290.7925839968264
 20
393.73352999148574
 11
1290.7925839968264
 21
473.73352999148574
  0
TEXT
  8
_0-7_枠細線
 62
    5
 10
1313.2925839968264
 20
451.23352999148574
 40
15.000000000000004
 41
1
 50
0
  1
耐荷重
  0
TEXT
  8
_0-7_枠細線
 62
    5
 10
1298.2925839968264
 20
401.23352999148574
 40
15.000000000000004
 41
1
 50
0
  1
（歩道用）
  0
LINE
  8
_0-7_枠細線
  6
CONTINUOUS
 62
    5
 10
1380.7925839968264
 20
393.73352999148574
 11
1380.7925839968264
 21
473.73352999148574
  0
LINE
  8
_0-7_枠細線
  6
CONTINUOUS
 62
    5
 10
1290.7925839968264
 20
473.73352999148574
 11
1380.7925839968264
 21
473.73352999148574
  0
LINE
  8
_0-7_枠細線
  6
CONTINUOUS
 62
    5
 10
1290.7925839968264
 20
443.73352999148574
 11
1380.7925839968264
 21
443.73352999148574
  0
LINE
  8
_0-7_枠細線
  6
CONTINUOUS
 62
    5
 10
1290.7925839968264
 20
393.73352999148574
 11
1380.7925839968264
 21
393.73352999148574
  0
TEXT
  8
_0-7_枠細線
 62
    5
 10
1305.7925839968264
 20
421.23352999148574
 40
15.000000000000004
 41
1
 50
0
  1
5.0kN/㎡
  0
TEXT
  8
_0-7_枠細線
 62
    5
 10
1255
 20
95
 40
20
 41
1
 50
0
  1
大野
  0
TEXT
  8
_0-7_枠細線
 62
    5
 10
1315
 20
95
 40
20
 41
1
 50
0
  1
深川
  0
TEXT
  8
_0-7_枠細線
 62
    5
 10
1309.9999999999998
 20
67.499999999999929
 40
15.000000000000009
 41
0.6666666666666665
 50
0
  1
２０１７年０４月０１日
  0
TEXT
  8
_0-7_枠細線
 62
    5
 10
929.75000000000045
 20
428.73352999148574
 40
15
 41
0.5666666666666667
 50
0
  1
ＧＲＳＫ－２５Ｋ３００－Ｂ
  0
TEXT
  8
_0-7_枠細線
 62
    5
 10
929.75000000000045
 20
403.73352999148574
 40
15
 41
0.5666666666666667
 50
0
  1
ＧＲＳＫ－２５Ｋ３００－Ｇ
  0
TEXT
  8
_0-7_枠細線
 62
    5
 10
929.75000000000045
 20
378.73352999148574
 40
15
 41
0.5666666666666667
 50
0
  1
ＧＲＳＫ－２５Ｋ３００－Ｓ
  0
TEXT
  8
_0-7_枠細線
 62
    5
 10
929.75000000000045
 20
353.73352999148574
 40
15
 41
0.5666666666666667
 50
0
  1
ＧＲＳＫ－２５Ｋ３００－Ｐ
  0
TEXT
  8
_0-7_枠細線
 62
    5
 10
929.75000000000045
 20
328.73352999148574
 40
15
 41
0.5666666666666667
 50
0
  1
ＧＲＳＫ－２５Ｋ３００－Ａ
  0
TEXT
  8
_0-7_枠細線
 62
    5
 10
929.75000000000045
 20
303.73352999148568
 40
15
 41
0.5666666666666667
 50
0
  1
ＧＲＳＫ－２５Ｋ３００－Ｄ
  0
TEXT
  8
_0-7_枠細線
 62
    5
 10
929.75000000000045
 20
278.73352999148568
 40
15
 41
0.5666666666666667
 50
0
  1
ＧＲＳＫ－２５Ｋ３００－Ｍ
  0
TEXT
  8
_0-7_枠細線
 62
    5
 10
929.75000000000045
 20
253.73352999148568
 40
15
 41
0.5666666666666667
 50
0
  1
ＧＲＳＫ－２５Ｋ３００－Ｃ
  0
TEXT
  8
_0-7_枠細線
 62
    5
 10
929.75000000000045
 20
228.73352999148568
 40
15
 41
0.5666666666666667
 50
0
  1
ＧＲＳＫ－２５Ｋ３００－Ｋ
  0
LINE
  8
_0-9_枠極太
  6
CONTINUOUS
 62
    5
 10
60
 20
60
 11
60
 21
960
  0
LINE
  8
_0-9_枠極太
  6
CONTINUOUS
 62
    5
 10
60
 20
960
 11
1425
 21
960
  0
LINE
  8
_0-9_枠極太
  6
CONTINUOUS
 62
    5
 10
1425
 20
960
 11
1425
 21
60
  0
LINE
  8
_0-9_枠極太
  6
CONTINUOUS
 62
    5
 10
1425
 20
60
 11
60
 21
60
  0
LINE
  8
_0-0_計極細
  6
CONTINUOUS
 62
    2
 10
943.02656033287633
 20
675.29582880040823
 11
943.02656033287633
 21
640.29582880040823
  0
LINE
  8
_0-0_計極細
  6
CONTINUOUS
 62
    2
 10
943.02656033287633
 20
640.29582880040823
 11
940.72656033287626
 21
640.29582880040823
  0
LINE
  8
_0-0_計極細
  6
CONTINUOUS
 62
    2
 10
940.72656033287626
 20
640.29582880040823
 11
940.72656033287626
 21
675.29582880040823
  0
LINE
  8
_0-0_計極細
  6
CONTINUOUS
 62
    2
 10
940.72656033287626
 20
675.29582880040823
 11
943.02656033287633
 21
675.29582880040823
  0
LINE
  8
_0-0_計極細
  6
CONTINUOUS
 62
    2
 10
940.72656033287626
 20
659.29582880040812
 11
943.02656033287633
 21
659.29582880040812
  0
LINE
  8
_0-0_計極細
  6
CONTINUOUS
 62
    2
 10
940.72656033287626
 20
661.29582880040812
 11
943.02656033287633
 21
661.29582880040812
  0
LINE
  8
_0-0_計極細
  6
CONTINUOUS
 62
    2
 10
940.72656033287626
 20
657.29582880040812
 11
943.02656033287633
 21
657.29582880040812
  0
LINE
  8
_0-0_計極細
  6
CONTINUOUS
 62
    2
 10
940.72656033287626
 20
663.29582880040812
 11
943.02656033287633
 21
663.29582880040812
  0
LINE
  8
_0-0_計極細
  6
CONTINUOUS
 62
    2
 10
943.02656033287633
 20
643.29582880040812
 11
940.72656033287626
 21
643.29582880040812
  0
LINE
  8
_0-0_計極細
  6
CONTINUOUS
 62
    2
 10
940.72656033287626
 20
673.29582880040812
 11
943.02656033287633
 21
673.29582880040812
  0
LINE
  8
_0-0_計極細
  6
CONTINUOUS
 62
    2
 10
1253.0265603328767
 20
675.29582880040823
 11
1253.0265603328767
 21
640.29582880040823
  0
LINE
  8
_0-0_計極細
  6
CONTINUOUS
 62
    2
 10
1253.0265603328767
 20
640.29582880040823
 11
1255.3265603328769
 21
640.29582880040823
  0
LINE
  8
_0-0_計極細
  6
CONTINUOUS
 62
    2
 10
1255.3265603328769
 20
640.29582880040823
 11
1255.3265603328769
 21
675.29582880040823
  0
LINE
  8
_0-0_計極細
  6
CONTINUOUS
 62
    2
 10
1255.3265603328769
 20
675.29582880040823
 11
1253.0265603328767
 21
675.29582880040823
  0
LINE
  8
_0-0_計極細
  6
CONTINUOUS
 62
    2
 10
1255.3265603328769
 20
659.29582880040812
 11
1253.0265603328767
 21
659.29582880040812
  0
LINE
  8
_0-0_計極細
  6
CONTINUOUS
 62
    2
 10
1255.3265603328769
 20
661.29582880040812
 11
1253.0265603328767
 21
661.29582880040812
  0
LINE
  8
_0-0_計極細
  6
CONTINUOUS
 62
    2
 10
1255.3265603328769
 20
657.29582880040812
 11
1253.0265603328767
 21
657.29582880040812
  0
LINE
  8
_0-0_計極細
  6
CONTINUOUS
 62
    2
 10
1255.3265603328769
 20
663.29582880040812
 11
1253.0265603328767
 21
663.29582880040812
  0
LINE
  8
_0-0_計極細
  6
CONTINUOUS
 62
    2
 10
1253.0265603328767
 20
643.29582880040812
 11
1255.3265603328769
 21
643.29582880040812
  0
LINE
  8
_0-0_計極細
  6
CONTINUOUS
 62
    2
 10
1255.3265603328769
 20
673.29582880040812
 11
1253.0265603328767
 21
673.29582880040812
  0
LINE
  8
_0-7_枠細線
  6
CONTINUOUS
 62
    5
 10
1275.294410251845
 20
663.01509727262624
 11
1267.794410251845
 21
678.01509727262624
  0
LINE
  8
_0-7_枠細線
  6
CONTINUOUS
 62
    5
 10
1260.294410251845
 20
663.01509727262624
 11
1275.294410251845
 21
663.01509727262624
  0
LINE
  8
_0-7_枠細線
  6
CONTINUOUS
 62
    5
 10
1267.794410251845
 20
678.01509727262624
 11
1260.294410251845
 21
663.01509727262624
  0
TEXT
  8
_0-7_枠細線
 62
    5
 10
1262.6595615199931
 20
662.06627730777643
 40
12.5
 41
0.8
 50
0
  1
１
  0
LINE
  8
_0-7_枠細線
  6
CONTINUOUS
 62
    5
 10
1425
 20
942.5
 11
890
 21
942.5
  0
TEXT
  8
_0-7_枠細線
 62
    5
 10
895
 20
945
 40
12.5
 41
1
 50
0
  1
記号
  0
TEXT
  8
_0-7_枠細線
 62
    5
 10
996.875
 20
945
 40
12.5
 41
1
 50
0
  1
訂　 正　 記　 事
  0
TEXT
  8
_0-7_枠細線
 62
    5
 10
1181.25
 20
945
 40
12.5
 41
1
 50
0
  1
訂 正 年 月 日
  0
TEXT
  8
_0-7_枠細線
 62
    5
 10
1306.25
 20
945
 40
12.5
 41
1
 50
0
  1
備　　　　　考
  0
LINE
  8
_0-7_枠細線
  6
CONTINUOUS
 62
    5
 10
1425
 20
925
 11
890
 21
925
  0
LINE
  8
_0-7_枠細線
  6
CONTINUOUS
 62
    5
 10
915
 20
926.44233397174685
 11
907.5
 21
941.44233397174685
  0
LINE
  8
_0-7_枠細線
  6
CONTINUOUS
 62
    5
 10
900
 20
926.44233397174685
 11
915
 21
926.44233397174685
  0
LINE
  8
_0-7_枠細線
  6
CONTINUOUS
 62
    5
 10
907.5
 20
941.44233397174685
 11
900
 21
926.44233397174685
  0
TEXT
  8
_0-7_枠細線
 62
    5
 10
1180
 20
927.5
 40
12.5
 41
0.7199999999999999
 50
0
  1
２０１９．０９．０１
  0
TEXT
  8
_0-7_枠細線
 62
    5
 10
938.85037037037023
 20
927.5
 40
12.5
 41
1
 50
0
  1
アンカー材質･厚み変更
  0
TEXT
  8
_0-7_枠細線
 62
    5
 10
902.36515126814822
 20
925.49351400689704
 40
12.5
 41
0.8
 50
0
  1
１
  0
LINE
  8
_0-7_枠細線
  6
CONTINUOUS
 62
    5
 10
1425
 20
907.5
 11
890
 21
907.5
  0
LINE
  8
_0-7_枠細線
  6
CONTINUOUS
 62
    5
 10
1425
 20
890
 11
890
 21
890
  0
TEXT
  8
_0-7_枠細線
 62
    5
 10
902.36515126814822
 20
908.63533172636664
 40
12.5
 41
0.8
 50
0
  1
２
  0
LINE
  8
_0-7_枠細線
  6
CONTINUOUS
 62
    5
 10
907.5
 20
923.94233397174685
 11
900
 21
908.94233397174685
  0
LINE
  8
_0-7_枠細線
  6
CONTINUOUS
 62
    5
 10
900
 20
908.94233397174685
 11
915
 21
908.94233397174685
  0
LINE
  8
_0-7_枠細線
  6
CONTINUOUS
 62
    5
 10
915
 20
908.94233397174685
 11
907.5
 21
923.94233397174685
  0
TEXT
  8
_0-7_枠細線
 62
    5
 10
902.36515126814822
 20
890.89465008156549
 40
12.5
 41
0.8
 50
0
  1
３
  0
LINE
  8
_0-7_枠細線
  6
CONTINUOUS
 62
    5
 10
907.5
 20
906.44233397174685
 11
900
 21
891.44233397174685
  0
LINE
  8
_0-7_枠細線
  6
CONTINUOUS
 62
    5
 10
900
 20
891.44233397174685
 11
915
 21
891.44233397174685
  0
LINE
  8
_0-7_枠細線
  6
CONTINUOUS
 62
    5
 10
915
 20
891.44233397174685
 11
907.5
 21
906.44233397174685
  0
LINE
  8
_0-7_枠細線
  6
CONTINUOUS
 62
    5
 10
1275
 20
890
 11
1275
 21
959.99999999999909
  0
LINE
  8
_0-7_枠細線
  6
CONTINUOUS
 62
    5
 10
1175
 20
890
 11
1175
 21
959.99999999999909
  0
LINE
  8
_0-7_枠細線
  6
CONTINUOUS
 62
    5
 10
925
 20
890
 11
925
 21
959.99999999999909
  0
LINE
  8
_0-7_枠細線
  6
CONTINUOUS
 62
    5
 10
890
 20
890
 11
890
 21
959.99999999999909
  0
TEXT
  8
_0-7_枠細線
 62
    5
 10
1180
 20
910
 40
12.5
 41
0.7199999999999999
 50
0
  1
２０２０．０９．０１
  0
TEXT
  8
_0-7_枠細線
 62
    5
 10
1059.0000000000005
 20
403.73352999148574
 40
15
 41
0.8000000000000001
 50
0
  1
ライトグレー
  0
TEXT
  8
_0-7_枠細線
 62
    5
 10
1071.0000000000005
 20
428.73352999148574
 40
15
 41
0.8000000000000001
 50
0
  1
ベージュ
  0
TEXT
  8
_0-7_枠細線
 62
    5
 10
1071.0000000000005
 20
378.73352999148574
 40
15
 41
0.8000000000000001
 50
0
  1
ホワイト
  0
TEXT
  8
_0-7_枠細線
 62
    5
 10
1077.0000000000005
 20
353.73352999148574
 40
15
 41
0.8000000000000001
 50
0
  1
ピンク
  0
TEXT
  8
_0-7_枠細線
 62
    5
 10
1077.0000000000005
 20
328.73352999148574
 40
15
 41
0.8000000000000001
 50
0
  1
ブルー
  0
TEXT
  8
_0-7_枠細線
 62
    5
 10
1059.0000000000005
 20
303.73352999148568
 40
15
 41
0.8000000000000001
 50
0
  1
ダークグレー
  0
TEXT
  8
_0-7_枠細線
 62
    5
 10
1077.0000000000005
 20
278.73352999148568
 40
15
 41
0.8000000000000001
 50
0
  1
ウッド
  0
TEXT
  8
_0-7_枠細線
 62
    5
 10
1071.0000000000005
 20
228.73352999148568
 40
15
 41
0.8000000000000001
 50
0
  1
ブラック
  0
TEXT
  8
_0-7_枠細線
 62
    5
 10
1071.0000000000005
 20
253.73352999148568
 40
15
 41
0.8000000000000001
 50
0
  1
ブラウン
  0
LINE
  8
_0-5_寸法線
  6
CONTINUOUS
 62
    7
 10
943.02656033287633
 20
696.29580625262349
 11
943.02656033287633
 21
816.29560979940095
  0
LINE
  8
_0-5_寸法線
  6
CONTINUOUS
 62
    7
 10
943.02656033287633
 20
811.29560979940095
 11
952.68581859576693
 21
813.88380025042625
  0
LINE
  8
_0-5_寸法線
  6
CONTINUOUS
 62
    7
 10
943.02656033287633
 20
811.29560979940095
 11
952.68581859576693
 21
808.70741934837588
  0
LINE
  8
_0-5_寸法線
  6
CONTINUOUS
 62
    7
 10
1253.0265603328762
 20
696.29580625262349
 11
1253.0265603328762
 21
816.29560979940095
  0
LINE
  8
_0-5_寸法線
  6
CONTINUOUS
 62
    7
 10
1253.0265603328762
 20
811.29560979940095
 11
1243.3673020699855
 21
808.70741934837588
  0
LINE
  8
_0-5_寸法線
  6
CONTINUOUS
 62
    7
 10
1253.0265603328762
 20
811.29560979940095
 11
1243.3673020699855
 21
813.88380025042625
  0
LINE
  8
_0-5_寸法線
  6
CONTINUOUS
 62
    7
 10
943.02656033287633
 20
811.29560979940095
 11
1253.0265603328762
 21
811.29560979940095
  0
TEXT
  8
_0-5_寸法線
 62
    7
 10
1086.7765603328762
 20
811.29560979940095
 40
15
 41
1
 50
0
  1
310
  0
LINE
  8
_0-5_寸法線
  6
CONTINUOUS
 62
    7
 10
943.02656033287633
 20
776.29560979940095
 11
933.3673020699855
 21
773.70741934837588
  0
LINE
  8
_0-5_寸法線
  6
CONTINUOUS
 62
    7
 10
943.02656033287633
 20
776.29560979940095
 11
933.3673020699855
 21
778.88380025042625
  0
LINE
  8
_0-5_寸法線
  6
CONTINUOUS
 62
    7
 10
946.02656033287633
 20
695.79580625262361
 11
946.02656033287633
 21
781.29560979940095
  0
CIRCLE
  8
_0-5_寸法線
  6
CONTINUOUS
 62
    1
 10
946.02656033287633
 20
776.29560979940095
 40
1.5000000000000002
  0
LINE
  8
_0-5_寸法線
  6
CONTINUOUS
 62
    7
 10
918.02656033287633
 20
776.29560979940095
 11
946.02656033287633
 21
776.29560979940095
  0
TEXT
  8
_0-5_寸法線
 62
    7
 10
920.78964933250404
 20
776.29560979940095
 40
15
 41
1
 50
0
  1
3
  0
LINE
  8
_0-5_寸法線
  6
CONTINUOUS
 62
    7
 10
948.02656033287599
 20
694.2958052516168
 11
948.02656033287667
 21
781.29560979940095
  0
LINE
  8
_0-5_寸法線
  6
CONTINUOUS
 62
    7
 10
946.02656033287633
 20
776.29560979940095
 11
948.02656033287667
 21
776.29560979940095
  0
TEXT
  8
_0-5_寸法線
 62
    7
 10
948.13058645281785
 20
776.29560979940095
 40
15
 41
1
 50
0
  1
2
  0
LINE
  8
_0-5_寸法線
  6
CONTINUOUS
 62
    7
 10
948.02656033287667
 20
776.29560979940095
 11
957.68581859576727
 21
778.88380025042625
  0
LINE
  8
_0-5_寸法線
  6
CONTINUOUS
 62
    7
 10
948.02656033287667
 20
776.29560979940095
 11
957.68581859576727
 21
773.70741934837588
  0
LINE
  8
_0-5_寸法線
  6
CONTINUOUS
 62
    7
 10
1248.0265603328764
 20
694.2958052516168
 11
1248.0265603328764
 21
781.29560979940095
  0
LINE
  8
_0-5_寸法線
  6
CONTINUOUS
 62
    7
 10
1248.0265603328764
 20
776.29560979940095
 11
1238.3673020699857
 21
773.70741934837588
  0
LINE
  8
_0-5_寸法線
  6
CONTINUOUS
 62
    7
 10
1248.0265603328764
 20
776.29560979940095
 11
1238.3673020699857
 21
778.88380025042625
  0
LINE
  8
_0-5_寸法線
  6
CONTINUOUS
 62
    7
 10
948.02656033287667
 20
776.29560979940095
 11
1248.0265603328764
 21
776.29560979940095
  0
TEXT
  8
_0-5_寸法線
 62
    7
 10
1086.7765603328764
 20
776.29560979940095
 40
15
 41
1
 50
0
  1
300
  0
LINE
  8
_0-5_寸法線
  6
CONTINUOUS
 62
    7
 10
1250.0265603328762
 20
695.79580625262361
 11
1250.0265603328762
 21
781.29560979940095
  0
CIRCLE
  8
_0-5_寸法線
  6
CONTINUOUS
 62
    1
 10
1250.0265603328762
 20
776.29560979940095
 40
1.5000000000000002
  0
LINE
  8
_0-5_寸法線
  6
CONTINUOUS
 62
    7
 10
1248.0265603328764
 20
776.29560979940095
 11
1250.0265603328762
 21
776.29560979940095
  0
TEXT
  8
_0-5_寸法線
 62
    7
 10
1240.3282205919716
 20
776.29560979940095
 40
15
 41
1
 50
0
  1
2
  0
LINE
  8
_0-5_寸法線
  6
CONTINUOUS
 62
    7
 10
1253.0265603328762
 20
776.29560979940095
 11
1262.6858185957669
 21
778.88380025042625
  0
LINE
  8
_0-5_寸法線
  6
CONTINUOUS
 62
    7
 10
1253.0265603328762
 20
776.29560979940095
 11
1262.6858185957669
 21
773.70741934837565
  0
LINE
  8
_0-5_寸法線
  6
CONTINUOUS
 62
    7
 10
1250.0265603328762
 20
776.29560979940095
 11
1278.0265603328762
 21
776.29560979940095
  0
TEXT
  8
_0-5_寸法線
 62
    7
 10
1267.1730577772812
 20
776.29560979940095
 40
15
 41
1
 50
0
  1
3
  0
LINE
  8
_0-1_計細線
  6
CONTINUOUS
 62
    3
 10
623.68632075471839
 20
290.61981132075459
 11
623.68632075471839
 21
594.61981132075471
  0
LINE
  8
_0-1_計細線
  6
CONTINUOUS
 62
    3
 10
319.68632075471794
 20
594.61981132075471
 11
319.68632075471794
 21
290.61981132075459
  0
LINE
  8
_0-1_計細線
  6
CONTINUOUS
 62
    3
 10
623.68632075471839
 20
594.61981132075471
 11
319.68632075471794
 21
594.61981132075471
  0
LINE
  8
_0-1_計細線
  6
CONTINUOUS
 62
    3
 10
319.68632075471794
 20
290.61981132075459
 11
623.68632075471839
 21
290.61981132075459
  0
LINE
  8
_0-1_計細線
  6
CONTINUOUS
 62
    3
 10
316.68632075471794
 20
287.61981132075459
 11
316.68632075471794
 21
597.61981132075459
  0
LINE
  8
_0-1_計細線
  6
CONTINUOUS
 62
    3
 10
316.68632075471794
 20
597.61981132075459
 11
626.68632075471839
 21
597.61981132075459
  0
LINE
  8
_0-1_計細線
  6
CONTINUOUS
 62
    3
 10
626.68632075471839
 20
597.61981132075459
 11
626.68632075471839
 21
287.61981132075459
  0
LINE
  8
_0-1_計細線
  6
CONTINUOUS
 62
    3
 10
626.68632075471839
 20
287.61981132075459
 11
316.68632075471794
 21
287.61981132075459
  0
LINE
  8
_0-5_寸法線
  6
CONTINUOUS
 62
    7
 10
624.88609344444774
 20
373.73925147850468
 11
631.95716125631327
 21
380.81031929037016
  0
LINE
  8
_0-5_寸法線
  6
CONTINUOUS
 62
    7
 10
624.88609344444774
 20
373.73925147850468
 11
634.54535170733845
 21
376.32744192952993
  0
LINE
  8
_0-5_寸法線
  6
CONTINUOUS
 62
    7
 10
624.88609344444774
 20
373.73925147850468
 11
666.28609344444828
 21
397.64155262295532
  0
LINE
  8
_0-5_寸法線
  6
CONTINUOUS
 62
    7
 10
666.28609344444828
 20
397.64155262295532
 11
774.28609344444851
 21
397.64155262295532
  0
TEXT
  8
_0-5_寸法線
 62
    7
 10
666.28609344444828
 20
397.64155262295532
 40
15
 41
0.8000000000000001
 50
0
  1
ＳＵＳアングル受枠
  0
LINE
  8
_0-1_計細線
  6
CONTINUOUS
 62
    3
 10
321.686320754718
 20
377.41981132075477
 11
621.68632075471794
 21
377.41981132075477
  0
LINE
  8
_0-1_計細線
  6
CONTINUOUS
 62
    3
 10
321.686320754718
 20
388.81981132075538
 11
621.68632075471794
 21
388.81981132075538
  0
LINE
  8
_0-1_計細線
  6
CONTINUOUS
 62
    3
 10
321.686320754718
 20
377.41981132075477
 11
321.686320754718
 21
388.81981132075538
  0
LINE
  8
_0-1_計細線
  6
CONTINUOUS
 62
    3
 10
621.68632075471794
 20
377.41981132075477
 11
621.68632075471794
 21
388.81981132075538
  0
LINE
  8
_0-0_計極細
  6
CONTINUOUS
 62
    2
 10
321.686320754718
 20
385.6198113207551
 11
621.68632075471794
 21
385.6198113207551
  0
LINE
  8
_0-0_計極細
  6
CONTINUOUS
 62
    2
 10
321.686320754718
 20
380.6198113207551
 11
621.68632075471794
 21
380.6198113207551
  0
LINE
  8
_0-1_計細線
  6
CONTINUOUS
 62
    3
 10
321.686320754718
 20
394.41981132075568
 11
621.68632075471794
 21
394.41981132075568
  0
LINE
  8
_0-1_計細線
  6
CONTINUOUS
 62
    3
 10
321.686320754718
 20
405.81981132075623
 11
621.68632075471794
 21
405.81981132075623
  0
LINE
  8
_0-1_計細線
  6
CONTINUOUS
 62
    3
 10
321.686320754718
 20
394.41981132075568
 11
321.686320754718
 21
405.81981132075623
  0
LINE
  8
_0-1_計細線
  6
CONTINUOUS
 62
    3
 10
621.68632075471794
 20
394.41981132075568
 11
621.68632075471794
 21
405.81981132075623
  0
LINE
  8
_0-0_計極細
  6
CONTINUOUS
 62
    2
 10
321.686320754718
 20
402.61981132075556
 11
621.68632075471794
 21
402.61981132075556
  0
LINE
  8
_0-0_計極細
  6
CONTINUOUS
 62
    2
 10
321.686320754718
 20
397.61981132075556
 11
621.68632075471794
 21
397.61981132075556
  0
LINE
  8
_0-1_計細線
  6
CONTINUOUS
 62
    3
 10
321.686320754718
 20
411.41981132075614
 11
621.68632075471794
 21
411.41981132075614
  0
LINE
  8
_0-1_計細線
  6
CONTINUOUS
 62
    3
 10
321.686320754718
 20
422.81981132075668
 11
621.68632075471794
 21
422.81981132075668
  0
LINE
  8
_0-1_計細線
  6
CONTINUOUS
 62
    3
 10
321.686320754718
 20
411.41981132075614
 11
321.686320754718
 21
422.81981132075668
  0
LINE
  8
_0-1_計細線
  6
CONTINUOUS
 62
    3
 10
621.68632075471794
 20
411.41981132075614
 11
621.68632075471794
 21
422.81981132075668
  0
LINE
  8
_0-0_計極細
  6
CONTINUOUS
 62
    2
 10
321.686320754718
 20
419.61981132075641
 11
621.68632075471794
 21
419.61981132075641
  0
LINE
  8
_0-0_計極細
  6
CONTINUOUS
 62
    2
 10
321.686320754718
 20
414.61981132075641
 11
621.68632075471794
 21
414.61981132075641
  0
LINE
  8
_0-1_計細線
  6
CONTINUOUS
 62
    3
 10
321.686320754718
 20
507.81981132075401
 11
621.68632075471794
 21
507.81981132075401
  0
LINE
  8
_0-1_計細線
  6
CONTINUOUS
 62
    3
 10
321.686320754718
 20
496.41981132075341
 11
621.68632075471794
 21
496.41981132075341
  0
LINE
  8
_0-1_計細線
  6
CONTINUOUS
 62
    3
 10
321.686320754718
 20
507.81981132075401
 11
321.686320754718
 21
496.41981132075341
  0
LINE
  8
_0-1_計細線
  6
CONTINUOUS
 62
    3
 10
621.68632075471794
 20
507.81981132075401
 11
621.68632075471794
 21
496.41981132075341
  0
LINE
  8
_0-0_計極細
  6
CONTINUOUS
 62
    2
 10
321.686320754718
 20
499.61981132075374
 11
621.68632075471794
 21
499.61981132075374
  0
LINE
  8
_0-0_計極細
  6
CONTINUOUS
 62
    2
 10
321.686320754718
 20
504.61981132075374
 11
621.68632075471794
 21
504.61981132075374
  0
LINE
  8
_0-1_計細線
  6
CONTINUOUS
 62
    3
 10
321.686320754718
 20
473.81981132075396
 11
621.68632075471794
 21
473.81981132075396
  0
LINE
  8
_0-1_計細線
  6
CONTINUOUS
 62
    3
 10
321.686320754718
 20
462.41981132075347
 11
621.68632075471794
 21
462.41981132075347
  0
LINE
  8
_0-1_計細線
  6
CONTINUOUS
 62
    3
 10
321.686320754718
 20
473.81981132075396
 11
321.686320754718
 21
462.41981132075347
  0
LINE
  8
_0-1_計細線
  6
CONTINUOUS
 62
    3
 10
621.68632075471794
 20
473.81981132075396
 11
621.68632075471794
 21
462.41981132075347
  0
LINE
  8
_0-0_計極細
  6
CONTINUOUS
 62
    2
 10
321.686320754718
 20
465.61981132075374
 11
621.68632075471794
 21
465.61981132075374
  0
LINE
  8
_0-0_計極細
  6
CONTINUOUS
 62
    2
 10
321.686320754718
 20
470.61981132075374
 11
621.68632075471794
 21
470.61981132075374
  0
LINE
  8
_0-1_計細線
  6
CONTINUOUS
 62
    3
 10
321.686320754718
 20
490.81981132075492
 11
621.68632075471794
 21
490.81981132075492
  0
LINE
  8
_0-1_計細線
  6
CONTINUOUS
 62
    3
 10
321.686320754718
 20
479.41981132075432
 11
621.68632075471794
 21
479.41981132075432
  0
LINE
  8
_0-1_計細線
  6
CONTINUOUS
 62
    3
 10
321.686320754718
 20
490.81981132075492
 11
321.686320754718
 21
479.41981132075432
  0
LINE
  8
_0-1_計細線
  6
CONTINUOUS
 62
    3
 10
621.68632075471794
 20
490.81981132075492
 11
621.68632075471794
 21
479.41981132075432
  0
LINE
  8
_0-0_計極細
  6
CONTINUOUS
 62
    2
 10
321.686320754718
 20
482.61981132075459
 11
621.68632075471794
 21
482.61981132075459
  0
LINE
  8
_0-0_計極細
  6
CONTINUOUS
 62
    2
 10
321.686320754718
 20
487.61981132075459
 11
621.68632075471794
 21
487.61981132075459
  0
LINE
  8
_0-1_計細線
  6
CONTINUOUS
 62
    3
 10
321.686320754718
 20
575.81981132075441
 11
621.68632075471794
 21
575.81981132075441
  0
LINE
  8
_0-1_計細線
  6
CONTINUOUS
 62
    3
 10
321.686320754718
 20
564.41981132075387
 11
621.68632075471794
 21
564.41981132075387
  0
LINE
  8
_0-1_計細線
  6
CONTINUOUS
 62
    3
 10
321.686320754718
 20
575.81981132075441
 11
321.686320754718
 21
564.41981132075387
  0
LINE
  8
_0-1_計細線
  6
CONTINUOUS
 62
    3
 10
621.68632075471794
 20
575.81981132075441
 11
621.68632075471794
 21
564.41981132075387
  0
LINE
  8
_0-0_計極細
  6
CONTINUOUS
 62
    2
 10
321.686320754718
 20
567.61981132075459
 11
621.68632075471794
 21
567.61981132075459
  0
LINE
  8
_0-0_計極細
  6
CONTINUOUS
 62
    2
 10
321.686320754718
 20
572.61981132075459
 11
621.68632075471794
 21
572.61981132075459
  0
LINE
  8
_0-1_計細線
  6
CONTINUOUS
 62
    3
 10
321.686320754718
 20
309.41981132075387
 11
621.68632075471794
 21
309.41981132075387
  0
LINE
  8
_0-1_計細線
  6
CONTINUOUS
 62
    3
 10
321.686320754718
 20
320.81981132075441
 11
621.68632075471794
 21
320.81981132075441
  0
LINE
  8
_0-1_計細線
  6
CONTINUOUS
 62
    3
 10
321.686320754718
 20
309.41981132075387
 11
321.686320754718
 21
320.81981132075441
  0
LINE
  8
_0-1_計細線
  6
CONTINUOUS
 62
    3
 10
621.68632075471794
 20
309.41981132075387
 11
621.68632075471794
 21
320.81981132075441
  0
LINE
  8
_0-0_計極細
  6
CONTINUOUS
 62
    2
 10
321.686320754718
 20
317.61981132075459
 11
621.68632075471794
 21
317.61981132075459
  0
LINE
  8
_0-0_計極細
  6
CONTINUOUS
 62
    2
 10
321.686320754718
 20
312.61981132075459
 11
621.68632075471794
 21
312.61981132075459
  0
LINE
  8
_0-1_計細線
  6
CONTINUOUS
 62
    3
 10
321.686320754718
 20
592.61981132075459
 11
621.68632075471794
 21
592.61981132075459
  0
LINE
  8
_0-1_計細線
  6
CONTINUOUS
 62
    3
 10
321.686320754718
 20
581.21981132075405
 11
621.68632075471794
 21
581.21981132075405
  0
LINE
  8
_0-1_計細線
  6
CONTINUOUS
 62
    3
 10
321.686320754718
 20
592.61981132075459
 11
321.686320754718
 21
581.21981132075405
  0
LINE
  8
_0-1_計細線
  6
CONTINUOUS
 62
    3
 10
621.68632075471794
 20
592.61981132075459
 11
621.68632075471794
 21
581.21981132075405
  0
LINE
  8
_0-0_計極細
  6
CONTINUOUS
 62
    2
 10
321.686320754718
 20
584.41981132075432
 11
621.68632075471794
 21
584.41981132075432
  0
LINE
  8
_0-0_計極細
  6
CONTINUOUS
 62
    2
 10
321.686320754718
 20
589.41981132075432
 11
621.68632075471794
 21
589.41981132075432
  0
LINE
  8
_0-1_計細線
  6
CONTINUOUS
 62
    3
 10
321.686320754718
 20
292.61981132075505
 11
621.68632075471794
 21
292.61981132075505
  0
LINE
  8
_0-1_計細線
  6
CONTINUOUS
 62
    3
 10
321.686320754718
 20
304.01981132075559
 11
621.68632075471794
 21
304.01981132075559
  0
LINE
  8
_0-1_計細線
  6
CONTINUOUS
 62
    3
 10
321.686320754718
 20
292.61981132075505
 11
321.686320754718
 21
304.01981132075559
  0
LINE
  8
_0-1_計細線
  6
CONTINUOUS
 62
    3
 10
621.68632075471794
 20
292.61981132075505
 11
621.68632075471794
 21
304.01981132075559
  0
LINE
  8
_0-0_計極細
  6
CONTINUOUS
 62
    2
 10
321.686320754718
 20
300.81981132075532
 11
621.68632075471794
 21
300.81981132075532
  0
LINE
  8
_0-0_計極細
  6
CONTINUOUS
 62
    2
 10
321.686320754718
 20
295.81981132075532
 11
621.68632075471794
 21
295.81981132075532
  0
LINE
  8
_0-1_計細線
  6
CONTINUOUS
 62
    3
 10
321.686320754718
 20
524.81981132075305
 11
621.68632075471794
 21
524.81981132075305
  0
LINE
  8
_0-1_計細線
  6
CONTINUOUS
 62
    3
 10
321.686320754718
 20
513.4198113207525
 11
621.68632075471794
 21
513.4198113207525
  0
LINE
  8
_0-1_計細線
  6
CONTINUOUS
 62
    3
 10
321.686320754718
 20
524.81981132075305
 11
321.686320754718
 21
513.4198113207525
  0
LINE
  8
_0-1_計細線
  6
CONTINUOUS
 62
    3
 10
621.68632075471794
 20
524.81981132075305
 11
621.68632075471794
 21
513.4198113207525
  0
LINE
  8
_0-0_計極細
  6
CONTINUOUS
 62
    2
 10
321.686320754718
 20
516.61981132075289
 11
621.68632075471794
 21
516.61981132075289
  0
LINE
  8
_0-0_計極細
  6
CONTINUOUS
 62
    2
 10
321.686320754718
 20
521.61981132075289
 11
621.68632075471794
 21
521.61981132075289
  0
LINE
  8
_0-1_計細線
  6
CONTINUOUS
 62
    3
 10
321.686320754718
 20
541.81981132075214
 11
621.68632075471794
 21
541.81981132075214
  0
LINE
  8
_0-1_計細線
  6
CONTINUOUS
 62
    3
 10
321.686320754718
 20
530.41981132075171
 11
621.68632075471794
 21
530.41981132075171
  0
LINE
  8
_0-1_計細線
  6
CONTINUOUS
 62
    3
 10
321.686320754718
 20
541.81981132075214
 11
321.686320754718
 21
530.41981132075171
  0
LINE
  8
_0-1_計細線
  6
CONTINUOUS
 62
    3
 10
621.68632075471794
 20
541.81981132075214
 11
621.68632075471794
 21
530.41981132075171
  0
LINE
  8
_0-0_計極細
  6
CONTINUOUS
 62
    2
 10
321.686320754718
 20
533.61981132075186
 11
621.68632075471794
 21
533.61981132075186
  0
LINE
  8
_0-0_計極細
  6
CONTINUOUS
 62
    2
 10
321.686320754718
 20
538.61981132075186
 11
621.68632075471794
 21
538.61981132075186
  0
LINE
  8
_0-1_計細線
  6
CONTINUOUS
 62
    3
 10
321.686320754718
 20
558.81981132075123
 11
621.68632075471794
 21
558.81981132075123
  0
LINE
  8
_0-1_計細線
  6
CONTINUOUS
 62
    3
 10
321.686320754718
 20
547.41981132075068
 11
621.68632075471794
 21
547.41981132075068
  0
LINE
  8
_0-1_計細線
  6
CONTINUOUS
 62
    3
 10
321.686320754718
 20
558.81981132075123
 11
321.686320754718
 21
547.41981132075068
  0
LINE
  8
_0-1_計細線
  6
CONTINUOUS
 62
    3
 10
621.68632075471794
 20
558.81981132075123
 11
621.68632075471794
 21
547.41981132075068
  0
LINE
  8
_0-0_計極細
  6
CONTINUOUS
 62
    2
 10
321.686320754718
 20
550.61981132075096
 11
621.68632075471794
 21
550.61981132075096
  0
LINE
  8
_0-0_計極細
  6
CONTINUOUS
 62
    2
 10
321.686320754718
 20
555.61981132075096
 11
621.68632075471794
 21
555.61981132075096
  0
LINE
  8
_0-1_計細線
  6
CONTINUOUS
 62
    3
 10
321.686320754718
 20
360.41981132075614
 11
621.68632075471794
 21
360.41981132075614
  0
LINE
  8
_0-1_計細線
  6
CONTINUOUS
 62
    3
 10
321.686320754718
 20
371.81981132075668
 11
621.68632075471794
 21
371.81981132075668
  0
LINE
  8
_0-1_計細線
  6
CONTINUOUS
 62
    3
 10
321.686320754718
 20
360.41981132075614
 11
321.686320754718
 21
371.81981132075668
  0
LINE
  8
_0-1_計細線
  6
CONTINUOUS
 62
    3
 10
621.68632075471794
 20
360.41981132075614
 11
621.68632075471794
 21
371.81981132075668
  0
LINE
  8
_0-0_計極細
  6
CONTINUOUS
 62
    2
 10
321.686320754718
 20
368.61981132075641
 11
621.68632075471794
 21
368.61981132075641
  0
LINE
  8
_0-0_計極細
  6
CONTINUOUS
 62
    2
 10
321.686320754718
 20
363.61981132075641
 11
621.68632075471794
 21
363.61981132075641
  0
LINE
  8
_0-1_計細線
  6
CONTINUOUS
 62
    3
 10
321.686320754718
 20
343.41981132075711
 11
621.68632075471794
 21
343.41981132075711
  0
LINE
  8
_0-1_計細線
  6
CONTINUOUS
 62
    3
 10
321.686320754718
 20
354.81981132075759
 11
621.68632075471794
 21
354.81981132075759
  0
LINE
  8
_0-1_計細線
  6
CONTINUOUS
 62
    3
 10
321.686320754718
 20
343.41981132075711
 11
321.686320754718
 21
354.81981132075759
  0
LINE
  8
_0-1_計細線
  6
CONTINUOUS
 62
    3
 10
621.68632075471794
 20
343.41981132075711
 11
621.68632075471794
 21
354.81981132075759
  0
LINE
  8
_0-0_計極細
  6
CONTINUOUS
 62
    2
 10
321.686320754718
 20
351.61981132075732
 11
621.68632075471794
 21
351.61981132075732
  0
LINE
  8
_0-0_計極細
  6
CONTINUOUS
 62
    2
 10
321.686320754718
 20
346.61981132075732
 11
621.68632075471794
 21
346.61981132075732
  0
LINE
  8
_0-1_計細線
  6
CONTINUOUS
 62
    3
 10
321.686320754718
 20
326.41981132075796
 11
621.68632075471794
 21
326.41981132075796
  0
LINE
  8
_0-1_計細線
  6
CONTINUOUS
 62
    3
 10
321.686320754718
 20
337.8198113207585
 11
621.68632075471794
 21
337.8198113207585
  0
LINE
  8
_0-1_計細線
  6
CONTINUOUS
 62
    3
 10
321.686320754718
 20
326.41981132075796
 11
321.686320754718
 21
337.8198113207585
  0
LINE
  8
_0-1_計細線
  6
CONTINUOUS
 62
    3
 10
621.68632075471794
 20
326.41981132075796
 11
621.68632075471794
 21
337.8198113207585
  0
LINE
  8
_0-0_計極細
  6
CONTINUOUS
 62
    2
 10
321.686320754718
 20
334.61981132075829
 11
621.68632075471794
 21
334.61981132075829
  0
LINE
  8
_0-0_計極細
  6
CONTINUOUS
 62
    2
 10
321.686320754718
 20
329.61981132075829
 11
621.68632075471794
 21
329.61981132075829
  0
LINE
  8
_0-0_計極細
  6
CENTER2
 62
    2
 10
299.38837253681402
 20
442.61981132075459
 11
651.12170587014805
 21
442.61981132075459
  0
LINE
  8
_0-1_計細線
  6
CONTINUOUS
 62
    3
 10
321.686320754718
 20
456.8198113207535
 11
621.68632075471794
 21
456.8198113207535
  0
LINE
  8
_0-1_計細線
  6
CONTINUOUS
 62
    3
 10
621.68632075471794
 20
456.8198113207535
 11
621.68632075471794
 21
445.41981132075301
  0
LINE
  8
_0-0_計極細
  6
CONTINUOUS
 62
    2
 10
321.686320754718
 20
448.61981132075329
 11
621.68632075471794
 21
448.61981132075329
  0
LINE
  8
_0-0_計極細
  6
CONTINUOUS
 62
    2
 10
321.686320754718
 20
453.61981132075329
 11
621.68632075471794
 21
453.61981132075329
  0
LINE
  8
_0-1_計細線
  6
CONTINUOUS
 62
    3
 10
321.686320754718
 20
428.41981132075205
 11
621.68632075471794
 21
428.41981132075205
  0
LINE
  8
_0-1_計細線
  6
CONTINUOUS
 62
    3
 10
621.68632075471794
 20
439.81981132075259
 11
621.68632075471794
 21
428.41981132075205
  0
LINE
  8
_0-0_計極細
  6
CONTINUOUS
 62
    2
 10
321.686320754718
 20
431.61981132075232
 11
621.68632075471794
 21
431.61981132075232
  0
LINE
  8
_0-0_計極細
  6
CONTINUOUS
 62
    2
 10
321.686320754718
 20
436.61981132075232
 11
621.68632075471794
 21
436.61981132075232
  0
LINE
  8
_0-1_計細線
  6
CONTINUOUS
 62
    3
 10
321.686320754718
 20
445.41981132075301
 11
621.68632075471794
 21
445.41981132075301
  0
LINE
  8
_0-1_計細線
  6
CONTINUOUS
 62
    3
 10
321.686320754718
 20
456.8198113207535
 11
321.686320754718
 21
445.41981132075301
  0
LINE
  8
_0-1_計細線
  6
CONTINUOUS
 62
    3
 10
321.686320754718
 20
439.81981132075259
 11
321.686320754718
 21
428.41981132075205
  0
LINE
  8
_0-1_計細線
  6
CONTINUOUS
 62
    3
 10
321.686320754718
 20
439.81981132075259
 11
621.68632075471794
 21
439.81981132075259
  0
LINE
  8
_0-0_計極細
  6
CONTINUOUS
 62
    2
 10
322.18632075471794
 20
388.81981132075538
 11
322.18632075471794
 21
394.41981132075568
  0
LINE
  8
_0-0_計極細
  6
CONTINUOUS
 62
    2
 10
335.18632075471794
 20
388.81981132075538
 11
335.18632075471794
 21
394.41981132075568
  0
LINE
  8
_0-0_計極細
  6
CONTINUOUS
 62
    2
 10
322.18632075471794
 20
405.81981132075623
 11
322.18632075471794
 21
411.41981132075614
  0
LINE
  8
_0-0_計極細
  6
CONTINUOUS
 62
    2
 10
335.18632075471794
 20
405.81981132075623
 11
335.18632075471794
 21
411.41981132075614
  0
LINE
  8
_0-0_計極細
  6
CONTINUOUS
 62
    2
 10
322.18632075471794
 20
428.41981132075205
 11
322.18632075471794
 21
422.81981132075214
  0
LINE
  8
_0-0_計極細
  6
CONTINUOUS
 62
    2
 10
335.18632075471794
 20
428.41981132075205
 11
335.18632075471794
 21
422.81981132075214
  0
LINE
  8
_0-0_計極細
  6
CONTINUOUS
 62
    2
 10
322.18632075471794
 20
445.41981132075301
 11
322.18632075471794
 21
439.81981132075259
  0
LINE
  8
_0-0_計極細
  6
CONTINUOUS
 62
    2
 10
322.18632075471794
 20
462.41981132075347
 11
322.18632075471794
 21
456.8198113207535
  0
LINE
  8
_0-0_計極細
  6
CONTINUOUS
 62
    2
 10
335.18632075471794
 20
462.41981132075347
 11
335.18632075471794
 21
456.8198113207535
  0
LINE
  8
_0-0_計極細
  6
CONTINUOUS
 62
    2
 10
322.18632075471794
 20
479.41981132075432
 11
322.18632075471794
 21
473.81981132075396
  0
LINE
  8
_0-0_計極細
  6
CONTINUOUS
 62
    2
 10
335.18632075471794
 20
479.41981132075432
 11
335.18632075471794
 21
473.81981132075396
  0
LINE
  8
_0-0_計極細
  6
CONTINUOUS
 62
    2
 10
322.18632075471794
 20
496.41981132075477
 11
322.18632075471794
 21
490.81981132075492
  0
LINE
  8
_0-0_計極細
  6
CONTINUOUS
 62
    2
 10
335.18632075471794
 20
496.41981132075477
 11
335.18632075471794
 21
490.81981132075492
  0
LINE
  8
_0-0_計極細
  6
CONTINUOUS
 62
    2
 10
322.18632075471794
 20
581.21981132075405
 11
322.18632075471794
 21
575.81981132075396
  0
LINE
  8
_0-0_計極細
  6
CONTINUOUS
 62
    2
 10
335.18632075471794
 20
581.21981132075405
 11
335.18632075471794
 21
575.81981132075396
  0
LINE
  8
_0-0_計極細
  6
CONTINUOUS
 62
    2
 10
322.18632075471794
 20
304.01981132075423
 11
322.18632075471794
 21
309.41981132075387
  0
LINE
  8
_0-0_計極細
  6
CONTINUOUS
 62
    2
 10
335.18632075471794
 20
304.01981132075423
 11
335.18632075471794
 21
309.41981132075387
  0
LINE
  8
_0-0_計極細
  6
CENTER1
 62
    2
 10
328.68632075471794
 20
601.37053074521634
 11
328.68632075471794
 21
284.86198757974296
  0
LINE
  8
_0-0_計極細
  6
CONTINUOUS
 62
    2
 10
322.18632075471794
 20
513.41981132075387
 11
322.18632075471794
 21
507.81981132075401
  0
LINE
  8
_0-0_計極細
  6
CONTINUOUS
 62
    2
 10
335.18632075471794
 20
513.41981132075387
 11
335.18632075471794
 21
507.81981132075401
  0
LINE
  8
_0-0_計極細
  6
CONTINUOUS
 62
    2
 10
322.18632075471794
 20
530.41981132075296
 11
322.18632075471794
 21
524.81981132075305
  0
LINE
  8
_0-0_計極細
  6
CONTINUOUS
 62
    2
 10
335.18632075471794
 20
530.41981132075296
 11
335.18632075471794
 21
524.81981132075305
  0
LINE
  8
_0-0_計極細
  6
CONTINUOUS
 62
    2
 10
322.18632075471794
 20
547.41981132075216
 11
322.18632075471794
 21
541.81981132075214
  0
LINE
  8
_0-0_計極細
  6
CONTINUOUS
 62
    2
 10
335.18632075471794
 20
547.41981132075216
 11
335.18632075471794
 21
541.81981132075214
  0
LINE
  8
_0-0_計極細
  6
CONTINUOUS
 62
    2
 10
322.18632075471794
 20
564.41981132075114
 11
322.18632075471794
 21
558.81981132075123
  0
LINE
  8
_0-0_計極細
  6
CONTINUOUS
 62
    2
 10
335.18632075471794
 20
564.41981132075114
 11
335.18632075471794
 21
558.81981132075123
  0
LINE
  8
_0-0_計極細
  6
CONTINUOUS
 62
    2
 10
322.18632075471794
 20
371.81981132075532
 11
322.18632075471794
 21
377.41981132075523
  0
LINE
  8
_0-0_計極細
  6
CONTINUOUS
 62
    2
 10
335.18632075471794
 20
371.81981132075532
 11
335.18632075471794
 21
377.41981132075523
  0
LINE
  8
_0-0_計極細
  6
CONTINUOUS
 62
    2
 10
322.18632075471794
 20
354.81981132075623
 11
322.18632075471794
 21
360.41981132075614
  0
LINE
  8
_0-0_計極細
  6
CONTINUOUS
 62
    2
 10
335.18632075471794
 20
354.81981132075623
 11
335.18632075471794
 21
360.41981132075614
  0
LINE
  8
_0-0_計極細
  6
CONTINUOUS
 62
    2
 10
322.18632075471794
 20
337.81981132075714
 11
322.18632075471794
 21
343.41981132075711
  0
LINE
  8
_0-0_計極細
  6
CONTINUOUS
 62
    2
 10
335.18632075471794
 20
337.81981132075714
 11
335.18632075471794
 21
343.41981132075711
  0
LINE
  8
_0-0_計極細
  6
CONTINUOUS
 62
    2
 10
322.18632075471794
 20
320.81981132075805
 11
322.18632075471794
 21
326.41981132075796
  0
LINE
  8
_0-0_計極細
  6
CONTINUOUS
 62
    2
 10
335.18632075471794
 20
320.81981132075805
 11
335.18632075471794
 21
326.41981132075796
  0
LINE
  8
_0-0_計極細
  6
CONTINUOUS
 62
    2
 10
335.18632075471794
 20
445.41981132075301
 11
335.18632075471794
 21
439.81981132075305
  0
LINE
  8
_0-0_計極細
  6
CONTINUOUS
 62
    2
 10
608.18632075471794
 20
388.81981132075538
 11
608.18632075471794
 21
394.41981132075568
  0
LINE
  8
_0-0_計極細
  6
CONTINUOUS
 62
    2
 10
621.18632075471794
 20
388.81981132075538
 11
621.18632075471794
 21
394.41981132075568
  0
LINE
  8
_0-0_計極細
  6
CONTINUOUS
 62
    2
 10
608.18632075471794
 20
405.81981132075623
 11
608.18632075471794
 21
411.41981132075614
  0
LINE
  8
_0-0_計極細
  6
CONTINUOUS
 62
    2
 10
621.18632075471794
 20
405.81981132075623
 11
621.18632075471794
 21
411.41981132075614
  0
LINE
  8
_0-0_計極細
  6
CONTINUOUS
 62
    2
 10
608.18632075471794
 20
428.41981132075205
 11
608.18632075471794
 21
422.81981132075214
  0
LINE
  8
_0-0_計極細
  6
CONTINUOUS
 62
    2
 10
621.18632075471794
 20
428.41981132075205
 11
621.18632075471794
 21
422.81981132075214
  0
LINE
  8
_0-0_計極細
  6
CONTINUOUS
 62
    2
 10
608.18632075471794
 20
445.41981132075301
 11
608.18632075471794
 21
439.81981132075259
  0
LINE
  8
_0-0_計極細
  6
CONTINUOUS
 62
    2
 10
621.18632075471794
 20
445.41981132075301
 11
621.18632075471794
 21
439.81981132075259
  0
LINE
  8
_0-0_計極細
  6
CONTINUOUS
 62
    2
 10
608.18632075471794
 20
462.41981132075347
 11
608.18632075471794
 21
456.8198113207535
  0
LINE
  8
_0-0_計極細
  6
CONTINUOUS
 62
    2
 10
621.18632075471794
 20
462.41981132075347
 11
621.18632075471794
 21
456.8198113207535
  0
LINE
  8
_0-0_計極細
  6
CONTINUOUS
 62
    2
 10
608.18632075471794
 20
479.41981132075432
 11
608.18632075471794
 21
473.81981132075396
  0
LINE
  8
_0-0_計極細
  6
CONTINUOUS
 62
    2
 10
621.18632075471794
 20
479.41981132075432
 11
621.18632075471794
 21
473.81981132075396
  0
LINE
  8
_0-0_計極細
  6
CONTINUOUS
 62
    2
 10
608.18632075471794
 20
496.41981132075477
 11
608.18632075471794
 21
490.81981132075492
  0
LINE
  8
_0-0_計極細
  6
CONTINUOUS
 62
    2
 10
621.18632075471794
 20
496.41981132075477
 11
621.18632075471794
 21
490.81981132075492
  0
LINE
  8
_0-0_計極細
  6
CONTINUOUS
 62
    2
 10
608.18632075471794
 20
581.21981132075405
 11
608.18632075471794
 21
575.81981132075396
  0
LINE
  8
_0-0_計極細
  6
CONTINUOUS
 62
    2
 10
621.18632075471794
 20
581.21981132075405
 11
621.18632075471794
 21
575.81981132075396
  0
LINE
  8
_0-0_計極細
  6
CONTINUOUS
 62
    2
 10
608.18632075471794
 20
304.01981132075423
 11
608.18632075471794
 21
309.41981132075387
  0
LINE
  8
_0-0_計極細
  6
CONTINUOUS
 62
    2
 10
621.18632075471794
 20
304.01981132075423
 11
621.18632075471794
 21
309.41981132075387
  0
LINE
  8
_0-0_計極細
  6
CENTER1
 62
    2
 10
614.68632075471794
 20
601.37053074521634
 11
614.68632075471794
 21
284.86198757974296
  0
LINE
  8
_0-0_計極細
  6
CONTINUOUS
 62
    2
 10
608.18632075471794
 20
513.41981132075387
 11
608.18632075471794
 21
507.81981132075401
  0
LINE
  8
_0-0_計極細
  6
CONTINUOUS
 62
    2
 10
621.18632075471794
 20
513.41981132075387
 11
621.18632075471794
 21
507.81981132075401
  0
LINE
  8
_0-0_計極細
  6
CONTINUOUS
 62
    2
 10
608.18632075471794
 20
530.41981132075296
 11
608.18632075471794
 21
524.81981132075305
  0
LINE
  8
_0-0_計極細
  6
CONTINUOUS
 62
    2
 10
621.18632075471794
 20
530.41981132075296
 11
621.18632075471794
 21
524.81981132075305
  0
LINE
  8
_0-0_計極細
  6
CONTINUOUS
 62
    2
 10
608.18632075471794
 20
547.41981132075216
 11
608.18632075471794
 21
541.81981132075214
  0
LINE
  8
_0-0_計極細
  6
CONTINUOUS
 62
    2
 10
621.18632075471794
 20
547.41981132075216
 11
621.18632075471794
 21
541.81981132075214
  0
LINE
  8
_0-0_計極細
  6
CONTINUOUS
 62
    2
 10
608.18632075471794
 20
564.41981132075114
 11
608.18632075471794
 21
558.81981132075123
  0
LINE
  8
_0-0_計極細
  6
CONTINUOUS
 62
    2
 10
621.18632075471794
 20
564.41981132075114
 11
621.18632075471794
 21
558.81981132075123
  0
LINE
  8
_0-0_計極細
  6
CONTINUOUS
 62
    2
 10
608.18632075471794
 20
371.81981132075532
 11
608.18632075471794
 21
377.41981132075523
  0
LINE
  8
_0-0_計極細
  6
CONTINUOUS
 62
    2
 10
621.18632075471794
 20
371.81981132075532
 11
621.18632075471794
 21
377.41981132075523
  0
LINE
  8
_0-0_計極細
  6
CONTINUOUS
 62
    2
 10
608.18632075471794
 20
354.81981132075623
 11
608.18632075471794
 21
360.41981132075614
  0
LINE
  8
_0-0_計極細
  6
CONTINUOUS
 62
    2
 10
621.18632075471794
 20
354.81981132075623
 11
621.18632075471794
 21
360.41981132075614
  0
LINE
  8
_0-0_計極細
  6
CONTINUOUS
 62
    2
 10
608.18632075471794
 20
337.81981132075714
 11
608.18632075471794
 21
343.41981132075711
  0
LINE
  8
_0-0_計極細
  6
CONTINUOUS
 62
    2
 10
621.18632075471794
 20
337.81981132075714
 11
621.18632075471794
 21
343.41981132075711
  0
LINE
  8
_0-0_計極細
  6
CONTINUOUS
 62
    2
 10
608.18632075471794
 20
320.81981132075805
 11
608.18632075471794
 21
326.41981132075796
  0
LINE
  8
_0-0_計極細
  6
CONTINUOUS
 62
    2
 10
621.18632075471794
 20
320.81981132075805
 11
621.18632075471794
 21
326.41981132075796
  0
LINE
  8
_0-0_計極細
  6
CONTINUOUS
 62
    2
 10
419.186320754718
 20
388.81981132075538
 11
419.186320754718
 21
394.41981132075568
  0
LINE
  8
_0-0_計極細
  6
CONTINUOUS
 62
    2
 10
432.18632075471794
 20
388.81981132075538
 11
432.18632075471794
 21
394.41981132075568
  0
LINE
  8
_0-0_計極細
  6
CONTINUOUS
 62
    2
 10
419.186320754718
 20
405.81981132075623
 11
419.186320754718
 21
411.41981132075614
  0
LINE
  8
_0-0_計極細
  6
CONTINUOUS
 62
    2
 10
432.18632075471794
 20
405.81981132075623
 11
432.18632075471794
 21
411.41981132075614
  0
LINE
  8
_0-0_計極細
  6
CONTINUOUS
 62
    2
 10
419.186320754718
 20
428.41981132075205
 11
419.186320754718
 21
422.81981132075214
  0
LINE
  8
_0-0_計極細
  6
CONTINUOUS
 62
    2
 10
432.18632075471794
 20
428.41981132075205
 11
432.18632075471794
 21
422.81981132075214
  0
LINE
  8
_0-0_計極細
  6
CONTINUOUS
 62
    2
 10
419.186320754718
 20
462.41981132075347
 11
419.186320754718
 21
456.8198113207535
  0
LINE
  8
_0-0_計極細
  6
CONTINUOUS
 62
    2
 10
432.18632075471794
 20
462.41981132075347
 11
432.18632075471794
 21
456.8198113207535
  0
LINE
  8
_0-0_計極細
  6
CONTINUOUS
 62
    2
 10
419.186320754718
 20
479.41981132075432
 11
419.186320754718
 21
473.81981132075396
  0
LINE
  8
_0-0_計極細
  6
CONTINUOUS
 62
    2
 10
432.18632075471794
 20
479.41981132075432
 11
432.18632075471794
 21
473.81981132075396
  0
LINE
  8
_0-0_計極細
  6
CONTINUOUS
 62
    2
 10
419.186320754718
 20
496.41981132075477
 11
419.186320754718
 21
490.81981132075492
  0
LINE
  8
_0-0_計極細
  6
CONTINUOUS
 62
    2
 10
432.18632075471794
 20
496.41981132075477
 11
432.18632075471794
 21
490.81981132075492
  0
LINE
  8
_0-0_計極細
  6
CONTINUOUS
 62
    2
 10
419.186320754718
 20
581.21981132075405
 11
419.186320754718
 21
575.81981132075396
  0
LINE
  8
_0-0_計極細
  6
CONTINUOUS
 62
    2
 10
432.18632075471794
 20
581.21981132075405
 11
432.18632075471794
 21
575.81981132075396
  0
LINE
  8
_0-0_計極細
  6
CONTINUOUS
 62
    2
 10
419.186320754718
 20
304.01981132075423
 11
419.186320754718
 21
309.41981132075387
  0
LINE
  8
_0-0_計極細
  6
CONTINUOUS
 62
    2
 10
432.18632075471794
 20
304.01981132075423
 11
432.18632075471794
 21
309.41981132075387
  0
LINE
  8
_0-0_計極細
  6
CENTER1
 62
    2
 10
425.68632075471794
 20
601.37053074521634
 11
425.68632075471794
 21
284.86198757974296
  0
LINE
  8
_0-0_計極細
  6
CONTINUOUS
 62
    2
 10
419.186320754718
 20
513.41981132075387
 11
419.186320754718
 21
507.81981132075401
  0
LINE
  8
_0-0_計極細
  6
CONTINUOUS
 62
    2
 10
432.18632075471794
 20
513.41981132075387
 11
432.18632075471794
 21
507.81981132075401
  0
LINE
  8
_0-0_計極細
  6
CONTINUOUS
 62
    2
 10
419.186320754718
 20
530.41981132075296
 11
419.186320754718
 21
524.81981132075305
  0
LINE
  8
_0-0_計極細
  6
CONTINUOUS
 62
    2
 10
432.18632075471794
 20
530.41981132075296
 11
432.18632075471794
 21
524.81981132075305
  0
LINE
  8
_0-0_計極細
  6
CONTINUOUS
 62
    2
 10
419.186320754718
 20
547.41981132075216
 11
419.186320754718
 21
541.81981132075214
  0
LINE
  8
_0-0_計極細
  6
CONTINUOUS
 62
    2
 10
432.18632075471794
 20
547.41981132075216
 11
432.18632075471794
 21
541.81981132075214
  0
LINE
  8
_0-0_計極細
  6
CONTINUOUS
 62
    2
 10
419.186320754718
 20
564.41981132075114
 11
419.186320754718
 21
558.81981132075123
  0
LINE
  8
_0-0_計極細
  6
CONTINUOUS
 62
    2
 10
432.18632075471794
 20
564.41981132075114
 11
432.18632075471794
 21
558.81981132075123
  0
LINE
  8
_0-0_計極細
  6
CONTINUOUS
 62
    2
 10
419.186320754718
 20
371.81981132075532
 11
419.186320754718
 21
377.41981132075523
  0
LINE
  8
_0-0_計極細
  6
CONTINUOUS
 62
    2
 10
432.18632075471794
 20
371.81981132075532
 11
432.18632075471794
 21
377.41981132075523
  0
LINE
  8
_0-0_計極細
  6
CONTINUOUS
 62
    2
 10
419.186320754718
 20
354.81981132075623
 11
419.186320754718
 21
360.41981132075614
  0
LINE
  8
_0-0_計極細
  6
CONTINUOUS
 62
    2
 10
432.18632075471794
 20
354.81981132075623
 11
432.18632075471794
 21
360.41981132075614
  0
LINE
  8
_0-0_計極細
  6
CONTINUOUS
 62
    2
 10
419.186320754718
 20
337.81981132075714
 11
419.186320754718
 21
343.41981132075711
  0
LINE
  8
_0-0_計極細
  6
CONTINUOUS
 62
    2
 10
432.18632075471794
 20
337.81981132075714
 11
432.18632075471794
 21
343.41981132075711
  0
LINE
  8
_0-0_計極細
  6
CONTINUOUS
 62
    2
 10
419.186320754718
 20
320.81981132075805
 11
419.186320754718
 21
326.41981132075796
  0
LINE
  8
_0-0_計極細
  6
CONTINUOUS
 62
    2
 10
432.18632075471794
 20
320.81981132075805
 11
432.18632075471794
 21
326.41981132075796
  0
LINE
  8
_0-0_計極細
  6
CONTINUOUS
 62
    2
 10
467.686320754718
 20
388.81981132075538
 11
467.686320754718
 21
394.41981132075568
  0
LINE
  8
_0-0_計極細
  6
CONTINUOUS
 62
    2
 10
480.68632075471794
 20
388.81981132075538
 11
480.68632075471794
 21
394.41981132075568
  0
LINE
  8
_0-0_計極細
  6
CONTINUOUS
 62
    2
 10
467.686320754718
 20
405.81981132075623
 11
467.686320754718
 21
411.41981132075614
  0
LINE
  8
_0-0_計極細
  6
CONTINUOUS
 62
    2
 10
480.68632075471794
 20
405.81981132075623
 11
480.68632075471794
 21
411.41981132075614
  0
LINE
  8
_0-0_計極細
  6
CONTINUOUS
 62
    2
 10
467.686320754718
 20
428.41981132075205
 11
467.686320754718
 21
422.81981132075214
  0
LINE
  8
_0-0_計極細
  6
CONTINUOUS
 62
    2
 10
480.68632075471794
 20
428.41981132075205
 11
480.68632075471794
 21
422.81981132075214
  0
LINE
  8
_0-0_計極細
  6
CONTINUOUS
 62
    2
 10
467.686320754718
 20
462.41981132075347
 11
467.686320754718
 21
456.8198113207535
  0
LINE
  8
_0-0_計極細
  6
CONTINUOUS
 62
    2
 10
480.68632075471794
 20
462.41981132075347
 11
480.68632075471794
 21
456.8198113207535
  0
LINE
  8
_0-0_計極細
  6
CONTINUOUS
 62
    2
 10
467.686320754718
 20
479.41981132075432
 11
467.686320754718
 21
473.81981132075396
  0
LINE
  8
_0-0_計極細
  6
CONTINUOUS
 62
    2
 10
480.68632075471794
 20
479.41981132075432
 11
480.68632075471794
 21
473.81981132075396
  0
LINE
  8
_0-0_計極細
  6
CONTINUOUS
 62
    2
 10
467.686320754718
 20
496.41981132075477
 11
467.686320754718
 21
490.81981132075492
  0
LINE
  8
_0-0_計極細
  6
CONTINUOUS
 62
    2
 10
480.68632075471794
 20
496.41981132075477
 11
480.68632075471794
 21
490.81981132075492
  0
LINE
  8
_0-0_計極細
  6
CONTINUOUS
 62
    2
 10
467.686320754718
 20
581.21981132075405
 11
467.686320754718
 21
575.81981132075396
  0
LINE
  8
_0-0_計極細
  6
CONTINUOUS
 62
    2
 10
480.68632075471794
 20
581.21981132075405
 11
480.68632075471794
 21
575.81981132075396
  0
LINE
  8
_0-0_計極細
  6
CONTINUOUS
 62
    2
 10
467.686320754718
 20
304.01981132075423
 11
467.686320754718
 21
309.41981132075387
  0
LINE
  8
_0-0_計極細
  6
CONTINUOUS
 62
    2
 10
480.68632075471794
 20
304.01981132075423
 11
480.68632075471794
 21
309.41981132075387
  0
LINE
  8
_0-0_計極細
  6
CENTER1
 62
    2
 10
474.186320754718
 20
601.37053074521634
 11
474.186320754718
 21
284.86198757974296
  0
LINE
  8
_0-0_計極細
  6
CONTINUOUS
 62
    2
 10
467.686320754718
 20
513.41981132075387
 11
467.686320754718
 21
507.81981132075401
  0
LINE
  8
_0-0_計極細
  6
CONTINUOUS
 62
    2
 10
480.68632075471794
 20
513.41981132075387
 11
480.68632075471794
 21
507.81981132075401
  0
LINE
  8
_0-0_計極細
  6
CONTINUOUS
 62
    2
 10
467.686320754718
 20
530.41981132075296
 11
467.686320754718
 21
524.81981132075305
  0
LINE
  8
_0-0_計極細
  6
CONTINUOUS
 62
    2
 10
480.68632075471794
 20
530.41981132075296
 11
480.68632075471794
 21
524.81981132075305
  0
LINE
  8
_0-0_計極細
  6
CONTINUOUS
 62
    2
 10
467.686320754718
 20
547.41981132075216
 11
467.686320754718
 21
541.81981132075214
  0
LINE
  8
_0-0_計極細
  6
CONTINUOUS
 62
    2
 10
480.68632075471794
 20
547.41981132075216
 11
480.68632075471794
 21
541.81981132075214
  0
LINE
  8
_0-0_計極細
  6
CONTINUOUS
 62
    2
 10
467.686320754718
 20
564.41981132075114
 11
467.686320754718
 21
558.81981132075123
  0
LINE
  8
_0-0_計極細
  6
CONTINUOUS
 62
    2
 10
480.68632075471794
 20
564.41981132075114
 11
480.68632075471794
 21
558.81981132075123
  0
LINE
  8
_0-0_計極細
  6
CONTINUOUS
 62
    2
 10
467.686320754718
 20
371.81981132075532
 11
467.686320754718
 21
377.41981132075523
  0
LINE
  8
_0-0_計極細
  6
CONTINUOUS
 62
    2
 10
480.68632075471794
 20
371.81981132075532
 11
480.68632075471794
 21
377.41981132075523
  0
LINE
  8
_0-0_計極細
  6
CONTINUOUS
 62
    2
 10
467.686320754718
 20
354.81981132075623
 11
467.686320754718
 21
360.41981132075614
  0
LINE
  8
_0-0_計極細
  6
CONTINUOUS
 62
    2
 10
480.68632075471794
 20
354.81981132075623
 11
480.68632075471794
 21
360.41981132075614
  0
LINE
  8
_0-0_計極細
  6
CONTINUOUS
 62
    2
 10
467.686320754718
 20
337.81981132075714
 11
467.686320754718
 21
343.41981132075711
  0
LINE
  8
_0-0_計極細
  6
CONTINUOUS
 62
    2
 10
480.68632075471794
 20
337.81981132075714
 11
480.68632075471794
 21
343.41981132075711
  0
LINE
  8
_0-0_計極細
  6
CONTINUOUS
 62
    2
 10
467.686320754718
 20
320.81981132075805
 11
467.686320754718
 21
326.41981132075796
  0
LINE
  8
_0-0_計極細
  6
CONTINUOUS
 62
    2
 10
480.68632075471794
 20
320.81981132075805
 11
480.68632075471794
 21
326.41981132075796
  0
LINE
  8
_0-0_計極細
  6
CONTINUOUS
 62
    2
 10
467.686320754718
 20
440.26981132075542
 11
467.686320754718
 21
439.81981132075259
  0
LINE
  8
_0-0_計極細
  6
CONTINUOUS
 62
    2
 10
467.686320754718
 20
445.41981132075301
 11
467.686320754718
 21
439.81981132075259
  0
LINE
  8
_0-0_計極細
  6
CONTINUOUS
 62
    2
 10
480.68632075471794
 20
445.41981132075301
 11
480.68632075471794
 21
439.81981132075259
  0
LINE
  8
_0-0_計極細
  6
CONTINUOUS
 62
    2
 10
511.18632075471794
 20
388.81981132075538
 11
511.18632075471794
 21
394.41981132075568
  0
LINE
  8
_0-0_計極細
  6
CONTINUOUS
 62
    2
 10
524.18632075471794
 20
388.81981132075538
 11
524.18632075471794
 21
394.41981132075568
  0
LINE
  8
_0-0_計極細
  6
CONTINUOUS
 62
    2
 10
511.18632075471794
 20
405.81981132075623
 11
511.18632075471794
 21
411.41981132075614
  0
LINE
  8
_0-0_計極細
  6
CONTINUOUS
 62
    2
 10
524.18632075471794
 20
405.81981132075623
 11
524.18632075471794
 21
411.41981132075614
  0
LINE
  8
_0-0_計極細
  6
CONTINUOUS
 62
    2
 10
511.18632075471794
 20
428.41981132075205
 11
511.18632075471794
 21
422.81981132075214
  0
LINE
  8
_0-0_計極細
  6
CONTINUOUS
 62
    2
 10
524.18632075471794
 20
428.41981132075205
 11
524.18632075471794
 21
422.81981132075214
  0
LINE
  8
_0-0_計極細
  6
CONTINUOUS
 62
    2
 10
511.18632075471794
 20
445.41981132075301
 11
511.18632075471794
 21
439.81981132075259
  0
LINE
  8
_0-0_計極細
  6
CONTINUOUS
 62
    2
 10
524.18632075471794
 20
445.41981132075301
 11
524.18632075471794
 21
439.81981132075259
  0
LINE
  8
_0-0_計極細
  6
CONTINUOUS
 62
    2
 10
511.18632075471794
 20
462.41981132075347
 11
511.18632075471794
 21
456.8198113207535
  0
LINE
  8
_0-0_計極細
  6
CONTINUOUS
 62
    2
 10
524.18632075471794
 20
462.41981132075347
 11
524.18632075471794
 21
456.8198113207535
  0
LINE
  8
_0-0_計極細
  6
CONTINUOUS
 62
    2
 10
511.18632075471794
 20
479.41981132075432
 11
511.18632075471794
 21
473.81981132075396
  0
LINE
  8
_0-0_計極細
  6
CONTINUOUS
 62
    2
 10
524.18632075471794
 20
479.41981132075432
 11
524.18632075471794
 21
473.81981132075396
  0
LINE
  8
_0-0_計極細
  6
CONTINUOUS
 62
    2
 10
511.18632075471794
 20
496.41981132075477
 11
511.18632075471794
 21
490.81981132075492
  0
LINE
  8
_0-0_計極細
  6
CONTINUOUS
 62
    2
 10
524.18632075471794
 20
496.41981132075477
 11
524.18632075471794
 21
490.81981132075492
  0
LINE
  8
_0-0_計極細
  6
CONTINUOUS
 62
    2
 10
511.18632075471794
 20
581.21981132075405
 11
511.18632075471794
 21
575.81981132075396
  0
LINE
  8
_0-0_計極細
  6
CONTINUOUS
 62
    2
 10
524.18632075471794
 20
581.21981132075405
 11
524.18632075471794
 21
575.81981132075396
  0
LINE
  8
_0-0_計極細
  6
CONTINUOUS
 62
    2
 10
511.18632075471794
 20
304.01981132075423
 11
511.18632075471794
 21
309.41981132075387
  0
LINE
  8
_0-0_計極細
  6
CONTINUOUS
 62
    2
 10
524.18632075471794
 20
304.01981132075423
 11
524.18632075471794
 21
309.41981132075387
  0
LINE
  8
_0-0_計極細
  6
CENTER1
 62
    2
 10
517.68632075471805
 20
601.37053074521634
 11
517.68632075471805
 21
284.86198757974296
  0
LINE
  8
_0-0_計極細
  6
CONTINUOUS
 62
    2
 10
511.18632075471794
 20
513.41981132075387
 11
511.18632075471794
 21
507.81981132075401
  0
LINE
  8
_0-0_計極細
  6
CONTINUOUS
 62
    2
 10
524.18632075471794
 20
513.41981132075387
 11
524.18632075471794
 21
507.81981132075401
  0
LINE
  8
_0-0_計極細
  6
CONTINUOUS
 62
    2
 10
511.18632075471794
 20
530.41981132075296
 11
511.18632075471794
 21
524.81981132075305
  0
LINE
  8
_0-0_計極細
  6
CONTINUOUS
 62
    2
 10
524.18632075471794
 20
530.41981132075296
 11
524.18632075471794
 21
524.81981132075305
  0
LINE
  8
_0-0_計極細
  6
CONTINUOUS
 62
    2
 10
511.18632075471794
 20
547.41981132075216
 11
511.18632075471794
 21
541.81981132075214
  0
LINE
  8
_0-0_計極細
  6
CONTINUOUS
 62
    2
 10
524.18632075471794
 20
547.41981132075216
 11
524.18632075471794
 21
541.81981132075214
  0
LINE
  8
_0-0_計極細
  6
CONTINUOUS
 62
    2
 10
511.18632075471794
 20
564.41981132075114
 11
511.18632075471794
 21
558.81981132075123
  0
LINE
  8
_0-0_計極細
  6
CONTINUOUS
 62
    2
 10
524.18632075471794
 20
564.41981132075114
 11
524.18632075471794
 21
558.81981132075123
  0
LINE
  8
_0-0_計極細
  6
CONTINUOUS
 62
    2
 10
511.18632075471794
 20
371.81981132075532
 11
511.18632075471794
 21
377.41981132075523
  0
LINE
  8
_0-0_計極細
  6
CONTINUOUS
 62
    2
 10
524.18632075471794
 20
371.81981132075532
 11
524.18632075471794
 21
377.41981132075523
  0
LINE
  8
_0-0_計極細
  6
CONTINUOUS
 62
    2
 10
511.18632075471794
 20
354.81981132075623
 11
511.18632075471794
 21
360.41981132075614
  0
LINE
  8
_0-0_計極細
  6
CONTINUOUS
 62
    2
 10
524.18632075471794
 20
354.81981132075623
 11
524.18632075471794
 21
360.41981132075614
  0
LINE
  8
_0-0_計極細
  6
CONTINUOUS
 62
    2
 10
511.18632075471794
 20
337.81981132075714
 11
511.18632075471794
 21
343.41981132075711
  0
LINE
  8
_0-0_計極細
  6
CONTINUOUS
 62
    2
 10
524.18632075471794
 20
337.81981132075714
 11
524.18632075471794
 21
343.41981132075711
  0
LINE
  8
_0-0_計極細
  6
CONTINUOUS
 62
    2
 10
511.18632075471794
 20
320.81981132075805
 11
511.18632075471794
 21
326.41981132075796
  0
LINE
  8
_0-0_計極細
  6
CONTINUOUS
 62
    2
 10
524.18632075471794
 20
320.81981132075805
 11
524.18632075471794
 21
326.41981132075796
  0
LINE
  8
_0-0_計極細
  6
CONTINUOUS
 62
    2
 10
419.186320754718
 20
445.41981132075301
 11
419.186320754718
 21
444.96981132075456
  0
LINE
  8
_0-0_計極細
  6
CONTINUOUS
 62
    2
 10
419.186320754718
 20
440.26981132075468
 11
419.186320754718
 21
439.81981132075305
  0
LINE
  8
_0-0_計極細
  6
CONTINUOUS
 62
    2
 10
432.18632075471794
 20
445.41981132075301
 11
432.18632075471794
 21
444.96981132075456
  0
LINE
  8
_0-0_計極細
  6
CONTINUOUS
 62
    2
 10
432.18632075471794
 20
440.26981132075468
 11
432.18632075471794
 21
439.81981132075305
  0
LINE
  8
_0-5_寸法線
  6
CONTINUOUS
 62
    7
 10
586.40564184402263
 20
450.80591814517106
 11
593.47670965588816
 21
457.8769859570366
  0
LINE
  8
_0-5_寸法線
  6
CONTINUOUS
 62
    7
 10
586.40564184402263
 20
450.80591814517106
 11
596.06490010691334
 21
453.39410859619625
  0
LINE
  8
_0-5_寸法線
  6
CONTINUOUS
 62
    7
 10
586.40564184402263
 20
450.80591814517106
 11
666.28609344444828
 21
496.92491837966571
  0
LINE
  8
_0-5_寸法線
  6
CONTINUOUS
 62
    7
 10
666.28609344444828
 20
496.92491837966571
 11
798.28609344444828
 21
496.92491837966571
  0
TEXT
  8
_0-5_寸法線
 62
    7
 10
666.28609344444828
 20
496.92491837966571
 40
15
 41
0.8000000000000001
 50
0
  1
セーフティグレーチング
  0
TEXT
  8
_0-5_寸法線
 62
    7
 10
668.6273612135227
 20
478.49816917148445
 40
15
 41
0.8000000000000001
 50
0
  1
補強仕様
  0
LINE
  8
_0-0_計極細
  6
CONTINUOUS
 62
    2
 10
370.68632075471794
 20
388.81981132075538
 11
370.68632075471794
 21
394.41981132075568
  0
LINE
  8
_0-0_計極細
  6
CONTINUOUS
 62
    2
 10
383.68632075471794
 20
388.81981132075538
 11
383.68632075471794
 21
394.41981132075568
  0
LINE
  8
_0-0_計極細
  6
CONTINUOUS
 62
    2
 10
370.68632075471794
 20
405.81981132075623
 11
370.68632075471794
 21
411.41981132075614
  0
LINE
  8
_0-0_計極細
  6
CONTINUOUS
 62
    2
 10
383.68632075471794
 20
405.81981132075623
 11
383.68632075471794
 21
411.41981132075614
  0
LINE
  8
_0-0_計極細
  6
CONTINUOUS
 62
    2
 10
370.68632075471794
 20
428.41981132075205
 11
370.68632075471794
 21
422.81981132075214
  0
LINE
  8
_0-0_計極細
  6
CONTINUOUS
 62
    2
 10
383.68632075471794
 20
428.41981132075205
 11
383.68632075471794
 21
422.81981132075214
  0
LINE
  8
_0-0_計極細
  6
CONTINUOUS
 62
    2
 10
370.68632075471794
 20
462.41981132075347
 11
370.68632075471794
 21
456.8198113207535
  0
LINE
  8
_0-0_計極細
  6
CONTINUOUS
 62
    2
 10
383.68632075471794
 20
462.41981132075347
 11
383.68632075471794
 21
456.8198113207535
  0
LINE
  8
_0-0_計極細
  6
CONTINUOUS
 62
    2
 10
370.68632075471794
 20
479.41981132075432
 11
370.68632075471794
 21
473.81981132075396
  0
LINE
  8
_0-0_計極細
  6
CONTINUOUS
 62
    2
 10
383.68632075471794
 20
479.41981132075432
 11
383.68632075471794
 21
473.81981132075396
  0
LINE
  8
_0-0_計極細
  6
CONTINUOUS
 62
    2
 10
370.68632075471794
 20
496.41981132075477
 11
370.68632075471794
 21
490.81981132075492
  0
LINE
  8
_0-0_計極細
  6
CONTINUOUS
 62
    2
 10
383.68632075471794
 20
496.41981132075477
 11
383.68632075471794
 21
490.81981132075492
  0
LINE
  8
_0-0_計極細
  6
CONTINUOUS
 62
    2
 10
370.68632075471794
 20
581.21981132075405
 11
370.68632075471794
 21
575.81981132075396
  0
LINE
  8
_0-0_計極細
  6
CONTINUOUS
 62
    2
 10
383.68632075471794
 20
581.21981132075405
 11
383.68632075471794
 21
575.81981132075396
  0
LINE
  8
_0-0_計極細
  6
CONTINUOUS
 62
    2
 10
370.68632075471794
 20
304.01981132075423
 11
370.68632075471794
 21
309.41981132075387
  0
LINE
  8
_0-0_計極細
  6
CONTINUOUS
 62
    2
 10
383.68632075471794
 20
304.01981132075423
 11
383.68632075471794
 21
309.41981132075387
  0
LINE
  8
_0-0_計極細
  6
CENTER1
 62
    2
 10
377.18632075471794
 20
601.37053074521634
 11
377.18632075471794
 21
284.86198757974296
  0
LINE
  8
_0-0_計極細
  6
CONTINUOUS
 62
    2
 10
370.68632075471794
 20
513.41981132075387
 11
370.68632075471794
 21
507.81981132075401
  0
LINE
  8
_0-0_計極細
  6
CONTINUOUS
 62
    2
 10
383.68632075471794
 20
513.41981132075387
 11
383.68632075471794
 21
507.81981132075401
  0
LINE
  8
_0-0_計極細
  6
CONTINUOUS
 62
    2
 10
370.68632075471794
 20
530.41981132075296
 11
370.68632075471794
 21
524.81981132075305
  0
LINE
  8
_0-0_計極細
  6
CONTINUOUS
 62
    2
 10
383.68632075471794
 20
530.41981132075296
 11
383.68632075471794
 21
524.81981132075305
  0
LINE
  8
_0-0_計極細
  6
CONTINUOUS
 62
    2
 10
370.68632075471794
 20
547.41981132075216
 11
370.68632075471794
 21
541.81981132075214
  0
LINE
  8
_0-0_計極細
  6
CONTINUOUS
 62
    2
 10
383.68632075471794
 20
547.41981132075216
 11
383.68632075471794
 21
541.81981132075214
  0
LINE
  8
_0-0_計極細
  6
CONTINUOUS
 62
    2
 10
370.68632075471794
 20
564.41981132075114
 11
370.68632075471794
 21
558.81981132075123
  0
LINE
  8
_0-0_計極細
  6
CONTINUOUS
 62
    2
 10
383.68632075471794
 20
564.41981132075114
 11
383.68632075471794
 21
558.81981132075123
  0
LINE
  8
_0-0_計極細
  6
CONTINUOUS
 62
    2
 10
370.68632075471794
 20
371.81981132075532
 11
370.68632075471794
 21
377.41981132075523
  0
LINE
  8
_0-0_計極細
  6
CONTINUOUS
 62
    2
 10
383.68632075471794
 20
371.81981132075532
 11
383.68632075471794
 21
377.41981132075523
  0
LINE
  8
_0-0_計極細
  6
CONTINUOUS
 62
    2
 10
370.68632075471794
 20
354.81981132075623
 11
370.68632075471794
 21
360.41981132075614
  0
LINE
  8
_0-0_計極細
  6
CONTINUOUS
 62
    2
 10
383.68632075471794
 20
354.81981132075623
 11
383.68632075471794
 21
360.41981132075614
  0
LINE
  8
_0-0_計極細
  6
CONTINUOUS
 62
    2
 10
370.68632075471794
 20
337.81981132075714
 11
370.68632075471794
 21
343.41981132075711
  0
LINE
  8
_0-0_計極細
  6
CONTINUOUS
 62
    2
 10
383.68632075471794
 20
337.81981132075714
 11
383.68632075471794
 21
343.41981132075711
  0
LINE
  8
_0-0_計極細
  6
CONTINUOUS
 62
    2
 10
370.68632075471794
 20
320.81981132075805
 11
370.68632075471794
 21
326.41981132075796
  0
LINE
  8
_0-0_計極細
  6
CONTINUOUS
 62
    2
 10
383.68632075471794
 20
320.81981132075805
 11
383.68632075471794
 21
326.41981132075796
  0
LINE
  8
_0-0_計極細
  6
CONTINUOUS
 62
    2
 10
383.68632075471794
 20
445.41981132075301
 11
383.68632075471794
 21
439.81981132075259
  0
LINE
  8
_0-0_計極細
  6
CONTINUOUS
 62
    2
 10
370.68632075471794
 20
445.41981132075301
 11
370.68632075471794
 21
439.81981132075305
  0
LINE
  8
_0-0_計極細
  6
CONTINUOUS
 62
    2
 10
559.68632075471794
 20
388.81981132075538
 11
559.68632075471794
 21
394.41981132075568
  0
LINE
  8
_0-0_計極細
  6
CONTINUOUS
 62
    2
 10
572.68632075471805
 20
388.81981132075538
 11
572.68632075471805
 21
394.41981132075568
  0
LINE
  8
_0-0_計極細
  6
CONTINUOUS
 62
    2
 10
559.68632075471794
 20
405.81981132075623
 11
559.68632075471794
 21
411.41981132075614
  0
LINE
  8
_0-0_計極細
  6
CONTINUOUS
 62
    2
 10
572.68632075471805
 20
405.81981132075623
 11
572.68632075471805
 21
411.41981132075614
  0
LINE
  8
_0-0_計極細
  6
CONTINUOUS
 62
    2
 10
559.68632075471794
 20
428.41981132075205
 11
559.68632075471794
 21
422.81981132075214
  0
LINE
  8
_0-0_計極細
  6
CONTINUOUS
 62
    2
 10
572.68632075471805
 20
428.41981132075205
 11
572.68632075471805
 21
422.81981132075214
  0
LINE
  8
_0-0_計極細
  6
CONTINUOUS
 62
    2
 10
559.68632075471794
 20
445.41981132075301
 11
559.68632075471794
 21
439.81981132075259
  0
LINE
  8
_0-0_計極細
  6
CONTINUOUS
 62
    2
 10
572.68632075471805
 20
445.41981132075301
 11
572.68632075471805
 21
439.81981132075259
  0
LINE
  8
_0-0_計極細
  6
CONTINUOUS
 62
    2
 10
559.68632075471794
 20
462.41981132075347
 11
559.68632075471794
 21
456.8198113207535
  0
LINE
  8
_0-0_計極細
  6
CONTINUOUS
 62
    2
 10
572.68632075471805
 20
462.41981132075347
 11
572.68632075471805
 21
456.8198113207535
  0
LINE
  8
_0-0_計極細
  6
CONTINUOUS
 62
    2
 10
559.68632075471794
 20
479.41981132075432
 11
559.68632075471794
 21
473.81981132075396
  0
LINE
  8
_0-0_計極細
  6
CONTINUOUS
 62
    2
 10
572.68632075471805
 20
479.41981132075432
 11
572.68632075471805
 21
473.81981132075396
  0
LINE
  8
_0-0_計極細
  6
CONTINUOUS
 62
    2
 10
559.68632075471794
 20
496.41981132075477
 11
559.68632075471794
 21
490.81981132075492
  0
LINE
  8
_0-0_計極細
  6
CONTINUOUS
 62
    2
 10
572.68632075471805
 20
496.41981132075477
 11
572.68632075471805
 21
490.81981132075492
  0
LINE
  8
_0-0_計極細
  6
CONTINUOUS
 62
    2
 10
559.68632075471794
 20
581.21981132075405
 11
559.68632075471794
 21
575.81981132075396
  0
LINE
  8
_0-0_計極細
  6
CONTINUOUS
 62
    2
 10
572.68632075471805
 20
581.21981132075405
 11
572.68632075471805
 21
575.81981132075396
  0
LINE
  8
_0-0_計極細
  6
CONTINUOUS
 62
    2
 10
559.68632075471794
 20
304.01981132075423
 11
559.68632075471794
 21
309.41981132075387
  0
LINE
  8
_0-0_計極細
  6
CONTINUOUS
 62
    2
 10
572.68632075471805
 20
304.01981132075423
 11
572.68632075471805
 21
309.41981132075387
  0
LINE
  8
_0-0_計極細
  6
CENTER1
 62
    2
 10
566.18632075471794
 20
601.37053074521634
 11
566.18632075471794
 21
284.86198757974296
  0
LINE
  8
_0-0_計極細
  6
CONTINUOUS
 62
    2
 10
559.68632075471794
 20
513.41981132075387
 11
559.68632075471794
 21
507.81981132075401
  0
LINE
  8
_0-0_計極細
  6
CONTINUOUS
 62
    2
 10
572.68632075471805
 20
513.41981132075387
 11
572.68632075471805
 21
507.81981132075401
  0
LINE
  8
_0-0_計極細
  6
CONTINUOUS
 62
    2
 10
559.68632075471794
 20
530.41981132075296
 11
559.68632075471794
 21
524.81981132075305
  0
LINE
  8
_0-0_計極細
  6
CONTINUOUS
 62
    2
 10
572.68632075471805
 20
530.41981132075296
 11
572.68632075471805
 21
524.81981132075305
  0
LINE
  8
_0-0_計極細
  6
CONTINUOUS
 62
    2
 10
559.68632075471794
 20
547.41981132075216
 11
559.68632075471794
 21
541.81981132075214
  0
LINE
  8
_0-0_計極細
  6
CONTINUOUS
 62
    2
 10
572.68632075471805
 20
547.41981132075216
 11
572.68632075471805
 21
541.81981132075214
  0
LINE
  8
_0-0_計極細
  6
CONTINUOUS
 62
    2
 10
559.68632075471794
 20
564.41981132075114
 11
559.68632075471794
 21
558.81981132075123
  0
LINE
  8
_0-0_計極細
  6
CONTINUOUS
 62
    2
 10
572.68632075471805
 20
564.41981132075114
 11
572.68632075471805
 21
558.81981132075123
  0
LINE
  8
_0-0_計極細
  6
CONTINUOUS
 62
    2
 10
559.68632075471794
 20
371.81981132075532
 11
559.68632075471794
 21
377.41981132075523
  0
LINE
  8
_0-0_計極細
  6
CONTINUOUS
 62
    2
 10
572.68632075471805
 20
371.81981132075532
 11
572.68632075471805
 21
377.41981132075523
  0
LINE
  8
_0-0_計極細
  6
CONTINUOUS
 62
    2
 10
559.68632075471794
 20
354.81981132075623
 11
559.68632075471794
 21
360.41981132075614
  0
LINE
  8
_0-0_計極細
  6
CONTINUOUS
 62
    2
 10
572.68632075471805
 20
354.81981132075623
 11
572.68632075471805
 21
360.41981132075614
  0
LINE
  8
_0-0_計極細
  6
CONTINUOUS
 62
    2
 10
559.68632075471794
 20
337.81981132075714
 11
559.68632075471794
 21
343.41981132075711
  0
LINE
  8
_0-0_計極細
  6
CONTINUOUS
 62
    2
 10
572.68632075471805
 20
337.81981132075714
 11
572.68632075471805
 21
343.41981132075711
  0
LINE
  8
_0-0_計極細
  6
CONTINUOUS
 62
    2
 10
559.68632075471794
 20
320.81981132075805
 11
559.68632075471794
 21
326.41981132075796
  0
LINE
  8
_0-0_計極細
  6
CONTINUOUS
 62
    2
 10
572.68632075471805
 20
320.81981132075805
 11
572.68632075471805
 21
326.41981132075796
  0
LINE
  8
_0-5_寸法線
  6
CONTINUOUS
 62
    7
 10
316.68632075471805
 20
607.61981132075459
 11
316.68632075471839
 21
757.61981132075459
  0
LINE
  8
_0-5_寸法線
  6
CONTINUOUS
 62
    7
 10
316.68632075471839
 20
752.61981132075459
 11
326.34557901760905
 21
755.20800177177978
  0
LINE
  8
_0-5_寸法線
  6
CONTINUOUS
 62
    7
 10
316.68632075471839
 20
752.61981132075459
 11
326.34557901760905
 21
750.03162086972952
  0
LINE
  8
_0-5_寸法線
  6
CONTINUOUS
 62
    7
 10
626.68632075471839
 20
607.61981132075459
 11
626.68632075471839
 21
757.61981132075459
  0
LINE
  8
_0-5_寸法線
  6
CONTINUOUS
 62
    7
 10
626.68632075471839
 20
752.61981132075459
 11
617.02706249182768
 21
750.03162086972952
  0
LINE
  8
_0-5_寸法線
  6
CONTINUOUS
 62
    7
 10
626.68632075471839
 20
752.61981132075459
 11
617.02706249182768
 21
755.20800177177978
  0
LINE
  8
_0-5_寸法線
  6
CONTINUOUS
 62
    7
 10
316.68632075471839
 20
752.61981132075459
 11
626.68632075471839
 21
752.61981132075459
  0
TEXT
  8
_0-5_寸法線
 62
    7
 10
460.43632075471839
 20
752.61981132075459
 40
15
 41
1
 50
0
  1
310
  0
LINE
  8
_0-5_寸法線
  6
CONTINUOUS
 62
    7
 10
621.68632075471839
 20
607.61981132075459
 11
621.68632075471896
 21
687.61981132075459
  0
LINE
  8
_0-5_寸法線
  6
CONTINUOUS
 62
    7
 10
621.68632075471896
 20
682.61981132075459
 11
612.02706249182813
 21
680.03162086972952
  0
LINE
  8
_0-5_寸法線
  6
CONTINUOUS
 62
    7
 10
621.68632075471896
 20
682.61981132075459
 11
612.02706249182813
 21
685.20800177177978
  0
LINE
  8
_0-5_寸法線
  6
CONTINUOUS
 62
    7
 10
321.686320754718
 20
607.61981132075459
 11
321.68632075471839
 21
687.61981132075459
  0
LINE
  8
_0-5_寸法線
  6
CONTINUOUS
 62
    7
 10
321.68632075471839
 20
682.61981132075459
 11
331.34557901760905
 21
685.20800177177978
  0
LINE
  8
_0-5_寸法線
  6
CONTINUOUS
 62
    7
 10
321.68632075471839
 20
682.61981132075459
 11
331.34557901760905
 21
680.03162086972952
  0
LINE
  8
_0-5_寸法線
  6
CONTINUOUS
 62
    7
 10
621.68632075471896
 20
682.61981132075459
 11
321.68632075471839
 21
682.61981132075459
  0
TEXT
  8
_0-5_寸法線
 62
    7
 10
460.43632075471839
 20
682.61981132075459
 40
15
 41
1
 50
0
  1
300
  0
LINE
  8
_0-5_寸法線
  6
CONTINUOUS
 62
    7
 10
316.68632075471794
 20
607.61981132075459
 11
316.68632075471794
 21
722.61981132075459
  0
LINE
  8
_0-5_寸法線
  6
CONTINUOUS
 62
    7
 10
316.68632075471794
 20
717.61981132075459
 11
307.02706249182722
 21
715.03162086972952
  0
LINE
  8
_0-5_寸法線
  6
CONTINUOUS
 62
    7
 10
316.68632075471794
 20
717.61981132075459
 11
307.02706249182722
 21
720.20800177177978
  0
LINE
  8
_0-5_寸法線
  6
CONTINUOUS
 62
    7
 10
319.68632075471794
 20
607.61981132075459
 11
319.68632075471794
 21
722.61981132075459
  0
LINE
  8
_0-5_寸法線
  6
CONTINUOUS
 62
    7
 10
291.68632075471794
 20
717.61981132075459
 11
319.68632075471794
 21
717.61981132075459
  0
TEXT
  8
_0-5_寸法線
 62
    7
 10
293.497430516571
 20
717.61981132075459
 40
15
 41
1
 50
0
  1
3
  0
LINE
  8
_0-5_寸法線
  6
CONTINUOUS
 62
    7
 10
319.68632075471794
 20
717.61981132075459
 11
329.34557901760866
 21
720.20800177177978
  0
LINE
  8
_0-5_寸法線
  6
CONTINUOUS
 62
    7
 10
319.68632075471794
 20
717.61981132075459
 11
329.3455790176086
 21
715.0316208697293
  0
LINE
  8
_0-5_寸法線
  6
CONTINUOUS
 62
    7
 10
623.68632075471839
 20
607.61981132075448
 11
623.68632075471839
 21
722.61981132075459
  0
LINE
  8
_0-5_寸法線
  6
CONTINUOUS
 62
    7
 10
623.68632075471839
 20
717.61981132075459
 11
614.02706249182768
 21
715.03162086972952
  0
LINE
  8
_0-5_寸法線
  6
CONTINUOUS
 62
    7
 10
623.68632075471839
 20
717.61981132075459
 11
614.02706249182768
 21
720.20800177177978
  0
LINE
  8
_0-5_寸法線
  6
CONTINUOUS
 62
    7
 10
319.68632075471794
 20
717.61981132075459
 11
623.68632075471839
 21
717.61981132075459
  0
TEXT
  8
_0-5_寸法線
 62
    7
 10
460.43632075471839
 20
717.61981132075448
 40
15
 41
1
 50
0
  1
304
  0
LINE
  8
_0-5_寸法線
  6
CONTINUOUS
 62
    7
 10
626.68632075471839
 20
607.61981132075459
 11
626.68632075471839
 21
722.61981132075459
  0
LINE
  8
_0-5_寸法線
  6
CONTINUOUS
 62
    7
 10
626.68632075471839
 20
717.61981132075459
 11
636.34557901760911
 21
720.20800177177978
  0
LINE
  8
_0-5_寸法線
  6
CONTINUOUS
 62
    7
 10
626.68632075471839
 20
717.61981132075459
 11
636.34557901760911
 21
715.0316208697293
  0
LINE
  8
_0-5_寸法線
  6
CONTINUOUS
 62
    7
 10
623.68632075471839
 20
717.61981132075459
 11
651.68632075471851
 21
717.61981132075459
  0
TEXT
  8
_0-5_寸法線
 62
    7
 10
642.95792579959061
 20
717.61981132075459
 40
15
 41
1
 50
0
  1
3
  0
LINE
  8
_0-5_寸法線
  6
CONTINUOUS
 62
    7
 10
306.68632075471794
 20
287.61981132075465
 11
226.68632075471791
 21
287.61981132075493
  0
LINE
  8
_0-5_寸法線
  6
CONTINUOUS
 62
    7
 10
231.68632075471791
 20
287.61981132075493
 11
229.09813030369278
 21
297.27906958364559
  0
LINE
  8
_0-5_寸法線
  6
CONTINUOUS
 62
    7
 10
231.68632075471791
 20
287.61981132075493
 11
234.27451120574318
 21
297.27906958364559
  0
LINE
  8
_0-5_寸法線
  6
CONTINUOUS
 62
    7
 10
306.68632075471794
 20
597.61981132075459
 11
226.68632075471791
 21
597.61981132075482
  0
LINE
  8
_0-5_寸法線
  6
CONTINUOUS
 62
    7
 10
231.68632075471791
 20
597.61981132075482
 11
234.27451120574318
 21
587.9605530578641
  0
LINE
  8
_0-5_寸法線
  6
CONTINUOUS
 62
    7
 10
231.68632075471791
 20
597.61981132075482
 11
229.09813030369278
 21
587.9605530578641
  0
LINE
  8
_0-5_寸法線
  6
CONTINUOUS
 62
    7
 10
231.68632075471791
 20
287.61981132075493
 11
231.68632075471791
 21
597.61981132075482
  0
TEXT
  8
_0-5_寸法線
 62
    7
 10
231.68632075471791
 20
431.36981132075482
 40
15
 41
1
 50
89.999999999999815
  1
310
  0
LINE
  8
_0-5_寸法線
  6
CONTINUOUS
 62
    7
 10
306.68632075471794
 20
287.61981132075459
 11
261.68632075471794
 21
287.61981132075471
  0
LINE
  8
_0-5_寸法線
  6
CONTINUOUS
 62
    7
 10
266.68632075471794
 20
287.61981132075471
 11
269.27451120574318
 21
277.96055305786399
  0
LINE
  8
_0-5_寸法線
  6
CONTINUOUS
 62
    7
 10
266.68632075471794
 20
287.61981132075471
 11
264.0981303036927
 21
277.96055305786405
  0
LINE
  8
_0-5_寸法線
  6
CONTINUOUS
 62
    7
 10
306.68632075471794
 20
290.61981132075459
 11
261.68632075471794
 21
290.61981132075471
  0
CIRCLE
  8
_0-5_寸法線
  6
CONTINUOUS
 62
    1
 10
266.68632075471794
 20
290.61981132075471
 40
1.5000000000000002
  0
LINE
  8
_0-5_寸法線
  6
CONTINUOUS
 62
    7
 10
266.68632075471794
 20
262.61981132075471
 11
266.68632075471794
 21
290.61981132075471
  0
TEXT
  8
_0-5_寸法線
 62
    7
 10
266.68632075471794
 20
265.97869215015237
 40
15
 41
1
 50
90
  1
3
  0
LINE
  8
_0-5_寸法線
  6
CONTINUOUS
 62
    7
 10
306.68632075471794
 20
292.61981132075425
 11
261.68632075471794
 21
292.61981132075437
  0
LINE
  8
_0-5_寸法線
  6
CONTINUOUS
 62
    7
 10
266.68632075471794
 20
290.61981132075471
 11
266.68632075471794
 21
292.61981132075437
  0
TEXT
  8
_0-5_寸法線
 62
    7
 10
284.11358617694748
 20
295.77247163128925
 40
15
 41
1
 50
90
  1
2
  0
LINE
  8
_0-5_寸法線
  6
CONTINUOUS
 62
    7
 10
266.68632075471794
 20
292.61981132075437
 11
264.09813030369276
 21
302.27906958364503
  0
LINE
  8
_0-5_寸法線
  6
CONTINUOUS
 62
    7
 10
266.68632075471794
 20
292.61981132075437
 11
269.27451120574318
 21
302.27906958364503
  0
LINE
  8
_0-5_寸法線
  6
CONTINUOUS
 62
    7
 10
306.68632075471794
 20
592.6198113207555
 11
261.68632075471794
 21
592.61981132075562
  0
LINE
  8
_0-5_寸法線
  6
CONTINUOUS
 62
    7
 10
266.68632075471794
 20
592.61981132075562
 11
269.27451120574318
 21
582.9605530578649
  0
LINE
  8
_0-5_寸法線
  6
CONTINUOUS
 62
    7
 10
266.68632075471794
 20
592.61981132075562
 11
264.0981303036927
 21
582.9605530578649
  0
LINE
  8
_0-5_寸法線
  6
CONTINUOUS
 62
    7
 10
266.68632075471794
 20
292.61981132075437
 11
266.68632075471794
 21
592.61981132075562
  0
TEXT
  8
_0-5_寸法線
 62
    7
 10
266.68632075471794
 20
431.36981132075505
 40
15
 41
1
 50
90
  1
300
  0
LINE
  8
_0-5_寸法線
  6
CONTINUOUS
 62
    7
 10
306.68632075471794
 20
594.61981132075471
 11
261.68632075471794
 21
594.61981132075471
  0
CIRCLE
  8
_0-5_寸法線
  6
CONTINUOUS
 62
    1
 10
266.68632075471794
 20
594.61981132075471
 40
1.5000000000000002
  0
LINE
  8
_0-5_寸法線
  6
CONTINUOUS
 62
    7
 10
266.68632075471794
 20
592.61981132075562
 11
266.68632075471794
 21
594.61981132075471
  0
TEXT
  8
_0-5_寸法線
 62
    7
 10
283.10754254487199
 20
584.05895453222433
 40
15
 41
1
 50
90
  1
2
  0
LINE
  8
_0-5_寸法線
  6
CONTINUOUS
 62
    7
 10
306.68632075471794
 20
597.61981132075459
 11
261.68632075471794
 21
597.61981132075471
  0
LINE
  8
_0-5_寸法線
  6
CONTINUOUS
 62
    7
 10
266.68632075471794
 20
597.61981132075471
 11
264.09813030369276
 21
607.27906958364542
  0
LINE
  8
_0-5_寸法線
  6
CONTINUOUS
 62
    7
 10
266.68632075471794
 20
597.61981132075471
 11
269.27451120574318
 21
607.27906958364542
  0
LINE
  8
_0-5_寸法線
  6
CONTINUOUS
 62
    7
 10
266.68632075471794
 20
594.61981132075471
 11
266.68632075471794
 21
622.61981132075471
  0
TEXT
  8
_0-5_寸法線
 62
    7
 10
266.68632075471794
 20
611.72456479166192
 40
15
 41
1
 50
90
  1
3
  0
LINE
  8
_0-7_枠細線
  6
CONTINUOUS
 62
    5
 10
230.34335540952895
 20
682.56785947116191
 11
222.84335540952895
 21
697.56785947116191
  0
LINE
  8
_0-7_枠細線
  6
CONTINUOUS
 62
    5
 10
215.34335540952895
 20
682.56785947116191
 11
230.34335540952895
 21
682.56785947116191
  0
LINE
  8
_0-7_枠細線
  6
CONTINUOUS
 62
    5
 10
222.84335540952895
 20
697.56785947116191
 11
215.34335540952895
 21
682.56785947116191
  0
LINE
  8
_0-5_寸法線
  6
CONTINUOUS
 62
    7
 10
419.186320754718
 20
444.16755312334067
 11
411.76061242487407
 21
450.86522852605214
  0
LINE
  8
_0-5_寸法線
  6
CONTINUOUS
 62
    7
 10
419.186320754718
 20
444.16755312334067
 11
416.10430640133518
 21
453.68076433331294
  0
LINE
  8
_0-5_寸法線
  6
CONTINUOUS
 62
    7
 10
419.186320754718
 20
444.16755312334067
 11
276.33347726338468
 21
664.55510216230334
  0
LINE
  8
_0-5_寸法線
  6
CONTINUOUS
 62
    7
 10
276.33347726338468
 20
664.55510216230334
 11
216.33347726338471
 21
664.55510216230334
  0
TEXT
  8
_0-5_寸法線
 62
    7
 10
216.33347726338471
 20
664.55510216230334
 40
15
 41
0.8000000000000001
 50
0
  1
取　外　具
  0
LINE
  8
_0-1_計細線
  6
CONTINUOUS
 62
    3
 10
386.68632075471749
 20
440.26981132075468
 11
439.68632075471754
 21
440.26981132075468
  0
LINE
  8
_0-1_計細線
  6
CONTINUOUS
 62
    3
 10
439.68632075471754
 20
444.96981132075456
 11
386.68632075471749
 21
444.96981132075456
  0
LINE
  8
_0-1_計細線
  6
CONTINUOUS
 62
    3
 10
386.68632075471749
 20
444.96981132075456
 11
386.68632075471749
 21
440.26981132075468
  0
LINE
  8
_0-1_計細線
  6
CONTINUOUS
 62
    3
 10
429.68632075471754
 20
444.96981132075456
 11
429.68632075471754
 21
440.26981132075468
  0
LINE
  8
_0-1_計細線
  6
CONTINUOUS
 62
    3
 10
437.68632075471749
 20
444.96981132075456
 11
437.68632075471749
 21
440.26981132075468
  0
LINE
  8
_0-1_計細線
  6
CONTINUOUS
 62
    3
 10
439.68632075471754
 20
444.96981132075456
 11
439.68632075471754
 21
440.26981132075468
  0
LINE
  8
_0-1_計細線
  6
CONTINUOUS
 62
    3
 10
435.68632075471754
 20
444.96981132075456
 11
435.68632075471754
 21
440.26981132075468
  0
LINE
  8
_0-1_計細線
  6
CONTINUOUS
 62
    3
 10
433.68632075471749
 20
444.96981132075456
 11
433.68632075471749
 21
440.26981132075468
  0
LINE
  8
_0-1_計細線
  6
CONTINUOUS
 62
    3
 10
431.68632075471749
 20
444.96981132075456
 11
431.68632075471749
 21
440.26981132075468
  0
LINE
  8
_0-5_寸法線
  6
CONTINUOUS
 62
    7
 10
321.686320754718
 20
607.61981132075459
 11
321.686320754718
 21
652.61981132075459
  0
LINE
  8
_0-5_寸法線
  6
CONTINUOUS
 62
    7
 10
321.686320754718
 20
647.61981132075459
 11
331.34557901760866
 21
650.20800177177978
  0
LINE
  8
_0-5_寸法線
  6
CONTINUOUS
 62
    7
 10
321.686320754718
 20
647.61981132075459
 11
331.34557901760866
 21
645.03162086972952
  0
LINE
  8
_0-5_寸法線
  6
CONTINUOUS
 62
    7
 10
328.68632075471794
 20
607.61981132075459
 11
328.68632075471794
 21
652.61981132075459
  0
LINE
  8
_0-5_寸法線
  6
CONTINUOUS
 62
    7
 10
328.68632075471794
 20
647.61981132075459
 11
319.02706249182728
 21
645.03162086972952
  0
LINE
  8
_0-5_寸法線
  6
CONTINUOUS
 62
    7
 10
328.68632075471794
 20
647.61981132075459
 11
319.02706249182728
 21
650.20800177177978
  0
LINE
  8
_0-5_寸法線
  6
CONTINUOUS
 62
    7
 10
321.686320754718
 20
647.61981132075459
 11
336.18632075471794
 21
647.61981132075459
  0
TEXT
  8
_0-5_寸法線
 62
    7
 10
328.68632075471794
 20
630.99051766754883
 40
15
 41
1
 50
0
  1
7
  0
LINE
  8
_0-5_寸法線
  6
CONTINUOUS
 62
    7
 10
328.68632075471794
 20
647.61981132075459
 11
338.34557901760866
 21
650.20800177177978
  0
LINE
  8
_0-5_寸法線
  6
CONTINUOUS
 62
    7
 10
328.68632075471794
 20
647.61981132075459
 11
338.3455790176086
 21
645.0316208697293
  0
LINE
  8
_0-5_寸法線
  6
CONTINUOUS
 62
    7
 10
474.186320754718
 20
607.61981132075459
 11
474.186320754718
 21
652.61981132075459
  0
LINE
  8
_0-5_寸法線
  6
CONTINUOUS
 62
    7
 10
474.186320754718
 20
647.61981132075459
 11
464.52706249182722
 21
645.03162086972952
  0
LINE
  8
_0-5_寸法線
  6
CONTINUOUS
 62
    7
 10
474.186320754718
 20
647.61981132075459
 11
464.52706249182734
 21
650.20800177177978
  0
LINE
  8
_0-5_寸法線
  6
CONTINUOUS
 62
    7
 10
328.68632075471794
 20
647.61981132075459
 11
474.186320754718
 21
647.61981132075459
  0
TEXT
  8
_0-5_寸法線
 62
    7
 10
356.43632075471794
 20
647.61981132075459
 40
15
 41
1
 50
0
  1
3@48.5=145.5
  0
LINE
  8
_0-5_寸法線
  6
CONTINUOUS
 62
    7
 10
474.186320754718
 20
647.61981132075459
 11
483.84557901760871
 21
650.20800177177978
  0
LINE
  8
_0-5_寸法線
  6
CONTINUOUS
 62
    7
 10
474.186320754718
 20
647.61981132075459
 11
483.84557901760866
 21
645.0316208697293
  0
LINE
  8
_0-5_寸法線
  6
CONTINUOUS
 62
    7
 10
517.68632075471805
 20
607.61981132075459
 11
517.68632075471805
 21
652.61981132075459
  0
LINE
  8
_0-5_寸法線
  6
CONTINUOUS
 62
    7
 10
517.68632075471805
 20
647.61981132075459
 11
508.02706249182728
 21
645.03162086972952
  0
LINE
  8
_0-5_寸法線
  6
CONTINUOUS
 62
    7
 10
517.68632075471805
 20
647.61981132075459
 11
508.02706249182734
 21
650.20800177177978
  0
LINE
  8
_0-5_寸法線
  6
CONTINUOUS
 62
    7
 10
474.186320754718
 20
647.61981132075459
 11
517.68632075471805
 21
647.61981132075459
  0
TEXT
  8
_0-5_寸法線
 62
    7
 10
480.93632075471794
 20
647.61981132075448
 40
15
 41
1
 50
0
  1
43.5
  0
LINE
  8
_0-5_寸法線
  6
CONTINUOUS
 62
    7
 10
517.68632075471805
 20
647.61981132075459
 11
527.34557901760866
 21
650.20800177177978
  0
LINE
  8
_0-5_寸法線
  6
CONTINUOUS
 62
    7
 10
517.68632075471805
 20
647.61981132075459
 11
527.34557901760866
 21
645.0316208697293
  0
LINE
  8
_0-5_寸法線
  6
CONTINUOUS
 62
    7
 10
614.68632075471851
 20
607.61981132075459
 11
614.68632075471851
 21
652.61981132075459
  0
LINE
  8
_0-5_寸法線
  6
CONTINUOUS
 62
    7
 10
614.68632075471851
 20
647.61981132075459
 11
605.02706249182768
 21
645.03162086972952
  0
LINE
  8
_0-5_寸法線
  6
CONTINUOUS
 62
    7
 10
614.68632075471851
 20
647.61981132075459
 11
605.02706249182768
 21
650.20800177177978
  0
LINE
  8
_0-5_寸法線
  6
CONTINUOUS
 62
    7
 10
517.68632075471805
 20
647.61981132075459
 11
614.68632075471851
 21
647.61981132075459
  0
TEXT
  8
_0-5_寸法線
 62
    7
 10
532.43632075471839
 20
647.61981132075459
 40
15
 41
1
 50
0
  1
2@48.5=97
  0
LINE
  8
_0-5_寸法線
  6
CONTINUOUS
 62
    7
 10
614.68632075471851
 20
647.61981132075459
 11
624.34557901760911
 21
650.20800177177978
  0
LINE
  8
_0-5_寸法線
  6
CONTINUOUS
 62
    7
 10
614.68632075471851
 20
647.61981132075459
 11
624.34557901760911
 21
645.0316208697293
  0
LINE
  8
_0-5_寸法線
  6
CONTINUOUS
 62
    7
 10
621.68632075471839
 20
607.61981132075459
 11
621.68632075471839
 21
652.61981132075459
  0
LINE
  8
_0-5_寸法線
  6
CONTINUOUS
 62
    7
 10
621.68632075471839
 20
647.61981132075459
 11
612.02706249182768
 21
645.03162086972952
  0
LINE
  8
_0-5_寸法線
  6
CONTINUOUS
 62
    7
 10
621.68632075471839
 20
647.61981132075459
 11
612.02706249182768
 21
650.20800177177978
  0
LINE
  8
_0-5_寸法線
  6
CONTINUOUS
 62
    7
 10
606.32221408340445
 20
647.61981132075459
 11
621.68632075471839
 21
647.61981132075459
  0
TEXT
  8
_0-5_寸法線
 62
    7
 10
606.32221408340445
 20
631.0679056392471
 40
15
 41
1
 50
0
  1
7
  0
TEXT
  8
_0-5_寸法線
 62
    7
 10
666.28609344444828
 20
382.64155262295526
 40
15
 41
0.8000000000000001
 50
0
  1
ＧＳＬ－２５
  0
TEXT
  8
_0-7_枠細線
 62
    5
 10
1048.3183185720404
 20
534.31384995605549
 40
25
 41
0.8
 50
0
  1
断面詳細図
  0
TEXT
  8
_0-7_枠細線
 62
    5
 10
1163.2672883212083
 20
536.8096120433197
 40
20
 41
0.6
 50
0
  1
Ｓ＝１：５
  0
LINE
  8
_0-7_枠細線
  6
CONTINUOUS
 62
    5
 10
370.58172109717276
 20
665.41883756523703
 11
363.08172109717276
 21
680.41883756523703
  0
LINE
  8
_0-7_枠細線
  6
CONTINUOUS
 62
    5
 10
355.58172109717276
 20
665.41883756523703
 11
370.58172109717276
 21
665.41883756523703
  0
LINE
  8
_0-7_枠細線
  6
CONTINUOUS
 62
    5
 10
363.08172109717276
 20
680.41883756523703
 11
355.58172109717276
 21
665.41883756523703
  0
TEXT
  8
_0-5_寸法線
 62
    7
 10
216.63742710745183
 20
649.55510216230334
 40
15
 41
0.8000000000000001
 50
0
  1
(標準付属)
  0
LINE
  8
_0-5_寸法線
  6
CONTINUOUS
 62
    7
 10
1027.2265603303254
 20
699.29582880040857
 11
1027.2265603303254
 21
746.29582880040846
  0
LINE
  8
_0-5_寸法線
  6
CONTINUOUS
 62
    7
 10
1027.2265603303254
 20
741.29582880040846
 11
1017.5673020674346
 21
738.70763834938316
  0
LINE
  8
_0-5_寸法線
  6
CONTINUOUS
 62
    7
 10
1027.2265603303254
 20
741.29582880040846
 11
1017.5673020674346
 21
743.88401925143353
  0
LINE
  8
_0-5_寸法線
  6
CONTINUOUS
 62
    7
 10
1032.8265603328946
 20
699.29582880040857
 11
1032.8265603328946
 21
746.29582880040846
  0
LINE
  8
_0-5_寸法線
  6
CONTINUOUS
 62
    7
 10
987.8526046471585
 20
741.29582880040846
 11
1032.8265603328946
 21
741.29582880040846
  0
TEXT
  8
_0-5_寸法線
 62
    7
 10
987.8526046471585
 20
726.29582880040846
 40
15
 41
1
 50
0
  1
(5.6)
  0
LINE
  8
_0-5_寸法線
  6
CONTINUOUS
 62
    7
 10
1032.8265603328946
 20
741.29582880040846
 11
1042.4858185957853
 21
743.88401925143353
  0
LINE
  8
_0-5_寸法線
  6
CONTINUOUS
 62
    7
 10
1032.8265603328946
 20
741.29582880040846
 11
1042.4858185957853
 21
738.70763834938316
  0
LINE
  8
_0-5_寸法線
  6
CONTINUOUS
 62
    7
 10
1044.2265603306869
 20
699.29582880040857
 11
1044.2265603306869
 21
746.29582880040846
  0
LINE
  8
_0-5_寸法線
  6
CONTINUOUS
 62
    7
 10
1044.2265603306869
 20
741.29582880040846
 11
1034.5673020677962
 21
738.70763834938316
  0
LINE
  8
_0-5_寸法線
  6
CONTINUOUS
 62
    7
 10
1044.2265603306869
 20
741.29582880040846
 11
1034.5673020677962
 21
743.88401925143353
  0
LINE
  8
_0-5_寸法線
  6
CONTINUOUS
 62
    7
 10
1032.8265603328946
 20
741.29582880040846
 11
1044.2265603306869
 21
741.29582880040846
  0
TEXT
  8
_0-5_寸法線
 62
    7
 10
1019.7618639054408
 20
741.29582880040846
 40
15
 41
1
 50
0
  1
11.4
  0
LINE
  8
_0-5_寸法線
  6
CONTINUOUS
 62
    7
 10
1140.5265603339612
 20
701.29582880040846
 11
1140.5265603339612
 21
746.29582880040846
  0
LINE
  8
_0-5_寸法線
  6
CONTINUOUS
 62
    7
 10
1140.5265603339612
 20
741.29582880040846
 11
1150.185818596852
 21
743.88401925143353
  0
LINE
  8
_0-5_寸法線
  6
CONTINUOUS
 62
    7
 10
1140.5265603339612
 20
741.29582880040846
 11
1150.185818596852
 21
738.70763834938316
  0
LINE
  8
_0-5_寸法線
  6
CONTINUOUS
 62
    7
 10
1157.5265603343228
 20
701.29582880040846
 11
1157.5265603343228
 21
746.29582880040846
  0
LINE
  8
_0-5_寸法線
  6
CONTINUOUS
 62
    7
 10
1157.5265603343228
 20
741.29582880040846
 11
1147.8673020714321
 21
738.70763834938316
  0
LINE
  8
_0-5_寸法線
  6
CONTINUOUS
 62
    7
 10
1157.5265603343228
 20
741.29582880040846
 11
1147.8673020714321
 21
743.88401925143353
  0
LINE
  8
_0-5_寸法線
  6
CONTINUOUS
 62
    7
 10
1140.5265603339612
 20
741.29582880040846
 11
1157.5265603343228
 21
741.29582880040846
  0
TEXT
  8
_0-5_寸法線
 62
    7
 10
1132.8705830415374
 20
726.29582880040846
 40
15
 41
1
 50
0
  1
(17)
  0
LINE
  8
_0-5_寸法線
  6
CONTINUOUS
 62
    7
 10
1157.5265603343228
 20
741.29582880040846
 11
1167.1858185972135
 21
743.88401925143353
  0
LINE
  8
_0-5_寸法線
  6
CONTINUOUS
 62
    7
 10
1157.5265603343228
 20
741.29582880040846
 11
1167.1858185972135
 21
738.70763834938305
  0
LINE
  8
_0-5_寸法線
  6
CONTINUOUS
 62
    7
 10
1174.5265603346843
 20
701.29582880040846
 11
1174.5265603346843
 21
746.29582880040846
  0
LINE
  8
_0-5_寸法線
  6
CONTINUOUS
 62
    7
 10
1174.5265603346843
 20
741.29582880040846
 11
1164.8673020717936
 21
738.70763834938316
  0
LINE
  8
_0-5_寸法線
  6
CONTINUOUS
 62
    7
 10
1174.5265603346843
 20
741.29582880040846
 11
1164.8673020717936
 21
743.88401925143353
  0
LINE
  8
_0-5_寸法線
  6
CONTINUOUS
 62
    7
 10
1157.5265603343228
 20
741.29582880040846
 11
1174.5265603346843
 21
741.29582880040846
  0
TEXT
  8
_0-5_寸法線
 62
    7
 10
1151.9372497079626
 20
741.29582880040846
 40
15
 41
1
 50
0
  1
(17)
  0
LINE
  8
_0-5_寸法線
  6
CONTINUOUS
 62
    7
 10
1081.334727370074
 20
672.03181198739389
 11
1061.8888486454316
 21
685.6479628575006
  0
LINE
  8
_0-5_寸法線
  6
CONTINUOUS
 62
    7
 10
1065.9846088668764
 20
682.78008067574535
 11
1063.3964184158513
 21
692.43933893863618
  0
LINE
  8
_0-5_寸法線
  6
CONTINUOUS
 62
    7
 10
1065.9846088668764
 20
682.78008067574535
 11
1068.5727993179016
 21
692.43933893863618
  0
LINE
  8
_0-5_寸法線
  6
CONTINUOUS
 62
    7
 10
1081.334727370074
 20
697.03181198739401
 11
1061.8888486454314
 21
710.64796285750049
  0
LINE
  8
_0-5_寸法線
  6
CONTINUOUS
 62
    7
 10
1065.9846088668764
 20
707.78008067574535
 11
1068.5727993179016
 21
698.12082241285452
  0
LINE
  8
_0-5_寸法線
  6
CONTINUOUS
 62
    7
 10
1065.9846088668764
 20
707.78008067574535
 11
1063.3964184158513
 21
698.12082241285452
  0
LINE
  8
_0-5_寸法線
  6
CONTINUOUS
 62
    7
 10
1065.9846088668764
 20
682.78008067574535
 11
1065.9846088668764
 21
707.78008067574535
  0
TEXT
  8
_0-5_寸法線
 62
    7
 10
1065.9846088668764
 20
687.78008067574501
 40
15
 41
1
 50
90
  1
25
  0
TEXT
  8
_0-7_枠細線
 62
    5
 10
1180
 20
892.5
 40
12.5
 41
0.7199999999999999
 50
0
  1
２０２０．１０．０１
  0
TEXT
  8
_0-7_枠細線
 62
    5
 10
938.85037037037023
 20
910
 40
12.5
 41
1
 50
0
  1
クロスバーピッチ変更
  0
TEXT
  8
_0-7_枠細線
 62
    5
 10
938.85037037037023
 20
892.5
 40
12.5
 41
1
 50
0
  1
取外具形状変更
  0
TEXT
  8
_0-7_枠細線
 62
    5
 10
357.94687236532093
 20
665.11183531985648
 40
12.5
 41
0.8
 50
0
  1
２
  0
TEXT
  8
_0-7_枠細線
 62
    5
 10
217.70850667767704
 20
682.26085722578136
 40
12.5
 41
0.8
 50
0
  1
３
  0
ENDSEC
  0
EOF
