  0
SECTION
  2
HEADER
  9
$ACADVER
  1
AC1009
  9
$INSBASE
 10
0
 20
0
 30
0
  9
$EXTMIN
 10
0
 20
0
  9
$EXTMAX
 10
1485
 20
1050
  9
$LIMMIN
 10
0
 20
0
  9
$LIMMAX
 10
1485
 20
1050
  9
$LTSCALE
 40
5
  0
ENDSEC
  0
SECTION
  2
TABLES
  0
TABLE
  2
LTYPE
 70
     9
  0
LTYPE
  2
CONTINUOUS
 70
    64
  3
実線
 72
    65
 73
     0
 40
0.0
  0
LTYPE
  2
DASHED1
 70
    64
  3
--  --  --  --  --  --  --  --  
 72
    65
 73
     2
 40
2.5
 49
1.25
 49
-1.25
  0
LTYPE
  2
DASHED2
 70
    64
  3
----    ----    ----    ----    
 72
    65
 73
     2
 40
5.0
 49
2.5
 49
-2.5
  0
LTYPE
  2
DASHED3
 70
    64
  3
------  ------  ------  ------  
 72
    65
 73
     2
 40
5.0
 49
3.75
 49
-1.25
  0
LTYPE
  2
CENTER1
 70
    64
  3
----- - ----- - ----- - ----- - 
 72
    65
 73
     4
 40
10.0
 49
6.25
 49
-1.25
 49
1.25
 49
-1.25
  0
LTYPE
  2
CENTER2
 70
    64
  3
----------  --  ----------  --  
 72
    65
 73
     4
 40
20.0
 49
12.5
 49
-2.5
 49
2.5
 49
-2.5
  0
LTYPE
  2
PHANTOM1
 70
    64
  3
--- - - --- - - --- - - --- - - 
 72
    65
 73
     6
 40
10.0
 49
3.25
 49
-1.25
 49
1.25
 49
-1.25
 49
1.25
 49
-1.25
  0
LTYPE
  2
PHANTOM2
 70
    64
  3
--------  -  -  --------  -  -  
 72
    65
 73
     6
 40
20.0
 49
10.0
 49
-2.5
 49
1.25
 49
-2.5
 49
1.25
 49
-2.5
  0
LTYPE
  2
DOT
 70
    64
  3
-   -   -   -   -   -   -   -   
 72
    65
 73
     2
 40
2.5
 49
0.625
 49
-1.875
  0
LTYPE
  2
DUMMY
 70
    64
  3
ダミー
 72
    65
 73
     0
 40
0.0
  0
LTYPE
  2
RAND1
 70
    64
  3
ランダム線1
 72
    65
 73
     4
 40
10.0
 49
1.0
 49
-2.0
 49
3.0
 49
-4.0
  0
LTYPE
  2
RAND2
 70
    64
  3
ランダム線2
 72
    65
 73
     4
 40
14.0
 49
2.0
 49
-3.0
 49
4.0
 49
-5.0
  0
LTYPE
  2
RAND3
 70
    64
  3
ランダム線3
 72
    65
 73
     4
 40
18.0
 49
3.0
 49
-4.0
 49
5.0
 49
-6.0
  0
LTYPE
  2
RAND4
 70
    64
  3
ランダム線4
 72
    65
 73
     4
 40
22.0
 49
4.0
 49
-5.0
 49
6.0
 49
-7.0
  0
LTYPE
  2
RAND5
 70
    64
  3
ランダム線5
 72
    65
 73
     4
 40
26.0
 49
5.0
 49
-6.0
 49
7.0
 49
-8.0
  0
LTYPE
  2
LONG1
 70
    64
  3
----------  --  ----------  --  
 72
    65
 73
     4
 40
40.0
 49
32.5
 49
-2.5
 49
2.5
 49
-2.5
  0
LTYPE
  2
LONG2
 70
    64
  3
--------  -  -  --------  -  -  
 72
    65
 73
     6
 40
40.0
 49
30.0
 49
-2.5
 49
1.25
 49
-2.5
 49
1.25
 49
-2.5
  0
LTYPE
  2
LONG3
 70
    64
  3
+++++++++++++++..+++++++++++++++
 72
    65
 73
     2
 40
40.0
 49
37.5
 49
-2.5
  0
LTYPE
  2
LONG4
 70
    64
  3
+++++++++++++++..+++++++++++++++
 72
    65
 73
     2
 40
80.0
 49
75.0
 49
-5.0
  0
LTYPE
  2
LONG5
 70
    64
  3
----------  --  ----------  --  
 72
    65
 73
     4
 40
60.0
 49
37.5
 49
-7.5
 49
7.5
 49
-7.5
  0
LTYPE
  2
dashed
 70
   64
  3
-------   -------------   ------
 72
   65
 73
    2
 40
7.5
 49
6
 49
-1.5
  0
LTYPE
  2
dashed_spaced
 70
   64
  3
----        --------        ----
 72
   65
 73
    2
 40
12
 49
6
 49
-6
  0
LTYPE
  2
long_dashed_dotted
 70
   64
  3
------------- --- --------------
 72
   65
 73
    4
 40
15.25
 49
12
 49
-1.5
 49
0.25
 49
-1.5
  0
LTYPE
  2
long_dashed_double-dotted
 70
   64
  3
----------- --- --- ------------
 72
   65
 73
    6
 40
17
 49
12
 49
-1.5
 49
0.25
 49
-1.5
 49
0.25
 49
-1.5
  0
LTYPE
  2
long_dashed_triplicate-dotted
 70
   64
  3
--------- --- --- --- ----------
 72
   65
 73
    8
 40
18.75
 49
12
 49
-1.5
 49
0.25
 49
-1.5
 49
0.25
 49
-1.5
 49
0.25
 49
-1.5
  0
LTYPE
  2
dotted
 70
   64
  3
   -       -       -       -    
 72
   65
 73
    2
 40
1.75
 49
0.25
 49
-1.5
  0
LTYPE
  2
chain
 70
   64
  3
-------------- -- --------------
 72
   65
 73
    4
 40
18.5
 49
12
 49
-1.5
 49
3.5
 49
-1.5
  0
LTYPE
  2
chain_double_dash
 70
   64
  3
------------ -- -- -------------
 72
   65
 73
    6
 40
23.5
 49
12
 49
-1.5
 49
3.5
 49
-1.5
 49
3.5
 49
-1.5
  0
LTYPE
  2
dashed_dotted
 70
   64
  3
-----------     -     ----------
 72
   65
 73
    4
 40
9.25
 49
6
 49
-1.5
 49
0.25
 49
-1.5
  0
LTYPE
  2
double-dashed_dotted
 70
   64
  3
------   -----------   -   -----
 72
   65
 73
    6
 40
16.75
 49
6
 49
-1.5
 49
6
 49
-1.5
 49
0.25
 49
-1.5
  0
LTYPE
  2
dashed_double-dotted
 70
   64
  3
---------    -    -    ---------
 72
   65
 73
    6
 40
11
 49
6
 49
-1.5
 49
0.25
 49
-1.5
 49
0.25
 49
-1.5
  0
LTYPE
  2
double-dashed_double-dotted
 70
   64
  3
-----   ---------   -   -   ----
 72
   65
 73
    8
 40
18.5
 49
6
 49
-1.5
 49
6
 49
-1.5
 49
0.25
 49
-1.5
 49
0.25
 49
-1.5
  0
LTYPE
  2
dashed_triplicate-dotted
 70
   64
  3
-------    -    -    -    ------
 72
   65
 73
    8
 40
12.75
 49
6
 49
-1.5
 49
0.25
 49
-1.5
 49
0.25
 49
-1.5
 49
0.25
 49
-1.5
  0
LTYPE
  2
double-dashed_triplicate-dotted
 70
   64
  3
-----  ---------  -  -  -  -----
 72
   65
 73
   10
 40
20.25
 49
6
 49
-1.5
 49
6
 49
-1.5
 49
0.25
 49
-1.5
 49
0.25
 49
-1.5
 49
0.25
 49
-1.5
  0
LTYPE
  2
undefined
 70
   64
  3
--------------------------------
 72
   65
 73
    0
 40
0
  0
ENDTAB
  0
TABLE
  2
STYLE
  5
3
100
AcDbSymbolTable
 70
     1
  0
STYLE
  5
10
100
AcDbSymbolTableRecord
100
AcDbTextStyleTableRecord
  2
STANDARD
 70
     0
 40
0.0
 41
1.0
 50
0.0
 71
     0
 42
0.2
  3
txt
  4
bigfont.shx
  0
STYLE
  5
26
100
AcDbSymbolTableRecord
100
AcDbTextStyleTableRecord
  2
TATEGAKI
 70
    68
 40
0.0
 41
1.0
 50
0.0
 71
     0
 42
1.0
  3
txt
  4
bigfont.shx
  0
ENDTAB
  0
TABLE
  2
LAYER
 70
    7
  0
LAYER
  2
_0-0_計極細
 70
   64
 62
    7
  6
CONTINUOUS
  0
LAYER
  2
_0-1_計細線
 70
   64
 62
    7
  6
CONTINUOUS
  0
LAYER
  2
_0-5_寸法線
 70
   64
 62
    7
  6
CONTINUOUS
  0
LAYER
  2
_0-7_枠細線
 70
   64
 62
    7
  6
CONTINUOUS
  0
LAYER
  2
_0-8_枠中線
 70
   64
 62
    7
  6
CONTINUOUS
  0
LAYER
  2
_0-9_枠極太
 70
   64
 62
    7
  6
CONTINUOUS
  0
LAYER
  2
ADD_LINE
 70
   64
 62
    7
  6
CONTINUOUS
  0
ENDTAB
  0
ENDSEC
  0
SECTION
  2
BLOCKS
  0
ENDSEC
  0
SECTION
  2
ENTITIES
  0
LINE
  8
_0-7_枠細線
  6
CONTINUOUS
 62
    5
 10
1185
 20
180
 11
1185
 21
100
  0
TEXT
  8
_0-7_枠細線
 62
    5
 10
937.5
 20
97.5
 40
17.5
 41
1
 50
0
  1
備考
  7
TATEGAKI
  0
TEXT
  8
_0-7_枠細線
 62
    5
 10
937.5
 20
137.5
 40
17.5
 41
1
 50
0
  1
品番
  7
TATEGAKI
  0
TEXT
  8
_0-7_枠細線
 62
    5
 10
937.5
 20
177.5
 40
17.5
 41
1
 50
0
  1
品名
  7
TATEGAKI
  0
LINE
  8
_0-7_枠細線
  6
CONTINUOUS
 62
    5
 10
1185
 20
140
 11
925
 21
140
  0
LINE
  8
_0-7_枠細線
  6
CONTINUOUS
 62
    5
 10
950
 20
180
 11
950
 21
60
  0
LINE
  8
_0-8_枠中線
  6
CONTINUOUS
 62
    5
 10
1425
 20
180
 11
925
 21
180
  0
LINE
  8
_0-8_枠中線
  6
CONTINUOUS
 62
    5
 10
925
 20
180
 11
925
 21
60
  0
LINE
  8
_0-7_枠細線
  6
CONTINUOUS
 62
    5
 10
1245
 20
180
 11
1245
 21
60
  0
TEXT
  8
_0-7_枠細線
 62
    5
 10
1192.5
 20
160
 40
15
 41
1
 50
0
  1
縮　尺
  0
LINE
  8
_0-7_枠細線
  6
CONTINUOUS
 62
    5
 10
1185
 20
155
 11
1245
 21
155
  0
LINE
  8
_0-7_枠細線
  6
CONTINUOUS
 62
    5
 10
1245
 20
100
 11
925
 21
100
  0
LINE
  8
_0-7_枠細線
  6
CONTINUOUS
 62
    5
 10
1425
 20
90
 11
1245
 21
90
  0
LINE
  8
_0-7_枠細線
  6
CONTINUOUS
 62
    5
 10
1245
 20
120
 11
1425
 21
120
  0
LINE
  8
_0-7_枠細線
  6
CONTINUOUS
 62
    5
 10
1425
 20
140
 11
1245
 21
140
  0
TEXT
  8
_0-7_枠細線
 62
    5
 10
1255
 20
147.5
 40
25
 41
0.8
 50
0
  1
株式会社シマブン
  0
TEXT
  8
_0-7_枠細線
 62
    5
 10
1252.5
 20
60
 40
15
 41
1
 50
0
  1
年月日
  0
TEXT
  8
_0-7_枠細線
 62
    5
 10
1252.5
 20
75
 40
15
 41
1
 50
0
  1
作　成
  0
TEXT
  8
_0-7_枠細線
 62
    5
 10
1256.25
 20
122.5
 40
15
 41
1
 50
0
  1
承 認
  0
LINE
  8
_0-7_枠細線
  6
CONTINUOUS
 62
    5
 10
1305
 20
140
 11
1305
 21
60
  0
TEXT
  8
_0-7_枠細線
 62
    5
 10
1316.25
 20
122.5
 40
15
 41
1
 50
0
  1
検 図
  0
LINE
  8
_0-7_枠細線
  6
CONTINUOUS
 62
    5
 10
1365
 20
140
 11
1365
 21
90
  0
TEXT
  8
_0-7_枠細線
 62
    5
 10
1375
 20
95
 40
20
 41
1
 50
0
  1
藤戸
  0
TEXT
  8
_0-7_枠細線
 62
    5
 10
1376.25
 20
122.5
 40
15
 41
1
 50
0
  1
設 計
  0
TEXT
  8
_0-7_枠細線
 62
    5
 10
1193.9999999999998
 20
117.5
 40
20
 41
0.7000000000000001
 50
0
  1
１：５
  0
TEXT
  8
_0-7_枠細線
 62
    5
 10
960.5
 20
158.74999999999994
 40
20.000000000000007
 41
0.5999999999999998
 50
0
  1
セーフティグレーチングＨ２５タイプ
  0
TEXT
  8
_0-7_枠細線
 62
    5
 10
1068.5
 20
141.25
 40
20.000000000000007
 41
0.5999999999999998
 50
0
  1
集水マス　補強仕様
  0
TEXT
  8
_0-7_枠細線
 62
    5
 10
960.5
 20
69.999999999999858
 40
20
 41
0.5999999999999998
 50
0
  1
色については表参照のこと
  0
LINE
  8
_0-0_計極細
  6
CONTINUOUS
 62
    2
 10
900.66487216364806
 20
691.2960478014154
 11
842.15822387657931
 21
691.2960478014154
  0
LINE
  8
_0-0_計極細
  6
CONTINUOUS
 62
    2
 10
1310.6648721636479
 20
691.2960478014154
 11
1369.1715204507168
 21
691.2960478014154
  0
LINE
  8
_0-0_計極細
  6
CENTER1
 62
    2
 10
1311.8648721636482
 20
680.09582880040784
 11
897.65340239912916
 21
680.09582880040784
  0
LINE
  8
_0-0_計極細
  6
CENTER1
 62
    2
 10
1105.6648721636482
 20
661.58455011014507
 11
1105.6648721636482
 21
699.65455011014888
  0
CIRCLE
  8
_0-0_計極細
  6
CONTINUOUS
 62
    2
 10
1315.4350158417367
 20
675.00198294029974
 40
0.3318518518518431
  0
CIRCLE
  8
_0-0_計極細
  6
CONTINUOUS
 62
    2
 10
882.77279361951628
 20
679.5306866440028
 40
1.0953188836088352
  0
LINE
  8
_0-0_計極細
  6
CONTINUOUS
 62
    2
 10
890.36368035706971
 20
684.29604779773877
 11
895.66487216364806
 21
689.59723960431711
  0
LINE
  8
_0-0_計極細
  6
CONTINUOUS
 62
    2
 10
877.63575828688499
 20
684.29604778891212
 11
884.63575829938804
 21
691.29604780141494
  0
LINE
  8
_0-0_計極細
  6
CONTINUOUS
 62
    2
 10
864.90783621670016
 20
684.29604778008525
 11
871.90783623803043
 21
691.2960478014154
  0
LINE
  8
_0-0_計極細
  6
CONTINUOUS
 62
    2
 10
852.17991414651578
 20
684.29604777125837
 11
859.17991417667236
 21
691.2960478014154
  0
LINE
  8
_0-0_計極細
  6
CONTINUOUS
 62
    2
 10
842.15822387657931
 20
687.00227956267986
 11
846.45199211531451
 21
691.29604780141494
  0
LINE
  8
_0-0_計極細
  6
DASHED2
 62
    2
 10
883.99971932197741
 20
684.29604779332522
 11
890.99971933006736
 21
691.2960478014154
  0
LINE
  8
_0-0_計極細
  6
DASHED2
 62
    2
 10
871.27179725179258
 20
684.29604778449857
 11
878.27179726870952
 21
691.2960478014154
  0
LINE
  8
_0-0_計極細
  6
DASHED2
 62
    2
 10
858.5438751816082
 20
684.29604777567192
 11
865.54387520735133
 21
691.2960478014154
  0
LINE
  8
_0-0_計極細
  6
DASHED2
 62
    2
 10
845.81595311142325
 20
684.29604776684528
 11
852.81595314599326
 21
691.2960478014154
  0
LINE
  8
_0-0_計極細
  6
CONTINUOUS
 62
    2
 10
900.54601800983232
 20
684.29604780141517
 11
900.66487216364771
 21
684.41490195523079
  0
LINE
  8
_0-0_計極細
  6
CONTINUOUS
 62
    2
 10
898.00043359756103
 20
684.29604780141517
 11
900.66487216364806
 21
686.96048636750197
  0
LINE
  8
_0-0_計極細
  6
CONTINUOUS
 62
    2
 10
895.66487216364806
 20
684.50607077977361
 11
900.66487216364806
 21
689.50607077977361
  0
LINE
  8
_0-0_計極細
  6
CONTINUOUS
 62
    2
 10
895.66487216364806
 20
687.05165519204547
 11
899.90926477301764
 21
691.2960478014154
  0
LINE
  8
_0-0_計極細
  6
CONTINUOUS
 62
    2
 10
895.66487216364806
 20
689.59723960431711
 11
897.36368036074612
 21
691.2960478014154
  0
LINE
  8
_0-0_計極細
  6
CONTINUOUS
 62
    2
 10
900.66487216364806
 20
689.92746767805988
 11
899.296292040293
 21
691.2960478014154
  0
LINE
  8
_0-0_計極細
  6
CONTINUOUS
 62
    2
 10
900.66487216364806
 20
687.38188326578825
 11
896.75070762802136
 21
691.2960478014154
  0
LINE
  8
_0-0_計極細
  6
CONTINUOUS
 62
    2
 10
895.66487216364806
 20
689.83629885351684
 11
900.66487216364806
 21
684.83629885351684
  0
LINE
  8
_0-0_計極細
  6
CONTINUOUS
 62
    2
 10
895.66487216364806
 20
687.2907144412452
 11
898.65953880347774
 21
684.29604780141517
  0
LINE
  8
_0-0_計極細
  6
CONTINUOUS
 62
    2
 10
895.66487216364806
 20
684.74513002897356
 11
896.11395439120645
 21
684.29604780141517
  0
LINE
  8
_0-0_計極細
  6
CONTINUOUS
 62
    2
 10
900.66487216364806
 20
690.79604780141494
 11
900.66487216364806
 21
691.2960478014154
  0
LINE
  8
_0-0_計極細
  6
CONTINUOUS
 62
    2
 10
900.66487216364806
 20
684.29604780141517
 11
842.15822387657931
 21
684.29604780141517
  0
LINE
  8
_0-0_計極細
  6
CONTINUOUS
 62
    2
 10
895.66487216364806
 20
691.2960478014154
 11
895.66487216364806
 21
684.29604780141517
  0
CIRCLE
  8
_0-0_計極細
  6
CONTINUOUS
 62
    2
 10
874.07501584173872
 20
681.20476071807752
 40
0.3318518518518431
  0
CIRCLE
  8
_0-0_計極細
  6
CONTINUOUS
 62
    2
 10
892.63501584173866
 20
682.27142738474436
 40
0.3318518518518431
  0
LINE
  8
_0-0_計極細
  6
CONTINUOUS
 62
    2
 10
1356.7383554038297
 20
684.29604780141517
 11
1363.7383550277564
 21
691.29604742534184
  0
LINE
  8
_0-0_計極細
  6
CONTINUOUS
 62
    2
 10
1344.010433342472
 20
684.29604780141517
 11
1351.0104330659678
 21
691.29604752491082
  0
LINE
  8
_0-0_計極細
  6
CONTINUOUS
 62
    2
 10
1331.2825112811138
 20
684.29604780141517
 11
1338.2825111041789
 21
691.29604762448002
  0
LINE
  8
_0-0_計極細
  6
CONTINUOUS
 62
    2
 10
1318.5545892197565
 20
684.29604780141517
 11
1325.5545891423901
 21
691.29604772404923
  0
LINE
  8
_0-0_計極細
  6
DASHED2
 62
    2
 10
1363.1023164345083
 20
684.29604780141517
 11
1369.1715204507168
 21
690.36525181762295
  0
LINE
  8
_0-0_計極細
  6
DASHED2
 62
    2
 10
1350.3743943731506
 20
684.29604780141517
 11
1357.3743940468617
 21
691.29604747512622
  0
LINE
  8
_0-0_計極細
  6
DASHED2
 62
    2
 10
1337.6464723117931
 20
684.29604780141517
 11
1344.6464720850734
 21
691.29604757469542
  0
LINE
  8
_0-0_計極細
  6
DASHED2
 62
    2
 10
1324.9185502504349
 20
684.29604780141517
 11
1331.9185501232844
 21
691.29604767426463
  0
LINE
  8
_0-0_計極細
  6
DASHED2
 62
    2
 10
1315.6648721636484
 20
687.77029177598592
 11
1319.1906281614956
 21
691.29604777383383
  0
LINE
  8
_0-0_計極細
  6
CONTINUOUS
 62
    2
 10
1315.6648721636484
 20
686.49749956984965
 11
1313.4634203952128
 21
684.29604780141517
  0
LINE
  8
_0-0_計極細
  6
CONTINUOUS
 62
    2
 10
1315.6648721636484
 20
689.04308398212129
 11
1310.9178359829416
 21
684.29604780141517
  0
LINE
  8
_0-0_計極細
  6
CONTINUOUS
 62
    2
 10
1310.6648721636479
 20
686.58866839439315
 11
1315.37225157067
 21
691.2960478014154
  0
LINE
  8
_0-0_計極細
  6
CONTINUOUS
 62
    2
 10
1310.6648721636479
 20
689.13425280666479
 11
1312.8266671583981
 21
691.29604780141494
  0
LINE
  8
_0-0_計極細
  6
CONTINUOUS
 62
    2
 10
1315.6648721636484
 20
690.39045447571198
 11
1314.7592788379447
 21
691.2960478014154
  0
LINE
  8
_0-0_計極細
  6
CONTINUOUS
 62
    2
 10
1315.6648721636484
 20
687.84487006344011
 11
1312.2136944256736
 21
691.2960478014154
  0
LINE
  8
_0-0_計極細
  6
CONTINUOUS
 62
    2
 10
1315.6648721636484
 20
685.2992856511687
 11
1310.6648721636479
 21
690.2992856511687
  0
LINE
  8
_0-0_計極細
  6
CONTINUOUS
 62
    2
 10
1314.1225256011296
 20
684.29604780141517
 11
1310.6648721636479
 21
687.75370123889707
  0
LINE
  8
_0-0_計極細
  6
CONTINUOUS
 62
    2
 10
1311.5769411888582
 20
684.29604780141517
 11
1310.6648721636479
 21
685.2081168266252
  0
LINE
  8
_0-0_計極細
  6
CONTINUOUS
 62
    2
 10
1310.6648721636479
 20
690.79604780141494
 11
1310.6648721636479
 21
691.2960478014154
  0
LINE
  8
_0-0_計極細
  6
CONTINUOUS
 62
    2
 10
1310.6648721636479
 20
684.29604780141517
 11
1369.1715204507168
 21
684.29604780141517
  0
LINE
  8
_0-0_計極細
  6
CONTINUOUS
 62
    2
 10
1315.6648721636484
 20
691.2960478014154
 11
1315.6648721636484
 21
684.29604780141517
  0
CIRCLE
  8
_0-0_計極細
  6
CONTINUOUS
 62
    2
 10
1322.6616825084031
 20
683.01531627363352
 40
0.3318518518518431
  0
CIRCLE
  8
_0-0_計極細
  6
CONTINUOUS
 62
    2
 10
1335.3816825084029
 20
679.41531627363338
 40
0.3318518518518431
  0
CIRCLE
  8
_0-0_計極細
  6
CONTINUOUS
 62
    2
 10
1353.8616825084032
 20
682.45531627363334
 40
0.3318518518518431
  0
LINE
  8
_0-0_計極細
  6
CENTER1
 62
    2
 10
881.16487216364806
 20
613.33000363074325
 11
881.16487216364806
 21
647.31281670917019
  0
LINE
  8
_0-0_計極細
  6
CONTINUOUS
 62
    2
 10
876.66487216364828
 20
644.74738461040442
 11
876.66487216364828
 21
618.29604780141494
  0
LINE
  8
_0-0_計極細
  6
CONTINUOUS
 62
    2
 10
885.66487216364806
 20
644.74738461040442
 11
876.66487216364828
 21
644.74738461040442
  0
LINE
  8
_0-0_計極細
  6
CONTINUOUS
 62
    2
 10
885.66487216364806
 20
618.29604780141494
 11
885.66487216364806
 21
644.74738461040442
  0
LINE
  8
_0-0_計極細
  6
CENTER1
 62
    2
 10
869.96848055119585
 20
636.37150726843583
 11
908.38709284073525
 21
650.35473855945679
  0
LINE
  8
_0-0_計極細
  6
CONTINUOUS
 62
    2
 10
874.48083123135677
 20
633.22506849891693
 11
907.55543812556562
 21
645.26324091846482
  0
LINE
  8
_0-0_計極細
  6
CONTINUOUS
 62
    2
 10
871.40264994142581
 20
641.68230208599016
 11
904.47725683563465
 21
653.72047450553805
  0
LINE
  8
_0-0_計極細
  6
CONTINUOUS
 62
    2
 10
904.47725683563465
 20
653.72047450553805
 11
907.55543812556562
 21
645.26324091846482
  0
LINE
  8
_0-0_計極細
  6
CONTINUOUS
 62
    2
 10
874.48083123135677
 20
633.22506849891693
 11
871.40264994142581
 21
641.68230208599016
  0
CIRCLE
  8
_0-0_計極細
  6
CONTINUOUS
 62
    2
 10
919.31501584173577
 20
642.23735331067064
 40
1.0953188836088352
  0
CIRCLE
  8
_0-0_計極細
  6
CONTINUOUS
 62
    2
 10
926.73723806396083
 20
607.28445143150952
 40
0.3318518518518431
  0
CIRCLE
  8
_0-0_計極細
  6
CONTINUOUS
 62
    2
 10
925.93723806396031
 20
620.87809405141138
 40
0.3318518518518431
  0
CIRCLE
  8
_0-0_計極細
  6
CONTINUOUS
 62
    2
 10
926.53241167507076
 20
653.70401997733757
 40
1.0953188836088352
  0
LINE
  8
_0-0_計極細
  6
CONTINUOUS
 62
    2
 10
930.66487216364806
 20
663.29604780141494
 11
930.66487216364806
 21
602.55108762454802
  0
LINE
  8
_0-0_計極細
  6
CONTINUOUS
 62
    2
 10
930.16487216364783
 20
663.29604780141494
 11
930.66487216364806
 21
663.29604780141494
  0
CIRCLE
  8
_0-0_計極細
  6
CONTINUOUS
 62
    2
 10
846.97949629622997
 20
672.31735331067046
 40
1.0953188836088352
  0
CIRCLE
  8
_0-0_計極細
  6
CONTINUOUS
 62
    2
 10
919.64834917507142
 20
610.10401997733788
 40
1.0953188836088352
  0
CIRCLE
  8
_0-0_計極細
  6
CONTINUOUS
 62
    2
 10
916.76834917507165
 20
621.30401997733748
 40
1.0953188836088352
  0
CIRCLE
  8
_0-0_計極細
  6
CONTINUOUS
 62
    2
 10
895.18168250840472
 20
623.46401997733756
 40
1.0953188836088352
  0
CIRCLE
  8
_0-0_計極細
  6
CONTINUOUS
 62
    2
 10
863.26168250840533
 20
631.14401997733728
 40
1.0953188836088352
  0
CIRCLE
  8
_0-0_計極細
  6
CONTINUOUS
 62
    2
 10
875.02168250840509
 20
653.94401997733735
 40
1.0953188836088352
  0
CIRCLE
  8
_0-0_計極細
  6
CONTINUOUS
 62
    2
 10
888.46168250840549
 20
647.86401997733742
 40
1.0953188836088352
  0
CIRCLE
  8
_0-0_計極細
  6
CONTINUOUS
 62
    2
 10
859.09774402087749
 20
671.78178854215571
 40
1.0953188836088352
  0
CIRCLE
  8
_0-0_計極細
  6
CONTINUOUS
 62
    2
 10
890.15501584173876
 20
667.62401997733696
 40
1.0953188836088352
  0
CIRCLE
  8
_0-0_計極細
  6
CONTINUOUS
 62
    2
 10
902.32834917507205
 20
654.43364960696681
 40
0.3318518518518431
  0
CIRCLE
  8
_0-0_計極細
  6
CONTINUOUS
 62
    2
 10
923.47501584173824
 20
636.59364960696712
 40
0.3318518518518431
  0
CIRCLE
  8
_0-0_計極細
  6
CONTINUOUS
 62
    2
 10
923.15501584173819
 20
647.36698294030009
 40
0.3318518518518431
  0
CIRCLE
  8
_0-0_計極細
  6
CONTINUOUS
 62
    2
 10
914.08834917507181
 20
653.34031627363333
 40
0.3318518518518431
  0
CIRCLE
  8
_0-0_計極細
  6
CONTINUOUS
 62
    2
 10
905.23501584173857
 20
632.86031627363377
 40
0.3318518518518431
  0
CIRCLE
  8
_0-0_計極細
  6
CONTINUOUS
 62
    2
 10
915.23501584173857
 20
606.69142738474511
 40
0.3318518518518431
  0
CIRCLE
  8
_0-0_計極細
  6
CONTINUOUS
 62
    2
 10
919.39501584173843
 20
615.65142738474503
 40
0.3318518518518431
  0
CIRCLE
  8
_0-0_計極細
  6
CONTINUOUS
 62
    2
 10
911.18168250840495
 20
624.61142738474473
 40
0.3318518518518431
  0
CIRCLE
  8
_0-0_計極細
  6
CONTINUOUS
 62
    2
 10
903.39501584173854
 20
622.69142738474477
 40
0.3318518518518431
  0
CIRCLE
  8
_0-0_計極細
  6
CONTINUOUS
 62
    2
 10
891.44834917507205
 20
622.05142738474456
 40
0.3318518518518431
  0
CIRCLE
  8
_0-0_計極細
  6
CONTINUOUS
 62
    2
 10
893.58168250840549
 20
627.59809405141129
 40
0.3318518518518431
  0
CIRCLE
  8
_0-0_計極細
  6
CONTINUOUS
 62
    2
 10
889.84834917507203
 20
629.09142738474475
 40
0.3318518518518431
  0
CIRCLE
  8
_0-0_計極細
  6
CONTINUOUS
 62
    2
 10
896.56834917507194
 20
632.39809405141136
 40
0.3318518518518431
  0
CIRCLE
  8
_0-0_計極細
  6
CONTINUOUS
 62
    2
 10
872.98834917507179
 20
621.66476071807813
 40
0.3318518518518431
  0
CIRCLE
  8
_0-0_計極細
  6
CONTINUOUS
 62
    2
 10
869.25501584173867
 20
626.78476071807813
 40
0.3318518518518431
  0
CIRCLE
  8
_0-0_計極細
  6
CONTINUOUS
 62
    2
 10
864.02834917507221
 20
622.73142738474485
 40
0.3318518518518431
  0
CIRCLE
  8
_0-0_計極細
  6
CONTINUOUS
 62
    2
 10
867.44168250840539
 20
633.50476071807793
 40
0.3318518518518431
  0
CIRCLE
  8
_0-0_計極細
  6
CONTINUOUS
 62
    2
 10
892.10834917507168
 20
649.77142738474458
 40
0.3318518518518431
  0
CIRCLE
  8
_0-0_計極細
  6
CONTINUOUS
 62
    2
 10
875.6816825084054
 20
645.39809405141125
 40
0.3318518518518431
  0
CIRCLE
  8
_0-0_計極細
  6
CONTINUOUS
 62
    2
 10
884.53501584173853
 20
653.50476071807793
 40
0.3318518518518431
  0
CIRCLE
  8
_0-0_計極細
  6
CONTINUOUS
 62
    2
 10
892.10834917507168
 20
656.91809405141112
 40
0.3318518518518431
  0
CIRCLE
  8
_0-0_計極細
  6
CONTINUOUS
 62
    2
 10
877.06834917507194
 20
659.15809405141101
 40
0.3318518518518431
  0
CIRCLE
  8
_0-0_計極細
  6
CONTINUOUS
 62
    2
 10
864.80168250840563
 20
659.9047607180778
 40
0.3318518518518431
  0
CIRCLE
  8
_0-0_計極細
  6
CONTINUOUS
 62
    2
 10
881.1150158417388
 20
667.24476071807794
 40
0.3318518518518431
  0
CIRCLE
  8
_0-0_計極細
  6
CONTINUOUS
 62
    2
 10
896.04834917507173
 20
667.56476071807765
 40
0.3318518518518431
  0
CIRCLE
  8
_0-0_計極細
  6
CONTINUOUS
 62
    2
 10
877.70168250840527
 20
671.29809405141123
 40
0.3318518518518431
  0
CIRCLE
  8
_0-0_計極細
  6
CONTINUOUS
 62
    2
 10
860.635015841739
 20
664.25809405141104
 40
0.3318518518518431
  0
CIRCLE
  8
_0-0_計極細
  6
CONTINUOUS
 62
    2
 10
853.06168250840551
 20
663.08476071807786
 40
0.3318518518518431
  0
CIRCLE
  8
_0-0_計極細
  6
CONTINUOUS
 62
    2
 10
846.69723806396132
 20
662.44476071807799
 40
0.3318518518518431
  0
CIRCLE
  8
_0-0_計極細
  6
CONTINUOUS
 62
    2
 10
852.89575658247963
 20
668.41809405141112
 40
0.3318518518518431
  0
LINE
  8
_0-0_計極細
  6
CONTINUOUS
 62
    2
 10
888.21168742465431
 20
602.55108769440972
 11
903.95664753165988
 21
618.29604780141494
  0
LINE
  8
_0-0_計極細
  6
CONTINUOUS
 62
    2
 10
845.78528068546939
 20
602.55108782641776
 11
861.53024066046692
 21
618.29604780141494
  0
LINE
  8
_0-0_計極細
  6
CONTINUOUS
 62
    2
 10
842.15822387657931
 20
641.35043788872031
 11
860.10383378927395
 21
659.29604780141528
  0
LINE
  8
_0-0_計極細
  6
CONTINUOUS
 62
    2
 10
883.96904675073552
 20
602.55108770761046
 11
899.71400684454034
 21
618.29604780141494
  0
LINE
  8
_0-0_計極細
  6
CONTINUOUS
 62
    2
 10
842.15822387657931
 20
603.16667170464689
 11
860.66487216364806
 21
621.67331999171574
  0
LINE
  8
_0-0_計極細
  6
CONTINUOUS
 62
    2
 10
842.15822387657931
 20
645.59307857583963
 11
855.86119310215452
 21
659.29604780141528
  0
LINE
  8
_0-0_計極細
  6
CONTINUOUS
 62
    2
 10
879.7264060768174
 20
602.55108772081144
 11
895.47136615742102
 21
618.29604780141494
  0
LINE
  8
_0-0_計極細
  6
CONTINUOUS
 62
    2
 10
842.15822387657931
 20
607.40931239176621
 11
860.66487216364806
 21
625.91596067883506
  0
LINE
  8
_0-0_計極細
  6
CONTINUOUS
 62
    2
 10
842.15822387657931
 20
649.83571926295917
 11
851.6185524150352
 21
659.29604780141528
  0
LINE
  8
_0-0_計極細
  6
CONTINUOUS
 62
    2
 10
910.66487216364806
 20
618.29604780141494
 11
910.66487216364806
 21
602.55108762454802
  0
LINE
  8
_0-0_計極細
  6
CONTINUOUS
 62
    2
 10
860.66487216364806
 20
659.29604780141528
 11
842.15822387657931
 21
659.29604780141528
  0
LINE
  8
_0-0_計極細
  6
CONTINUOUS
 62
    2
 10
910.66487216364806
 20
618.29604780141494
 11
860.66487216364806
 21
618.29604780141494
  0
LINE
  8
_0-0_計極細
  6
CONTINUOUS
 62
    2
 10
860.66487216364806
 20
659.29604780141528
 11
860.66487216364806
 21
618.29604780141494
  0
CIRCLE
  8
_0-0_計極細
  6
CONTINUOUS
 62
    2
 10
1327.0616825084037
 20
651.40790886622608
 40
0.3318518518518431
  0
CIRCLE
  8
_0-0_計極細
  6
CONTINUOUS
 62
    2
 10
1338.8216825084035
 20
648.04790886622573
 40
0.3318518518518431
  0
LINE
  8
_0-0_計極細
  6
CONTINUOUS
 62
    2
 10
1325.6648721636479
 20
644.74738461040442
 11
1334.6648721636482
 21
644.74738461040442
  0
LINE
  8
_0-0_計極細
  6
CENTER1
 62
    2
 10
1330.1648721636477
 20
613.33000363074325
 11
1330.1648721636477
 21
647.31281670917019
  0
LINE
  8
_0-0_計極細
  6
CONTINUOUS
 62
    2
 10
1334.6648721636482
 20
644.74738461040442
 11
1334.6648721636482
 21
618.29604780141494
  0
LINE
  8
_0-0_計極細
  6
CONTINUOUS
 62
    2
 10
1325.6648721636479
 20
618.29604780141494
 11
1325.6648721636479
 21
644.74738461040442
  0
LINE
  8
_0-0_計極細
  6
CENTER1
 62
    2
 10
1341.3612637761003
 20
636.37150726843583
 11
1302.9426514865609
 21
650.35473855945679
  0
LINE
  8
_0-0_計極細
  6
CONTINUOUS
 62
    2
 10
1336.8489130959392
 20
633.22506849891693
 11
1303.7743062017305
 21
645.26324091846482
  0
LINE
  8
_0-0_計極細
  6
CONTINUOUS
 62
    2
 10
1339.9270943858708
 20
641.68230208599016
 11
1306.8524874916611
 21
653.72047450553805
  0
LINE
  8
_0-0_計極細
  6
CONTINUOUS
 62
    2
 10
1306.8524874916611
 20
653.72047450553805
 11
1303.7743062017305
 21
645.26324091846482
  0
LINE
  8
_0-0_計極細
  6
CONTINUOUS
 62
    2
 10
1336.8489130959392
 20
633.22506849891693
 11
1339.9270943858708
 21
641.68230208599016
  0
CIRCLE
  8
_0-0_計極細
  6
CONTINUOUS
 62
    2
 10
1286.4250158417367
 20
611.70735331067067
 40
1.0953188836088352
  0
CIRCLE
  8
_0-0_計極細
  6
CONTINUOUS
 62
    2
 10
1284.6561269528479
 20
655.28068664400416
 40
1.0953188836088352
  0
CIRCLE
  8
_0-0_計極細
  6
CONTINUOUS
 62
    2
 10
1285.0394602861818
 20
615.70864960696713
 40
0.3318518518518431
  0
CIRCLE
  8
_0-0_計極細
  6
CONTINUOUS
 62
    2
 10
1284.2555096688977
 20
639.26198294030019
 40
0.3318518518518431
  0
LINE
  8
_0-0_計極細
  6
CONTINUOUS
 62
    2
 10
1280.6648721636477
 20
663.29604780141494
 11
1280.6648721636477
 21
602.55108762454802
  0
LINE
  8
_0-0_計極細
  6
CONTINUOUS
 62
    2
 10
1281.1648721636475
 20
663.29604780141494
 11
1280.6648721636477
 21
663.29604780141494
  0
CIRCLE
  8
_0-0_計極細
  6
CONTINUOUS
 62
    2
 10
1335.4616825084029
 20
670.62401997733696
 40
1.0953188836088352
  0
CIRCLE
  8
_0-0_計極細
  6
CONTINUOUS
 62
    2
 10
1289.2387195454412
 20
634.18676339978231
 40
0.3318518518518431
  0
CIRCLE
  8
_0-0_計極細
  6
CONTINUOUS
 62
    2
 10
1289.1187195454409
 20
648.56009673311542
 40
0.3318518518518431
  0
CIRCLE
  8
_0-0_計極細
  6
CONTINUOUS
 62
    2
 10
1317.5983491750703
 20
651.81401997733724
 40
1.0953188836088352
  0
CIRCLE
  8
_0-0_計極細
  6
CONTINUOUS
 62
    2
 10
1347.9974647562403
 20
619.78178854215582
 40
1.0953188836088352
  0
CIRCLE
  8
_0-0_計極細
  6
CONTINUOUS
 62
    2
 10
1320.23834917507
 20
625.89401997733751
 40
1.0953188836088352
  0
CIRCLE
  8
_0-0_計極細
  6
CONTINUOUS
 62
    2
 10
1299.1183491750701
 20
639.33401997733745
 40
1.0953188836088352
  0
CIRCLE
  8
_0-0_計極細
  6
CONTINUOUS
 62
    2
 10
1292.9850158417375
 20
621.4140199773376
 40
1.0953188836088352
  0
CIRCLE
  8
_0-0_計極細
  6
CONTINUOUS
 62
    2
 10
1335.2216825084029
 20
648.14401997733717
 40
1.0953188836088352
  0
CIRCLE
  8
_0-0_計極細
  6
CONTINUOUS
 62
    2
 10
1316.0216825084035
 20
667.34401997733721
 40
1.0953188836088352
  0
CIRCLE
  8
_0-0_計極細
  6
CONTINUOUS
 62
    2
 10
1349.2750158417361
 20
663.3973533106705
 40
1.0953188836088352
  0
CIRCLE
  8
_0-0_計極細
  6
CONTINUOUS
 62
    2
 10
1358.6616825084029
 20
672.67735331067047
 40
1.0953188836088352
  0
CIRCLE
  8
_0-0_計極細
  6
CONTINUOUS
 62
    2
 10
1361.541682508403
 20
664.41531627363315
 40
0.3318518518518431
  0
CIRCLE
  8
_0-0_計極細
  6
CONTINUOUS
 62
    2
 10
1343.7816825084033
 20
651.69531627363358
 40
0.3318518518518431
  0
CIRCLE
  8
_0-0_計極細
  6
CONTINUOUS
 62
    2
 10
1345.4616825084031
 20
667.77531627363351
 40
0.3318518518518431
  0
CIRCLE
  8
_0-0_計極細
  6
CONTINUOUS
 62
    2
 10
1335.3816825084029
 20
656.0153162736334
 40
0.3318518518518431
  0
CIRCLE
  8
_0-0_計極細
  6
CONTINUOUS
 62
    2
 10
1346.1816825084029
 20
643.29531627363349
 40
0.3318518518518431
  0
CIRCLE
  8
_0-0_計極細
  6
CONTINUOUS
 62
    2
 10
1347.1416825084029
 20
630.8153162736337
 40
0.3318518518518431
  0
CIRCLE
  8
_0-0_計極細
  6
CONTINUOUS
 62
    2
 10
1342.8216825084028
 20
622.41531627363361
 40
0.3318518518518431
  0
CIRCLE
  8
_0-0_計極細
  6
CONTINUOUS
 62
    2
 10
1319.3016825084032
 20
654.33531627363368
 40
0.3318518518518431
  0
CIRCLE
  8
_0-0_計極細
  6
CONTINUOUS
 62
    2
 10
1326.2616825084035
 20
662.73531627363332
 40
0.3318518518518431
  0
CIRCLE
  8
_0-0_計極細
  6
CONTINUOUS
 62
    2
 10
1313.9416825084036
 20
663.16198294030005
 40
0.3318518518518431
  0
CIRCLE
  8
_0-0_計極細
  6
CONTINUOUS
 62
    2
 10
1321.1283491750703
 20
630.58864960696701
 40
0.3318518518518431
  0
CIRCLE
  8
_0-0_計極細
  6
CONTINUOUS
 62
    2
 10
1314.40834917507
 20
627.22864960696711
 40
0.3318518518518431
  0
CIRCLE
  8
_0-0_計極細
  6
CONTINUOUS
 62
    2
 10
1321.6083491750701
 20
621.78864960696706
 40
0.3318518518518431
  0
CIRCLE
  8
_0-0_計極細
  6
CONTINUOUS
 62
    2
 10
1305.4483491750702
 20
621.62864960696697
 40
0.3318518518518431
  0
CIRCLE
  8
_0-0_計極細
  6
CONTINUOUS
 62
    2
 10
1297.1283491750703
 20
624.50864960696708
 40
0.3318518518518431
  0
CIRCLE
  8
_0-0_計極細
  6
CONTINUOUS
 62
    2
 10
1290.2483491750706
 20
606.58864960696724
 40
0.3318518518518431
  0
CIRCLE
  8
_0-0_計極細
  6
CONTINUOUS
 62
    2
 10
1295.8483491750703
 20
617.30864960696726
 40
0.3318518518518431
  0
CIRCLE
  8
_0-0_計極細
  6
CONTINUOUS
 62
    2
 10
1306.5483491750704
 20
631.28864960696694
 40
0.3318518518518431
  0
CIRCLE
  8
_0-0_計極細
  6
CONTINUOUS
 62
    2
 10
1296.0283491750702
 20
641.50198294030042
 40
0.3318518518518431
  0
CIRCLE
  8
_0-0_計極細
  6
CONTINUOUS
 62
    2
 10
1298.4816825084035
 20
656.48864960696665
 40
0.3318518518518431
  0
CIRCLE
  8
_0-0_計極細
  6
CONTINUOUS
 62
    2
 10
1292.5083491750704
 20
653.60864960696676
 40
0.3318518518518431
  0
LINE
  8
_0-0_計極細
  6
CONTINUOUS
 62
    2
 10
1355.6388736124038
 20
602.55108762454802
 11
1369.171520475641
 21
616.08373448778502
  0
LINE
  8
_0-0_計極細
  6
CONTINUOUS
 62
    2
 10
1313.2124667412106
 20
602.55108762454802
 11
1328.957426918078
 21
618.29604780141494
  0
LINE
  8
_0-0_計極細
  6
CONTINUOUS
 62
    2
 10
1350.6648721636479
 20
640.00349304698489
 11
1369.1715204511697
 21
658.51014133450667
  0
LINE
  8
_0-0_計極細
  6
CONTINUOUS
 62
    2
 10
1351.396232925284
 20
602.55108762454802
 11
1369.1715204731941
 21
620.32637517245723
  0
LINE
  8
_0-0_計極細
  6
CONTINUOUS
 62
    2
 10
1308.9698260540918
 20
602.55108762454802
 11
1324.7147862309589
 21
618.29604780141494
  0
LINE
  8
_0-0_計極細
  6
CONTINUOUS
 62
    2
 10
1350.6648721636479
 20
644.24613373410398
 11
1365.7147861232288
 21
659.29604769368484
  0
LINE
  8
_0-0_計極細
  6
CONTINUOUS
 62
    2
 10
1347.1535922381649
 20
602.55108762454802
 11
1369.1715204707466
 21
624.56901585712944
  0
LINE
  8
_0-0_計極細
  6
CONTINUOUS
 62
    2
 10
1304.7271853669722
 20
602.55108762454802
 11
1320.4721455438398
 21
618.29604780141494
  0
LINE
  8
_0-0_計極細
  6
CONTINUOUS
 62
    2
 10
1350.6648721636479
 20
648.48877442122341
 11
1361.4721454664791
 21
659.29604772405469
  0
LINE
  8
_0-0_計極細
  6
CONTINUOUS
 62
    2
 10
1300.6648721636484
 20
618.29604780141494
 11
1300.6648721636484
 21
602.55108762454802
  0
LINE
  8
_0-0_計極細
  6
CONTINUOUS
 62
    2
 10
1350.6648721636479
 20
659.29604780141528
 11
1369.1715204507168
 21
659.29604780141528
  0
LINE
  8
_0-0_計極細
  6
CONTINUOUS
 62
    2
 10
1300.6648721636484
 20
618.29604780141494
 11
1350.6648721636479
 21
618.29604780141494
  0
LINE
  8
_0-0_計極細
  6
CONTINUOUS
 62
    2
 10
1350.6648721636479
 20
659.29604780141528
 11
1350.6648721636479
 21
618.29604780141494
  0
LINE
  8
_0-1_計細線
  6
CONTINUOUS
 62
    3
 10
1108.0148721642001
 20
673.59582880040807
 11
1112.464872164019
 21
673.59582880040807
  0
LINE
  8
_0-1_計細線
  6
CONTINUOUS
 62
    3
 10
1098.8648721638569
 20
673.59582880040807
 11
1103.3148721641999
 21
673.59582880040807
  0
LINE
  8
_0-1_計細線
  6
CONTINUOUS
 62
    3
 10
1108.0148721642001
 20
686.59582880040784
 11
1112.464872164019
 21
686.59582880040784
  0
LINE
  8
_0-1_計細線
  6
CONTINUOUS
 62
    3
 10
1108.0148721642001
 20
691.49607006021529
 11
1108.0148721642001
 21
671.49607006021495
  0
LINE
  8
_0-1_計細線
  6
CONTINUOUS
 62
    3
 10
1103.3148721641999
 20
671.49607006021495
 11
1103.3148721641999
 21
691.49607006021529
  0
LINE
  8
_0-1_計細線
  6
CONTINUOUS
 62
    3
 10
1108.0148721642001
 20
671.49607006021495
 11
1103.3148721641999
 21
671.49607006021495
  0
LINE
  8
_0-1_計細線
  6
CONTINUOUS
 62
    3
 10
1103.3148721641999
 20
691.49607006021529
 11
1108.0148721642001
 21
691.49607006021529
  0
LINE
  8
_0-1_計細線
  6
DASHED2
 62
    3
 10
1103.3148721641999
 20
674.49607006021495
 11
1108.0148721642001
 21
674.49607006021495
  0
LINE
  8
_0-1_計細線
  6
DASHED2
 62
    3
 10
1103.3148721641999
 20
688.49607006021529
 11
1108.0148721642001
 21
688.49607006021529
  0
LINE
  8
_0-1_計細線
  6
CONTINUOUS
 62
    3
 10
1098.8648721640193
 20
686.59582880040784
 11
1103.3148721642001
 21
686.59582880040784
  0
ARC
  8
_0-1_計細線
  6
CONTINUOUS
 62
    3
 10
1302.9648721656108
 20
673.79582880040789
 40
0.2000000000000001
 50
269.99999999999977
 51
359.99999999999966
  0
ARC
  8
_0-1_計細線
  6
CONTINUOUS
 62
    3
 10
1302.9648721656108
 20
686.39582880040803
 40
0.2000000000000001
 50
0
 51
89.999999999999915
  0
LINE
  8
_0-1_計細線
  6
CONTINUOUS
 62
    3
 10
1303.1648721656109
 20
679.59582880040796
 11
1303.1648721656109
 21
673.79582880040789
  0
LINE
  8
_0-1_計細線
  6
CONTINUOUS
 62
    3
 10
1303.1648721656109
 20
686.39582880040803
 11
1303.1648721656109
 21
679.59582880040796
  0
LINE
  8
_0-1_計細線
  6
CONTINUOUS
 62
    3
 10
1302.1648721651418
 20
673.59582880040807
 11
1302.9648721656108
 21
673.59582880040807
  0
LINE
  8
_0-1_計細線
  6
CONTINUOUS
 62
    3
 10
1302.1648721658557
 20
686.59582880040819
 11
1302.9648721656108
 21
686.59582880040819
  0
LINE
  8
_0-1_計細線
  6
CONTINUOUS
 62
    3
 10
1303.1648721656109
 20
680.09582880040784
 11
1306.1693881656108
 21
680.09582880040784
  0
LINE
  8
_0-1_計細線
  6
CONTINUOUS
 62
    3
 10
1303.1648721656109
 20
676.59582880040819
 11
1306.1694001656101
 21
676.59582880040819
  0
ARC
  8
_0-1_計細線
  6
CONTINUOUS
 62
    3
 10
1306.1694001656101
 20
676.795828800408
 40
0.2000000000000001
 50
269.99999999999977
 51
359.99999999999966
  0
ARC
  8
_0-1_計細線
  6
CONTINUOUS
 62
    3
 10
1298.6114201656108
 20
678.34568280040844
 40
7.7579560000000019
 50
346.96432999999968
 51
13.038021999993759
  0
ARC
  8
_0-1_計細線
  6
CONTINUOUS
 62
    3
 10
1306.1694001656101
 20
683.39582880040848
 40
0.2000000000000001
 50
0
 51
89.999999999999915
  0
ARC
  8
_0-1_計細線
  6
CONTINUOUS
 62
    3
 10
1298.6114201656108
 20
681.84597280040759
 40
7.7579560000000019
 50
346.96197800000061
 51
13.035669999999625
  0
LINE
  8
_0-1_計細線
  6
CONTINUOUS
 62
    3
 10
1303.1648721656109
 20
683.5958288004083
 11
1306.1694001656101
 21
683.5958288004083
  0
LINE
  8
_0-1_計細線
  6
CONTINUOUS
 62
    3
 10
1306.3694001656106
 20
676.795828800408
 11
1306.3694001656106
 21
683.39582880040848
  0
ARC
  8
_0-1_計細線
  6
CONTINUOUS
 62
    3
 10
908.36487216226146
 20
673.79582880040789
 40
0.2000000000000001
 50
179.99999999999983
 51
269.99999999999977
  0
ARC
  8
_0-1_計細線
  6
CONTINUOUS
 62
    3
 10
908.36487216226146
 20
686.39582880040803
 40
0.2000000000000001
 50
89.999999999999915
 51
179.99999999999983
  0
LINE
  8
_0-1_計細線
  6
CONTINUOUS
 62
    3
 10
908.16487216226108
 20
679.59582880040796
 11
908.16487216226108
 21
673.79582880040789
  0
LINE
  8
_0-1_計細線
  6
CONTINUOUS
 62
    3
 10
908.16487216226108
 20
686.39582880040803
 11
908.16487216226108
 21
679.59582880040796
  0
LINE
  8
_0-1_計細線
  6
CONTINUOUS
 62
    3
 10
909.16487216144048
 20
686.59582880040819
 11
908.36487216226146
 21
686.59582880040819
  0
LINE
  8
_0-1_計細線
  6
CONTINUOUS
 62
    3
 10
909.16487216215444
 20
673.59582880040807
 11
908.36487216226146
 21
673.59582880040807
  0
LINE
  8
_0-1_計細線
  6
CONTINUOUS
 62
    3
 10
908.16487216226108
 20
680.09582880040784
 11
905.16035616226134
 21
680.09582880040784
  0
LINE
  8
_0-1_計細線
  6
CONTINUOUS
 62
    3
 10
908.16487216226108
 20
676.59582880040819
 11
905.16034416226171
 21
676.59582880040819
  0
ARC
  8
_0-1_計細線
  6
CONTINUOUS
 62
    3
 10
905.16034416226171
 20
676.795828800408
 40
0.2000000000000001
 50
179.99999999999983
 51
269.99999999999977
  0
ARC
  8
_0-1_計細線
  6
CONTINUOUS
 62
    3
 10
912.71832416226118
 20
678.34568280040844
 40
7.7579560000000019
 50
166.96197800000587
 51
193.03567000000001
  0
ARC
  8
_0-1_計細線
  6
CONTINUOUS
 62
    3
 10
905.16034416226171
 20
683.39582880040848
 40
0.2000000000000001
 50
89.999999999999915
 51
179.99999999999983
  0
ARC
  8
_0-1_計細線
  6
CONTINUOUS
 62
    3
 10
912.71832416226118
 20
681.84597280040759
 40
7.7579560000000019
 50
166.96432999999965
 51
193.03802199999868
  0
LINE
  8
_0-1_計細線
  6
CONTINUOUS
 62
    3
 10
908.16487216226108
 20
683.5958288004083
 11
905.16034416226171
 21
683.5958288004083
  0
LINE
  8
_0-1_計細線
  6
CONTINUOUS
 62
    3
 10
904.96034416226166
 20
676.795828800408
 11
904.96034416226166
 21
683.39582880040848
  0
LINE
  8
_0-1_計細線
  6
CONTINUOUS
 62
    3
 10
1251.8648721642546
 20
686.59582880040784
 11
1265.4648721642548
 21
686.59582880040784
  0
LINE
  8
_0-1_計細線
  6
CONTINUOUS
 62
    3
 10
1234.8648721640825
 20
686.59582880040784
 11
1248.4648721640826
 21
686.59582880040784
  0
LINE
  8
_0-1_計細線
  6
CONTINUOUS
 62
    3
 10
1251.8648721642548
 20
673.59582880040807
 11
1265.464872164255
 21
673.59582880040807
  0
LINE
  8
_0-1_計細線
  6
CONTINUOUS
 62
    3
 10
1234.8648721640832
 20
673.59582880040807
 11
1248.4648721640826
 21
673.59582880040807
  0
LINE
  8
_0-1_計細線
  6
CONTINUOUS
 62
    3
 10
1285.5648721647885
 20
686.59582880040784
 11
1298.7648721647881
 21
686.59582880040784
  0
LINE
  8
_0-1_計細線
  6
CONTINUOUS
 62
    3
 10
1285.5648721647885
 20
673.59582880040807
 11
1298.7648721647881
 21
673.59582880040807
  0
LINE
  8
_0-1_計細線
  6
CONTINUOUS
 62
    3
 10
1268.8648721646164
 20
686.59582880040784
 11
1282.1648721646166
 21
686.59582880040784
  0
LINE
  8
_0-1_計細線
  6
CONTINUOUS
 62
    3
 10
1268.8648721646164
 20
673.59582880040807
 11
1282.1648721646166
 21
673.59582880040807
  0
LINE
  8
_0-1_計細線
  6
CONTINUOUS
 62
    3
 10
959.4648721635931
 20
686.59582880040784
 11
945.86487216359296
 21
686.59582880040784
  0
LINE
  8
_0-1_計細線
  6
CONTINUOUS
 62
    3
 10
959.46487216359287
 20
673.59582880040807
 11
945.86487216359262
 21
673.59582880040807
  0
LINE
  8
_0-1_計細線
  6
CONTINUOUS
 62
    3
 10
925.76487216250769
 20
686.59582880040784
 11
912.56487216250764
 21
686.59582880040784
  0
LINE
  8
_0-1_計細線
  6
CONTINUOUS
 62
    3
 10
925.76487216250769
 20
673.59582880040807
 11
912.5648721625073
 21
673.59582880040807
  0
LINE
  8
_0-1_計細線
  6
CONTINUOUS
 62
    3
 10
942.46487216267951
 20
686.59582880040784
 11
929.16487216267933
 21
686.59582880040784
  0
LINE
  8
_0-1_計細線
  6
CONTINUOUS
 62
    3
 10
942.46487216267906
 20
673.59582880040807
 11
929.16487216267933
 21
673.59582880040807
  0
LINE
  8
_0-1_計細線
  6
CONTINUOUS
 62
    3
 10
976.46487235248742
 20
686.59582880040784
 11
962.86487235248751
 21
686.59582880040784
  0
LINE
  8
_0-1_計細線
  6
CONTINUOUS
 62
    3
 10
993.46487235265954
 20
686.59582880040784
 11
979.86487235265929
 21
686.59582880040784
  0
LINE
  8
_0-1_計細線
  6
CONTINUOUS
 62
    3
 10
1010.4648723528312
 20
686.59582880040784
 11
996.86487235283107
 21
686.59582880040784
  0
LINE
  8
_0-1_計細線
  6
CONTINUOUS
 62
    3
 10
1027.4648723530031
 20
686.59582880040784
 11
1013.8648723530031
 21
686.59582880040784
  0
LINE
  8
_0-1_計細線
  6
CONTINUOUS
 62
    3
 10
976.46487235248742
 20
673.59582880040807
 11
962.86487235248751
 21
673.59582880040807
  0
LINE
  8
_0-1_計細線
  6
CONTINUOUS
 62
    3
 10
993.46487235265909
 20
673.59582880040807
 11
979.86487235265929
 21
673.59582880040807
  0
LINE
  8
_0-1_計細線
  6
CONTINUOUS
 62
    3
 10
1010.4648723528312
 20
673.59582880040807
 11
996.86487235283153
 21
673.59582880040807
  0
LINE
  8
_0-1_計細線
  6
CONTINUOUS
 62
    3
 10
1027.4648723530033
 20
673.59582880040807
 11
1013.8648723530031
 21
673.59582880040807
  0
LINE
  8
_0-1_計細線
  6
CONTINUOUS
 62
    3
 10
1217.8648721657914
 20
686.59582880040784
 11
1231.4648721657916
 21
686.59582880040784
  0
LINE
  8
_0-1_計細線
  6
CONTINUOUS
 62
    3
 10
1200.8648721656195
 20
686.59582880040784
 11
1214.4648721656197
 21
686.59582880040784
  0
LINE
  8
_0-1_計細線
  6
CONTINUOUS
 62
    3
 10
1183.8648721654477
 20
686.59582880040784
 11
1197.4648721654478
 21
686.59582880040784
  0
LINE
  8
_0-1_計細線
  6
CONTINUOUS
 62
    3
 10
1030.8648721629334
 20
686.59582880040784
 11
1044.4648721629335
 21
686.59582880040784
  0
LINE
  8
_0-1_計細線
  6
CONTINUOUS
 62
    3
 10
1166.8648721652762
 20
686.59582880040784
 11
1180.4648721652761
 21
686.59582880040784
  0
LINE
  8
_0-1_計細線
  6
CONTINUOUS
 62
    3
 10
1149.8648721649142
 20
686.59582880040784
 11
1163.4648721649141
 21
686.59582880040784
  0
LINE
  8
_0-1_計細線
  6
CONTINUOUS
 62
    3
 10
1047.8648721629334
 20
686.59582880040784
 11
1061.4648721629335
 21
686.59582880040784
  0
LINE
  8
_0-1_計細線
  6
CONTINUOUS
 62
    3
 10
1064.8648721632956
 20
686.59582880040784
 11
1078.4648721632955
 21
686.59582880040784
  0
LINE
  8
_0-1_計細線
  6
CONTINUOUS
 62
    3
 10
1081.8648721636573
 20
686.59582880040784
 11
1095.464872163657
 21
686.59582880040784
  0
LINE
  8
_0-1_計細線
  6
CONTINUOUS
 62
    3
 10
1115.8648721643806
 20
686.59582880040784
 11
1129.4648721643805
 21
686.59582880040784
  0
LINE
  8
_0-1_計細線
  6
CONTINUOUS
 62
    3
 10
1132.8648721647426
 20
686.59582880040784
 11
1146.4648721647425
 21
686.59582880040784
  0
LINE
  8
_0-1_計細線
  6
CONTINUOUS
 62
    3
 10
1217.8648721657917
 20
673.59582880040807
 11
1231.4648721657918
 21
673.59582880040807
  0
LINE
  8
_0-1_計細線
  6
CONTINUOUS
 62
    3
 10
1200.8648721656195
 20
673.59582880040807
 11
1214.4648721656197
 21
673.59582880040807
  0
LINE
  8
_0-1_計細線
  6
CONTINUOUS
 62
    3
 10
1183.8648721654477
 20
673.59582880040807
 11
1197.4648721654478
 21
673.59582880040807
  0
LINE
  8
_0-1_計細線
  6
CONTINUOUS
 62
    3
 10
1030.8648721629334
 20
673.59582880040807
 11
1044.4648721629335
 21
673.59582880040807
  0
LINE
  8
_0-1_計細線
  6
CONTINUOUS
 62
    3
 10
1166.8648721652755
 20
673.59582880040807
 11
1180.4648721652761
 21
673.59582880040807
  0
LINE
  8
_0-1_計細線
  6
CONTINUOUS
 62
    3
 10
1149.8648721649142
 20
673.59582880040807
 11
1163.4648721649141
 21
673.59582880040807
  0
LINE
  8
_0-1_計細線
  6
CONTINUOUS
 62
    3
 10
1047.8648721629334
 20
673.59582880040807
 11
1061.4648721629335
 21
673.59582880040807
  0
LINE
  8
_0-1_計細線
  6
CONTINUOUS
 62
    3
 10
1064.8648721632953
 20
673.59582880040807
 11
1078.4648721632952
 21
673.59582880040807
  0
LINE
  8
_0-1_計細線
  6
CONTINUOUS
 62
    3
 10
1081.8648721636573
 20
673.59582880040807
 11
1095.4648721636568
 21
673.59582880040807
  0
LINE
  8
_0-1_計細線
  6
CONTINUOUS
 62
    3
 10
1115.8648721643804
 20
673.59582880040807
 11
1129.4648721643805
 21
673.59582880040807
  0
LINE
  8
_0-1_計細線
  6
CONTINUOUS
 62
    3
 10
1132.8648721647426
 20
673.59582880040807
 11
1146.4648721647425
 21
673.59582880040807
  0
ARC
  8
_0-1_計細線
  6
CONTINUOUS
 62
    3
 10
1262.4648721651679
 20
689.29582880040812
 40
1.0000000000000004
 50
89.999999999999915
 51
179.99999999999983
  0
ARC
  8
_0-1_計細線
  6
CONTINUOUS
 62
    3
 10
1262.9328213564959
 20
691.29582880040766
 40
1.0000000000000004
 50
269.99999999999977
 51
330.00000000000711
  0
ARC
  8
_0-1_計細線
  6
CONTINUOUS
 62
    3
 10
1264.6648721640645
 20
690.29582880040812
 40
1.0000000000000004
 50
89.999999999999915
 51
150.00000000000836
  0
LINE
  8
_0-1_計細線
  6
CONTINUOUS
 62
    3
 10
1262.4648721651679
 20
690.29582880040812
 11
1262.9328213564959
 21
690.29582880040812
  0
ARC
  8
_0-1_計細線
  6
CONTINUOUS
 62
    3
 10
1271.8648721629611
 20
689.29582880040812
 40
1.0000000000000004
 50
0
 51
89.999999999999915
  0
ARC
  8
_0-1_計細線
  6
CONTINUOUS
 62
    3
 10
1271.3969229716333
 20
691.29582880040766
 40
1.0000000000000004
 50
209.99999999999216
 51
269.99999999999977
  0
ARC
  8
_0-1_計細線
  6
CONTINUOUS
 62
    3
 10
1269.6648721640647
 20
690.29582880040812
 40
1.0000000000000004
 50
29.99999999999816
 51
89.999999999999915
  0
LINE
  8
_0-1_計細線
  6
CONTINUOUS
 62
    3
 10
1271.8648721629611
 20
690.29582880040812
 11
1271.3969229716333
 21
690.29582880040812
  0
ARC
  8
_0-1_計細線
  6
CONTINUOUS
 62
    3
 10
1261.9648721651681
 20
687.89582880040825
 40
0.5000000000000002
 50
179.99999999999983
 51
269.99999999999977
  0
LINE
  8
_0-1_計細線
  6
CONTINUOUS
 62
    3
 10
1261.4648721651681
 20
689.29582880040812
 11
1261.4648721651681
 21
687.89582880040825
  0
ARC
  8
_0-1_計細線
  6
CONTINUOUS
 62
    3
 10
1272.3648721629611
 20
687.89582880040825
 40
0.5000000000000002
 50
269.99999999999977
 51
359.99999999999966
  0
LINE
  8
_0-1_計細線
  6
CONTINUOUS
 62
    3
 10
1272.8648721629609
 20
689.29582880040812
 11
1272.8648721629609
 21
687.89582880040825
  0
ARC
  8
_0-1_計細線
  6
CONTINUOUS
 62
    3
 10
1264.4648721651683
 20
686.39582880040825
 40
1.0000000000000004
 50
0
 51
89.999999999999915
  0
LINE
  8
_0-1_計細線
  6
CONTINUOUS
 62
    3
 10
1264.4648721651683
 20
687.3958288004078
 11
1261.9648721651681
 21
687.3958288004078
  0
ARC
  8
_0-1_計細線
  6
CONTINUOUS
 62
    3
 10
1269.864872165168
 20
686.39582880040825
 40
1.0000000000000004
 50
89.999999999999915
 51
179.99999999999983
  0
LINE
  8
_0-1_計細線
  6
CONTINUOUS
 62
    3
 10
1269.8648721629606
 20
687.3958288004078
 11
1272.3648721629611
 21
687.3958288004078
  0
LINE
  8
_0-1_計細線
  6
CONTINUOUS
 62
    3
 10
1269.6648721640647
 20
691.29582880040766
 11
1264.6648721640645
 21
691.29582880040766
  0
LINE
  8
_0-1_計細線
  6
CONTINUOUS
 62
    3
 10
1265.4648721640644
 20
666.29582880040789
 11
1265.4648721651679
 21
686.39582880040825
  0
LINE
  8
_0-1_計細線
  6
CONTINUOUS
 62
    3
 10
1268.8648721640648
 20
666.29582880040789
 11
1268.8648721651682
 21
686.39582880040825
  0
LINE
  8
_0-1_計細線
  6
CONTINUOUS
 62
    3
 10
1268.8648721640648
 20
666.29582880040789
 11
1265.4648721640644
 21
666.29582880040789
  0
ARC
  8
_0-1_計細線
  6
CONTINUOUS
 62
    3
 10
1245.4648721649962
 20
689.29582880040812
 40
1.0000000000000004
 50
89.999999999999915
 51
179.99999999999983
  0
ARC
  8
_0-1_計細線
  6
CONTINUOUS
 62
    3
 10
1245.9328213563238
 20
691.29582880040766
 40
1.0000000000000004
 50
269.99999999999977
 51
330.00000000001364
  0
ARC
  8
_0-1_計細線
  6
CONTINUOUS
 62
    3
 10
1247.6648721638924
 20
690.29582880040812
 40
1.0000000000000004
 50
89.999999999999915
 51
149.99999999999534
  0
LINE
  8
_0-1_計細線
  6
CONTINUOUS
 62
    3
 10
1245.4648721649962
 20
690.29582880040812
 11
1245.9328213563238
 21
690.29582880040812
  0
ARC
  8
_0-1_計細線
  6
CONTINUOUS
 62
    3
 10
1254.8648721627894
 20
689.29582880040812
 40
1.0000000000000004
 50
0
 51
89.999999999999915
  0
ARC
  8
_0-1_計細線
  6
CONTINUOUS
 62
    3
 10
1254.3969229714614
 20
691.29582880040766
 40
1.0000000000000004
 50
209.99999999999866
 51
269.99999999999977
  0
ARC
  8
_0-1_計細線
  6
CONTINUOUS
 62
    3
 10
1252.6648721638926
 20
690.29582880040812
 40
1.0000000000000004
 50
29.999999999985132
 51
89.999999999986969
  0
LINE
  8
_0-1_計細線
  6
CONTINUOUS
 62
    3
 10
1254.8648721627894
 20
690.29582880040812
 11
1254.3969229714614
 21
690.29582880040812
  0
ARC
  8
_0-1_計細線
  6
CONTINUOUS
 62
    3
 10
1244.9648721649965
 20
687.89582880040825
 40
0.5000000000000002
 50
179.99999999999983
 51
269.99999999999977
  0
LINE
  8
_0-1_計細線
  6
CONTINUOUS
 62
    3
 10
1244.4648721649965
 20
689.29582880040812
 11
1244.4648721649965
 21
687.89582880040825
  0
ARC
  8
_0-1_計細線
  6
CONTINUOUS
 62
    3
 10
1255.3648721627894
 20
687.89582880040825
 40
0.5000000000000002
 50
269.99999999999977
 51
359.99999999999966
  0
LINE
  8
_0-1_計細線
  6
CONTINUOUS
 62
    3
 10
1255.8648721627892
 20
689.29582880040812
 11
1255.8648721627892
 21
687.89582880040825
  0
ARC
  8
_0-1_計細線
  6
CONTINUOUS
 62
    3
 10
1247.4648721649962
 20
686.39582880040825
 40
1.0000000000000004
 50
0
 51
89.999999999999915
  0
LINE
  8
_0-1_計細線
  6
CONTINUOUS
 62
    3
 10
1247.4648721649962
 20
687.3958288004078
 11
1244.9648721649965
 21
687.3958288004078
  0
ARC
  8
_0-1_計細線
  6
CONTINUOUS
 62
    3
 10
1252.8648721649963
 20
686.39582880040825
 40
1.0000000000000004
 50
89.999999999999915
 51
179.99999999999983
  0
LINE
  8
_0-1_計細線
  6
CONTINUOUS
 62
    3
 10
1252.864872162789
 20
687.3958288004078
 11
1255.3648721627894
 21
687.3958288004078
  0
LINE
  8
_0-1_計細線
  6
CONTINUOUS
 62
    3
 10
1252.6648721638926
 20
691.29582880040766
 11
1247.6648721638924
 21
691.29582880040766
  0
LINE
  8
_0-1_計細線
  6
CONTINUOUS
 62
    3
 10
1248.4648721638926
 20
666.29582880040789
 11
1248.4648721649962
 21
686.39582880040825
  0
LINE
  8
_0-1_計細線
  6
CONTINUOUS
 62
    3
 10
1251.8648721638926
 20
666.29582880040789
 11
1251.8648721649965
 21
686.39582880040825
  0
LINE
  8
_0-1_計細線
  6
CONTINUOUS
 62
    3
 10
1251.8648721638926
 20
666.29582880040789
 11
1248.4648721638926
 21
666.29582880040789
  0
ARC
  8
_0-1_計細線
  6
CONTINUOUS
 62
    3
 10
1295.764872165855
 20
689.29582880040812
 40
1.0000000000000004
 50
89.999999999999915
 51
179.99999999999983
  0
ARC
  8
_0-1_計細線
  6
CONTINUOUS
 62
    3
 10
1296.2328213571832
 20
691.29582880040766
 40
1.0000000000000004
 50
269.99999999999977
 51
330.00000000000711
  0
ARC
  8
_0-1_計細線
  6
CONTINUOUS
 62
    3
 10
1297.9648721647516
 20
690.29582880040812
 40
1.0000000000000004
 50
89.999999999999915
 51
150.00000000000185
  0
LINE
  8
_0-1_計細線
  6
CONTINUOUS
 62
    3
 10
1295.764872165855
 20
690.29582880040812
 11
1296.2328213571832
 21
690.29582880040812
  0
ARC
  8
_0-1_計細線
  6
CONTINUOUS
 62
    3
 10
1305.1648721636482
 20
689.29582880040812
 40
1.0000000000000004
 50
0
 51
89.999999999999915
  0
ARC
  8
_0-1_計細線
  6
CONTINUOUS
 62
    3
 10
1304.6969229723206
 20
691.29582880040766
 40
1.0000000000000004
 50
209.99999999999216
 51
269.99999999999977
  0
ARC
  8
_0-1_計細線
  6
CONTINUOUS
 62
    3
 10
1302.9648721647516
 20
690.29582880040812
 40
1.0000000000000004
 50
29.999999999991644
 51
89.999999999973952
  0
LINE
  8
_0-1_計細線
  6
CONTINUOUS
 62
    3
 10
1305.1648721636482
 20
690.29582880040812
 11
1304.6969229723206
 21
690.29582880040812
  0
ARC
  8
_0-1_計細線
  6
CONTINUOUS
 62
    3
 10
1295.2648721658552
 20
687.89582880040825
 40
0.5000000000000002
 50
179.99999999999983
 51
269.99999999999977
  0
LINE
  8
_0-1_計細線
  6
CONTINUOUS
 62
    3
 10
1294.7648721658556
 20
689.29582880040812
 11
1294.7648721658556
 21
687.89582880040825
  0
ARC
  8
_0-1_計細線
  6
CONTINUOUS
 62
    3
 10
1305.6648721636484
 20
687.89582880040825
 40
0.5000000000000002
 50
269.99999999999977
 51
359.99999999999966
  0
LINE
  8
_0-1_計細線
  6
CONTINUOUS
 62
    3
 10
1306.1648721636479
 20
689.29582880040812
 11
1306.1648721636479
 21
687.89582880040825
  0
ARC
  8
_0-1_計細線
  6
CONTINUOUS
 62
    3
 10
1297.7648721658556
 20
686.39582880040825
 40
1.0000000000000004
 50
0
 51
89.999999999999915
  0
LINE
  8
_0-1_計細線
  6
CONTINUOUS
 62
    3
 10
1297.7648721658556
 20
687.3958288004078
 11
1295.2648721658552
 21
687.3958288004078
  0
ARC
  8
_0-1_計細線
  6
CONTINUOUS
 62
    3
 10
1303.1648721658551
 20
686.39582880040825
 40
1.0000000000000004
 50
89.999999999999915
 51
179.99999999999983
  0
LINE
  8
_0-1_計細線
  6
CONTINUOUS
 62
    3
 10
1303.1648721636479
 20
687.3958288004078
 11
1305.6648721636484
 21
687.3958288004078
  0
LINE
  8
_0-1_計細線
  6
CONTINUOUS
 62
    3
 10
1302.9648721647516
 20
691.29582880040766
 11
1297.9648721647516
 21
691.29582880040766
  0
LINE
  8
_0-1_計細線
  6
CONTINUOUS
 62
    3
 10
1298.7648721647518
 20
666.29582880040789
 11
1298.7648721658552
 21
686.39582880040825
  0
LINE
  8
_0-1_計細線
  6
CONTINUOUS
 62
    3
 10
1302.1648721647521
 20
666.29582880040789
 11
1302.1648721658557
 21
686.39582880040825
  0
LINE
  8
_0-1_計細線
  6
CONTINUOUS
 62
    3
 10
1302.1648721647521
 20
666.29582880040789
 11
1298.7648721647518
 21
666.29582880040789
  0
ARC
  8
_0-1_計細線
  6
CONTINUOUS
 62
    3
 10
1279.1648721655299
 20
689.29582880040812
 40
1.0000000000000004
 50
89.999999999999915
 51
179.99999999999983
  0
ARC
  8
_0-1_計細線
  6
CONTINUOUS
 62
    3
 10
1279.6328213568574
 20
691.29582880040766
 40
1.0000000000000004
 50
269.99999999999977
 51
330.00000000001364
  0
ARC
  8
_0-1_計細線
  6
CONTINUOUS
 62
    3
 10
1281.3648721644263
 20
690.29582880040812
 40
1.0000000000000004
 50
89.999999999999915
 51
149.99999999999534
  0
LINE
  8
_0-1_計細線
  6
CONTINUOUS
 62
    3
 10
1279.1648721655299
 20
690.29582880040812
 11
1279.6328213568574
 21
690.29582880040812
  0
ARC
  8
_0-1_計細線
  6
CONTINUOUS
 62
    3
 10
1288.5648721633229
 20
689.29582880040812
 40
1.0000000000000004
 50
0
 51
89.999999999999915
  0
ARC
  8
_0-1_計細線
  6
CONTINUOUS
 62
    3
 10
1288.0969229719954
 20
691.29582880040766
 40
1.0000000000000004
 50
209.99999999997914
 51
269.99999999999977
  0
ARC
  8
_0-1_計細線
  6
CONTINUOUS
 62
    3
 10
1286.3648721644263
 20
690.29582880040812
 40
1.0000000000000004
 50
29.999999999991644
 51
89.99999999996092
  0
LINE
  8
_0-1_計細線
  6
CONTINUOUS
 62
    3
 10
1288.5648721633229
 20
690.29582880040812
 11
1288.0969229719954
 21
690.29582880040812
  0
ARC
  8
_0-1_計細線
  6
CONTINUOUS
 62
    3
 10
1278.6648721655299
 20
687.89582880040825
 40
0.5000000000000002
 50
179.99999999999983
 51
269.99999999999977
  0
LINE
  8
_0-1_計細線
  6
CONTINUOUS
 62
    3
 10
1278.1648721655299
 20
689.29582880040812
 11
1278.1648721655299
 21
687.89582880040825
  0
ARC
  8
_0-1_計細線
  6
CONTINUOUS
 62
    3
 10
1289.0648721633227
 20
687.89582880040825
 40
0.5000000000000002
 50
269.99999999999977
 51
359.99999999999966
  0
LINE
  8
_0-1_計細線
  6
CONTINUOUS
 62
    3
 10
1289.5648721633229
 20
689.29582880040812
 11
1289.5648721633229
 21
687.89582880040825
  0
ARC
  8
_0-1_計細線
  6
CONTINUOUS
 62
    3
 10
1281.1648721655299
 20
686.39582880040825
 40
1.0000000000000004
 50
0
 51
89.999999999999915
  0
LINE
  8
_0-1_計細線
  6
CONTINUOUS
 62
    3
 10
1281.1648721655299
 20
687.3958288004078
 11
1278.6648721655299
 21
687.3958288004078
  0
ARC
  8
_0-1_計細線
  6
CONTINUOUS
 62
    3
 10
1286.5648721655302
 20
686.39582880040825
 40
1.0000000000000004
 50
89.999999999999915
 51
179.99999999999983
  0
LINE
  8
_0-1_計細線
  6
CONTINUOUS
 62
    3
 10
1286.5648721633227
 20
687.3958288004078
 11
1289.0648721633227
 21
687.3958288004078
  0
LINE
  8
_0-1_計細線
  6
CONTINUOUS
 62
    3
 10
1286.3648721644263
 20
691.29582880040766
 11
1281.3648721644263
 21
691.29582880040766
  0
LINE
  8
_0-1_計細線
  6
CONTINUOUS
 62
    3
 10
1282.1648721644265
 20
666.29582880040789
 11
1282.1648721655299
 21
686.39582880040825
  0
LINE
  8
_0-1_計細線
  6
CONTINUOUS
 62
    3
 10
1285.5648721644263
 20
666.29582880040789
 11
1285.56487216553
 21
686.39582880040825
  0
LINE
  8
_0-1_計細線
  6
CONTINUOUS
 62
    3
 10
1285.5648721644263
 20
666.29582880040789
 11
1282.1648721644265
 21
666.29582880040789
  0
ARC
  8
_0-1_計細線
  6
CONTINUOUS
 62
    3
 10
948.86487216267994
 20
689.29582880040812
 40
1.0000000000000004
 50
0
 51
89.999999999999915
  0
ARC
  8
_0-1_計細線
  6
CONTINUOUS
 62
    3
 10
948.39692297135218
 20
691.29582880040766
 40
1.0000000000000004
 50
209.99999999998565
 51
269.99999999999977
  0
ARC
  8
_0-1_計細線
  6
CONTINUOUS
 62
    3
 10
946.66487216378323
 20
690.29582880040812
 40
1.0000000000000004
 50
29.99999999999816
 51
89.999999999999915
  0
LINE
  8
_0-1_計細線
  6
CONTINUOUS
 62
    3
 10
948.86487216267994
 20
690.29582880040812
 11
948.39692297135218
 21
690.29582880040812
  0
ARC
  8
_0-1_計細線
  6
CONTINUOUS
 62
    3
 10
939.46487216488663
 20
689.29582880040812
 40
1.0000000000000004
 50
89.999999999999915
 51
179.99999999999983
  0
ARC
  8
_0-1_計細線
  6
CONTINUOUS
 62
    3
 10
939.93282135621428
 20
691.29582880040766
 40
1.0000000000000004
 50
269.99999999999977
 51
330.00000000002012
  0
ARC
  8
_0-1_計細線
  6
CONTINUOUS
 62
    3
 10
941.664872163783
 20
690.29582880040812
 40
1.0000000000000004
 50
89.999999999999915
 51
149.99999999999534
  0
LINE
  8
_0-1_計細線
  6
CONTINUOUS
 62
    3
 10
939.46487216488663
 20
690.29582880040812
 11
939.93282135621428
 21
690.29582880040812
  0
ARC
  8
_0-1_計細線
  6
CONTINUOUS
 62
    3
 10
949.36487216267949
 20
687.89582880040825
 40
0.5000000000000002
 50
269.99999999999977
 51
359.99999999999966
  0
LINE
  8
_0-1_計細線
  6
CONTINUOUS
 62
    3
 10
949.8648721626796
 20
689.29582880040812
 11
949.8648721626796
 21
687.89582880040825
  0
ARC
  8
_0-1_計細線
  6
CONTINUOUS
 62
    3
 10
938.96487216488663
 20
687.89582880040825
 40
0.5000000000000002
 50
179.99999999999983
 51
269.99999999999977
  0
LINE
  8
_0-1_計細線
  6
CONTINUOUS
 62
    3
 10
938.46487216488697
 20
689.29582880040812
 11
938.46487216488697
 21
687.89582880040825
  0
ARC
  8
_0-1_計細線
  6
CONTINUOUS
 62
    3
 10
946.86487216267949
 20
686.39582880040825
 40
1.0000000000000004
 50
89.999999999999915
 51
179.99999999999983
  0
LINE
  8
_0-1_計細線
  6
CONTINUOUS
 62
    3
 10
946.86487216267949
 20
687.3958288004078
 11
949.36487216267949
 21
687.3958288004078
  0
ARC
  8
_0-1_計細線
  6
CONTINUOUS
 62
    3
 10
941.46487216267985
 20
686.39582880040825
 40
1.0000000000000004
 50
0
 51
89.999999999999915
  0
LINE
  8
_0-1_計細線
  6
CONTINUOUS
 62
    3
 10
941.46487216488697
 20
687.3958288004078
 11
938.96487216488663
 21
687.3958288004078
  0
LINE
  8
_0-1_計細線
  6
CONTINUOUS
 62
    3
 10
941.664872163783
 20
691.29582880040766
 11
946.66487216378323
 21
691.29582880040766
  0
LINE
  8
_0-1_計細線
  6
CONTINUOUS
 62
    3
 10
945.86487216378316
 20
666.29582880040789
 11
945.86487216267972
 21
686.39582880040825
  0
LINE
  8
_0-1_計細線
  6
CONTINUOUS
 62
    3
 10
942.4648721637833
 20
666.29582880040789
 11
942.46487216267951
 21
686.39582880040825
  0
LINE
  8
_0-1_計細線
  6
CONTINUOUS
 62
    3
 10
942.4648721637833
 20
666.29582880040789
 11
945.86487216378316
 21
666.29582880040789
  0
ARC
  8
_0-1_計細線
  6
CONTINUOUS
 62
    3
 10
915.56487216144046
 20
689.29582880040812
 40
1.0000000000000004
 50
0
 51
89.999999999999915
  0
ARC
  8
_0-1_計細線
  6
CONTINUOUS
 62
    3
 10
915.09692297011293
 20
691.29582880040766
 40
1.0000000000000004
 50
209.99999999998565
 51
269.99999999999977
  0
ARC
  8
_0-1_計細線
  6
CONTINUOUS
 62
    3
 10
913.36487216254443
 20
690.29582880040812
 40
1.0000000000000004
 50
30.000000000004672
 51
89.999999999999915
  0
LINE
  8
_0-1_計細線
  6
CONTINUOUS
 62
    3
 10
915.56487216144046
 20
690.29582880040812
 11
915.09692297011293
 21
690.29582880040812
  0
ARC
  8
_0-1_計細線
  6
CONTINUOUS
 62
    3
 10
906.1648721636476
 20
689.29582880040812
 40
1.0000000000000004
 50
89.999999999999915
 51
179.99999999999983
  0
ARC
  8
_0-1_計細線
  6
CONTINUOUS
 62
    3
 10
906.63282135497525
 20
691.29582880040766
 40
1.0000000000000004
 50
269.99999999999977
 51
330.00000000001364
  0
ARC
  8
_0-1_計細線
  6
CONTINUOUS
 62
    3
 10
908.36487216254409
 20
690.29582880040812
 40
1.0000000000000004
 50
90.000000000013031
 51
150.00000000000185
  0
LINE
  8
_0-1_計細線
  6
CONTINUOUS
 62
    3
 10
906.1648721636476
 20
690.29582880040812
 11
906.63282135497525
 21
690.29582880040812
  0
ARC
  8
_0-1_計細線
  6
CONTINUOUS
 62
    3
 10
916.06487216144069
 20
687.89582880040825
 40
0.5000000000000002
 50
269.99999999999977
 51
359.99999999999966
  0
LINE
  8
_0-1_計細線
  6
CONTINUOUS
 62
    3
 10
916.56487216144058
 20
689.29582880040812
 11
916.56487216144058
 21
687.89582880040825
  0
ARC
  8
_0-1_計細線
  6
CONTINUOUS
 62
    3
 10
905.66487216364737
 20
687.89582880040825
 40
0.5000000000000002
 50
179.99999999999983
 51
269.99999999999977
  0
LINE
  8
_0-1_計細線
  6
CONTINUOUS
 62
    3
 10
905.16487216364783
 20
689.29582880040812
 11
905.16487216364783
 21
687.89582880040825
  0
ARC
  8
_0-1_計細線
  6
CONTINUOUS
 62
    3
 10
913.56487216144035
 20
686.39582880040825
 40
1.0000000000000004
 50
89.999999999999915
 51
179.99999999999983
  0
LINE
  8
_0-1_計細線
  6
CONTINUOUS
 62
    3
 10
913.56487216144035
 20
687.3958288004078
 11
916.06487216144069
 21
687.3958288004078
  0
ARC
  8
_0-1_計細線
  6
CONTINUOUS
 62
    3
 10
908.16487216144037
 20
686.39582880040825
 40
1.0000000000000004
 50
0
 51
89.999999999999915
  0
LINE
  8
_0-1_計細線
  6
CONTINUOUS
 62
    3
 10
908.16487216364806
 20
687.3958288004078
 11
905.66487216364737
 21
687.3958288004078
  0
LINE
  8
_0-1_計細線
  6
CONTINUOUS
 62
    3
 10
908.36487216254409
 20
691.29582880040766
 11
913.36487216254443
 21
691.29582880040766
  0
LINE
  8
_0-1_計細線
  6
CONTINUOUS
 62
    3
 10
912.56487216254413
 20
666.29582880040789
 11
912.5648721614408
 21
686.39582880040825
  0
LINE
  8
_0-1_計細線
  6
CONTINUOUS
 62
    3
 10
909.16487216254404
 20
666.29582880040789
 11
909.16487216144048
 21
686.39582880040825
  0
LINE
  8
_0-1_計細線
  6
CONTINUOUS
 62
    3
 10
909.16487216254404
 20
666.29582880040789
 11
912.56487216254413
 21
666.29582880040789
  0
ARC
  8
_0-1_計細線
  6
CONTINUOUS
 62
    3
 10
932.16487216176597
 20
689.29582880040812
 40
1.0000000000000004
 50
0
 51
89.999999999999915
  0
ARC
  8
_0-1_計細線
  6
CONTINUOUS
 62
    3
 10
931.69692297043821
 20
691.29582880040766
 40
1.0000000000000004
 50
209.99999999999216
 51
269.99999999999977
  0
ARC
  8
_0-1_計細線
  6
CONTINUOUS
 62
    3
 10
929.9648721628696
 20
690.29582880040812
 40
1.0000000000000004
 50
29.99999999999816
 51
89.999999999999915
  0
LINE
  8
_0-1_計細線
  6
CONTINUOUS
 62
    3
 10
932.16487216176597
 20
690.29582880040812
 11
931.69692297043821
 21
690.29582880040812
  0
ARC
  8
_0-1_計細線
  6
CONTINUOUS
 62
    3
 10
922.76487216397288
 20
689.29582880040812
 40
1.0000000000000004
 50
89.999999999999915
 51
179.99999999999983
  0
ARC
  8
_0-1_計細線
  6
CONTINUOUS
 62
    3
 10
923.23282135530064
 20
691.29582880040766
 40
1.0000000000000004
 50
269.99999999999977
 51
330.00000000001364
  0
ARC
  8
_0-1_計細線
  6
CONTINUOUS
 62
    3
 10
924.96487216286937
 20
690.29582880040812
 40
1.0000000000000004
 50
90.000000000013031
 51
150.00000000000185
  0
LINE
  8
_0-1_計細線
  6
CONTINUOUS
 62
    3
 10
922.76487216397288
 20
690.29582880040812
 11
923.23282135530064
 21
690.29582880040812
  0
ARC
  8
_0-1_計細線
  6
CONTINUOUS
 62
    3
 10
932.66487216176586
 20
687.89582880040825
 40
0.5000000000000002
 50
269.99999999999977
 51
359.99999999999966
  0
LINE
  8
_0-1_計細線
  6
CONTINUOUS
 62
    3
 10
933.16487216176586
 20
689.29582880040812
 11
933.16487216176586
 21
687.89582880040825
  0
ARC
  8
_0-1_計細線
  6
CONTINUOUS
 62
    3
 10
922.26487216397288
 20
687.89582880040825
 40
0.5000000000000002
 50
179.99999999999983
 51
269.99999999999977
  0
LINE
  8
_0-1_計細線
  6
CONTINUOUS
 62
    3
 10
921.764872163973
 20
689.29582880040812
 11
921.764872163973
 21
687.89582880040825
  0
ARC
  8
_0-1_計細線
  6
CONTINUOUS
 62
    3
 10
930.16487216176586
 20
686.39582880040825
 40
1.0000000000000004
 50
89.999999999999915
 51
179.99999999999983
  0
LINE
  8
_0-1_計細線
  6
CONTINUOUS
 62
    3
 10
930.16487216176586
 20
687.3958288004078
 11
932.66487216176586
 21
687.3958288004078
  0
ARC
  8
_0-1_計細線
  6
CONTINUOUS
 62
    3
 10
924.76487216176588
 20
686.39582880040825
 40
1.0000000000000004
 50
0
 51
89.999999999999915
  0
LINE
  8
_0-1_計細線
  6
CONTINUOUS
 62
    3
 10
924.76487216397334
 20
687.3958288004078
 11
922.26487216397288
 21
687.3958288004078
  0
LINE
  8
_0-1_計細線
  6
CONTINUOUS
 62
    3
 10
924.96487216286937
 20
691.29582880040766
 11
929.9648721628696
 21
691.29582880040766
  0
LINE
  8
_0-1_計細線
  6
CONTINUOUS
 62
    3
 10
929.16487216286953
 20
666.29582880040789
 11
929.16487216176608
 21
686.39582880040825
  0
LINE
  8
_0-1_計細線
  6
CONTINUOUS
 62
    3
 10
925.76487216286932
 20
666.29582880040789
 11
925.76487216176577
 21
686.39582880040825
  0
LINE
  8
_0-1_計細線
  6
CONTINUOUS
 62
    3
 10
925.76487216286932
 20
666.29582880040789
 11
929.16487216286953
 21
666.29582880040789
  0
ARC
  8
_0-1_計細線
  6
CONTINUOUS
 62
    3
 10
965.86487235157449
 20
689.29582880040812
 40
1.0000000000000004
 50
0
 51
89.999999999999915
  0
ARC
  8
_0-1_計細線
  6
CONTINUOUS
 62
    3
 10
965.39692316024673
 20
691.29582880040766
 40
1.0000000000000004
 50
209.99999999999216
 51
269.99999999999977
  0
ARC
  8
_0-1_計細線
  6
CONTINUOUS
 62
    3
 10
963.66487235267778
 20
690.29582880040812
 40
1.0000000000000004
 50
29.999999999991644
 51
89.999999999999915
  0
LINE
  8
_0-1_計細線
  6
CONTINUOUS
 62
    3
 10
965.86487235157449
 20
690.29582880040812
 11
965.39692316024673
 21
690.29582880040812
  0
ARC
  8
_0-1_計細線
  6
CONTINUOUS
 62
    3
 10
956.46487235378106
 20
689.29582880040812
 40
1.0000000000000004
 50
89.999999999999915
 51
179.99999999999983
  0
ARC
  8
_0-1_計細線
  6
CONTINUOUS
 62
    3
 10
956.93282154510848
 20
691.29582880040766
 40
1.0000000000000004
 50
269.99999999999977
 51
330.00000000002012
  0
ARC
  8
_0-1_計細線
  6
CONTINUOUS
 62
    3
 10
958.66487235267778
 20
690.29582880040812
 40
1.0000000000000004
 50
89.999999999999915
 51
150.00000000000836
  0
LINE
  8
_0-1_計細線
  6
CONTINUOUS
 62
    3
 10
956.46487235378106
 20
690.29582880040812
 11
956.93282154510848
 21
690.29582880040812
  0
ARC
  8
_0-1_計細線
  6
CONTINUOUS
 62
    3
 10
966.36487235157415
 20
687.89582880040825
 40
0.5000000000000002
 50
269.99999999999977
 51
359.99999999999966
  0
LINE
  8
_0-1_計細線
  6
CONTINUOUS
 62
    3
 10
966.86487235157404
 20
689.29582880040812
 11
966.86487235157404
 21
687.89582880040825
  0
ARC
  8
_0-1_計細線
  6
CONTINUOUS
 62
    3
 10
955.96487235378117
 20
687.89582880040825
 40
0.5000000000000002
 50
179.99999999999983
 51
269.99999999999977
  0
LINE
  8
_0-1_計細線
  6
CONTINUOUS
 62
    3
 10
955.46487235378152
 20
689.29582880040812
 11
955.46487235378152
 21
687.89582880040825
  0
ARC
  8
_0-1_計細線
  6
CONTINUOUS
 62
    3
 10
963.86487235157415
 20
686.39582880040825
 40
1.0000000000000004
 50
89.999999999999915
 51
179.99999999999983
  0
LINE
  8
_0-1_計細線
  6
CONTINUOUS
 62
    3
 10
963.86487235157415
 20
687.3958288004078
 11
966.36487235157415
 21
687.3958288004078
  0
ARC
  8
_0-1_計細線
  6
CONTINUOUS
 62
    3
 10
958.4648723515744
 20
686.39582880040825
 40
1.0000000000000004
 50
0
 51
89.999999999999915
  0
LINE
  8
_0-1_計細線
  6
CONTINUOUS
 62
    3
 10
958.46487235378163
 20
687.3958288004078
 11
955.96487235378117
 21
687.3958288004078
  0
LINE
  8
_0-1_計細線
  6
CONTINUOUS
 62
    3
 10
958.66487235267778
 20
691.29582880040766
 11
963.66487235267778
 21
691.29582880040766
  0
LINE
  8
_0-1_計細線
  6
CONTINUOUS
 62
    3
 10
962.86487235267737
 20
666.29582880040789
 11
962.86487235157438
 21
686.39582880040825
  0
LINE
  8
_0-1_計細線
  6
CONTINUOUS
 62
    3
 10
959.46487235267784
 20
666.29582880040789
 11
959.46487235157394
 21
686.39582880040825
  0
LINE
  8
_0-1_計細線
  6
CONTINUOUS
 62
    3
 10
959.46487235267784
 20
666.29582880040789
 11
962.86487235267737
 21
666.29582880040789
  0
ARC
  8
_0-1_計細線
  6
CONTINUOUS
 62
    3
 10
982.86487235174593
 20
689.29582880040812
 40
1.0000000000000004
 50
0
 51
89.999999999999915
  0
ARC
  8
_0-1_計細線
  6
CONTINUOUS
 62
    3
 10
982.39692316041851
 20
691.29582880040766
 40
1.0000000000000004
 50
209.99999999998565
 51
269.99999999999977
  0
ARC
  8
_0-1_計細線
  6
CONTINUOUS
 62
    3
 10
980.66487235284956
 20
690.29582880040812
 40
1.0000000000000004
 50
29.999999999991644
 51
89.999999999999915
  0
LINE
  8
_0-1_計細線
  6
CONTINUOUS
 62
    3
 10
982.86487235174593
 20
690.29582880040812
 11
982.39692316041851
 21
690.29582880040812
  0
ARC
  8
_0-1_計細線
  6
CONTINUOUS
 62
    3
 10
973.46487235395284
 20
689.29582880040812
 40
1.0000000000000004
 50
89.999999999999915
 51
179.99999999999983
  0
ARC
  8
_0-1_計細線
  6
CONTINUOUS
 62
    3
 10
973.9328215452806
 20
691.29582880040766
 40
1.0000000000000004
 50
269.99999999999977
 51
330.00000000002012
  0
ARC
  8
_0-1_計細線
  6
CONTINUOUS
 62
    3
 10
975.66487235284956
 20
690.29582880040812
 40
1.0000000000000004
 50
90.000000000013031
 51
149.99999999999534
  0
LINE
  8
_0-1_計細線
  6
CONTINUOUS
 62
    3
 10
973.46487235395284
 20
690.29582880040812
 11
973.9328215452806
 21
690.29582880040812
  0
ARC
  8
_0-1_計細線
  6
CONTINUOUS
 62
    3
 10
983.36487235174616
 20
687.89582880040825
 40
0.5000000000000002
 50
269.99999999999977
 51
359.99999999999966
  0
LINE
  8
_0-1_計細線
  6
CONTINUOUS
 62
    3
 10
983.86487235174616
 20
689.29582880040812
 11
983.86487235174616
 21
687.89582880040825
  0
ARC
  8
_0-1_計細線
  6
CONTINUOUS
 62
    3
 10
972.96487235395318
 20
687.89582880040825
 40
0.5000000000000002
 50
179.99999999999983
 51
269.99999999999977
  0
LINE
  8
_0-1_計細線
  6
CONTINUOUS
 62
    3
 10
972.46487235395307
 20
689.29582880040812
 11
972.46487235395307
 21
687.89582880040825
  0
ARC
  8
_0-1_計細線
  6
CONTINUOUS
 62
    3
 10
980.86487235174616
 20
686.39582880040825
 40
1.0000000000000004
 50
89.999999999999915
 51
179.99999999999983
  0
LINE
  8
_0-1_計細線
  6
CONTINUOUS
 62
    3
 10
980.86487235174616
 20
687.3958288004078
 11
983.36487235174616
 21
687.3958288004078
  0
ARC
  8
_0-1_計細線
  6
CONTINUOUS
 62
    3
 10
975.46487235174595
 20
686.39582880040825
 40
1.0000000000000004
 50
0
 51
89.999999999999915
  0
LINE
  8
_0-1_計細線
  6
CONTINUOUS
 62
    3
 10
975.4648723539533
 20
687.3958288004078
 11
972.96487235395318
 21
687.3958288004078
  0
LINE
  8
_0-1_計細線
  6
CONTINUOUS
 62
    3
 10
975.66487235284956
 20
691.29582880040766
 11
980.66487235284956
 21
691.29582880040766
  0
LINE
  8
_0-1_計細線
  6
CONTINUOUS
 62
    3
 10
979.86487235284949
 20
666.29582880040789
 11
979.86487235174604
 21
686.39582880040825
  0
LINE
  8
_0-1_計細線
  6
CONTINUOUS
 62
    3
 10
976.46487235284962
 20
666.29582880040789
 11
976.46487235174607
 21
686.39582880040825
  0
LINE
  8
_0-1_計細線
  6
CONTINUOUS
 62
    3
 10
976.46487235284962
 20
666.29582880040789
 11
979.86487235284949
 21
666.29582880040789
  0
ARC
  8
_0-1_計細線
  6
CONTINUOUS
 62
    3
 10
999.86487235191771
 20
689.29582880040812
 40
1.0000000000000004
 50
0
 51
89.999999999999915
  0
ARC
  8
_0-1_計細線
  6
CONTINUOUS
 62
    3
 10
999.39692316059018
 20
691.29582880040766
 40
1.0000000000000004
 50
209.99999999998565
 51
269.99999999999977
  0
ARC
  8
_0-1_計細線
  6
CONTINUOUS
 62
    3
 10
997.66487235302134
 20
690.29582880040812
 40
1.0000000000000004
 50
29.99999999999816
 51
89.999999999999915
  0
LINE
  8
_0-1_計細線
  6
CONTINUOUS
 62
    3
 10
999.86487235191771
 20
690.29582880040812
 11
999.39692316059018
 21
690.29582880040812
  0
ARC
  8
_0-1_計細線
  6
CONTINUOUS
 62
    3
 10
990.46487235412496
 20
689.29582880040812
 40
1.0000000000000004
 50
89.999999999999915
 51
179.99999999999983
  0
ARC
  8
_0-1_計細線
  6
CONTINUOUS
 62
    3
 10
990.93282154545238
 20
691.29582880040766
 40
1.0000000000000004
 50
269.99999999999977
 51
330.00000000002012
  0
ARC
  8
_0-1_計細線
  6
CONTINUOUS
 62
    3
 10
992.66487235302134
 20
690.29582880040812
 40
1.0000000000000004
 50
90.000000000013031
 51
150.00000000000185
  0
LINE
  8
_0-1_計細線
  6
CONTINUOUS
 62
    3
 10
990.46487235412496
 20
690.29582880040812
 11
990.93282154545238
 21
690.29582880040812
  0
ARC
  8
_0-1_計細線
  6
CONTINUOUS
 62
    3
 10
1000.3648723519179
 20
687.89582880040825
 40
0.5000000000000002
 50
269.99999999999977
 51
359.99999999999966
  0
LINE
  8
_0-1_計細線
  6
CONTINUOUS
 62
    3
 10
1000.8648723519178
 20
689.29582880040812
 11
1000.8648723519178
 21
687.89582880040825
  0
ARC
  8
_0-1_計細線
  6
CONTINUOUS
 62
    3
 10
989.96487235412462
 20
687.89582880040825
 40
0.5000000000000002
 50
179.99999999999983
 51
269.99999999999977
  0
LINE
  8
_0-1_計細線
  6
CONTINUOUS
 62
    3
 10
989.46487235412508
 20
689.29582880040812
 11
989.46487235412508
 21
687.89582880040825
  0
ARC
  8
_0-1_計細線
  6
CONTINUOUS
 62
    3
 10
997.86487235191771
 20
686.39582880040825
 40
1.0000000000000004
 50
89.999999999999915
 51
179.99999999999983
  0
LINE
  8
_0-1_計細線
  6
CONTINUOUS
 62
    3
 10
997.86487235191771
 20
687.3958288004078
 11
1000.3648723519179
 21
687.3958288004078
  0
ARC
  8
_0-1_計細線
  6
CONTINUOUS
 62
    3
 10
992.46487235191762
 20
686.39582880040825
 40
1.0000000000000004
 50
0
 51
89.999999999999915
  0
LINE
  8
_0-1_計細線
  6
CONTINUOUS
 62
    3
 10
992.46487235412496
 20
687.3958288004078
 11
989.96487235412462
 21
687.3958288004078
  0
LINE
  8
_0-1_計細線
  6
CONTINUOUS
 62
    3
 10
992.66487235302134
 20
691.29582880040766
 11
997.66487235302134
 21
691.29582880040766
  0
LINE
  8
_0-1_計細線
  6
CONTINUOUS
 62
    3
 10
996.86487235302127
 20
666.29582880040789
 11
996.86487235191771
 21
686.39582880040825
  0
LINE
  8
_0-1_計細線
  6
CONTINUOUS
 62
    3
 10
993.46487235302129
 20
666.29582880040789
 11
993.46487235191773
 21
686.39582880040825
  0
LINE
  8
_0-1_計細線
  6
CONTINUOUS
 62
    3
 10
993.46487235302129
 20
666.29582880040789
 11
996.86487235302127
 21
666.29582880040789
  0
ARC
  8
_0-1_計細線
  6
CONTINUOUS
 62
    3
 10
1016.8648723520894
 20
689.29582880040812
 40
1.0000000000000004
 50
0
 51
89.999999999999915
  0
ARC
  8
_0-1_計細線
  6
CONTINUOUS
 62
    3
 10
1016.396923160762
 20
691.29582880040766
 40
1.0000000000000004
 50
209.99999999999866
 51
269.99999999999977
  0
ARC
  8
_0-1_計細線
  6
CONTINUOUS
 62
    3
 10
1014.6648723531933
 20
690.29582880040812
 40
1.0000000000000004
 50
29.999999999991644
 51
89.999999999999915
  0
LINE
  8
_0-1_計細線
  6
CONTINUOUS
 62
    3
 10
1016.8648723520894
 20
690.29582880040812
 11
1016.396923160762
 21
690.29582880040812
  0
ARC
  8
_0-1_計細線
  6
CONTINUOUS
 62
    3
 10
1007.4648723542966
 20
689.29582880040812
 40
1.0000000000000004
 50
89.999999999999915
 51
179.99999999999983
  0
ARC
  8
_0-1_計細線
  6
CONTINUOUS
 62
    3
 10
1007.9328215456242
 20
691.29582880040766
 40
1.0000000000000004
 50
269.99999999999977
 51
330.00000000001364
  0
ARC
  8
_0-1_計細線
  6
CONTINUOUS
 62
    3
 10
1009.6648723531933
 20
690.29582880040812
 40
1.0000000000000004
 50
90.000000000026048
 51
150.00000000000836
  0
LINE
  8
_0-1_計細線
  6
CONTINUOUS
 62
    3
 10
1007.4648723542966
 20
690.29582880040812
 11
1007.9328215456242
 21
690.29582880040812
  0
ARC
  8
_0-1_計細線
  6
CONTINUOUS
 62
    3
 10
1017.3648723520897
 20
687.89582880040825
 40
0.5000000000000002
 50
269.99999999999977
 51
359.99999999999966
  0
LINE
  8
_0-1_計細線
  6
CONTINUOUS
 62
    3
 10
1017.8648723520896
 20
689.29582880040812
 11
1017.8648723520896
 21
687.89582880040825
  0
ARC
  8
_0-1_計細線
  6
CONTINUOUS
 62
    3
 10
1006.9648723542969
 20
687.89582880040825
 40
0.5000000000000002
 50
179.99999999999983
 51
269.99999999999977
  0
LINE
  8
_0-1_計細線
  6
CONTINUOUS
 62
    3
 10
1006.4648723542967
 20
689.29582880040812
 11
1006.4648723542967
 21
687.89582880040825
  0
ARC
  8
_0-1_計細線
  6
CONTINUOUS
 62
    3
 10
1014.8648723520894
 20
686.39582880040825
 40
1.0000000000000004
 50
89.999999999999915
 51
179.99999999999983
  0
LINE
  8
_0-1_計細線
  6
CONTINUOUS
 62
    3
 10
1014.8648723520894
 20
687.3958288004078
 11
1017.3648723520897
 21
687.3958288004078
  0
ARC
  8
_0-1_計細線
  6
CONTINUOUS
 62
    3
 10
1009.4648723520893
 20
686.39582880040825
 40
1.0000000000000004
 50
0
 51
89.999999999999915
  0
LINE
  8
_0-1_計細線
  6
CONTINUOUS
 62
    3
 10
1009.4648723542967
 20
687.3958288004078
 11
1006.9648723542969
 21
687.3958288004078
  0
LINE
  8
_0-1_計細線
  6
CONTINUOUS
 62
    3
 10
1009.6648723531933
 20
691.29582880040766
 11
1014.6648723531933
 21
691.29582880040766
  0
LINE
  8
_0-1_計細線
  6
CONTINUOUS
 62
    3
 10
1013.8648723531931
 20
666.29582880040789
 11
1013.8648723520895
 21
686.39582880040825
  0
LINE
  8
_0-1_計細線
  6
CONTINUOUS
 62
    3
 10
1010.4648723531931
 20
666.29582880040789
 11
1010.4648723520895
 21
686.39582880040825
  0
LINE
  8
_0-1_計細線
  6
CONTINUOUS
 62
    3
 10
1010.4648723531931
 20
666.29582880040789
 11
1013.8648723531931
 21
666.29582880040789
  0
ARC
  8
_0-1_計細線
  6
CONTINUOUS
 62
    3
 10
1228.4648721667049
 20
689.29582880040812
 40
1.0000000000000004
 50
89.999999999999915
 51
179.99999999999983
  0
ARC
  8
_0-1_計細線
  6
CONTINUOUS
 62
    3
 10
1228.9328213580322
 20
691.29582880040766
 40
1.0000000000000004
 50
269.99999999999977
 51
330.00000000001364
  0
ARC
  8
_0-1_計細線
  6
CONTINUOUS
 62
    3
 10
1230.6648721656013
 20
690.29582880040812
 40
1.0000000000000004
 50
89.999999999999915
 51
150.00000000000836
  0
LINE
  8
_0-1_計細線
  6
CONTINUOUS
 62
    3
 10
1228.4648721667049
 20
690.29582880040812
 11
1228.9328213580322
 21
690.29582880040812
  0
ARC
  8
_0-1_計細線
  6
CONTINUOUS
 62
    3
 10
1237.8648721644981
 20
689.29582880040812
 40
1.0000000000000004
 50
0
 51
89.999999999999915
  0
ARC
  8
_0-1_計細線
  6
CONTINUOUS
 62
    3
 10
1237.3969229731706
 20
691.29582880040766
 40
1.0000000000000004
 50
209.99999999998565
 51
269.99999999999977
  0
ARC
  8
_0-1_計細線
  6
CONTINUOUS
 62
    3
 10
1235.6648721656013
 20
690.29582880040812
 40
1.0000000000000004
 50
29.999999999991644
 51
89.999999999999915
  0
LINE
  8
_0-1_計細線
  6
CONTINUOUS
 62
    3
 10
1237.8648721644981
 20
690.29582880040812
 11
1237.3969229731706
 21
690.29582880040812
  0
ARC
  8
_0-1_計細線
  6
CONTINUOUS
 62
    3
 10
1227.9648721667049
 20
687.89582880040825
 40
0.5000000000000002
 50
179.99999999999983
 51
269.99999999999977
  0
LINE
  8
_0-1_計細線
  6
CONTINUOUS
 62
    3
 10
1227.4648721667052
 20
689.29582880040812
 11
1227.4648721667052
 21
687.89582880040825
  0
ARC
  8
_0-1_計細線
  6
CONTINUOUS
 62
    3
 10
1238.3648721644977
 20
687.89582880040825
 40
0.5000000000000002
 50
269.99999999999977
 51
359.99999999999966
  0
LINE
  8
_0-1_計細線
  6
CONTINUOUS
 62
    3
 10
1238.8648721644977
 20
689.29582880040812
 11
1238.8648721644977
 21
687.89582880040825
  0
ARC
  8
_0-1_計細線
  6
CONTINUOUS
 62
    3
 10
1230.4648721667047
 20
686.39582880040825
 40
1.0000000000000004
 50
0
 51
89.999999999999915
  0
LINE
  8
_0-1_計細線
  6
CONTINUOUS
 62
    3
 10
1230.4648721667047
 20
687.3958288004078
 11
1227.9648721667049
 21
687.3958288004078
  0
ARC
  8
_0-1_計細線
  6
CONTINUOUS
 62
    3
 10
1235.864872166705
 20
686.39582880040825
 40
1.0000000000000004
 50
89.999999999999915
 51
179.99999999999983
  0
LINE
  8
_0-1_計細線
  6
CONTINUOUS
 62
    3
 10
1235.8648721644975
 20
687.3958288004078
 11
1238.3648721644977
 21
687.3958288004078
  0
LINE
  8
_0-1_計細線
  6
CONTINUOUS
 62
    3
 10
1235.6648721656013
 20
691.29582880040766
 11
1230.6648721656013
 21
691.29582880040766
  0
LINE
  8
_0-1_計細線
  6
CONTINUOUS
 62
    3
 10
1231.4648721656017
 20
666.29582880040789
 11
1231.4648721667047
 21
686.39582880040825
  0
LINE
  8
_0-1_計細線
  6
CONTINUOUS
 62
    3
 10
1234.8648721656011
 20
666.29582880040789
 11
1234.8648721667053
 21
686.39582880040825
  0
LINE
  8
_0-1_計細線
  6
CONTINUOUS
 62
    3
 10
1234.8648721656011
 20
666.29582880040789
 11
1231.4648721656017
 21
666.29582880040789
  0
ARC
  8
_0-1_計細線
  6
CONTINUOUS
 62
    3
 10
1211.4648721665333
 20
689.29582880040812
 40
1.0000000000000004
 50
89.999999999999915
 51
179.99999999999983
  0
ARC
  8
_0-1_計細線
  6
CONTINUOUS
 62
    3
 10
1211.932821357861
 20
691.29582880040766
 40
1.0000000000000004
 50
269.99999999999977
 51
330.00000000000057
  0
ARC
  8
_0-1_計細線
  6
CONTINUOUS
 62
    3
 10
1213.6648721654294
 20
690.29582880040812
 40
1.0000000000000004
 50
89.999999999999915
 51
150.00000000000836
  0
LINE
  8
_0-1_計細線
  6
CONTINUOUS
 62
    3
 10
1211.4648721665333
 20
690.29582880040812
 11
1211.932821357861
 21
690.29582880040812
  0
ARC
  8
_0-1_計細線
  6
CONTINUOUS
 62
    3
 10
1220.8648721643258
 20
689.29582880040812
 40
1.0000000000000004
 50
0
 51
89.999999999999915
  0
ARC
  8
_0-1_計細線
  6
CONTINUOUS
 62
    3
 10
1220.3969229729983
 20
691.29582880040766
 40
1.0000000000000004
 50
209.99999999998565
 51
269.99999999999977
  0
ARC
  8
_0-1_計細線
  6
CONTINUOUS
 62
    3
 10
1218.6648721654296
 20
690.29582880040812
 40
1.0000000000000004
 50
30.000000000004672
 51
89.999999999999915
  0
LINE
  8
_0-1_計細線
  6
CONTINUOUS
 62
    3
 10
1220.8648721643258
 20
690.29582880040812
 11
1220.3969229729983
 21
690.29582880040812
  0
ARC
  8
_0-1_計細線
  6
CONTINUOUS
 62
    3
 10
1210.9648721665333
 20
687.89582880040825
 40
0.5000000000000002
 50
179.99999999999983
 51
269.99999999999977
  0
LINE
  8
_0-1_計細線
  6
CONTINUOUS
 62
    3
 10
1210.4648721665328
 20
689.29582880040812
 11
1210.4648721665328
 21
687.89582880040825
  0
ARC
  8
_0-1_計細線
  6
CONTINUOUS
 62
    3
 10
1221.3648721643262
 20
687.89582880040825
 40
0.5000000000000002
 50
269.99999999999977
 51
359.99999999999966
  0
LINE
  8
_0-1_計細線
  6
CONTINUOUS
 62
    3
 10
1221.864872164326
 20
689.29582880040812
 11
1221.864872164326
 21
687.89582880040825
  0
ARC
  8
_0-1_計細線
  6
CONTINUOUS
 62
    3
 10
1213.464872166533
 20
686.39582880040825
 40
1.0000000000000004
 50
0
 51
89.999999999999915
  0
LINE
  8
_0-1_計細線
  6
CONTINUOUS
 62
    3
 10
1213.464872166533
 20
687.3958288004078
 11
1210.9648721665333
 21
687.3958288004078
  0
ARC
  8
_0-1_計細線
  6
CONTINUOUS
 62
    3
 10
1218.8648721665334
 20
686.39582880040825
 40
1.0000000000000004
 50
89.999999999999915
 51
179.99999999999983
  0
LINE
  8
_0-1_計細線
  6
CONTINUOUS
 62
    3
 10
1218.8648721643258
 20
687.3958288004078
 11
1221.3648721643262
 21
687.3958288004078
  0
LINE
  8
_0-1_計細線
  6
CONTINUOUS
 62
    3
 10
1218.6648721654296
 20
691.29582880040766
 11
1213.6648721654294
 21
691.29582880040766
  0
LINE
  8
_0-1_計細線
  6
CONTINUOUS
 62
    3
 10
1214.4648721654294
 20
666.29582880040789
 11
1214.464872166533
 21
686.39582880040825
  0
LINE
  8
_0-1_計細線
  6
CONTINUOUS
 62
    3
 10
1217.8648721654299
 20
666.29582880040789
 11
1217.8648721665329
 21
686.39582880040825
  0
LINE
  8
_0-1_計細線
  6
CONTINUOUS
 62
    3
 10
1217.8648721654299
 20
666.29582880040789
 11
1214.4648721654294
 21
666.29582880040789
  0
ARC
  8
_0-1_計細線
  6
CONTINUOUS
 62
    3
 10
1194.4648721663614
 20
689.29582880040812
 40
1.0000000000000004
 50
89.999999999999915
 51
179.99999999999983
  0
ARC
  8
_0-1_計細線
  6
CONTINUOUS
 62
    3
 10
1194.9328213576889
 20
691.29582880040766
 40
1.0000000000000004
 50
269.99999999999977
 51
330.00000000001364
  0
ARC
  8
_0-1_計細線
  6
CONTINUOUS
 62
    3
 10
1196.6648721652575
 20
690.29582880040812
 40
1.0000000000000004
 50
89.999999999999915
 51
149.99999999999534
  0
LINE
  8
_0-1_計細線
  6
CONTINUOUS
 62
    3
 10
1194.4648721663614
 20
690.29582880040812
 11
1194.9328213576889
 21
690.29582880040812
  0
ARC
  8
_0-1_計細線
  6
CONTINUOUS
 62
    3
 10
1203.8648721641541
 20
689.29582880040812
 40
1.0000000000000004
 50
0
 51
89.999999999999915
  0
ARC
  8
_0-1_計細線
  6
CONTINUOUS
 62
    3
 10
1203.3969229728268
 20
691.29582880040766
 40
1.0000000000000004
 50
209.99999999997914
 51
269.99999999999977
  0
ARC
  8
_0-1_計細線
  6
CONTINUOUS
 62
    3
 10
1201.6648721652575
 20
690.29582880040812
 40
1.0000000000000004
 50
29.999999999991644
 51
89.999999999973952
  0
LINE
  8
_0-1_計細線
  6
CONTINUOUS
 62
    3
 10
1203.8648721641541
 20
690.29582880040812
 11
1203.3969229728268
 21
690.29582880040812
  0
ARC
  8
_0-1_計細線
  6
CONTINUOUS
 62
    3
 10
1193.9648721663611
 20
687.89582880040825
 40
0.5000000000000002
 50
179.99999999999983
 51
269.99999999999977
  0
LINE
  8
_0-1_計細線
  6
CONTINUOUS
 62
    3
 10
1193.4648721663616
 20
689.29582880040812
 11
1193.4648721663616
 21
687.89582880040825
  0
ARC
  8
_0-1_計細線
  6
CONTINUOUS
 62
    3
 10
1204.3648721641546
 20
687.89582880040825
 40
0.5000000000000002
 50
269.99999999999977
 51
359.99999999999966
  0
LINE
  8
_0-1_計細線
  6
CONTINUOUS
 62
    3
 10
1204.8648721641541
 20
689.29582880040812
 11
1204.8648721641541
 21
687.89582880040825
  0
ARC
  8
_0-1_計細線
  6
CONTINUOUS
 62
    3
 10
1196.4648721663614
 20
686.39582880040825
 40
1.0000000000000004
 50
0
 51
89.999999999999915
  0
LINE
  8
_0-1_計細線
  6
CONTINUOUS
 62
    3
 10
1196.4648721663614
 20
687.3958288004078
 11
1193.9648721663611
 21
687.3958288004078
  0
ARC
  8
_0-1_計細線
  6
CONTINUOUS
 62
    3
 10
1201.8648721663615
 20
686.39582880040825
 40
1.0000000000000004
 50
89.999999999999915
 51
179.99999999999983
  0
LINE
  8
_0-1_計細線
  6
CONTINUOUS
 62
    3
 10
1201.8648721641541
 20
687.3958288004078
 11
1204.3648721641546
 21
687.3958288004078
  0
LINE
  8
_0-1_計細線
  6
CONTINUOUS
 62
    3
 10
1201.6648721652575
 20
691.29582880040766
 11
1196.6648721652575
 21
691.29582880040766
  0
LINE
  8
_0-1_計細線
  6
CONTINUOUS
 62
    3
 10
1197.4648721652579
 20
666.29582880040789
 11
1197.4648721663614
 21
686.39582880040825
  0
LINE
  8
_0-1_計細線
  6
CONTINUOUS
 62
    3
 10
1200.8648721652578
 20
666.29582880040789
 11
1200.8648721663617
 21
686.39582880040825
  0
LINE
  8
_0-1_計細線
  6
CONTINUOUS
 62
    3
 10
1200.8648721652578
 20
666.29582880040789
 11
1197.4648721652579
 21
666.29582880040789
  0
ARC
  8
_0-1_計細線
  6
CONTINUOUS
 62
    3
 10
1024.4648721634851
 20
689.29582880040812
 40
1.0000000000000004
 50
89.999999999999915
 51
179.99999999999983
  0
ARC
  8
_0-1_計細線
  6
CONTINUOUS
 62
    3
 10
1024.9328213548126
 20
691.29582880040766
 40
1.0000000000000004
 50
269.99999999999977
 51
330.00000000001364
  0
ARC
  8
_0-1_計細線
  6
CONTINUOUS
 62
    3
 10
1026.6648721623819
 20
690.29582880040812
 40
1.0000000000000004
 50
89.999999999999915
 51
150.00000000000836
  0
LINE
  8
_0-1_計細線
  6
CONTINUOUS
 62
    3
 10
1024.4648721634851
 20
690.29582880040812
 11
1024.9328213548126
 21
690.29582880040812
  0
ARC
  8
_0-1_計細線
  6
CONTINUOUS
 62
    3
 10
1033.8648721612778
 20
689.29582880040812
 40
1.0000000000000004
 50
0
 51
89.999999999999915
  0
ARC
  8
_0-1_計細線
  6
CONTINUOUS
 62
    3
 10
1033.3969229699503
 20
691.29582880040766
 40
1.0000000000000004
 50
209.99999999998565
 51
269.99999999999977
  0
ARC
  8
_0-1_計細線
  6
CONTINUOUS
 62
    3
 10
1031.6648721623815
 20
690.29582880040812
 40
1.0000000000000004
 50
29.99999999999816
 51
89.999999999986969
  0
LINE
  8
_0-1_計細線
  6
CONTINUOUS
 62
    3
 10
1033.8648721612778
 20
690.29582880040812
 11
1033.3969229699503
 21
690.29582880040812
  0
ARC
  8
_0-1_計細線
  6
CONTINUOUS
 62
    3
 10
1023.9648721634853
 20
687.89582880040825
 40
0.5000000000000002
 50
179.99999999999983
 51
269.99999999999977
  0
LINE
  8
_0-1_計細線
  6
CONTINUOUS
 62
    3
 10
1023.4648721634852
 20
689.29582880040812
 11
1023.4648721634852
 21
687.89582880040825
  0
ARC
  8
_0-1_計細線
  6
CONTINUOUS
 62
    3
 10
1034.3648721612783
 20
687.89582880040825
 40
0.5000000000000002
 50
269.99999999999977
 51
359.99999999999966
  0
LINE
  8
_0-1_計細線
  6
CONTINUOUS
 62
    3
 10
1034.8648721612785
 20
689.29582880040812
 11
1034.8648721612785
 21
687.89582880040825
  0
ARC
  8
_0-1_計細線
  6
CONTINUOUS
 62
    3
 10
1026.4648721634851
 20
686.39582880040825
 40
1.0000000000000004
 50
0
 51
89.999999999999915
  0
LINE
  8
_0-1_計細線
  6
CONTINUOUS
 62
    3
 10
1026.4648721634851
 20
687.3958288004078
 11
1023.9648721634853
 21
687.3958288004078
  0
ARC
  8
_0-1_計細線
  6
CONTINUOUS
 62
    3
 10
1031.8648721634852
 20
686.39582880040825
 40
1.0000000000000004
 50
89.999999999999915
 51
179.99999999999983
  0
LINE
  8
_0-1_計細線
  6
CONTINUOUS
 62
    3
 10
1031.8648721612776
 20
687.3958288004078
 11
1034.3648721612783
 21
687.3958288004078
  0
LINE
  8
_0-1_計細線
  6
CONTINUOUS
 62
    3
 10
1031.6648721623815
 20
691.29582880040766
 11
1026.6648721623819
 21
691.29582880040766
  0
LINE
  8
_0-1_計細線
  6
CONTINUOUS
 62
    3
 10
1027.4648721623814
 20
666.29582880040789
 11
1027.4648721634849
 21
686.39582880040825
  0
LINE
  8
_0-1_計細線
  6
CONTINUOUS
 62
    3
 10
1030.8648721623815
 20
666.29582880040789
 11
1030.8648721634854
 21
686.39582880040825
  0
LINE
  8
_0-1_計細線
  6
CONTINUOUS
 62
    3
 10
1030.8648721623815
 20
666.29582880040789
 11
1027.4648721623814
 21
666.29582880040789
  0
ARC
  8
_0-1_計細線
  6
CONTINUOUS
 62
    3
 10
1177.4648721661897
 20
689.29582880040812
 40
1.0000000000000004
 50
89.999999999999915
 51
179.99999999999983
  0
ARC
  8
_0-1_計細線
  6
CONTINUOUS
 62
    3
 10
1177.9328213575172
 20
691.29582880040766
 40
1.0000000000000004
 50
269.99999999999977
 51
330.00000000000057
  0
ARC
  8
_0-1_計細線
  6
CONTINUOUS
 62
    3
 10
1179.6648721650859
 20
690.29582880040812
 40
1.0000000000000004
 50
89.999999999999915
 51
150.00000000000836
  0
LINE
  8
_0-1_計細線
  6
CONTINUOUS
 62
    3
 10
1177.4648721661897
 20
690.29582880040812
 11
1177.9328213575172
 21
690.29582880040812
  0
ARC
  8
_0-1_計細線
  6
CONTINUOUS
 62
    3
 10
1186.8648721639825
 20
689.29582880040812
 40
1.0000000000000004
 50
0
 51
89.999999999999915
  0
ARC
  8
_0-1_計細線
  6
CONTINUOUS
 62
    3
 10
1186.3969229726545
 20
691.29582880040766
 40
1.0000000000000004
 50
210.00000000000517
 51
269.99999999999977
  0
ARC
  8
_0-1_計細線
  6
CONTINUOUS
 62
    3
 10
1184.6648721650859
 20
690.29582880040812
 40
1.0000000000000004
 50
29.999999999985132
 51
89.999999999999915
  0
LINE
  8
_0-1_計細線
  6
CONTINUOUS
 62
    3
 10
1186.8648721639825
 20
690.29582880040812
 11
1186.3969229726545
 21
690.29582880040812
  0
ARC
  8
_0-1_計細線
  6
CONTINUOUS
 62
    3
 10
1176.9648721661895
 20
687.89582880040825
 40
0.5000000000000002
 50
179.99999999999983
 51
269.99999999999977
  0
LINE
  8
_0-1_計細線
  6
CONTINUOUS
 62
    3
 10
1176.4648721661897
 20
689.29582880040812
 11
1176.4648721661897
 21
687.89582880040825
  0
ARC
  8
_0-1_計細線
  6
CONTINUOUS
 62
    3
 10
1187.3648721639822
 20
687.89582880040825
 40
0.5000000000000002
 50
269.99999999999977
 51
359.99999999999966
  0
LINE
  8
_0-1_計細線
  6
CONTINUOUS
 62
    3
 10
1187.8648721639827
 20
689.29582880040812
 11
1187.8648721639827
 21
687.89582880040825
  0
ARC
  8
_0-1_計細線
  6
CONTINUOUS
 62
    3
 10
1179.4648721661895
 20
686.39582880040825
 40
1.0000000000000004
 50
0
 51
89.999999999999915
  0
LINE
  8
_0-1_計細線
  6
CONTINUOUS
 62
    3
 10
1179.4648721661895
 20
687.3958288004078
 11
1176.9648721661895
 21
687.3958288004078
  0
ARC
  8
_0-1_計細線
  6
CONTINUOUS
 62
    3
 10
1184.8648721661898
 20
686.39582880040825
 40
1.0000000000000004
 50
89.999999999999915
 51
179.99999999999983
  0
LINE
  8
_0-1_計細線
  6
CONTINUOUS
 62
    3
 10
1184.8648721639822
 20
687.3958288004078
 11
1187.3648721639822
 21
687.3958288004078
  0
LINE
  8
_0-1_計細線
  6
CONTINUOUS
 62
    3
 10
1184.6648721650859
 20
691.29582880040766
 11
1179.6648721650859
 21
691.29582880040766
  0
LINE
  8
_0-1_計細線
  6
CONTINUOUS
 62
    3
 10
1180.4648721650856
 20
666.29582880040789
 11
1180.4648721661895
 21
686.39582880040825
  0
LINE
  8
_0-1_計細線
  6
CONTINUOUS
 62
    3
 10
1183.8648721650861
 20
666.29582880040789
 11
1183.8648721661898
 21
686.39582880040825
  0
LINE
  8
_0-1_計細線
  6
CONTINUOUS
 62
    3
 10
1183.8648721650861
 20
666.29582880040789
 11
1180.4648721650856
 21
666.29582880040789
  0
ARC
  8
_0-1_計細線
  6
CONTINUOUS
 62
    3
 10
1160.4648721658277
 20
689.29582880040812
 40
1.0000000000000004
 50
89.999999999999915
 51
179.99999999999983
  0
ARC
  8
_0-1_計細線
  6
CONTINUOUS
 62
    3
 10
1160.932821357155
 20
691.29582880040766
 40
1.0000000000000004
 50
269.99999999999977
 51
330.00000000001364
  0
ARC
  8
_0-1_計細線
  6
CONTINUOUS
 62
    3
 10
1162.6648721647239
 20
690.29582880040812
 40
1.0000000000000004
 50
89.999999999999915
 51
150.00000000000185
  0
LINE
  8
_0-1_計細線
  6
CONTINUOUS
 62
    3
 10
1160.4648721658277
 20
690.29582880040812
 11
1160.932821357155
 21
690.29582880040812
  0
ARC
  8
_0-1_計細線
  6
CONTINUOUS
 62
    3
 10
1169.8648721636205
 20
689.29582880040812
 40
1.0000000000000004
 50
0
 51
89.999999999999915
  0
ARC
  8
_0-1_計細線
  6
CONTINUOUS
 62
    3
 10
1169.3969229722929
 20
691.29582880040766
 40
1.0000000000000004
 50
209.99999999998565
 51
269.99999999999977
  0
ARC
  8
_0-1_計細線
  6
CONTINUOUS
 62
    3
 10
1167.6648721647241
 20
690.29582880040812
 40
1.0000000000000004
 50
29.99999999999816
 51
89.999999999999915
  0
LINE
  8
_0-1_計細線
  6
CONTINUOUS
 62
    3
 10
1169.8648721636205
 20
690.29582880040812
 11
1169.3969229722929
 21
690.29582880040812
  0
ARC
  8
_0-1_計細線
  6
CONTINUOUS
 62
    3
 10
1159.9648721658282
 20
687.89582880040825
 40
0.5000000000000002
 50
179.99999999999983
 51
269.99999999999977
  0
LINE
  8
_0-1_計細線
  6
CONTINUOUS
 62
    3
 10
1159.4648721658275
 20
689.29582880040812
 11
1159.4648721658275
 21
687.89582880040825
  0
ARC
  8
_0-1_計細線
  6
CONTINUOUS
 62
    3
 10
1170.3648721636207
 20
687.89582880040825
 40
0.5000000000000002
 50
269.99999999999977
 51
359.99999999999966
  0
LINE
  8
_0-1_計細線
  6
CONTINUOUS
 62
    3
 10
1170.8648721636205
 20
689.29582880040812
 11
1170.8648721636205
 21
687.89582880040825
  0
ARC
  8
_0-1_計細線
  6
CONTINUOUS
 62
    3
 10
1162.4648721658275
 20
686.39582880040825
 40
1.0000000000000004
 50
0
 51
89.999999999999915
  0
LINE
  8
_0-1_計細線
  6
CONTINUOUS
 62
    3
 10
1162.4648721658275
 20
687.3958288004078
 11
1159.9648721658282
 21
687.3958288004078
  0
ARC
  8
_0-1_計細線
  6
CONTINUOUS
 62
    3
 10
1167.8648721658278
 20
686.39582880040825
 40
1.0000000000000004
 50
89.999999999999915
 51
179.99999999999983
  0
LINE
  8
_0-1_計細線
  6
CONTINUOUS
 62
    3
 10
1167.8648721636205
 20
687.3958288004078
 11
1170.3648721636207
 21
687.3958288004078
  0
LINE
  8
_0-1_計細線
  6
CONTINUOUS
 62
    3
 10
1167.6648721647241
 20
691.29582880040766
 11
1162.6648721647239
 21
691.29582880040766
  0
LINE
  8
_0-1_計細線
  6
CONTINUOUS
 62
    3
 10
1163.4648721647245
 20
666.29582880040789
 11
1163.4648721658277
 21
686.39582880040825
  0
LINE
  8
_0-1_計細線
  6
CONTINUOUS
 62
    3
 10
1166.8648721647239
 20
666.29582880040789
 11
1166.8648721658278
 21
686.39582880040825
  0
LINE
  8
_0-1_計細線
  6
CONTINUOUS
 62
    3
 10
1166.8648721647239
 20
666.29582880040789
 11
1163.4648721647245
 21
666.29582880040789
  0
ARC
  8
_0-1_計細線
  6
CONTINUOUS
 62
    3
 10
1041.4648721634851
 20
689.29582880040812
 40
1.0000000000000004
 50
89.999999999999915
 51
179.99999999999983
  0
ARC
  8
_0-1_計細線
  6
CONTINUOUS
 62
    3
 10
1041.9328213548129
 20
691.29582880040766
 40
1.0000000000000004
 50
269.99999999999977
 51
330.00000000000711
  0
ARC
  8
_0-1_計細線
  6
CONTINUOUS
 62
    3
 10
1043.6648721623817
 20
690.29582880040812
 40
1.0000000000000004
 50
89.999999999999915
 51
150.00000000000836
  0
LINE
  8
_0-1_計細線
  6
CONTINUOUS
 62
    3
 10
1041.4648721634851
 20
690.29582880040812
 11
1041.9328213548129
 21
690.29582880040812
  0
ARC
  8
_0-1_計細線
  6
CONTINUOUS
 62
    3
 10
1050.8648721612781
 20
689.29582880040812
 40
1.0000000000000004
 50
0
 51
89.999999999999915
  0
ARC
  8
_0-1_計細線
  6
CONTINUOUS
 62
    3
 10
1050.396922969951
 20
691.29582880040766
 40
1.0000000000000004
 50
209.9999999999726
 51
269.99999999999977
  0
ARC
  8
_0-1_計細線
  6
CONTINUOUS
 62
    3
 10
1048.6648721623815
 20
690.29582880040812
 40
1.0000000000000004
 50
29.999999999991644
 51
89.999999999999915
  0
LINE
  8
_0-1_計細線
  6
CONTINUOUS
 62
    3
 10
1050.8648721612781
 20
690.29582880040812
 11
1050.396922969951
 21
690.29582880040812
  0
ARC
  8
_0-1_計細線
  6
CONTINUOUS
 62
    3
 10
1040.9648721634853
 20
687.89582880040825
 40
0.5000000000000002
 50
179.99999999999983
 51
269.99999999999977
  0
LINE
  8
_0-1_計細線
  6
CONTINUOUS
 62
    3
 10
1040.4648721634853
 20
689.29582880040812
 11
1040.4648721634853
 21
687.89582880040825
  0
ARC
  8
_0-1_計細線
  6
CONTINUOUS
 62
    3
 10
1051.3648721612781
 20
687.89582880040825
 40
0.5000000000000002
 50
269.99999999999977
 51
359.99999999999966
  0
LINE
  8
_0-1_計細線
  6
CONTINUOUS
 62
    3
 10
1051.8648721612783
 20
689.29582880040812
 11
1051.8648721612783
 21
687.89582880040825
  0
ARC
  8
_0-1_計細線
  6
CONTINUOUS
 62
    3
 10
1043.4648721634853
 20
686.39582880040825
 40
1.0000000000000004
 50
0
 51
89.999999999999915
  0
LINE
  8
_0-1_計細線
  6
CONTINUOUS
 62
    3
 10
1043.4648721634853
 20
687.3958288004078
 11
1040.9648721634853
 21
687.3958288004078
  0
ARC
  8
_0-1_計細線
  6
CONTINUOUS
 62
    3
 10
1048.8648721634852
 20
686.39582880040825
 40
1.0000000000000004
 50
89.999999999999915
 51
179.99999999999983
  0
LINE
  8
_0-1_計細線
  6
CONTINUOUS
 62
    3
 10
1048.8648721612778
 20
687.3958288004078
 11
1051.3648721612781
 21
687.3958288004078
  0
LINE
  8
_0-1_計細線
  6
CONTINUOUS
 62
    3
 10
1048.6648721623815
 20
691.29582880040766
 11
1043.6648721623817
 21
691.29582880040766
  0
LINE
  8
_0-1_計細線
  6
CONTINUOUS
 62
    3
 10
1044.4648721623821
 20
666.29582880040789
 11
1044.4648721634856
 21
686.39582880040825
  0
LINE
  8
_0-1_計細線
  6
CONTINUOUS
 62
    3
 10
1047.8648721623817
 20
666.29582880040789
 11
1047.8648721634854
 21
686.39582880040825
  0
LINE
  8
_0-1_計細線
  6
CONTINUOUS
 62
    3
 10
1047.8648721623817
 20
666.29582880040789
 11
1044.4648721623821
 21
666.29582880040789
  0
ARC
  8
_0-1_計細線
  6
CONTINUOUS
 62
    3
 10
1058.4648721638471
 20
689.29582880040812
 40
1.0000000000000004
 50
89.999999999999915
 51
179.99999999999983
  0
ARC
  8
_0-1_計細線
  6
CONTINUOUS
 62
    3
 10
1058.9328213551751
 20
691.29582880040766
 40
1.0000000000000004
 50
269.99999999999977
 51
330.00000000000057
  0
ARC
  8
_0-1_計細線
  6
CONTINUOUS
 62
    3
 10
1060.6648721627437
 20
690.29582880040812
 40
1.0000000000000004
 50
89.999999999999915
 51
150.00000000000836
  0
LINE
  8
_0-1_計細線
  6
CONTINUOUS
 62
    3
 10
1058.4648721638471
 20
690.29582880040812
 11
1058.9328213551751
 21
690.29582880040812
  0
ARC
  8
_0-1_計細線
  6
CONTINUOUS
 62
    3
 10
1067.8648721616398
 20
689.29582880040812
 40
1.0000000000000004
 50
0
 51
89.999999999999915
  0
ARC
  8
_0-1_計細線
  6
CONTINUOUS
 62
    3
 10
1067.3969229703125
 20
691.29582880040766
 40
1.0000000000000004
 50
209.99999999997914
 51
269.99999999999977
  0
ARC
  8
_0-1_計細線
  6
CONTINUOUS
 62
    3
 10
1065.6648721627437
 20
690.29582880040812
 40
1.0000000000000004
 50
30.000000000011187
 51
89.999999999999915
  0
LINE
  8
_0-1_計細線
  6
CONTINUOUS
 62
    3
 10
1067.8648721616398
 20
690.29582880040812
 11
1067.3969229703125
 21
690.29582880040812
  0
ARC
  8
_0-1_計細線
  6
CONTINUOUS
 62
    3
 10
1057.9648721638473
 20
687.89582880040825
 40
0.5000000000000002
 50
179.99999999999983
 51
269.99999999999977
  0
LINE
  8
_0-1_計細線
  6
CONTINUOUS
 62
    3
 10
1057.4648721638468
 20
689.29582880040812
 11
1057.4648721638468
 21
687.89582880040825
  0
ARC
  8
_0-1_計細線
  6
CONTINUOUS
 62
    3
 10
1068.3648721616401
 20
687.89582880040825
 40
0.5000000000000002
 50
269.99999999999977
 51
359.99999999999966
  0
LINE
  8
_0-1_計細線
  6
CONTINUOUS
 62
    3
 10
1068.8648721616398
 20
689.29582880040812
 11
1068.8648721616398
 21
687.89582880040825
  0
ARC
  8
_0-1_計細線
  6
CONTINUOUS
 62
    3
 10
1060.4648721638473
 20
686.39582880040825
 40
1.0000000000000004
 50
0
 51
89.999999999999915
  0
LINE
  8
_0-1_計細線
  6
CONTINUOUS
 62
    3
 10
1060.4648721638473
 20
687.3958288004078
 11
1057.9648721638473
 21
687.3958288004078
  0
ARC
  8
_0-1_計細線
  6
CONTINUOUS
 62
    3
 10
1065.8648721638472
 20
686.39582880040825
 40
1.0000000000000004
 50
89.999999999999915
 51
179.99999999999983
  0
LINE
  8
_0-1_計細線
  6
CONTINUOUS
 62
    3
 10
1065.8648721616398
 20
687.3958288004078
 11
1068.3648721616401
 21
687.3958288004078
  0
LINE
  8
_0-1_計細線
  6
CONTINUOUS
 62
    3
 10
1065.6648721627437
 20
691.29582880040766
 11
1060.6648721627437
 21
691.29582880040766
  0
LINE
  8
_0-1_計細線
  6
CONTINUOUS
 62
    3
 10
1061.4648721627436
 20
666.29582880040789
 11
1061.4648721638471
 21
686.39582880040825
  0
LINE
  8
_0-1_計細線
  6
CONTINUOUS
 62
    3
 10
1064.8648721627439
 20
666.29582880040789
 11
1064.8648721638469
 21
686.39582880040825
  0
LINE
  8
_0-1_計細線
  6
CONTINUOUS
 62
    3
 10
1064.8648721627439
 20
666.29582880040789
 11
1061.4648721627436
 21
666.29582880040789
  0
ARC
  8
_0-1_計細線
  6
CONTINUOUS
 62
    3
 10
1075.4648721642093
 20
689.29582880040812
 40
1.0000000000000004
 50
89.999999999999915
 51
179.99999999999983
  0
ARC
  8
_0-1_計細線
  6
CONTINUOUS
 62
    3
 10
1075.9328213555366
 20
691.29582880040766
 40
1.0000000000000004
 50
269.99999999999977
 51
330.00000000001364
  0
ARC
  8
_0-1_計細線
  6
CONTINUOUS
 62
    3
 10
1077.6648721631054
 20
690.29582880040812
 40
1.0000000000000004
 50
89.999999999999915
 51
150.00000000000185
  0
LINE
  8
_0-1_計細線
  6
CONTINUOUS
 62
    3
 10
1075.4648721642093
 20
690.29582880040812
 11
1075.9328213555366
 21
690.29582880040812
  0
ARC
  8
_0-1_計細線
  6
CONTINUOUS
 62
    3
 10
1084.8648721620018
 20
689.29582880040812
 40
1.0000000000000004
 50
0
 51
89.999999999999915
  0
ARC
  8
_0-1_計細線
  6
CONTINUOUS
 62
    3
 10
1084.3969229706745
 20
691.29582880040766
 40
1.0000000000000004
 50
209.99999999998565
 51
269.99999999999977
  0
ARC
  8
_0-1_計細線
  6
CONTINUOUS
 62
    3
 10
1082.6648721631052
 20
690.29582880040812
 40
1.0000000000000004
 50
29.999999999991644
 51
89.999999999973952
  0
LINE
  8
_0-1_計細線
  6
CONTINUOUS
 62
    3
 10
1084.8648721620018
 20
690.29582880040812
 11
1084.3969229706745
 21
690.29582880040812
  0
ARC
  8
_0-1_計細線
  6
CONTINUOUS
 62
    3
 10
1074.9648721642093
 20
687.89582880040825
 40
0.5000000000000002
 50
179.99999999999983
 51
269.99999999999977
  0
LINE
  8
_0-1_計細線
  6
CONTINUOUS
 62
    3
 10
1074.4648721642091
 20
689.29582880040812
 11
1074.4648721642091
 21
687.89582880040825
  0
ARC
  8
_0-1_計細線
  6
CONTINUOUS
 62
    3
 10
1085.3648721620018
 20
687.89582880040825
 40
0.5000000000000002
 50
269.99999999999977
 51
359.99999999999966
  0
LINE
  8
_0-1_計細線
  6
CONTINUOUS
 62
    3
 10
1085.8648721620023
 20
689.29582880040812
 11
1085.8648721620023
 21
687.89582880040825
  0
ARC
  8
_0-1_計細線
  6
CONTINUOUS
 62
    3
 10
1077.4648721642093
 20
686.39582880040825
 40
1.0000000000000004
 50
0
 51
89.999999999999915
  0
LINE
  8
_0-1_計細線
  6
CONTINUOUS
 62
    3
 10
1077.4648721642093
 20
687.3958288004078
 11
1074.9648721642093
 21
687.3958288004078
  0
ARC
  8
_0-1_計細線
  6
CONTINUOUS
 62
    3
 10
1082.8648721642094
 20
686.39582880040825
 40
1.0000000000000004
 50
89.999999999999915
 51
179.99999999999983
  0
LINE
  8
_0-1_計細線
  6
CONTINUOUS
 62
    3
 10
1082.8648721620018
 20
687.3958288004078
 11
1085.3648721620018
 21
687.3958288004078
  0
LINE
  8
_0-1_計細線
  6
CONTINUOUS
 62
    3
 10
1082.6648721631052
 20
691.29582880040766
 11
1077.6648721631054
 21
691.29582880040766
  0
LINE
  8
_0-1_計細線
  6
CONTINUOUS
 62
    3
 10
1078.4648721631056
 20
666.29582880040789
 11
1078.4648721642091
 21
686.39582880040825
  0
LINE
  8
_0-1_計細線
  6
CONTINUOUS
 62
    3
 10
1081.8648721631055
 20
666.29582880040789
 11
1081.8648721642091
 21
686.39582880040825
  0
LINE
  8
_0-1_計細線
  6
CONTINUOUS
 62
    3
 10
1081.8648721631055
 20
666.29582880040789
 11
1078.4648721631056
 21
666.29582880040789
  0
ARC
  8
_0-1_計細線
  6
CONTINUOUS
 62
    3
 10
1092.4648721645708
 20
689.29582880040812
 40
1.0000000000000004
 50
89.999999999999915
 51
179.99999999999983
  0
ARC
  8
_0-1_計細線
  6
CONTINUOUS
 62
    3
 10
1092.9328213558981
 20
691.29582880040766
 40
1.0000000000000004
 50
269.99999999999977
 51
330.00000000001364
  0
ARC
  8
_0-1_計細線
  6
CONTINUOUS
 62
    3
 10
1094.6648721634667
 20
690.29582880040812
 40
1.0000000000000004
 50
89.999999999999915
 51
149.99999999999534
  0
LINE
  8
_0-1_計細線
  6
CONTINUOUS
 62
    3
 10
1092.4648721645708
 20
690.29582880040812
 11
1092.9328213558981
 21
690.29582880040812
  0
ARC
  8
_0-1_計細線
  6
CONTINUOUS
 62
    3
 10
1101.864872162364
 20
689.29582880040812
 40
1.0000000000000004
 50
0
 51
89.999999999999915
  0
ARC
  8
_0-1_計細線
  6
CONTINUOUS
 62
    3
 10
1101.3969229710365
 20
691.29582880040766
 40
1.0000000000000004
 50
209.99999999998565
 51
269.99999999999977
  0
ARC
  8
_0-1_計細線
  6
CONTINUOUS
 62
    3
 10
1099.6648721634672
 20
690.29582880040812
 40
1.0000000000000004
 50
29.999999999991644
 51
89.999999999999915
  0
LINE
  8
_0-1_計細線
  6
CONTINUOUS
 62
    3
 10
1101.864872162364
 20
690.29582880040812
 11
1101.3969229710365
 21
690.29582880040812
  0
ARC
  8
_0-1_計細線
  6
CONTINUOUS
 62
    3
 10
1091.9648721645708
 20
687.89582880040825
 40
0.5000000000000002
 50
179.99999999999983
 51
269.99999999999977
  0
LINE
  8
_0-1_計細線
  6
CONTINUOUS
 62
    3
 10
1091.4648721645706
 20
689.29582880040812
 11
1091.4648721645706
 21
687.89582880040825
  0
ARC
  8
_0-1_計細線
  6
CONTINUOUS
 62
    3
 10
1102.3648721623638
 20
687.89582880040825
 40
0.5000000000000002
 50
269.99999999999977
 51
359.99999999999966
  0
LINE
  8
_0-1_計細線
  6
CONTINUOUS
 62
    3
 10
1102.8648721623636
 20
689.29582880040812
 11
1102.8648721623636
 21
687.89582880040825
  0
ARC
  8
_0-1_計細線
  6
CONTINUOUS
 62
    3
 10
1094.4648721645704
 20
686.39582880040825
 40
1.0000000000000004
 50
0
 51
89.999999999999915
  0
LINE
  8
_0-1_計細線
  6
CONTINUOUS
 62
    3
 10
1094.4648721645704
 20
687.3958288004078
 11
1091.9648721645708
 21
687.3958288004078
  0
ARC
  8
_0-1_計細線
  6
CONTINUOUS
 62
    3
 10
1099.8648721645709
 20
686.39582880040825
 40
1.0000000000000004
 50
89.999999999999915
 51
179.99999999999983
  0
LINE
  8
_0-1_計細線
  6
CONTINUOUS
 62
    3
 10
1099.8648721623633
 20
687.3958288004078
 11
1102.3648721623638
 21
687.3958288004078
  0
LINE
  8
_0-1_計細線
  6
CONTINUOUS
 62
    3
 10
1099.6648721634672
 20
691.29582880040766
 11
1094.6648721634667
 21
691.29582880040766
  0
LINE
  8
_0-1_計細線
  6
CONTINUOUS
 62
    3
 10
1095.4648721634676
 20
666.29582880040789
 11
1095.4648721645706
 21
686.39582880040825
  0
LINE
  8
_0-1_計細線
  6
CONTINUOUS
 62
    3
 10
1098.864872163467
 20
666.29582880040789
 11
1098.8648721645707
 21
686.39582880040825
  0
LINE
  8
_0-1_計細線
  6
CONTINUOUS
 62
    3
 10
1098.864872163467
 20
666.29582880040789
 11
1095.4648721634676
 21
666.29582880040789
  0
ARC
  8
_0-1_計細線
  6
CONTINUOUS
 62
    3
 10
1109.4648721649328
 20
689.29582880040812
 40
1.0000000000000004
 50
89.999999999999915
 51
179.99999999999983
  0
ARC
  8
_0-1_計細線
  6
CONTINUOUS
 62
    3
 10
1109.9328213562601
 20
691.29582880040766
 40
1.0000000000000004
 50
269.99999999999977
 51
330.00000000001364
  0
ARC
  8
_0-1_計細線
  6
CONTINUOUS
 62
    3
 10
1111.6648721638289
 20
690.29582880040812
 40
1.0000000000000004
 50
89.999999999999915
 51
150.00000000000185
  0
LINE
  8
_0-1_計細線
  6
CONTINUOUS
 62
    3
 10
1109.4648721649328
 20
690.29582880040812
 11
1109.9328213562601
 21
690.29582880040812
  0
ARC
  8
_0-1_計細線
  6
CONTINUOUS
 62
    3
 10
1118.8648721627255
 20
689.29582880040812
 40
1.0000000000000004
 50
0
 51
89.999999999999915
  0
ARC
  8
_0-1_計細線
  6
CONTINUOUS
 62
    3
 10
1118.3969229713978
 20
691.29582880040766
 40
1.0000000000000004
 50
209.99999999998565
 51
269.99999999999977
  0
ARC
  8
_0-1_計細線
  6
CONTINUOUS
 62
    3
 10
1116.6648721638292
 20
690.29582880040812
 40
1.0000000000000004
 50
30.000000000004672
 51
89.999999999999915
  0
LINE
  8
_0-1_計細線
  6
CONTINUOUS
 62
    3
 10
1118.8648721627255
 20
690.29582880040812
 11
1118.3969229713978
 21
690.29582880040812
  0
ARC
  8
_0-1_計細線
  6
CONTINUOUS
 62
    3
 10
1108.9648721649323
 20
687.89582880040825
 40
0.5000000000000002
 50
179.99999999999983
 51
269.99999999999977
  0
LINE
  8
_0-1_計細線
  6
CONTINUOUS
 62
    3
 10
1108.4648721649326
 20
689.29582880040812
 11
1108.4648721649326
 21
687.89582880040825
  0
ARC
  8
_0-1_計細線
  6
CONTINUOUS
 62
    3
 10
1119.3648721627253
 20
687.89582880040825
 40
0.5000000000000002
 50
269.99999999999977
 51
359.99999999999966
  0
LINE
  8
_0-1_計細線
  6
CONTINUOUS
 62
    3
 10
1119.8648721627253
 20
689.29582880040812
 11
1119.8648721627253
 21
687.89582880040825
  0
ARC
  8
_0-1_計細線
  6
CONTINUOUS
 62
    3
 10
1111.4648721649326
 20
686.39582880040825
 40
1.0000000000000004
 50
0
 51
89.999999999999915
  0
LINE
  8
_0-1_計細線
  6
CONTINUOUS
 62
    3
 10
1111.4648721649326
 20
687.3958288004078
 11
1108.9648721649323
 21
687.3958288004078
  0
ARC
  8
_0-1_計細線
  6
CONTINUOUS
 62
    3
 10
1116.8648721649329
 20
686.39582880040825
 40
1.0000000000000004
 50
89.999999999999915
 51
179.99999999999983
  0
LINE
  8
_0-1_計細線
  6
CONTINUOUS
 62
    3
 10
1116.8648721627255
 20
687.3958288004078
 11
1119.3648721627253
 21
687.3958288004078
  0
LINE
  8
_0-1_計細線
  6
CONTINUOUS
 62
    3
 10
1116.6648721638292
 20
691.29582880040766
 11
1111.6648721638289
 21
691.29582880040766
  0
LINE
  8
_0-1_計細線
  6
CONTINUOUS
 62
    3
 10
1112.4648721638289
 20
666.29582880040789
 11
1112.4648721649328
 21
686.39582880040825
  0
LINE
  8
_0-1_計細線
  6
CONTINUOUS
 62
    3
 10
1115.864872163829
 20
666.29582880040789
 11
1115.8648721649326
 21
686.39582880040825
  0
LINE
  8
_0-1_計細線
  6
CONTINUOUS
 62
    3
 10
1115.864872163829
 20
666.29582880040789
 11
1112.4648721638289
 21
666.29582880040789
  0
ARC
  8
_0-1_計細線
  6
CONTINUOUS
 62
    3
 10
1126.4648721652948
 20
689.29582880040812
 40
1.0000000000000004
 50
89.999999999999915
 51
179.99999999999983
  0
ARC
  8
_0-1_計細線
  6
CONTINUOUS
 62
    3
 10
1126.9328213566218
 20
691.29582880040766
 40
1.0000000000000004
 50
269.99999999999977
 51
330.00000000001364
  0
ARC
  8
_0-1_計細線
  6
CONTINUOUS
 62
    3
 10
1128.6648721641907
 20
690.29582880040812
 40
1.0000000000000004
 50
89.999999999999915
 51
150.00000000000836
  0
LINE
  8
_0-1_計細線
  6
CONTINUOUS
 62
    3
 10
1126.4648721652948
 20
690.29582880040812
 11
1126.9328213566218
 21
690.29582880040812
  0
ARC
  8
_0-1_計細線
  6
CONTINUOUS
 62
    3
 10
1135.8648721630866
 20
689.29582880040812
 40
1.0000000000000004
 50
0
 51
89.999999999999915
  0
ARC
  8
_0-1_計細線
  6
CONTINUOUS
 62
    3
 10
1135.3969229717595
 20
691.29582880040766
 40
1.0000000000000004
 50
209.99999999999216
 51
269.99999999999977
  0
ARC
  8
_0-1_計細線
  6
CONTINUOUS
 62
    3
 10
1133.6648721641907
 20
690.29582880040812
 40
1.0000000000000004
 50
29.999999999991644
 51
89.999999999999915
  0
LINE
  8
_0-1_計細線
  6
CONTINUOUS
 62
    3
 10
1135.8648721630866
 20
690.29582880040812
 11
1135.3969229717595
 21
690.29582880040812
  0
ARC
  8
_0-1_計細線
  6
CONTINUOUS
 62
    3
 10
1125.9648721652945
 20
687.89582880040825
 40
0.5000000000000002
 50
179.99999999999983
 51
269.99999999999977
  0
LINE
  8
_0-1_計細線
  6
CONTINUOUS
 62
    3
 10
1125.4648721652941
 20
689.29582880040812
 11
1125.4648721652941
 21
687.89582880040825
  0
ARC
  8
_0-1_計細線
  6
CONTINUOUS
 62
    3
 10
1136.3648721630871
 20
687.89582880040825
 40
0.5000000000000002
 50
269.99999999999977
 51
359.99999999999966
  0
LINE
  8
_0-1_計細線
  6
CONTINUOUS
 62
    3
 10
1136.8648721630868
 20
689.29582880040812
 11
1136.8648721630868
 21
687.89582880040825
  0
ARC
  8
_0-1_計細線
  6
CONTINUOUS
 62
    3
 10
1128.4648721652941
 20
686.39582880040825
 40
1.0000000000000004
 50
0
 51
89.999999999999915
  0
LINE
  8
_0-1_計細線
  6
CONTINUOUS
 62
    3
 10
1128.4648721652941
 20
687.3958288004078
 11
1125.9648721652945
 21
687.3958288004078
  0
ARC
  8
_0-1_計細線
  6
CONTINUOUS
 62
    3
 10
1133.8648721652949
 20
686.39582880040825
 40
1.0000000000000004
 50
89.999999999999915
 51
179.99999999999983
  0
LINE
  8
_0-1_計細線
  6
CONTINUOUS
 62
    3
 10
1133.8648721630871
 20
687.3958288004078
 11
1136.3648721630871
 21
687.3958288004078
  0
LINE
  8
_0-1_計細線
  6
CONTINUOUS
 62
    3
 10
1133.6648721641907
 20
691.29582880040766
 11
1128.6648721641907
 21
691.29582880040766
  0
LINE
  8
_0-1_計細線
  6
CONTINUOUS
 62
    3
 10
1129.4648721641906
 20
666.29582880040789
 11
1129.4648721652943
 21
686.39582880040825
  0
LINE
  8
_0-1_計細線
  6
CONTINUOUS
 62
    3
 10
1132.8648721641907
 20
666.29582880040789
 11
1132.8648721652942
 21
686.39582880040825
  0
LINE
  8
_0-1_計細線
  6
CONTINUOUS
 62
    3
 10
1132.8648721641907
 20
666.29582880040789
 11
1129.4648721641906
 21
666.29582880040789
  0
ARC
  8
_0-1_計細線
  6
CONTINUOUS
 62
    3
 10
1143.4648721656561
 20
689.29582880040812
 40
1.0000000000000004
 50
89.999999999999915
 51
179.99999999999983
  0
ARC
  8
_0-1_計細線
  6
CONTINUOUS
 62
    3
 10
1143.9328213569838
 20
691.29582880040766
 40
1.0000000000000004
 50
269.99999999999977
 51
330.00000000002012
  0
ARC
  8
_0-1_計細線
  6
CONTINUOUS
 62
    3
 10
1145.6648721645522
 20
690.29582880040812
 40
1.0000000000000004
 50
89.999999999999915
 51
149.9999999999888
  0
LINE
  8
_0-1_計細線
  6
CONTINUOUS
 62
    3
 10
1143.4648721656561
 20
690.29582880040812
 11
1143.9328213569838
 21
690.29582880040812
  0
ARC
  8
_0-1_計細線
  6
CONTINUOUS
 62
    3
 10
1152.8648721634488
 20
689.29582880040812
 40
1.0000000000000004
 50
0
 51
89.999999999999915
  0
ARC
  8
_0-1_計細線
  6
CONTINUOUS
 62
    3
 10
1152.3969229721217
 20
691.29582880040766
 40
1.0000000000000004
 50
209.99999999997914
 51
269.99999999999977
  0
ARC
  8
_0-1_計細線
  6
CONTINUOUS
 62
    3
 10
1150.6648721645527
 20
690.29582880040812
 40
1.0000000000000004
 50
29.99999999999816
 51
89.999999999999915
  0
LINE
  8
_0-1_計細線
  6
CONTINUOUS
 62
    3
 10
1152.8648721634488
 20
690.29582880040812
 11
1152.3969229721217
 21
690.29582880040812
  0
ARC
  8
_0-1_計細線
  6
CONTINUOUS
 62
    3
 10
1142.9648721656561
 20
687.89582880040825
 40
0.5000000000000002
 50
179.99999999999983
 51
269.99999999999977
  0
LINE
  8
_0-1_計細線
  6
CONTINUOUS
 62
    3
 10
1142.4648721656561
 20
689.29582880040812
 11
1142.4648721656561
 21
687.89582880040825
  0
ARC
  8
_0-1_計細線
  6
CONTINUOUS
 62
    3
 10
1153.364872163449
 20
687.89582880040825
 40
0.5000000000000002
 50
269.99999999999977
 51
359.99999999999966
  0
LINE
  8
_0-1_計細線
  6
CONTINUOUS
 62
    3
 10
1153.864872163449
 20
689.29582880040812
 11
1153.864872163449
 21
687.89582880040825
  0
ARC
  8
_0-1_計細線
  6
CONTINUOUS
 62
    3
 10
1145.4648721656561
 20
686.39582880040825
 40
1.0000000000000004
 50
0
 51
89.999999999999915
  0
LINE
  8
_0-1_計細線
  6
CONTINUOUS
 62
    3
 10
1145.4648721656561
 20
687.3958288004078
 11
1142.9648721656561
 21
687.3958288004078
  0
ARC
  8
_0-1_計細線
  6
CONTINUOUS
 62
    3
 10
1150.8648721656562
 20
686.39582880040825
 40
1.0000000000000004
 50
89.999999999999915
 51
179.99999999999983
  0
LINE
  8
_0-1_計細線
  6
CONTINUOUS
 62
    3
 10
1150.864872163449
 20
687.3958288004078
 11
1153.364872163449
 21
687.3958288004078
  0
LINE
  8
_0-1_計細線
  6
CONTINUOUS
 62
    3
 10
1150.6648721645527
 20
691.29582880040766
 11
1145.6648721645522
 21
691.29582880040766
  0
LINE
  8
_0-1_計細線
  6
CONTINUOUS
 62
    3
 10
1146.4648721645528
 20
666.29582880040789
 11
1146.4648721656563
 21
686.39582880040825
  0
LINE
  8
_0-1_計細線
  6
CONTINUOUS
 62
    3
 10
1149.8648721645527
 20
666.29582880040789
 11
1149.8648721656562
 21
686.39582880040825
  0
LINE
  8
_0-1_計細線
  6
CONTINUOUS
 62
    3
 10
1149.8648721645527
 20
666.29582880040789
 11
1146.4648721645528
 21
666.29582880040789
  0
ARC
  8
_0-1_計細線
  6
CONTINUOUS
 62
    3
 10
903.66487216364806
 20
666.29604780141494
 40
3.0000000000000004
 50
179.99999999999983
 51
269.99999999999977
  0
LINE
  8
_0-1_計細線
  6
CONTINUOUS
 62
    3
 10
900.66487216364806
 20
666.29604780141494
 11
900.66487216364806
 21
690.79604780141494
  0
LINE
  8
_0-1_計細線
  6
CONTINUOUS
 62
    3
 10
903.66487216364806
 20
663.29604780141494
 11
930.16487216364783
 21
663.29604780141494
  0
LINE
  8
_0-1_計細線
  6
CONTINUOUS
 62
    3
 10
930.66487216364806
 20
663.7960478014154
 11
930.16487216364783
 21
663.29604780141494
  0
LINE
  8
_0-1_計細線
  6
CONTINUOUS
 62
    3
 10
930.66487216364806
 20
665.79604780141517
 11
930.66487216364806
 21
663.7960478014154
  0
LINE
  8
_0-1_計細線
  6
CONTINUOUS
 62
    3
 10
930.16487216364783
 20
666.29604780141494
 11
930.66487216364806
 21
665.79604780141517
  0
LINE
  8
_0-1_計細線
  6
CONTINUOUS
 62
    3
 10
903.66487216364806
 20
666.29604780141494
 11
930.16487216364783
 21
666.29604780141494
  0
LINE
  8
_0-1_計細線
  6
CONTINUOUS
 62
    3
 10
901.16487216364771
 20
691.2960478014154
 11
900.66487216364806
 21
690.79604780141494
  0
LINE
  8
_0-1_計細線
  6
CONTINUOUS
 62
    3
 10
903.16487216364806
 20
691.2960478014154
 11
901.16487216364771
 21
691.2960478014154
  0
LINE
  8
_0-1_計細線
  6
CONTINUOUS
 62
    3
 10
903.66487216364806
 20
690.79604780141494
 11
903.16487216364806
 21
691.2960478014154
  0
LINE
  8
_0-1_計細線
  6
CONTINUOUS
 62
    3
 10
903.66487216364806
 20
666.29604780141494
 11
903.66487216364806
 21
690.79604780141494
  0
ARC
  8
_0-1_計細線
  6
CONTINUOUS
 62
    3
 10
1307.6648721636477
 20
666.29604780141494
 40
3.0000000000000004
 50
269.99999999999977
 51
359.99999999999966
  0
LINE
  8
_0-1_計細線
  6
CONTINUOUS
 62
    3
 10
1310.6648721636479
 20
666.29604780141494
 11
1310.6648721636479
 21
690.79604780141494
  0
LINE
  8
_0-1_計細線
  6
CONTINUOUS
 62
    3
 10
1307.6648721636477
 20
663.29604780141494
 11
1281.1648721636475
 21
663.29604780141494
  0
LINE
  8
_0-1_計細線
  6
CONTINUOUS
 62
    3
 10
1280.6648721636477
 20
663.7960478014154
 11
1281.1648721636475
 21
663.29604780141494
  0
LINE
  8
_0-1_計細線
  6
CONTINUOUS
 62
    3
 10
1280.6648721636477
 20
665.79604780141517
 11
1280.6648721636477
 21
663.7960478014154
  0
LINE
  8
_0-1_計細線
  6
CONTINUOUS
 62
    3
 10
1281.1648721636475
 20
666.29604780141494
 11
1280.6648721636477
 21
665.79604780141517
  0
LINE
  8
_0-1_計細線
  6
CONTINUOUS
 62
    3
 10
1307.6648721636477
 20
666.29604780141494
 11
1281.1648721636475
 21
666.29604780141494
  0
LINE
  8
_0-1_計細線
  6
CONTINUOUS
 62
    3
 10
1310.1648721636479
 20
691.2960478014154
 11
1310.6648721636479
 21
690.79604780141494
  0
LINE
  8
_0-1_計細線
  6
CONTINUOUS
 62
    3
 10
1308.1648721636484
 20
691.2960478014154
 11
1310.1648721636479
 21
691.2960478014154
  0
LINE
  8
_0-1_計細線
  6
CONTINUOUS
 62
    3
 10
1307.6648721636477
 20
690.79604780141494
 11
1308.1648721636484
 21
691.2960478014154
  0
LINE
  8
_0-1_計細線
  6
CONTINUOUS
 62
    3
 10
1307.6648721636477
 20
666.29604780141494
 11
1307.6648721636477
 21
690.79604780141494
  0
LINE
  8
_0-5_寸法線
  6
CONTINUOUS
 62
    7
 10
890.66487216364806
 20
691.29604780141494
 11
823.80596012661113
 21
691.29604780141494
  0
LINE
  8
_0-5_寸法線
  6
CONTINUOUS
 62
    7
 10
828.80596012661113
 20
691.29604780141494
 11
831.39415057763642
 21
681.63678953852423
  0
LINE
  8
_0-5_寸法線
  6
CONTINUOUS
 62
    7
 10
828.80596012661113
 20
691.29604780141494
 11
826.21776967558606
 21
681.63678953852423
  0
LINE
  8
_0-5_寸法線
  6
CONTINUOUS
 62
    7
 10
889.46487216364812
 20
663.29604780141494
 11
823.80596012661113
 21
663.29604780141494
  0
LINE
  8
_0-5_寸法線
  6
CONTINUOUS
 62
    7
 10
828.80596012661113
 20
663.29604780141494
 11
826.21776967558594
 21
672.95530606430577
  0
LINE
  8
_0-5_寸法線
  6
CONTINUOUS
 62
    7
 10
828.80596012661113
 20
663.29604780141494
 11
831.39415057763642
 21
672.95530606430577
  0
LINE
  8
_0-5_寸法線
  6
CONTINUOUS
 62
    7
 10
828.80596012661113
 20
691.29604780141494
 11
828.80596012661113
 21
663.29604780141494
  0
TEXT
  8
_0-5_寸法線
 62
    7
 10
828.80596012661113
 20
669.79604780141494
 40
15
 41
1
 50
90
  1
28
  0
LINE
  8
_0-5_寸法線
  6
CONTINUOUS
 62
    7
 10
890.66487216364817
 20
663.29604780141494
 11
823.80596012661113
 21
663.29604780141494
  0
LINE
  8
_0-5_寸法線
  6
CONTINUOUS
 62
    7
 10
828.80596012661113
 20
663.29604780141494
 11
831.39415057763642
 21
653.63678953852423
  0
LINE
  8
_0-5_寸法線
  6
CONTINUOUS
 62
    7
 10
828.80596012661113
 20
663.29604780141494
 11
826.21776967558606
 21
653.63678953852423
  0
LINE
  8
_0-5_寸法線
  6
CONTINUOUS
 62
    7
 10
889.46487216364812
 20
640.29604780141472
 11
823.80596012661113
 21
640.29604780141472
  0
LINE
  8
_0-5_寸法線
  6
CONTINUOUS
 62
    7
 10
828.80596012661113
 20
640.29604780141472
 11
826.21776967558594
 21
649.95530606430543
  0
LINE
  8
_0-5_寸法線
  6
CONTINUOUS
 62
    7
 10
828.80596012661113
 20
640.29604780141472
 11
831.39415057763642
 21
649.95530606430543
  0
LINE
  8
_0-5_寸法線
  6
CONTINUOUS
 62
    7
 10
828.80596012661113
 20
663.29604780141494
 11
828.80596012661113
 21
640.29604780141472
  0
TEXT
  8
_0-5_寸法線
 62
    7
 10
828.80596012661113
 20
644.29604780141494
 40
15
 41
1
 50
90
  1
23
  0
LINE
  8
_0-5_寸法線
  6
CONTINUOUS
 62
    7
 10
930.66487216364806
 20
658.29604780141494
 11
930.66487216364771
 21
565.97332884829734
  0
LINE
  8
_0-5_寸法線
  6
CONTINUOUS
 62
    7
 10
930.66487216364771
 20
570.97332884829734
 11
940.32413042653843
 21
573.56151929932253
  0
LINE
  8
_0-5_寸法線
  6
CONTINUOUS
 62
    7
 10
930.66487216364771
 20
570.97332884829734
 11
940.32413042653843
 21
568.38513839727216
  0
LINE
  8
_0-5_寸法線
  6
CONTINUOUS
 62
    7
 10
1280.6648721636477
 20
658.29604780141494
 11
1280.6648721636475
 21
565.97332884829734
  0
LINE
  8
_0-5_寸法線
  6
CONTINUOUS
 62
    7
 10
1280.6648721636475
 20
570.97332884829734
 11
1271.0056139007568
 21
568.38513839727216
  0
LINE
  8
_0-5_寸法線
  6
CONTINUOUS
 62
    7
 10
1280.6648721636475
 20
570.97332884829734
 11
1271.0056139007568
 21
573.56151929932253
  0
LINE
  8
_0-5_寸法線
  6
CONTINUOUS
 62
    7
 10
930.66487216364771
 20
570.97332884829734
 11
1280.6648721636475
 21
570.97332884829734
  0
TEXT
  8
_0-5_寸法線
 62
    7
 10
1094.4148721636475
 20
570.97332884829734
 40
15
 41
1
 50
0
  1
350
  0
LINE
  8
_0-5_寸法線
  6
CONTINUOUS
 62
    7
 10
900.66487216364794
 20
630.29604780141517
 11
900.66487216364692
 21
565.97332884829734
  0
LINE
  8
_0-5_寸法線
  6
CONTINUOUS
 62
    7
 10
900.66487216364703
 20
570.97332884829734
 11
910.32413042653786
 21
573.56151929932253
  0
LINE
  8
_0-5_寸法線
  6
CONTINUOUS
 62
    7
 10
900.66487216364703
 20
570.97332884829734
 11
910.32413042653786
 21
568.38513839727216
  0
LINE
  8
_0-5_寸法線
  6
CONTINUOUS
 62
    7
 10
930.66487216364794
 20
653.29604780141494
 11
930.66487216364646
 21
565.97332884829734
  0
LINE
  8
_0-5_寸法線
  6
CONTINUOUS
 62
    7
 10
930.66487216364658
 20
570.97332884829734
 11
921.00561390075598
 21
568.38513839727216
  0
LINE
  8
_0-5_寸法線
  6
CONTINUOUS
 62
    7
 10
930.66487216364658
 20
570.97332884829734
 11
921.00561390075598
 21
573.56151929932253
  0
LINE
  8
_0-5_寸法線
  6
CONTINUOUS
 62
    7
 10
900.66487216364703
 20
570.97332884829734
 11
930.66487216364658
 21
570.97332884829734
  0
TEXT
  8
_0-5_寸法線
 62
    7
 10
908.16487216364692
 20
570.97332884829734
 40
15
 41
1
 50
0
  1
30
  0
LINE
  8
_0-5_寸法線
  6
CONTINUOUS
 62
    7
 10
1310.6648721636479
 20
630.29604780141517
 11
1310.6648721636477
 21
565.97332884829734
  0
LINE
  8
_0-5_寸法線
  6
CONTINUOUS
 62
    7
 10
1310.6648721636477
 20
570.97332884829734
 11
1301.005613900757
 21
568.38513839727216
  0
LINE
  8
_0-5_寸法線
  6
CONTINUOUS
 62
    7
 10
1310.6648721636477
 20
570.97332884829734
 11
1301.005613900757
 21
573.56151929932253
  0
LINE
  8
_0-5_寸法線
  6
CONTINUOUS
 62
    7
 10
1280.6648721636479
 20
653.29604780141494
 11
1280.6648721636477
 21
565.97332884829734
  0
LINE
  8
_0-5_寸法線
  6
CONTINUOUS
 62
    7
 10
1280.6648721636477
 20
570.97332884829734
 11
1290.3241304265384
 21
573.56151929932253
  0
LINE
  8
_0-5_寸法線
  6
CONTINUOUS
 62
    7
 10
1280.6648721636477
 20
570.97332884829734
 11
1290.3241304265384
 21
568.38513839727216
  0
LINE
  8
_0-5_寸法線
  6
CONTINUOUS
 62
    7
 10
1310.6648721636477
 20
570.97332884829734
 11
1280.6648721636477
 21
570.97332884829734
  0
TEXT
  8
_0-5_寸法線
 62
    7
 10
1288.1648721636477
 20
570.97332884829734
 40
15
 41
1
 50
0
  1
30
  0
TEXT
  8
_0-7_枠細線
 62
    5
 10
960.5
 20
109.99999999999993
 40
20.000000000000007
 41
0.5999999999999998
 50
0
  1
ＧＲＳＫ－２５Ｋ４００
  0
TEXT
  8
_0-7_枠細線
 62
    5
 10
961.00000000000023
 20
453.73352999148574
 40
15
 41
0.8000000000000001
 50
0
  1
品　　番
  0
LINE
  8
_0-7_枠細線
  6
CONTINUOUS
 62
    5
 10
925
 20
398.7335299914858
 11
1245.0000000000002
 21
398.7335299914858
  0
LINE
  8
_0-7_枠細線
  6
CONTINUOUS
 62
    5
 10
925
 20
423.7335299914858
 11
1245.0000000000002
 21
423.7335299914858
  0
LINE
  8
_0-7_枠細線
  6
CONTINUOUS
 62
    5
 10
925
 20
448.73352999148574
 11
1245.0000000000002
 21
448.73352999148574
  0
TEXT
  8
_0-7_枠細線
 62
    5
 10
1089.0000000000005
 20
453.73352999148574
 40
15
 41
0.8000000000000001
 50
0
  1
色
  0
TEXT
  8
_0-7_枠細線
 62
    5
 10
1171.0000000000005
 20
453.73352999148574
 40
15
 41
0.8000000000000001
 50
0
  1
備　　考
  0
LINE
  8
_0-7_枠細線
  6
CONTINUOUS
 62
    5
 10
925
 20
473.73352999148574
 11
1245.0000000000002
 21
473.73352999148574
  0
LINE
  8
_0-7_枠細線
  6
CONTINUOUS
 62
    5
 10
925
 20
248.73352999148577
 11
1245.0000000000002
 21
248.73352999148577
  0
LINE
  8
_0-7_枠細線
  6
CONTINUOUS
 62
    5
 10
925
 20
373.73352999148574
 11
1245.0000000000002
 21
373.73352999148574
  0
LINE
  8
_0-7_枠細線
  6
CONTINUOUS
 62
    5
 10
925
 20
348.73352999148574
 11
1245.0000000000002
 21
348.73352999148574
  0
LINE
  8
_0-7_枠細線
  6
CONTINUOUS
 62
    5
 10
925
 20
323.73352999148574
 11
1245.0000000000002
 21
323.73352999148574
  0
LINE
  8
_0-7_枠細線
  6
CONTINUOUS
 62
    5
 10
925
 20
298.73352999148574
 11
1245.0000000000002
 21
298.73352999148574
  0
LINE
  8
_0-7_枠細線
  6
CONTINUOUS
 62
    5
 10
925
 20
273.73352999148574
 11
1245.0000000000002
 21
273.73352999148574
  0
TEXT
  8
_0-7_枠細線
 62
    5
 10
1023.75
 20
478.73352999148574
 40
17.5
 41
1
 50
0
  1
品番表
  0
LINE
  8
_0-7_枠細線
  6
CONTINUOUS
 62
    5
 10
925
 20
223.73352999148577
 11
1245.0000000000002
 21
223.73352999148577
  0
LINE
  8
_0-7_枠細線
  6
CONTINUOUS
 62
    5
 10
1245.0000000000002
 20
473.73352999148574
 11
1245.0000000000002
 21
223.73352999148577
  0
LINE
  8
_0-7_枠細線
  6
CONTINUOUS
 62
    5
 10
1145
 20
473.73352999148574
 11
1145
 21
223.73352999148577
  0
LINE
  8
_0-7_枠細線
  6
CONTINUOUS
 62
    5
 10
1045.0000000000005
 20
473.73352999148574
 11
1045.0000000000005
 21
223.73352999148577
  0
LINE
  8
_0-7_枠細線
  6
CONTINUOUS
 62
    5
 10
925
 20
473.73352999148574
 11
925
 21
223.73352999148577
  0
LINE
  8
_0-7_枠細線
  6
CONTINUOUS
 62
    5
 10
1290.7925839968264
 20
393.7335299914858
 11
1290.7925839968264
 21
473.73352999148574
  0
TEXT
  8
_0-7_枠細線
 62
    5
 10
1313.2925839968264
 20
451.23352999148574
 40
15.000000000000004
 41
1
 50
0
  1
耐荷重
  0
TEXT
  8
_0-7_枠細線
 62
    5
 10
1298.2925839968264
 20
401.2335299914858
 40
15.000000000000004
 41
1
 50
0
  1
（歩道用）
  0
LINE
  8
_0-7_枠細線
  6
CONTINUOUS
 62
    5
 10
1380.7925839968264
 20
393.7335299914858
 11
1380.7925839968264
 21
473.73352999148574
  0
LINE
  8
_0-7_枠細線
  6
CONTINUOUS
 62
    5
 10
1290.7925839968264
 20
473.73352999148574
 11
1380.7925839968264
 21
473.73352999148574
  0
LINE
  8
_0-7_枠細線
  6
CONTINUOUS
 62
    5
 10
1290.7925839968264
 20
443.7335299914858
 11
1380.7925839968264
 21
443.7335299914858
  0
LINE
  8
_0-7_枠細線
  6
CONTINUOUS
 62
    5
 10
1290.7925839968264
 20
393.7335299914858
 11
1380.7925839968264
 21
393.7335299914858
  0
TEXT
  8
_0-7_枠細線
 62
    5
 10
1305.7925839968264
 20
421.2335299914858
 40
15.000000000000004
 41
1
 50
0
  1
5.0kN/㎡
  0
TEXT
  8
_0-7_枠細線
 62
    5
 10
1255
 20
95
 40
20
 41
1
 50
0
  1
大野
  0
TEXT
  8
_0-7_枠細線
 62
    5
 10
1315
 20
95
 40
20
 41
1
 50
0
  1
深川
  0
TEXT
  8
_0-7_枠細線
 62
    5
 10
1309.9999999999998
 20
67.499999999999858
 40
15.000000000000009
 41
0.6666666666666665
 50
0
  1
２０１７年０４月０１日
  0
TEXT
  8
_0-7_枠細線
 62
    5
 10
929.75000000000045
 20
428.7335299914858
 40
15
 41
0.5666666666666667
 50
0
  1
ＧＲＳＫ－２５Ｋ４００－Ｂ
  0
TEXT
  8
_0-7_枠細線
 62
    5
 10
929.75000000000045
 20
403.7335299914858
 40
15
 41
0.5666666666666667
 50
0
  1
ＧＲＳＫ－２５Ｋ４００－Ｇ
  0
TEXT
  8
_0-7_枠細線
 62
    5
 10
929.75000000000045
 20
378.73352999148574
 40
15
 41
0.5666666666666667
 50
0
  1
ＧＲＳＫ－２５Ｋ４００－Ｓ
  0
TEXT
  8
_0-7_枠細線
 62
    5
 10
929.75000000000045
 20
353.73352999148574
 40
15
 41
0.5666666666666667
 50
0
  1
ＧＲＳＫ－２５Ｋ４００－Ｐ
  0
TEXT
  8
_0-7_枠細線
 62
    5
 10
929.75000000000045
 20
328.73352999148574
 40
15
 41
0.5666666666666667
 50
0
  1
ＧＲＳＫ－２５Ｋ４００－Ａ
  0
TEXT
  8
_0-7_枠細線
 62
    5
 10
929.75000000000045
 20
303.73352999148574
 40
15
 41
0.5666666666666667
 50
0
  1
ＧＲＳＫ－２５Ｋ４００－Ｄ
  0
TEXT
  8
_0-7_枠細線
 62
    5
 10
929.75000000000045
 20
278.73352999148574
 40
15
 41
0.5666666666666667
 50
0
  1
ＧＲＳＫ－２５Ｋ４００－Ｍ
  0
TEXT
  8
_0-7_枠細線
 62
    5
 10
929.75000000000045
 20
253.73352999148577
 40
15
 41
0.5666666666666667
 50
0
  1
ＧＲＳＫ－２５Ｋ４００－Ｃ
  0
TEXT
  8
_0-7_枠細線
 62
    5
 10
929.75000000000045
 20
228.73352999148577
 40
15
 41
0.5666666666666667
 50
0
  1
ＧＲＳＫ－２５Ｋ４００－Ｋ
  0
LINE
  8
_0-9_枠極太
  6
CONTINUOUS
 62
    5
 10
60
 20
60
 11
60
 21
960
  0
LINE
  8
_0-9_枠極太
  6
CONTINUOUS
 62
    5
 10
60
 20
960
 11
1425
 21
960
  0
LINE
  8
_0-9_枠極太
  6
CONTINUOUS
 62
    5
 10
1425
 20
960
 11
1425
 21
60
  0
LINE
  8
_0-9_枠極太
  6
CONTINUOUS
 62
    5
 10
1425
 20
60
 11
60
 21
60
  0
LINE
  8
_0-0_計極細
  6
CONTINUOUS
 62
    2
 10
900.66487216364806
 20
675.29604780141494
 11
900.66487216364806
 21
640.29604780141494
  0
LINE
  8
_0-0_計極細
  6
CONTINUOUS
 62
    2
 10
900.66487216364806
 20
640.29604780141494
 11
898.36487216364799
 21
640.29604780141494
  0
LINE
  8
_0-0_計極細
  6
CONTINUOUS
 62
    2
 10
898.36487216364799
 20
640.29604780141494
 11
898.36487216364799
 21
675.29604780141494
  0
LINE
  8
_0-0_計極細
  6
CONTINUOUS
 62
    2
 10
898.36487216364799
 20
675.29604780141494
 11
900.66487216364806
 21
675.29604780141494
  0
LINE
  8
_0-0_計極細
  6
CONTINUOUS
 62
    2
 10
898.36487216364799
 20
659.29604780141506
 11
900.66487216364806
 21
659.29604780141506
  0
LINE
  8
_0-0_計極細
  6
CONTINUOUS
 62
    2
 10
898.36487216364799
 20
661.29604780141494
 11
900.66487216364806
 21
661.29604780141494
  0
LINE
  8
_0-0_計極細
  6
CONTINUOUS
 62
    2
 10
898.36487216364799
 20
657.29604780141494
 11
900.66487216364806
 21
657.29604780141494
  0
LINE
  8
_0-0_計極細
  6
CONTINUOUS
 62
    2
 10
898.36487216364799
 20
663.29604780141494
 11
900.66487216364806
 21
663.29604780141494
  0
LINE
  8
_0-0_計極細
  6
CONTINUOUS
 62
    2
 10
900.66487216364806
 20
643.29604780141494
 11
898.36487216364799
 21
643.29604780141494
  0
LINE
  8
_0-0_計極細
  6
CONTINUOUS
 62
    2
 10
898.36487216364799
 20
673.29604780141494
 11
900.66487216364806
 21
673.29604780141494
  0
LINE
  8
_0-0_計極細
  6
CONTINUOUS
 62
    2
 10
1310.6648721636479
 20
675.29604780141494
 11
1310.6648721636479
 21
640.29604780141494
  0
LINE
  8
_0-0_計極細
  6
CONTINUOUS
 62
    2
 10
1310.6648721636479
 20
640.29604780141494
 11
1312.9648721636479
 21
640.29604780141494
  0
LINE
  8
_0-0_計極細
  6
CONTINUOUS
 62
    2
 10
1312.9648721636479
 20
640.29604780141494
 11
1312.9648721636479
 21
675.29604780141494
  0
LINE
  8
_0-0_計極細
  6
CONTINUOUS
 62
    2
 10
1312.9648721636479
 20
675.29604780141494
 11
1310.6648721636479
 21
675.29604780141494
  0
LINE
  8
_0-0_計極細
  6
CONTINUOUS
 62
    2
 10
1312.9648721636479
 20
659.29604780141506
 11
1310.6648721636479
 21
659.29604780141506
  0
LINE
  8
_0-0_計極細
  6
CONTINUOUS
 62
    2
 10
1312.9648721636479
 20
661.29604780141494
 11
1310.6648721636479
 21
661.29604780141494
  0
LINE
  8
_0-0_計極細
  6
CONTINUOUS
 62
    2
 10
1312.9648721636479
 20
657.29604780141494
 11
1310.6648721636479
 21
657.29604780141494
  0
LINE
  8
_0-0_計極細
  6
CONTINUOUS
 62
    2
 10
1312.9648721636479
 20
663.29604780141494
 11
1310.6648721636479
 21
663.29604780141494
  0
LINE
  8
_0-0_計極細
  6
CONTINUOUS
 62
    2
 10
1310.6648721636479
 20
643.29604780141494
 11
1312.9648721636479
 21
643.29604780141494
  0
LINE
  8
_0-0_計極細
  6
CONTINUOUS
 62
    2
 10
1312.9648721636479
 20
673.29604780141494
 11
1310.6648721636479
 21
673.29604780141494
  0
LINE
  8
_0-7_枠細線
  6
CONTINUOUS
 62
    5
 10
1332.9327220826162
 20
663.01531627363306
 11
1325.4327220826162
 21
678.01531627363306
  0
LINE
  8
_0-7_枠細線
  6
CONTINUOUS
 62
    5
 10
1317.9327220826162
 20
663.01531627363306
 11
1332.9327220826162
 21
663.01531627363306
  0
LINE
  8
_0-7_枠細線
  6
CONTINUOUS
 62
    5
 10
1325.4327220826162
 20
678.01531627363306
 11
1317.9327220826162
 21
663.01531627363306
  0
TEXT
  8
_0-7_枠細線
 62
    5
 10
1320.2978733507641
 20
662.06649630878314
 40
12.5
 41
0.8
 50
0
  1
１
  0
LINE
  8
_0-7_枠細線
  6
CONTINUOUS
 62
    5
 10
1425
 20
942.5
 11
890
 21
942.5
  0
TEXT
  8
_0-7_枠細線
 62
    5
 10
895
 20
945
 40
12.5
 41
1
 50
0
  1
記号
  0
TEXT
  8
_0-7_枠細線
 62
    5
 10
996.875
 20
945
 40
12.5
 41
1
 50
0
  1
訂　 正　 記　 事
  0
TEXT
  8
_0-7_枠細線
 62
    5
 10
1181.25
 20
945
 40
12.5
 41
1
 50
0
  1
訂 正 年 月 日
  0
TEXT
  8
_0-7_枠細線
 62
    5
 10
1306.25
 20
945
 40
12.5
 41
1
 50
0
  1
備　　　　　考
  0
LINE
  8
_0-7_枠細線
  6
CONTINUOUS
 62
    5
 10
1425
 20
925
 11
890
 21
925
  0
LINE
  8
_0-7_枠細線
  6
CONTINUOUS
 62
    5
 10
915
 20
926.44233397174685
 11
907.5
 21
941.44233397174685
  0
LINE
  8
_0-7_枠細線
  6
CONTINUOUS
 62
    5
 10
900
 20
926.44233397174685
 11
915
 21
926.44233397174685
  0
LINE
  8
_0-7_枠細線
  6
CONTINUOUS
 62
    5
 10
907.5
 20
941.44233397174685
 11
900
 21
926.44233397174685
  0
TEXT
  8
_0-7_枠細線
 62
    5
 10
1180
 20
927.5
 40
12.5
 41
0.7199999999999999
 50
0
  1
２０１９．０９．０１
  0
TEXT
  8
_0-7_枠細線
 62
    5
 10
938.85037037037023
 20
927.5
 40
12.5
 41
1
 50
0
  1
アンカー材質･厚み変更
  0
TEXT
  8
_0-7_枠細線
 62
    5
 10
902.36515126814822
 20
925.49351400689704
 40
12.5
 41
0.8
 50
0
  1
１
  0
LINE
  8
_0-7_枠細線
  6
CONTINUOUS
 62
    5
 10
1425
 20
907.5
 11
890
 21
907.5
  0
LINE
  8
_0-7_枠細線
  6
CONTINUOUS
 62
    5
 10
1425
 20
890
 11
890
 21
890
  0
TEXT
  8
_0-7_枠細線
 62
    5
 10
902.36515126814822
 20
908.63533172636664
 40
12.5
 41
0.8
 50
0
  1
２
  0
LINE
  8
_0-7_枠細線
  6
CONTINUOUS
 62
    5
 10
907.5
 20
923.94233397174685
 11
900
 21
908.94233397174685
  0
LINE
  8
_0-7_枠細線
  6
CONTINUOUS
 62
    5
 10
900
 20
908.94233397174685
 11
915
 21
908.94233397174685
  0
LINE
  8
_0-7_枠細線
  6
CONTINUOUS
 62
    5
 10
915
 20
908.94233397174685
 11
907.5
 21
923.94233397174685
  0
TEXT
  8
_0-7_枠細線
 62
    5
 10
902.36515126814822
 20
890.89465008156549
 40
12.5
 41
0.8
 50
0
  1
３
  0
LINE
  8
_0-7_枠細線
  6
CONTINUOUS
 62
    5
 10
907.5
 20
906.44233397174685
 11
900
 21
891.44233397174685
  0
LINE
  8
_0-7_枠細線
  6
CONTINUOUS
 62
    5
 10
900
 20
891.44233397174685
 11
915
 21
891.44233397174685
  0
LINE
  8
_0-7_枠細線
  6
CONTINUOUS
 62
    5
 10
915
 20
891.44233397174685
 11
907.5
 21
906.44233397174685
  0
LINE
  8
_0-7_枠細線
  6
CONTINUOUS
 62
    5
 10
1275
 20
890
 11
1275
 21
959.99999999999909
  0
LINE
  8
_0-7_枠細線
  6
CONTINUOUS
 62
    5
 10
1175
 20
890
 11
1175
 21
959.99999999999909
  0
LINE
  8
_0-7_枠細線
  6
CONTINUOUS
 62
    5
 10
925
 20
890
 11
925
 21
959.99999999999909
  0
LINE
  8
_0-7_枠細線
  6
CONTINUOUS
 62
    5
 10
890
 20
890
 11
890
 21
959.99999999999909
  0
TEXT
  8
_0-7_枠細線
 62
    5
 10
1180
 20
910
 40
12.5
 41
0.7199999999999999
 50
0
  1
２０２０．０９．０１
  0
TEXT
  8
_0-7_枠細線
 62
    5
 10
1059.0000000000005
 20
403.7335299914858
 40
15
 41
0.8000000000000001
 50
0
  1
ライトグレー
  0
TEXT
  8
_0-7_枠細線
 62
    5
 10
1071.0000000000005
 20
428.7335299914858
 40
15
 41
0.8000000000000001
 50
0
  1
ベージュ
  0
TEXT
  8
_0-7_枠細線
 62
    5
 10
1071.0000000000005
 20
378.73352999148574
 40
15
 41
0.8000000000000001
 50
0
  1
ホワイト
  0
TEXT
  8
_0-7_枠細線
 62
    5
 10
1077.0000000000005
 20
353.73352999148574
 40
15
 41
0.8000000000000001
 50
0
  1
ピンク
  0
TEXT
  8
_0-7_枠細線
 62
    5
 10
1077.0000000000005
 20
328.73352999148574
 40
15
 41
0.8000000000000001
 50
0
  1
ブルー
  0
TEXT
  8
_0-7_枠細線
 62
    5
 10
1059.0000000000005
 20
303.73352999148574
 40
15
 41
0.8000000000000001
 50
0
  1
ダークグレー
  0
TEXT
  8
_0-7_枠細線
 62
    5
 10
1077.0000000000005
 20
278.73352999148574
 40
15
 41
0.8000000000000001
 50
0
  1
ウッド
  0
TEXT
  8
_0-7_枠細線
 62
    5
 10
1071.0000000000005
 20
228.73352999148577
 40
15
 41
0.8000000000000001
 50
0
  1
ブラック
  0
TEXT
  8
_0-7_枠細線
 62
    5
 10
1071.0000000000005
 20
253.73352999148577
 40
15
 41
0.8000000000000001
 50
0
  1
ブラウン
  0
LINE
  8
_0-5_寸法線
  6
CONTINUOUS
 62
    7
 10
900.66487216364806
 20
696.29624425463805
 11
900.66487216364806
 21
816.29604780141563
  0
LINE
  8
_0-5_寸法線
  6
CONTINUOUS
 62
    7
 10
900.66487216364806
 20
811.29604780141563
 11
910.32413042653866
 21
813.88423825244081
  0
LINE
  8
_0-5_寸法線
  6
CONTINUOUS
 62
    7
 10
900.66487216364806
 20
811.29604780141563
 11
910.32413042653866
 21
808.70785735039033
  0
LINE
  8
_0-5_寸法線
  6
CONTINUOUS
 62
    7
 10
1310.6648721636479
 20
696.29624425463805
 11
1310.6648721636479
 21
816.29604780141563
  0
LINE
  8
_0-5_寸法線
  6
CONTINUOUS
 62
    7
 10
1310.6648721636479
 20
811.29604780141563
 11
1301.0056139007575
 21
808.70785735039033
  0
LINE
  8
_0-5_寸法線
  6
CONTINUOUS
 62
    7
 10
1310.6648721636479
 20
811.29604780141563
 11
1301.0056139007575
 21
813.88423825244081
  0
LINE
  8
_0-5_寸法線
  6
CONTINUOUS
 62
    7
 10
900.66487216364806
 20
811.29604780141563
 11
1310.6648721636479
 21
811.29604780141563
  0
TEXT
  8
_0-5_寸法線
 62
    7
 10
1094.4148721636482
 20
811.29604780141563
 40
15
 41
1
 50
0
  1
410
  0
LINE
  8
_0-5_寸法線
  6
CONTINUOUS
 62
    7
 10
900.66487216364806
 20
776.29604780141563
 11
891.00561390075723
 21
773.70785735039033
  0
LINE
  8
_0-5_寸法線
  6
CONTINUOUS
 62
    7
 10
900.66487216364806
 20
776.29604780141563
 11
891.00561390075723
 21
778.88423825244081
  0
LINE
  8
_0-5_寸法線
  6
CONTINUOUS
 62
    7
 10
903.66487216364806
 20
695.79624425463817
 11
903.66487216364806
 21
781.29604780141563
  0
CIRCLE
  8
_0-5_寸法線
  6
CONTINUOUS
 62
    1
 10
903.66487216364806
 20
776.29604780141563
 40
1.5000000000000002
  0
LINE
  8
_0-5_寸法線
  6
CONTINUOUS
 62
    7
 10
875.66487216364806
 20
776.29604780141563
 11
903.66487216364806
 21
776.29604780141563
  0
TEXT
  8
_0-5_寸法線
 62
    7
 10
878.42796116327577
 20
776.29604780141563
 40
15
 41
1
 50
0
  1
3
  0
LINE
  8
_0-5_寸法線
  6
CONTINUOUS
 62
    7
 10
905.1648721650223
 20
694.29624325363136
 11
905.16487216502287
 21
781.29604780141563
  0
LINE
  8
_0-5_寸法線
  6
CONTINUOUS
 62
    7
 10
903.66487216364806
 20
776.29604780141563
 11
905.16487216502287
 21
776.29604780141563
  0
TEXT
  8
_0-5_寸法線
 62
    7
 10
903.69342658548237
 20
776.29604780141563
 40
15
 41
1
 50
0
  1
1.5
  0
LINE
  8
_0-5_寸法線
  6
CONTINUOUS
 62
    7
 10
905.16487216502287
 20
776.29604780141563
 11
914.82413042791347
 21
778.88423825244081
  0
LINE
  8
_0-5_寸法線
  6
CONTINUOUS
 62
    7
 10
905.16487216502287
 20
776.29604780141563
 11
914.82413042791347
 21
773.70785735039033
  0
LINE
  8
_0-5_寸法線
  6
CONTINUOUS
 62
    7
 10
1306.1648721650224
 20
694.29624325363136
 11
1306.1648721650224
 21
781.29604780141563
  0
LINE
  8
_0-5_寸法線
  6
CONTINUOUS
 62
    7
 10
1306.1648721650224
 20
776.29604780141563
 11
1296.5056139021315
 21
773.70785735039033
  0
LINE
  8
_0-5_寸法線
  6
CONTINUOUS
 62
    7
 10
1306.1648721650224
 20
776.29604780141563
 11
1296.5056139021315
 21
778.88423825244081
  0
LINE
  8
_0-5_寸法線
  6
CONTINUOUS
 62
    7
 10
905.16487216502287
 20
776.29604780141563
 11
1306.1648721650224
 21
776.29604780141563
  0
TEXT
  8
_0-5_寸法線
 62
    7
 10
1094.4148721650226
 20
776.29604780141563
 40
15
 41
1
 50
0
  1
401
  0
LINE
  8
_0-5_寸法線
  6
CONTINUOUS
 62
    7
 10
1307.6648721636479
 20
695.79624425463817
 11
1307.6648721636479
 21
781.29604780141563
  0
CIRCLE
  8
_0-5_寸法線
  6
CONTINUOUS
 62
    1
 10
1307.6648721636479
 20
776.29604780141563
 40
1.5000000000000002
  0
LINE
  8
_0-5_寸法線
  6
CONTINUOUS
 62
    7
 10
1306.1648721650224
 20
776.29604780141563
 11
1307.6648721636479
 21
776.29604780141563
  0
TEXT
  8
_0-5_寸法線
 62
    7
 10
1283.2427337788758
 20
776.29604780141563
 40
15
 41
1
 50
0
  1
1.5
  0
LINE
  8
_0-5_寸法線
  6
CONTINUOUS
 62
    7
 10
1310.6648721636479
 20
776.29604780141563
 11
1320.3241304265387
 21
778.88423825244081
  0
LINE
  8
_0-5_寸法線
  6
CONTINUOUS
 62
    7
 10
1310.6648721636479
 20
776.29604780141563
 11
1320.3241304265387
 21
773.70785735039021
  0
LINE
  8
_0-5_寸法線
  6
CONTINUOUS
 62
    7
 10
1307.6648721636479
 20
776.29604780141563
 11
1335.6648721636479
 21
776.29604780141563
  0
TEXT
  8
_0-5_寸法線
 62
    7
 10
1324.8113696080529
 20
776.29604780141563
 40
15
 41
1
 50
0
  1
3
  0
LINE
  8
_0-0_計極細
  6
CENTER1
 62
    2
 10
278.68632075471794
 20
651.37053074521134
 11
278.68632075471794
 21
235.06198757974232
  0
LINE
  8
_0-0_計極細
  6
CENTER1
 62
    2
 10
375.68632075471794
 20
651.37053074521134
 11
375.68632075471794
 21
235.06198757974232
  0
LINE
  8
_0-0_計極細
  6
CENTER1
 62
    2
 10
424.186320754718
 20
651.37053074521134
 11
424.186320754718
 21
235.06198757974232
  0
LINE
  8
_0-0_計極細
  6
CONTINUOUS
 62
    2
 10
272.18632075471794
 20
428.41981132075387
 11
272.18632075471794
 21
422.81981132075401
  0
LINE
  8
_0-0_計極細
  6
CONTINUOUS
 62
    2
 10
285.186320754718
 20
428.41981132075387
 11
285.186320754718
 21
422.81981132075401
  0
LINE
  8
_0-0_計極細
  6
CONTINUOUS
 62
    2
 10
272.18632075471794
 20
445.41981132075477
 11
272.18632075471794
 21
439.81981132075447
  0
LINE
  8
_0-0_計極細
  6
CONTINUOUS
 62
    2
 10
285.186320754718
 20
445.41981132075477
 11
285.186320754718
 21
439.81981132075447
  0
LINE
  8
_0-0_計極細
  6
CONTINUOUS
 62
    2
 10
272.18632075471794
 20
462.41981132075523
 11
272.18632075471794
 21
456.81981132075532
  0
LINE
  8
_0-0_計極細
  6
CONTINUOUS
 62
    2
 10
285.186320754718
 20
462.41981132075523
 11
285.186320754718
 21
456.81981132075532
  0
LINE
  8
_0-0_計極細
  6
CONTINUOUS
 62
    2
 10
272.18632075471794
 20
479.4198113207562
 11
272.18632075471794
 21
473.81981132075578
  0
LINE
  8
_0-0_計極細
  6
CONTINUOUS
 62
    2
 10
285.186320754718
 20
479.4198113207562
 11
285.186320754718
 21
473.81981132075578
  0
LINE
  8
_0-0_計極細
  6
CONTINUOUS
 62
    2
 10
272.18632075471794
 20
496.41981132075665
 11
272.18632075471794
 21
490.81981132075668
  0
LINE
  8
_0-0_計極細
  6
CONTINUOUS
 62
    2
 10
285.186320754718
 20
496.41981132075665
 11
285.186320754718
 21
490.81981132075668
  0
LINE
  8
_0-0_計極細
  6
CONTINUOUS
 62
    2
 10
272.18632075471794
 20
513.4198113207558
 11
272.18632075471794
 21
507.81981132075578
  0
LINE
  8
_0-0_計極細
  6
CONTINUOUS
 62
    2
 10
285.186320754718
 20
513.4198113207558
 11
285.186320754718
 21
507.81981132075578
  0
LINE
  8
_0-0_計極細
  6
CONTINUOUS
 62
    2
 10
272.18632075471794
 20
530.41981132075477
 11
272.18632075471794
 21
524.81981132075487
  0
LINE
  8
_0-0_計極細
  6
CONTINUOUS
 62
    2
 10
285.186320754718
 20
530.41981132075477
 11
285.186320754718
 21
524.81981132075487
  0
LINE
  8
_0-0_計極細
  6
CONTINUOUS
 62
    2
 10
272.18632075471794
 20
547.41981132075387
 11
272.18632075471794
 21
541.81981132075396
  0
LINE
  8
_0-0_計極細
  6
CONTINUOUS
 62
    2
 10
285.186320754718
 20
547.41981132075387
 11
285.186320754718
 21
541.81981132075396
  0
LINE
  8
_0-0_計極細
  6
CONTINUOUS
 62
    2
 10
272.18632075471794
 20
564.41981132075296
 11
272.18632075471794
 21
558.81981132075316
  0
LINE
  8
_0-0_計極細
  6
CONTINUOUS
 62
    2
 10
285.186320754718
 20
564.41981132075296
 11
285.186320754718
 21
558.81981132075316
  0
LINE
  8
_0-0_計極細
  6
CONTINUOUS
 62
    2
 10
272.18632075471794
 20
581.11981132075596
 11
272.18632075471794
 21
575.81981132075623
  0
LINE
  8
_0-0_計極細
  6
CONTINUOUS
 62
    2
 10
285.186320754718
 20
581.11981132075596
 11
285.186320754718
 21
575.81981132075623
  0
LINE
  8
_0-0_計極細
  6
CONTINUOUS
 62
    2
 10
272.18632075471794
 20
405.81981132075305
 11
272.18632075471794
 21
411.41981132075301
  0
LINE
  8
_0-0_計極細
  6
CONTINUOUS
 62
    2
 10
285.186320754718
 20
405.81981132075305
 11
285.186320754718
 21
411.41981132075301
  0
LINE
  8
_0-0_計極細
  6
CONTINUOUS
 62
    2
 10
272.18632075471794
 20
388.81981132075219
 11
272.18632075471794
 21
394.41981132075256
  0
LINE
  8
_0-0_計極細
  6
CONTINUOUS
 62
    2
 10
285.186320754718
 20
388.81981132075219
 11
285.186320754718
 21
394.41981132075256
  0
LINE
  8
_0-0_計極細
  6
CONTINUOUS
 62
    2
 10
272.18632075471794
 20
371.81981132075174
 11
272.18632075471794
 21
377.41981132075159
  0
LINE
  8
_0-0_計極細
  6
CONTINUOUS
 62
    2
 10
285.186320754718
 20
371.81981132075174
 11
285.186320754718
 21
377.41981132075159
  0
LINE
  8
_0-0_計極細
  6
CONTINUOUS
 62
    2
 10
272.18632075471794
 20
354.81981132075259
 11
272.18632075471794
 21
360.4198113207525
  0
LINE
  8
_0-0_計極細
  6
CONTINUOUS
 62
    2
 10
285.186320754718
 20
354.81981132075259
 11
285.186320754718
 21
360.4198113207525
  0
LINE
  8
_0-0_計極細
  6
CONTINUOUS
 62
    2
 10
272.18632075471794
 20
337.8198113207535
 11
272.18632075471794
 21
343.41981132075341
  0
LINE
  8
_0-0_計極細
  6
CONTINUOUS
 62
    2
 10
285.186320754718
 20
337.8198113207535
 11
285.186320754718
 21
343.41981132075341
  0
LINE
  8
_0-0_計極細
  6
CONTINUOUS
 62
    2
 10
272.18632075471794
 20
320.81981132075441
 11
272.18632075471794
 21
326.41981132075438
  0
LINE
  8
_0-0_計極細
  6
CONTINUOUS
 62
    2
 10
285.186320754718
 20
320.81981132075441
 11
285.186320754718
 21
326.41981132075438
  0
LINE
  8
_0-0_計極細
  6
CONTINUOUS
 62
    2
 10
272.18632075471794
 20
303.81981132075532
 11
272.18632075471794
 21
309.41981132075523
  0
LINE
  8
_0-0_計極細
  6
CONTINUOUS
 62
    2
 10
285.186320754718
 20
303.81981132075532
 11
285.186320754718
 21
309.41981132075523
  0
LINE
  8
_0-0_計極細
  6
CONTINUOUS
 62
    2
 10
272.18632075471794
 20
287.11981132075232
 11
272.18632075471794
 21
292.41981132075205
  0
LINE
  8
_0-0_計極細
  6
CONTINUOUS
 62
    2
 10
285.186320754718
 20
287.11981132075232
 11
285.186320754718
 21
292.41981132075205
  0
LINE
  8
_0-0_計極細
  6
CONTINUOUS
 62
    2
 10
369.186320754718
 20
428.41981132075387
 11
369.186320754718
 21
422.81981132075401
  0
LINE
  8
_0-0_計極細
  6
CONTINUOUS
 62
    2
 10
382.18632075471794
 20
428.41981132075387
 11
382.18632075471794
 21
422.81981132075401
  0
LINE
  8
_0-0_計極細
  6
CONTINUOUS
 62
    2
 10
369.186320754718
 20
462.41981132075523
 11
369.186320754718
 21
456.81981132075532
  0
LINE
  8
_0-0_計極細
  6
CONTINUOUS
 62
    2
 10
382.18632075471794
 20
462.41981132075523
 11
382.18632075471794
 21
456.81981132075532
  0
LINE
  8
_0-0_計極細
  6
CONTINUOUS
 62
    2
 10
369.186320754718
 20
479.4198113207562
 11
369.186320754718
 21
473.81981132075578
  0
LINE
  8
_0-0_計極細
  6
CONTINUOUS
 62
    2
 10
382.18632075471794
 20
479.4198113207562
 11
382.18632075471794
 21
473.81981132075578
  0
LINE
  8
_0-0_計極細
  6
CONTINUOUS
 62
    2
 10
369.186320754718
 20
496.41981132075665
 11
369.186320754718
 21
490.81981132075668
  0
LINE
  8
_0-0_計極細
  6
CONTINUOUS
 62
    2
 10
382.18632075471794
 20
496.41981132075665
 11
382.18632075471794
 21
490.81981132075668
  0
LINE
  8
_0-0_計極細
  6
CONTINUOUS
 62
    2
 10
369.186320754718
 20
513.4198113207558
 11
369.186320754718
 21
507.81981132075578
  0
LINE
  8
_0-0_計極細
  6
CONTINUOUS
 62
    2
 10
382.18632075471794
 20
513.4198113207558
 11
382.18632075471794
 21
507.81981132075578
  0
LINE
  8
_0-0_計極細
  6
CONTINUOUS
 62
    2
 10
369.186320754718
 20
530.41981132075477
 11
369.186320754718
 21
524.81981132075487
  0
LINE
  8
_0-0_計極細
  6
CONTINUOUS
 62
    2
 10
382.18632075471794
 20
530.41981132075477
 11
382.18632075471794
 21
524.81981132075487
  0
LINE
  8
_0-0_計極細
  6
CONTINUOUS
 62
    2
 10
369.186320754718
 20
547.41981132075387
 11
369.186320754718
 21
541.81981132075396
  0
LINE
  8
_0-0_計極細
  6
CONTINUOUS
 62
    2
 10
382.18632075471794
 20
547.41981132075387
 11
382.18632075471794
 21
541.81981132075396
  0
LINE
  8
_0-0_計極細
  6
CONTINUOUS
 62
    2
 10
369.186320754718
 20
564.41981132075296
 11
369.186320754718
 21
558.81981132075316
  0
LINE
  8
_0-0_計極細
  6
CONTINUOUS
 62
    2
 10
382.18632075471794
 20
564.41981132075296
 11
382.18632075471794
 21
558.81981132075316
  0
LINE
  8
_0-0_計極細
  6
CONTINUOUS
 62
    2
 10
369.186320754718
 20
581.11981132075596
 11
369.186320754718
 21
575.81981132075623
  0
LINE
  8
_0-0_計極細
  6
CONTINUOUS
 62
    2
 10
382.18632075471794
 20
581.11981132075596
 11
382.18632075471794
 21
575.81981132075623
  0
LINE
  8
_0-0_計極細
  6
CONTINUOUS
 62
    2
 10
369.186320754718
 20
405.81981132075305
 11
369.186320754718
 21
411.41981132075301
  0
LINE
  8
_0-0_計極細
  6
CONTINUOUS
 62
    2
 10
382.18632075471794
 20
405.81981132075305
 11
382.18632075471794
 21
411.41981132075301
  0
LINE
  8
_0-0_計極細
  6
CONTINUOUS
 62
    2
 10
369.186320754718
 20
388.81981132075219
 11
369.186320754718
 21
394.41981132075256
  0
LINE
  8
_0-0_計極細
  6
CONTINUOUS
 62
    2
 10
382.18632075471794
 20
388.81981132075219
 11
382.18632075471794
 21
394.41981132075256
  0
LINE
  8
_0-0_計極細
  6
CONTINUOUS
 62
    2
 10
369.186320754718
 20
371.81981132075174
 11
369.186320754718
 21
377.41981132075159
  0
LINE
  8
_0-0_計極細
  6
CONTINUOUS
 62
    2
 10
382.18632075471794
 20
371.81981132075174
 11
382.18632075471794
 21
377.41981132075159
  0
LINE
  8
_0-0_計極細
  6
CONTINUOUS
 62
    2
 10
369.186320754718
 20
354.81981132075259
 11
369.186320754718
 21
360.4198113207525
  0
LINE
  8
_0-0_計極細
  6
CONTINUOUS
 62
    2
 10
382.18632075471794
 20
354.81981132075259
 11
382.18632075471794
 21
360.4198113207525
  0
LINE
  8
_0-0_計極細
  6
CONTINUOUS
 62
    2
 10
369.186320754718
 20
337.8198113207535
 11
369.186320754718
 21
343.41981132075341
  0
LINE
  8
_0-0_計極細
  6
CONTINUOUS
 62
    2
 10
382.18632075471794
 20
337.8198113207535
 11
382.18632075471794
 21
343.41981132075341
  0
LINE
  8
_0-0_計極細
  6
CONTINUOUS
 62
    2
 10
369.186320754718
 20
320.81981132075441
 11
369.186320754718
 21
326.41981132075438
  0
LINE
  8
_0-0_計極細
  6
CONTINUOUS
 62
    2
 10
382.18632075471794
 20
320.81981132075441
 11
382.18632075471794
 21
326.41981132075438
  0
LINE
  8
_0-0_計極細
  6
CONTINUOUS
 62
    2
 10
369.186320754718
 20
303.81981132075532
 11
369.186320754718
 21
309.41981132075523
  0
LINE
  8
_0-0_計極細
  6
CONTINUOUS
 62
    2
 10
382.18632075471794
 20
303.81981132075532
 11
382.18632075471794
 21
309.41981132075523
  0
LINE
  8
_0-0_計極細
  6
CONTINUOUS
 62
    2
 10
369.186320754718
 20
287.11981132075232
 11
369.186320754718
 21
292.41981132075205
  0
LINE
  8
_0-0_計極細
  6
CONTINUOUS
 62
    2
 10
382.18632075471794
 20
287.11981132075232
 11
382.18632075471794
 21
292.41981132075205
  0
LINE
  8
_0-0_計極細
  6
CONTINUOUS
 62
    2
 10
369.186320754718
 20
445.41981132075477
 11
369.186320754718
 21
444.96981132075456
  0
LINE
  8
_0-0_計極細
  6
CONTINUOUS
 62
    2
 10
369.186320754718
 20
440.26981132075468
 11
369.186320754718
 21
439.81981132075447
  0
LINE
  8
_0-0_計極細
  6
CONTINUOUS
 62
    2
 10
382.18632075471794
 20
445.41981132075477
 11
382.18632075471794
 21
444.96981132075456
  0
LINE
  8
_0-0_計極細
  6
CONTINUOUS
 62
    2
 10
382.18632075471794
 20
440.26981132075468
 11
382.18632075471794
 21
439.81981132075447
  0
LINE
  8
_0-0_計極細
  6
CONTINUOUS
 62
    2
 10
417.686320754718
 20
428.41981132075387
 11
417.686320754718
 21
422.81981132075401
  0
LINE
  8
_0-0_計極細
  6
CONTINUOUS
 62
    2
 10
430.68632075471794
 20
428.41981132075387
 11
430.68632075471794
 21
422.81981132075401
  0
LINE
  8
_0-0_計極細
  6
CONTINUOUS
 62
    2
 10
417.686320754718
 20
445.41981132075477
 11
417.686320754718
 21
439.81981132075447
  0
LINE
  8
_0-0_計極細
  6
CONTINUOUS
 62
    2
 10
430.68632075471794
 20
445.41981132075477
 11
430.68632075471794
 21
439.81981132075447
  0
LINE
  8
_0-0_計極細
  6
CONTINUOUS
 62
    2
 10
417.686320754718
 20
462.41981132075523
 11
417.686320754718
 21
456.81981132075532
  0
LINE
  8
_0-0_計極細
  6
CONTINUOUS
 62
    2
 10
430.68632075471794
 20
462.41981132075523
 11
430.68632075471794
 21
456.81981132075532
  0
LINE
  8
_0-0_計極細
  6
CONTINUOUS
 62
    2
 10
417.686320754718
 20
479.4198113207562
 11
417.686320754718
 21
473.81981132075578
  0
LINE
  8
_0-0_計極細
  6
CONTINUOUS
 62
    2
 10
430.68632075471794
 20
479.4198113207562
 11
430.68632075471794
 21
473.81981132075578
  0
LINE
  8
_0-0_計極細
  6
CONTINUOUS
 62
    2
 10
417.686320754718
 20
496.41981132075665
 11
417.686320754718
 21
490.81981132075668
  0
LINE
  8
_0-0_計極細
  6
CONTINUOUS
 62
    2
 10
430.68632075471794
 20
496.41981132075665
 11
430.68632075471794
 21
490.81981132075668
  0
LINE
  8
_0-0_計極細
  6
CONTINUOUS
 62
    2
 10
417.686320754718
 20
513.4198113207558
 11
417.686320754718
 21
507.81981132075578
  0
LINE
  8
_0-0_計極細
  6
CONTINUOUS
 62
    2
 10
430.68632075471794
 20
513.4198113207558
 11
430.68632075471794
 21
507.81981132075578
  0
LINE
  8
_0-0_計極細
  6
CONTINUOUS
 62
    2
 10
417.686320754718
 20
530.41981132075477
 11
417.686320754718
 21
524.81981132075487
  0
LINE
  8
_0-0_計極細
  6
CONTINUOUS
 62
    2
 10
430.68632075471794
 20
530.41981132075477
 11
430.68632075471794
 21
524.81981132075487
  0
LINE
  8
_0-0_計極細
  6
CONTINUOUS
 62
    2
 10
417.686320754718
 20
547.41981132075387
 11
417.686320754718
 21
541.81981132075396
  0
LINE
  8
_0-0_計極細
  6
CONTINUOUS
 62
    2
 10
430.68632075471794
 20
547.41981132075387
 11
430.68632075471794
 21
541.81981132075396
  0
LINE
  8
_0-0_計極細
  6
CONTINUOUS
 62
    2
 10
417.686320754718
 20
564.41981132075296
 11
417.686320754718
 21
558.81981132075316
  0
LINE
  8
_0-0_計極細
  6
CONTINUOUS
 62
    2
 10
430.68632075471794
 20
564.41981132075296
 11
430.68632075471794
 21
558.81981132075316
  0
LINE
  8
_0-0_計極細
  6
CONTINUOUS
 62
    2
 10
417.686320754718
 20
581.11981132075596
 11
417.686320754718
 21
575.81981132075623
  0
LINE
  8
_0-0_計極細
  6
CONTINUOUS
 62
    2
 10
430.68632075471794
 20
581.11981132075596
 11
430.68632075471794
 21
575.81981132075623
  0
LINE
  8
_0-0_計極細
  6
CONTINUOUS
 62
    2
 10
417.686320754718
 20
405.81981132075305
 11
417.686320754718
 21
411.41981132075301
  0
LINE
  8
_0-0_計極細
  6
CONTINUOUS
 62
    2
 10
430.68632075471794
 20
405.81981132075305
 11
430.68632075471794
 21
411.41981132075301
  0
LINE
  8
_0-0_計極細
  6
CONTINUOUS
 62
    2
 10
417.686320754718
 20
388.81981132075219
 11
417.686320754718
 21
394.41981132075256
  0
LINE
  8
_0-0_計極細
  6
CONTINUOUS
 62
    2
 10
430.68632075471794
 20
388.81981132075219
 11
430.68632075471794
 21
394.41981132075256
  0
LINE
  8
_0-0_計極細
  6
CONTINUOUS
 62
    2
 10
417.686320754718
 20
371.81981132075174
 11
417.686320754718
 21
377.41981132075159
  0
LINE
  8
_0-0_計極細
  6
CONTINUOUS
 62
    2
 10
430.68632075471794
 20
371.81981132075174
 11
430.68632075471794
 21
377.41981132075159
  0
LINE
  8
_0-0_計極細
  6
CONTINUOUS
 62
    2
 10
417.686320754718
 20
354.81981132075259
 11
417.686320754718
 21
360.4198113207525
  0
LINE
  8
_0-0_計極細
  6
CONTINUOUS
 62
    2
 10
430.68632075471794
 20
354.81981132075259
 11
430.68632075471794
 21
360.4198113207525
  0
LINE
  8
_0-0_計極細
  6
CONTINUOUS
 62
    2
 10
417.686320754718
 20
337.8198113207535
 11
417.686320754718
 21
343.41981132075341
  0
LINE
  8
_0-0_計極細
  6
CONTINUOUS
 62
    2
 10
430.68632075471794
 20
337.8198113207535
 11
430.68632075471794
 21
343.41981132075341
  0
LINE
  8
_0-0_計極細
  6
CONTINUOUS
 62
    2
 10
417.686320754718
 20
320.81981132075441
 11
417.686320754718
 21
326.41981132075438
  0
LINE
  8
_0-0_計極細
  6
CONTINUOUS
 62
    2
 10
430.68632075471794
 20
320.81981132075441
 11
430.68632075471794
 21
326.41981132075438
  0
LINE
  8
_0-0_計極細
  6
CONTINUOUS
 62
    2
 10
417.686320754718
 20
303.81981132075532
 11
417.686320754718
 21
309.41981132075523
  0
LINE
  8
_0-0_計極細
  6
CONTINUOUS
 62
    2
 10
430.68632075471794
 20
303.81981132075532
 11
430.68632075471794
 21
309.41981132075523
  0
LINE
  8
_0-0_計極細
  6
CONTINUOUS
 62
    2
 10
417.686320754718
 20
287.11981132075232
 11
417.686320754718
 21
292.41981132075205
  0
LINE
  8
_0-0_計極細
  6
CONTINUOUS
 62
    2
 10
430.68632075471794
 20
287.11981132075232
 11
430.68632075471794
 21
292.41981132075205
  0
LINE
  8
_0-0_計極細
  6
CONTINUOUS
 62
    2
 10
272.18632075471794
 20
270.41981132075341
 11
272.18632075471794
 21
275.71981132075314
  0
LINE
  8
_0-0_計極細
  6
CONTINUOUS
 62
    2
 10
285.186320754718
 20
270.41981132075341
 11
285.186320754718
 21
275.71981132075314
  0
LINE
  8
_0-0_計極細
  6
CONTINUOUS
 62
    2
 10
369.186320754718
 20
270.41981132075341
 11
369.186320754718
 21
275.71981132075314
  0
LINE
  8
_0-0_計極細
  6
CONTINUOUS
 62
    2
 10
382.18632075471794
 20
270.41981132075341
 11
382.18632075471794
 21
275.71981132075314
  0
LINE
  8
_0-0_計極細
  6
CONTINUOUS
 62
    2
 10
417.686320754718
 20
270.41981132075341
 11
417.686320754718
 21
275.71981132075314
  0
LINE
  8
_0-0_計極細
  6
CONTINUOUS
 62
    2
 10
430.68632075471794
 20
270.41981132075341
 11
430.68632075471794
 21
275.71981132075314
  0
LINE
  8
_0-0_計極細
  6
CONTINUOUS
 62
    2
 10
272.18632075471794
 20
597.81981132075487
 11
272.18632075471794
 21
592.51981132075514
  0
LINE
  8
_0-0_計極細
  6
CONTINUOUS
 62
    2
 10
285.186320754718
 20
597.81981132075487
 11
285.186320754718
 21
592.51981132075514
  0
LINE
  8
_0-0_計極細
  6
CONTINUOUS
 62
    2
 10
369.186320754718
 20
597.81981132075487
 11
369.186320754718
 21
592.51981132075514
  0
LINE
  8
_0-0_計極細
  6
CONTINUOUS
 62
    2
 10
382.18632075471794
 20
597.81981132075487
 11
382.18632075471794
 21
592.51981132075514
  0
LINE
  8
_0-0_計極細
  6
CONTINUOUS
 62
    2
 10
417.686320754718
 20
597.81981132075487
 11
417.686320754718
 21
592.51981132075514
  0
LINE
  8
_0-0_計極細
  6
CONTINUOUS
 62
    2
 10
430.68632075471794
 20
597.81981132075487
 11
430.68632075471794
 21
592.51981132075514
  0
LINE
  8
_0-0_計極細
  6
CONTINUOUS
 62
    2
 10
272.18632075471794
 20
614.51981132075377
 11
272.18632075471794
 21
609.21981132075405
  0
LINE
  8
_0-0_計極細
  6
CONTINUOUS
 62
    2
 10
285.186320754718
 20
614.51981132075377
 11
285.186320754718
 21
609.21981132075405
  0
LINE
  8
_0-0_計極細
  6
CONTINUOUS
 62
    2
 10
369.186320754718
 20
614.51981132075377
 11
369.186320754718
 21
609.21981132075405
  0
LINE
  8
_0-0_計極細
  6
CONTINUOUS
 62
    2
 10
382.18632075471794
 20
614.51981132075377
 11
382.18632075471794
 21
609.21981132075405
  0
LINE
  8
_0-0_計極細
  6
CONTINUOUS
 62
    2
 10
417.686320754718
 20
614.51981132075377
 11
417.686320754718
 21
609.21981132075405
  0
LINE
  8
_0-0_計極細
  6
CONTINUOUS
 62
    2
 10
430.68632075471794
 20
614.51981132075377
 11
430.68632075471794
 21
609.21981132075405
  0
LINE
  8
_0-0_計極細
  6
CENTER2
 62
    2
 10
255.79772121769878
 20
442.61981132075459
 11
687.73105455107589
 21
442.61981132075459
  0
LINE
  8
_0-5_寸法線
  6
CONTINUOUS
 62
    7
 10
676.16677235514305
 20
397.05314465408958
 11
683.23784016700859
 21
404.12421246595505
  0
LINE
  8
_0-5_寸法線
  6
CONTINUOUS
 62
    7
 10
676.16677235514305
 20
397.05314465408958
 11
685.82603061803388
 21
399.64133510511482
  0
LINE
  8
_0-5_寸法線
  6
CONTINUOUS
 62
    7
 10
676.16677235514305
 20
397.05314465408958
 11
717.5667723551436
 21
420.95544579854021
  0
LINE
  8
_0-5_寸法線
  6
CONTINUOUS
 62
    7
 10
717.5667723551436
 20
420.95544579854021
 11
825.56677235514371
 21
420.95544579854021
  0
TEXT
  8
_0-5_寸法線
 62
    7
 10
717.5667723551436
 20
420.95544579854021
 40
15
 41
0.8000000000000001
 50
0
  1
ＳＵＳアングル受枠
  0
LINE
  8
_0-1_計細線
  6
CONTINUOUS
 62
    3
 10
266.68632075471794
 20
647.6198113207497
 11
266.68632075471794
 21
237.61981132074962
  0
LINE
  8
_0-1_計細線
  6
CONTINUOUS
 62
    3
 10
266.68632075471794
 20
237.61981132074962
 11
676.68632075471794
 21
237.61981132074962
  0
LINE
  8
_0-1_計細線
  6
CONTINUOUS
 62
    3
 10
676.68632075471794
 20
237.61981132074962
 11
676.68632075471794
 21
647.6198113207497
  0
LINE
  8
_0-1_計細線
  6
CONTINUOUS
 62
    3
 10
676.68632075471794
 20
647.6198113207497
 11
266.68632075471794
 21
647.6198113207497
  0
LINE
  8
_0-1_計細線
  6
CONTINUOUS
 62
    3
 10
673.68632075471794
 20
240.61981132074962
 11
673.68632075471794
 21
644.6198113207497
  0
LINE
  8
_0-1_計細線
  6
CONTINUOUS
 62
    3
 10
673.68632075471794
 20
644.6198113207497
 11
269.68632075471794
 21
644.6198113207497
  0
LINE
  8
_0-1_計細線
  6
CONTINUOUS
 62
    3
 10
269.68632075471794
 20
644.6198113207497
 11
269.68632075471794
 21
240.61981132074962
  0
LINE
  8
_0-1_計細線
  6
CONTINUOUS
 62
    3
 10
269.68632075471794
 20
240.61981132074962
 11
673.68632075471794
 21
240.61981132074962
  0
LINE
  8
_0-0_計極細
  6
CENTER1
 62
    2
 10
664.68632075471805
 20
651.37053074521134
 11
664.68632075471805
 21
235.06198757974232
  0
LINE
  8
_0-0_計極細
  6
CENTER1
 62
    2
 10
567.68632075471805
 20
651.37053074521134
 11
567.68632075471805
 21
235.06198757974232
  0
LINE
  8
_0-1_計細線
  6
CONTINUOUS
 62
    3
 10
271.68632075471794
 20
411.41981132075796
 11
671.68632075471794
 21
411.41981132075796
  0
LINE
  8
_0-1_計細線
  6
CONTINUOUS
 62
    3
 10
271.68632075471794
 20
422.81981132075856
 11
671.68632075471794
 21
422.81981132075856
  0
LINE
  8
_0-1_計細線
  6
CONTINUOUS
 62
    3
 10
271.68632075471794
 20
411.41981132075796
 11
271.68632075471794
 21
422.81981132075856
  0
LINE
  8
_0-1_計細線
  6
CONTINUOUS
 62
    3
 10
671.68632075471794
 20
411.41981132075796
 11
671.68632075471794
 21
422.81981132075856
  0
LINE
  8
_0-0_計極細
  6
CONTINUOUS
 62
    2
 10
271.68632075471794
 20
419.61981132075829
 11
671.68632075471794
 21
419.61981132075829
  0
LINE
  8
_0-0_計極細
  6
CONTINUOUS
 62
    2
 10
271.68632075471794
 20
414.61981132075829
 11
671.68632075471794
 21
414.61981132075829
  0
LINE
  8
_0-1_計細線
  6
CONTINUOUS
 62
    3
 10
271.68632075471794
 20
507.81981132075578
 11
671.68632075471794
 21
507.81981132075578
  0
LINE
  8
_0-1_計細線
  6
CONTINUOUS
 62
    3
 10
271.68632075471794
 20
496.41981132075529
 11
671.68632075471794
 21
496.41981132075529
  0
LINE
  8
_0-1_計細線
  6
CONTINUOUS
 62
    3
 10
271.68632075471794
 20
507.81981132075578
 11
271.68632075471794
 21
496.41981132075529
  0
LINE
  8
_0-1_計細線
  6
CONTINUOUS
 62
    3
 10
671.68632075471794
 20
507.81981132075578
 11
671.68632075471794
 21
496.41981132075529
  0
LINE
  8
_0-0_計極細
  6
CONTINUOUS
 62
    2
 10
271.68632075471794
 20
499.6198113207555
 11
671.68632075471794
 21
499.6198113207555
  0
LINE
  8
_0-0_計極細
  6
CONTINUOUS
 62
    2
 10
271.68632075471794
 20
504.6198113207555
 11
671.68632075471794
 21
504.6198113207555
  0
LINE
  8
_0-1_計細線
  6
CONTINUOUS
 62
    3
 10
271.68632075471794
 20
473.81981132075578
 11
671.68632075471794
 21
473.81981132075578
  0
LINE
  8
_0-1_計細線
  6
CONTINUOUS
 62
    3
 10
271.68632075471794
 20
462.41981132075523
 11
671.68632075471794
 21
462.41981132075523
  0
LINE
  8
_0-1_計細線
  6
CONTINUOUS
 62
    3
 10
271.68632075471794
 20
473.81981132075578
 11
271.68632075471794
 21
462.41981132075523
  0
LINE
  8
_0-1_計細線
  6
CONTINUOUS
 62
    3
 10
671.68632075471794
 20
473.81981132075578
 11
671.68632075471794
 21
462.41981132075523
  0
LINE
  8
_0-0_計極細
  6
CONTINUOUS
 62
    2
 10
271.68632075471794
 20
465.6198113207555
 11
671.68632075471794
 21
465.6198113207555
  0
LINE
  8
_0-0_計極細
  6
CONTINUOUS
 62
    2
 10
271.68632075471794
 20
470.6198113207555
 11
671.68632075471794
 21
470.6198113207555
  0
LINE
  8
_0-1_計細線
  6
CONTINUOUS
 62
    3
 10
271.68632075471794
 20
490.81981132075668
 11
671.68632075471794
 21
490.81981132075668
  0
LINE
  8
_0-1_計細線
  6
CONTINUOUS
 62
    3
 10
271.68632075471794
 20
479.4198113207562
 11
671.68632075471794
 21
479.4198113207562
  0
LINE
  8
_0-1_計細線
  6
CONTINUOUS
 62
    3
 10
271.68632075471794
 20
490.81981132075668
 11
271.68632075471794
 21
479.4198113207562
  0
LINE
  8
_0-1_計細線
  6
CONTINUOUS
 62
    3
 10
671.68632075471794
 20
490.81981132075668
 11
671.68632075471794
 21
479.4198113207562
  0
LINE
  8
_0-0_計極細
  6
CONTINUOUS
 62
    2
 10
271.68632075471794
 20
482.61981132075647
 11
671.68632075471794
 21
482.61981132075647
  0
LINE
  8
_0-0_計極細
  6
CONTINUOUS
 62
    2
 10
271.68632075471794
 20
487.61981132075647
 11
671.68632075471794
 21
487.61981132075647
  0
LINE
  8
_0-1_計細線
  6
CONTINUOUS
 62
    3
 10
271.68632075471794
 20
575.81981132075623
 11
671.68632075471794
 21
575.81981132075623
  0
LINE
  8
_0-1_計細線
  6
CONTINUOUS
 62
    3
 10
271.68632075471794
 20
564.41981132075568
 11
671.68632075471794
 21
564.41981132075568
  0
LINE
  8
_0-1_計細線
  6
CONTINUOUS
 62
    3
 10
271.68632075471794
 20
575.81981132075623
 11
271.68632075471794
 21
564.41981132075568
  0
LINE
  8
_0-1_計細線
  6
CONTINUOUS
 62
    3
 10
671.68632075471794
 20
575.81981132075623
 11
671.68632075471794
 21
564.41981132075568
  0
LINE
  8
_0-0_計極細
  6
CONTINUOUS
 62
    2
 10
271.68632075471794
 20
567.61981132075653
 11
671.68632075471794
 21
567.61981132075653
  0
LINE
  8
_0-0_計極細
  6
CONTINUOUS
 62
    2
 10
271.68632075471794
 20
572.61981132075653
 11
671.68632075471794
 21
572.61981132075653
  0
LINE
  8
_0-1_計細線
  6
CONTINUOUS
 62
    3
 10
271.68632075471794
 20
524.81981132075487
 11
671.68632075471794
 21
524.81981132075487
  0
LINE
  8
_0-1_計細線
  6
CONTINUOUS
 62
    3
 10
271.68632075471794
 20
513.41981132075432
 11
671.68632075471794
 21
513.41981132075432
  0
LINE
  8
_0-1_計細線
  6
CONTINUOUS
 62
    3
 10
271.68632075471794
 20
524.81981132075487
 11
271.68632075471794
 21
513.41981132075432
  0
LINE
  8
_0-1_計細線
  6
CONTINUOUS
 62
    3
 10
671.68632075471794
 20
524.81981132075487
 11
671.68632075471794
 21
513.41981132075432
  0
LINE
  8
_0-0_計極細
  6
CONTINUOUS
 62
    2
 10
271.68632075471794
 20
516.61981132075459
 11
671.68632075471794
 21
516.61981132075459
  0
LINE
  8
_0-0_計極細
  6
CONTINUOUS
 62
    2
 10
271.68632075471794
 20
521.61981132075459
 11
671.68632075471794
 21
521.61981132075459
  0
LINE
  8
_0-1_計細線
  6
CONTINUOUS
 62
    3
 10
271.68632075471794
 20
541.81981132075396
 11
671.68632075471794
 21
541.81981132075396
  0
LINE
  8
_0-1_計細線
  6
CONTINUOUS
 62
    3
 10
271.68632075471794
 20
530.41981132075341
 11
671.68632075471794
 21
530.41981132075341
  0
LINE
  8
_0-1_計細線
  6
CONTINUOUS
 62
    3
 10
271.68632075471794
 20
541.81981132075396
 11
271.68632075471794
 21
530.41981132075341
  0
LINE
  8
_0-1_計細線
  6
CONTINUOUS
 62
    3
 10
671.68632075471794
 20
541.81981132075396
 11
671.68632075471794
 21
530.41981132075341
  0
LINE
  8
_0-0_計極細
  6
CONTINUOUS
 62
    2
 10
271.68632075471794
 20
533.61981132075368
 11
671.68632075471794
 21
533.61981132075368
  0
LINE
  8
_0-0_計極細
  6
CONTINUOUS
 62
    2
 10
271.68632075471794
 20
538.61981132075368
 11
671.68632075471794
 21
538.61981132075368
  0
LINE
  8
_0-1_計細線
  6
CONTINUOUS
 62
    3
 10
271.68632075471794
 20
558.81981132075316
 11
671.68632075471794
 21
558.81981132075316
  0
LINE
  8
_0-1_計細線
  6
CONTINUOUS
 62
    3
 10
271.68632075471794
 20
547.4198113207525
 11
671.68632075471794
 21
547.4198113207525
  0
LINE
  8
_0-1_計細線
  6
CONTINUOUS
 62
    3
 10
271.68632075471794
 20
558.81981132075316
 11
271.68632075471794
 21
547.4198113207525
  0
LINE
  8
_0-1_計細線
  6
CONTINUOUS
 62
    3
 10
671.68632075471794
 20
558.81981132075316
 11
671.68632075471794
 21
547.4198113207525
  0
LINE
  8
_0-0_計極細
  6
CONTINUOUS
 62
    2
 10
271.68632075471794
 20
550.61981132075277
 11
671.68632075471794
 21
550.61981132075277
  0
LINE
  8
_0-0_計極細
  6
CONTINUOUS
 62
    2
 10
271.68632075471794
 20
555.61981132075277
 11
671.68632075471794
 21
555.61981132075277
  0
LINE
  8
_0-1_計細線
  6
CONTINUOUS
 62
    3
 10
271.68632075471794
 20
592.51981132075514
 11
671.68632075471794
 21
592.51981132075514
  0
LINE
  8
_0-1_計細線
  6
CONTINUOUS
 62
    3
 10
271.68632075471794
 20
581.11981132075459
 11
671.68632075471794
 21
581.11981132075459
  0
LINE
  8
_0-1_計細線
  6
CONTINUOUS
 62
    3
 10
271.68632075471794
 20
592.51981132075514
 11
271.68632075471794
 21
581.11981132075459
  0
LINE
  8
_0-1_計細線
  6
CONTINUOUS
 62
    3
 10
671.68632075471794
 20
592.51981132075514
 11
671.68632075471794
 21
581.11981132075459
  0
LINE
  8
_0-0_計極細
  6
CONTINUOUS
 62
    2
 10
271.68632075471794
 20
584.31981132075498
 11
671.68632075471794
 21
584.31981132075498
  0
LINE
  8
_0-0_計極細
  6
CONTINUOUS
 62
    2
 10
271.68632075471794
 20
589.31981132075498
 11
671.68632075471794
 21
589.31981132075498
  0
LINE
  8
_0-1_計細線
  6
CONTINUOUS
 62
    3
 10
271.68632075471794
 20
360.4198113207525
 11
671.68632075471794
 21
360.4198113207525
  0
LINE
  8
_0-1_計細線
  6
CONTINUOUS
 62
    3
 10
271.68632075471794
 20
371.81981132075305
 11
671.68632075471794
 21
371.81981132075305
  0
LINE
  8
_0-1_計細線
  6
CONTINUOUS
 62
    3
 10
271.68632075471794
 20
360.4198113207525
 11
271.68632075471794
 21
371.81981132075305
  0
LINE
  8
_0-1_計細線
  6
CONTINUOUS
 62
    3
 10
671.68632075471794
 20
360.4198113207525
 11
671.68632075471794
 21
371.81981132075305
  0
LINE
  8
_0-0_計極細
  6
CONTINUOUS
 62
    2
 10
271.68632075471794
 20
368.61981132075277
 11
671.68632075471794
 21
368.61981132075277
  0
LINE
  8
_0-0_計極細
  6
CONTINUOUS
 62
    2
 10
271.68632075471794
 20
363.61981132075277
 11
671.68632075471794
 21
363.61981132075277
  0
LINE
  8
_0-1_計細線
  6
CONTINUOUS
 62
    3
 10
271.68632075471794
 20
394.41981132075256
 11
671.68632075471794
 21
394.41981132075256
  0
LINE
  8
_0-1_計細線
  6
CONTINUOUS
 62
    3
 10
271.68632075471794
 20
405.81981132075305
 11
671.68632075471794
 21
405.81981132075305
  0
LINE
  8
_0-1_計細線
  6
CONTINUOUS
 62
    3
 10
271.68632075471794
 20
394.41981132075256
 11
271.68632075471794
 21
405.81981132075305
  0
LINE
  8
_0-1_計細線
  6
CONTINUOUS
 62
    3
 10
671.68632075471794
 20
394.41981132075256
 11
671.68632075471794
 21
405.81981132075305
  0
LINE
  8
_0-0_計極細
  6
CONTINUOUS
 62
    2
 10
271.68632075471794
 20
402.61981132075277
 11
671.68632075471794
 21
402.61981132075277
  0
LINE
  8
_0-0_計極細
  6
CONTINUOUS
 62
    2
 10
271.68632075471794
 20
397.61981132075277
 11
671.68632075471794
 21
397.61981132075277
  0
LINE
  8
_0-1_計細線
  6
CONTINUOUS
 62
    3
 10
271.68632075471794
 20
377.41981132075159
 11
671.68632075471794
 21
377.41981132075159
  0
LINE
  8
_0-1_計細線
  6
CONTINUOUS
 62
    3
 10
271.68632075471794
 20
388.81981132075219
 11
671.68632075471794
 21
388.81981132075219
  0
LINE
  8
_0-1_計細線
  6
CONTINUOUS
 62
    3
 10
271.68632075471794
 20
377.41981132075159
 11
271.68632075471794
 21
388.81981132075219
  0
LINE
  8
_0-1_計細線
  6
CONTINUOUS
 62
    3
 10
671.68632075471794
 20
377.41981132075159
 11
671.68632075471794
 21
388.81981132075219
  0
LINE
  8
_0-0_計極細
  6
CONTINUOUS
 62
    2
 10
271.68632075471794
 20
385.61981132075186
 11
671.68632075471794
 21
385.61981132075186
  0
LINE
  8
_0-0_計極細
  6
CONTINUOUS
 62
    2
 10
271.68632075471794
 20
380.61981132075186
 11
671.68632075471794
 21
380.61981132075186
  0
LINE
  8
_0-1_計細線
  6
CONTINUOUS
 62
    3
 10
271.68632075471794
 20
292.41981132075205
 11
671.68632075471794
 21
292.41981132075205
  0
LINE
  8
_0-1_計細線
  6
CONTINUOUS
 62
    3
 10
271.68632075471794
 20
303.81981132075259
 11
671.68632075471794
 21
303.81981132075259
  0
LINE
  8
_0-1_計細線
  6
CONTINUOUS
 62
    3
 10
271.68632075471794
 20
292.41981132075205
 11
271.68632075471794
 21
303.81981132075259
  0
LINE
  8
_0-1_計細線
  6
CONTINUOUS
 62
    3
 10
671.68632075471794
 20
292.41981132075205
 11
671.68632075471794
 21
303.81981132075259
  0
LINE
  8
_0-0_計極細
  6
CONTINUOUS
 62
    2
 10
271.68632075471794
 20
300.61981132075186
 11
671.68632075471794
 21
300.61981132075186
  0
LINE
  8
_0-0_計極細
  6
CONTINUOUS
 62
    2
 10
271.68632075471794
 20
295.61981132075186
 11
671.68632075471794
 21
295.61981132075186
  0
LINE
  8
_0-1_計細線
  6
CONTINUOUS
 62
    3
 10
271.68632075471794
 20
343.41981132075341
 11
671.68632075471794
 21
343.41981132075341
  0
LINE
  8
_0-1_計細線
  6
CONTINUOUS
 62
    3
 10
271.68632075471794
 20
354.81981132075396
 11
671.68632075471794
 21
354.81981132075396
  0
LINE
  8
_0-1_計細線
  6
CONTINUOUS
 62
    3
 10
271.68632075471794
 20
343.41981132075341
 11
271.68632075471794
 21
354.81981132075396
  0
LINE
  8
_0-1_計細線
  6
CONTINUOUS
 62
    3
 10
671.68632075471794
 20
343.41981132075341
 11
671.68632075471794
 21
354.81981132075396
  0
LINE
  8
_0-0_計極細
  6
CONTINUOUS
 62
    2
 10
271.68632075471794
 20
351.61981132075368
 11
671.68632075471794
 21
351.61981132075368
  0
LINE
  8
_0-0_計極細
  6
CONTINUOUS
 62
    2
 10
271.68632075471794
 20
346.61981132075368
 11
671.68632075471794
 21
346.61981132075368
  0
LINE
  8
_0-1_計細線
  6
CONTINUOUS
 62
    3
 10
271.68632075471794
 20
326.41981132075438
 11
671.68632075471794
 21
326.41981132075438
  0
LINE
  8
_0-1_計細線
  6
CONTINUOUS
 62
    3
 10
271.68632075471794
 20
337.81981132075487
 11
671.68632075471794
 21
337.81981132075487
  0
LINE
  8
_0-1_計細線
  6
CONTINUOUS
 62
    3
 10
271.68632075471794
 20
326.41981132075438
 11
271.68632075471794
 21
337.81981132075487
  0
LINE
  8
_0-1_計細線
  6
CONTINUOUS
 62
    3
 10
671.68632075471794
 20
326.41981132075438
 11
671.68632075471794
 21
337.81981132075487
  0
LINE
  8
_0-0_計極細
  6
CONTINUOUS
 62
    2
 10
271.68632075471794
 20
334.61981132075459
 11
671.68632075471794
 21
334.61981132075459
  0
LINE
  8
_0-0_計極細
  6
CONTINUOUS
 62
    2
 10
271.68632075471794
 20
329.61981132075459
 11
671.68632075471794
 21
329.61981132075459
  0
LINE
  8
_0-1_計細線
  6
CONTINUOUS
 62
    3
 10
271.68632075471794
 20
309.41981132075523
 11
671.68632075471794
 21
309.41981132075523
  0
LINE
  8
_0-1_計細線
  6
CONTINUOUS
 62
    3
 10
271.68632075471794
 20
320.81981132075578
 11
671.68632075471794
 21
320.81981132075578
  0
LINE
  8
_0-1_計細線
  6
CONTINUOUS
 62
    3
 10
271.68632075471794
 20
309.41981132075523
 11
271.68632075471794
 21
320.81981132075578
  0
LINE
  8
_0-1_計細線
  6
CONTINUOUS
 62
    3
 10
671.68632075471794
 20
309.41981132075523
 11
671.68632075471794
 21
320.81981132075578
  0
LINE
  8
_0-0_計極細
  6
CONTINUOUS
 62
    2
 10
271.68632075471794
 20
317.6198113207555
 11
671.68632075471794
 21
317.6198113207555
  0
LINE
  8
_0-0_計極細
  6
CONTINUOUS
 62
    2
 10
271.68632075471794
 20
312.6198113207555
 11
671.68632075471794
 21
312.6198113207555
  0
LINE
  8
_0-1_計細線
  6
CONTINUOUS
 62
    3
 10
271.68632075471794
 20
275.71981132075314
 11
671.68632075471794
 21
275.71981132075314
  0
LINE
  8
_0-1_計細線
  6
CONTINUOUS
 62
    3
 10
271.68632075471794
 20
287.11981132075368
 11
671.68632075471794
 21
287.11981132075368
  0
LINE
  8
_0-1_計細線
  6
CONTINUOUS
 62
    3
 10
271.68632075471794
 20
275.71981132075314
 11
271.68632075471794
 21
287.11981132075368
  0
LINE
  8
_0-1_計細線
  6
CONTINUOUS
 62
    3
 10
671.68632075471794
 20
275.71981132075314
 11
671.68632075471794
 21
287.11981132075368
  0
LINE
  8
_0-0_計極細
  6
CONTINUOUS
 62
    2
 10
271.68632075471794
 20
283.91981132075341
 11
671.68632075471794
 21
283.91981132075341
  0
LINE
  8
_0-0_計極細
  6
CONTINUOUS
 62
    2
 10
271.68632075471794
 20
278.91981132075341
 11
671.68632075471794
 21
278.91981132075341
  0
LINE
  8
_0-1_計細線
  6
CONTINUOUS
 62
    3
 10
271.68632075471794
 20
428.41981132075387
 11
671.68632075471794
 21
428.41981132075387
  0
LINE
  8
_0-1_計細線
  6
CONTINUOUS
 62
    3
 10
671.68632075471794
 20
439.81981132075447
 11
671.68632075471794
 21
428.41981132075387
  0
LINE
  8
_0-0_計極細
  6
CONTINUOUS
 62
    2
 10
271.68632075471794
 20
431.6198113207542
 11
671.68632075471794
 21
431.6198113207542
  0
LINE
  8
_0-0_計極細
  6
CONTINUOUS
 62
    2
 10
271.68632075471794
 20
436.6198113207542
 11
671.68632075471794
 21
436.6198113207542
  0
LINE
  8
_0-1_計細線
  6
CONTINUOUS
 62
    3
 10
271.68632075471794
 20
439.81981132075447
 11
271.68632075471794
 21
428.41981132075387
  0
LINE
  8
_0-1_計細線
  6
CONTINUOUS
 62
    3
 10
271.68632075471794
 20
439.81981132075447
 11
671.68632075471794
 21
439.81981132075447
  0
LINE
  8
_0-1_計細線
  6
CONTINUOUS
 62
    3
 10
271.68632075471794
 20
456.81981132075532
 11
671.68632075471794
 21
456.81981132075532
  0
LINE
  8
_0-1_計細線
  6
CONTINUOUS
 62
    3
 10
671.68632075471794
 20
456.81981132075532
 11
671.68632075471794
 21
445.41981132075477
  0
LINE
  8
_0-0_計極細
  6
CONTINUOUS
 62
    2
 10
271.68632075471794
 20
448.61981132075505
 11
671.68632075471794
 21
448.61981132075505
  0
LINE
  8
_0-0_計極細
  6
CONTINUOUS
 62
    2
 10
271.68632075471794
 20
453.61981132075505
 11
671.68632075471794
 21
453.61981132075505
  0
LINE
  8
_0-1_計細線
  6
CONTINUOUS
 62
    3
 10
271.68632075471794
 20
445.41981132075477
 11
671.68632075471794
 21
445.41981132075477
  0
LINE
  8
_0-1_計細線
  6
CONTINUOUS
 62
    3
 10
271.68632075471794
 20
456.81981132075532
 11
271.68632075471794
 21
445.41981132075477
  0
LINE
  8
_0-0_計極細
  6
CONTINUOUS
 62
    2
 10
658.18632075471794
 20
428.41981132075387
 11
658.18632075471794
 21
422.81981132075401
  0
LINE
  8
_0-0_計極細
  6
CONTINUOUS
 62
    2
 10
671.18632075471794
 20
428.41981132075387
 11
671.18632075471794
 21
422.81981132075401
  0
LINE
  8
_0-0_計極細
  6
CONTINUOUS
 62
    2
 10
658.18632075471794
 20
445.41981132075477
 11
658.18632075471794
 21
439.81981132075447
  0
LINE
  8
_0-0_計極細
  6
CONTINUOUS
 62
    2
 10
671.18632075471794
 20
445.41981132075477
 11
671.18632075471794
 21
439.81981132075447
  0
LINE
  8
_0-0_計極細
  6
CONTINUOUS
 62
    2
 10
658.18632075471794
 20
462.41981132075523
 11
658.18632075471794
 21
456.81981132075532
  0
LINE
  8
_0-0_計極細
  6
CONTINUOUS
 62
    2
 10
671.18632075471794
 20
462.41981132075523
 11
671.18632075471794
 21
456.81981132075532
  0
LINE
  8
_0-0_計極細
  6
CONTINUOUS
 62
    2
 10
658.18632075471794
 20
479.4198113207562
 11
658.18632075471794
 21
473.81981132075578
  0
LINE
  8
_0-0_計極細
  6
CONTINUOUS
 62
    2
 10
671.18632075471794
 20
479.4198113207562
 11
671.18632075471794
 21
473.81981132075578
  0
LINE
  8
_0-0_計極細
  6
CONTINUOUS
 62
    2
 10
658.18632075471794
 20
496.41981132075665
 11
658.18632075471794
 21
490.81981132075668
  0
LINE
  8
_0-0_計極細
  6
CONTINUOUS
 62
    2
 10
671.18632075471794
 20
496.41981132075665
 11
671.18632075471794
 21
490.81981132075668
  0
LINE
  8
_0-0_計極細
  6
CONTINUOUS
 62
    2
 10
658.18632075471794
 20
513.4198113207558
 11
658.18632075471794
 21
507.81981132075578
  0
LINE
  8
_0-0_計極細
  6
CONTINUOUS
 62
    2
 10
671.18632075471794
 20
513.4198113207558
 11
671.18632075471794
 21
507.81981132075578
  0
LINE
  8
_0-0_計極細
  6
CONTINUOUS
 62
    2
 10
658.18632075471794
 20
530.41981132075477
 11
658.18632075471794
 21
524.81981132075487
  0
LINE
  8
_0-0_計極細
  6
CONTINUOUS
 62
    2
 10
671.18632075471794
 20
530.41981132075477
 11
671.18632075471794
 21
524.81981132075487
  0
LINE
  8
_0-0_計極細
  6
CONTINUOUS
 62
    2
 10
658.18632075471794
 20
547.41981132075387
 11
658.18632075471794
 21
541.81981132075396
  0
LINE
  8
_0-0_計極細
  6
CONTINUOUS
 62
    2
 10
671.18632075471794
 20
547.41981132075387
 11
671.18632075471794
 21
541.81981132075396
  0
LINE
  8
_0-0_計極細
  6
CONTINUOUS
 62
    2
 10
658.18632075471794
 20
564.41981132075296
 11
658.18632075471794
 21
558.81981132075316
  0
LINE
  8
_0-0_計極細
  6
CONTINUOUS
 62
    2
 10
671.18632075471794
 20
564.41981132075296
 11
671.18632075471794
 21
558.81981132075316
  0
LINE
  8
_0-0_計極細
  6
CONTINUOUS
 62
    2
 10
658.18632075471794
 20
581.11981132075596
 11
658.18632075471794
 21
575.81981132075623
  0
LINE
  8
_0-0_計極細
  6
CONTINUOUS
 62
    2
 10
671.18632075471794
 20
581.11981132075596
 11
671.18632075471794
 21
575.81981132075623
  0
LINE
  8
_0-0_計極細
  6
CONTINUOUS
 62
    2
 10
658.18632075471794
 20
405.81981132075305
 11
658.18632075471794
 21
411.41981132075301
  0
LINE
  8
_0-0_計極細
  6
CONTINUOUS
 62
    2
 10
671.18632075471794
 20
405.81981132075305
 11
671.18632075471794
 21
411.41981132075301
  0
LINE
  8
_0-0_計極細
  6
CONTINUOUS
 62
    2
 10
658.18632075471794
 20
388.81981132075219
 11
658.18632075471794
 21
394.41981132075256
  0
LINE
  8
_0-0_計極細
  6
CONTINUOUS
 62
    2
 10
671.18632075471794
 20
388.81981132075219
 11
671.18632075471794
 21
394.41981132075256
  0
LINE
  8
_0-0_計極細
  6
CONTINUOUS
 62
    2
 10
658.18632075471794
 20
371.81981132075174
 11
658.18632075471794
 21
377.41981132075159
  0
LINE
  8
_0-0_計極細
  6
CONTINUOUS
 62
    2
 10
671.18632075471794
 20
371.81981132075174
 11
671.18632075471794
 21
377.41981132075159
  0
LINE
  8
_0-0_計極細
  6
CONTINUOUS
 62
    2
 10
658.18632075471794
 20
354.81981132075259
 11
658.18632075471794
 21
360.4198113207525
  0
LINE
  8
_0-0_計極細
  6
CONTINUOUS
 62
    2
 10
671.18632075471794
 20
354.81981132075259
 11
671.18632075471794
 21
360.4198113207525
  0
LINE
  8
_0-0_計極細
  6
CONTINUOUS
 62
    2
 10
658.18632075471794
 20
337.8198113207535
 11
658.18632075471794
 21
343.41981132075341
  0
LINE
  8
_0-0_計極細
  6
CONTINUOUS
 62
    2
 10
671.18632075471794
 20
337.8198113207535
 11
671.18632075471794
 21
343.41981132075341
  0
LINE
  8
_0-0_計極細
  6
CONTINUOUS
 62
    2
 10
658.18632075471794
 20
320.81981132075441
 11
658.18632075471794
 21
326.41981132075438
  0
LINE
  8
_0-0_計極細
  6
CONTINUOUS
 62
    2
 10
671.18632075471794
 20
320.81981132075441
 11
671.18632075471794
 21
326.41981132075438
  0
LINE
  8
_0-0_計極細
  6
CONTINUOUS
 62
    2
 10
658.18632075471794
 20
303.81981132075532
 11
658.18632075471794
 21
309.41981132075523
  0
LINE
  8
_0-0_計極細
  6
CONTINUOUS
 62
    2
 10
671.18632075471794
 20
303.81981132075532
 11
671.18632075471794
 21
309.41981132075523
  0
LINE
  8
_0-0_計極細
  6
CONTINUOUS
 62
    2
 10
658.18632075471794
 20
287.11981132075232
 11
658.18632075471794
 21
292.41981132075205
  0
LINE
  8
_0-0_計極細
  6
CONTINUOUS
 62
    2
 10
671.18632075471794
 20
287.11981132075232
 11
671.18632075471794
 21
292.41981132075205
  0
LINE
  8
_0-0_計極細
  6
CONTINUOUS
 62
    2
 10
561.18632075471794
 20
428.41981132075387
 11
561.18632075471794
 21
422.81981132075401
  0
LINE
  8
_0-0_計極細
  6
CONTINUOUS
 62
    2
 10
574.18632075471794
 20
428.41981132075387
 11
574.18632075471794
 21
422.81981132075401
  0
LINE
  8
_0-0_計極細
  6
CONTINUOUS
 62
    2
 10
561.18632075471794
 20
445.41981132075477
 11
561.18632075471794
 21
439.81981132075447
  0
LINE
  8
_0-0_計極細
  6
CONTINUOUS
 62
    2
 10
574.18632075471794
 20
445.41981132075477
 11
574.18632075471794
 21
439.81981132075447
  0
LINE
  8
_0-0_計極細
  6
CONTINUOUS
 62
    2
 10
561.18632075471794
 20
462.41981132075523
 11
561.18632075471794
 21
456.81981132075532
  0
LINE
  8
_0-0_計極細
  6
CONTINUOUS
 62
    2
 10
574.18632075471794
 20
462.41981132075523
 11
574.18632075471794
 21
456.81981132075532
  0
LINE
  8
_0-0_計極細
  6
CONTINUOUS
 62
    2
 10
561.18632075471794
 20
479.4198113207562
 11
561.18632075471794
 21
473.81981132075578
  0
LINE
  8
_0-0_計極細
  6
CONTINUOUS
 62
    2
 10
574.18632075471794
 20
479.4198113207562
 11
574.18632075471794
 21
473.81981132075578
  0
LINE
  8
_0-0_計極細
  6
CONTINUOUS
 62
    2
 10
561.18632075471794
 20
496.41981132075665
 11
561.18632075471794
 21
490.81981132075668
  0
LINE
  8
_0-0_計極細
  6
CONTINUOUS
 62
    2
 10
574.18632075471794
 20
496.41981132075665
 11
574.18632075471794
 21
490.81981132075668
  0
LINE
  8
_0-0_計極細
  6
CONTINUOUS
 62
    2
 10
561.18632075471794
 20
513.4198113207558
 11
561.18632075471794
 21
507.81981132075578
  0
LINE
  8
_0-0_計極細
  6
CONTINUOUS
 62
    2
 10
574.18632075471794
 20
513.4198113207558
 11
574.18632075471794
 21
507.81981132075578
  0
LINE
  8
_0-0_計極細
  6
CONTINUOUS
 62
    2
 10
561.18632075471794
 20
530.41981132075477
 11
561.18632075471794
 21
524.81981132075487
  0
LINE
  8
_0-0_計極細
  6
CONTINUOUS
 62
    2
 10
574.18632075471794
 20
530.41981132075477
 11
574.18632075471794
 21
524.81981132075487
  0
LINE
  8
_0-0_計極細
  6
CONTINUOUS
 62
    2
 10
561.18632075471794
 20
547.41981132075387
 11
561.18632075471794
 21
541.81981132075396
  0
LINE
  8
_0-0_計極細
  6
CONTINUOUS
 62
    2
 10
574.18632075471794
 20
547.41981132075387
 11
574.18632075471794
 21
541.81981132075396
  0
LINE
  8
_0-0_計極細
  6
CONTINUOUS
 62
    2
 10
561.18632075471794
 20
564.41981132075296
 11
561.18632075471794
 21
558.81981132075316
  0
LINE
  8
_0-0_計極細
  6
CONTINUOUS
 62
    2
 10
574.18632075471794
 20
564.41981132075296
 11
574.18632075471794
 21
558.81981132075316
  0
LINE
  8
_0-0_計極細
  6
CONTINUOUS
 62
    2
 10
561.18632075471794
 20
581.11981132075596
 11
561.18632075471794
 21
575.81981132075623
  0
LINE
  8
_0-0_計極細
  6
CONTINUOUS
 62
    2
 10
574.18632075471794
 20
581.11981132075596
 11
574.18632075471794
 21
575.81981132075623
  0
LINE
  8
_0-0_計極細
  6
CONTINUOUS
 62
    2
 10
561.18632075471794
 20
405.81981132075305
 11
561.18632075471794
 21
411.41981132075301
  0
LINE
  8
_0-0_計極細
  6
CONTINUOUS
 62
    2
 10
574.18632075471794
 20
405.81981132075305
 11
574.18632075471794
 21
411.41981132075301
  0
LINE
  8
_0-0_計極細
  6
CONTINUOUS
 62
    2
 10
561.18632075471794
 20
388.81981132075219
 11
561.18632075471794
 21
394.41981132075256
  0
LINE
  8
_0-0_計極細
  6
CONTINUOUS
 62
    2
 10
574.18632075471794
 20
388.81981132075219
 11
574.18632075471794
 21
394.41981132075256
  0
LINE
  8
_0-0_計極細
  6
CONTINUOUS
 62
    2
 10
561.18632075471794
 20
371.81981132075174
 11
561.18632075471794
 21
377.41981132075159
  0
LINE
  8
_0-0_計極細
  6
CONTINUOUS
 62
    2
 10
574.18632075471794
 20
371.81981132075174
 11
574.18632075471794
 21
377.41981132075159
  0
LINE
  8
_0-0_計極細
  6
CONTINUOUS
 62
    2
 10
561.18632075471794
 20
354.81981132075259
 11
561.18632075471794
 21
360.4198113207525
  0
LINE
  8
_0-0_計極細
  6
CONTINUOUS
 62
    2
 10
574.18632075471794
 20
354.81981132075259
 11
574.18632075471794
 21
360.4198113207525
  0
LINE
  8
_0-0_計極細
  6
CONTINUOUS
 62
    2
 10
561.18632075471794
 20
337.8198113207535
 11
561.18632075471794
 21
343.41981132075341
  0
LINE
  8
_0-0_計極細
  6
CONTINUOUS
 62
    2
 10
574.18632075471794
 20
337.8198113207535
 11
574.18632075471794
 21
343.41981132075341
  0
LINE
  8
_0-0_計極細
  6
CONTINUOUS
 62
    2
 10
561.18632075471794
 20
320.81981132075441
 11
561.18632075471794
 21
326.41981132075438
  0
LINE
  8
_0-0_計極細
  6
CONTINUOUS
 62
    2
 10
574.18632075471794
 20
320.81981132075441
 11
574.18632075471794
 21
326.41981132075438
  0
LINE
  8
_0-0_計極細
  6
CONTINUOUS
 62
    2
 10
561.18632075471794
 20
303.81981132075532
 11
561.18632075471794
 21
309.41981132075523
  0
LINE
  8
_0-0_計極細
  6
CONTINUOUS
 62
    2
 10
574.18632075471794
 20
303.81981132075532
 11
574.18632075471794
 21
309.41981132075523
  0
LINE
  8
_0-0_計極細
  6
CONTINUOUS
 62
    2
 10
561.18632075471794
 20
287.11981132075232
 11
561.18632075471794
 21
292.41981132075205
  0
LINE
  8
_0-0_計極細
  6
CONTINUOUS
 62
    2
 10
574.18632075471794
 20
287.11981132075232
 11
574.18632075471794
 21
292.41981132075205
  0
LINE
  8
_0-1_計細線
  6
CONTINUOUS
 62
    3
 10
271.68632075471794
 20
259.01981132075423
 11
671.68632075471794
 21
259.01981132075423
  0
LINE
  8
_0-1_計細線
  6
CONTINUOUS
 62
    3
 10
271.68632075471794
 20
270.41981132075477
 11
671.68632075471794
 21
270.41981132075477
  0
LINE
  8
_0-1_計細線
  6
CONTINUOUS
 62
    3
 10
271.68632075471794
 20
259.01981132075423
 11
271.68632075471794
 21
270.41981132075477
  0
LINE
  8
_0-1_計細線
  6
CONTINUOUS
 62
    3
 10
671.68632075471794
 20
259.01981132075423
 11
671.68632075471794
 21
270.41981132075477
  0
LINE
  8
_0-0_計極細
  6
CONTINUOUS
 62
    2
 10
271.68632075471794
 20
267.2198113207545
 11
671.68632075471794
 21
267.2198113207545
  0
LINE
  8
_0-0_計極細
  6
CONTINUOUS
 62
    2
 10
271.68632075471794
 20
262.2198113207545
 11
671.68632075471794
 21
262.2198113207545
  0
LINE
  8
_0-0_計極細
  6
CONTINUOUS
 62
    2
 10
658.18632075471794
 20
270.41981132075341
 11
658.18632075471794
 21
275.71981132075314
  0
LINE
  8
_0-0_計極細
  6
CONTINUOUS
 62
    2
 10
671.18632075471794
 20
270.41981132075341
 11
671.18632075471794
 21
275.71981132075314
  0
LINE
  8
_0-0_計極細
  6
CONTINUOUS
 62
    2
 10
561.18632075471794
 20
270.41981132075341
 11
561.18632075471794
 21
275.71981132075314
  0
LINE
  8
_0-0_計極細
  6
CONTINUOUS
 62
    2
 10
574.18632075471794
 20
270.41981132075341
 11
574.18632075471794
 21
275.71981132075314
  0
LINE
  8
_0-1_計細線
  6
CONTINUOUS
 62
    3
 10
271.68632075471794
 20
609.21981132075405
 11
671.68632075471794
 21
609.21981132075405
  0
LINE
  8
_0-1_計細線
  6
CONTINUOUS
 62
    3
 10
271.68632075471794
 20
597.8198113207535
 11
671.68632075471794
 21
597.8198113207535
  0
LINE
  8
_0-1_計細線
  6
CONTINUOUS
 62
    3
 10
271.68632075471794
 20
609.21981132075405
 11
271.68632075471794
 21
597.8198113207535
  0
LINE
  8
_0-1_計細線
  6
CONTINUOUS
 62
    3
 10
671.68632075471794
 20
609.21981132075405
 11
671.68632075471794
 21
597.8198113207535
  0
LINE
  8
_0-0_計極細
  6
CONTINUOUS
 62
    2
 10
271.68632075471794
 20
601.01981132075377
 11
671.68632075471794
 21
601.01981132075377
  0
LINE
  8
_0-0_計極細
  6
CONTINUOUS
 62
    2
 10
271.68632075471794
 20
606.01981132075377
 11
671.68632075471794
 21
606.01981132075377
  0
LINE
  8
_0-0_計極細
  6
CONTINUOUS
 62
    2
 10
658.18632075471794
 20
597.81981132075487
 11
658.18632075471794
 21
592.51981132075514
  0
LINE
  8
_0-0_計極細
  6
CONTINUOUS
 62
    2
 10
671.18632075471794
 20
597.81981132075487
 11
671.18632075471794
 21
592.51981132075514
  0
LINE
  8
_0-0_計極細
  6
CONTINUOUS
 62
    2
 10
561.18632075471794
 20
597.81981132075487
 11
561.18632075471794
 21
592.51981132075514
  0
LINE
  8
_0-0_計極細
  6
CONTINUOUS
 62
    2
 10
574.18632075471794
 20
597.81981132075487
 11
574.18632075471794
 21
592.51981132075514
  0
LINE
  8
_0-1_計細線
  6
CONTINUOUS
 62
    3
 10
271.68632075471794
 20
625.91981132075296
 11
671.68632075471794
 21
625.91981132075296
  0
LINE
  8
_0-1_計細線
  6
CONTINUOUS
 62
    3
 10
271.68632075471794
 20
614.51981132075252
 11
671.68632075471794
 21
614.51981132075252
  0
LINE
  8
_0-1_計細線
  6
CONTINUOUS
 62
    3
 10
271.68632075471794
 20
625.91981132075296
 11
271.68632075471794
 21
614.51981132075252
  0
LINE
  8
_0-1_計細線
  6
CONTINUOUS
 62
    3
 10
671.68632075471794
 20
625.91981132075296
 11
671.68632075471794
 21
614.51981132075252
  0
LINE
  8
_0-0_計極細
  6
CONTINUOUS
 62
    2
 10
271.68632075471794
 20
617.71981132075268
 11
671.68632075471794
 21
617.71981132075268
  0
LINE
  8
_0-0_計極細
  6
CONTINUOUS
 62
    2
 10
271.68632075471794
 20
622.71981132075268
 11
671.68632075471794
 21
622.71981132075268
  0
LINE
  8
_0-0_計極細
  6
CONTINUOUS
 62
    2
 10
658.18632075471794
 20
614.51981132075377
 11
658.18632075471794
 21
609.21981132075405
  0
LINE
  8
_0-0_計極細
  6
CONTINUOUS
 62
    2
 10
671.18632075471794
 20
614.51981132075377
 11
671.18632075471794
 21
609.21981132075405
  0
LINE
  8
_0-0_計極細
  6
CONTINUOUS
 62
    2
 10
561.18632075471794
 20
614.51981132075377
 11
561.18632075471794
 21
609.21981132075405
  0
LINE
  8
_0-0_計極細
  6
CONTINUOUS
 62
    2
 10
574.18632075471794
 20
614.51981132075377
 11
574.18632075471794
 21
609.21981132075405
  0
LINE
  8
_0-0_計極細
  6
CENTER1
 62
    2
 10
472.686320754718
 20
651.37053074521134
 11
472.686320754718
 21
235.06198757974232
  0
LINE
  8
_0-0_計極細
  6
CONTINUOUS
 62
    2
 10
466.18632075471794
 20
428.41981132075387
 11
466.18632075471794
 21
422.81981132075401
  0
LINE
  8
_0-0_計極細
  6
CONTINUOUS
 62
    2
 10
479.186320754718
 20
428.41981132075387
 11
479.186320754718
 21
422.81981132075401
  0
LINE
  8
_0-0_計極細
  6
CONTINUOUS
 62
    2
 10
466.18632075471794
 20
445.41981132075477
 11
466.18632075471794
 21
439.81981132075447
  0
LINE
  8
_0-0_計極細
  6
CONTINUOUS
 62
    2
 10
479.186320754718
 20
445.41981132075477
 11
479.186320754718
 21
439.81981132075447
  0
LINE
  8
_0-0_計極細
  6
CONTINUOUS
 62
    2
 10
466.18632075471794
 20
462.41981132075523
 11
466.18632075471794
 21
456.81981132075532
  0
LINE
  8
_0-0_計極細
  6
CONTINUOUS
 62
    2
 10
479.186320754718
 20
462.41981132075523
 11
479.186320754718
 21
456.81981132075532
  0
LINE
  8
_0-0_計極細
  6
CONTINUOUS
 62
    2
 10
466.18632075471794
 20
479.4198113207562
 11
466.18632075471794
 21
473.81981132075578
  0
LINE
  8
_0-0_計極細
  6
CONTINUOUS
 62
    2
 10
479.186320754718
 20
479.4198113207562
 11
479.186320754718
 21
473.81981132075578
  0
LINE
  8
_0-0_計極細
  6
CONTINUOUS
 62
    2
 10
466.18632075471794
 20
496.41981132075665
 11
466.18632075471794
 21
490.81981132075668
  0
LINE
  8
_0-0_計極細
  6
CONTINUOUS
 62
    2
 10
479.186320754718
 20
496.41981132075665
 11
479.186320754718
 21
490.81981132075668
  0
LINE
  8
_0-0_計極細
  6
CONTINUOUS
 62
    2
 10
466.18632075471794
 20
513.4198113207558
 11
466.18632075471794
 21
507.81981132075578
  0
LINE
  8
_0-0_計極細
  6
CONTINUOUS
 62
    2
 10
479.186320754718
 20
513.4198113207558
 11
479.186320754718
 21
507.81981132075578
  0
LINE
  8
_0-0_計極細
  6
CONTINUOUS
 62
    2
 10
466.18632075471794
 20
530.41981132075477
 11
466.18632075471794
 21
524.81981132075487
  0
LINE
  8
_0-0_計極細
  6
CONTINUOUS
 62
    2
 10
479.186320754718
 20
530.41981132075477
 11
479.186320754718
 21
524.81981132075487
  0
LINE
  8
_0-0_計極細
  6
CONTINUOUS
 62
    2
 10
466.18632075471794
 20
547.41981132075387
 11
466.18632075471794
 21
541.81981132075396
  0
LINE
  8
_0-0_計極細
  6
CONTINUOUS
 62
    2
 10
479.186320754718
 20
547.41981132075387
 11
479.186320754718
 21
541.81981132075396
  0
LINE
  8
_0-0_計極細
  6
CONTINUOUS
 62
    2
 10
466.18632075471794
 20
564.41981132075296
 11
466.18632075471794
 21
558.81981132075316
  0
LINE
  8
_0-0_計極細
  6
CONTINUOUS
 62
    2
 10
479.186320754718
 20
564.41981132075296
 11
479.186320754718
 21
558.81981132075316
  0
LINE
  8
_0-0_計極細
  6
CONTINUOUS
 62
    2
 10
466.18632075471794
 20
581.11981132075596
 11
466.18632075471794
 21
575.81981132075623
  0
LINE
  8
_0-0_計極細
  6
CONTINUOUS
 62
    2
 10
479.186320754718
 20
581.11981132075596
 11
479.186320754718
 21
575.81981132075623
  0
LINE
  8
_0-0_計極細
  6
CONTINUOUS
 62
    2
 10
466.18632075471794
 20
405.81981132075305
 11
466.18632075471794
 21
411.41981132075301
  0
LINE
  8
_0-0_計極細
  6
CONTINUOUS
 62
    2
 10
479.186320754718
 20
405.81981132075305
 11
479.186320754718
 21
411.41981132075301
  0
LINE
  8
_0-0_計極細
  6
CONTINUOUS
 62
    2
 10
466.18632075471794
 20
388.81981132075219
 11
466.18632075471794
 21
394.41981132075256
  0
LINE
  8
_0-0_計極細
  6
CONTINUOUS
 62
    2
 10
479.186320754718
 20
388.81981132075219
 11
479.186320754718
 21
394.41981132075256
  0
LINE
  8
_0-0_計極細
  6
CONTINUOUS
 62
    2
 10
466.18632075471794
 20
371.81981132075174
 11
466.18632075471794
 21
377.41981132075159
  0
LINE
  8
_0-0_計極細
  6
CONTINUOUS
 62
    2
 10
479.186320754718
 20
371.81981132075174
 11
479.186320754718
 21
377.41981132075159
  0
LINE
  8
_0-0_計極細
  6
CONTINUOUS
 62
    2
 10
466.18632075471794
 20
354.81981132075259
 11
466.18632075471794
 21
360.4198113207525
  0
LINE
  8
_0-0_計極細
  6
CONTINUOUS
 62
    2
 10
479.186320754718
 20
354.81981132075259
 11
479.186320754718
 21
360.4198113207525
  0
LINE
  8
_0-0_計極細
  6
CONTINUOUS
 62
    2
 10
466.18632075471794
 20
337.8198113207535
 11
466.18632075471794
 21
343.41981132075341
  0
LINE
  8
_0-0_計極細
  6
CONTINUOUS
 62
    2
 10
479.186320754718
 20
337.8198113207535
 11
479.186320754718
 21
343.41981132075341
  0
LINE
  8
_0-0_計極細
  6
CONTINUOUS
 62
    2
 10
466.18632075471794
 20
320.81981132075441
 11
466.18632075471794
 21
326.41981132075438
  0
LINE
  8
_0-0_計極細
  6
CONTINUOUS
 62
    2
 10
479.186320754718
 20
320.81981132075441
 11
479.186320754718
 21
326.41981132075438
  0
LINE
  8
_0-0_計極細
  6
CONTINUOUS
 62
    2
 10
466.18632075471794
 20
303.81981132075532
 11
466.18632075471794
 21
309.41981132075523
  0
LINE
  8
_0-0_計極細
  6
CONTINUOUS
 62
    2
 10
479.186320754718
 20
303.81981132075532
 11
479.186320754718
 21
309.41981132075523
  0
LINE
  8
_0-0_計極細
  6
CONTINUOUS
 62
    2
 10
466.18632075471794
 20
287.11981132075232
 11
466.18632075471794
 21
292.41981132075205
  0
LINE
  8
_0-0_計極細
  6
CONTINUOUS
 62
    2
 10
479.186320754718
 20
287.11981132075232
 11
479.186320754718
 21
292.41981132075205
  0
LINE
  8
_0-0_計極細
  6
CONTINUOUS
 62
    2
 10
466.18632075471794
 20
270.41981132075341
 11
466.18632075471794
 21
275.71981132075314
  0
LINE
  8
_0-0_計極細
  6
CONTINUOUS
 62
    2
 10
479.186320754718
 20
270.41981132075341
 11
479.186320754718
 21
275.71981132075314
  0
LINE
  8
_0-0_計極細
  6
CONTINUOUS
 62
    2
 10
466.18632075471794
 20
597.81981132075487
 11
466.18632075471794
 21
592.51981132075514
  0
LINE
  8
_0-0_計極細
  6
CONTINUOUS
 62
    2
 10
479.186320754718
 20
597.81981132075487
 11
479.186320754718
 21
592.51981132075514
  0
LINE
  8
_0-0_計極細
  6
CONTINUOUS
 62
    2
 10
466.18632075471794
 20
614.51981132075377
 11
466.18632075471794
 21
609.21981132075405
  0
LINE
  8
_0-0_計極細
  6
CONTINUOUS
 62
    2
 10
479.186320754718
 20
614.51981132075377
 11
479.186320754718
 21
609.21981132075405
  0
LINE
  8
_0-0_計極細
  6
CENTER1
 62
    2
 10
519.18632075471794
 20
651.37053074521134
 11
519.18632075471794
 21
235.06198757974232
  0
LINE
  8
_0-0_計極細
  6
CONTINUOUS
 62
    2
 10
512.68632075471805
 20
428.41981132075387
 11
512.68632075471805
 21
422.81981132075401
  0
LINE
  8
_0-0_計極細
  6
CONTINUOUS
 62
    2
 10
525.68632075471794
 20
428.41981132075387
 11
525.68632075471794
 21
422.81981132075401
  0
LINE
  8
_0-0_計極細
  6
CONTINUOUS
 62
    2
 10
512.68632075471805
 20
445.41981132075477
 11
512.68632075471805
 21
439.81981132075447
  0
LINE
  8
_0-0_計極細
  6
CONTINUOUS
 62
    2
 10
525.68632075471794
 20
445.41981132075477
 11
525.68632075471794
 21
439.81981132075447
  0
LINE
  8
_0-0_計極細
  6
CONTINUOUS
 62
    2
 10
512.68632075471805
 20
462.41981132075523
 11
512.68632075471805
 21
456.81981132075532
  0
LINE
  8
_0-0_計極細
  6
CONTINUOUS
 62
    2
 10
525.68632075471794
 20
462.41981132075523
 11
525.68632075471794
 21
456.81981132075532
  0
LINE
  8
_0-0_計極細
  6
CONTINUOUS
 62
    2
 10
512.68632075471805
 20
479.4198113207562
 11
512.68632075471805
 21
473.81981132075578
  0
LINE
  8
_0-0_計極細
  6
CONTINUOUS
 62
    2
 10
525.68632075471794
 20
479.4198113207562
 11
525.68632075471794
 21
473.81981132075578
  0
LINE
  8
_0-0_計極細
  6
CONTINUOUS
 62
    2
 10
512.68632075471805
 20
496.41981132075665
 11
512.68632075471805
 21
490.81981132075668
  0
LINE
  8
_0-0_計極細
  6
CONTINUOUS
 62
    2
 10
525.68632075471794
 20
496.41981132075665
 11
525.68632075471794
 21
490.81981132075668
  0
LINE
  8
_0-0_計極細
  6
CONTINUOUS
 62
    2
 10
512.68632075471805
 20
513.4198113207558
 11
512.68632075471805
 21
507.81981132075578
  0
LINE
  8
_0-0_計極細
  6
CONTINUOUS
 62
    2
 10
525.68632075471794
 20
513.4198113207558
 11
525.68632075471794
 21
507.81981132075578
  0
LINE
  8
_0-0_計極細
  6
CONTINUOUS
 62
    2
 10
512.68632075471805
 20
530.41981132075477
 11
512.68632075471805
 21
524.81981132075487
  0
LINE
  8
_0-0_計極細
  6
CONTINUOUS
 62
    2
 10
525.68632075471794
 20
530.41981132075477
 11
525.68632075471794
 21
524.81981132075487
  0
LINE
  8
_0-0_計極細
  6
CONTINUOUS
 62
    2
 10
512.68632075471805
 20
547.41981132075387
 11
512.68632075471805
 21
541.81981132075396
  0
LINE
  8
_0-0_計極細
  6
CONTINUOUS
 62
    2
 10
525.68632075471794
 20
547.41981132075387
 11
525.68632075471794
 21
541.81981132075396
  0
LINE
  8
_0-0_計極細
  6
CONTINUOUS
 62
    2
 10
512.68632075471805
 20
564.41981132075296
 11
512.68632075471805
 21
558.81981132075316
  0
LINE
  8
_0-0_計極細
  6
CONTINUOUS
 62
    2
 10
525.68632075471794
 20
564.41981132075296
 11
525.68632075471794
 21
558.81981132075316
  0
LINE
  8
_0-0_計極細
  6
CONTINUOUS
 62
    2
 10
512.68632075471805
 20
581.11981132075596
 11
512.68632075471805
 21
575.81981132075623
  0
LINE
  8
_0-0_計極細
  6
CONTINUOUS
 62
    2
 10
525.68632075471794
 20
581.11981132075596
 11
525.68632075471794
 21
575.81981132075623
  0
LINE
  8
_0-0_計極細
  6
CONTINUOUS
 62
    2
 10
512.68632075471805
 20
405.81981132075305
 11
512.68632075471805
 21
411.41981132075301
  0
LINE
  8
_0-0_計極細
  6
CONTINUOUS
 62
    2
 10
525.68632075471794
 20
405.81981132075305
 11
525.68632075471794
 21
411.41981132075301
  0
LINE
  8
_0-0_計極細
  6
CONTINUOUS
 62
    2
 10
512.68632075471805
 20
388.81981132075219
 11
512.68632075471805
 21
394.41981132075256
  0
LINE
  8
_0-0_計極細
  6
CONTINUOUS
 62
    2
 10
525.68632075471794
 20
388.81981132075219
 11
525.68632075471794
 21
394.41981132075256
  0
LINE
  8
_0-0_計極細
  6
CONTINUOUS
 62
    2
 10
512.68632075471805
 20
371.81981132075174
 11
512.68632075471805
 21
377.41981132075159
  0
LINE
  8
_0-0_計極細
  6
CONTINUOUS
 62
    2
 10
525.68632075471794
 20
371.81981132075174
 11
525.68632075471794
 21
377.41981132075159
  0
LINE
  8
_0-0_計極細
  6
CONTINUOUS
 62
    2
 10
512.68632075471805
 20
354.81981132075259
 11
512.68632075471805
 21
360.4198113207525
  0
LINE
  8
_0-0_計極細
  6
CONTINUOUS
 62
    2
 10
525.68632075471794
 20
354.81981132075259
 11
525.68632075471794
 21
360.4198113207525
  0
LINE
  8
_0-0_計極細
  6
CONTINUOUS
 62
    2
 10
512.68632075471805
 20
337.8198113207535
 11
512.68632075471805
 21
343.41981132075341
  0
LINE
  8
_0-0_計極細
  6
CONTINUOUS
 62
    2
 10
525.68632075471794
 20
337.8198113207535
 11
525.68632075471794
 21
343.41981132075341
  0
LINE
  8
_0-0_計極細
  6
CONTINUOUS
 62
    2
 10
512.68632075471805
 20
320.81981132075441
 11
512.68632075471805
 21
326.41981132075438
  0
LINE
  8
_0-0_計極細
  6
CONTINUOUS
 62
    2
 10
525.68632075471794
 20
320.81981132075441
 11
525.68632075471794
 21
326.41981132075438
  0
LINE
  8
_0-0_計極細
  6
CONTINUOUS
 62
    2
 10
512.68632075471805
 20
303.81981132075532
 11
512.68632075471805
 21
309.41981132075523
  0
LINE
  8
_0-0_計極細
  6
CONTINUOUS
 62
    2
 10
525.68632075471794
 20
303.81981132075532
 11
525.68632075471794
 21
309.41981132075523
  0
LINE
  8
_0-0_計極細
  6
CONTINUOUS
 62
    2
 10
512.68632075471805
 20
287.11981132075232
 11
512.68632075471805
 21
292.41981132075205
  0
LINE
  8
_0-0_計極細
  6
CONTINUOUS
 62
    2
 10
525.68632075471794
 20
287.11981132075232
 11
525.68632075471794
 21
292.41981132075205
  0
LINE
  8
_0-0_計極細
  6
CONTINUOUS
 62
    2
 10
512.68632075471805
 20
270.41981132075341
 11
512.68632075471805
 21
275.71981132075314
  0
LINE
  8
_0-0_計極細
  6
CONTINUOUS
 62
    2
 10
525.68632075471794
 20
270.41981132075341
 11
525.68632075471794
 21
275.71981132075314
  0
LINE
  8
_0-0_計極細
  6
CONTINUOUS
 62
    2
 10
512.68632075471805
 20
597.81981132075487
 11
512.68632075471805
 21
592.51981132075514
  0
LINE
  8
_0-0_計極細
  6
CONTINUOUS
 62
    2
 10
525.68632075471794
 20
597.81981132075487
 11
525.68632075471794
 21
592.51981132075514
  0
LINE
  8
_0-0_計極細
  6
CONTINUOUS
 62
    2
 10
512.68632075471805
 20
614.51981132075377
 11
512.68632075471805
 21
609.21981132075405
  0
LINE
  8
_0-0_計極細
  6
CONTINUOUS
 62
    2
 10
525.68632075471794
 20
614.51981132075377
 11
525.68632075471794
 21
609.21981132075405
  0
LINE
  8
_0-5_寸法線
  6
CONTINUOUS
 62
    7
 10
638.45563710877411
 20
485.3345693942947
 11
645.52670492063965
 21
492.40563720616024
  0
LINE
  8
_0-5_寸法線
  6
CONTINUOUS
 62
    7
 10
638.45563710877411
 20
485.3345693942947
 11
648.11489537166483
 21
487.92275984531989
  0
LINE
  8
_0-5_寸法線
  6
CONTINUOUS
 62
    7
 10
638.45563710877411
 20
485.3345693942947
 11
717.5667723551436
 21
531.00940462468293
  0
LINE
  8
_0-5_寸法線
  6
CONTINUOUS
 62
    7
 10
717.5667723551436
 20
531.00940462468293
 11
849.56677235514348
 21
531.00940462468293
  0
TEXT
  8
_0-5_寸法線
 62
    7
 10
717.5667723551436
 20
531.00940462468293
 40
15
 41
0.8000000000000001
 50
0
  1
セーフティグレーチング
  0
LINE
  8
_0-0_計極細
  6
CONTINUOUS
 62
    2
 10
430.68632075471794
 20
631.71981132075905
 11
430.68632075471794
 21
626.21981132075496
  0
LINE
  8
_0-0_計極細
  6
CONTINUOUS
 62
    2
 10
417.686320754718
 20
631.71981132075905
 11
417.686320754718
 21
626.21981132075496
  0
LINE
  8
_0-0_計極細
  6
CONTINUOUS
 62
    2
 10
382.18632075471794
 20
631.71981132075905
 11
382.18632075471794
 21
626.21981132075496
  0
LINE
  8
_0-0_計極細
  6
CONTINUOUS
 62
    2
 10
369.186320754718
 20
631.71981132075905
 11
369.186320754718
 21
626.21981132075496
  0
LINE
  8
_0-0_計極細
  6
CONTINUOUS
 62
    2
 10
285.186320754718
 20
631.71981132075905
 11
285.186320754718
 21
626.21981132075496
  0
LINE
  8
_0-0_計極細
  6
CONTINUOUS
 62
    2
 10
272.18632075471794
 20
631.71981132075905
 11
272.18632075471794
 21
626.21981132075496
  0
LINE
  8
_0-1_計細線
  6
CONTINUOUS
 62
    3
 10
271.68632075471794
 20
643.11981132074959
 11
671.68632075471794
 21
643.11981132074959
  0
LINE
  8
_0-1_計細線
  6
CONTINUOUS
 62
    3
 10
271.68632075471794
 20
631.71981132074905
 11
671.68632075471794
 21
631.71981132074905
  0
LINE
  8
_0-1_計細線
  6
CONTINUOUS
 62
    3
 10
271.68632075471794
 20
643.11981132074959
 11
271.68632075471794
 21
631.71981132074905
  0
LINE
  8
_0-1_計細線
  6
CONTINUOUS
 62
    3
 10
671.68632075471794
 20
643.11981132074959
 11
671.68632075471794
 21
631.71981132074905
  0
LINE
  8
_0-0_計極細
  6
CONTINUOUS
 62
    2
 10
271.68632075471794
 20
634.91981132074932
 11
671.68632075471794
 21
634.91981132074932
  0
LINE
  8
_0-0_計極細
  6
CONTINUOUS
 62
    2
 10
271.68632075471794
 20
639.91981132074932
 11
671.68632075471794
 21
639.91981132074932
  0
LINE
  8
_0-0_計極細
  6
CONTINUOUS
 62
    2
 10
574.18632075471794
 20
631.71981132075905
 11
574.18632075471794
 21
626.21981132075496
  0
LINE
  8
_0-0_計極細
  6
CONTINUOUS
 62
    2
 10
561.18632075471794
 20
631.71981132075905
 11
561.18632075471794
 21
626.21981132075496
  0
LINE
  8
_0-0_計極細
  6
CONTINUOUS
 62
    2
 10
671.18632075471794
 20
631.71981132075905
 11
671.18632075471794
 21
626.21981132075496
  0
LINE
  8
_0-0_計極細
  6
CONTINUOUS
 62
    2
 10
658.18632075471794
 20
631.71981132075905
 11
658.18632075471794
 21
626.21981132075496
  0
LINE
  8
_0-0_計極細
  6
CONTINUOUS
 62
    2
 10
479.186320754718
 20
631.71981132075905
 11
479.186320754718
 21
626.21981132075496
  0
LINE
  8
_0-0_計極細
  6
CONTINUOUS
 62
    2
 10
466.18632075471794
 20
631.71981132075905
 11
466.18632075471794
 21
626.21981132075496
  0
LINE
  8
_0-0_計極細
  6
CONTINUOUS
 62
    2
 10
525.68632075471794
 20
631.71981132075905
 11
525.68632075471794
 21
626.21981132075496
  0
LINE
  8
_0-0_計極細
  6
CONTINUOUS
 62
    2
 10
512.68632075471805
 20
631.71981132075905
 11
512.68632075471805
 21
626.21981132075496
  0
LINE
  8
_0-0_計極細
  6
CONTINUOUS
 62
    2
 10
430.68632075471794
 20
253.51981132075014
 11
430.68632075471794
 21
259.01981132075423
  0
LINE
  8
_0-0_計極細
  6
CONTINUOUS
 62
    2
 10
417.686320754718
 20
253.51981132075014
 11
417.686320754718
 21
259.01981132075423
  0
LINE
  8
_0-0_計極細
  6
CONTINUOUS
 62
    2
 10
382.18632075471794
 20
253.51981132075014
 11
382.18632075471794
 21
259.01981132075423
  0
LINE
  8
_0-0_計極細
  6
CONTINUOUS
 62
    2
 10
369.186320754718
 20
253.51981132075014
 11
369.186320754718
 21
259.01981132075423
  0
LINE
  8
_0-0_計極細
  6
CONTINUOUS
 62
    2
 10
285.186320754718
 20
253.51981132075014
 11
285.186320754718
 21
259.01981132075423
  0
LINE
  8
_0-0_計極細
  6
CONTINUOUS
 62
    2
 10
272.18632075471794
 20
253.51981132075014
 11
272.18632075471794
 21
259.01981132075423
  0
LINE
  8
_0-0_計極細
  6
CONTINUOUS
 62
    2
 10
574.18632075471794
 20
253.51981132075014
 11
574.18632075471794
 21
259.01981132075423
  0
LINE
  8
_0-0_計極細
  6
CONTINUOUS
 62
    2
 10
561.18632075471794
 20
253.51981132075014
 11
561.18632075471794
 21
259.01981132075423
  0
LINE
  8
_0-0_計極細
  6
CONTINUOUS
 62
    2
 10
671.18632075471794
 20
253.51981132075014
 11
671.18632075471794
 21
259.01981132075423
  0
LINE
  8
_0-0_計極細
  6
CONTINUOUS
 62
    2
 10
658.18632075471794
 20
253.51981132075014
 11
658.18632075471794
 21
259.01981132075423
  0
LINE
  8
_0-1_計細線
  6
CONTINUOUS
 62
    3
 10
271.68632075471794
 20
242.11981132074959
 11
671.68632075471794
 21
242.11981132074959
  0
LINE
  8
_0-1_計細線
  6
CONTINUOUS
 62
    3
 10
271.68632075471794
 20
253.51981132075014
 11
671.68632075471794
 21
253.51981132075014
  0
LINE
  8
_0-1_計細線
  6
CONTINUOUS
 62
    3
 10
271.68632075471794
 20
242.11981132074959
 11
271.68632075471794
 21
253.51981132075014
  0
LINE
  8
_0-1_計細線
  6
CONTINUOUS
 62
    3
 10
671.68632075471794
 20
242.11981132074959
 11
671.68632075471794
 21
253.51981132075014
  0
LINE
  8
_0-0_計極細
  6
CONTINUOUS
 62
    2
 10
271.68632075471794
 20
250.31981132074989
 11
671.68632075471794
 21
250.31981132074989
  0
LINE
  8
_0-0_計極細
  6
CONTINUOUS
 62
    2
 10
271.68632075471794
 20
245.31981132074989
 11
671.68632075471794
 21
245.31981132074989
  0
LINE
  8
_0-0_計極細
  6
CONTINUOUS
 62
    2
 10
479.186320754718
 20
253.51981132075014
 11
479.186320754718
 21
259.01981132075423
  0
LINE
  8
_0-0_計極細
  6
CONTINUOUS
 62
    2
 10
466.18632075471794
 20
253.51981132075014
 11
466.18632075471794
 21
259.01981132075423
  0
LINE
  8
_0-0_計極細
  6
CONTINUOUS
 62
    2
 10
525.68632075471794
 20
253.51981132075014
 11
525.68632075471794
 21
259.01981132075423
  0
LINE
  8
_0-0_計極細
  6
CONTINUOUS
 62
    2
 10
512.68632075471805
 20
253.51981132075014
 11
512.68632075471805
 21
259.01981132075423
  0
TEXT
  8
_0-5_寸法線
 62
    7
 10
717.5667723551436
 20
516.00940462468293
 40
15
 41
0.8000000000000001
 50
0
  1
補強仕様
  0
LINE
  8
_0-0_計極細
  6
CENTER1
 62
    2
 10
327.18632075471794
 20
651.37053074521134
 11
327.18632075471794
 21
235.06198757974232
  0
LINE
  8
_0-0_計極細
  6
CONTINUOUS
 62
    2
 10
320.68632075471794
 20
428.41981132075387
 11
320.68632075471794
 21
422.81981132075401
  0
LINE
  8
_0-0_計極細
  6
CONTINUOUS
 62
    2
 10
333.68632075471794
 20
428.41981132075387
 11
333.68632075471794
 21
422.81981132075401
  0
LINE
  8
_0-0_計極細
  6
CONTINUOUS
 62
    2
 10
320.68632075471794
 20
445.41981132075477
 11
320.68632075471794
 21
439.81981132075447
  0
LINE
  8
_0-0_計極細
  6
CONTINUOUS
 62
    2
 10
333.68632075471794
 20
445.41981132075477
 11
333.68632075471794
 21
439.81981132075447
  0
LINE
  8
_0-0_計極細
  6
CONTINUOUS
 62
    2
 10
320.68632075471794
 20
462.41981132075523
 11
320.68632075471794
 21
456.81981132075532
  0
LINE
  8
_0-0_計極細
  6
CONTINUOUS
 62
    2
 10
333.68632075471794
 20
462.41981132075523
 11
333.68632075471794
 21
456.81981132075532
  0
LINE
  8
_0-0_計極細
  6
CONTINUOUS
 62
    2
 10
320.68632075471794
 20
479.4198113207562
 11
320.68632075471794
 21
473.81981132075578
  0
LINE
  8
_0-0_計極細
  6
CONTINUOUS
 62
    2
 10
333.68632075471794
 20
479.4198113207562
 11
333.68632075471794
 21
473.81981132075578
  0
LINE
  8
_0-0_計極細
  6
CONTINUOUS
 62
    2
 10
320.68632075471794
 20
496.41981132075665
 11
320.68632075471794
 21
490.81981132075668
  0
LINE
  8
_0-0_計極細
  6
CONTINUOUS
 62
    2
 10
333.68632075471794
 20
496.41981132075665
 11
333.68632075471794
 21
490.81981132075668
  0
LINE
  8
_0-0_計極細
  6
CONTINUOUS
 62
    2
 10
320.68632075471794
 20
513.4198113207558
 11
320.68632075471794
 21
507.81981132075578
  0
LINE
  8
_0-0_計極細
  6
CONTINUOUS
 62
    2
 10
333.68632075471794
 20
513.4198113207558
 11
333.68632075471794
 21
507.81981132075578
  0
LINE
  8
_0-0_計極細
  6
CONTINUOUS
 62
    2
 10
320.68632075471794
 20
530.41981132075477
 11
320.68632075471794
 21
524.81981132075487
  0
LINE
  8
_0-0_計極細
  6
CONTINUOUS
 62
    2
 10
333.68632075471794
 20
530.41981132075477
 11
333.68632075471794
 21
524.81981132075487
  0
LINE
  8
_0-0_計極細
  6
CONTINUOUS
 62
    2
 10
320.68632075471794
 20
547.41981132075387
 11
320.68632075471794
 21
541.81981132075396
  0
LINE
  8
_0-0_計極細
  6
CONTINUOUS
 62
    2
 10
333.68632075471794
 20
547.41981132075387
 11
333.68632075471794
 21
541.81981132075396
  0
LINE
  8
_0-0_計極細
  6
CONTINUOUS
 62
    2
 10
320.68632075471794
 20
564.41981132075296
 11
320.68632075471794
 21
558.81981132075316
  0
LINE
  8
_0-0_計極細
  6
CONTINUOUS
 62
    2
 10
333.68632075471794
 20
564.41981132075296
 11
333.68632075471794
 21
558.81981132075316
  0
LINE
  8
_0-0_計極細
  6
CONTINUOUS
 62
    2
 10
320.68632075471794
 20
581.11981132075596
 11
320.68632075471794
 21
575.81981132075623
  0
LINE
  8
_0-0_計極細
  6
CONTINUOUS
 62
    2
 10
333.68632075471794
 20
581.11981132075596
 11
333.68632075471794
 21
575.81981132075623
  0
LINE
  8
_0-0_計極細
  6
CONTINUOUS
 62
    2
 10
320.68632075471794
 20
405.81981132075305
 11
320.68632075471794
 21
411.41981132075301
  0
LINE
  8
_0-0_計極細
  6
CONTINUOUS
 62
    2
 10
333.68632075471794
 20
405.81981132075305
 11
333.68632075471794
 21
411.41981132075301
  0
LINE
  8
_0-0_計極細
  6
CONTINUOUS
 62
    2
 10
320.68632075471794
 20
388.81981132075219
 11
320.68632075471794
 21
394.41981132075256
  0
LINE
  8
_0-0_計極細
  6
CONTINUOUS
 62
    2
 10
333.68632075471794
 20
388.81981132075219
 11
333.68632075471794
 21
394.41981132075256
  0
LINE
  8
_0-0_計極細
  6
CONTINUOUS
 62
    2
 10
320.68632075471794
 20
371.81981132075174
 11
320.68632075471794
 21
377.41981132075159
  0
LINE
  8
_0-0_計極細
  6
CONTINUOUS
 62
    2
 10
333.68632075471794
 20
371.81981132075174
 11
333.68632075471794
 21
377.41981132075159
  0
LINE
  8
_0-0_計極細
  6
CONTINUOUS
 62
    2
 10
320.68632075471794
 20
354.81981132075259
 11
320.68632075471794
 21
360.4198113207525
  0
LINE
  8
_0-0_計極細
  6
CONTINUOUS
 62
    2
 10
333.68632075471794
 20
354.81981132075259
 11
333.68632075471794
 21
360.4198113207525
  0
LINE
  8
_0-0_計極細
  6
CONTINUOUS
 62
    2
 10
320.68632075471794
 20
337.8198113207535
 11
320.68632075471794
 21
343.41981132075341
  0
LINE
  8
_0-0_計極細
  6
CONTINUOUS
 62
    2
 10
333.68632075471794
 20
337.8198113207535
 11
333.68632075471794
 21
343.41981132075341
  0
LINE
  8
_0-0_計極細
  6
CONTINUOUS
 62
    2
 10
320.68632075471794
 20
320.81981132075441
 11
320.68632075471794
 21
326.41981132075438
  0
LINE
  8
_0-0_計極細
  6
CONTINUOUS
 62
    2
 10
333.68632075471794
 20
320.81981132075441
 11
333.68632075471794
 21
326.41981132075438
  0
LINE
  8
_0-0_計極細
  6
CONTINUOUS
 62
    2
 10
320.68632075471794
 20
303.81981132075532
 11
320.68632075471794
 21
309.41981132075523
  0
LINE
  8
_0-0_計極細
  6
CONTINUOUS
 62
    2
 10
333.68632075471794
 20
303.81981132075532
 11
333.68632075471794
 21
309.41981132075523
  0
LINE
  8
_0-0_計極細
  6
CONTINUOUS
 62
    2
 10
320.68632075471794
 20
287.11981132075232
 11
320.68632075471794
 21
292.41981132075205
  0
LINE
  8
_0-0_計極細
  6
CONTINUOUS
 62
    2
 10
333.68632075471794
 20
287.11981132075232
 11
333.68632075471794
 21
292.41981132075205
  0
LINE
  8
_0-0_計極細
  6
CONTINUOUS
 62
    2
 10
320.68632075471794
 20
270.41981132075341
 11
320.68632075471794
 21
275.71981132075314
  0
LINE
  8
_0-0_計極細
  6
CONTINUOUS
 62
    2
 10
333.68632075471794
 20
270.41981132075341
 11
333.68632075471794
 21
275.71981132075314
  0
LINE
  8
_0-0_計極細
  6
CONTINUOUS
 62
    2
 10
320.68632075471794
 20
597.81981132075487
 11
320.68632075471794
 21
592.51981132075514
  0
LINE
  8
_0-0_計極細
  6
CONTINUOUS
 62
    2
 10
333.68632075471794
 20
597.81981132075487
 11
333.68632075471794
 21
592.51981132075514
  0
LINE
  8
_0-0_計極細
  6
CONTINUOUS
 62
    2
 10
320.68632075471794
 20
614.51981132075377
 11
320.68632075471794
 21
609.21981132075405
  0
LINE
  8
_0-0_計極細
  6
CONTINUOUS
 62
    2
 10
333.68632075471794
 20
614.51981132075377
 11
333.68632075471794
 21
609.21981132075405
  0
LINE
  8
_0-0_計極細
  6
CONTINUOUS
 62
    2
 10
333.68632075471794
 20
631.71981132075905
 11
333.68632075471794
 21
626.21981132075496
  0
LINE
  8
_0-0_計極細
  6
CONTINUOUS
 62
    2
 10
320.68632075471794
 20
631.71981132075905
 11
320.68632075471794
 21
626.21981132075496
  0
LINE
  8
_0-0_計極細
  6
CONTINUOUS
 62
    2
 10
333.68632075471794
 20
253.51981132075014
 11
333.68632075471794
 21
259.01981132075423
  0
LINE
  8
_0-0_計極細
  6
CONTINUOUS
 62
    2
 10
320.68632075471794
 20
253.51981132075014
 11
320.68632075471794
 21
259.01981132075423
  0
LINE
  8
_0-0_計極細
  6
CENTER1
 62
    2
 10
616.18632075471794
 20
651.37053074521134
 11
616.18632075471794
 21
235.06198757974232
  0
LINE
  8
_0-0_計極細
  6
CONTINUOUS
 62
    2
 10
609.68632075471794
 20
428.41981132075387
 11
609.68632075471794
 21
422.81981132075401
  0
LINE
  8
_0-0_計極細
  6
CONTINUOUS
 62
    2
 10
622.68632075471805
 20
428.41981132075387
 11
622.68632075471805
 21
422.81981132075401
  0
LINE
  8
_0-0_計極細
  6
CONTINUOUS
 62
    2
 10
609.68632075471794
 20
445.41981132075477
 11
609.68632075471794
 21
439.81981132075447
  0
LINE
  8
_0-0_計極細
  6
CONTINUOUS
 62
    2
 10
622.68632075471805
 20
445.41981132075477
 11
622.68632075471805
 21
439.81981132075447
  0
LINE
  8
_0-0_計極細
  6
CONTINUOUS
 62
    2
 10
609.68632075471794
 20
462.41981132075523
 11
609.68632075471794
 21
456.81981132075532
  0
LINE
  8
_0-0_計極細
  6
CONTINUOUS
 62
    2
 10
622.68632075471805
 20
462.41981132075523
 11
622.68632075471805
 21
456.81981132075532
  0
LINE
  8
_0-0_計極細
  6
CONTINUOUS
 62
    2
 10
609.68632075471794
 20
479.4198113207562
 11
609.68632075471794
 21
473.81981132075578
  0
LINE
  8
_0-0_計極細
  6
CONTINUOUS
 62
    2
 10
622.68632075471805
 20
479.4198113207562
 11
622.68632075471805
 21
473.81981132075578
  0
LINE
  8
_0-0_計極細
  6
CONTINUOUS
 62
    2
 10
609.68632075471794
 20
496.41981132075665
 11
609.68632075471794
 21
490.81981132075668
  0
LINE
  8
_0-0_計極細
  6
CONTINUOUS
 62
    2
 10
622.68632075471805
 20
496.41981132075665
 11
622.68632075471805
 21
490.81981132075668
  0
LINE
  8
_0-0_計極細
  6
CONTINUOUS
 62
    2
 10
609.68632075471794
 20
513.4198113207558
 11
609.68632075471794
 21
507.81981132075578
  0
LINE
  8
_0-0_計極細
  6
CONTINUOUS
 62
    2
 10
622.68632075471805
 20
513.4198113207558
 11
622.68632075471805
 21
507.81981132075578
  0
LINE
  8
_0-0_計極細
  6
CONTINUOUS
 62
    2
 10
609.68632075471794
 20
530.41981132075477
 11
609.68632075471794
 21
524.81981132075487
  0
LINE
  8
_0-0_計極細
  6
CONTINUOUS
 62
    2
 10
622.68632075471805
 20
530.41981132075477
 11
622.68632075471805
 21
524.81981132075487
  0
LINE
  8
_0-0_計極細
  6
CONTINUOUS
 62
    2
 10
609.68632075471794
 20
547.41981132075387
 11
609.68632075471794
 21
541.81981132075396
  0
LINE
  8
_0-0_計極細
  6
CONTINUOUS
 62
    2
 10
622.68632075471805
 20
547.41981132075387
 11
622.68632075471805
 21
541.81981132075396
  0
LINE
  8
_0-0_計極細
  6
CONTINUOUS
 62
    2
 10
609.68632075471794
 20
564.41981132075296
 11
609.68632075471794
 21
558.81981132075316
  0
LINE
  8
_0-0_計極細
  6
CONTINUOUS
 62
    2
 10
622.68632075471805
 20
564.41981132075296
 11
622.68632075471805
 21
558.81981132075316
  0
LINE
  8
_0-0_計極細
  6
CONTINUOUS
 62
    2
 10
609.68632075471794
 20
581.11981132075596
 11
609.68632075471794
 21
575.81981132075623
  0
LINE
  8
_0-0_計極細
  6
CONTINUOUS
 62
    2
 10
622.68632075471805
 20
581.11981132075596
 11
622.68632075471805
 21
575.81981132075623
  0
LINE
  8
_0-0_計極細
  6
CONTINUOUS
 62
    2
 10
609.68632075471794
 20
405.81981132075305
 11
609.68632075471794
 21
411.41981132075301
  0
LINE
  8
_0-0_計極細
  6
CONTINUOUS
 62
    2
 10
622.68632075471805
 20
405.81981132075305
 11
622.68632075471805
 21
411.41981132075301
  0
LINE
  8
_0-0_計極細
  6
CONTINUOUS
 62
    2
 10
609.68632075471794
 20
388.81981132075219
 11
609.68632075471794
 21
394.41981132075256
  0
LINE
  8
_0-0_計極細
  6
CONTINUOUS
 62
    2
 10
622.68632075471805
 20
388.81981132075219
 11
622.68632075471805
 21
394.41981132075256
  0
LINE
  8
_0-0_計極細
  6
CONTINUOUS
 62
    2
 10
609.68632075471794
 20
371.81981132075174
 11
609.68632075471794
 21
377.41981132075159
  0
LINE
  8
_0-0_計極細
  6
CONTINUOUS
 62
    2
 10
622.68632075471805
 20
371.81981132075174
 11
622.68632075471805
 21
377.41981132075159
  0
LINE
  8
_0-0_計極細
  6
CONTINUOUS
 62
    2
 10
609.68632075471794
 20
354.81981132075259
 11
609.68632075471794
 21
360.4198113207525
  0
LINE
  8
_0-0_計極細
  6
CONTINUOUS
 62
    2
 10
622.68632075471805
 20
354.81981132075259
 11
622.68632075471805
 21
360.4198113207525
  0
LINE
  8
_0-0_計極細
  6
CONTINUOUS
 62
    2
 10
609.68632075471794
 20
337.8198113207535
 11
609.68632075471794
 21
343.41981132075341
  0
LINE
  8
_0-0_計極細
  6
CONTINUOUS
 62
    2
 10
622.68632075471805
 20
337.8198113207535
 11
622.68632075471805
 21
343.41981132075341
  0
LINE
  8
_0-0_計極細
  6
CONTINUOUS
 62
    2
 10
609.68632075471794
 20
320.81981132075441
 11
609.68632075471794
 21
326.41981132075438
  0
LINE
  8
_0-0_計極細
  6
CONTINUOUS
 62
    2
 10
622.68632075471805
 20
320.81981132075441
 11
622.68632075471805
 21
326.41981132075438
  0
LINE
  8
_0-0_計極細
  6
CONTINUOUS
 62
    2
 10
609.68632075471794
 20
303.81981132075532
 11
609.68632075471794
 21
309.41981132075523
  0
LINE
  8
_0-0_計極細
  6
CONTINUOUS
 62
    2
 10
622.68632075471805
 20
303.81981132075532
 11
622.68632075471805
 21
309.41981132075523
  0
LINE
  8
_0-0_計極細
  6
CONTINUOUS
 62
    2
 10
609.68632075471794
 20
287.11981132075232
 11
609.68632075471794
 21
292.41981132075205
  0
LINE
  8
_0-0_計極細
  6
CONTINUOUS
 62
    2
 10
622.68632075471805
 20
287.11981132075232
 11
622.68632075471805
 21
292.41981132075205
  0
LINE
  8
_0-0_計極細
  6
CONTINUOUS
 62
    2
 10
609.68632075471794
 20
270.41981132075341
 11
609.68632075471794
 21
275.71981132075314
  0
LINE
  8
_0-0_計極細
  6
CONTINUOUS
 62
    2
 10
622.68632075471805
 20
270.41981132075341
 11
622.68632075471805
 21
275.71981132075314
  0
LINE
  8
_0-0_計極細
  6
CONTINUOUS
 62
    2
 10
609.68632075471794
 20
597.81981132075487
 11
609.68632075471794
 21
592.51981132075514
  0
LINE
  8
_0-0_計極細
  6
CONTINUOUS
 62
    2
 10
622.68632075471805
 20
597.81981132075487
 11
622.68632075471805
 21
592.51981132075514
  0
LINE
  8
_0-0_計極細
  6
CONTINUOUS
 62
    2
 10
609.68632075471794
 20
614.51981132075377
 11
609.68632075471794
 21
609.21981132075405
  0
LINE
  8
_0-0_計極細
  6
CONTINUOUS
 62
    2
 10
622.68632075471805
 20
614.51981132075377
 11
622.68632075471805
 21
609.21981132075405
  0
LINE
  8
_0-0_計極細
  6
CONTINUOUS
 62
    2
 10
622.68632075471805
 20
631.71981132075905
 11
622.68632075471805
 21
626.21981132075496
  0
LINE
  8
_0-0_計極細
  6
CONTINUOUS
 62
    2
 10
609.68632075471794
 20
631.71981132075905
 11
609.68632075471794
 21
626.21981132075496
  0
LINE
  8
_0-0_計極細
  6
CONTINUOUS
 62
    2
 10
622.68632075471805
 20
253.51981132075014
 11
622.68632075471805
 21
259.01981132075423
  0
LINE
  8
_0-0_計極細
  6
CONTINUOUS
 62
    2
 10
609.68632075471794
 20
253.51981132075014
 11
609.68632075471794
 21
259.01981132075423
  0
LINE
  8
_0-5_寸法線
  6
CONTINUOUS
 62
    7
 10
256.68632075471794
 20
237.61981132074965
 11
176.68632075471791
 21
237.61981132074982
  0
LINE
  8
_0-5_寸法線
  6
CONTINUOUS
 62
    7
 10
181.68632075471791
 20
237.61981132074982
 11
179.09813030369278
 21
247.27906958364053
  0
LINE
  8
_0-5_寸法線
  6
CONTINUOUS
 62
    7
 10
181.68632075471791
 20
237.61981132074982
 11
184.27451120574318
 21
247.27906958364053
  0
LINE
  8
_0-5_寸法線
  6
CONTINUOUS
 62
    7
 10
256.68632075471794
 20
647.6198113207497
 11
176.68632075471791
 21
647.61981132074982
  0
LINE
  8
_0-5_寸法線
  6
CONTINUOUS
 62
    7
 10
181.68632075471791
 20
647.61981132074982
 11
184.27451120574318
 21
637.9605530578591
  0
LINE
  8
_0-5_寸法線
  6
CONTINUOUS
 62
    7
 10
181.68632075471791
 20
647.61981132074982
 11
179.09813030369278
 21
637.9605530578591
  0
LINE
  8
_0-5_寸法線
  6
CONTINUOUS
 62
    7
 10
181.68632075471791
 20
237.61981132074982
 11
181.68632075471791
 21
647.61981132074982
  0
TEXT
  8
_0-5_寸法線
 62
    7
 10
181.68632075471791
 20
431.36981132074993
 40
15
 41
1
 50
89.999999999999815
  1
410
  0
LINE
  8
_0-5_寸法線
  6
CONTINUOUS
 62
    7
 10
256.68632075471794
 20
237.61981132074965
 11
211.68632075471791
 21
237.61981132074987
  0
LINE
  8
_0-5_寸法線
  6
CONTINUOUS
 62
    7
 10
216.68632075471791
 20
237.61981132074982
 11
219.27451120574312
 21
227.96055305785913
  0
LINE
  8
_0-5_寸法線
  6
CONTINUOUS
 62
    7
 10
216.68632075471791
 20
237.61981132074982
 11
214.0981303036927
 21
227.96055305785916
  0
LINE
  8
_0-5_寸法線
  6
CONTINUOUS
 62
    7
 10
256.68632075471794
 20
240.61981132074965
 11
211.68632075471791
 21
240.61981132074987
  0
CIRCLE
  8
_0-5_寸法線
  6
CONTINUOUS
 62
    1
 10
216.68632075471791
 20
240.61981132074982
 40
1.5000000000000002
  0
LINE
  8
_0-5_寸法線
  6
CONTINUOUS
 62
    7
 10
216.68632075471791
 20
212.61981132074982
 11
216.68632075471791
 21
240.61981132074982
  0
TEXT
  8
_0-5_寸法線
 62
    7
 10
216.68632075471791
 20
215.9786921501474
 40
15
 41
1
 50
90
  1
3
  0
LINE
  8
_0-5_寸法線
  6
CONTINUOUS
 62
    7
 10
256.68632075471794
 20
242.11981132074968
 11
211.68632075471791
 21
242.11981132074985
  0
LINE
  8
_0-5_寸法線
  6
CONTINUOUS
 62
    7
 10
216.68632075471791
 20
240.61981132074982
 11
216.68632075471791
 21
242.11981132074982
  0
TEXT
  8
_0-5_寸法線
 62
    7
 10
234.11358617694793
 20
245.27247163128467
 40
15
 41
1
 50
89.999999999999815
  1
1.5
  0
LINE
  8
_0-5_寸法線
  6
CONTINUOUS
 62
    7
 10
216.68632075471791
 20
242.11981132074982
 11
214.09813030369278
 21
251.77906958364051
  0
LINE
  8
_0-5_寸法線
  6
CONTINUOUS
 62
    7
 10
216.68632075471791
 20
242.11981132074982
 11
219.27451120574318
 21
251.77906958364051
  0
LINE
  8
_0-5_寸法線
  6
CONTINUOUS
 62
    7
 10
256.68632075471794
 20
643.11981132074959
 11
211.68632075471791
 21
643.1198113207497
  0
LINE
  8
_0-5_寸法線
  6
CONTINUOUS
 62
    7
 10
216.68632075471791
 20
643.1198113207497
 11
219.27451120574312
 21
633.46055305785899
  0
LINE
  8
_0-5_寸法線
  6
CONTINUOUS
 62
    7
 10
216.68632075471791
 20
643.1198113207497
 11
214.0981303036927
 21
633.46055305785899
  0
LINE
  8
_0-5_寸法線
  6
CONTINUOUS
 62
    7
 10
216.68632075471791
 20
242.11981132074982
 11
216.68632075471791
 21
643.1198113207497
  0
TEXT
  8
_0-5_寸法線
 62
    7
 10
216.68632075471791
 20
431.3698113207497
 40
15
 41
1
 50
89.999999999999815
  1
401
  0
LINE
  8
_0-5_寸法線
  6
CONTINUOUS
 62
    7
 10
256.68632075471794
 20
644.6198113207497
 11
211.68632075471791
 21
644.6198113207497
  0
CIRCLE
  8
_0-5_寸法線
  6
CONTINUOUS
 62
    1
 10
216.68632075471791
 20
644.6198113207497
 40
1.5000000000000002
  0
LINE
  8
_0-5_寸法線
  6
CONTINUOUS
 62
    7
 10
216.68632075471791
 20
643.1198113207497
 11
216.68632075471791
 21
644.6198113207497
  0
TEXT
  8
_0-5_寸法線
 62
    7
 10
233.10754254487193
 20
619.55895453221831
 40
15
 41
1
 50
89.999999999999815
  1
1.5
  0
LINE
  8
_0-5_寸法線
  6
CONTINUOUS
 62
    7
 10
256.68632075471794
 20
647.6198113207497
 11
211.68632075471791
 21
647.61981132074982
  0
LINE
  8
_0-5_寸法線
  6
CONTINUOUS
 62
    7
 10
216.68632075471791
 20
647.61981132074982
 11
214.09813030369278
 21
657.27906958364042
  0
LINE
  8
_0-5_寸法線
  6
CONTINUOUS
 62
    7
 10
216.68632075471791
 20
647.61981132074982
 11
219.27451120574318
 21
657.27906958364042
  0
LINE
  8
_0-5_寸法線
  6
CONTINUOUS
 62
    7
 10
216.68632075471791
 20
644.6198113207497
 11
216.68632075471791
 21
672.61981132074982
  0
TEXT
  8
_0-5_寸法線
 62
    7
 10
216.68632075471791
 20
661.72456479165692
 40
15
 41
1
 50
90
  1
3
  0
LINE
  8
_0-5_寸法線
  6
CONTINUOUS
 62
    7
 10
266.68632075471839
 20
657.6198113207497
 11
266.68632075471839
 21
807.6198113207497
  0
LINE
  8
_0-5_寸法線
  6
CONTINUOUS
 62
    7
 10
266.68632075471839
 20
802.6198113207497
 11
276.34557901760905
 21
805.20800177177478
  0
LINE
  8
_0-5_寸法線
  6
CONTINUOUS
 62
    7
 10
266.68632075471839
 20
802.6198113207497
 11
276.34557901760905
 21
800.03162086972452
  0
LINE
  8
_0-5_寸法線
  6
CONTINUOUS
 62
    7
 10
676.68632075471794
 20
657.6198113207497
 11
676.68632075471794
 21
807.6198113207497
  0
LINE
  8
_0-5_寸法線
  6
CONTINUOUS
 62
    7
 10
676.68632075471794
 20
802.6198113207497
 11
667.02706249182722
 21
800.03162086972452
  0
LINE
  8
_0-5_寸法線
  6
CONTINUOUS
 62
    7
 10
676.68632075471794
 20
802.6198113207497
 11
667.02706249182722
 21
805.20800177177478
  0
LINE
  8
_0-5_寸法線
  6
CONTINUOUS
 62
    7
 10
266.68632075471839
 20
802.6198113207497
 11
676.68632075471794
 21
802.6198113207497
  0
TEXT
  8
_0-5_寸法線
 62
    7
 10
460.43632075471839
 20
802.6198113207497
 40
15
 41
1
 50
0
  1
410
  0
LINE
  8
_0-5_寸法線
  6
CONTINUOUS
 62
    7
 10
671.68632075471805
 20
657.6198113207497
 11
671.68632075471896
 21
737.6198113207497
  0
LINE
  8
_0-5_寸法線
  6
CONTINUOUS
 62
    7
 10
671.68632075471896
 20
732.6198113207497
 11
662.02706249182813
 21
730.03162086972441
  0
LINE
  8
_0-5_寸法線
  6
CONTINUOUS
 62
    7
 10
671.68632075471896
 20
732.6198113207497
 11
662.02706249182813
 21
735.20800177177478
  0
LINE
  8
_0-5_寸法線
  6
CONTINUOUS
 62
    7
 10
271.68632075471805
 20
657.6198113207497
 11
271.68632075471891
 21
737.6198113207497
  0
LINE
  8
_0-5_寸法線
  6
CONTINUOUS
 62
    7
 10
271.68632075471891
 20
732.6198113207497
 11
281.34557901760957
 21
735.20800177177478
  0
LINE
  8
_0-5_寸法線
  6
CONTINUOUS
 62
    7
 10
271.68632075471891
 20
732.6198113207497
 11
281.34557901760957
 21
730.03162086972441
  0
LINE
  8
_0-5_寸法線
  6
CONTINUOUS
 62
    7
 10
671.68632075471896
 20
732.6198113207497
 11
271.68632075471891
 21
732.6198113207497
  0
TEXT
  8
_0-5_寸法線
 62
    7
 10
460.43632075471839
 20
732.6198113207497
 40
15
 41
1
 50
0
  1
400
  0
LINE
  8
_0-5_寸法線
  6
CONTINUOUS
 62
    7
 10
266.68632075471805
 20
657.6198113207497
 11
266.68632075471839
 21
772.6198113207497
  0
LINE
  8
_0-5_寸法線
  6
CONTINUOUS
 62
    7
 10
266.68632075471839
 20
767.6198113207497
 11
257.02706249182768
 21
765.03162086972441
  0
LINE
  8
_0-5_寸法線
  6
CONTINUOUS
 62
    7
 10
266.68632075471839
 20
767.6198113207497
 11
257.02706249182773
 21
770.20800177177478
  0
LINE
  8
_0-5_寸法線
  6
CONTINUOUS
 62
    7
 10
269.68632075471805
 20
657.6198113207497
 11
269.68632075471845
 21
772.6198113207497
  0
LINE
  8
_0-5_寸法線
  6
CONTINUOUS
 62
    7
 10
241.68632075471839
 20
767.6198113207497
 11
269.68632075471845
 21
767.6198113207497
  0
TEXT
  8
_0-5_寸法線
 62
    7
 10
243.497430516571
 20
767.6198113207497
 40
15
 41
1
 50
0
  1
3
  0
LINE
  8
_0-5_寸法線
  6
CONTINUOUS
 62
    7
 10
269.68632075471845
 20
767.6198113207497
 11
279.34557901760911
 21
770.20800177177478
  0
LINE
  8
_0-5_寸法線
  6
CONTINUOUS
 62
    7
 10
269.68632075471845
 20
767.6198113207497
 11
279.34557901760911
 21
765.03162086972441
  0
LINE
  8
_0-5_寸法線
  6
CONTINUOUS
 62
    7
 10
673.68632075471794
 20
657.61981132074948
 11
673.68632075471794
 21
772.6198113207497
  0
LINE
  8
_0-5_寸法線
  6
CONTINUOUS
 62
    7
 10
673.68632075471794
 20
767.6198113207497
 11
664.02706249182734
 21
765.03162086972441
  0
LINE
  8
_0-5_寸法線
  6
CONTINUOUS
 62
    7
 10
673.68632075471794
 20
767.6198113207497
 11
664.02706249182734
 21
770.20800177177478
  0
LINE
  8
_0-5_寸法線
  6
CONTINUOUS
 62
    7
 10
269.68632075471845
 20
767.6198113207497
 11
673.68632075471794
 21
767.6198113207497
  0
TEXT
  8
_0-5_寸法線
 62
    7
 10
460.43632075471839
 20
767.61981132074948
 40
15
 41
1
 50
0
  1
404
  0
LINE
  8
_0-5_寸法線
  6
CONTINUOUS
 62
    7
 10
676.68632075471794
 20
657.6198113207497
 11
676.68632075471794
 21
772.6198113207497
  0
LINE
  8
_0-5_寸法線
  6
CONTINUOUS
 62
    7
 10
676.68632075471794
 20
767.6198113207497
 11
686.34557901760877
 21
770.20800177177478
  0
LINE
  8
_0-5_寸法線
  6
CONTINUOUS
 62
    7
 10
676.68632075471794
 20
767.6198113207497
 11
686.34557901760877
 21
765.03162086972441
  0
LINE
  8
_0-5_寸法線
  6
CONTINUOUS
 62
    7
 10
673.68632075471794
 20
767.6198113207497
 11
701.68632075471794
 21
767.6198113207497
  0
TEXT
  8
_0-5_寸法線
 62
    7
 10
692.95792579959061
 20
767.6198113207497
 40
15
 41
1
 50
0
  1
3
  0
LINE
  8
_0-7_枠細線
  6
CONTINUOUS
 62
    5
 10
351.95642367154221
 20
715.42252270674635
 11
344.45642367154221
 21
730.42252270674635
  0
LINE
  8
_0-7_枠細線
  6
CONTINUOUS
 62
    5
 10
336.95642367154221
 20
715.42252270674635
 11
351.95642367154221
 21
715.42252270674635
  0
LINE
  8
_0-7_枠細線
  6
CONTINUOUS
 62
    5
 10
344.45642367154221
 20
730.42252270674635
 11
336.95642367154221
 21
715.42252270674635
  0
LINE
  8
_0-7_枠細線
  6
CONTINUOUS
 62
    5
 10
180.34335540952895
 20
732.56785947115691
 11
172.84335540952895
 21
747.56785947115691
  0
LINE
  8
_0-7_枠細線
  6
CONTINUOUS
 62
    5
 10
165.34335540952895
 20
732.56785947115691
 11
180.34335540952895
 21
732.56785947115691
  0
LINE
  8
_0-7_枠細線
  6
CONTINUOUS
 62
    5
 10
172.84335540952895
 20
747.56785947115691
 11
165.34335540952895
 21
732.56785947115691
  0
LINE
  8
_0-5_寸法線
  6
CONTINUOUS
 62
    7
 10
369.186320754718
 20
444.11989607900875
 11
362.38621113653716
 21
451.45191552665926
  0
LINE
  8
_0-5_寸法線
  6
CONTINUOUS
 62
    7
 10
369.186320754718
 20
444.11989607900875
 11
366.96326280067973
 21
453.86966599080608
  0
LINE
  8
_0-5_寸法線
  6
CONTINUOUS
 62
    7
 10
369.186320754718
 20
444.11989607900875
 11
226.33347726338471
 21
714.55510216229845
  0
LINE
  8
_0-5_寸法線
  6
CONTINUOUS
 62
    7
 10
226.33347726338471
 20
714.55510216229845
 11
166.33347726338471
 21
714.55510216229845
  0
TEXT
  8
_0-5_寸法線
 62
    7
 10
166.33347726338471
 20
714.55510216229845
 40
15
 41
0.8000000000000001
 50
0
  1
取　外　具
  0
LINE
  8
_0-5_寸法線
  6
CONTINUOUS
 62
    7
 10
271.68632075471794
 20
657.6198113207497
 11
271.68632075471794
 21
702.6198113207497
  0
LINE
  8
_0-5_寸法線
  6
CONTINUOUS
 62
    7
 10
271.68632075471794
 20
697.6198113207497
 11
281.34557901760854
 21
700.20800177177478
  0
LINE
  8
_0-5_寸法線
  6
CONTINUOUS
 62
    7
 10
271.68632075471794
 20
697.6198113207497
 11
281.34557901760854
 21
695.03162086972441
  0
LINE
  8
_0-5_寸法線
  6
CONTINUOUS
 62
    7
 10
278.68632075471794
 20
657.6198113207497
 11
278.68632075471794
 21
702.6198113207497
  0
LINE
  8
_0-5_寸法線
  6
CONTINUOUS
 62
    7
 10
278.68632075471794
 20
697.6198113207497
 11
269.02706249182728
 21
695.03162086972441
  0
LINE
  8
_0-5_寸法線
  6
CONTINUOUS
 62
    7
 10
278.68632075471794
 20
697.6198113207497
 11
269.02706249182728
 21
700.20800177177478
  0
LINE
  8
_0-5_寸法線
  6
CONTINUOUS
 62
    7
 10
271.68632075471794
 20
697.6198113207497
 11
287.56706957547931
 21
697.6198113207497
  0
TEXT
  8
_0-5_寸法線
 62
    7
 10
280.06706957547931
 20
697.6198113207497
 40
15
 41
1
 50
0
  1
7
  0
LINE
  8
_0-5_寸法線
  6
CONTINUOUS
 62
    7
 10
278.68632075471794
 20
697.6198113207497
 11
288.34557901760866
 21
700.20800177177478
  0
LINE
  8
_0-5_寸法線
  6
CONTINUOUS
 62
    7
 10
278.68632075471794
 20
697.6198113207497
 11
288.3455790176086
 21
695.03162086972441
  0
LINE
  8
_0-5_寸法線
  6
CONTINUOUS
 62
    7
 10
472.686320754718
 20
657.6198113207497
 11
472.686320754718
 21
702.6198113207497
  0
LINE
  8
_0-5_寸法線
  6
CONTINUOUS
 62
    7
 10
472.686320754718
 20
697.6198113207497
 11
463.02706249182728
 21
695.03162086972441
  0
LINE
  8
_0-5_寸法線
  6
CONTINUOUS
 62
    7
 10
472.686320754718
 20
697.6198113207497
 11
463.02706249182734
 21
700.20800177177478
  0
LINE
  8
_0-5_寸法線
  6
CONTINUOUS
 62
    7
 10
278.68632075471794
 20
697.6198113207497
 11
472.686320754718
 21
697.6198113207497
  0
TEXT
  8
_0-5_寸法線
 62
    7
 10
338.18632075471794
 20
697.61981132074948
 40
15
 41
1
 50
0
  1
4@48.5=194
  0
LINE
  8
_0-5_寸法線
  6
CONTINUOUS
 62
    7
 10
472.686320754718
 20
697.6198113207497
 11
482.34557901760866
 21
700.20800177177478
  0
LINE
  8
_0-5_寸法線
  6
CONTINUOUS
 62
    7
 10
472.686320754718
 20
697.6198113207497
 11
482.34557901760866
 21
695.03162086972441
  0
LINE
  8
_0-5_寸法線
  6
CONTINUOUS
 62
    7
 10
519.18632075471794
 20
657.6198113207497
 11
519.18632075471794
 21
702.6198113207497
  0
LINE
  8
_0-5_寸法線
  6
CONTINUOUS
 62
    7
 10
519.18632075471794
 20
697.6198113207497
 11
509.52706249182722
 21
695.03162086972441
  0
LINE
  8
_0-5_寸法線
  6
CONTINUOUS
 62
    7
 10
519.18632075471794
 20
697.6198113207497
 11
509.52706249182734
 21
700.20800177177478
  0
LINE
  8
_0-5_寸法線
  6
CONTINUOUS
 62
    7
 10
472.686320754718
 20
697.6198113207497
 11
519.18632075471794
 21
697.6198113207497
  0
TEXT
  8
_0-5_寸法線
 62
    7
 10
480.93632075471794
 20
697.61981132074948
 40
15
 41
1
 50
0
  1
46.5
  0
LINE
  8
_0-5_寸法線
  6
CONTINUOUS
 62
    7
 10
519.18632075471794
 20
697.6198113207497
 11
528.84557901760877
 21
700.20800177177478
  0
LINE
  8
_0-5_寸法線
  6
CONTINUOUS
 62
    7
 10
519.18632075471794
 20
697.6198113207497
 11
528.84557901760877
 21
695.03162086972441
  0
LINE
  8
_0-5_寸法線
  6
CONTINUOUS
 62
    7
 10
664.68632075471805
 20
657.6198113207497
 11
664.68632075471805
 21
702.6198113207497
  0
LINE
  8
_0-5_寸法線
  6
CONTINUOUS
 62
    7
 10
664.68632075471805
 20
697.6198113207497
 11
655.02706249182722
 21
695.03162086972441
  0
LINE
  8
_0-5_寸法線
  6
CONTINUOUS
 62
    7
 10
664.68632075471805
 20
697.6198113207497
 11
655.02706249182722
 21
700.20800177177478
  0
LINE
  8
_0-5_寸法線
  6
CONTINUOUS
 62
    7
 10
519.18632075471794
 20
697.6198113207497
 11
664.68632075471805
 21
697.6198113207497
  0
TEXT
  8
_0-5_寸法線
 62
    7
 10
546.93632075471794
 20
697.61981132074948
 40
15
 41
1
 50
0
  1
3@48.5=145.5
  0
LINE
  8
_0-5_寸法線
  6
CONTINUOUS
 62
    7
 10
664.68632075471805
 20
697.6198113207497
 11
674.34557901760866
 21
700.20800177177478
  0
LINE
  8
_0-5_寸法線
  6
CONTINUOUS
 62
    7
 10
664.68632075471805
 20
697.6198113207497
 11
674.34557901760866
 21
695.03162086972441
  0
LINE
  8
_0-5_寸法線
  6
CONTINUOUS
 62
    7
 10
671.68632075471794
 20
657.6198113207497
 11
671.68632075471794
 21
702.6198113207497
  0
LINE
  8
_0-5_寸法線
  6
CONTINUOUS
 62
    7
 10
671.68632075471794
 20
697.6198113207497
 11
662.02706249182722
 21
695.03162086972441
  0
LINE
  8
_0-5_寸法線
  6
CONTINUOUS
 62
    7
 10
671.68632075471794
 20
697.6198113207497
 11
662.02706249182722
 21
700.20800177177478
  0
LINE
  8
_0-5_寸法線
  6
CONTINUOUS
 62
    7
 10
656.52749115566519
 20
697.6198113207497
 11
671.68632075471794
 21
697.6198113207497
  0
TEXT
  8
_0-5_寸法線
 62
    7
 10
656.52749115566519
 20
697.6198113207497
 40
15
 41
1
 50
0
  1
7
  0
LINE
  8
_0-1_計細線
  6
CONTINUOUS
 62
    3
 10
336.68632075471749
 20
440.26981132075468
 11
389.68632075471754
 21
440.26981132075468
  0
LINE
  8
_0-1_計細線
  6
CONTINUOUS
 62
    3
 10
389.68632075471754
 20
444.96981132075456
 11
336.68632075471749
 21
444.96981132075456
  0
LINE
  8
_0-1_計細線
  6
CONTINUOUS
 62
    3
 10
336.68632075471749
 20
444.96981132075456
 11
336.68632075471749
 21
440.26981132075468
  0
LINE
  8
_0-1_計細線
  6
CONTINUOUS
 62
    3
 10
379.68632075471754
 20
444.96981132075456
 11
379.68632075471754
 21
440.26981132075468
  0
LINE
  8
_0-1_計細線
  6
CONTINUOUS
 62
    3
 10
387.68632075471749
 20
444.96981132075456
 11
387.68632075471749
 21
440.26981132075468
  0
LINE
  8
_0-1_計細線
  6
CONTINUOUS
 62
    3
 10
389.68632075471754
 20
444.96981132075456
 11
389.68632075471754
 21
440.26981132075468
  0
LINE
  8
_0-1_計細線
  6
CONTINUOUS
 62
    3
 10
385.68632075471754
 20
444.96981132075456
 11
385.68632075471754
 21
440.26981132075468
  0
LINE
  8
_0-1_計細線
  6
CONTINUOUS
 62
    3
 10
383.68632075471749
 20
444.96981132075456
 11
383.68632075471749
 21
440.26981132075468
  0
LINE
  8
_0-1_計細線
  6
CONTINUOUS
 62
    3
 10
381.68632075471749
 20
444.96981132075456
 11
381.68632075471749
 21
440.26981132075468
  0
TEXT
  8
_0-7_枠細線
 62
    5
 10
1055.9566304028124
 20
534.31384995605504
 40
25
 41
0.8
 50
0
  1
断面詳細図
  0
TEXT
  8
_0-7_枠細線
 62
    5
 10
1170.9056001519803
 20
536.80961204331913
 40
20
 41
0.6
 50
0
  1
Ｓ＝１：５
  0
TEXT
  8
_0-5_寸法線
 62
    7
 10
717.5667723551436
 20
405.95544579854021
 40
15
 41
0.8000000000000001
 50
0
  1
ＧＳＬ－２５
  0
TEXT
  8
_0-5_寸法線
 62
    7
 10
166.63742710745183
 20
699.55510216229845
 40
15
 41
0.8000000000000001
 50
0
  1
(標準付属)
  0
LINE
  8
_0-5_寸法線
  6
CONTINUOUS
 62
    7
 10
1017.8648723511674
 20
699.29582880040789
 11
1017.8648723511674
 21
746.29582880040789
  0
LINE
  8
_0-5_寸法線
  6
CONTINUOUS
 62
    7
 10
1017.8648723511674
 20
741.29582880040789
 11
1008.2056140882767
 21
738.70763834938271
  0
LINE
  8
_0-5_寸法線
  6
CONTINUOUS
 62
    7
 10
1017.8648723511674
 20
741.29582880040789
 11
1008.2056140882767
 21
743.88401925143307
  0
LINE
  8
_0-5_寸法線
  6
CONTINUOUS
 62
    7
 10
1023.4648723537362
 20
699.29582880040789
 11
1023.4648723537362
 21
746.29582880040789
  0
LINE
  8
_0-5_寸法線
  6
CONTINUOUS
 62
    7
 10
978.49091666800052
 20
741.29582880040789
 11
1023.4648723537362
 21
741.29582880040789
  0
TEXT
  8
_0-5_寸法線
 62
    7
 10
978.49091666800052
 20
726.29582880040789
 40
15
 41
1
 50
0
  1
(5.6)
  0
LINE
  8
_0-5_寸法線
  6
CONTINUOUS
 62
    7
 10
1023.4648723537362
 20
741.29582880040789
 11
1033.1241306166269
 21
743.88401925143307
  0
LINE
  8
_0-5_寸法線
  6
CONTINUOUS
 62
    7
 10
1023.4648723537362
 20
741.29582880040789
 11
1033.1241306166269
 21
738.70763834938271
  0
LINE
  8
_0-5_寸法線
  6
CONTINUOUS
 62
    7
 10
1034.8648723515289
 20
699.29582880040789
 11
1034.8648723515289
 21
746.29582880040789
  0
LINE
  8
_0-5_寸法線
  6
CONTINUOUS
 62
    7
 10
1034.8648723515289
 20
741.29582880040789
 11
1025.2056140886382
 21
738.70763834938271
  0
LINE
  8
_0-5_寸法線
  6
CONTINUOUS
 62
    7
 10
1034.8648723515289
 20
741.29582880040789
 11
1025.2056140886382
 21
743.88401925143307
  0
LINE
  8
_0-5_寸法線
  6
CONTINUOUS
 62
    7
 10
1023.4648723537362
 20
741.29582880040789
 11
1034.8648723515289
 21
741.29582880040789
  0
TEXT
  8
_0-5_寸法線
 62
    7
 10
1010.4001759262826
 20
741.29582880040789
 40
15
 41
1
 50
0
  1
11.4
  0
LINE
  8
_0-5_寸法線
  6
CONTINUOUS
 62
    7
 10
1182.1648721652668
 20
701.29582880040789
 11
1182.1648721652668
 21
746.29582880040789
  0
LINE
  8
_0-5_寸法線
  6
CONTINUOUS
 62
    7
 10
1182.1648721652668
 20
741.29582880040789
 11
1191.8241304281578
 21
743.88401925143307
  0
LINE
  8
_0-5_寸法線
  6
CONTINUOUS
 62
    7
 10
1182.1648721652668
 20
741.29582880040789
 11
1191.8241304281578
 21
738.70763834938271
  0
LINE
  8
_0-5_寸法線
  6
CONTINUOUS
 62
    7
 10
1199.1648721656288
 20
701.29582880040789
 11
1199.1648721656288
 21
746.29582880040789
  0
LINE
  8
_0-5_寸法線
  6
CONTINUOUS
 62
    7
 10
1199.1648721656288
 20
741.29582880040789
 11
1189.5056139027381
 21
738.70763834938271
  0
LINE
  8
_0-5_寸法線
  6
CONTINUOUS
 62
    7
 10
1199.1648721656288
 20
741.29582880040789
 11
1189.5056139027381
 21
743.88401925143307
  0
LINE
  8
_0-5_寸法線
  6
CONTINUOUS
 62
    7
 10
1182.1648721652668
 20
741.29582880040789
 11
1199.1648721656288
 21
741.29582880040789
  0
TEXT
  8
_0-5_寸法線
 62
    7
 10
1174.5088948728428
 20
726.29582880040789
 40
15
 41
1
 50
0
  1
(17)
  0
LINE
  8
_0-5_寸法線
  6
CONTINUOUS
 62
    7
 10
1199.1648721656288
 20
741.29582880040789
 11
1208.8241304285198
 21
743.88401925143307
  0
LINE
  8
_0-5_寸法線
  6
CONTINUOUS
 62
    7
 10
1199.1648721656288
 20
741.29582880040789
 11
1208.8241304285198
 21
738.70763834938259
  0
LINE
  8
_0-5_寸法線
  6
CONTINUOUS
 62
    7
 10
1216.1648721659908
 20
701.29582880040789
 11
1216.1648721659908
 21
746.29582880040789
  0
LINE
  8
_0-5_寸法線
  6
CONTINUOUS
 62
    7
 10
1216.1648721659908
 20
741.29582880040789
 11
1206.5056139030999
 21
738.70763834938271
  0
LINE
  8
_0-5_寸法線
  6
CONTINUOUS
 62
    7
 10
1216.1648721659908
 20
741.29582880040789
 11
1206.5056139030999
 21
743.88401925143307
  0
LINE
  8
_0-5_寸法線
  6
CONTINUOUS
 62
    7
 10
1199.1648721656288
 20
741.29582880040789
 11
1216.1648721659908
 21
741.29582880040789
  0
TEXT
  8
_0-5_寸法線
 62
    7
 10
1193.5755615392686
 20
741.29582880040789
 40
15
 41
1
 50
0
  1
(17)
  0
LINE
  8
_0-5_寸法線
  6
CONTINUOUS
 62
    7
 10
1088.9730392006647
 20
672.03181217358622
 11
1069.5271604760223
 21
685.64796304369293
  0
LINE
  8
_0-5_寸法線
  6
CONTINUOUS
 62
    7
 10
1073.6229206974672
 20
682.78008086193768
 11
1071.034730246442
 21
692.43933912482839
  0
LINE
  8
_0-5_寸法線
  6
CONTINUOUS
 62
    7
 10
1073.6229206974672
 20
682.78008086193768
 11
1076.2111111484924
 21
692.43933912482839
  0
LINE
  8
_0-5_寸法線
  6
CONTINUOUS
 62
    7
 10
1088.9730392006647
 20
697.03181217358633
 11
1069.5271604760223
 21
710.64796304369281
  0
LINE
  8
_0-5_寸法線
  6
CONTINUOUS
 62
    7
 10
1073.6229206974672
 20
707.78008086193768
 11
1076.2111111484924
 21
698.12082259904685
  0
LINE
  8
_0-5_寸法線
  6
CONTINUOUS
 62
    7
 10
1073.6229206974672
 20
707.78008086193768
 11
1071.034730246442
 21
698.12082259904685
  0
LINE
  8
_0-5_寸法線
  6
CONTINUOUS
 62
    7
 10
1073.6229206974672
 20
682.78008086193768
 11
1073.6229206974672
 21
707.78008086193768
  0
TEXT
  8
_0-5_寸法線
 62
    7
 10
1073.6229206974672
 20
687.78008086193734
 40
15
 41
1
 50
90
  1
25
  0
TEXT
  8
_0-7_枠細線
 62
    5
 10
1180
 20
892.5
 40
12.5
 41
0.7199999999999999
 50
0
  1
２０２０．１０．０１
  0
TEXT
  8
_0-7_枠細線
 62
    5
 10
938.85037037037023
 20
910
 40
12.5
 41
1
 50
0
  1
クロスバーピッチ変更
  0
TEXT
  8
_0-7_枠細線
 62
    5
 10
938.85037037037023
 20
892.5
 40
12.5
 41
1
 50
0
  1
取外具形状変更
  0
TEXT
  8
_0-7_枠細線
 62
    5
 10
339.32157493969038
 20
715.1155204613658
 40
12.5
 41
0.8
 50
0
  1
２
  0
TEXT
  8
_0-7_枠細線
 62
    5
 10
167.70850667767704
 20
732.26085722577625
 40
12.5
 41
0.8
 50
0
  1
３
  0
ENDSEC
  0
EOF
