  0
SECTION
  2
HEADER
  9
$ACADVER
  1
AC1009
  9
$INSBASE
 10
0
 20
0
 30
0
  9
$EXTMIN
 10
0
 20
0
  9
$EXTMAX
 10
2376
 20
1680
  9
$LIMMIN
 10
0
 20
0
  9
$LIMMAX
 10
2376
 20
1680
  9
$LTSCALE
 40
8
  0
ENDSEC
  0
SECTION
  2
TABLES
  0
TABLE
  2
LTYPE
 70
     9
  0
LTYPE
  2
CONTINUOUS
 70
    64
  3
実線
 72
    65
 73
     0
 40
0.0
  0
LTYPE
  2
DASHED1
 70
    64
  3
--  --  --  --  --  --  --  --  
 72
    65
 73
     2
 40
2.5
 49
1.25
 49
-1.25
  0
LTYPE
  2
DASHED2
 70
    64
  3
----    ----    ----    ----    
 72
    65
 73
     2
 40
5.0
 49
2.5
 49
-2.5
  0
LTYPE
  2
DASHED3
 70
    64
  3
------  ------  ------  ------  
 72
    65
 73
     2
 40
5.0
 49
3.75
 49
-1.25
  0
LTYPE
  2
CENTER1
 70
    64
  3
----- - ----- - ----- - ----- - 
 72
    65
 73
     4
 40
10.0
 49
6.25
 49
-1.25
 49
1.25
 49
-1.25
  0
LTYPE
  2
CENTER2
 70
    64
  3
----------  --  ----------  --  
 72
    65
 73
     4
 40
20.0
 49
12.5
 49
-2.5
 49
2.5
 49
-2.5
  0
LTYPE
  2
PHANTOM1
 70
    64
  3
--- - - --- - - --- - - --- - - 
 72
    65
 73
     6
 40
10.0
 49
3.25
 49
-1.25
 49
1.25
 49
-1.25
 49
1.25
 49
-1.25
  0
LTYPE
  2
PHANTOM2
 70
    64
  3
--------  -  -  --------  -  -  
 72
    65
 73
     6
 40
20.0
 49
10.0
 49
-2.5
 49
1.25
 49
-2.5
 49
1.25
 49
-2.5
  0
LTYPE
  2
DOT
 70
    64
  3
-   -   -   -   -   -   -   -   
 72
    65
 73
     2
 40
2.5
 49
0.625
 49
-1.875
  0
LTYPE
  2
DUMMY
 70
    64
  3
ダミー
 72
    65
 73
     0
 40
0.0
  0
LTYPE
  2
RAND1
 70
    64
  3
ランダム線1
 72
    65
 73
     4
 40
10.0
 49
1.0
 49
-2.0
 49
3.0
 49
-4.0
  0
LTYPE
  2
RAND2
 70
    64
  3
ランダム線2
 72
    65
 73
     4
 40
14.0
 49
2.0
 49
-3.0
 49
4.0
 49
-5.0
  0
LTYPE
  2
RAND3
 70
    64
  3
ランダム線3
 72
    65
 73
     4
 40
18.0
 49
3.0
 49
-4.0
 49
5.0
 49
-6.0
  0
LTYPE
  2
RAND4
 70
    64
  3
ランダム線4
 72
    65
 73
     4
 40
22.0
 49
4.0
 49
-5.0
 49
6.0
 49
-7.0
  0
LTYPE
  2
RAND5
 70
    64
  3
ランダム線5
 72
    65
 73
     4
 40
26.0
 49
5.0
 49
-6.0
 49
7.0
 49
-8.0
  0
LTYPE
  2
LONG1
 70
    64
  3
----------  --  ----------  --  
 72
    65
 73
     4
 40
40.0
 49
32.5
 49
-2.5
 49
2.5
 49
-2.5
  0
LTYPE
  2
LONG2
 70
    64
  3
--------  -  -  --------  -  -  
 72
    65
 73
     6
 40
40.0
 49
30.0
 49
-2.5
 49
1.25
 49
-2.5
 49
1.25
 49
-2.5
  0
LTYPE
  2
LONG3
 70
    64
  3
+++++++++++++++..+++++++++++++++
 72
    65
 73
     2
 40
40.0
 49
37.5
 49
-2.5
  0
LTYPE
  2
LONG4
 70
    64
  3
+++++++++++++++..+++++++++++++++
 72
    65
 73
     2
 40
80.0
 49
75.0
 49
-5.0
  0
LTYPE
  2
LONG5
 70
    64
  3
----------  --  ----------  --  
 72
    65
 73
     4
 40
60.0
 49
37.5
 49
-7.5
 49
7.5
 49
-7.5
  0
LTYPE
  2
dashed
 70
   64
  3
-------   -------------   ------
 72
   65
 73
    2
 40
7.5
 49
6
 49
-1.5
  0
LTYPE
  2
dashed_spaced
 70
   64
  3
----        --------        ----
 72
   65
 73
    2
 40
12
 49
6
 49
-6
  0
LTYPE
  2
long_dashed_dotted
 70
   64
  3
------------- --- --------------
 72
   65
 73
    4
 40
15.25
 49
12
 49
-1.5
 49
0.25
 49
-1.5
  0
LTYPE
  2
long_dashed_double-dotted
 70
   64
  3
----------- --- --- ------------
 72
   65
 73
    6
 40
17
 49
12
 49
-1.5
 49
0.25
 49
-1.5
 49
0.25
 49
-1.5
  0
LTYPE
  2
long_dashed_triplicate-dotted
 70
   64
  3
--------- --- --- --- ----------
 72
   65
 73
    8
 40
18.75
 49
12
 49
-1.5
 49
0.25
 49
-1.5
 49
0.25
 49
-1.5
 49
0.25
 49
-1.5
  0
LTYPE
  2
dotted
 70
   64
  3
   -       -       -       -    
 72
   65
 73
    2
 40
1.75
 49
0.25
 49
-1.5
  0
LTYPE
  2
chain
 70
   64
  3
-------------- -- --------------
 72
   65
 73
    4
 40
18.5
 49
12
 49
-1.5
 49
3.5
 49
-1.5
  0
LTYPE
  2
chain_double_dash
 70
   64
  3
------------ -- -- -------------
 72
   65
 73
    6
 40
23.5
 49
12
 49
-1.5
 49
3.5
 49
-1.5
 49
3.5
 49
-1.5
  0
LTYPE
  2
dashed_dotted
 70
   64
  3
-----------     -     ----------
 72
   65
 73
    4
 40
9.25
 49
6
 49
-1.5
 49
0.25
 49
-1.5
  0
LTYPE
  2
double-dashed_dotted
 70
   64
  3
------   -----------   -   -----
 72
   65
 73
    6
 40
16.75
 49
6
 49
-1.5
 49
6
 49
-1.5
 49
0.25
 49
-1.5
  0
LTYPE
  2
dashed_double-dotted
 70
   64
  3
---------    -    -    ---------
 72
   65
 73
    6
 40
11
 49
6
 49
-1.5
 49
0.25
 49
-1.5
 49
0.25
 49
-1.5
  0
LTYPE
  2
double-dashed_double-dotted
 70
   64
  3
-----   ---------   -   -   ----
 72
   65
 73
    8
 40
18.5
 49
6
 49
-1.5
 49
6
 49
-1.5
 49
0.25
 49
-1.5
 49
0.25
 49
-1.5
  0
LTYPE
  2
dashed_triplicate-dotted
 70
   64
  3
-------    -    -    -    ------
 72
   65
 73
    8
 40
12.75
 49
6
 49
-1.5
 49
0.25
 49
-1.5
 49
0.25
 49
-1.5
 49
0.25
 49
-1.5
  0
LTYPE
  2
double-dashed_triplicate-dotted
 70
   64
  3
-----  ---------  -  -  -  -----
 72
   65
 73
   10
 40
20.25
 49
6
 49
-1.5
 49
6
 49
-1.5
 49
0.25
 49
-1.5
 49
0.25
 49
-1.5
 49
0.25
 49
-1.5
  0
LTYPE
  2
undefined
 70
   64
  3
--------------------------------
 72
   65
 73
    0
 40
0
  0
ENDTAB
  0
TABLE
  2
STYLE
  5
3
100
AcDbSymbolTable
 70
     1
  0
STYLE
  5
10
100
AcDbSymbolTableRecord
100
AcDbTextStyleTableRecord
  2
STANDARD
 70
     0
 40
0.0
 41
1.0
 50
0.0
 71
     0
 42
0.2
  3
txt
  4
bigfont.shx
  0
STYLE
  5
26
100
AcDbSymbolTableRecord
100
AcDbTextStyleTableRecord
  2
TATEGAKI
 70
    68
 40
0.0
 41
1.0
 50
0.0
 71
     0
 42
1.0
  3
txt
  4
bigfont.shx
  0
ENDTAB
  0
TABLE
  2
LAYER
 70
   10
  0
LAYER
  2
_0-0_計極細
 70
   64
 62
    7
  6
CONTINUOUS
  0
LAYER
  2
_0-1_計細線
 70
   64
 62
    7
  6
CONTINUOUS
  0
LAYER
  2
_0-5_寸法線
 70
   64
 62
    7
  6
CONTINUOUS
  0
LAYER
  2
_0-7_枠細線
 70
   64
 62
    7
  6
CONTINUOUS
  0
LAYER
  2
_0-8_枠中線
 70
   64
 62
    7
  6
CONTINUOUS
  0
LAYER
  2
_0-9_枠極太
 70
   64
 62
    7
  6
CONTINUOUS
  0
LAYER
  2
_0-a_極細3
 70
   64
 62
    7
  6
CONTINUOUS
  0
LAYER
  2
_0-b_細線3
 70
   64
 62
    7
  6
CONTINUOUS
  0
LAYER
  2
_0-d_寸法3
 70
   64
 62
    7
  6
CONTINUOUS
  0
LAYER
  2
ADD_LINE
 70
   64
 62
    7
  6
CONTINUOUS
  0
ENDTAB
  0
ENDSEC
  0
SECTION
  2
BLOCKS
  0
ENDSEC
  0
SECTION
  2
ENTITIES
  0
LINE
  8
_0-7_枠細線
  6
CONTINUOUS
 62
    5
 10
1896
 20
288
 11
1896
 21
160
  0
TEXT
  8
_0-7_枠細線
 62
    5
 10
1500
 20
156
 40
28
 41
1
 50
0
  1
備考
  7
TATEGAKI
  0
TEXT
  8
_0-7_枠細線
 62
    5
 10
1500
 20
220
 40
28
 41
1
 50
0
  1
品番
  7
TATEGAKI
  0
TEXT
  8
_0-7_枠細線
 62
    5
 10
1500
 20
284
 40
28
 41
1
 50
0
  1
品名
  7
TATEGAKI
  0
LINE
  8
_0-7_枠細線
  6
CONTINUOUS
 62
    5
 10
1896
 20
224
 11
1480
 21
224
  0
LINE
  8
_0-7_枠細線
  6
CONTINUOUS
 62
    5
 10
1520
 20
288
 11
1520
 21
96
  0
LINE
  8
_0-8_枠中線
  6
CONTINUOUS
 62
    5
 10
2280
 20
288
 11
1480
 21
288
  0
LINE
  8
_0-8_枠中線
  6
CONTINUOUS
 62
    5
 10
1480
 20
288
 11
1480
 21
96
  0
LINE
  8
_0-7_枠細線
  6
CONTINUOUS
 62
    5
 10
1992
 20
288
 11
1992
 21
96
  0
TEXT
  8
_0-7_枠細線
 62
    5
 10
1908
 20
256
 40
24
 41
1
 50
0
  1
縮　尺
  0
LINE
  8
_0-7_枠細線
  6
CONTINUOUS
 62
    5
 10
1896
 20
248
 11
1992
 21
248
  0
LINE
  8
_0-7_枠細線
  6
CONTINUOUS
 62
    5
 10
1992
 20
160
 11
1480
 21
160
  0
LINE
  8
_0-7_枠細線
  6
CONTINUOUS
 62
    5
 10
2280
 20
144
 11
1992
 21
144
  0
LINE
  8
_0-7_枠細線
  6
CONTINUOUS
 62
    5
 10
1992
 20
192
 11
2280
 21
192
  0
LINE
  8
_0-7_枠細線
  6
CONTINUOUS
 62
    5
 10
2280
 20
224
 11
1992
 21
224
  0
TEXT
  8
_0-7_枠細線
 62
    5
 10
2008
 20
236
 40
40
 41
0.8
 50
0
  1
株式会社シマブン
  0
TEXT
  8
_0-7_枠細線
 62
    5
 10
2004
 20
96
 40
24
 41
1
 50
0
  1
年月日
  0
TEXT
  8
_0-7_枠細線
 62
    5
 10
2004
 20
120
 40
24
 41
1
 50
0
  1
作　成
  0
TEXT
  8
_0-7_枠細線
 62
    5
 10
2010
 20
196
 40
24
 41
1
 50
0
  1
承 認
  0
LINE
  8
_0-7_枠細線
  6
CONTINUOUS
 62
    5
 10
2088
 20
224
 11
2088
 21
96
  0
TEXT
  8
_0-7_枠細線
 62
    5
 10
2106
 20
196
 40
24
 41
1
 50
0
  1
検 図
  0
LINE
  8
_0-7_枠細線
  6
CONTINUOUS
 62
    5
 10
2184
 20
224
 11
2184
 21
144
  0
TEXT
  8
_0-7_枠細線
 62
    5
 10
2200
 20
152
 40
32
 41
1
 50
0
  1
藤戸
  0
TEXT
  8
_0-7_枠細線
 62
    5
 10
2202
 20
196
 40
24
 41
1
 50
0
  1
設 計
  0
TEXT
  8
_0-7_枠細線
 62
    5
 10
2008
 20
152
 40
32
 41
1
 50
0
  1
隠塚
  0
TEXT
  8
_0-7_枠細線
 62
    5
 10
2104
 20
152
 40
32
 41
1
 50
0
  1
渋田
  0
TEXT
  8
_0-7_枠細線
 62
    5
 10
1536.8000000000002
 20
240
 40
32
 41
0.5
 50
0
  1
セーフティグレーチング補強仕様Ｈ２５タイプ
  0
TEXT
  8
_0-7_枠細線
 62
    5
 10
2096
 20
108
 40
24
 41
0.6666666666666666
 50
0
  1
２０１０年０３月０１日
  0
TEXT
  8
_0-7_枠細線
 62
    5
 10
1536.8000000000002
 20
112
 40
32
 41
0.5999999999999998
 50
0
  1
色については品番表参照のこと
  0
TEXT
  8
_0-7_枠細線
 62
    5
 10
1536.8000000000002
 20
176
 40
32
 41
0.6
 50
0
  1
ＧＲＳＫ－２５Ｗ２５０　ＳＥＴ
  0
TEXT
  8
_0-7_枠細線
 62
    5
 10
1726.0453960905379
 20
688
 40
24
 41
0.8000000000000001
 50
0
  1
品　　番
  0
LINE
  8
_0-7_枠細線
  6
CONTINUOUS
 62
    5
 10
1668.4453960905375
 20
600
 11
2180.445396090538
 21
600
  0
LINE
  8
_0-7_枠細線
  6
CONTINUOUS
 62
    5
 10
1668.4453960905375
 20
640
 11
2180.445396090538
 21
640
  0
LINE
  8
_0-7_枠細線
  6
CONTINUOUS
 62
    5
 10
1668.4453960905375
 20
680
 11
2180.445396090538
 21
680
  0
TEXT
  8
_0-7_枠細線
 62
    5
 10
1930.8453960905381
 20
688
 40
24
 41
0.8000000000000001
 50
0
  1
色
  0
TEXT
  8
_0-7_枠細線
 62
    5
 10
2062.0453960905384
 20
688
 40
24
 41
0.8000000000000001
 50
0
  1
備　　考
  0
LINE
  8
_0-7_枠細線
  6
CONTINUOUS
 62
    5
 10
1668.4453960905375
 20
720
 11
2180.445396090538
 21
720
  0
LINE
  8
_0-7_枠細線
  6
CONTINUOUS
 62
    5
 10
1668.4453960905375
 20
360
 11
2180.445396090538
 21
360
  0
LINE
  8
_0-7_枠細線
  6
CONTINUOUS
 62
    5
 10
1668.4453960905375
 20
560
 11
2180.445396090538
 21
560
  0
LINE
  8
_0-7_枠細線
  6
CONTINUOUS
 62
    5
 10
1668.4453960905375
 20
520
 11
2180.445396090538
 21
520
  0
LINE
  8
_0-7_枠細線
  6
CONTINUOUS
 62
    5
 10
1668.4453960905375
 20
480
 11
2180.445396090538
 21
480
  0
LINE
  8
_0-7_枠細線
  6
CONTINUOUS
 62
    5
 10
1668.4453960905375
 20
440
 11
2180.445396090538
 21
440
  0
LINE
  8
_0-7_枠細線
  6
CONTINUOUS
 62
    5
 10
1668.4453960905375
 20
400
 11
2180.445396090538
 21
400
  0
TEXT
  8
_0-7_枠細線
 62
    5
 10
1826.4453960905375
 20
728
 40
28
 41
1
 50
0
  1
品番表
  0
LINE
  8
_0-7_枠細線
  6
CONTINUOUS
 62
    5
 10
1668.4453960905375
 20
320
 11
2180.445396090538
 21
320
  0
LINE
  8
_0-7_枠細線
  6
CONTINUOUS
 62
    5
 10
2180.445396090538
 20
720
 11
2180.445396090538
 21
320
  0
LINE
  8
_0-7_枠細線
  6
CONTINUOUS
 62
    5
 10
2020.4453960905375
 20
720
 11
2020.4453960905375
 21
320
  0
LINE
  8
_0-7_枠細線
  6
CONTINUOUS
 62
    5
 10
1860.4453960905385
 20
720
 11
1860.4453960905385
 21
320
  0
LINE
  8
_0-7_枠細線
  6
CONTINUOUS
 62
    5
 10
1668.4453960905375
 20
720
 11
1668.4453960905375
 21
320
  0
LINE
  8
_0-7_枠細線
  6
CONTINUOUS
 62
    5
 10
1661.6656491420354
 20
368.532854836659
 11
1649.6656491420354
 21
392.532854836659
  0
LINE
  8
_0-7_枠細線
  6
CONTINUOUS
 62
    5
 10
1637.6656491420354
 20
368.532854836659
 11
1661.6656491420354
 21
368.532854836659
  0
LINE
  8
_0-7_枠細線
  6
CONTINUOUS
 62
    5
 10
1649.6656491420354
 20
392.532854836659
 11
1637.6656491420354
 21
368.532854836659
  0
TEXT
  8
_0-7_枠細線
 62
    5
 10
1641.4498911710725
 20
367.01474289289905
 40
20
 41
0.8
 50
0
  1
４
  0
LINE
  8
_0-7_枠細線
  6
CONTINUOUS
 62
    5
 10
1668.4453960905375
 20
768.00000000000023
 11
1668.4453960905375
 21
896.00000000000011
  0
TEXT
  8
_0-7_枠細線
 62
    5
 10
1704.4453960905375
 20
860.00000000000011
 40
24
 41
1
 50
0
  1
耐荷重
  0
TEXT
  8
_0-7_枠細線
 62
    5
 10
1680.4453960905375
 20
780.00000000000023
 40
24
 41
1
 50
0
  1
（歩道用）
  0
LINE
  8
_0-7_枠細線
  6
CONTINUOUS
 62
    5
 10
1812.4453960905375
 20
768.00000000000023
 11
1812.4453960905375
 21
896.00000000000011
  0
TEXT
  8
_0-7_枠細線
 62
    5
 10
1848.4453960905375
 20
860.00000000000011
 40
24
 41
1
 50
0
  1
蓋重量
  0
LINE
  8
_0-7_枠細線
  6
CONTINUOUS
 62
    5
 10
1956.4453960905375
 20
768.00000000000023
 11
1956.4453960905375
 21
896.00000000000011
  0
TEXT
  8
_0-7_枠細線
 62
    5
 10
1992.4453960905375
 20
860.00000000000011
 40
24
 41
1
 50
0
  1
枠重量
  0
LINE
  8
_0-7_枠細線
  6
CONTINUOUS
 62
    5
 10
1668.4453960905375
 20
848.00000000000023
 11
2100.4453960905375
 21
848.00000000000023
  0
LINE
  8
_0-7_枠細線
  6
CONTINUOUS
 62
    5
 10
1668.4453960905375
 20
896.00000000000011
 11
2100.4453960905375
 21
896.00000000000011
  0
LINE
  8
_0-7_枠細線
  6
CONTINUOUS
 62
    5
 10
1668.4453960905375
 20
768.00000000000023
 11
2100.4453960905375
 21
768.00000000000023
  0
LINE
  8
_0-7_枠細線
  6
CONTINUOUS
 62
    5
 10
2100.4453960905375
 20
768.00000000000023
 11
2100.4453960905375
 21
896.00000000000011
  0
TEXT
  8
_0-7_枠細線
 62
    5
 10
1692.4453960905375
 20
812.00000000000023
 40
24
 41
1
 50
0
  1
5.0kN/㎡
  0
TEXT
  8
_0-7_枠細線
 62
    5
 10
1980.4453960905375
 20
798.00000000000023
 40
24
 41
0.8000000000000001
 50
0
  1
2.6kg/ｍ組
  0
TEXT
  8
_0-7_枠細線
 62
    5
 10
1846.0453960905379
 20
798.00000000000023
 40
24
 41
0.8000000000000001
 50
0
  1
4.2kg/ｍ
  0
TEXT
  8
_0-7_枠細線
 62
    5
 10
1676.0453960905384
 20
648
 40
24
 41
0.5666666666666667
 50
0
  1
ＧＲＳＫ－２５Ｗ２５０－Ｂ
  0
TEXT
  8
_0-7_枠細線
 62
    5
 10
1676.0453960905384
 20
608
 40
24
 41
0.5666666666666667
 50
0
  1
ＧＲＳＫ－２５Ｗ２５０－Ｇ
  0
TEXT
  8
_0-7_枠細線
 62
    5
 10
1676.0453960905384
 20
568
 40
24
 41
0.5666666666666667
 50
0
  1
ＧＲＳＫ－２５Ｗ２５０－Ｓ
  0
TEXT
  8
_0-7_枠細線
 62
    5
 10
1676.0453960905384
 20
528
 40
24
 41
0.5666666666666667
 50
0
  1
ＧＲＳＫ－２５Ｗ２５０－Ｐ
  0
TEXT
  8
_0-7_枠細線
 62
    5
 10
1676.0453960905384
 20
488
 40
24
 41
0.5666666666666667
 50
0
  1
ＧＲＳＫ－２５Ｗ２５０－Ａ
  0
TEXT
  8
_0-7_枠細線
 62
    5
 10
1676.0453960905384
 20
448
 40
24
 41
0.5666666666666667
 50
0
  1
ＧＲＳＫ－２５Ｗ２５０－Ｄ
  0
TEXT
  8
_0-7_枠細線
 62
    5
 10
1676.0453960905384
 20
408
 40
24
 41
0.5666666666666667
 50
0
  1
ＧＲＳＫ－２５Ｗ２５０－Ｍ
  0
TEXT
  8
_0-7_枠細線
 62
    5
 10
1676.0453960905384
 20
368
 40
24
 41
0.5666666666666667
 50
0
  1
ＧＲＳＫ－２５Ｗ２５０－Ｃ
  0
TEXT
  8
_0-7_枠細線
 62
    5
 10
1676.0453960905384
 20
328
 40
24
 41
0.5666666666666667
 50
0
  1
ＧＲＳＫ－２５Ｗ２５０－Ｋ
  0
TEXT
  8
_0-7_枠細線
 62
    5
 10
1910.4000000000001
 20
188
 40
32
 41
0.7000000000000001
 50
0
  1
１：８
  0
LINE
  8
_0-9_枠極太
  6
CONTINUOUS
 62
    5
 10
96
 20
96
 11
96
 21
1536
  0
LINE
  8
_0-9_枠極太
  6
CONTINUOUS
 62
    5
 10
96
 20
1536
 11
2280
 21
1536
  0
LINE
  8
_0-9_枠極太
  6
CONTINUOUS
 62
    5
 10
2280
 20
1536
 11
2280
 21
96
  0
LINE
  8
_0-9_枠極太
  6
CONTINUOUS
 62
    5
 10
2280
 20
96
 11
96
 21
96
  0
LINE
  8
_0-7_枠細線
  6
CONTINUOUS
 62
    5
 10
2280
 20
1508
 11
1424
 21
1508
  0
TEXT
  8
_0-7_枠細線
 62
    5
 10
1432
 20
1512
 40
20
 41
1
 50
0
  1
記号
  0
TEXT
  8
_0-7_枠細線
 62
    5
 10
1595
 20
1512
 40
20
 41
1
 50
0
  1
訂　 正　 記　 事
  0
TEXT
  8
_0-7_枠細線
 62
    5
 10
1890
 20
1512
 40
20
 41
1
 50
0
  1
訂 正 年 月 日
  0
TEXT
  8
_0-7_枠細線
 62
    5
 10
2090
 20
1512
 40
20
 41
1
 50
0
  1
備　　　　　考
  0
LINE
  8
_0-7_枠細線
  6
CONTINUOUS
 62
    5
 10
2280
 20
1480
 11
1424
 21
1480
  0
TEXT
  8
_0-7_枠細線
 62
    5
 10
1502.1605925925924
 20
1484
 40
20
 41
1
 50
0
  1
品番・色記号変更
  0
TEXT
  8
_0-7_枠細線
 62
    5
 10
1888
 20
1484
 40
20
 41
0.7199999999999999
 50
0
  1
２０１３．０３．１３
  0
LINE
  8
_0-7_枠細線
  6
CONTINUOUS
 62
    5
 10
2280
 20
1452
 11
1424
 21
1452
  0
LINE
  8
_0-7_枠細線
  6
CONTINUOUS
 62
    5
 10
2280
 20
1424
 11
1424
 21
1424
  0
TEXT
  8
_0-7_枠細線
 62
    5
 10
1502.1605925925924
 20
1456
 40
20
 41
1
 50
0
  1
クロスバーピッチ変更
  0
TEXT
  8
_0-7_枠細線
 62
    5
 10
1502.1605925925924
 20
1428
 40
20
 41
1
 50
0
  1
取外具形状変更
  0
TEXT
  8
_0-7_枠細線
 62
    5
 10
1888
 20
1456
 40
20
 41
0.7199999999999999
 50
0
  1
２０１５．１１．２０
  0
LINE
  8
_0-7_枠細線
  6
CONTINUOUS
 62
    5
 10
1464
 20
1454.307734354795
 11
1452
 21
1478.307734354795
  0
LINE
  8
_0-7_枠細線
  6
CONTINUOUS
 62
    5
 10
1440
 20
1454.307734354795
 11
1464
 21
1454.307734354795
  0
LINE
  8
_0-7_枠細線
  6
CONTINUOUS
 62
    5
 10
1452
 20
1478.307734354795
 11
1440
 21
1454.307734354795
  0
TEXT
  8
_0-7_枠細線
 62
    5
 10
1443.7842420290369
 20
1453.8165307621864
 40
20
 41
0.8
 50
0
  1
１
  0
TEXT
  8
_0-7_枠細線
 62
    5
 10
1443.7842420290369
 20
1425.8165307621864
 40
20
 41
0.8
 50
0
  1
２
  0
LINE
  8
_0-7_枠細線
  6
CONTINUOUS
 62
    5
 10
2280
 20
1396
 11
1424
 21
1396
  0
LINE
  8
_0-7_枠細線
  6
CONTINUOUS
 62
    5
 10
1452
 20
1450.307734354795
 11
1440
 21
1426.307734354795
  0
LINE
  8
_0-7_枠細線
  6
CONTINUOUS
 62
    5
 10
1440
 20
1426.307734354795
 11
1464
 21
1426.307734354795
  0
LINE
  8
_0-7_枠細線
  6
CONTINUOUS
 62
    5
 10
1464
 20
1426.307734354795
 11
1452
 21
1450.307734354795
  0
TEXT
  8
_0-7_枠細線
 62
    5
 10
1443.7842420290369
 20
1397.4314401305048
 40
20
 41
0.8
 50
0
  1
３
  0
TEXT
  8
_0-7_枠細線
 62
    5
 10
1888
 20
1400
 40
20
 41
0.7199999999999999
 50
0
  1
２０１７．０４．０１
  0
LINE
  8
_0-7_枠細線
  6
CONTINUOUS
 62
    5
 10
1464
 20
1370.307734354795
 11
1452
 21
1394.307734354795
  0
LINE
  8
_0-7_枠細線
  6
CONTINUOUS
 62
    5
 10
1440
 20
1370.307734354795
 11
1464
 21
1370.307734354795
  0
LINE
  8
_0-7_枠細線
  6
CONTINUOUS
 62
    5
 10
1452
 20
1394.307734354795
 11
1440
 21
1370.307734354795
  0
TEXT
  8
_0-7_枠細線
 62
    5
 10
1888
 20
1372
 40
20
 41
0.7199999999999999
 50
0
  1
２０１７．０４．０１
  0
TEXT
  8
_0-7_枠細線
 62
    5
 10
1502.1605925925924
 20
1372
 40
20
 41
1
 50
0
  1
ブラウン色（Ｃ）追加
  0
LINE
  8
_0-7_枠細線
  6
CONTINUOUS
 62
    5
 10
2280
 20
1368
 11
1424
 21
1368
  0
LINE
  8
_0-7_枠細線
  6
CONTINUOUS
 62
    5
 10
1452
 20
1422.307734354795
 11
1440
 21
1398.307734354795
  0
LINE
  8
_0-7_枠細線
  6
CONTINUOUS
 62
    5
 10
1440
 20
1398.307734354795
 11
1464
 21
1398.307734354795
  0
LINE
  8
_0-7_枠細線
  6
CONTINUOUS
 62
    5
 10
1464
 20
1398.307734354795
 11
1452
 21
1422.307734354795
  0
TEXT
  8
_0-7_枠細線
 62
    5
 10
1443.7842420290369
 20
1368.789622411035
 40
20
 41
0.8
 50
0
  1
４
  0
TEXT
  8
_0-7_枠細線
 62
    5
 10
1502.1605925925924
 20
1400
 40
20
 41
1
 50
0
  1
取外具形状変更
  0
TEXT
  8
_0-7_枠細線
 62
    5
 10
1888
 20
1428
 40
20
 41
0.7199999999999999
 50
0
  1
２０１５．１１．２０
  0
LINE
  8
_0-7_枠細線
  6
CONTINUOUS
 62
    5
 10
1464
 20
1342.307734354795
 11
1452
 21
1366.307734354795
  0
LINE
  8
_0-7_枠細線
  6
CONTINUOUS
 62
    5
 10
1440
 20
1342.307734354795
 11
1464
 21
1342.307734354795
  0
LINE
  8
_0-7_枠細線
  6
CONTINUOUS
 62
    5
 10
1452
 20
1366.307734354795
 11
1440
 21
1342.307734354795
  0
LINE
  8
_0-7_枠細線
  6
CONTINUOUS
 62
    5
 10
2280
 20
1340
 11
1424
 21
1340
  0
TEXT
  8
_0-7_枠細線
 62
    5
 10
1888
 20
1344
 40
20
 41
0.7199999999999999
 50
0
  1
２０１９．０９．０１
  0
TEXT
  8
_0-7_枠細線
 62
    5
 10
1443.7842420290369
 20
1340.789622411035
 40
20
 41
0.8
 50
0
  1
５
  0
TEXT
  8
_0-7_枠細線
 62
    5
 10
1502.1605925925924
 20
1344
 40
20
 41
1
 50
0
  1
アンカー材質･厚み変更
  0
CIRCLE
  8
_0-a_極細3
  6
CONTINUOUS
 62
    7
 10
1319.6871710064502
 20
279.92032537330203
 40
0.884938271604915
  0
LINE
  8
_0-a_極細3
  6
CENTER1
 62
    7
 10
779.74901008710299
 20
348.63828227066602
 11
779.74901008710299
 21
463.49161560400944
  0
LINE
  8
_0-a_極細3
  6
CONTINUOUS
 62
    7
 10
326.41567675376905
 20
355.86894278071901
 11
326.41567675376905
 21
246.53560944738535
  0
LINE
  8
_0-a_極細3
  6
CONTINUOUS
 62
    7
 10
459.74901008710253
 20
246.53560944738535
 11
326.41567675376905
 21
246.53560944738535
  0
LINE
  8
_0-a_極細3
  6
CONTINUOUS
 62
    7
 10
326.41567675376905
 20
355.86894278071901
 11
277.06461465491918
 21
355.86894278071901
  0
LINE
  8
_0-a_極細3
  6
CONTINUOUS
 62
    7
 10
459.74901008710253
 20
246.53560944738535
 11
459.74901008710253
 21
204.5490489757392
  0
LINE
  8
_0-a_極細3
  6
CONTINUOUS
 62
    7
 10
399.873850783119
 20
204.54904916203782
 11
441.8604110684671
 21
246.53560944738535
  0
LINE
  8
_0-a_極細3
  6
CONTINUOUS
 62
    7
 10
286.7367661452929
 20
204.54904951405888
 11
328.72332607861938
 21
246.53560944738535
  0
LINE
  8
_0-a_極細3
  6
CONTINUOUS
 62
    7
 10
277.06461465491918
 20
308.01398301353299
 11
324.91957442210514
 21
355.86894278071901
  0
LINE
  8
_0-a_極細3
  6
CONTINUOUS
 62
    7
 10
388.56014231933625
 20
204.54904919724038
 11
430.54670256948202
 21
246.53560944738535
  0
LINE
  8
_0-a_極細3
  6
CONTINUOUS
 62
    7
 10
277.06461465491918
 20
206.19060652267035
 11
326.41567675376905
 21
255.54166862152022
  0
LINE
  8
_0-a_極細3
  6
CONTINUOUS
 62
    7
 10
277.06461465491918
 20
319.32769151251819
 11
313.60586592311995
 21
355.86894278071901
  0
LINE
  8
_0-a_極細3
  6
CONTINUOUS
 62
    7
 10
377.2464338555543
 20
204.54904923244226
 11
419.2329940704974
 21
246.53560944738535
  0
LINE
  8
_0-a_極細3
  6
CONTINUOUS
 62
    7
 10
277.06461465491918
 20
217.50431502165497
 11
326.41567675376905
 21
266.85537712050541
  0
LINE
  8
_0-a_極細3
  6
CONTINUOUS
 62
    7
 10
277.06461465491918
 20
330.6414000115027
 11
302.29215742413544
 21
355.86894278071901
  0
CIRCLE
  8
_0-a_極細3
  6
CONTINUOUS
 62
    7
 10
305.69803520398671
 20
380.19439944737502
 40
0.884938271604915
  0
CIRCLE
  8
_0-a_極細3
  6
CONTINUOUS
 62
    7
 10
289.16865248793806
 20
364.2655105584866
 40
0.884938271604915
  0
CIRCLE
  8
_0-a_極細3
  6
CONTINUOUS
 62
    7
 10
306.14050433978957
 20
365.97217722515313
 40
0.884938271604915
  0
CIRCLE
  8
_0-a_極細3
  6
CONTINUOUS
 62
    7
 10
326.33605989534522
 20
369.1010661140416
 40
0.884938271604915
  0
CIRCLE
  8
_0-a_極細3
  6
CONTINUOUS
 62
    7
 10
371.84717100645548
 20
387.87439944737463
 40
0.884938271604915
  0
CIRCLE
  8
_0-a_極細3
  6
CONTINUOUS
 62
    7
 10
411.66939322867734
 20
403.80328833626379
 40
0.884938271604915
  0
CIRCLE
  8
_0-a_極細3
  6
CONTINUOUS
 62
    7
 10
420.7716154508995
 20
377.91884389181911
 40
0.884938271604915
  0
CIRCLE
  8
_0-a_極細3
  6
CONTINUOUS
 62
    7
 10
380.94939322867754
 20
377.06551055848587
 40
0.884938271604915
  0
CIRCLE
  8
_0-a_極細3
  6
CONTINUOUS
 62
    7
 10
362.17605989534468
 20
400.95884389181856
 40
0.884938271604915
  0
CIRCLE
  8
_0-a_極細3
  6
CONTINUOUS
 62
    7
 10
337.44717100645607
 20
357.49217722515283
 40
0.884938271604915
  0
CIRCLE
  8
_0-a_極細3
  6
CONTINUOUS
 62
    7
 10
370.15828211756639
 20
355.50106611404163
 40
0.884938271604915
  0
CIRCLE
  8
_0-a_極細3
  6
CONTINUOUS
 62
    7
 10
410.26494878423296
 20
349.52773278070788
 40
0.884938271604915
  0
CIRCLE
  8
_0-a_極細3
  6
CONTINUOUS
 62
    7
 10
390.06939322867731
 20
340.42551055848577
 40
0.884938271604915
  0
CIRCLE
  8
_0-a_極細3
  6
CONTINUOUS
 62
    7
 10
366.46050433978928
 20
318.80773278070819
 40
0.884938271604915
  0
CIRCLE
  8
_0-a_極細3
  6
CONTINUOUS
 62
    7
 10
410.26494878423296
 20
330.46995500293093
 40
0.884938271604915
  0
CIRCLE
  8
_0-a_極細3
  6
CONTINUOUS
 62
    7
 10
344.48717100645558
 20
287.09217722515291
 40
0.884938271604915
  0
CIRCLE
  8
_0-a_極細3
  6
CONTINUOUS
 62
    7
 10
335.3849487842333
 20
258.3632883362643
 40
0.884938271604915
  0
CIRCLE
  8
_0-a_極細3
  6
CONTINUOUS
 62
    7
 10
349.32272656201133
 20
269.17217722515306
 40
0.884938271604915
  0
CIRCLE
  8
_0-a_極細3
  6
CONTINUOUS
 62
    7
 10
359.27828211756673
 20
255.51884389182055
 40
0.884938271604915
  0
CIRCLE
  8
_0-a_極細3
  6
CONTINUOUS
 62
    7
 10
422.15828211756639
 20
284.14106611404247
 40
0.884938271604915
  0
CIRCLE
  8
_0-a_極細3
  6
CONTINUOUS
 62
    7
 10
404.23828211756665
 20
275.32328833626502
 40
0.884938271604915
  0
CIRCLE
  8
_0-a_極細3
  6
CONTINUOUS
 62
    7
 10
414.19383767312206
 20
271.34106611404241
 40
0.884938271604915
  0
CIRCLE
  8
_0-a_極細3
  6
CONTINUOUS
 62
    7
 10
408.50494878423308
 20
256.54995500293126
 40
0.884938271604915
  0
CIRCLE
  8
_0-a_極細3
  6
CONTINUOUS
 62
    7
 10
440.36272656201072
 20
258.25662166959773
 40
0.884938271604915
  0
CIRCLE
  8
_0-a_極細3
  6
CONTINUOUS
 62
    7
 10
461.127171006455
 20
263.37662166959751
 40
0.884938271604915
  0
CIRCLE
  8
_0-a_極細3
  6
CONTINUOUS
 62
    7
 10
483.02939322867724
 20
239.48328833626488
 40
0.884938271604915
  0
CIRCLE
  8
_0-a_極細3
  6
CONTINUOUS
 62
    7
 10
471.93605989534376
 20
215.58995500293213
 40
0.884938271604915
  0
CIRCLE
  8
_0-a_極細3
  6
CONTINUOUS
 62
    7
 10
445.26939322867725
 20
285.37365870663461
 40
0.884938271604915
  0
CIRCLE
  8
_0-a_極細3
  6
CONTINUOUS
 62
    7
 10
468.87828211756607
 20
339.98699203996773
 40
0.884938271604915
  0
CIRCLE
  8
_0-a_極細3
  6
CONTINUOUS
 62
    7
 10
493.05605989534342
 20
324.05810315107919
 40
0.884938271604915
  0
CIRCLE
  8
_0-a_極細3
  6
CONTINUOUS
 62
    7
 10
493.90939322867666
 20
295.32921426219082
 40
0.884938271604915
  0
CIRCLE
  8
_0-a_極細3
  6
CONTINUOUS
 62
    7
 10
437.51828211756629
 20
342.90254759552306
 40
0.884938271604915
  0
CIRCLE
  8
_0-a_極細3
  6
CONTINUOUS
 62
    7
 10
405.05605989534411
 20
378.07686858317726
 40
2.9208503562902273
  0
CIRCLE
  8
_0-a_極細3
  6
CONTINUOUS
 62
    7
 10
322.23666837304813
 20
389.16425142269406
 40
2.9208503562902273
  0
CIRCLE
  8
_0-a_極細3
  6
CONTINUOUS
 62
    7
 10
400.54050433978887
 20
325.3835352498445
 40
2.9208503562902273
  0
CIRCLE
  8
_0-a_極細3
  6
CONTINUOUS
 62
    7
 10
364.70050433978872
 20
341.5968685831777
 40
2.9208503562902273
  0
CIRCLE
  8
_0-a_極細3
  6
CONTINUOUS
 62
    7
 10
333.34050433978882
 20
280.79686858317837
 40
2.9208503562902273
  0
CIRCLE
  8
_0-a_極細3
  6
CONTINUOUS
 62
    7
 10
418.4605043397878
 20
260.31686858317812
 40
2.9208503562902273
  0
CIRCLE
  8
_0-a_極細3
  6
CONTINUOUS
 62
    7
 10
476.02494878423204
 20
254.55686858317904
 40
2.9208503562902273
  0
CIRCLE
  8
_0-a_極細3
  6
CONTINUOUS
 62
    7
 10
483.70494878423165
 20
224.69020191651259
 40
2.9208503562902273
  0
LINE
  8
_0-a_極細3
  6
CONTINUOUS
 62
    7
 10
419.74901008710253
 20
441.20227611405249
 11
419.74901008710253
 21
422.53560944738535
  0
LINE
  8
_0-a_極細3
  6
CONTINUOUS
 62
    7
 10
419.74901008710253
 20
441.20227611405249
 11
277.06461465491918
 21
441.20227611405249
  0
LINE
  8
_0-a_極細3
  6
CONTINUOUS
 62
    7
 10
433.08234342043625
 20
422.53560944738535
 11
277.06461465491918
 21
422.53560944738535
  0
LINE
  8
_0-a_極細3
  6
CONTINUOUS
 62
    7
 10
433.08234342043625
 20
441.20227611405249
 11
419.74901008710253
 21
441.20227611405249
  0
LINE
  8
_0-a_極細3
  6
CONTINUOUS
 62
    7
 10
433.08234342043625
 20
439.86894278071895
 11
433.08234342043625
 21
441.20227611405249
  0
LINE
  8
_0-a_極細3
  6
CONTINUOUS
 62
    7
 10
432.76539901026081
 20
422.53560944738535
 11
433.08234342043545
 21
422.85255385756
  0
LINE
  8
_0-a_極細3
  6
CONTINUOUS
 62
    7
 10
425.97717391087031
 20
422.53560944738535
 11
433.08234342043625
 21
429.64077895695124
  0
LINE
  8
_0-a_極細3
  6
CONTINUOUS
 62
    7
 10
419.74901008710253
 20
423.09567072300894
 11
433.08234342043625
 21
436.42900405634254
  0
LINE
  8
_0-a_極細3
  6
CONTINUOUS
 62
    7
 10
419.74901008710253
 20
429.8838958223995
 11
431.06739037875491
 21
441.20227611405249
  0
LINE
  8
_0-a_極細3
  6
CONTINUOUS
 62
    7
 10
419.74901008710253
 20
436.67212092179079
 11
424.27916527936441
 21
441.20227611405249
  0
LINE
  8
_0-a_極細3
  6
CONTINUOUS
 62
    7
 10
433.08234342043625
 20
437.552729118439
 11
429.43279642482275
 21
441.20227611405249
  0
LINE
  8
_0-a_極細3
  6
CONTINUOUS
 62
    7
 10
433.08234342043625
 20
430.76450401904776
 11
422.64457132543134
 21
441.20227611405249
  0
LINE
  8
_0-a_極細3
  6
CONTINUOUS
 62
    7
 10
419.74901008710253
 20
437.3096122529908
 11
433.08234342043625
 21
423.97627891965647
  0
LINE
  8
_0-a_極細3
  6
CONTINUOUS
 62
    7
 10
419.74901008710253
 20
430.52138715359951
 11
427.73478779331595
 21
422.53560944738535
  0
LINE
  8
_0-a_極細3
  6
CONTINUOUS
 62
    7
 10
419.74901008710253
 20
423.73316205420821
 11
420.94656269392544
 21
422.53560944738535
  0
LINE
  8
_0-a_極細3
  6
CONTINUOUS
 62
    7
 10
405.61249860289354
 20
422.53560943758174
 11
419.74901008710253
 21
436.67212092179079
  0
LINE
  8
_0-a_極細3
  6
CONTINUOUS
 62
    7
 10
371.67137308240171
 20
422.53560941404402
 11
390.33803978241008
 21
441.20227611405249
  0
LINE
  8
_0-a_極細3
  6
CONTINUOUS
 62
    7
 10
337.73024756190898
 20
422.53560939050556
 11
356.3969142854553
 21
441.20227611405249
  0
LINE
  8
_0-a_極細3
  6
CONTINUOUS
 62
    7
 10
303.78912204141636
 20
422.53560936696709
 11
322.45578878850097
 21
441.20227611405249
  0
LINE
  8
_0-a_極細3
  6
CONTINUOUS
 62
    7
 10
277.06461465491918
 20
429.75222747742419
 11
288.51466329154687
 21
441.20227611405249
  0
LINE
  8
_0-a_極細3
  6
DASHED2
 62
    7
 10
388.64193584264763
 20
422.53560942581288
 11
407.30860253088724
 21
441.20227611405249
  0
LINE
  8
_0-a_極細3
  6
DASHED2
 62
    7
 10
354.70081032215489
 20
422.53560940227442
 11
373.36747703393303
 21
441.20227611405249
  0
LINE
  8
_0-a_極細3
  6
DASHED2
 62
    7
 10
320.75968480166307
 20
422.53560937873669
 11
339.42635153697813
 21
441.20227611405249
  0
LINE
  8
_0-a_極細3
  6
DASHED2
 62
    7
 10
286.81855928117034
 20
422.53560935519897
 11
305.48522604002392
 21
441.20227611405249
  0
CIRCLE
  8
_0-a_極細3
  6
CONTINUOUS
 62
    7
 10
289.16865248793806
 20
411.65711549675734
 40
0.884938271604915
  0
CIRCLE
  8
_0-a_極細3
  6
CONTINUOUS
 62
    7
 10
313.25161545090054
 20
410.7721772251524
 40
0.884938271604915
  0
CIRCLE
  8
_0-a_極細3
  6
CONTINUOUS
 62
    7
 10
385.78494878423339
 20
401.24328833626322
 40
0.884938271604915
  0
CIRCLE
  8
_0-a_極細3
  6
CONTINUOUS
 62
    7
 10
384.57605989534454
 20
408.15686858317758
 40
2.9208503562902273
  0
CIRCLE
  8
_0-a_極細3
  6
CONTINUOUS
 62
    7
 10
289.92134110732115
 20
390.59242413873261
 40
2.9208503562902273
  0
LINE
  8
_0-a_極細3
  6
CONTINUOUS
 62
    7
 10
511.74901008710253
 20
366.53560944738535
 11
513.08234342043625
 21
366.53560944738535
  0
LINE
  8
_0-a_極細3
  6
CONTINUOUS
 62
    7
 10
513.08234342043625
 20
366.53560944738535
 11
513.08234342043625
 21
204.5490489757392
  0
ARC
  8
_0-b_細線3
  6
CONTINUOUS
 62
    7
 10
441.08234342043625
 20
374.53560944738535
 40
7.9999999999999991
 50
179.99999999999983
 51
269.99999999999977
  0
LINE
  8
_0-b_細線3
  6
CONTINUOUS
 62
    7
 10
433.08234342043625
 20
374.53560944738535
 11
433.08234342043625
 21
439.86894278071895
  0
LINE
  8
_0-b_細線3
  6
CONTINUOUS
 62
    7
 10
441.08234342043625
 20
366.53560944738535
 11
511.74901008710253
 21
366.53560944738535
  0
LINE
  8
_0-b_細線3
  6
CONTINUOUS
 62
    7
 10
513.08234342043625
 20
367.86894278071901
 11
511.74901008710253
 21
366.53560944738535
  0
LINE
  8
_0-b_細線3
  6
CONTINUOUS
 62
    7
 10
513.08234342043625
 20
373.20227611405249
 11
513.08234342043625
 21
367.86894278071901
  0
LINE
  8
_0-b_細線3
  6
CONTINUOUS
 62
    7
 10
511.74901008710253
 20
374.53560944738535
 11
513.08234342043625
 21
373.20227611405249
  0
LINE
  8
_0-b_細線3
  6
CONTINUOUS
 62
    7
 10
441.08234342043625
 20
374.53560944738535
 11
511.74901008710253
 21
374.53560944738535
  0
LINE
  8
_0-b_細線3
  6
CONTINUOUS
 62
    7
 10
434.41567675376905
 20
441.20227611405249
 11
433.08234342043625
 21
439.86894278071895
  0
LINE
  8
_0-b_細線3
  6
CONTINUOUS
 62
    7
 10
439.74901008710253
 20
441.20227611405249
 11
434.41567675376905
 21
441.20227611405249
  0
LINE
  8
_0-b_細線3
  6
CONTINUOUS
 62
    7
 10
441.08234342043625
 20
439.86894278071895
 11
439.74901008710253
 21
441.20227611405249
  0
LINE
  8
_0-b_細線3
  6
CONTINUOUS
 62
    7
 10
441.08234342043625
 20
374.53560944738535
 11
441.08234342043625
 21
439.86894278071895
  0
CIRCLE
  8
_0-a_極細3
  6
CONTINUOUS
 62
    7
 10
502.0624487842299
 20
340.95686858317828
 40
2.9208503562902273
  0
CIRCLE
  8
_0-a_極細3
  6
CONTINUOUS
 62
    7
 10
500.4753191546024
 20
253.42106611404279
 40
0.884938271604915
  0
CIRCLE
  8
_0-a_極細3
  6
CONTINUOUS
 62
    7
 10
502.60865248793675
 20
217.17135246097064
 40
0.884938271604915
  0
CIRCLE
  8
_0-a_極細3
  6
CONTINUOUS
 62
    7
 10
482.81605989533682
 20
310.37909080540089
 40
2.9208503562902273
  0
LINE
  8
_0-a_極細3
  6
CONTINUOUS
 62
    7
 10
1233.0823434204365
 20
355.86894278071901
 11
1233.0823434204365
 21
246.53560944738535
  0
LINE
  8
_0-a_極細3
  6
CONTINUOUS
 62
    7
 10
1099.749010087103
 20
246.53560944738535
 11
1233.0823434204365
 21
246.53560944738535
  0
LINE
  8
_0-a_極細3
  6
CONTINUOUS
 62
    7
 10
1233.0823434204365
 20
355.86894278071901
 11
1282.4334055192865
 21
355.86894278071901
  0
LINE
  8
_0-a_極細3
  6
CONTINUOUS
 62
    7
 10
1099.749010087103
 20
246.53560944738535
 11
1099.749010087103
 21
204.5490489757392
  0
LINE
  8
_0-a_極細3
  6
CONTINUOUS
 62
    7
 10
1246.3463472837852
 20
204.5490489757392
 11
1282.4334055857514
 21
240.63610727770538
  0
LINE
  8
_0-a_極細3
  6
CONTINUOUS
 62
    7
 10
1133.2092622939374
 20
204.5490489757392
 11
1175.1958227655837
 21
246.53560944738535
  0
LINE
  8
_0-a_極細3
  6
CONTINUOUS
 62
    7
 10
1233.0823434204365
 20
304.42213010223759
 11
1282.4334055204956
 21
353.77319220229663
  0
LINE
  8
_0-a_極細3
  6
CONTINUOUS
 62
    7
 10
1235.0326387847999
 20
204.5490489757392
 11
1282.4334055792258
 21
251.94981577016415
  0
LINE
  8
_0-a_極細3
  6
CONTINUOUS
 62
    7
 10
1121.8955537949521
 20
204.5490489757392
 11
1163.882114266599
 21
246.53560944738535
  0
LINE
  8
_0-a_極細3
  6
CONTINUOUS
 62
    7
 10
1233.0823434204365
 20
315.73583860122278
 11
1273.2154473126518
 21
355.86894249343874
  0
LINE
  8
_0-a_極細3
  6
CONTINUOUS
 62
    7
 10
1223.7189302858155
 20
204.5490489757392
 11
1282.4334055726999
 21
263.2635242626236
  0
LINE
  8
_0-a_極細3
  6
CONTINUOUS
 62
    7
 10
1110.5818452959677
 20
204.5490489757392
 11
1152.5684057676146
 21
246.53560944738535
  0
LINE
  8
_0-a_極細3
  6
CONTINUOUS
 62
    7
 10
1233.0823434204365
 20
327.04954710020729
 11
1261.9017388946529
 21
355.86894257442447
  0
CIRCLE
  8
_0-a_極細3
  6
CONTINUOUS
 62
    7
 10
1077.9982821175631
 20
340.70254759552307
 40
0.884938271604915
  0
CIRCLE
  8
_0-a_極細3
  6
CONTINUOUS
 62
    7
 10
1087.3849487842301
 20
308.41810315107909
 40
0.884938271604915
  0
CIRCLE
  8
_0-a_極細3
  6
CONTINUOUS
 62
    7
 10
1115.4382821175627
 20
281.18254759552337
 40
0.884938271604915
  0
CIRCLE
  8
_0-a_極細3
  6
CONTINUOUS
 62
    7
 10
1086.9049487842299
 20
243.90254759552454
 40
0.884938271604915
  0
CIRCLE
  8
_0-a_極細3
  6
CONTINUOUS
 62
    7
 10
1071.9716154508969
 20
215.31588092885772
 40
0.884938271604915
  0
CIRCLE
  8
_0-a_極細3
  6
CONTINUOUS
 62
    7
 10
1090.3182821175628
 20
263.10254759552458
 40
0.884938271604915
  0
CIRCLE
  8
_0-a_極細3
  6
CONTINUOUS
 62
    7
 10
1112.5049487842291
 20
255.42254759552429
 40
0.884938271604915
  0
CIRCLE
  8
_0-a_極細3
  6
CONTINUOUS
 62
    7
 10
1155.5982821175626
 20
255.84921426219057
 40
0.884938271604915
  0
CIRCLE
  8
_0-a_極細3
  6
CONTINUOUS
 62
    7
 10
1136.3982821175625
 20
270.355880928857
 40
0.884938271604915
  0
CIRCLE
  8
_0-a_極細3
  6
CONTINUOUS
 62
    7
 10
1154.3182821175621
 20
279.31588092885772
 40
0.884938271604915
  0
CIRCLE
  8
_0-a_極細3
  6
CONTINUOUS
 62
    7
 10
1139.1360598953397
 20
397.75143648441127
 40
0.884938271604915
  0
CIRCLE
  8
_0-a_極細3
  6
CONTINUOUS
 62
    7
 10
1135.153837673118
 20
366.17810315107897
 40
0.884938271604915
  0
CIRCLE
  8
_0-a_極細3
  6
CONTINUOUS
 62
    7
 10
1168.0071710064506
 20
365.04032537330028
 40
0.884938271604915
  0
CIRCLE
  8
_0-a_極細3
  6
CONTINUOUS
 62
    7
 10
1149.4471710064506
 20
342.6403253733011
 40
0.884938271604915
  0
CIRCLE
  8
_0-a_極細3
  6
CONTINUOUS
 62
    7
 10
1212.1671710064504
 20
257.52032537330206
 40
0.884938271604915
  0
CIRCLE
  8
_0-a_極細3
  6
CONTINUOUS
 62
    7
 10
1221.1271710064502
 20
313.20032537330087
 40
0.884938271604915
  0
CIRCLE
  8
_0-a_極細3
  6
CONTINUOUS
 62
    7
 10
1192.3271710064503
 20
347.12032537330066
 40
0.884938271604915
  0
CIRCLE
  8
_0-a_極細3
  6
CONTINUOUS
 62
    7
 10
1219.2071710064499
 20
378.48032537330045
 40
0.884938271604915
  0
CIRCLE
  8
_0-a_極細3
  6
CONTINUOUS
 62
    7
 10
1214.7271710064504
 20
335.6003253733009
 40
0.884938271604915
  0
CIRCLE
  8
_0-a_極細3
  6
CONTINUOUS
 62
    7
 10
1262.0871710064494
 20
369.52032537330058
 40
0.884938271604915
  0
CIRCLE
  8
_0-a_極細3
  6
CONTINUOUS
 62
    7
 10
1254.4071710064491
 20
391.55242413873322
 40
2.9208503562902273
  0
CIRCLE
  8
_0-a_極細3
  6
CONTINUOUS
 62
    7
 10
1229.3760598953384
 20
366.80575747206655
 40
2.9208503562902273
  0
CIRCLE
  8
_0-a_極細3
  6
CONTINUOUS
 62
    7
 10
1140.7005043397839
 20
377.33020191651059
 40
2.9208503562902273
  0
CIRCLE
  8
_0-a_極細3
  6
CONTINUOUS
 62
    7
 10
1191.9005043397833
 20
326.13020191651128
 40
2.9208503562902273
  0
CIRCLE
  8
_0-a_極細3
  6
CONTINUOUS
 62
    7
 10
1079.2693932286747
 20
254.85020191651245
 40
2.9208503562902273
  0
CIRCLE
  8
_0-a_極細3
  6
CONTINUOUS
 62
    7
 10
1095.6249487842297
 20
302.63686858317783
 40
2.9208503562902273
  0
CIRCLE
  8
_0-a_極細3
  6
CONTINUOUS
 62
    7
 10
1151.9449487842285
 20
266.79686858317837
 40
2.9208503562902273
  0
CIRCLE
  8
_0-a_極細3
  6
CONTINUOUS
 62
    7
 10
1225.9692570006825
 20
250.49758475602698
 40
2.9208503562902273
  0
CIRCLE
  8
_0-a_極細3
  6
CONTINUOUS
 62
    7
 10
1144.9049487842283
 20
335.91686858317814
 40
2.9208503562902273
  0
CIRCLE
  8
_0-a_極細3
  6
CONTINUOUS
 62
    7
 10
1068.9592697718845
 20
327.23973993192021
 40
0.884938271604915
  0
CIRCLE
  8
_0-a_極細3
  6
CONTINUOUS
 62
    7
 10
1069.2792697718855
 20
288.91085104303102
 40
0.884938271604915
  0
LINE
  8
_0-a_極細3
  6
CONTINUOUS
 62
    7
 10
1139.749010087103
 20
441.20227611405249
 11
1139.749010087103
 21
422.53560944738535
  0
LINE
  8
_0-a_極細3
  6
CONTINUOUS
 62
    7
 10
1139.749010087103
 20
441.20227611405249
 11
1282.4334055192865
 21
441.20227611405249
  0
LINE
  8
_0-a_極細3
  6
CONTINUOUS
 62
    7
 10
1126.4156767537695
 20
422.53560944738535
 11
1282.4334055192865
 21
422.53560944738535
  0
LINE
  8
_0-a_極細3
  6
CONTINUOUS
 62
    7
 10
1126.4156767537695
 20
441.20227611405249
 11
1139.749010087103
 21
441.20227611405249
  0
LINE
  8
_0-a_極細3
  6
CONTINUOUS
 62
    7
 10
1126.4156767537695
 20
439.86894278071895
 11
1126.4156767537695
 21
441.20227611405249
  0
LINE
  8
_0-a_極細3
  6
CONTINUOUS
 62
    7
 10
1139.749010087103
 20
428.40614749654458
 11
1133.8784720379431
 21
422.53560944738535
  0
LINE
  8
_0-a_極細3
  6
CONTINUOUS
 62
    7
 10
1139.749010087103
 20
435.19437259593587
 11
1127.0902469385526
 21
422.53560944738535
  0
LINE
  8
_0-a_極細3
  6
CONTINUOUS
 62
    7
 10
1126.4156767537695
 20
428.64926436199357
 11
1138.9686885058284
 21
441.20227611405249
  0
LINE
  8
_0-a_極細3
  6
CONTINUOUS
 62
    7
 10
1126.4156767537695
 20
435.43748946138481
 11
1132.1804634064372
 21
441.20227611405249
  0
LINE
  8
_0-a_極細3
  6
CONTINUOUS
 62
    7
 10
1139.749010087103
 20
438.7873605788435
 11
1137.3340945518939
 21
441.20227611405249
  0
LINE
  8
_0-a_極細3
  6
CONTINUOUS
 62
    7
 10
1139.749010087103
 20
431.99913547945295
 11
1130.5458694525034
 21
441.20227611405249
  0
LINE
  8
_0-a_極細3
  6
CONTINUOUS
 62
    7
 10
1139.749010087103
 20
425.2109103800617
 11
1126.4156767537695
 21
438.54424371339525
  0
LINE
  8
_0-a_極細3
  6
CONTINUOUS
 62
    7
 10
1135.636085920388
 20
422.53560944738535
 11
1126.4156767537695
 21
431.75601861400474
  0
LINE
  8
_0-a_極細3
  6
CONTINUOUS
 62
    7
 10
1128.8478608209975
 20
422.53560944738535
 11
1126.4156767537695
 21
424.96779351461345
  0
LINE
  8
_0-a_極細3
  6
CONTINUOUS
 62
    7
 10
1249.2782987275882
 20
422.53560944738535
 11
1267.944964391392
 21
441.20227511118981
  0
LINE
  8
_0-a_極細3
  6
CONTINUOUS
 62
    7
 10
1215.3371732306332
 20
422.53560944738535
 11
1234.0038391599555
 21
441.20227537670695
  0
LINE
  8
_0-a_極細3
  6
CONTINUOUS
 62
    7
 10
1181.3960477336791
 20
422.53560944738535
 11
1200.0627139285186
 21
441.20227564222483
  0
LINE
  8
_0-a_極細3
  6
CONTINUOUS
 62
    7
 10
1147.4549222367248
 20
422.53560944738535
 11
1166.1215886970822
 21
441.20227590774272
  0
LINE
  8
_0-a_極細3
  6
DASHED2
 62
    7
 10
1266.2488614760653
 20
422.53560944738535
 11
1282.4334055192865
 21
438.72015349060649
  0
LINE
  8
_0-a_極細3
  6
DASHED2
 62
    7
 10
1232.3077359791102
 20
422.53560944738535
 11
1250.9744017756741
 21
441.20227524394841
  0
LINE
  8
_0-a_極細3
  6
DASHED2
 62
    7
 10
1198.3666104821561
 20
422.53560944738535
 11
1217.033276544237
 21
441.20227550946629
  0
LINE
  8
_0-a_極細3
  6
DASHED2
 62
    7
 10
1164.425484985202
 20
422.53560944738535
 11
1183.0921513128001
 21
441.20227577498417
  0
LINE
  8
_0-a_極細3
  6
DASHED2
 62
    7
 10
1139.749010087103
 20
431.80026004624057
 11
1149.1510260813636
 21
441.20227604050132
  0
CIRCLE
  8
_0-a_極細3
  6
CONTINUOUS
 62
    7
 10
1268.4871710064494
 20
404.29365870663361
 40
0.884938271604915
  0
CIRCLE
  8
_0-a_極細3
  6
CONTINUOUS
 62
    7
 10
1241.6071710064498
 20
404.29365870663361
 40
0.884938271604915
  0
CIRCLE
  8
_0-a_極細3
  6
CONTINUOUS
 62
    7
 10
1198.7271710064504
 20
408.77365870663317
 40
0.884938271604915
  0
CIRCLE
  8
_0-a_極細3
  6
CONTINUOUS
 62
    7
 10
1216.8605043397831
 20
405.70353524984358
 40
2.9208503562902273
  0
CIRCLE
  8
_0-a_極細3
  6
CONTINUOUS
 62
    7
 10
1192.3271710064503
 20
396.18699203996772
 40
0.884938271604915
  0
CIRCLE
  8
_0-a_極細3
  6
CONTINUOUS
 62
    7
 10
1192.5405043397834
 20
386.07686858317726
 40
2.9208503562902273
  0
CIRCLE
  8
_0-a_極細3
  6
CONTINUOUS
 62
    7
 10
1158.4071710064507
 20
405.786992039967
 40
0.884938271604915
  0
LINE
  8
_0-a_極細3
  6
CONTINUOUS
 62
    7
 10
1047.7490100871023
 20
366.53560944738535
 11
1046.4156767537693
 21
366.53560944738535
  0
LINE
  8
_0-a_極細3
  6
CONTINUOUS
 62
    7
 10
1046.4156767537693
 20
366.53560944738535
 11
1046.4156767537693
 21
204.5490489757392
  0
ARC
  8
_0-b_細線3
  6
CONTINUOUS
 62
    7
 10
1118.4156767537695
 20
374.53560944738535
 40
7.9999999999999991
 50
269.99999999999977
 51
359.99999999999966
  0
LINE
  8
_0-b_細線3
  6
CONTINUOUS
 62
    7
 10
1126.4156767537695
 20
374.53560944738535
 11
1126.4156767537695
 21
439.86894278071895
  0
LINE
  8
_0-b_細線3
  6
CONTINUOUS
 62
    7
 10
1118.4156767537695
 20
366.53560944738535
 11
1047.7490100871023
 21
366.53560944738535
  0
LINE
  8
_0-b_細線3
  6
CONTINUOUS
 62
    7
 10
1046.4156767537693
 20
367.86894278071901
 11
1047.7490100871023
 21
366.53560944738535
  0
LINE
  8
_0-b_細線3
  6
CONTINUOUS
 62
    7
 10
1046.4156767537693
 20
373.20227611405249
 11
1046.4156767537693
 21
367.86894278071901
  0
LINE
  8
_0-b_細線3
  6
CONTINUOUS
 62
    7
 10
1047.7490100871023
 20
374.53560944738535
 11
1046.4156767537693
 21
373.20227611405249
  0
LINE
  8
_0-b_細線3
  6
CONTINUOUS
 62
    7
 10
1118.4156767537695
 20
374.53560944738535
 11
1047.7490100871023
 21
374.53560944738535
  0
LINE
  8
_0-b_細線3
  6
CONTINUOUS
 62
    7
 10
1125.0823434204365
 20
441.20227611405249
 11
1126.4156767537695
 21
439.86894278071895
  0
LINE
  8
_0-b_細線3
  6
CONTINUOUS
 62
    7
 10
1119.749010087103
 20
441.20227611405249
 11
1125.0823434204365
 21
441.20227611405249
  0
LINE
  8
_0-b_細線3
  6
CONTINUOUS
 62
    7
 10
1118.4156767537695
 20
439.86894278071895
 11
1119.749010087103
 21
441.20227611405249
  0
LINE
  8
_0-b_細線3
  6
CONTINUOUS
 62
    7
 10
1118.4156767537695
 20
374.53560944738535
 11
1118.4156767537695
 21
439.86894278071895
  0
CIRCLE
  8
_0-a_極細3
  6
CONTINUOUS
 62
    7
 10
1055.9907101011026
 20
302.44476981774619
 40
0.884938271604915
  0
CIRCLE
  8
_0-a_極細3
  6
CONTINUOUS
 62
    7
 10
1058.0812450805265
 20
239.63588092885743
 40
0.884938271604915
  0
CIRCLE
  8
_0-a_極細3
  6
CONTINUOUS
 62
    7
 10
1057.0590228583033
 20
345.16131302762341
 40
2.9208503562902273
  0
CIRCLE
  8
_0-a_極細3
  6
CONTINUOUS
 62
    7
 10
1061.77605989534
 20
228.96575747206703
 40
2.9208503562902273
  0
LINE
  8
_0-d_寸法3
  6
CONTINUOUS
 62
    7
 10
433.08234342043625
 20
449.20227611405249
 11
433.08234342043625
 21
625.20227344470095
  0
LINE
  8
_0-d_寸法3
  6
CONTINUOUS
 62
    7
 10
433.08234342043625
 20
617.20227344470095
 11
448.5371566410613
 21
621.34337816634127
  0
LINE
  8
_0-d_寸法3
  6
CONTINUOUS
 62
    7
 10
433.08234342043625
 20
617.20227344470095
 11
448.5371566410613
 21
613.06116872306063
  0
LINE
  8
_0-d_寸法3
  6
CONTINUOUS
 62
    7
 10
1126.4156767537695
 20
449.20227611405249
 11
1126.4156767537702
 21
625.20227344470095
  0
LINE
  8
_0-d_寸法3
  6
CONTINUOUS
 62
    7
 10
1126.4156767537702
 20
617.20227344470095
 11
1110.9608635331451
 21
613.06116872306063
  0
LINE
  8
_0-d_寸法3
  6
CONTINUOUS
 62
    7
 10
1126.4156767537702
 20
617.20227344470095
 11
1110.9608635331451
 21
621.34337816634138
  0
LINE
  8
_0-d_寸法3
  6
CONTINUOUS
 62
    7
 10
433.08234342043625
 20
617.20227344470095
 11
1126.4156767537702
 21
617.20227344470095
  0
TEXT
  8
_0-d_寸法3
 62
    7
 10
761.74901008710299
 20
617.20227344470095
 40
24
 41
1
 50
0
  1
260
  0
LINE
  8
_0-d_寸法3
  6
CONTINUOUS
 62
    7
 10
915.74901008999666
 20
457.20227611405181
 11
915.74901008999666
 21
523.86894278071827
  0
LINE
  8
_0-d_寸法3
  6
CONTINUOUS
 62
    7
 10
915.74901008999666
 20
515.86894278071827
 11
931.20382331062171
 21
520.01004750235859
  0
LINE
  8
_0-d_寸法3
  6
CONTINUOUS
 62
    7
 10
915.74901008999666
 20
515.86894278071827
 11
931.20382331062171
 21
511.72783805907795
  0
LINE
  8
_0-d_寸法3
  6
CONTINUOUS
 62
    7
 10
961.082343424295
 20
457.20227611405181
 11
961.082343424295
 21
523.86894278071827
  0
LINE
  8
_0-d_寸法3
  6
CONTINUOUS
 62
    7
 10
961.082343424295
 20
515.86894278071827
 11
945.62753020366995
 21
511.72783805907801
  0
LINE
  8
_0-d_寸法3
  6
CONTINUOUS
 62
    7
 10
961.082343424295
 20
515.86894278071827
 11
945.62753020366995
 21
520.0100475023587
  0
LINE
  8
_0-d_寸法3
  6
CONTINUOUS
 62
    7
 10
915.74901008999666
 20
515.86894278071827
 11
961.082343424295
 21
515.86894278071827
  0
TEXT
  8
_0-d_寸法3
 62
    7
 10
912.56611308897845
 20
491.86894278071827
 40
24
 41
1
 50
0
  1
(17)
  0
LINE
  8
_0-d_寸法3
  6
CONTINUOUS
 62
    7
 10
961.082343424295
 20
515.86894278071827
 11
976.53715664492017
 21
520.01004750235847
  0
LINE
  8
_0-d_寸法3
  6
CONTINUOUS
 62
    7
 10
961.082343424295
 20
515.86894278071827
 11
976.53715664492006
 21
511.72783805907784
  0
LINE
  8
_0-d_寸法3
  6
CONTINUOUS
 62
    7
 10
1006.4156767585933
 20
457.20227611405181
 11
1006.4156767585933
 21
523.86894278071827
  0
LINE
  8
_0-d_寸法3
  6
CONTINUOUS
 62
    7
 10
1006.4156767585933
 20
515.86894278071827
 11
990.96086353796829
 21
511.72783805907801
  0
LINE
  8
_0-d_寸法3
  6
CONTINUOUS
 62
    7
 10
1006.4156767585933
 20
515.86894278071827
 11
990.96086353796829
 21
520.0100475023587
  0
LINE
  8
_0-d_寸法3
  6
CONTINUOUS
 62
    7
 10
961.082343424295
 20
515.86894278071827
 11
1006.4156767585933
 21
515.86894278071827
  0
TEXT
  8
_0-d_寸法3
 62
    7
 10
961.20611308897867
 20
515.86894278071827
 40
24
 41
1
 50
0
  1
(17)
  0
LINE
  8
_0-d_寸法3
  6
CONTINUOUS
 62
    7
 10
613.6156767469671
 20
451.86894278071821
 11
613.6156767469671
 21
523.86894278071827
  0
LINE
  8
_0-d_寸法3
  6
CONTINUOUS
 62
    7
 10
613.6156767469671
 20
515.86894278071827
 11
598.16086352634204
 21
511.72783805907801
  0
LINE
  8
_0-d_寸法3
  6
CONTINUOUS
 62
    7
 10
613.6156767469671
 20
515.86894278071827
 11
598.16086352634204
 21
520.0100475023587
  0
LINE
  8
_0-d_寸法3
  6
CONTINUOUS
 62
    7
 10
628.54901008715103
 20
451.86894278071821
 11
628.54901008715103
 21
523.86894278071827
  0
LINE
  8
_0-d_寸法3
  6
CONTINUOUS
 62
    7
 10
550.61734765389997
 20
515.86894278071827
 11
628.54901008715103
 21
515.86894278071827
  0
TEXT
  8
_0-d_寸法3
 62
    7
 10
550.61734765389997
 20
491.86894278071827
 40
24
 41
1
 50
0
  1
(5.6)
  0
LINE
  8
_0-d_寸法3
  6
CONTINUOUS
 62
    7
 10
628.54901008715103
 20
515.86894278071827
 11
644.00382330777609
 21
520.01004750235859
  0
LINE
  8
_0-d_寸法3
  6
CONTINUOUS
 62
    7
 10
628.54901008715103
 20
515.86894278071827
 11
644.00382330777609
 21
511.72783805907795
  0
LINE
  8
_0-d_寸法3
  6
CONTINUOUS
 62
    7
 10
658.94901008126476
 20
451.86894278071821
 11
658.94901008126476
 21
523.86894278071827
  0
LINE
  8
_0-d_寸法3
  6
CONTINUOUS
 62
    7
 10
658.94901008126476
 20
515.86894278071827
 11
643.4941968606397
 21
511.72783805907801
  0
LINE
  8
_0-d_寸法3
  6
CONTINUOUS
 62
    7
 10
658.94901008126476
 20
515.86894278071827
 11
643.4941968606397
 21
520.0100475023587
  0
LINE
  8
_0-d_寸法3
  6
CONTINUOUS
 62
    7
 10
628.54901008715103
 20
515.86894278071827
 11
658.94901008126476
 21
515.86894278071827
  0
TEXT
  8
_0-d_寸法3
 62
    7
 10
613.72549580204793
 20
515.86894278071827
 40
24
 41
1
 50
0
  1
11.4
  0
ARC
  8
_0-b_細線3
  6
CONTINUOUS
 62
    7
 10
903.21567675960614
 20
435.86894278071821
 40
2.6666666666666674
 50
89.999999999999915
 51
179.99999999999983
  0
ARC
  8
_0-b_細線3
  6
CONTINUOUS
 62
    7
 10
904.46354126981316
 20
441.20227611405181
 40
2.6666666666666674
 50
269.99999999999977
 51
329.9999999999946
  0
ARC
  8
_0-b_細線3
  6
CONTINUOUS
 62
    7
 10
909.08234342333026
 20
438.53560944738535
 40
2.6666666666666674
 50
89.999999999999915
 51
150.00000000000992
  0
LINE
  8
_0-b_細線3
  6
CONTINUOUS
 62
    7
 10
903.21567675960614
 20
438.53560944738535
 11
904.46354126981316
 21
438.53560944738535
  0
ARC
  8
_0-b_細線3
  6
CONTINUOUS
 62
    7
 10
928.28234342038786
 20
435.86894278071821
 40
2.6666666666666674
 50
0
 51
89.999999999999915
  0
ARC
  8
_0-b_細線3
  6
CONTINUOUS
 62
    7
 10
927.03447891018084
 20
441.20227611405181
 40
2.6666666666666674
 50
210.00000000000469
 51
269.99999999999977
  0
ARC
  8
_0-b_細線3
  6
CONTINUOUS
 62
    7
 10
922.41567675666374
 20
438.53560944738535
 40
2.6666666666666674
 50
29.999999999990099
 51
89.999999999999901
  0
LINE
  8
_0-b_細線3
  6
CONTINUOUS
 62
    7
 10
928.28234342038786
 20
438.53560944738535
 11
927.03447891018084
 21
438.53560944738535
  0
ARC
  8
_0-b_細線3
  6
CONTINUOUS
 62
    7
 10
901.88234342627334
 20
432.13560944738538
 40
1.3333333333333337
 50
179.99999999999983
 51
269.99999999999977
  0
LINE
  8
_0-b_細線3
  6
CONTINUOUS
 62
    7
 10
900.54901009293974
 20
435.86894278071821
 11
900.54901009293974
 21
432.13560944738538
  0
ARC
  8
_0-b_細線3
  6
CONTINUOUS
 62
    7
 10
929.61567675372066
 20
432.13560944738538
 40
1.3333333333333337
 50
269.99999999999977
 51
359.99999999999966
  0
LINE
  8
_0-b_細線3
  6
CONTINUOUS
 62
    7
 10
930.94901008705426
 20
435.86894278071821
 11
930.94901008705426
 21
432.13560944738538
  0
ARC
  8
_0-b_細線3
  6
CONTINUOUS
 62
    7
 10
908.54901009293974
 20
428.13560944738538
 40
2.6666666666666674
 50
0
 51
89.999999999999915
  0
LINE
  8
_0-b_細線3
  6
CONTINUOUS
 62
    7
 10
908.54901009293974
 20
430.80227611405178
 11
901.88234342627334
 21
430.80227611405178
  0
ARC
  8
_0-b_細線3
  6
CONTINUOUS
 62
    7
 10
922.94901009293972
 20
428.13560944738538
 40
2.6666666666666674
 50
89.999999999999915
 51
179.99999999999983
  0
LINE
  8
_0-b_細線3
  6
CONTINUOUS
 62
    7
 10
922.94901008705347
 20
430.80227611405178
 11
929.61567675372066
 21
430.80227611405178
  0
LINE
  8
_0-b_細線3
  6
CONTINUOUS
 62
    7
 10
922.41567675666374
 20
441.20227611405181
 11
909.08234342333026
 21
441.20227611405181
  0
LINE
  8
_0-b_細線3
  6
CONTINUOUS
 62
    7
 10
911.21567675666381
 20
374.53560944738535
 11
911.21567675960614
 21
428.13560944738538
  0
LINE
  8
_0-b_細線3
  6
CONTINUOUS
 62
    7
 10
920.28234342333019
 20
374.53560944738535
 11
920.28234342627331
 21
428.13560944738538
  0
LINE
  8
_0-b_細線3
  6
CONTINUOUS
 62
    7
 10
920.28234342333019
 20
374.53560944738535
 11
911.21567675666381
 21
374.53560944738535
  0
ARC
  8
_0-b_細線3
  6
CONTINUOUS
 62
    7
 10
857.88234342530859
 20
435.86894278071821
 40
2.6666666666666674
 50
89.999999999999915
 51
179.99999999999983
  0
ARC
  8
_0-b_細線3
  6
CONTINUOUS
 62
    7
 10
859.13020793551516
 20
441.20227611405181
 40
2.6666666666666674
 50
269.99999999999977
 51
329.9999999999946
  0
ARC
  8
_0-b_細線3
  6
CONTINUOUS
 62
    7
 10
863.74901008903225
 20
438.53560944738535
 40
2.6666666666666674
 50
89.999999999999915
 51
150.00000000000992
  0
LINE
  8
_0-b_細線3
  6
CONTINUOUS
 62
    7
 10
857.88234342530859
 20
438.53560944738535
 11
859.13020793551516
 21
438.53560944738535
  0
ARC
  8
_0-b_細線3
  6
CONTINUOUS
 62
    7
 10
882.94901008608906
 20
435.86894278071821
 40
2.6666666666666674
 50
0
 51
89.999999999999915
  0
ARC
  8
_0-b_細線3
  6
CONTINUOUS
 62
    7
 10
881.70114557588249
 20
441.20227611405181
 40
2.6666666666666674
 50
209.9999999999998
 51
269.99999999999977
  0
ARC
  8
_0-b_細線3
  6
CONTINUOUS
 62
    7
 10
877.0823434223654
 20
438.53560944738535
 40
2.6666666666666674
 50
29.999999999994984
 51
89.999999999999901
  0
LINE
  8
_0-b_細線3
  6
CONTINUOUS
 62
    7
 10
882.94901008608906
 20
438.53560944738535
 11
881.70114557588249
 21
438.53560944738535
  0
ARC
  8
_0-b_細線3
  6
CONTINUOUS
 62
    7
 10
856.54901009197533
 20
432.13560944738538
 40
1.3333333333333337
 50
179.99999999999983
 51
269.99999999999977
  0
LINE
  8
_0-b_細線3
  6
CONTINUOUS
 62
    7
 10
855.21567675864173
 20
435.86894278071821
 11
855.21567675864173
 21
432.13560944738538
  0
ARC
  8
_0-b_細線3
  6
CONTINUOUS
 62
    7
 10
884.28234341942266
 20
432.13560944738538
 40
1.3333333333333337
 50
269.99999999999977
 51
359.99999999999966
  0
LINE
  8
_0-b_細線3
  6
CONTINUOUS
 62
    7
 10
885.61567675275592
 20
435.86894278071821
 11
885.61567675275592
 21
432.13560944738538
  0
ARC
  8
_0-b_細線3
  6
CONTINUOUS
 62
    7
 10
863.21567675864173
 20
428.13560944738538
 40
2.6666666666666674
 50
0
 51
89.999999999999915
  0
LINE
  8
_0-b_細線3
  6
CONTINUOUS
 62
    7
 10
863.21567675864173
 20
430.80227611405178
 11
856.54901009197533
 21
430.80227611405178
  0
ARC
  8
_0-b_細線3
  6
CONTINUOUS
 62
    7
 10
877.61567675864217
 20
428.13560944738538
 40
2.6666666666666674
 50
89.999999999999915
 51
179.99999999999983
  0
LINE
  8
_0-b_細線3
  6
CONTINUOUS
 62
    7
 10
877.61567675275592
 20
430.80227611405178
 11
884.28234341942266
 21
430.80227611405178
  0
LINE
  8
_0-b_細線3
  6
CONTINUOUS
 62
    7
 10
877.0823434223654
 20
441.20227611405181
 11
863.74901008903225
 21
441.20227611405181
  0
LINE
  8
_0-b_細線3
  6
CONTINUOUS
 62
    7
 10
865.88234342236547
 20
374.53560944738535
 11
865.88234342530859
 21
428.13560944738538
  0
LINE
  8
_0-b_細線3
  6
CONTINUOUS
 62
    7
 10
874.94901008903219
 20
374.53560944738535
 11
874.94901009197531
 21
428.13560944738538
  0
LINE
  8
_0-b_細線3
  6
CONTINUOUS
 62
    7
 10
874.94901008903219
 20
374.53560944738535
 11
865.88234342236547
 21
374.53560944738535
  0
ARC
  8
_0-b_細線3
  6
CONTINUOUS
 62
    7
 10
812.54901009101013
 20
435.86894278071821
 40
2.6666666666666674
 50
89.999999999999915
 51
179.99999999999983
  0
ARC
  8
_0-b_細線3
  6
CONTINUOUS
 62
    7
 10
813.79687460121716
 20
441.20227611405181
 40
2.6666666666666674
 50
269.99999999999977
 51
329.9999999999946
  0
ARC
  8
_0-b_細線3
  6
CONTINUOUS
 62
    7
 10
818.41567675473425
 20
438.53560944738535
 40
2.6666666666666674
 50
89.999999999999915
 51
150.00000000000992
  0
LINE
  8
_0-b_細線3
  6
CONTINUOUS
 62
    7
 10
812.54901009101013
 20
438.53560944738535
 11
813.79687460121716
 21
438.53560944738535
  0
ARC
  8
_0-b_細線3
  6
CONTINUOUS
 62
    7
 10
837.61567675179106
 20
435.86894278071821
 40
2.6666666666666674
 50
0
 51
89.999999999999915
  0
ARC
  8
_0-b_細線3
  6
CONTINUOUS
 62
    7
 10
836.36781224158403
 20
441.20227611405181
 40
2.6666666666666674
 50
210.00000000000469
 51
269.99999999999977
  0
ARC
  8
_0-b_細線3
  6
CONTINUOUS
 62
    7
 10
831.74901008806705
 20
438.53560944738535
 40
2.6666666666666674
 50
29.999999999991321
 51
89.999999999985349
  0
LINE
  8
_0-b_細線3
  6
CONTINUOUS
 62
    7
 10
837.61567675179106
 20
438.53560944738535
 11
836.36781224158403
 21
438.53560944738535
  0
ARC
  8
_0-b_細線3
  6
CONTINUOUS
 62
    7
 10
811.21567675767665
 20
432.13560944738538
 40
1.3333333333333337
 50
179.99999999999983
 51
269.99999999999977
  0
LINE
  8
_0-b_細線3
  6
CONTINUOUS
 62
    7
 10
809.88234342434373
 20
435.86894278071821
 11
809.88234342434373
 21
432.13560944738538
  0
ARC
  8
_0-b_細線3
  6
CONTINUOUS
 62
    7
 10
838.94901008512466
 20
432.13560944738538
 40
1.3333333333333337
 50
269.99999999999977
 51
359.99999999999966
  0
LINE
  8
_0-b_細線3
  6
CONTINUOUS
 62
    7
 10
840.28234341845746
 20
435.86894278071821
 11
840.28234341845746
 21
432.13560944738538
  0
ARC
  8
_0-b_細線3
  6
CONTINUOUS
 62
    7
 10
817.88234342434373
 20
428.13560944738538
 40
2.6666666666666674
 50
0
 51
89.999999999999915
  0
LINE
  8
_0-b_細線3
  6
CONTINUOUS
 62
    7
 10
817.88234342434373
 20
430.80227611405178
 11
811.21567675767665
 21
430.80227611405178
  0
ARC
  8
_0-b_細線3
  6
CONTINUOUS
 62
    7
 10
832.28234342434371
 20
428.13560944738538
 40
2.6666666666666674
 50
89.999999999999915
 51
179.99999999999983
  0
LINE
  8
_0-b_細線3
  6
CONTINUOUS
 62
    7
 10
832.28234341845746
 20
430.80227611405178
 11
838.94901008512466
 21
430.80227611405178
  0
LINE
  8
_0-b_細線3
  6
CONTINUOUS
 62
    7
 10
831.74901008806705
 20
441.20227611405181
 11
818.41567675473425
 21
441.20227611405181
  0
LINE
  8
_0-b_細線3
  6
CONTINUOUS
 62
    7
 10
820.54901008806701
 20
374.53560944738535
 11
820.54901009101013
 21
428.13560944738538
  0
LINE
  8
_0-b_細線3
  6
CONTINUOUS
 62
    7
 10
829.61567675473418
 20
374.53560944738535
 11
829.61567675767731
 21
428.13560944738538
  0
LINE
  8
_0-b_細線3
  6
CONTINUOUS
 62
    7
 10
829.61567675473418
 20
374.53560944738535
 11
820.54901008806701
 21
374.53560944738535
  0
ARC
  8
_0-b_細線3
  6
CONTINUOUS
 62
    7
 10
721.88234342241412
 20
435.86894278071821
 40
2.6666666666666674
 50
89.999999999999915
 51
179.99999999999983
  0
ARC
  8
_0-b_細線3
  6
CONTINUOUS
 62
    7
 10
723.13020793262115
 20
441.20227611405181
 40
2.6666666666666674
 50
269.99999999999977
 51
329.9999999999946
  0
ARC
  8
_0-b_細線3
  6
CONTINUOUS
 62
    7
 10
727.74901008613824
 20
438.53560944738535
 40
2.6666666666666674
 50
89.999999999999915
 51
150.00000000000992
  0
LINE
  8
_0-b_細線3
  6
CONTINUOUS
 62
    7
 10
721.88234342241412
 20
438.53560944738535
 11
723.13020793262115
 21
438.53560944738535
  0
ARC
  8
_0-b_細線3
  6
CONTINUOUS
 62
    7
 10
746.94901008319505
 20
435.86894278071821
 40
2.6666666666666674
 50
0
 51
89.999999999999915
  0
ARC
  8
_0-b_細線3
  6
CONTINUOUS
 62
    7
 10
745.70114557298893
 20
441.20227611405181
 40
2.6666666666666674
 50
209.99999999999494
 51
269.99999999999977
  0
ARC
  8
_0-b_細線3
  6
CONTINUOUS
 62
    7
 10
741.08234341947104
 20
438.53560944738535
 40
2.6666666666666674
 50
29.999999999991321
 51
89.999999999985349
  0
LINE
  8
_0-b_細線3
  6
CONTINUOUS
 62
    7
 10
746.94901008319505
 20
438.53560944738535
 11
745.70114557298893
 21
438.53560944738535
  0
ARC
  8
_0-b_細線3
  6
CONTINUOUS
 62
    7
 10
720.54901008908064
 20
432.13560944738538
 40
1.3333333333333337
 50
179.99999999999983
 51
269.99999999999977
  0
LINE
  8
_0-b_細線3
  6
CONTINUOUS
 62
    7
 10
719.21567675574772
 20
435.86894278071821
 11
719.21567675574772
 21
432.13560944738538
  0
ARC
  8
_0-b_細線3
  6
CONTINUOUS
 62
    7
 10
748.28234341652865
 20
432.13560944738538
 40
1.3333333333333337
 50
269.99999999999977
 51
359.99999999999966
  0
LINE
  8
_0-b_細線3
  6
CONTINUOUS
 62
    7
 10
749.61567674986236
 20
435.86894278071821
 11
749.61567674986236
 21
432.13560944738538
  0
ARC
  8
_0-b_細線3
  6
CONTINUOUS
 62
    7
 10
727.21567675574772
 20
428.13560944738538
 40
2.6666666666666674
 50
0
 51
89.999999999999915
  0
LINE
  8
_0-b_細線3
  6
CONTINUOUS
 62
    7
 10
727.21567675574772
 20
430.80227611405178
 11
720.54901008908064
 21
430.80227611405178
  0
ARC
  8
_0-b_細線3
  6
CONTINUOUS
 62
    7
 10
741.6156767557477
 20
428.13560944738538
 40
2.6666666666666674
 50
89.999999999999915
 51
179.99999999999983
  0
LINE
  8
_0-b_細線3
  6
CONTINUOUS
 62
    7
 10
741.61567674986145
 20
430.80227611405178
 11
748.28234341652865
 21
430.80227611405178
  0
LINE
  8
_0-b_細線3
  6
CONTINUOUS
 62
    7
 10
741.08234341947104
 20
441.20227611405181
 11
727.74901008613824
 21
441.20227611405181
  0
LINE
  8
_0-b_細線3
  6
CONTINUOUS
 62
    7
 10
729.88234341947191
 20
374.53560944738535
 11
729.88234342241412
 21
428.13560944738538
  0
LINE
  8
_0-b_細線3
  6
CONTINUOUS
 62
    7
 10
738.94901008613817
 20
374.53560944738535
 11
738.9490100890813
 21
428.13560944738538
  0
LINE
  8
_0-b_細線3
  6
CONTINUOUS
 62
    7
 10
738.94901008613817
 20
374.53560944738535
 11
729.88234341947191
 21
374.53560944738535
  0
ARC
  8
_0-b_細線3
  6
CONTINUOUS
 62
    7
 10
676.54901008811578
 20
435.86894278071821
 40
2.6666666666666674
 50
89.999999999999915
 51
179.99999999999983
  0
ARC
  8
_0-b_細線3
  6
CONTINUOUS
 62
    7
 10
677.7968745983228
 20
441.20227611405181
 40
2.6666666666666674
 50
269.99999999999977
 51
329.9999999999946
  0
ARC
  8
_0-b_細線3
  6
CONTINUOUS
 62
    7
 10
682.41567675183978
 20
438.53560944738535
 40
2.6666666666666674
 50
89.999999999999915
 51
150.0000000000087
  0
LINE
  8
_0-b_細線3
  6
CONTINUOUS
 62
    7
 10
676.54901008811578
 20
438.53560944738535
 11
677.7968745983228
 21
438.53560944738535
  0
ARC
  8
_0-b_細線3
  6
CONTINUOUS
 62
    7
 10
701.6156767488967
 20
435.86894278071821
 40
2.6666666666666674
 50
0
 51
89.999999999999915
  0
ARC
  8
_0-b_細線3
  6
CONTINUOUS
 62
    7
 10
700.36781223868968
 20
441.20227611405181
 40
2.6666666666666674
 50
210.00000000000469
 51
269.99999999999977
  0
ARC
  8
_0-b_細線3
  6
CONTINUOUS
 62
    7
 10
695.74901008517338
 20
438.53560944738535
 40
2.6666666666666674
 50
29.99999999999865
 51
89.999999999999901
  0
LINE
  8
_0-b_細線3
  6
CONTINUOUS
 62
    7
 10
701.6156767488967
 20
438.53560944738535
 11
700.36781223868968
 21
438.53560944738535
  0
ARC
  8
_0-b_細線3
  6
CONTINUOUS
 62
    7
 10
675.21567675478298
 20
432.13560944738538
 40
1.3333333333333337
 50
179.99999999999983
 51
269.99999999999977
  0
LINE
  8
_0-b_細線3
  6
CONTINUOUS
 62
    7
 10
673.88234342144938
 20
435.86894278071821
 11
673.88234342144938
 21
432.13560944738538
  0
ARC
  8
_0-b_細線3
  6
CONTINUOUS
 62
    7
 10
702.94901008223042
 20
432.13560944738538
 40
1.3333333333333337
 50
269.99999999999977
 51
359.99999999999966
  0
LINE
  8
_0-b_細線3
  6
CONTINUOUS
 62
    7
 10
704.2823434155631
 20
435.86894278071821
 11
704.2823434155631
 21
432.13560944738538
  0
ARC
  8
_0-b_細線3
  6
CONTINUOUS
 62
    7
 10
681.88234342144938
 20
428.13560944738538
 40
2.6666666666666674
 50
0
 51
89.999999999999915
  0
LINE
  8
_0-b_細線3
  6
CONTINUOUS
 62
    7
 10
681.88234342144938
 20
430.80227611405178
 11
675.21567675478298
 21
430.80227611405178
  0
ARC
  8
_0-b_細線3
  6
CONTINUOUS
 62
    7
 10
696.28234342144935
 20
428.13560944738538
 40
2.6666666666666674
 50
89.999999999999915
 51
179.99999999999983
  0
LINE
  8
_0-b_細線3
  6
CONTINUOUS
 62
    7
 10
696.2823434155631
 20
430.80227611405178
 11
702.94901008223042
 21
430.80227611405178
  0
LINE
  8
_0-b_細線3
  6
CONTINUOUS
 62
    7
 10
695.74901008517338
 20
441.20227611405181
 11
682.41567675183978
 21
441.20227611405181
  0
LINE
  8
_0-b_細線3
  6
CONTINUOUS
 62
    7
 10
684.54901008517265
 20
374.53560944738535
 11
684.54901008811578
 21
428.13560944738538
  0
LINE
  8
_0-b_細線3
  6
CONTINUOUS
 62
    7
 10
693.61567675183983
 20
374.53560944738535
 11
693.61567675478295
 21
428.13560944738538
  0
LINE
  8
_0-b_細線3
  6
CONTINUOUS
 62
    7
 10
693.61567675183983
 20
374.53560944738535
 11
684.54901008517265
 21
374.53560944738535
  0
ARC
  8
_0-b_細線3
  6
CONTINUOUS
 62
    7
 10
631.21567675381743
 20
435.86894278071821
 40
2.6666666666666674
 50
89.999999999999915
 51
179.99999999999983
  0
ARC
  8
_0-b_細線3
  6
CONTINUOUS
 62
    7
 10
632.46354126402446
 20
441.20227611405181
 40
2.6666666666666674
 50
269.99999999999977
 51
329.9999999999946
  0
ARC
  8
_0-b_細線3
  6
CONTINUOUS
 62
    7
 10
637.08234341754144
 20
438.53560944738535
 40
2.6666666666666674
 50
89.999999999999915
 51
150.0000000000087
  0
LINE
  8
_0-b_細線3
  6
CONTINUOUS
 62
    7
 10
631.21567675381743
 20
438.53560944738535
 11
632.46354126402446
 21
438.53560944738535
  0
ARC
  8
_0-b_細線3
  6
CONTINUOUS
 62
    7
 10
656.28234341459836
 20
435.86894278071821
 40
2.6666666666666674
 50
0
 51
89.999999999999915
  0
ARC
  8
_0-b_細線3
  6
CONTINUOUS
 62
    7
 10
655.03447890439202
 20
441.20227611405181
 40
2.6666666666666674
 50
209.99999999999739
 51
269.99999999999977
  0
ARC
  8
_0-b_細線3
  6
CONTINUOUS
 62
    7
 10
650.41567675087424
 20
438.53560944738535
 40
2.6666666666666674
 50
29.999999999990099
 51
89.999999999982904
  0
LINE
  8
_0-b_細線3
  6
CONTINUOUS
 62
    7
 10
656.28234341459836
 20
438.53560944738535
 11
655.03447890439202
 21
438.53560944738535
  0
ARC
  8
_0-b_細線3
  6
CONTINUOUS
 62
    7
 10
629.88234342048452
 20
432.13560944738538
 40
1.3333333333333337
 50
179.99999999999983
 51
269.99999999999977
  0
LINE
  8
_0-b_細線3
  6
CONTINUOUS
 62
    7
 10
628.54901008715103
 20
435.86894278071821
 11
628.54901008715103
 21
432.13560944738538
  0
ARC
  8
_0-b_細線3
  6
CONTINUOUS
 62
    7
 10
657.61567674793184
 20
432.13560944738538
 40
1.3333333333333337
 50
269.99999999999977
 51
359.99999999999966
  0
LINE
  8
_0-b_細線3
  6
CONTINUOUS
 62
    7
 10
658.94901008126544
 20
435.86894278071821
 11
658.94901008126544
 21
432.13560944738538
  0
ARC
  8
_0-b_細線3
  6
CONTINUOUS
 62
    7
 10
636.54901008715103
 20
428.13560944738538
 40
2.6666666666666674
 50
0
 51
89.999999999999915
  0
LINE
  8
_0-b_細線3
  6
CONTINUOUS
 62
    7
 10
636.54901008715103
 20
430.80227611405178
 11
629.88234342048452
 21
430.80227611405178
  0
ARC
  8
_0-b_細線3
  6
CONTINUOUS
 62
    7
 10
650.94901008715101
 20
428.13560944738538
 40
2.6666666666666674
 50
89.999999999999915
 51
179.99999999999983
  0
LINE
  8
_0-b_細線3
  6
CONTINUOUS
 62
    7
 10
650.94901008126476
 20
430.80227611405178
 11
657.61567674793184
 21
430.80227611405178
  0
LINE
  8
_0-b_細線3
  6
CONTINUOUS
 62
    7
 10
650.41567675087424
 20
441.20227611405181
 11
637.08234341754144
 21
441.20227611405181
  0
LINE
  8
_0-b_細線3
  6
CONTINUOUS
 62
    7
 10
639.21567675087499
 20
374.53560944738535
 11
639.21567675381743
 21
428.13560944738538
  0
LINE
  8
_0-b_細線3
  6
CONTINUOUS
 62
    7
 10
648.28234341754148
 20
374.53560944738535
 11
648.28234342048461
 21
428.13560944738538
  0
LINE
  8
_0-b_細線3
  6
CONTINUOUS
 62
    7
 10
648.28234341754148
 20
374.53560944738535
 11
639.21567675087499
 21
374.53560944738535
  0
ARC
  8
_0-b_細線3
  6
CONTINUOUS
 62
    7
 10
948.5490100939046
 20
435.86894278071821
 40
2.6666666666666674
 50
89.999999999999915
 51
179.99999999999983
  0
ARC
  8
_0-b_細線3
  6
CONTINUOUS
 62
    7
 10
949.79687460411151
 20
441.20227611405181
 40
2.6666666666666674
 50
269.99999999999977
 51
329.99999999999579
  0
ARC
  8
_0-b_細線3
  6
CONTINUOUS
 62
    7
 10
954.41567675762781
 20
438.53560944738535
 40
2.6666666666666674
 50
89.999999999999915
 51
150.00000000000014
  0
LINE
  8
_0-b_細線3
  6
CONTINUOUS
 62
    7
 10
948.5490100939046
 20
438.53560944738535
 11
949.79687460411151
 21
438.53560944738535
  0
ARC
  8
_0-b_細線3
  6
CONTINUOUS
 62
    7
 10
973.61567675468541
 20
435.86894278071821
 40
2.6666666666666674
 50
0
 51
89.999999999999915
  0
ARC
  8
_0-b_細線3
  6
CONTINUOUS
 62
    7
 10
972.36781224447918
 20
441.20227611405181
 40
2.6666666666666674
 50
210.00000000000469
 51
269.99999999999977
  0
ARC
  8
_0-b_細線3
  6
CONTINUOUS
 62
    7
 10
967.7490100909622
 20
438.53560944738535
 40
2.6666666666666674
 50
29.999999999991321
 51
89.999999999999901
  0
LINE
  8
_0-b_細線3
  6
CONTINUOUS
 62
    7
 10
973.61567675468541
 20
438.53560944738535
 11
972.36781224447918
 21
438.53560944738535
  0
ARC
  8
_0-b_細線3
  6
CONTINUOUS
 62
    7
 10
947.21567676057168
 20
432.13560944738538
 40
1.3333333333333337
 50
179.99999999999983
 51
269.99999999999977
  0
LINE
  8
_0-b_細線3
  6
CONTINUOUS
 62
    7
 10
945.88234342723808
 20
435.86894278071821
 11
945.88234342723808
 21
432.13560944738538
  0
ARC
  8
_0-b_細線3
  6
CONTINUOUS
 62
    7
 10
974.94901008801901
 20
432.13560944738538
 40
1.3333333333333337
 50
269.99999999999977
 51
359.99999999999966
  0
LINE
  8
_0-b_細線3
  6
CONTINUOUS
 62
    7
 10
976.28234342135261
 20
435.86894278071821
 11
976.28234342135261
 21
432.13560944738538
  0
ARC
  8
_0-b_細線3
  6
CONTINUOUS
 62
    7
 10
953.88234342723808
 20
428.13560944738538
 40
2.6666666666666674
 50
0
 51
89.999999999999915
  0
LINE
  8
_0-b_細線3
  6
CONTINUOUS
 62
    7
 10
953.88234342723808
 20
430.80227611405178
 11
947.21567676057168
 21
430.80227611405178
  0
ARC
  8
_0-b_細線3
  6
CONTINUOUS
 62
    7
 10
968.28234342723817
 20
428.13560944738538
 40
2.6666666666666674
 50
89.999999999999915
 51
179.99999999999983
  0
LINE
  8
_0-b_細線3
  6
CONTINUOUS
 62
    7
 10
968.28234342135192
 20
430.80227611405178
 11
974.94901008801901
 21
430.80227611405178
  0
LINE
  8
_0-b_細線3
  6
CONTINUOUS
 62
    7
 10
967.7490100909622
 20
441.20227611405181
 11
954.41567675762781
 21
441.20227611405181
  0
LINE
  8
_0-b_細線3
  6
CONTINUOUS
 62
    7
 10
956.54901009096216
 20
374.53560944738535
 11
956.5490100939046
 21
428.13560944738538
  0
LINE
  8
_0-b_細線3
  6
CONTINUOUS
 62
    7
 10
965.61567675762853
 20
374.53560944738535
 11
965.61567676057166
 21
428.13560944738538
  0
LINE
  8
_0-b_細線3
  6
CONTINUOUS
 62
    7
 10
965.61567675762853
 20
374.53560944738535
 11
956.54901009096216
 21
374.53560944738535
  0
ARC
  8
_0-b_細線3
  6
CONTINUOUS
 62
    7
 10
993.88234342820294
 20
435.86894278071821
 40
2.6666666666666674
 50
89.999999999999915
 51
179.99999999999983
  0
ARC
  8
_0-b_細線3
  6
CONTINUOUS
 62
    7
 10
995.13020793840997
 20
441.20227611405181
 40
2.6666666666666674
 50
269.99999999999977
 51
329.9999999999946
  0
ARC
  8
_0-b_細線3
  6
CONTINUOUS
 62
    7
 10
999.74901009192627
 20
438.53560944738535
 40
2.6666666666666674
 50
89.999999999999915
 51
150.00000000000136
  0
LINE
  8
_0-b_細線3
  6
CONTINUOUS
 62
    7
 10
993.88234342820294
 20
438.53560944738535
 11
995.13020793840997
 21
438.53560944738535
  0
ARC
  8
_0-b_細線3
  6
CONTINUOUS
 62
    7
 10
1018.9490100889839
 20
435.86894278071821
 40
2.6666666666666674
 50
0
 51
89.999999999999915
  0
ARC
  8
_0-b_細線3
  6
CONTINUOUS
 62
    7
 10
1017.7011455787768
 20
441.20227611405181
 40
2.6666666666666674
 50
210.00000000000469
 51
269.99999999999977
  0
ARC
  8
_0-b_細線3
  6
CONTINUOUS
 62
    7
 10
1013.0823434252598
 20
438.53560944738535
 40
2.6666666666666674
 50
29.999999999990099
 51
89.999999999982904
  0
LINE
  8
_0-b_細線3
  6
CONTINUOUS
 62
    7
 10
1018.9490100889839
 20
438.53560944738535
 11
1017.7011455787768
 21
438.53560944738535
  0
ARC
  8
_0-b_細線3
  6
CONTINUOUS
 62
    7
 10
992.54901009486935
 20
432.13560944738538
 40
1.3333333333333337
 50
179.99999999999983
 51
269.99999999999977
  0
LINE
  8
_0-b_細線3
  6
CONTINUOUS
 62
    7
 10
991.21567676153654
 20
435.86894278071821
 11
991.21567676153654
 21
432.13560944738538
  0
ARC
  8
_0-b_細線3
  6
CONTINUOUS
 62
    7
 10
1020.2823434223174
 20
432.13560944738538
 40
1.3333333333333337
 50
269.99999999999977
 51
359.99999999999966
  0
LINE
  8
_0-b_細線3
  6
CONTINUOUS
 62
    7
 10
1021.6156767556503
 20
435.86894278071821
 11
1021.6156767556503
 21
432.13560944738538
  0
ARC
  8
_0-b_細線3
  6
CONTINUOUS
 62
    7
 10
999.21567676153654
 20
428.13560944738538
 40
2.6666666666666674
 50
0
 51
89.999999999999915
  0
LINE
  8
_0-b_細線3
  6
CONTINUOUS
 62
    7
 10
999.21567676153654
 20
430.80227611405178
 11
992.54901009486935
 21
430.80227611405178
  0
ARC
  8
_0-b_細線3
  6
CONTINUOUS
 62
    7
 10
1013.6156767615365
 20
428.13560944738538
 40
2.6666666666666674
 50
89.999999999999915
 51
179.99999999999983
  0
LINE
  8
_0-b_細線3
  6
CONTINUOUS
 62
    7
 10
1013.6156767556503
 20
430.80227611405178
 11
1020.2823434223174
 21
430.80227611405178
  0
LINE
  8
_0-b_細線3
  6
CONTINUOUS
 62
    7
 10
1013.0823434252598
 20
441.20227611405181
 11
999.74901009192627
 21
441.20227611405181
  0
LINE
  8
_0-b_細線3
  6
CONTINUOUS
 62
    7
 10
1001.8823434252598
 20
374.53560944738535
 11
1001.8823434282029
 21
428.13560944738538
  0
LINE
  8
_0-b_細線3
  6
CONTINUOUS
 62
    7
 10
1010.949010091927
 20
374.53560944738535
 11
1010.9490100948701
 21
428.13560944738538
  0
LINE
  8
_0-b_細線3
  6
CONTINUOUS
 62
    7
 10
1010.949010091927
 20
374.53560944738535
 11
1001.8823434252598
 21
374.53560944738535
  0
ARC
  8
_0-b_細線3
  6
CONTINUOUS
 62
    7
 10
1039.2156767625013
 20
435.86894278071821
 40
2.6666666666666674
 50
89.999999999999915
 51
179.99999999999983
  0
ARC
  8
_0-b_細線3
  6
CONTINUOUS
 62
    7
 10
1040.4635412727075
 20
441.20227611405181
 40
2.6666666666666674
 50
269.99999999999977
 51
329.99999999999579
  0
ARC
  8
_0-b_細線3
  6
CONTINUOUS
 62
    7
 10
1045.0823434262247
 20
438.53560944738535
 40
2.6666666666666674
 50
89.999999999999915
 51
150.00000000000992
  0
LINE
  8
_0-b_細線3
  6
CONTINUOUS
 62
    7
 10
1039.2156767625013
 20
438.53560944738535
 11
1040.4635412727075
 21
438.53560944738535
  0
ARC
  8
_0-b_細線3
  6
CONTINUOUS
 62
    7
 10
1064.2823434232823
 20
435.86894278071821
 40
2.6666666666666674
 50
0
 51
89.999999999999915
  0
ARC
  8
_0-b_細線3
  6
CONTINUOUS
 62
    7
 10
1063.0344789130752
 20
441.20227611405181
 40
2.6666666666666674
 50
210.00000000000591
 51
269.99999999999977
  0
ARC
  8
_0-b_細線3
  6
CONTINUOUS
 62
    7
 10
1058.4156767595582
 20
438.53560944738535
 40
2.6666666666666674
 50
29.999999999990099
 51
89.999999999985349
  0
LINE
  8
_0-b_細線3
  6
CONTINUOUS
 62
    7
 10
1064.2823434232823
 20
438.53560944738535
 11
1063.0344789130752
 21
438.53560944738535
  0
ARC
  8
_0-b_細線3
  6
CONTINUOUS
 62
    7
 10
1037.8823434291676
 20
432.13560944738538
 40
1.3333333333333337
 50
179.99999999999983
 51
269.99999999999977
  0
LINE
  8
_0-b_細線3
  6
CONTINUOUS
 62
    7
 10
1036.5490100958341
 20
435.86894278071821
 11
1036.5490100958341
 21
432.13560944738538
  0
ARC
  8
_0-b_細線3
  6
CONTINUOUS
 62
    7
 10
1065.6156767566149
 20
432.13560944738538
 40
1.3333333333333337
 50
269.99999999999977
 51
359.99999999999966
  0
LINE
  8
_0-b_細線3
  6
CONTINUOUS
 62
    7
 10
1066.9490100899486
 20
435.86894278071821
 11
1066.9490100899486
 21
432.13560944738538
  0
ARC
  8
_0-b_細線3
  6
CONTINUOUS
 62
    7
 10
1044.5490100958341
 20
428.13560944738538
 40
2.6666666666666674
 50
0
 51
89.999999999999915
  0
LINE
  8
_0-b_細線3
  6
CONTINUOUS
 62
    7
 10
1044.5490100958341
 20
430.80227611405178
 11
1037.8823434291676
 21
430.80227611405178
  0
ARC
  8
_0-b_細線3
  6
CONTINUOUS
 62
    7
 10
1058.9490100958342
 20
428.13560944738538
 40
2.6666666666666674
 50
89.999999999999915
 51
179.99999999999983
  0
LINE
  8
_0-b_細線3
  6
CONTINUOUS
 62
    7
 10
1058.9490100899479
 20
430.80227611405178
 11
1065.6156767566149
 21
430.80227611405178
  0
LINE
  8
_0-b_細線3
  6
CONTINUOUS
 62
    7
 10
1058.4156767595582
 20
441.20227611405181
 11
1045.0823434262247
 21
441.20227611405181
  0
LINE
  8
_0-b_細線3
  6
CONTINUOUS
 62
    7
 10
1047.2156767595582
 20
374.53560944738535
 11
1047.2156767625013
 21
428.13560944738538
  0
LINE
  8
_0-b_細線3
  6
CONTINUOUS
 62
    7
 10
1056.2823434262245
 20
374.53560944738535
 11
1056.2823434291686
 21
428.13560944738538
  0
LINE
  8
_0-b_細線3
  6
CONTINUOUS
 62
    7
 10
1056.2823434262245
 20
374.53560944738535
 11
1047.2156767595582
 21
374.53560944738535
  0
ARC
  8
_0-b_細線3
  6
CONTINUOUS
 62
    7
 10
585.88234341901307
 20
435.86894278071821
 40
2.6666666666666674
 50
89.999999999999915
 51
179.99999999999983
  0
ARC
  8
_0-b_細線3
  6
CONTINUOUS
 62
    7
 10
587.13020792921998
 20
441.20227611405181
 40
2.6666666666666674
 50
269.99999999999977
 51
329.99999999999579
  0
ARC
  8
_0-b_細線3
  6
CONTINUOUS
 62
    7
 10
591.74901008273696
 20
438.53560944738535
 40
2.6666666666666674
 50
89.999999999999915
 51
150.00000000000747
  0
LINE
  8
_0-b_細線3
  6
CONTINUOUS
 62
    7
 10
585.88234341901307
 20
438.53560944738535
 11
587.13020792921998
 21
438.53560944738535
  0
ARC
  8
_0-b_細線3
  6
CONTINUOUS
 62
    7
 10
610.94901007979388
 20
435.86894278071821
 40
2.6666666666666674
 50
0
 51
89.999999999999915
  0
ARC
  8
_0-b_細線3
  6
CONTINUOUS
 62
    7
 10
609.70114556958765
 20
441.20227611405181
 40
2.6666666666666674
 50
209.99999999999616
 51
269.99999999999977
  0
ARC
  8
_0-b_細線3
  6
CONTINUOUS
 62
    7
 10
605.08234341606988
 20
438.53560944738535
 40
2.6666666666666674
 50
29.999999999991321
 51
89.999999999985349
  0
LINE
  8
_0-b_細線3
  6
CONTINUOUS
 62
    7
 10
610.94901007979388
 20
438.53560944738535
 11
609.70114556958765
 21
438.53560944738535
  0
ARC
  8
_0-b_細線3
  6
CONTINUOUS
 62
    7
 10
584.54901008568015
 20
432.13560944738538
 40
1.3333333333333337
 50
179.99999999999983
 51
269.99999999999977
  0
LINE
  8
_0-b_細線3
  6
CONTINUOUS
 62
    7
 10
583.21567675234655
 20
435.86894278071821
 11
583.21567675234655
 21
432.13560944738538
  0
ARC
  8
_0-b_細線3
  6
CONTINUOUS
 62
    7
 10
612.28234341312748
 20
432.13560944738538
 40
1.3333333333333337
 50
269.99999999999977
 51
359.99999999999966
  0
LINE
  8
_0-b_細線3
  6
CONTINUOUS
 62
    7
 10
613.61567674646108
 20
435.86894278071821
 11
613.61567674646108
 21
432.13560944738538
  0
ARC
  8
_0-b_細線3
  6
CONTINUOUS
 62
    7
 10
591.21567675234655
 20
428.13560944738538
 40
2.6666666666666674
 50
0
 51
89.999999999999915
  0
LINE
  8
_0-b_細線3
  6
CONTINUOUS
 62
    7
 10
591.21567675234655
 20
430.80227611405178
 11
584.54901008568015
 21
430.80227611405178
  0
ARC
  8
_0-b_細線3
  6
CONTINUOUS
 62
    7
 10
605.61567675234653
 20
428.13560944738538
 40
2.6666666666666674
 50
89.999999999999915
 51
179.99999999999983
  0
LINE
  8
_0-b_細線3
  6
CONTINUOUS
 62
    7
 10
605.61567674646028
 20
430.80227611405178
 11
612.28234341312748
 21
430.80227611405178
  0
LINE
  8
_0-b_細線3
  6
CONTINUOUS
 62
    7
 10
605.08234341606988
 20
441.20227611405181
 11
591.74901008273696
 21
441.20227611405181
  0
LINE
  8
_0-b_細線3
  6
CONTINUOUS
 62
    7
 10
593.88234341607063
 20
374.53560944738535
 11
593.88234341901307
 21
428.13560944738538
  0
LINE
  8
_0-b_細線3
  6
CONTINUOUS
 62
    7
 10
602.949010082737
 20
374.53560944738535
 11
602.94901008568013
 21
428.13560944738538
  0
LINE
  8
_0-b_細線3
  6
CONTINUOUS
 62
    7
 10
602.949010082737
 20
374.53560944738535
 11
593.88234341607063
 21
374.53560944738535
  0
ARC
  8
_0-b_細線3
  6
CONTINUOUS
 62
    7
 10
540.54901008420859
 20
435.86894278071821
 40
2.6666666666666674
 50
89.999999999999915
 51
179.99999999999983
  0
ARC
  8
_0-b_細線3
  6
CONTINUOUS
 62
    7
 10
541.79687459441561
 20
441.20227611405181
 40
2.6666666666666674
 50
269.99999999999977
 51
329.9999999999946
  0
ARC
  8
_0-b_細線3
  6
CONTINUOUS
 62
    7
 10
546.41567674793259
 20
438.53560944738535
 40
2.6666666666666674
 50
89.999999999999915
 51
150.0000000000087
  0
LINE
  8
_0-b_細線3
  6
CONTINUOUS
 62
    7
 10
540.54901008420859
 20
438.53560944738535
 11
541.79687459441561
 21
438.53560944738535
  0
ARC
  8
_0-b_細線3
  6
CONTINUOUS
 62
    7
 10
565.61567674498951
 20
435.86894278071821
 40
2.6666666666666674
 50
0
 51
89.999999999999915
  0
ARC
  8
_0-b_細線3
  6
CONTINUOUS
 62
    7
 10
564.36781223478329
 20
441.20227611405181
 40
2.6666666666666674
 50
209.99999999999616
 51
269.99999999999977
  0
ARC
  8
_0-b_細線3
  6
CONTINUOUS
 62
    7
 10
559.7490100812654
 20
438.53560944738535
 40
2.6666666666666674
 50
29.999999999990099
 51
89.999999999982904
  0
LINE
  8
_0-b_細線3
  6
CONTINUOUS
 62
    7
 10
565.61567674498951
 20
438.53560944738535
 11
564.36781223478329
 21
438.53560944738535
  0
ARC
  8
_0-b_細線3
  6
CONTINUOUS
 62
    7
 10
539.21567675087567
 20
432.13560944738538
 40
1.3333333333333337
 50
179.99999999999983
 51
269.99999999999977
  0
LINE
  8
_0-b_細線3
  6
CONTINUOUS
 62
    7
 10
537.88234341754219
 20
435.86894278071821
 11
537.88234341754219
 21
432.13560944738538
  0
ARC
  8
_0-b_細線3
  6
CONTINUOUS
 62
    7
 10
566.949010078323
 20
432.13560944738538
 40
1.3333333333333337
 50
269.99999999999977
 51
359.99999999999966
  0
LINE
  8
_0-b_細線3
  6
CONTINUOUS
 62
    7
 10
568.28234341165671
 20
435.86894278071821
 11
568.28234341165671
 21
432.13560944738538
  0
ARC
  8
_0-b_細線3
  6
CONTINUOUS
 62
    7
 10
545.88234341754219
 20
428.13560944738538
 40
2.6666666666666674
 50
0
 51
89.999999999999915
  0
LINE
  8
_0-b_細線3
  6
CONTINUOUS
 62
    7
 10
545.88234341754219
 20
430.80227611405178
 11
539.21567675087567
 21
430.80227611405178
  0
ARC
  8
_0-b_細線3
  6
CONTINUOUS
 62
    7
 10
560.28234341754217
 20
428.13560944738538
 40
2.6666666666666674
 50
89.999999999999915
 51
179.99999999999983
  0
LINE
  8
_0-b_細線3
  6
CONTINUOUS
 62
    7
 10
560.28234341165592
 20
430.80227611405178
 11
566.949010078323
 21
430.80227611405178
  0
LINE
  8
_0-b_細線3
  6
CONTINUOUS
 62
    7
 10
559.7490100812654
 20
441.20227611405181
 11
546.41567674793259
 21
441.20227611405181
  0
LINE
  8
_0-b_細線3
  6
CONTINUOUS
 62
    7
 10
548.54901008126626
 20
374.53560944738535
 11
548.54901008420859
 21
428.13560944738538
  0
LINE
  8
_0-b_細線3
  6
CONTINUOUS
 62
    7
 10
557.61567674793264
 20
374.53560944738535
 11
557.61567675087576
 21
428.13560944738538
  0
LINE
  8
_0-b_細線3
  6
CONTINUOUS
 62
    7
 10
557.61567674793264
 20
374.53560944738535
 11
548.54901008126626
 21
374.53560944738535
  0
ARC
  8
_0-b_細線3
  6
CONTINUOUS
 62
    7
 10
495.21567674940411
 20
435.86894278071821
 40
2.6666666666666674
 50
89.999999999999915
 51
179.99999999999983
  0
ARC
  8
_0-b_細線3
  6
CONTINUOUS
 62
    7
 10
496.46354125961125
 20
441.20227611405181
 40
2.6666666666666674
 50
269.99999999999977
 51
329.9999999999946
  0
ARC
  8
_0-b_細線3
  6
CONTINUOUS
 62
    7
 10
501.08234341312823
 20
438.53560944738535
 40
2.6666666666666674
 50
89.999999999999915
 51
150.00000000000929
  0
LINE
  8
_0-b_細線3
  6
CONTINUOUS
 62
    7
 10
495.21567674940411
 20
438.53560944738535
 11
496.46354125961125
 21
438.53560944738535
  0
ARC
  8
_0-b_細線3
  6
CONTINUOUS
 62
    7
 10
520.28234341018515
 20
435.86894278071821
 40
2.6666666666666674
 50
0
 51
89.999999999999915
  0
ARC
  8
_0-b_細線3
  6
CONTINUOUS
 62
    7
 10
519.03447889997881
 20
441.20227611405181
 40
2.6666666666666674
 50
209.99999999999739
 51
269.99999999999977
  0
ARC
  8
_0-b_細線3
  6
CONTINUOUS
 62
    7
 10
514.41567674646103
 20
438.53560944738535
 40
2.6666666666666674
 50
29.999999999990099
 51
89.999999999985349
  0
LINE
  8
_0-b_細線3
  6
CONTINUOUS
 62
    7
 10
520.28234341018515
 20
438.53560944738535
 11
519.03447889997881
 21
438.53560944738535
  0
ARC
  8
_0-b_細線3
  6
CONTINUOUS
 62
    7
 10
493.88234341607131
 20
432.13560944738538
 40
1.3333333333333337
 50
179.99999999999983
 51
269.99999999999977
  0
LINE
  8
_0-b_細線3
  6
CONTINUOUS
 62
    7
 10
492.54901008273782
 20
435.86894278071821
 11
492.54901008273782
 21
432.13560944738538
  0
ARC
  8
_0-b_細線3
  6
CONTINUOUS
 62
    7
 10
521.61567674351863
 20
432.13560944738538
 40
1.3333333333333337
 50
269.99999999999977
 51
359.99999999999966
  0
LINE
  8
_0-b_細線3
  6
CONTINUOUS
 62
    7
 10
522.94901007685223
 20
435.86894278071821
 11
522.94901007685223
 21
432.13560944738538
  0
ARC
  8
_0-b_細線3
  6
CONTINUOUS
 62
    7
 10
500.54901008273782
 20
428.13560944738538
 40
2.6666666666666674
 50
0
 51
89.999999999999915
  0
LINE
  8
_0-b_細線3
  6
CONTINUOUS
 62
    7
 10
500.54901008273782
 20
430.80227611405178
 11
493.88234341607131
 21
430.80227611405178
  0
ARC
  8
_0-b_細線3
  6
CONTINUOUS
 62
    7
 10
514.94901008273769
 20
428.13560944738538
 40
2.6666666666666674
 50
89.999999999999915
 51
179.99999999999983
  0
LINE
  8
_0-b_細線3
  6
CONTINUOUS
 62
    7
 10
514.94901007685144
 20
430.80227611405178
 11
521.61567674351863
 21
430.80227611405178
  0
LINE
  8
_0-b_細線3
  6
CONTINUOUS
 62
    7
 10
514.41567674646103
 20
441.20227611405181
 11
501.08234341312823
 21
441.20227611405181
  0
LINE
  8
_0-b_細線3
  6
CONTINUOUS
 62
    7
 10
503.21567674646178
 20
374.53560944738535
 11
503.21567674940411
 21
428.13560944738538
  0
LINE
  8
_0-b_細線3
  6
CONTINUOUS
 62
    7
 10
512.28234341312827
 20
374.53560944738535
 11
512.2823434160714
 21
428.13560944738538
  0
LINE
  8
_0-b_細線3
  6
CONTINUOUS
 62
    7
 10
512.28234341312827
 20
374.53560944738535
 11
503.21567674646178
 21
374.53560944738535
  0
ARC
  8
_0-b_細線3
  6
CONTINUOUS
 62
    7
 10
449.0823434195197
 20
435.86894278071821
 40
2.6666666666666674
 50
89.999999999999915
 51
179.99999999999983
  0
ARC
  8
_0-b_細線3
  6
CONTINUOUS
 62
    7
 10
450.33020792972604
 20
441.20227611405181
 40
2.6666666666666674
 50
269.99999999999977
 51
329.9999999999946
  0
ARC
  8
_0-b_細線3
  6
CONTINUOUS
 62
    7
 10
454.94901008324314
 20
438.53560944738535
 40
2.6666666666666674
 50
89.999999999999915
 51
150.00000000000992
  0
LINE
  8
_0-b_細線3
  6
CONTINUOUS
 62
    7
 10
449.0823434195197
 20
438.53560944738535
 11
450.33020792972604
 21
438.53560944738535
  0
ARC
  8
_0-b_細線3
  6
CONTINUOUS
 62
    7
 10
474.14901008030074
 20
435.86894278071821
 40
2.6666666666666674
 50
0
 51
89.999999999999915
  0
ARC
  8
_0-b_細線3
  6
CONTINUOUS
 62
    7
 10
472.9011455700936
 20
441.20227611405181
 40
2.6666666666666674
 50
210.00000000000531
 51
269.99999999999977
  0
ARC
  8
_0-b_細線3
  6
CONTINUOUS
 62
    7
 10
468.28234341657662
 20
438.53560944738535
 40
2.6666666666666674
 50
29.999999999990099
 51
89.999999999999901
  0
LINE
  8
_0-b_細線3
  6
CONTINUOUS
 62
    7
 10
474.14901008030074
 20
438.53560944738535
 11
472.9011455700936
 21
438.53560944738535
  0
ARC
  8
_0-b_細線3
  6
CONTINUOUS
 62
    7
 10
447.74901008618622
 20
432.13560944738538
 40
1.3333333333333337
 50
179.99999999999983
 51
269.99999999999977
  0
LINE
  8
_0-b_細線3
  6
CONTINUOUS
 62
    7
 10
446.41567675285262
 20
435.86894278071821
 11
446.41567675285262
 21
432.13560944738538
  0
ARC
  8
_0-b_細線3
  6
CONTINUOUS
 62
    7
 10
475.48234341363423
 20
432.13560944738538
 40
1.3333333333333337
 50
269.99999999999977
 51
359.99999999999966
  0
LINE
  8
_0-b_細線3
  6
CONTINUOUS
 62
    7
 10
476.81567674696703
 20
435.86894278071821
 11
476.81567674696703
 21
432.13560944738538
  0
ARC
  8
_0-b_細線3
  6
CONTINUOUS
 62
    7
 10
454.41567675285262
 20
428.13560944738538
 40
2.6666666666666674
 50
0
 51
89.999999999999915
  0
LINE
  8
_0-b_細線3
  6
CONTINUOUS
 62
    7
 10
454.41567675285262
 20
430.80227611405178
 11
447.74901008618622
 21
430.80227611405178
  0
ARC
  8
_0-b_細線3
  6
CONTINUOUS
 62
    7
 10
468.81567675285328
 20
428.13560944738538
 40
2.6666666666666674
 50
89.999999999999915
 51
179.99999999999983
  0
LINE
  8
_0-b_細線3
  6
CONTINUOUS
 62
    7
 10
468.81567674696703
 20
430.80227611405178
 11
475.48234341363423
 21
430.80227611405178
  0
LINE
  8
_0-b_細線3
  6
CONTINUOUS
 62
    7
 10
468.28234341657662
 20
441.20227611405181
 11
454.94901008324314
 21
441.20227611405181
  0
LINE
  8
_0-b_細線3
  6
CONTINUOUS
 62
    7
 10
457.08234341657658
 20
374.53560944738535
 11
457.0823434195197
 21
428.13560944738538
  0
LINE
  8
_0-b_細線3
  6
CONTINUOUS
 62
    7
 10
466.14901008324307
 20
374.53560944738535
 11
466.14901008618619
 21
428.13560944738538
  0
LINE
  8
_0-b_細線3
  6
CONTINUOUS
 62
    7
 10
466.14901008324307
 20
374.53560944738535
 11
457.08234341657658
 21
374.53560944738535
  0
ARC
  8
_0-b_細線3
  6
CONTINUOUS
 62
    7
 10
1085.3490100939046
 20
435.86894278071821
 40
2.6666666666666674
 50
89.999999999999915
 51
179.99999999999983
  0
ARC
  8
_0-b_細線3
  6
CONTINUOUS
 62
    7
 10
1086.5968746041117
 20
441.20227611405181
 40
2.6666666666666674
 50
269.99999999999977
 51
329.99999999999335
  0
ARC
  8
_0-b_細線3
  6
CONTINUOUS
 62
    7
 10
1091.215676757628
 20
438.53560944738535
 40
2.6666666666666674
 50
89.999999999999915
 51
150.00000000000259
  0
LINE
  8
_0-b_細線3
  6
CONTINUOUS
 62
    7
 10
1085.3490100939046
 20
438.53560944738535
 11
1086.5968746041117
 21
438.53560944738535
  0
ARC
  8
_0-b_細線3
  6
CONTINUOUS
 62
    7
 10
1110.4156767546856
 20
435.86894278071821
 40
2.6666666666666674
 50
0
 51
89.999999999999915
  0
ARC
  8
_0-b_細線3
  6
CONTINUOUS
 62
    7
 10
1109.1678122444785
 20
441.20227611405181
 40
2.6666666666666674
 50
210.00000000000591
 51
269.99999999999977
  0
ARC
  8
_0-b_細線3
  6
CONTINUOUS
 62
    7
 10
1104.5490100909615
 20
438.53560944738535
 40
2.6666666666666674
 50
29.999999999990099
 51
89.999999999999901
  0
LINE
  8
_0-b_細線3
  6
CONTINUOUS
 62
    7
 10
1110.4156767546856
 20
438.53560944738535
 11
1109.1678122444785
 21
438.53560944738535
  0
ARC
  8
_0-b_細線3
  6
CONTINUOUS
 62
    7
 10
1084.0156767605708
 20
432.13560944738538
 40
1.3333333333333337
 50
179.99999999999983
 51
269.99999999999977
  0
LINE
  8
_0-b_細線3
  6
CONTINUOUS
 62
    7
 10
1082.6823434272383
 20
435.86894278071821
 11
1082.6823434272383
 21
432.13560944738538
  0
ARC
  8
_0-b_細線3
  6
CONTINUOUS
 62
    7
 10
1111.7490100880191
 20
432.13560944738538
 40
1.3333333333333337
 50
269.99999999999977
 51
359.99999999999966
  0
LINE
  8
_0-b_細線3
  6
CONTINUOUS
 62
    7
 10
1113.0823434213519
 20
435.86894278071821
 11
1113.0823434213519
 21
432.13560944738538
  0
ARC
  8
_0-b_細線3
  6
CONTINUOUS
 62
    7
 10
1090.6823434272383
 20
428.13560944738538
 40
2.6666666666666674
 50
0
 51
89.999999999999915
  0
LINE
  8
_0-b_細線3
  6
CONTINUOUS
 62
    7
 10
1090.6823434272383
 20
430.80227611405178
 11
1084.0156767605708
 21
430.80227611405178
  0
ARC
  8
_0-b_細線3
  6
CONTINUOUS
 62
    7
 10
1105.0823434272381
 20
428.13560944738538
 40
2.6666666666666674
 50
89.999999999999915
 51
179.99999999999983
  0
LINE
  8
_0-b_細線3
  6
CONTINUOUS
 62
    7
 10
1105.0823434213519
 20
430.80227611405178
 11
1111.7490100880191
 21
430.80227611405178
  0
LINE
  8
_0-b_細線3
  6
CONTINUOUS
 62
    7
 10
1104.5490100909615
 20
441.20227611405181
 11
1091.215676757628
 21
441.20227611405181
  0
LINE
  8
_0-b_細線3
  6
CONTINUOUS
 62
    7
 10
1093.3490100909614
 20
374.53560944738535
 11
1093.3490100939046
 21
428.13560944738538
  0
LINE
  8
_0-b_細線3
  6
CONTINUOUS
 62
    7
 10
1102.4156767576287
 20
374.53560944738535
 11
1102.4156767605718
 21
428.13560944738538
  0
LINE
  8
_0-b_細線3
  6
CONTINUOUS
 62
    7
 10
1102.4156767576287
 20
374.53560944738535
 11
1093.3490100909614
 21
374.53560944738535
  0
LINE
  8
_0-d_寸法3
  6
CONTINUOUS
 62
    7
 10
766.6425773784789
 20
383.71283242900211
 11
710.4180898765577
 21
423.08164240982484
  0
LINE
  8
_0-d_寸法3
  6
CONTINUOUS
 62
    7
 10
716.97130623086969
 20
418.49303091901646
 11
712.83020150922937
 21
433.94784413964157
  0
LINE
  8
_0-d_寸法3
  6
CONTINUOUS
 62
    7
 10
716.97130623086969
 20
418.49303091901646
 11
721.11241095251
 21
433.94784413964157
  0
LINE
  8
_0-d_寸法3
  6
CONTINUOUS
 62
    7
 10
766.6425773784789
 20
450.37949909566925
 11
710.4180898765577
 21
489.74830907649198
  0
LINE
  8
_0-d_寸法3
  6
CONTINUOUS
 62
    7
 10
716.97130623086969
 20
485.1596975856836
 11
721.11241095250989
 21
469.70488436505849
  0
LINE
  8
_0-d_寸法3
  6
CONTINUOUS
 62
    7
 10
716.97130623086969
 20
485.1596975856836
 11
712.83020150922925
 21
469.70488436505855
  0
LINE
  8
_0-d_寸法3
  6
CONTINUOUS
 62
    7
 10
716.97130623086969
 20
418.49303091901646
 11
716.97130623086969
 21
485.1596975856836
  0
TEXT
  8
_0-d_寸法3
 62
    7
 10
716.97130623086969
 20
439.82636425235006
 40
24
 41
1
 50
90
  1
25
  0
LINE
  8
_0-a_極細3
  6
CONTINUOUS
 62
    7
 10
363.25823426765965
 20
286.34633130739064
 11
355.04975082784335
 21
308.89895420625294
  0
LINE
  8
_0-a_極細3
  6
CONTINUOUS
 62
    7
 10
443.24870254573398
 20
341.00074732504697
 11
451.45718598554959
 21
318.44812442618468
  0
LINE
  8
_0-a_極細3
  6
CONTINUOUS
 62
    7
 10
355.04975082784335
 20
308.89895420625294
 11
443.24870254573398
 21
341.00074732504697
  0
LINE
  8
_0-a_極細3
  6
CONTINUOUS
 62
    7
 10
363.25823426765965
 20
286.34633130739064
 11
451.45718598554959
 21
318.44812442618468
  0
LINE
  8
_0-a_極細3
  6
CENTER1
 62
    7
 10
351.22529912056302
 20
294.73683469277421
 11
453.67493189266827
 21
332.02545146883028
  0
LINE
  8
_0-a_極細3
  6
CONTINUOUS
 62
    7
 10
393.08234342043625
 20
246.53560944738535
 11
393.08234342043625
 21
317.07250760469083
  0
LINE
  8
_0-a_極細3
  6
CONTINUOUS
 62
    7
 10
393.08234342043625
 20
317.07250760469083
 11
369.08234342043625
 21
317.07250760469083
  0
LINE
  8
_0-a_極細3
  6
CONTINUOUS
 62
    7
 10
369.08234342043625
 20
317.07250760469083
 11
369.08234342043625
 21
246.53560944738535
  0
LINE
  8
_0-a_極細3
  6
CENTER1
 62
    7
 10
381.08234342043625
 20
233.29282499226065
 11
381.08234342043625
 21
323.91365986806602
  0
LINE
  8
_0-d_寸法3
  6
CONTINUOUS
 62
    7
 10
417.08234342043647
 20
366.53560944738541
 11
343.56229369469338
 21
366.53560944738535
  0
LINE
  8
_0-d_寸法3
  6
CONTINUOUS
 62
    7
 10
351.56229369469338
 20
366.53560944738535
 11
355.70339841633358
 21
351.08079622676024
  0
LINE
  8
_0-d_寸法3
  6
CONTINUOUS
 62
    7
 10
351.56229369469338
 20
366.53560944738535
 11
347.42118897305295
 21
351.0807962267603
  0
LINE
  8
_0-d_寸法3
  6
CONTINUOUS
 62
    7
 10
413.88234342043654
 20
305.20227611405187
 11
343.56229369469361
 21
305.20227611405176
  0
LINE
  8
_0-d_寸法3
  6
CONTINUOUS
 62
    7
 10
351.56229369469361
 20
305.20227611405176
 11
347.42118897305329
 21
320.65708933467681
  0
LINE
  8
_0-d_寸法3
  6
CONTINUOUS
 62
    7
 10
351.56229369469361
 20
305.20227611405176
 11
355.70339841633393
 21
320.65708933467693
  0
LINE
  8
_0-d_寸法3
  6
CONTINUOUS
 62
    7
 10
351.56229369469338
 20
366.53560944738535
 11
351.56229369469361
 21
305.20227611405176
  0
TEXT
  8
_0-d_寸法3
 62
    7
 10
351.56229369469338
 20
323.86894278071827
 40
24
 41
1
 50
90
  1
23
  0
LINE
  8
_0-d_寸法3
  6
CONTINUOUS
 62
    7
 10
417.08234342043625
 20
441.20227611405193
 11
343.56229369469338
 21
441.20227611405255
  0
LINE
  8
_0-d_寸法3
  6
CONTINUOUS
 62
    7
 10
351.56229369469338
 20
441.20227611405249
 11
355.7033984163337
 21
425.74746289342738
  0
LINE
  8
_0-d_寸法3
  6
CONTINUOUS
 62
    7
 10
351.56229369469338
 20
441.20227611405249
 11
347.42118897305295
 21
425.74746289342738
  0
LINE
  8
_0-d_寸法3
  6
CONTINUOUS
 62
    7
 10
413.8823434204362
 20
366.53560944738541
 11
343.56229369469338
 21
366.53560944738535
  0
LINE
  8
_0-d_寸法3
  6
CONTINUOUS
 62
    7
 10
351.56229369469338
 20
366.53560944738535
 11
347.42118897305295
 21
381.99042266801047
  0
LINE
  8
_0-d_寸法3
  6
CONTINUOUS
 62
    7
 10
351.56229369469338
 20
366.53560944738535
 11
355.7033984163337
 21
381.99042266801047
  0
LINE
  8
_0-d_寸法3
  6
CONTINUOUS
 62
    7
 10
351.56229369469338
 20
441.20227611405249
 11
351.56229369469338
 21
366.53560944738535
  0
TEXT
  8
_0-d_寸法3
 62
    7
 10
351.56229369469338
 20
391.86894278071895
 40
24
 41
1
 50
90
  1
28
  0
LINE
  8
_0-a_極細3
  6
CONTINUOUS
 62
    7
 10
1196.2397859065459
 20
286.34633130739064
 11
1204.4482693463622
 21
308.89895420625294
  0
LINE
  8
_0-a_極細3
  6
CONTINUOUS
 62
    7
 10
1116.249317628472
 20
341.00074732504697
 11
1108.0408341886564
 21
318.44812442618468
  0
LINE
  8
_0-a_極細3
  6
CONTINUOUS
 62
    7
 10
1204.4482693463622
 20
308.89895420625294
 11
1116.249317628472
 21
341.00074732504697
  0
LINE
  8
_0-a_極細3
  6
CONTINUOUS
 62
    7
 10
1196.2397859065459
 20
286.34633130739064
 11
1108.0408341886564
 21
318.44812442618468
  0
LINE
  8
_0-a_極細3
  6
CENTER1
 62
    7
 10
1208.2727210536425
 20
294.73683469277421
 11
1105.8230882815378
 21
332.02545146883028
  0
LINE
  8
_0-a_極細3
  6
CONTINUOUS
 62
    7
 10
1166.4156767537695
 20
246.53560944738535
 11
1166.4156767537695
 21
317.07250760469083
  0
LINE
  8
_0-a_極細3
  6
CONTINUOUS
 62
    7
 10
1190.4156767537695
 20
317.07250760469083
 11
1190.4156767537695
 21
246.53560944738535
  0
LINE
  8
_0-a_極細3
  6
CENTER1
 62
    7
 10
1178.4156767537695
 20
233.29282499226065
 11
1178.4156767537695
 21
323.91365986806602
  0
LINE
  8
_0-a_極細3
  6
CONTINUOUS
 62
    7
 10
1166.4156767537695
 20
317.07250760469083
 11
1190.4156767537695
 21
317.07250760469083
  0
CIRCLE
  8
_0-a_極細3
  6
CONTINUOUS
 62
    7
 10
1201.1212450805258
 20
320.56427599058486
 40
0.884938271604915
  0
CIRCLE
  8
_0-a_極細3
  6
CONTINUOUS
 62
    7
 10
1169.7612450805261
 20
329.52427599058473
 40
0.884938271604915
  0
TEXT
  8
_0-7_枠細線
 62
    5
 10
699.87373386432853
 20
134.53502544470007
 40
40
 41
0.8
 50
0
  1
断面詳細図
  0
ARC
  8
_0-b_細線3
  6
CONTINUOUS
 62
    7
 10
453.62434874843825
 20
394.53560944738581
 40
0.5333333333333335
 50
179.99999999999983
 51
269.99999999999977
  0
LINE
  8
_0-b_細線3
  6
CONTINUOUS
 62
    7
 10
457.08234341510547
 20
394.00227611405222
 11
453.62434874843825
 21
394.00227611405222
  0
ARC
  8
_0-b_細線3
  6
CONTINUOUS
 62
    7
 10
453.62434874843825
 20
428.13560944738509
 40
0.5333333333333335
 50
89.999999999999915
 51
179.99999999999983
  0
LINE
  8
_0-b_細線3
  6
CONTINUOUS
 62
    7
 10
457.08234341510547
 20
428.66894278071948
 11
453.62434874843825
 21
428.66894278071948
  0
LINE
  8
_0-b_細線3
  6
CONTINUOUS
 62
    7
 10
453.09101541510393
 20
410.00227611405222
 11
453.09101541510393
 21
394.53560944738581
  0
LINE
  8
_0-b_細線3
  6
CONTINUOUS
 62
    7
 10
453.09101541510393
 20
428.13560944738509
 11
453.09101541510393
 21
410.00227611405222
  0
LINE
  8
_0-b_細線3
  6
CONTINUOUS
 62
    7
 10
453.09101541510393
 20
411.33560944738508
 11
445.07897274843708
 21
411.33560944738508
  0
LINE
  8
_0-b_細線3
  6
CONTINUOUS
 62
    7
 10
453.09101541510393
 20
402.00227611405296
 11
445.07894074843864
 21
402.00227611405296
  0
ARC
  8
_0-b_細線3
  6
CONTINUOUS
 62
    7
 10
445.07894074843864
 20
402.53560944738581
 40
0.5333333333333335
 50
179.99999999999983
 51
269.99999999999977
  0
ARC
  8
_0-b_細線3
  6
CONTINUOUS
 62
    7
 10
465.23355408177088
 20
406.66855344738667
 40
20.687882666666667
 50
166.96197800000505
 51
193.03566999999961
  0
ARC
  8
_0-b_細線3
  6
CONTINUOUS
 62
    7
 10
445.07894074843864
 20
420.13560944738663
 40
0.5333333333333335
 50
89.999999999999915
 51
179.99999999999983
  0
ARC
  8
_0-b_細線3
  6
CONTINUOUS
 62
    7
 10
465.23355408177088
 20
416.00266011405199
 40
20.687882666666667
 50
166.96433000000002
 51
193.03802199999825
  0
LINE
  8
_0-b_細線3
  6
CONTINUOUS
 62
    7
 10
453.09101541510393
 20
420.66894278071948
 11
445.07894074843864
 21
420.66894278071948
  0
LINE
  8
_0-b_細線3
  6
CONTINUOUS
 62
    7
 10
444.54560741510431
 20
402.53560944738581
 11
444.54560741510431
 21
420.13560944738663
  0
ARC
  8
_0-b_細線3
  6
CONTINUOUS
 62
    7
 10
1105.873671425767
 20
394.53560944738581
 40
0.5333333333333335
 50
269.99999999999977
 51
359.99999999999966
  0
LINE
  8
_0-b_細線3
  6
CONTINUOUS
 62
    7
 10
1102.4156767590998
 20
394.00227611405222
 11
1105.873671425767
 21
394.00227611405222
  0
ARC
  8
_0-b_細線3
  6
CONTINUOUS
 62
    7
 10
1105.873671425767
 20
428.13560944738509
 40
0.5333333333333335
 50
0
 51
89.999999999999915
  0
LINE
  8
_0-b_細線3
  6
CONTINUOUS
 62
    7
 10
1102.4156767590998
 20
428.66894278071948
 11
1105.873671425767
 21
428.66894278071948
  0
LINE
  8
_0-b_細線3
  6
CONTINUOUS
 62
    7
 10
1106.4070047591013
 20
410.00227611405222
 11
1106.4070047591013
 21
394.53560944738581
  0
LINE
  8
_0-b_細線3
  6
CONTINUOUS
 62
    7
 10
1106.4070047591013
 20
428.13560944738509
 11
1106.4070047591013
 21
410.00227611405222
  0
LINE
  8
_0-b_細線3
  6
CONTINUOUS
 62
    7
 10
1106.4070047591013
 20
411.33560944738508
 11
1114.4190474257673
 21
411.33560944738508
  0
LINE
  8
_0-b_細線3
  6
CONTINUOUS
 62
    7
 10
1106.4070047591013
 20
402.00227611405296
 11
1114.4190794257665
 21
402.00227611405296
  0
ARC
  8
_0-b_細線3
  6
CONTINUOUS
 62
    7
 10
1114.4190794257665
 20
402.53560944738581
 40
0.5333333333333335
 50
269.99999999999977
 51
359.99999999999966
  0
ARC
  8
_0-b_細線3
  6
CONTINUOUS
 62
    7
 10
1094.2644660924343
 20
406.66855344738667
 40
20.687882666666667
 50
346.96432999999968
 51
13.038021999994573
  0
ARC
  8
_0-b_細線3
  6
CONTINUOUS
 62
    7
 10
1114.4190794257665
 20
420.13560944738663
 40
0.5333333333333335
 50
0
 51
89.999999999999915
  0
ARC
  8
_0-b_細線3
  6
CONTINUOUS
 62
    7
 10
1094.2644660924343
 20
416.00266011405199
 40
20.687882666666667
 50
346.96197800000101
 51
13.035669999999625
  0
LINE
  8
_0-b_細線3
  6
CONTINUOUS
 62
    7
 10
1106.4070047591013
 20
420.66894278071948
 11
1114.4190794257665
 21
420.66894278071948
  0
LINE
  8
_0-b_細線3
  6
CONTINUOUS
 62
    7
 10
1114.9524127591001
 20
402.53560944738581
 11
1114.9524127591001
 21
420.13560944738663
  0
LINE
  8
_0-b_細線3
  6
CONTINUOUS
 62
    7
 10
874.94901009050375
 20
394.00227611405222
 11
911.21567675717097
 21
394.00227611405222
  0
LINE
  8
_0-b_細線3
  6
CONTINUOUS
 62
    7
 10
829.6156767562054
 20
394.00227611405222
 11
865.88234342287217
 21
394.00227611405222
  0
LINE
  8
_0-b_細線3
  6
CONTINUOUS
 62
    7
 10
738.94901008760939
 20
394.00227611405222
 11
775.21567675427582
 21
394.00227611405222
  0
LINE
  8
_0-b_細線3
  6
CONTINUOUS
 62
    7
 10
693.61567675331173
 20
394.00227611405222
 11
729.88234341997816
 21
394.00227611405222
  0
LINE
  8
_0-b_細線3
  6
CONTINUOUS
 62
    7
 10
648.28234341901259
 20
394.00227611405222
 11
684.54901008567981
 21
394.00227611405222
  0
LINE
  8
_0-b_細線3
  6
CONTINUOUS
 62
    7
 10
920.28234342480209
 20
394.00227611405222
 11
956.54901009146852
 21
394.00227611405222
  0
LINE
  8
_0-b_細線3
  6
CONTINUOUS
 62
    7
 10
965.61567675910055
 20
394.00227611405222
 11
1001.882343425767
 21
394.00227611405222
  0
LINE
  8
_0-b_細線3
  6
CONTINUOUS
 62
    7
 10
1010.9490100933981
 20
394.00227611405222
 11
1047.2156767600654
 21
394.00227611405222
  0
LINE
  8
_0-b_細線3
  6
CONTINUOUS
 62
    7
 10
602.94901008420823
 20
394.00227611405222
 11
639.21567675087533
 21
394.00227611405222
  0
LINE
  8
_0-b_細線3
  6
CONTINUOUS
 62
    7
 10
557.61567674940375
 20
394.00227611405222
 11
593.88234341607097
 21
394.00227611405222
  0
LINE
  8
_0-b_細線3
  6
CONTINUOUS
 62
    7
 10
512.28234341459938
 20
394.00227611405222
 11
548.54901008126649
 21
394.00227611405222
  0
LINE
  8
_0-b_細線3
  6
CONTINUOUS
 62
    7
 10
466.14901007928825
 20
394.00227611405222
 11
503.21567674595531
 21
394.00227611405222
  0
LINE
  8
_0-b_細線3
  6
CONTINUOUS
 62
    7
 10
1056.2823434276966
 20
394.00227611405222
 11
1093.3490100943636
 21
394.00227611405222
  0
LINE
  8
_0-b_細線3
  6
CONTINUOUS
 62
    7
 10
874.94901009050375
 20
428.66894278071868
 11
911.21567675717097
 21
428.66894278071868
  0
LINE
  8
_0-b_細線3
  6
CONTINUOUS
 62
    7
 10
829.6156767562054
 20
428.66894278071868
 11
865.88234342287217
 21
428.66894278071868
  0
LINE
  8
_0-b_細線3
  6
CONTINUOUS
 62
    7
 10
738.94901008760939
 20
428.66894278071868
 11
775.21567675427582
 21
428.66894278071868
  0
LINE
  8
_0-b_細線3
  6
CONTINUOUS
 62
    7
 10
693.61567675331173
 20
428.66894278071868
 11
729.88234341997816
 21
428.66894278071868
  0
LINE
  8
_0-b_細線3
  6
CONTINUOUS
 62
    7
 10
648.28234341901259
 20
428.66894278071868
 11
684.54901008567981
 21
428.66894278071868
  0
LINE
  8
_0-b_細線3
  6
CONTINUOUS
 62
    7
 10
920.28234342480209
 20
428.66894278071868
 11
956.54901009146852
 21
428.66894278071868
  0
LINE
  8
_0-b_細線3
  6
CONTINUOUS
 62
    7
 10
965.61567675910055
 20
428.66894278071868
 11
1001.882343425767
 21
428.66894278071868
  0
LINE
  8
_0-b_細線3
  6
CONTINUOUS
 62
    7
 10
1010.9490100933981
 20
428.66894278071868
 11
1047.2156767600654
 21
428.66894278071868
  0
LINE
  8
_0-b_細線3
  6
CONTINUOUS
 62
    7
 10
602.94901008420823
 20
428.66894278071868
 11
639.21567675087533
 21
428.66894278071868
  0
LINE
  8
_0-b_細線3
  6
CONTINUOUS
 62
    7
 10
557.61567674940375
 20
428.66894278071868
 11
593.88234341607097
 21
428.66894278071868
  0
LINE
  8
_0-b_細線3
  6
CONTINUOUS
 62
    7
 10
512.28234341459938
 20
428.66894278071868
 11
548.54901008126649
 21
428.66894278071868
  0
LINE
  8
_0-b_細線3
  6
CONTINUOUS
 62
    7
 10
466.14901007928825
 20
428.66894278071868
 11
503.21567674595531
 21
428.66894278071868
  0
LINE
  8
_0-b_細線3
  6
CONTINUOUS
 62
    7
 10
1056.2823434276966
 20
428.66894278071868
 11
1093.3490100943636
 21
428.66894278071868
  0
LINE
  8
_0-a_極細3
  6
CENTER1
 62
    7
 10
1129.6156767537702
 20
411.33560944738508
 11
430.43595550917098
 21
411.33560944738508
  0
LINE
  8
_0-b_細線3
  6
CONTINUOUS
 62
    7
 10
784.28234342190774
 20
428.66894278071868
 11
796.20288769675358
 21
428.66894278071868
  0
LINE
  8
_0-b_細線3
  6
CONTINUOUS
 62
    7
 10
808.73622103008779
 20
428.66894278071868
 11
820.54901008857416
 21
428.66894278071868
  0
ARC
  8
_0-b_細線3
  6
CONTINUOUS
 62
    7
 10
767.21567675671179
 20
435.86894278071821
 40
2.6666666666666674
 50
89.999999999999915
 51
179.99999999999983
  0
ARC
  8
_0-b_細線3
  6
CONTINUOUS
 62
    7
 10
768.46354126691881
 20
441.20227611405181
 40
2.6666666666666674
 50
269.99999999999977
 51
329.9999999999946
  0
ARC
  8
_0-b_細線3
  6
CONTINUOUS
 62
    7
 10
773.08234342043579
 20
438.53560944738535
 40
2.6666666666666674
 50
89.999999999999915
 51
150.0000000000087
  0
LINE
  8
_0-b_細線3
  6
CONTINUOUS
 62
    7
 10
767.21567675671179
 20
438.53560944738535
 11
768.46354126691881
 21
438.53560944738535
  0
ARC
  8
_0-b_細線3
  6
CONTINUOUS
 62
    7
 10
792.28234341749339
 20
435.86894278071821
 40
2.6666666666666674
 50
0
 51
89.999999999999915
  0
ARC
  8
_0-b_細線3
  6
CONTINUOUS
 62
    7
 10
791.03447890728648
 20
441.20227611405181
 40
2.6666666666666674
 50
210.00000000000347
 51
269.99999999999977
  0
ARC
  8
_0-b_細線3
  6
CONTINUOUS
 62
    7
 10
786.41567675376939
 20
438.53560944738535
 40
2.6666666666666674
 50
29.999999999991321
 51
89.999999999999901
  0
LINE
  8
_0-b_細線3
  6
CONTINUOUS
 62
    7
 10
792.28234341749339
 20
438.53560944738535
 11
791.03447890728648
 21
438.53560944738535
  0
ARC
  8
_0-b_細線3
  6
CONTINUOUS
 62
    7
 10
765.8823434233791
 20
432.13560944738538
 40
1.3333333333333337
 50
179.99999999999983
 51
269.99999999999977
  0
LINE
  8
_0-b_細線3
  6
CONTINUOUS
 62
    7
 10
764.54901009004539
 20
435.86894278071821
 11
764.54901009004539
 21
432.13560944738538
  0
ARC
  8
_0-b_細線3
  6
CONTINUOUS
 62
    7
 10
793.61567675082699
 20
432.13560944738538
 40
1.3333333333333337
 50
269.99999999999977
 51
359.99999999999966
  0
LINE
  8
_0-b_細線3
  6
CONTINUOUS
 62
    7
 10
794.94901008415991
 20
435.86894278071821
 11
794.94901008415991
 21
432.13560944738538
  0
ARC
  8
_0-b_細線3
  6
CONTINUOUS
 62
    7
 10
772.54901009004539
 20
428.13560944738538
 40
2.6666666666666674
 50
0
 51
89.999999999999915
  0
LINE
  8
_0-b_細線3
  6
CONTINUOUS
 62
    7
 10
772.54901009004539
 20
430.80227611405178
 11
765.8823434233791
 21
430.80227611405178
  0
ARC
  8
_0-b_細線3
  6
CONTINUOUS
 62
    7
 10
786.94901009004536
 20
428.13560944738538
 40
2.6666666666666674
 50
89.999999999999915
 51
179.99999999999983
  0
LINE
  8
_0-b_細線3
  6
CONTINUOUS
 62
    7
 10
786.94901008415911
 20
430.80227611405178
 11
793.61567675082699
 21
430.80227611405178
  0
LINE
  8
_0-b_細線3
  6
CONTINUOUS
 62
    7
 10
786.41567675376939
 20
441.20227611405181
 11
773.08234342043579
 21
441.20227611405181
  0
LINE
  8
_0-b_細線3
  6
CONTINUOUS
 62
    7
 10
775.21567675376946
 20
374.53560944738535
 11
775.21567675671179
 21
428.13560944738538
  0
LINE
  8
_0-b_細線3
  6
CONTINUOUS
 62
    7
 10
784.28234342043584
 20
374.53560944738535
 11
784.28234342337896
 21
428.13560944738538
  0
LINE
  8
_0-b_細線3
  6
CONTINUOUS
 62
    7
 10
784.28234342043584
 20
374.53560944738535
 11
775.21567675376946
 21
374.53560944738535
  0
LINE
  8
_0-b_細線3
  6
CONTINUOUS
 62
    7
 10
808.7362210300879
 20
442.41249237557849
 11
808.7362210300879
 21
389.0791590422441
  0
LINE
  8
_0-b_細線3
  6
CONTINUOUS
 62
    7
 10
796.20288769675369
 20
389.0791590422441
 11
796.20288769675369
 21
442.41249237557849
  0
LINE
  8
_0-b_細線3
  6
CONTINUOUS
 62
    7
 10
808.7362210300879
 20
389.0791590422441
 11
796.20288769675369
 21
389.0791590422441
  0
LINE
  8
_0-b_細線3
  6
CONTINUOUS
 62
    7
 10
796.20288769675369
 20
442.41249237557849
 11
808.7362210300879
 21
442.41249237557849
  0
LINE
  8
_0-b_細線3
  6
DASHED2
 62
    7
 10
796.20288769675369
 20
397.07915904224416
 11
808.7362210300879
 21
397.07915904224416
  0
LINE
  8
_0-b_細線3
  6
DASHED2
 62
    7
 10
796.20288769675369
 20
434.41249237557849
 11
808.7362210300879
 21
434.41249237557849
  0
LINE
  8
_0-b_細線3
  6
CONTINUOUS
 62
    7
 10
784.28234342147562
 20
394.00227611405222
 11
796.20288769675369
 21
394.00227611405222
  0
LINE
  8
_0-b_細線3
  6
CONTINUOUS
 62
    7
 10
808.7362210300879
 20
394.00227611405222
 11
820.54901008857416
 21
394.00227611405222
  0
LINE
  8
_0-b_細線3
  6
CONTINUOUS
 62
    7
 10
433.08234342043625
 20
398.53560944738541
 11
433.08234342043625
 21
305.20227611405221
  0
LINE
  8
_0-b_細線3
  6
CONTINUOUS
 62
    7
 10
433.08234342043625
 20
305.20227611405221
 11
426.94901008710292
 21
305.20227611405221
  0
LINE
  8
_0-b_細線3
  6
CONTINUOUS
 62
    7
 10
426.94901008710292
 20
305.20227611405221
 11
426.94901008710292
 21
398.53560944738541
  0
LINE
  8
_0-b_細線3
  6
CONTINUOUS
 62
    7
 10
426.94901008710292
 20
398.53560944738541
 11
433.08234342043625
 21
398.53560944738541
  0
LINE
  8
_0-a_極細3
  6
CONTINUOUS
 62
    7
 10
426.94901008710292
 20
355.86894278071873
 11
433.08234342043625
 21
355.86894278071873
  0
LINE
  8
_0-a_極細3
  6
CONTINUOUS
 62
    7
 10
426.94901008710292
 20
361.20227611405215
 11
433.08234342043625
 21
361.20227611405215
  0
LINE
  8
_0-a_極細3
  6
CONTINUOUS
 62
    7
 10
426.94901008710292
 20
350.53560944738535
 11
433.08234342043625
 21
350.53560944738535
  0
LINE
  8
_0-a_極細3
  6
CONTINUOUS
 62
    7
 10
426.94901008710292
 20
366.53560944738535
 11
433.08234342043625
 21
366.53560944738535
  0
LINE
  8
_0-a_極細3
  6
CONTINUOUS
 62
    7
 10
433.08234342043625
 20
313.20227611405221
 11
426.94901008710292
 21
313.20227611405221
  0
LINE
  8
_0-a_極細3
  6
CONTINUOUS
 62
    7
 10
426.94901008710292
 20
393.20227611405215
 11
433.08234342043625
 21
393.20227611405215
  0
LINE
  8
_0-b_細線3
  6
CONTINUOUS
 62
    7
 10
1126.41567675377
 20
398.53560944738541
 11
1126.41567675377
 21
305.20227611405221
  0
LINE
  8
_0-b_細線3
  6
CONTINUOUS
 62
    7
 10
1126.41567675377
 20
305.20227611405221
 11
1132.5490100871032
 21
305.20227611405221
  0
LINE
  8
_0-b_細線3
  6
CONTINUOUS
 62
    7
 10
1132.5490100871032
 20
305.20227611405221
 11
1132.5490100871032
 21
398.53560944738541
  0
LINE
  8
_0-b_細線3
  6
CONTINUOUS
 62
    7
 10
1132.5490100871032
 20
398.53560944738541
 11
1126.41567675377
 21
398.53560944738541
  0
LINE
  8
_0-a_極細3
  6
CONTINUOUS
 62
    7
 10
1132.5490100871032
 20
355.86894278071873
 11
1126.41567675377
 21
355.86894278071873
  0
LINE
  8
_0-a_極細3
  6
CONTINUOUS
 62
    7
 10
1132.5490100871032
 20
361.20227611405215
 11
1126.41567675377
 21
361.20227611405215
  0
LINE
  8
_0-a_極細3
  6
CONTINUOUS
 62
    7
 10
1132.5490100871032
 20
350.53560944738535
 11
1126.41567675377
 21
350.53560944738535
  0
LINE
  8
_0-a_極細3
  6
CONTINUOUS
 62
    7
 10
1132.5490100871032
 20
366.53560944738535
 11
1126.41567675377
 21
366.53560944738535
  0
LINE
  8
_0-a_極細3
  6
CONTINUOUS
 62
    7
 10
1126.41567675377
 20
313.20227611405221
 11
1132.5490100871032
 21
313.20227611405221
  0
LINE
  8
_0-a_極細3
  6
CONTINUOUS
 62
    7
 10
1132.5490100871032
 20
393.20227611405215
 11
1126.41567675377
 21
393.20227611405215
  0
LINE
  8
_0-7_枠細線
  6
CONTINUOUS
 62
    5
 10
1161.2381570320988
 20
381.46892432728919
 11
1149.2381570320988
 21
405.46892432728919
  0
LINE
  8
_0-7_枠細線
  6
CONTINUOUS
 62
    5
 10
1137.2381570320988
 20
381.46892432728919
 11
1161.2381570320988
 21
381.46892432728919
  0
LINE
  8
_0-7_枠細線
  6
CONTINUOUS
 62
    5
 10
1149.2381570320988
 20
405.46892432728919
 11
1137.2381570320988
 21
381.46892432728919
  0
TEXT
  8
_0-7_枠細線
 62
    5
 10
1141.022399061136
 20
379.95081238352935
 40
20
 41
0.8
 50
0
  1
５
  0
LINE
  8
_0-1_計細線
  6
CONTINUOUS
 62
    3
 10
280.24901008710299
 20
1016.1467153284609
 11
1279.249010087103
 21
1016.1467153284609
  0
LINE
  8
_0-1_計細線
  6
CONTINUOUS
 62
    3
 10
280.24901008710299
 20
1027.5467153284615
 11
1279.249010087103
 21
1027.5467153284615
  0
LINE
  8
_0-1_計細線
  6
CONTINUOUS
 62
    3
 10
280.24901008710299
 20
1016.1467153284609
 11
280.24901008710299
 21
1027.5467153284615
  0
LINE
  8
_0-1_計細線
  6
CONTINUOUS
 62
    3
 10
1279.249010087103
 20
1016.1467153284609
 11
1279.249010087103
 21
1027.5467153284615
  0
LINE
  8
_0-0_計極細
  6
CONTINUOUS
 62
    2
 10
280.24901008710299
 20
1024.3467153284612
 11
1279.249010087103
 21
1024.3467153284612
  0
LINE
  8
_0-0_計極細
  6
CONTINUOUS
 62
    2
 10
280.24901008710299
 20
1019.3467153284612
 11
1279.249010087103
 21
1019.3467153284612
  0
LINE
  8
_0-1_計細線
  6
CONTINUOUS
 62
    3
 10
280.24901008710299
 20
1033.1467153284614
 11
1279.249010087103
 21
1033.1467153284614
  0
LINE
  8
_0-1_計細線
  6
CONTINUOUS
 62
    3
 10
280.24901008710299
 20
1044.5467153284619
 11
1279.249010087103
 21
1044.5467153284619
  0
LINE
  8
_0-1_計細線
  6
CONTINUOUS
 62
    3
 10
280.24901008710299
 20
1033.1467153284614
 11
280.24901008710299
 21
1044.5467153284619
  0
LINE
  8
_0-1_計細線
  6
CONTINUOUS
 62
    3
 10
1279.249010087103
 20
1033.1467153284614
 11
1279.249010087103
 21
1044.5467153284619
  0
LINE
  8
_0-0_計極細
  6
CONTINUOUS
 62
    2
 10
280.24901008710299
 20
1041.3467153284621
 11
1279.249010087103
 21
1041.3467153284621
  0
LINE
  8
_0-0_計極細
  6
CONTINUOUS
 62
    2
 10
280.24901008710299
 20
1036.3467153284621
 11
1279.249010087103
 21
1036.3467153284621
  0
LINE
  8
_0-1_計細線
  6
CONTINUOUS
 62
    3
 10
280.24901008710299
 20
1095.5467153284596
 11
1279.249010087103
 21
1095.5467153284596
  0
LINE
  8
_0-1_計細線
  6
CONTINUOUS
 62
    3
 10
280.24901008710299
 20
1084.1467153284591
 11
1279.249010087103
 21
1084.1467153284591
  0
LINE
  8
_0-1_計細線
  6
CONTINUOUS
 62
    3
 10
280.24901008710299
 20
1095.5467153284596
 11
280.24901008710299
 21
1084.1467153284591
  0
LINE
  8
_0-1_計細線
  6
CONTINUOUS
 62
    3
 10
1279.249010087103
 20
1095.5467153284596
 11
1279.249010087103
 21
1084.1467153284591
  0
LINE
  8
_0-0_計極細
  6
CONTINUOUS
 62
    2
 10
280.24901008710299
 20
1087.3467153284594
 11
1279.249010087103
 21
1087.3467153284594
  0
LINE
  8
_0-0_計極細
  6
CONTINUOUS
 62
    2
 10
280.24901008710299
 20
1092.3467153284594
 11
1279.249010087103
 21
1092.3467153284594
  0
LINE
  8
_0-0_計極細
  6
CENTER2
 62
    2
 10
264.36041055008377
 20
1055.8467153284603
 11
1295.2937438834617
 21
1055.8467153284603
  0
LINE
  8
_0-1_計細線
  6
CONTINUOUS
 62
    3
 10
280.24901008710299
 20
1163.5467153284601
 11
1279.249010087103
 21
1163.5467153284601
  0
LINE
  8
_0-1_計細線
  6
CONTINUOUS
 62
    3
 10
280.24901008710299
 20
1152.1467153284595
 11
1279.249010087103
 21
1152.1467153284595
  0
LINE
  8
_0-1_計細線
  6
CONTINUOUS
 62
    3
 10
280.24901008710299
 20
1163.5467153284601
 11
280.24901008710299
 21
1152.1467153284595
  0
LINE
  8
_0-1_計細線
  6
CONTINUOUS
 62
    3
 10
1279.249010087103
 20
1163.5467153284601
 11
1279.249010087103
 21
1152.1467153284595
  0
LINE
  8
_0-0_計極細
  6
CONTINUOUS
 62
    2
 10
280.24901008710299
 20
1155.3467153284598
 11
1279.249010087103
 21
1155.3467153284598
  0
LINE
  8
_0-0_計極細
  6
CONTINUOUS
 62
    2
 10
280.24901008710299
 20
1160.3467153284598
 11
1279.249010087103
 21
1160.3467153284598
  0
LINE
  8
_0-1_計細線
  6
CONTINUOUS
 62
    3
 10
280.24901008710299
 20
1180.8467153284603
 11
1279.249010087103
 21
1180.8467153284603
  0
LINE
  8
_0-1_計細線
  6
CONTINUOUS
 62
    3
 10
280.24901008710299
 20
1169.4467153284597
 11
1279.249010087103
 21
1169.4467153284597
  0
LINE
  8
_0-1_計細線
  6
CONTINUOUS
 62
    3
 10
280.24901008710299
 20
1180.8467153284603
 11
280.24901008710299
 21
1169.4467153284597
  0
LINE
  8
_0-1_計細線
  6
CONTINUOUS
 62
    3
 10
1279.249010087103
 20
1180.8467153284603
 11
1279.249010087103
 21
1169.4467153284597
  0
LINE
  8
_0-0_計極細
  6
CONTINUOUS
 62
    2
 10
280.24901008710299
 20
1172.64671532846
 11
1279.249010087103
 21
1172.64671532846
  0
LINE
  8
_0-0_計極細
  6
CONTINUOUS
 62
    2
 10
280.24901008710299
 20
1177.64671532846
 11
1279.249010087103
 21
1177.64671532846
  0
LINE
  8
_0-1_計細線
  6
CONTINUOUS
 62
    3
 10
280.24901008710299
 20
948.14671532846046
 11
1279.249010087103
 21
948.14671532846046
  0
LINE
  8
_0-1_計細線
  6
CONTINUOUS
 62
    3
 10
280.24901008710299
 20
959.546715328461
 11
1279.249010087103
 21
959.546715328461
  0
LINE
  8
_0-1_計細線
  6
CONTINUOUS
 62
    3
 10
280.24901008710299
 20
948.14671532846046
 11
280.24901008710299
 21
959.546715328461
  0
LINE
  8
_0-1_計細線
  6
CONTINUOUS
 62
    3
 10
1279.249010087103
 20
948.14671532846046
 11
1279.249010087103
 21
959.546715328461
  0
LINE
  8
_0-0_計極細
  6
CONTINUOUS
 62
    2
 10
280.24901008710299
 20
956.34671532846073
 11
1279.249010087103
 21
956.34671532846073
  0
LINE
  8
_0-0_計極細
  6
CONTINUOUS
 62
    2
 10
280.24901008710299
 20
951.34671532846073
 11
1279.249010087103
 21
951.34671532846073
  0
LINE
  8
_0-1_計細線
  6
CONTINUOUS
 62
    3
 10
280.24901008710299
 20
930.84671532846028
 11
1279.249010087103
 21
930.84671532846028
  0
LINE
  8
_0-1_計細線
  6
CONTINUOUS
 62
    3
 10
280.24901008710299
 20
942.24671532846082
 11
1279.249010087103
 21
942.24671532846082
  0
LINE
  8
_0-1_計細線
  6
CONTINUOUS
 62
    3
 10
280.24901008710299
 20
930.84671532846028
 11
280.24901008710299
 21
942.24671532846082
  0
LINE
  8
_0-1_計細線
  6
CONTINUOUS
 62
    3
 10
1279.249010087103
 20
930.84671532846028
 11
1279.249010087103
 21
942.24671532846082
  0
LINE
  8
_0-0_計極細
  6
CONTINUOUS
 62
    2
 10
280.24901008710299
 20
939.04671532846055
 11
1279.249010087103
 21
939.04671532846055
  0
LINE
  8
_0-0_計極細
  6
CONTINUOUS
 62
    2
 10
280.24901008710299
 20
934.04671532846055
 11
1279.249010087103
 21
934.04671532846055
  0
LINE
  8
_0-1_計細線
  6
CONTINUOUS
 62
    3
 10
280.24901008710299
 20
1112.5467153284601
 11
1279.249010087103
 21
1112.5467153284601
  0
LINE
  8
_0-1_計細線
  6
CONTINUOUS
 62
    3
 10
280.24901008710299
 20
1101.1467153284595
 11
1279.249010087103
 21
1101.1467153284595
  0
LINE
  8
_0-1_計細線
  6
CONTINUOUS
 62
    3
 10
280.24901008710299
 20
1112.5467153284601
 11
280.24901008710299
 21
1101.1467153284595
  0
LINE
  8
_0-1_計細線
  6
CONTINUOUS
 62
    3
 10
1279.249010087103
 20
1112.5467153284601
 11
1279.249010087103
 21
1101.1467153284595
  0
LINE
  8
_0-0_計極細
  6
CONTINUOUS
 62
    2
 10
280.24901008710299
 20
1104.3467153284603
 11
1279.249010087103
 21
1104.3467153284603
  0
LINE
  8
_0-0_計極細
  6
CONTINUOUS
 62
    2
 10
280.24901008710299
 20
1109.3467153284603
 11
1279.249010087103
 21
1109.3467153284603
  0
LINE
  8
_0-1_計細線
  6
CONTINUOUS
 62
    3
 10
280.24901008710299
 20
1129.546715328461
 11
1279.249010087103
 21
1129.546715328461
  0
LINE
  8
_0-1_計細線
  6
CONTINUOUS
 62
    3
 10
280.24901008710299
 20
1118.1467153284605
 11
1279.249010087103
 21
1118.1467153284605
  0
LINE
  8
_0-1_計細線
  6
CONTINUOUS
 62
    3
 10
280.24901008710299
 20
1129.546715328461
 11
280.24901008710299
 21
1118.1467153284605
  0
LINE
  8
_0-1_計細線
  6
CONTINUOUS
 62
    3
 10
1279.249010087103
 20
1129.546715328461
 11
1279.249010087103
 21
1118.1467153284605
  0
LINE
  8
_0-0_計極細
  6
CONTINUOUS
 62
    2
 10
280.24901008710299
 20
1121.3467153284607
 11
1279.249010087103
 21
1121.3467153284607
  0
LINE
  8
_0-0_計極細
  6
CONTINUOUS
 62
    2
 10
280.24901008710299
 20
1126.3467153284607
 11
1279.249010087103
 21
1126.3467153284607
  0
LINE
  8
_0-1_計細線
  6
CONTINUOUS
 62
    3
 10
280.24901008710299
 20
1146.5467153284619
 11
1279.249010087103
 21
1146.5467153284619
  0
LINE
  8
_0-1_計細線
  6
CONTINUOUS
 62
    3
 10
280.24901008710299
 20
1135.1467153284614
 11
1279.249010087103
 21
1135.1467153284614
  0
LINE
  8
_0-1_計細線
  6
CONTINUOUS
 62
    3
 10
280.24901008710299
 20
1146.5467153284619
 11
280.24901008710299
 21
1135.1467153284614
  0
LINE
  8
_0-1_計細線
  6
CONTINUOUS
 62
    3
 10
1279.249010087103
 20
1146.5467153284619
 11
1279.249010087103
 21
1135.1467153284614
  0
LINE
  8
_0-0_計極細
  6
CONTINUOUS
 62
    2
 10
280.24901008710299
 20
1138.3467153284612
 11
1279.249010087103
 21
1138.3467153284612
  0
LINE
  8
_0-0_計極細
  6
CONTINUOUS
 62
    2
 10
280.24901008710299
 20
1143.3467153284612
 11
1279.249010087103
 21
1143.3467153284612
  0
LINE
  8
_0-1_計細線
  6
CONTINUOUS
 62
    3
 10
280.24901008710299
 20
999.14671532846046
 11
1279.249010087103
 21
999.14671532846046
  0
LINE
  8
_0-1_計細線
  6
CONTINUOUS
 62
    3
 10
280.24901008710299
 20
1010.546715328461
 11
1279.249010087103
 21
1010.546715328461
  0
LINE
  8
_0-1_計細線
  6
CONTINUOUS
 62
    3
 10
280.24901008710299
 20
999.14671532846046
 11
280.24901008710299
 21
1010.546715328461
  0
LINE
  8
_0-1_計細線
  6
CONTINUOUS
 62
    3
 10
1279.249010087103
 20
999.14671532846046
 11
1279.249010087103
 21
1010.546715328461
  0
LINE
  8
_0-0_計極細
  6
CONTINUOUS
 62
    2
 10
280.24901008710299
 20
1007.3467153284603
 11
1279.249010087103
 21
1007.3467153284603
  0
LINE
  8
_0-0_計極細
  6
CONTINUOUS
 62
    2
 10
280.24901008710299
 20
1002.3467153284603
 11
1279.249010087103
 21
1002.3467153284603
  0
LINE
  8
_0-1_計細線
  6
CONTINUOUS
 62
    3
 10
280.24901008710299
 20
982.14671532845955
 11
1279.249010087103
 21
982.14671532845955
  0
LINE
  8
_0-1_計細線
  6
CONTINUOUS
 62
    3
 10
280.24901008710299
 20
993.5467153284601
 11
1279.249010087103
 21
993.5467153284601
  0
LINE
  8
_0-1_計細線
  6
CONTINUOUS
 62
    3
 10
280.24901008710299
 20
982.14671532845955
 11
280.24901008710299
 21
993.5467153284601
  0
LINE
  8
_0-1_計細線
  6
CONTINUOUS
 62
    3
 10
1279.249010087103
 20
982.14671532845955
 11
1279.249010087103
 21
993.5467153284601
  0
LINE
  8
_0-0_計極細
  6
CONTINUOUS
 62
    2
 10
280.24901008710299
 20
990.34671532845982
 11
1279.249010087103
 21
990.34671532845982
  0
LINE
  8
_0-0_計極細
  6
CONTINUOUS
 62
    2
 10
280.24901008710299
 20
985.34671532845982
 11
1279.249010087103
 21
985.34671532845982
  0
LINE
  8
_0-1_計細線
  6
CONTINUOUS
 62
    3
 10
280.24901008710299
 20
965.14671532845864
 11
1279.249010087103
 21
965.14671532845864
  0
LINE
  8
_0-1_計細線
  6
CONTINUOUS
 62
    3
 10
280.24901008710299
 20
976.54671532845919
 11
1279.249010087103
 21
976.54671532845919
  0
LINE
  8
_0-1_計細線
  6
CONTINUOUS
 62
    3
 10
280.24901008710299
 20
965.14671532845864
 11
280.24901008710299
 21
976.54671532845919
  0
LINE
  8
_0-1_計細線
  6
CONTINUOUS
 62
    3
 10
1279.249010087103
 20
965.14671532845864
 11
1279.249010087103
 21
976.54671532845919
  0
LINE
  8
_0-0_計極細
  6
CONTINUOUS
 62
    2
 10
280.24901008710299
 20
973.34671532845937
 11
1279.249010087103
 21
973.34671532845937
  0
LINE
  8
_0-0_計極細
  6
CONTINUOUS
 62
    2
 10
280.24901008710299
 20
968.34671532845937
 11
1279.249010087103
 21
968.34671532845937
  0
ARC
  8
_0-0_計極細
  6
CONTINUOUS
 62
    2
 10
267.19523124378725
 20
1178.3467153284598
 40
11.295514677412786
 50
138.39585046827571
 51
221.60414953172395
  0
ARC
  8
_0-0_計極細
  6
CONTINUOUS
 62
    2
 10
250.30278893041691
 20
1163.3467153284585
 40
11.295514677412786
 50
318.39585046827381
 51
41.604149531723962
  0
ARC
  8
_0-0_計極細
  6
CONTINUOUS
 62
    2
 10
267.19523124378725
 20
948.34671532845982
 40
11.295514677412786
 50
138.39585046827571
 51
221.60414953172395
  0
ARC
  8
_0-0_計極細
  6
CONTINUOUS
 62
    2
 10
250.30278893041691
 20
933.34671532845846
 40
11.295514677412786
 50
318.39585046827534
 51
41.604149531723962
  0
LINE
  8
_0-1_計細線
  6
CONTINUOUS
 62
    3
 10
258.74901008710117
 20
1185.8467153284598
 11
1300.749010087103
 21
1185.8467153284598
  0
LINE
  8
_0-1_計細線
  6
CONTINUOUS
 62
    3
 10
1300.749010087103
 20
925.84671532846119
 11
258.74901008710162
 21
925.84671532846119
  0
ARC
  8
_0-0_計極細
  6
CONTINUOUS
 62
    2
 10
1309.1952312437882
 20
1178.3467153284598
 40
11.295514677412786
 50
138.39585046827571
 51
221.60414953172395
  0
ARC
  8
_0-0_計極細
  6
CONTINUOUS
 62
    2
 10
1292.3027889304178
 20
1163.3467153284585
 40
11.295514677412786
 50
318.39585046827534
 51
41.604149531723962
  0
ARC
  8
_0-0_計極細
  6
CONTINUOUS
 62
    2
 10
1309.1952312437882
 20
948.34671532845982
 40
11.295514677412786
 50
138.39585046827571
 51
221.60414953172395
  0
ARC
  8
_0-0_計極細
  6
CONTINUOUS
 62
    2
 10
1292.3027889304178
 20
933.34671532845846
 40
11.295514677412786
 50
318.39585046827534
 51
41.604149531723962
  0
LINE
  8
_0-1_計細線
  6
CONTINUOUS
 62
    3
 10
256.83479438872905
 20
1182.8467153284598
 11
1298.8347943887304
 21
1182.8467153284598
  0
LINE
  8
_0-1_計細線
  6
CONTINUOUS
 62
    3
 10
1302.6632257854774
 20
928.84671532846119
 11
260.66322578547738
 21
928.84671532846119
  0
LINE
  8
_0-1_計細線
  6
CONTINUOUS
 62
    3
 10
258.74901008710117
 20
1155.8467153284598
 11
280.24901008710299
 21
1155.8467153284598
  0
LINE
  8
_0-1_計細線
  6
CONTINUOUS
 62
    3
 10
258.74901008710162
 20
955.84671532846119
 11
280.24901008710299
 21
955.84671532846119
  0
LINE
  8
_0-1_計細線
  6
CONTINUOUS
 62
    3
 10
1279.249010087103
 20
955.84671532846119
 11
1300.749010087103
 21
955.84671532846119
  0
LINE
  8
_0-1_計細線
  6
CONTINUOUS
 62
    3
 10
1279.249010087103
 20
1155.8467153284598
 11
1300.749010087103
 21
1155.8467153284598
  0
LINE
  8
_0-0_計極細
  6
CONTINUOUS
 62
    2
 10
288.24901008710299
 20
1027.5467153284615
 11
288.24901008710299
 21
1033.1467153284614
  0
LINE
  8
_0-0_計極細
  6
CONTINUOUS
 62
    2
 10
301.24901008710299
 20
1027.5467153284615
 11
301.24901008710299
 21
1033.1467153284614
  0
LINE
  8
_0-0_計極細
  6
CONTINUOUS
 62
    2
 10
288.24901008710299
 20
1050.1467153284577
 11
288.24901008710299
 21
1044.5467153284574
  0
LINE
  8
_0-0_計極細
  6
CONTINUOUS
 62
    2
 10
301.24901008710299
 20
1050.1467153284577
 11
301.24901008710299
 21
1044.5467153284574
  0
LINE
  8
_0-0_計極細
  6
CONTINUOUS
 62
    2
 10
288.24901008710299
 20
1067.1467153284586
 11
288.24901008710299
 21
1061.5467153284583
  0
LINE
  8
_0-0_計極細
  6
CONTINUOUS
 62
    2
 10
301.24901008710299
 20
1067.1467153284586
 11
301.24901008710299
 21
1061.5467153284583
  0
LINE
  8
_0-0_計極細
  6
CONTINUOUS
 62
    2
 10
288.24901008710299
 20
1084.1467153284591
 11
288.24901008710299
 21
1078.5467153284592
  0
LINE
  8
_0-0_計極細
  6
CONTINUOUS
 62
    2
 10
301.24901008710299
 20
1084.1467153284591
 11
301.24901008710299
 21
1078.5467153284592
  0
LINE
  8
_0-0_計極細
  6
CONTINUOUS
 62
    2
 10
288.24901008710299
 20
1169.4467153284597
 11
288.24901008710299
 21
1163.5467153284596
  0
LINE
  8
_0-0_計極細
  6
CONTINUOUS
 62
    2
 10
301.24901008710299
 20
1169.4467153284597
 11
301.24901008710299
 21
1163.5467153284596
  0
LINE
  8
_0-0_計極細
  6
CONTINUOUS
 62
    2
 10
288.24901008710299
 20
942.24671532846082
 11
288.24901008710299
 21
948.14671532846091
  0
LINE
  8
_0-0_計極細
  6
CONTINUOUS
 62
    2
 10
301.24901008710299
 20
942.24671532846082
 11
301.24901008710299
 21
948.14671532846091
  0
LINE
  8
_0-0_計極細
  6
CENTER1
 62
    2
 10
294.74901008710299
 20
1189.5974347529225
 11
294.74901008710299
 21
923.08889158744819
  0
LINE
  8
_0-0_計極細
  6
CONTINUOUS
 62
    2
 10
288.24901008710299
 20
1101.1467153284595
 11
288.24901008710299
 21
1095.5467153284596
  0
LINE
  8
_0-0_計極細
  6
CONTINUOUS
 62
    2
 10
301.24901008710299
 20
1101.1467153284595
 11
301.24901008710299
 21
1095.5467153284596
  0
LINE
  8
_0-0_計極細
  6
CONTINUOUS
 62
    2
 10
288.24901008710299
 20
1118.1467153284605
 11
288.24901008710299
 21
1112.5467153284601
  0
LINE
  8
_0-0_計極細
  6
CONTINUOUS
 62
    2
 10
301.24901008710299
 20
1118.1467153284605
 11
301.24901008710299
 21
1112.5467153284601
  0
LINE
  8
_0-0_計極細
  6
CONTINUOUS
 62
    2
 10
288.24901008710299
 20
1135.1467153284614
 11
288.24901008710299
 21
1129.546715328461
  0
LINE
  8
_0-0_計極細
  6
CONTINUOUS
 62
    2
 10
301.24901008710299
 20
1135.1467153284614
 11
301.24901008710299
 21
1129.546715328461
  0
LINE
  8
_0-0_計極細
  6
CONTINUOUS
 62
    2
 10
288.24901008710299
 20
1152.1467153284618
 11
288.24901008710299
 21
1146.5467153284619
  0
LINE
  8
_0-0_計極細
  6
CONTINUOUS
 62
    2
 10
301.24901008710299
 20
1152.1467153284618
 11
301.24901008710299
 21
1146.5467153284619
  0
LINE
  8
_0-0_計極細
  6
CONTINUOUS
 62
    2
 10
288.24901008710299
 20
1010.546715328461
 11
288.24901008710299
 21
1016.1467153284609
  0
LINE
  8
_0-0_計極細
  6
CONTINUOUS
 62
    2
 10
301.24901008710299
 20
1010.546715328461
 11
301.24901008710299
 21
1016.1467153284609
  0
LINE
  8
_0-0_計極細
  6
CONTINUOUS
 62
    2
 10
288.24901008710299
 20
993.5467153284601
 11
288.24901008710299
 21
999.14671532846046
  0
LINE
  8
_0-0_計極細
  6
CONTINUOUS
 62
    2
 10
301.24901008710299
 20
993.5467153284601
 11
301.24901008710299
 21
999.14671532846046
  0
LINE
  8
_0-0_計極細
  6
CONTINUOUS
 62
    2
 10
288.24901008710299
 20
976.54671532845919
 11
288.24901008710299
 21
982.14671532845955
  0
LINE
  8
_0-0_計極細
  6
CONTINUOUS
 62
    2
 10
301.24901008710299
 20
976.54671532845919
 11
301.24901008710299
 21
982.14671532845955
  0
LINE
  8
_0-0_計極細
  6
CONTINUOUS
 62
    2
 10
288.24901008710299
 20
959.54671532845873
 11
288.24901008710299
 21
965.14671532845864
  0
LINE
  8
_0-0_計極細
  6
CONTINUOUS
 62
    2
 10
301.24901008710299
 20
959.54671532845873
 11
301.24901008710299
 21
965.14671532845864
  0
LINE
  8
_0-0_計極細
  6
CONTINUOUS
 62
    2
 10
1258.249010087103
 20
1027.5467153284615
 11
1258.249010087103
 21
1033.1467153284614
  0
LINE
  8
_0-0_計極細
  6
CONTINUOUS
 62
    2
 10
1271.249010087103
 20
1027.5467153284615
 11
1271.249010087103
 21
1033.1467153284614
  0
LINE
  8
_0-0_計極細
  6
CONTINUOUS
 62
    2
 10
1258.249010087103
 20
1050.1467153284577
 11
1258.249010087103
 21
1044.5467153284574
  0
LINE
  8
_0-0_計極細
  6
CONTINUOUS
 62
    2
 10
1271.249010087103
 20
1050.1467153284577
 11
1271.249010087103
 21
1044.5467153284574
  0
LINE
  8
_0-0_計極細
  6
CONTINUOUS
 62
    2
 10
1258.249010087103
 20
1067.1467153284586
 11
1258.249010087103
 21
1061.5467153284583
  0
LINE
  8
_0-0_計極細
  6
CONTINUOUS
 62
    2
 10
1271.249010087103
 20
1067.1467153284586
 11
1271.249010087103
 21
1061.5467153284583
  0
LINE
  8
_0-0_計極細
  6
CONTINUOUS
 62
    2
 10
1258.249010087103
 20
1084.1467153284591
 11
1258.249010087103
 21
1078.5467153284592
  0
LINE
  8
_0-0_計極細
  6
CONTINUOUS
 62
    2
 10
1271.249010087103
 20
1084.1467153284591
 11
1271.249010087103
 21
1078.5467153284592
  0
LINE
  8
_0-0_計極細
  6
CONTINUOUS
 62
    2
 10
1258.249010087103
 20
1169.4467153284597
 11
1258.249010087103
 21
1163.5467153284596
  0
LINE
  8
_0-0_計極細
  6
CONTINUOUS
 62
    2
 10
1271.249010087103
 20
1169.4467153284597
 11
1271.249010087103
 21
1163.5467153284596
  0
LINE
  8
_0-0_計極細
  6
CONTINUOUS
 62
    2
 10
1258.249010087103
 20
942.24671532846082
 11
1258.249010087103
 21
948.14671532846091
  0
LINE
  8
_0-0_計極細
  6
CONTINUOUS
 62
    2
 10
1271.249010087103
 20
942.24671532846082
 11
1271.249010087103
 21
948.14671532846091
  0
LINE
  8
_0-0_計極細
  6
CENTER1
 62
    2
 10
1264.749010087103
 20
1189.5974347529225
 11
1264.749010087103
 21
923.08889158744819
  0
LINE
  8
_0-0_計極細
  6
CONTINUOUS
 62
    2
 10
1258.249010087103
 20
1101.1467153284595
 11
1258.249010087103
 21
1095.5467153284596
  0
LINE
  8
_0-0_計極細
  6
CONTINUOUS
 62
    2
 10
1271.249010087103
 20
1101.1467153284595
 11
1271.249010087103
 21
1095.5467153284596
  0
LINE
  8
_0-0_計極細
  6
CONTINUOUS
 62
    2
 10
1258.249010087103
 20
1118.1467153284605
 11
1258.249010087103
 21
1112.5467153284601
  0
LINE
  8
_0-0_計極細
  6
CONTINUOUS
 62
    2
 10
1271.249010087103
 20
1118.1467153284605
 11
1271.249010087103
 21
1112.5467153284601
  0
LINE
  8
_0-0_計極細
  6
CONTINUOUS
 62
    2
 10
1258.249010087103
 20
1135.1467153284614
 11
1258.249010087103
 21
1129.546715328461
  0
LINE
  8
_0-0_計極細
  6
CONTINUOUS
 62
    2
 10
1271.249010087103
 20
1135.1467153284614
 11
1271.249010087103
 21
1129.546715328461
  0
LINE
  8
_0-0_計極細
  6
CONTINUOUS
 62
    2
 10
1258.249010087103
 20
1152.1467153284618
 11
1258.249010087103
 21
1146.5467153284619
  0
LINE
  8
_0-0_計極細
  6
CONTINUOUS
 62
    2
 10
1271.249010087103
 20
1152.1467153284618
 11
1271.249010087103
 21
1146.5467153284619
  0
LINE
  8
_0-0_計極細
  6
CONTINUOUS
 62
    2
 10
1258.249010087103
 20
1010.546715328461
 11
1258.249010087103
 21
1016.1467153284609
  0
LINE
  8
_0-0_計極細
  6
CONTINUOUS
 62
    2
 10
1271.249010087103
 20
1010.546715328461
 11
1271.249010087103
 21
1016.1467153284609
  0
LINE
  8
_0-0_計極細
  6
CONTINUOUS
 62
    2
 10
1258.249010087103
 20
993.5467153284601
 11
1258.249010087103
 21
999.14671532846046
  0
LINE
  8
_0-0_計極細
  6
CONTINUOUS
 62
    2
 10
1271.249010087103
 20
993.5467153284601
 11
1271.249010087103
 21
999.14671532846046
  0
LINE
  8
_0-0_計極細
  6
CONTINUOUS
 62
    2
 10
1258.249010087103
 20
976.54671532845919
 11
1258.249010087103
 21
982.14671532845955
  0
LINE
  8
_0-0_計極細
  6
CONTINUOUS
 62
    2
 10
1271.249010087103
 20
976.54671532845919
 11
1271.249010087103
 21
982.14671532845955
  0
LINE
  8
_0-0_計極細
  6
CONTINUOUS
 62
    2
 10
1258.249010087103
 20
959.54671532845873
 11
1258.249010087103
 21
965.14671532845864
  0
LINE
  8
_0-0_計極細
  6
CONTINUOUS
 62
    2
 10
1271.249010087103
 20
959.54671532845873
 11
1271.249010087103
 21
965.14671532845864
  0
LINE
  8
_0-0_計極細
  6
CONTINUOUS
 62
    2
 10
1161.249010087103
 20
1027.5467153284615
 11
1161.249010087103
 21
1033.1467153284614
  0
LINE
  8
_0-0_計極細
  6
CONTINUOUS
 62
    2
 10
1174.249010087103
 20
1027.5467153284615
 11
1174.249010087103
 21
1033.1467153284614
  0
LINE
  8
_0-0_計極細
  6
CONTINUOUS
 62
    2
 10
1161.249010087103
 20
1050.1467153284577
 11
1161.249010087103
 21
1044.5467153284574
  0
LINE
  8
_0-0_計極細
  6
CONTINUOUS
 62
    2
 10
1174.249010087103
 20
1050.1467153284577
 11
1174.249010087103
 21
1044.5467153284574
  0
LINE
  8
_0-0_計極細
  6
CONTINUOUS
 62
    2
 10
1161.249010087103
 20
1067.1467153284586
 11
1161.249010087103
 21
1061.5467153284583
  0
LINE
  8
_0-0_計極細
  6
CONTINUOUS
 62
    2
 10
1174.249010087103
 20
1067.1467153284586
 11
1174.249010087103
 21
1061.5467153284583
  0
LINE
  8
_0-0_計極細
  6
CONTINUOUS
 62
    2
 10
1161.249010087103
 20
1084.1467153284591
 11
1161.249010087103
 21
1078.5467153284592
  0
LINE
  8
_0-0_計極細
  6
CONTINUOUS
 62
    2
 10
1174.249010087103
 20
1084.1467153284591
 11
1174.249010087103
 21
1078.5467153284592
  0
LINE
  8
_0-0_計極細
  6
CONTINUOUS
 62
    2
 10
1161.249010087103
 20
1169.4467153284597
 11
1161.249010087103
 21
1163.5467153284596
  0
LINE
  8
_0-0_計極細
  6
CONTINUOUS
 62
    2
 10
1174.249010087103
 20
1169.4467153284597
 11
1174.249010087103
 21
1163.5467153284596
  0
LINE
  8
_0-0_計極細
  6
CONTINUOUS
 62
    2
 10
1161.249010087103
 20
942.24671532846082
 11
1161.249010087103
 21
948.14671532846091
  0
LINE
  8
_0-0_計極細
  6
CONTINUOUS
 62
    2
 10
1174.249010087103
 20
942.24671532846082
 11
1174.249010087103
 21
948.14671532846091
  0
LINE
  8
_0-0_計極細
  6
CENTER1
 62
    2
 10
1167.749010087103
 20
1189.5974347529225
 11
1167.749010087103
 21
923.08889158744819
  0
LINE
  8
_0-0_計極細
  6
CONTINUOUS
 62
    2
 10
1161.249010087103
 20
1101.1467153284595
 11
1161.249010087103
 21
1095.5467153284596
  0
LINE
  8
_0-0_計極細
  6
CONTINUOUS
 62
    2
 10
1174.249010087103
 20
1101.1467153284595
 11
1174.249010087103
 21
1095.5467153284596
  0
LINE
  8
_0-0_計極細
  6
CONTINUOUS
 62
    2
 10
1161.249010087103
 20
1118.1467153284605
 11
1161.249010087103
 21
1112.5467153284601
  0
LINE
  8
_0-0_計極細
  6
CONTINUOUS
 62
    2
 10
1174.249010087103
 20
1118.1467153284605
 11
1174.249010087103
 21
1112.5467153284601
  0
LINE
  8
_0-0_計極細
  6
CONTINUOUS
 62
    2
 10
1161.249010087103
 20
1135.1467153284614
 11
1161.249010087103
 21
1129.546715328461
  0
LINE
  8
_0-0_計極細
  6
CONTINUOUS
 62
    2
 10
1174.249010087103
 20
1135.1467153284614
 11
1174.249010087103
 21
1129.546715328461
  0
LINE
  8
_0-0_計極細
  6
CONTINUOUS
 62
    2
 10
1161.249010087103
 20
1152.1467153284618
 11
1161.249010087103
 21
1146.5467153284619
  0
LINE
  8
_0-0_計極細
  6
CONTINUOUS
 62
    2
 10
1174.249010087103
 20
1152.1467153284618
 11
1174.249010087103
 21
1146.5467153284619
  0
LINE
  8
_0-0_計極細
  6
CONTINUOUS
 62
    2
 10
1161.249010087103
 20
1010.546715328461
 11
1161.249010087103
 21
1016.1467153284609
  0
LINE
  8
_0-0_計極細
  6
CONTINUOUS
 62
    2
 10
1174.249010087103
 20
1010.546715328461
 11
1174.249010087103
 21
1016.1467153284609
  0
LINE
  8
_0-0_計極細
  6
CONTINUOUS
 62
    2
 10
1161.249010087103
 20
993.5467153284601
 11
1161.249010087103
 21
999.14671532846046
  0
LINE
  8
_0-0_計極細
  6
CONTINUOUS
 62
    2
 10
1174.249010087103
 20
993.5467153284601
 11
1174.249010087103
 21
999.14671532846046
  0
LINE
  8
_0-0_計極細
  6
CONTINUOUS
 62
    2
 10
1161.249010087103
 20
976.54671532845919
 11
1161.249010087103
 21
982.14671532845955
  0
LINE
  8
_0-0_計極細
  6
CONTINUOUS
 62
    2
 10
1174.249010087103
 20
976.54671532845919
 11
1174.249010087103
 21
982.14671532845955
  0
LINE
  8
_0-0_計極細
  6
CONTINUOUS
 62
    2
 10
1161.249010087103
 20
959.54671532845873
 11
1161.249010087103
 21
965.14671532845864
  0
LINE
  8
_0-0_計極細
  6
CONTINUOUS
 62
    2
 10
1174.249010087103
 20
959.54671532845873
 11
1174.249010087103
 21
965.14671532845864
  0
LINE
  8
_0-0_計極細
  6
CONTINUOUS
 62
    2
 10
385.24901008710299
 20
1027.5467153284615
 11
385.24901008710299
 21
1033.1467153284614
  0
LINE
  8
_0-0_計極細
  6
CONTINUOUS
 62
    2
 10
398.24901008710299
 20
1027.5467153284615
 11
398.24901008710299
 21
1033.1467153284614
  0
LINE
  8
_0-0_計極細
  6
CONTINUOUS
 62
    2
 10
385.24901008710299
 20
1050.1467153284577
 11
385.24901008710299
 21
1044.5467153284574
  0
LINE
  8
_0-0_計極細
  6
CONTINUOUS
 62
    2
 10
398.24901008710299
 20
1050.1467153284577
 11
398.24901008710299
 21
1044.5467153284574
  0
LINE
  8
_0-0_計極細
  6
CONTINUOUS
 62
    2
 10
385.24901008710299
 20
1084.1467153284591
 11
385.24901008710299
 21
1078.5467153284592
  0
LINE
  8
_0-0_計極細
  6
CONTINUOUS
 62
    2
 10
398.24901008710299
 20
1084.1467153284591
 11
398.24901008710299
 21
1078.5467153284592
  0
LINE
  8
_0-0_計極細
  6
CONTINUOUS
 62
    2
 10
385.24901008710299
 20
1169.4467153284597
 11
385.24901008710299
 21
1163.5467153284596
  0
LINE
  8
_0-0_計極細
  6
CONTINUOUS
 62
    2
 10
398.24901008710299
 20
1169.4467153284597
 11
398.24901008710299
 21
1163.5467153284596
  0
LINE
  8
_0-0_計極細
  6
CONTINUOUS
 62
    2
 10
385.24901008710299
 20
942.24671532846082
 11
385.24901008710299
 21
948.14671532846091
  0
LINE
  8
_0-0_計極細
  6
CONTINUOUS
 62
    2
 10
398.24901008710299
 20
942.24671532846082
 11
398.24901008710299
 21
948.14671532846091
  0
LINE
  8
_0-0_計極細
  6
CENTER1
 62
    2
 10
391.74901008710299
 20
1189.5974347529225
 11
391.74901008710299
 21
923.08889158744819
  0
LINE
  8
_0-0_計極細
  6
CONTINUOUS
 62
    2
 10
385.24901008710299
 20
1101.1467153284595
 11
385.24901008710299
 21
1095.5467153284596
  0
LINE
  8
_0-0_計極細
  6
CONTINUOUS
 62
    2
 10
398.24901008710299
 20
1101.1467153284595
 11
398.24901008710299
 21
1095.5467153284596
  0
LINE
  8
_0-0_計極細
  6
CONTINUOUS
 62
    2
 10
385.24901008710299
 20
1118.1467153284605
 11
385.24901008710299
 21
1112.5467153284601
  0
LINE
  8
_0-0_計極細
  6
CONTINUOUS
 62
    2
 10
398.24901008710299
 20
1118.1467153284605
 11
398.24901008710299
 21
1112.5467153284601
  0
LINE
  8
_0-0_計極細
  6
CONTINUOUS
 62
    2
 10
385.24901008710299
 20
1135.1467153284614
 11
385.24901008710299
 21
1129.546715328461
  0
LINE
  8
_0-0_計極細
  6
CONTINUOUS
 62
    2
 10
398.24901008710299
 20
1135.1467153284614
 11
398.24901008710299
 21
1129.546715328461
  0
LINE
  8
_0-0_計極細
  6
CONTINUOUS
 62
    2
 10
385.24901008710299
 20
1152.1467153284618
 11
385.24901008710299
 21
1146.5467153284619
  0
LINE
  8
_0-0_計極細
  6
CONTINUOUS
 62
    2
 10
398.24901008710299
 20
1152.1467153284618
 11
398.24901008710299
 21
1146.5467153284619
  0
LINE
  8
_0-0_計極細
  6
CONTINUOUS
 62
    2
 10
385.24901008710299
 20
1010.546715328461
 11
385.24901008710299
 21
1016.1467153284609
  0
LINE
  8
_0-0_計極細
  6
CONTINUOUS
 62
    2
 10
398.24901008710299
 20
1010.546715328461
 11
398.24901008710299
 21
1016.1467153284609
  0
LINE
  8
_0-0_計極細
  6
CONTINUOUS
 62
    2
 10
385.24901008710299
 20
993.5467153284601
 11
385.24901008710299
 21
999.14671532846046
  0
LINE
  8
_0-0_計極細
  6
CONTINUOUS
 62
    2
 10
398.24901008710299
 20
993.5467153284601
 11
398.24901008710299
 21
999.14671532846046
  0
LINE
  8
_0-0_計極細
  6
CONTINUOUS
 62
    2
 10
385.24901008710299
 20
976.54671532845919
 11
385.24901008710299
 21
982.14671532845955
  0
LINE
  8
_0-0_計極細
  6
CONTINUOUS
 62
    2
 10
398.24901008710299
 20
976.54671532845919
 11
398.24901008710299
 21
982.14671532845955
  0
LINE
  8
_0-0_計極細
  6
CONTINUOUS
 62
    2
 10
385.24901008710299
 20
959.54671532845873
 11
385.24901008710299
 21
965.14671532845864
  0
LINE
  8
_0-0_計極細
  6
CONTINUOUS
 62
    2
 10
398.24901008710299
 20
959.54671532845873
 11
398.24901008710299
 21
965.14671532845864
  0
LINE
  8
_0-0_計極細
  6
CONTINUOUS
 62
    2
 10
433.74901008710299
 20
1027.5467153284615
 11
433.74901008710299
 21
1033.1467153284614
  0
LINE
  8
_0-0_計極細
  6
CONTINUOUS
 62
    2
 10
446.74901008710299
 20
1027.5467153284615
 11
446.74901008710299
 21
1033.1467153284614
  0
LINE
  8
_0-0_計極細
  6
CONTINUOUS
 62
    2
 10
433.74901008710299
 20
1050.1467153284577
 11
433.74901008710299
 21
1044.5467153284574
  0
LINE
  8
_0-0_計極細
  6
CONTINUOUS
 62
    2
 10
446.74901008710299
 20
1050.1467153284577
 11
446.74901008710299
 21
1044.5467153284574
  0
LINE
  8
_0-0_計極細
  6
CONTINUOUS
 62
    2
 10
433.74901008710299
 20
1067.1467153284586
 11
433.74901008710299
 21
1061.5467153284583
  0
LINE
  8
_0-0_計極細
  6
CONTINUOUS
 62
    2
 10
446.74901008710299
 20
1067.1467153284586
 11
446.74901008710299
 21
1061.5467153284583
  0
LINE
  8
_0-0_計極細
  6
CONTINUOUS
 62
    2
 10
433.74901008710299
 20
1084.1467153284591
 11
433.74901008710299
 21
1078.5467153284592
  0
LINE
  8
_0-0_計極細
  6
CONTINUOUS
 62
    2
 10
446.74901008710299
 20
1084.1467153284591
 11
446.74901008710299
 21
1078.5467153284592
  0
LINE
  8
_0-0_計極細
  6
CONTINUOUS
 62
    2
 10
433.74901008710299
 20
1169.4467153284597
 11
433.74901008710299
 21
1163.5467153284596
  0
LINE
  8
_0-0_計極細
  6
CONTINUOUS
 62
    2
 10
446.74901008710299
 20
1169.4467153284597
 11
446.74901008710299
 21
1163.5467153284596
  0
LINE
  8
_0-0_計極細
  6
CONTINUOUS
 62
    2
 10
433.74901008710299
 20
942.24671532846082
 11
433.74901008710299
 21
948.14671532846091
  0
LINE
  8
_0-0_計極細
  6
CONTINUOUS
 62
    2
 10
446.74901008710299
 20
942.24671532846082
 11
446.74901008710299
 21
948.14671532846091
  0
LINE
  8
_0-0_計極細
  6
CENTER1
 62
    2
 10
440.24901008710299
 20
1189.5974347529225
 11
440.24901008710299
 21
923.08889158744819
  0
LINE
  8
_0-0_計極細
  6
CONTINUOUS
 62
    2
 10
433.74901008710299
 20
1101.1467153284595
 11
433.74901008710299
 21
1095.5467153284596
  0
LINE
  8
_0-0_計極細
  6
CONTINUOUS
 62
    2
 10
446.74901008710299
 20
1101.1467153284595
 11
446.74901008710299
 21
1095.5467153284596
  0
LINE
  8
_0-0_計極細
  6
CONTINUOUS
 62
    2
 10
433.74901008710299
 20
1118.1467153284605
 11
433.74901008710299
 21
1112.5467153284601
  0
LINE
  8
_0-0_計極細
  6
CONTINUOUS
 62
    2
 10
446.74901008710299
 20
1118.1467153284605
 11
446.74901008710299
 21
1112.5467153284601
  0
LINE
  8
_0-0_計極細
  6
CONTINUOUS
 62
    2
 10
433.74901008710299
 20
1135.1467153284614
 11
433.74901008710299
 21
1129.546715328461
  0
LINE
  8
_0-0_計極細
  6
CONTINUOUS
 62
    2
 10
446.74901008710299
 20
1135.1467153284614
 11
446.74901008710299
 21
1129.546715328461
  0
LINE
  8
_0-0_計極細
  6
CONTINUOUS
 62
    2
 10
433.74901008710299
 20
1152.1467153284618
 11
433.74901008710299
 21
1146.5467153284619
  0
LINE
  8
_0-0_計極細
  6
CONTINUOUS
 62
    2
 10
446.74901008710299
 20
1152.1467153284618
 11
446.74901008710299
 21
1146.5467153284619
  0
LINE
  8
_0-0_計極細
  6
CONTINUOUS
 62
    2
 10
433.74901008710299
 20
1010.546715328461
 11
433.74901008710299
 21
1016.1467153284609
  0
LINE
  8
_0-0_計極細
  6
CONTINUOUS
 62
    2
 10
446.74901008710299
 20
1010.546715328461
 11
446.74901008710299
 21
1016.1467153284609
  0
LINE
  8
_0-0_計極細
  6
CONTINUOUS
 62
    2
 10
433.74901008710299
 20
993.5467153284601
 11
433.74901008710299
 21
999.14671532846046
  0
LINE
  8
_0-0_計極細
  6
CONTINUOUS
 62
    2
 10
446.74901008710299
 20
993.5467153284601
 11
446.74901008710299
 21
999.14671532846046
  0
LINE
  8
_0-0_計極細
  6
CONTINUOUS
 62
    2
 10
433.74901008710299
 20
976.54671532845919
 11
433.74901008710299
 21
982.14671532845955
  0
LINE
  8
_0-0_計極細
  6
CONTINUOUS
 62
    2
 10
446.74901008710299
 20
976.54671532845919
 11
446.74901008710299
 21
982.14671532845955
  0
LINE
  8
_0-0_計極細
  6
CONTINUOUS
 62
    2
 10
433.74901008710299
 20
959.54671532845873
 11
433.74901008710299
 21
965.14671532845864
  0
LINE
  8
_0-0_計極細
  6
CONTINUOUS
 62
    2
 10
446.74901008710299
 20
959.54671532845873
 11
446.74901008710299
 21
965.14671532845864
  0
LINE
  8
_0-0_計極細
  6
CONTINUOUS
 62
    2
 10
482.24901008710299
 20
1027.5467153284615
 11
482.24901008710299
 21
1033.1467153284614
  0
LINE
  8
_0-0_計極細
  6
CONTINUOUS
 62
    2
 10
495.24901008710299
 20
1027.5467153284615
 11
495.24901008710299
 21
1033.1467153284614
  0
LINE
  8
_0-0_計極細
  6
CONTINUOUS
 62
    2
 10
482.24901008710299
 20
1050.1467153284577
 11
482.24901008710299
 21
1044.5467153284574
  0
LINE
  8
_0-0_計極細
  6
CONTINUOUS
 62
    2
 10
495.24901008710299
 20
1050.1467153284577
 11
495.24901008710299
 21
1044.5467153284574
  0
LINE
  8
_0-0_計極細
  6
CONTINUOUS
 62
    2
 10
482.24901008710299
 20
1067.1467153284586
 11
482.24901008710299
 21
1061.5467153284583
  0
LINE
  8
_0-0_計極細
  6
CONTINUOUS
 62
    2
 10
495.24901008710299
 20
1067.1467153284586
 11
495.24901008710299
 21
1061.5467153284583
  0
LINE
  8
_0-0_計極細
  6
CONTINUOUS
 62
    2
 10
482.24901008710299
 20
1084.1467153284591
 11
482.24901008710299
 21
1078.5467153284592
  0
LINE
  8
_0-0_計極細
  6
CONTINUOUS
 62
    2
 10
495.24901008710299
 20
1084.1467153284591
 11
495.24901008710299
 21
1078.5467153284592
  0
LINE
  8
_0-0_計極細
  6
CONTINUOUS
 62
    2
 10
482.24901008710299
 20
1169.4467153284597
 11
482.24901008710299
 21
1163.5467153284596
  0
LINE
  8
_0-0_計極細
  6
CONTINUOUS
 62
    2
 10
495.24901008710299
 20
1169.4467153284597
 11
495.24901008710299
 21
1163.5467153284596
  0
LINE
  8
_0-0_計極細
  6
CONTINUOUS
 62
    2
 10
482.24901008710299
 20
942.24671532846082
 11
482.24901008710299
 21
948.14671532846091
  0
LINE
  8
_0-0_計極細
  6
CONTINUOUS
 62
    2
 10
495.24901008710299
 20
942.24671532846082
 11
495.24901008710299
 21
948.14671532846091
  0
LINE
  8
_0-0_計極細
  6
CENTER1
 62
    2
 10
488.74901008710299
 20
1189.5974347529225
 11
488.74901008710299
 21
923.08889158744819
  0
LINE
  8
_0-0_計極細
  6
CONTINUOUS
 62
    2
 10
482.24901008710299
 20
1101.1467153284595
 11
482.24901008710299
 21
1095.5467153284596
  0
LINE
  8
_0-0_計極細
  6
CONTINUOUS
 62
    2
 10
495.24901008710299
 20
1101.1467153284595
 11
495.24901008710299
 21
1095.5467153284596
  0
LINE
  8
_0-0_計極細
  6
CONTINUOUS
 62
    2
 10
482.24901008710299
 20
1118.1467153284605
 11
482.24901008710299
 21
1112.5467153284601
  0
LINE
  8
_0-0_計極細
  6
CONTINUOUS
 62
    2
 10
495.24901008710299
 20
1118.1467153284605
 11
495.24901008710299
 21
1112.5467153284601
  0
LINE
  8
_0-0_計極細
  6
CONTINUOUS
 62
    2
 10
482.24901008710299
 20
1135.1467153284614
 11
482.24901008710299
 21
1129.546715328461
  0
LINE
  8
_0-0_計極細
  6
CONTINUOUS
 62
    2
 10
495.24901008710299
 20
1135.1467153284614
 11
495.24901008710299
 21
1129.546715328461
  0
LINE
  8
_0-0_計極細
  6
CONTINUOUS
 62
    2
 10
482.24901008710299
 20
1152.1467153284618
 11
482.24901008710299
 21
1146.5467153284619
  0
LINE
  8
_0-0_計極細
  6
CONTINUOUS
 62
    2
 10
495.24901008710299
 20
1152.1467153284618
 11
495.24901008710299
 21
1146.5467153284619
  0
LINE
  8
_0-0_計極細
  6
CONTINUOUS
 62
    2
 10
482.24901008710299
 20
1010.546715328461
 11
482.24901008710299
 21
1016.1467153284609
  0
LINE
  8
_0-0_計極細
  6
CONTINUOUS
 62
    2
 10
495.24901008710299
 20
1010.546715328461
 11
495.24901008710299
 21
1016.1467153284609
  0
LINE
  8
_0-0_計極細
  6
CONTINUOUS
 62
    2
 10
482.24901008710299
 20
993.5467153284601
 11
482.24901008710299
 21
999.14671532846046
  0
LINE
  8
_0-0_計極細
  6
CONTINUOUS
 62
    2
 10
495.24901008710299
 20
993.5467153284601
 11
495.24901008710299
 21
999.14671532846046
  0
LINE
  8
_0-0_計極細
  6
CONTINUOUS
 62
    2
 10
482.24901008710299
 20
976.54671532845919
 11
482.24901008710299
 21
982.14671532845955
  0
LINE
  8
_0-0_計極細
  6
CONTINUOUS
 62
    2
 10
495.24901008710299
 20
976.54671532845919
 11
495.24901008710299
 21
982.14671532845955
  0
LINE
  8
_0-0_計極細
  6
CONTINUOUS
 62
    2
 10
482.24901008710299
 20
959.54671532845873
 11
482.24901008710299
 21
965.14671532845864
  0
LINE
  8
_0-0_計極細
  6
CONTINUOUS
 62
    2
 10
495.24901008710299
 20
959.54671532845873
 11
495.24901008710299
 21
965.14671532845864
  0
LINE
  8
_0-0_計極細
  6
CONTINUOUS
 62
    2
 10
530.74901008710299
 20
1027.5467153284615
 11
530.74901008710299
 21
1033.1467153284614
  0
LINE
  8
_0-0_計極細
  6
CONTINUOUS
 62
    2
 10
543.74901008710299
 20
1027.5467153284615
 11
543.74901008710299
 21
1033.1467153284614
  0
LINE
  8
_0-0_計極細
  6
CONTINUOUS
 62
    2
 10
530.74901008710299
 20
1050.1467153284577
 11
530.74901008710299
 21
1044.5467153284574
  0
LINE
  8
_0-0_計極細
  6
CONTINUOUS
 62
    2
 10
543.74901008710299
 20
1050.1467153284577
 11
543.74901008710299
 21
1044.5467153284574
  0
LINE
  8
_0-0_計極細
  6
CONTINUOUS
 62
    2
 10
530.74901008710299
 20
1067.1467153284586
 11
530.74901008710299
 21
1061.5467153284583
  0
LINE
  8
_0-0_計極細
  6
CONTINUOUS
 62
    2
 10
543.74901008710299
 20
1067.1467153284586
 11
543.74901008710299
 21
1061.5467153284583
  0
LINE
  8
_0-0_計極細
  6
CONTINUOUS
 62
    2
 10
530.74901008710299
 20
1084.1467153284591
 11
530.74901008710299
 21
1078.5467153284592
  0
LINE
  8
_0-0_計極細
  6
CONTINUOUS
 62
    2
 10
543.74901008710299
 20
1084.1467153284591
 11
543.74901008710299
 21
1078.5467153284592
  0
LINE
  8
_0-0_計極細
  6
CONTINUOUS
 62
    2
 10
530.74901008710299
 20
1169.4467153284597
 11
530.74901008710299
 21
1163.5467153284596
  0
LINE
  8
_0-0_計極細
  6
CONTINUOUS
 62
    2
 10
543.74901008710299
 20
1169.4467153284597
 11
543.74901008710299
 21
1163.5467153284596
  0
LINE
  8
_0-0_計極細
  6
CONTINUOUS
 62
    2
 10
530.74901008710299
 20
942.24671532846082
 11
530.74901008710299
 21
948.14671532846091
  0
LINE
  8
_0-0_計極細
  6
CONTINUOUS
 62
    2
 10
543.74901008710299
 20
942.24671532846082
 11
543.74901008710299
 21
948.14671532846091
  0
LINE
  8
_0-0_計極細
  6
CENTER1
 62
    2
 10
537.24901008710299
 20
1189.5974347529225
 11
537.24901008710299
 21
923.08889158744819
  0
LINE
  8
_0-0_計極細
  6
CONTINUOUS
 62
    2
 10
530.74901008710299
 20
1101.1467153284595
 11
530.74901008710299
 21
1095.5467153284596
  0
LINE
  8
_0-0_計極細
  6
CONTINUOUS
 62
    2
 10
543.74901008710299
 20
1101.1467153284595
 11
543.74901008710299
 21
1095.5467153284596
  0
LINE
  8
_0-0_計極細
  6
CONTINUOUS
 62
    2
 10
530.74901008710299
 20
1118.1467153284605
 11
530.74901008710299
 21
1112.5467153284601
  0
LINE
  8
_0-0_計極細
  6
CONTINUOUS
 62
    2
 10
543.74901008710299
 20
1118.1467153284605
 11
543.74901008710299
 21
1112.5467153284601
  0
LINE
  8
_0-0_計極細
  6
CONTINUOUS
 62
    2
 10
530.74901008710299
 20
1135.1467153284614
 11
530.74901008710299
 21
1129.546715328461
  0
LINE
  8
_0-0_計極細
  6
CONTINUOUS
 62
    2
 10
543.74901008710299
 20
1135.1467153284614
 11
543.74901008710299
 21
1129.546715328461
  0
LINE
  8
_0-0_計極細
  6
CONTINUOUS
 62
    2
 10
530.74901008710299
 20
1152.1467153284618
 11
530.74901008710299
 21
1146.5467153284619
  0
LINE
  8
_0-0_計極細
  6
CONTINUOUS
 62
    2
 10
543.74901008710299
 20
1152.1467153284618
 11
543.74901008710299
 21
1146.5467153284619
  0
LINE
  8
_0-0_計極細
  6
CONTINUOUS
 62
    2
 10
530.74901008710299
 20
1010.546715328461
 11
530.74901008710299
 21
1016.1467153284609
  0
LINE
  8
_0-0_計極細
  6
CONTINUOUS
 62
    2
 10
543.74901008710299
 20
1010.546715328461
 11
543.74901008710299
 21
1016.1467153284609
  0
LINE
  8
_0-0_計極細
  6
CONTINUOUS
 62
    2
 10
530.74901008710299
 20
993.5467153284601
 11
530.74901008710299
 21
999.14671532846046
  0
LINE
  8
_0-0_計極細
  6
CONTINUOUS
 62
    2
 10
543.74901008710299
 20
993.5467153284601
 11
543.74901008710299
 21
999.14671532846046
  0
LINE
  8
_0-0_計極細
  6
CONTINUOUS
 62
    2
 10
530.74901008710299
 20
976.54671532845919
 11
530.74901008710299
 21
982.14671532845955
  0
LINE
  8
_0-0_計極細
  6
CONTINUOUS
 62
    2
 10
543.74901008710299
 20
976.54671532845919
 11
543.74901008710299
 21
982.14671532845955
  0
LINE
  8
_0-0_計極細
  6
CONTINUOUS
 62
    2
 10
530.74901008710299
 20
959.54671532845873
 11
530.74901008710299
 21
965.14671532845864
  0
LINE
  8
_0-0_計極細
  6
CONTINUOUS
 62
    2
 10
543.74901008710299
 20
959.54671532845873
 11
543.74901008710299
 21
965.14671532845864
  0
LINE
  8
_0-0_計極細
  6
CONTINUOUS
 62
    2
 10
579.24901008710299
 20
1027.5467153284615
 11
579.24901008710299
 21
1033.1467153284614
  0
LINE
  8
_0-0_計極細
  6
CONTINUOUS
 62
    2
 10
592.24901008710299
 20
1027.5467153284615
 11
592.24901008710299
 21
1033.1467153284614
  0
LINE
  8
_0-0_計極細
  6
CONTINUOUS
 62
    2
 10
579.24901008710299
 20
1050.1467153284577
 11
579.24901008710299
 21
1044.5467153284574
  0
LINE
  8
_0-0_計極細
  6
CONTINUOUS
 62
    2
 10
592.24901008710299
 20
1050.1467153284577
 11
592.24901008710299
 21
1044.5467153284574
  0
LINE
  8
_0-0_計極細
  6
CONTINUOUS
 62
    2
 10
579.24901008710299
 20
1067.1467153284586
 11
579.24901008710299
 21
1061.5467153284583
  0
LINE
  8
_0-0_計極細
  6
CONTINUOUS
 62
    2
 10
592.24901008710299
 20
1067.1467153284586
 11
592.24901008710299
 21
1061.5467153284583
  0
LINE
  8
_0-0_計極細
  6
CONTINUOUS
 62
    2
 10
579.24901008710299
 20
1084.1467153284591
 11
579.24901008710299
 21
1078.5467153284592
  0
LINE
  8
_0-0_計極細
  6
CONTINUOUS
 62
    2
 10
592.24901008710299
 20
1084.1467153284591
 11
592.24901008710299
 21
1078.5467153284592
  0
LINE
  8
_0-0_計極細
  6
CONTINUOUS
 62
    2
 10
579.24901008710299
 20
1169.4467153284597
 11
579.24901008710299
 21
1163.5467153284596
  0
LINE
  8
_0-0_計極細
  6
CONTINUOUS
 62
    2
 10
592.24901008710299
 20
1169.4467153284597
 11
592.24901008710299
 21
1163.5467153284596
  0
LINE
  8
_0-0_計極細
  6
CONTINUOUS
 62
    2
 10
579.24901008710299
 20
942.24671532846082
 11
579.24901008710299
 21
948.14671532846091
  0
LINE
  8
_0-0_計極細
  6
CONTINUOUS
 62
    2
 10
592.24901008710299
 20
942.24671532846082
 11
592.24901008710299
 21
948.14671532846091
  0
LINE
  8
_0-0_計極細
  6
CENTER1
 62
    2
 10
585.74901008710299
 20
1189.5974347529225
 11
585.74901008710299
 21
923.08889158744819
  0
LINE
  8
_0-0_計極細
  6
CONTINUOUS
 62
    2
 10
579.24901008710299
 20
1101.1467153284595
 11
579.24901008710299
 21
1095.5467153284596
  0
LINE
  8
_0-0_計極細
  6
CONTINUOUS
 62
    2
 10
592.24901008710299
 20
1101.1467153284595
 11
592.24901008710299
 21
1095.5467153284596
  0
LINE
  8
_0-0_計極細
  6
CONTINUOUS
 62
    2
 10
579.24901008710299
 20
1118.1467153284605
 11
579.24901008710299
 21
1112.5467153284601
  0
LINE
  8
_0-0_計極細
  6
CONTINUOUS
 62
    2
 10
592.24901008710299
 20
1118.1467153284605
 11
592.24901008710299
 21
1112.5467153284601
  0
LINE
  8
_0-0_計極細
  6
CONTINUOUS
 62
    2
 10
579.24901008710299
 20
1135.1467153284614
 11
579.24901008710299
 21
1129.546715328461
  0
LINE
  8
_0-0_計極細
  6
CONTINUOUS
 62
    2
 10
592.24901008710299
 20
1135.1467153284614
 11
592.24901008710299
 21
1129.546715328461
  0
LINE
  8
_0-0_計極細
  6
CONTINUOUS
 62
    2
 10
579.24901008710299
 20
1152.1467153284618
 11
579.24901008710299
 21
1146.5467153284619
  0
LINE
  8
_0-0_計極細
  6
CONTINUOUS
 62
    2
 10
592.24901008710299
 20
1152.1467153284618
 11
592.24901008710299
 21
1146.5467153284619
  0
LINE
  8
_0-0_計極細
  6
CONTINUOUS
 62
    2
 10
579.24901008710299
 20
1010.546715328461
 11
579.24901008710299
 21
1016.1467153284609
  0
LINE
  8
_0-0_計極細
  6
CONTINUOUS
 62
    2
 10
592.24901008710299
 20
1010.546715328461
 11
592.24901008710299
 21
1016.1467153284609
  0
LINE
  8
_0-0_計極細
  6
CONTINUOUS
 62
    2
 10
579.24901008710299
 20
993.5467153284601
 11
579.24901008710299
 21
999.14671532846046
  0
LINE
  8
_0-0_計極細
  6
CONTINUOUS
 62
    2
 10
592.24901008710299
 20
993.5467153284601
 11
592.24901008710299
 21
999.14671532846046
  0
LINE
  8
_0-0_計極細
  6
CONTINUOUS
 62
    2
 10
579.24901008710299
 20
976.54671532845919
 11
579.24901008710299
 21
982.14671532845955
  0
LINE
  8
_0-0_計極細
  6
CONTINUOUS
 62
    2
 10
592.24901008710299
 20
976.54671532845919
 11
592.24901008710299
 21
982.14671532845955
  0
LINE
  8
_0-0_計極細
  6
CONTINUOUS
 62
    2
 10
579.24901008710299
 20
959.54671532845873
 11
579.24901008710299
 21
965.14671532845864
  0
LINE
  8
_0-0_計極細
  6
CONTINUOUS
 62
    2
 10
592.24901008710299
 20
959.54671532845873
 11
592.24901008710299
 21
965.14671532845864
  0
LINE
  8
_0-0_計極細
  6
CONTINUOUS
 62
    2
 10
627.74901008710299
 20
1027.5467153284615
 11
627.74901008710299
 21
1033.1467153284614
  0
LINE
  8
_0-0_計極細
  6
CONTINUOUS
 62
    2
 10
640.74901008710299
 20
1027.5467153284615
 11
640.74901008710299
 21
1033.1467153284614
  0
LINE
  8
_0-0_計極細
  6
CONTINUOUS
 62
    2
 10
627.74901008710299
 20
1050.1467153284577
 11
627.74901008710299
 21
1044.5467153284574
  0
LINE
  8
_0-0_計極細
  6
CONTINUOUS
 62
    2
 10
640.74901008710299
 20
1050.1467153284577
 11
640.74901008710299
 21
1044.5467153284574
  0
LINE
  8
_0-0_計極細
  6
CONTINUOUS
 62
    2
 10
627.74901008710299
 20
1067.1467153284586
 11
627.74901008710299
 21
1061.5467153284583
  0
LINE
  8
_0-0_計極細
  6
CONTINUOUS
 62
    2
 10
640.74901008710299
 20
1067.1467153284586
 11
640.74901008710299
 21
1061.5467153284583
  0
LINE
  8
_0-0_計極細
  6
CONTINUOUS
 62
    2
 10
627.74901008710299
 20
1084.1467153284591
 11
627.74901008710299
 21
1078.5467153284592
  0
LINE
  8
_0-0_計極細
  6
CONTINUOUS
 62
    2
 10
640.74901008710299
 20
1084.1467153284591
 11
640.74901008710299
 21
1078.5467153284592
  0
LINE
  8
_0-0_計極細
  6
CONTINUOUS
 62
    2
 10
627.74901008710299
 20
1169.4467153284597
 11
627.74901008710299
 21
1163.5467153284596
  0
LINE
  8
_0-0_計極細
  6
CONTINUOUS
 62
    2
 10
640.74901008710299
 20
1169.4467153284597
 11
640.74901008710299
 21
1163.5467153284596
  0
LINE
  8
_0-0_計極細
  6
CONTINUOUS
 62
    2
 10
627.74901008710299
 20
942.24671532846082
 11
627.74901008710299
 21
948.14671532846091
  0
LINE
  8
_0-0_計極細
  6
CONTINUOUS
 62
    2
 10
640.74901008710299
 20
942.24671532846082
 11
640.74901008710299
 21
948.14671532846091
  0
LINE
  8
_0-0_計極細
  6
CENTER1
 62
    2
 10
634.24901008710299
 20
1189.5974347529225
 11
634.24901008710299
 21
923.08889158744819
  0
LINE
  8
_0-0_計極細
  6
CONTINUOUS
 62
    2
 10
627.74901008710299
 20
1101.1467153284595
 11
627.74901008710299
 21
1095.5467153284596
  0
LINE
  8
_0-0_計極細
  6
CONTINUOUS
 62
    2
 10
640.74901008710299
 20
1101.1467153284595
 11
640.74901008710299
 21
1095.5467153284596
  0
LINE
  8
_0-0_計極細
  6
CONTINUOUS
 62
    2
 10
627.74901008710299
 20
1118.1467153284605
 11
627.74901008710299
 21
1112.5467153284601
  0
LINE
  8
_0-0_計極細
  6
CONTINUOUS
 62
    2
 10
640.74901008710299
 20
1118.1467153284605
 11
640.74901008710299
 21
1112.5467153284601
  0
LINE
  8
_0-0_計極細
  6
CONTINUOUS
 62
    2
 10
627.74901008710299
 20
1135.1467153284614
 11
627.74901008710299
 21
1129.546715328461
  0
LINE
  8
_0-0_計極細
  6
CONTINUOUS
 62
    2
 10
640.74901008710299
 20
1135.1467153284614
 11
640.74901008710299
 21
1129.546715328461
  0
LINE
  8
_0-0_計極細
  6
CONTINUOUS
 62
    2
 10
627.74901008710299
 20
1152.1467153284618
 11
627.74901008710299
 21
1146.5467153284619
  0
LINE
  8
_0-0_計極細
  6
CONTINUOUS
 62
    2
 10
640.74901008710299
 20
1152.1467153284618
 11
640.74901008710299
 21
1146.5467153284619
  0
LINE
  8
_0-0_計極細
  6
CONTINUOUS
 62
    2
 10
627.74901008710299
 20
1010.546715328461
 11
627.74901008710299
 21
1016.1467153284609
  0
LINE
  8
_0-0_計極細
  6
CONTINUOUS
 62
    2
 10
640.74901008710299
 20
1010.546715328461
 11
640.74901008710299
 21
1016.1467153284609
  0
LINE
  8
_0-0_計極細
  6
CONTINUOUS
 62
    2
 10
627.74901008710299
 20
993.5467153284601
 11
627.74901008710299
 21
999.14671532846046
  0
LINE
  8
_0-0_計極細
  6
CONTINUOUS
 62
    2
 10
640.74901008710299
 20
993.5467153284601
 11
640.74901008710299
 21
999.14671532846046
  0
LINE
  8
_0-0_計極細
  6
CONTINUOUS
 62
    2
 10
627.74901008710299
 20
976.54671532845919
 11
627.74901008710299
 21
982.14671532845955
  0
LINE
  8
_0-0_計極細
  6
CONTINUOUS
 62
    2
 10
640.74901008710299
 20
976.54671532845919
 11
640.74901008710299
 21
982.14671532845955
  0
LINE
  8
_0-0_計極細
  6
CONTINUOUS
 62
    2
 10
627.74901008710299
 20
959.54671532845873
 11
627.74901008710299
 21
965.14671532845864
  0
LINE
  8
_0-0_計極細
  6
CONTINUOUS
 62
    2
 10
640.74901008710299
 20
959.54671532845873
 11
640.74901008710299
 21
965.14671532845864
  0
LINE
  8
_0-0_計極細
  6
CONTINUOUS
 62
    2
 10
676.24901008710299
 20
1027.5467153284615
 11
676.24901008710299
 21
1033.1467153284614
  0
LINE
  8
_0-0_計極細
  6
CONTINUOUS
 62
    2
 10
689.24901008710299
 20
1027.5467153284615
 11
689.24901008710299
 21
1033.1467153284614
  0
LINE
  8
_0-0_計極細
  6
CONTINUOUS
 62
    2
 10
676.24901008710299
 20
1050.1467153284577
 11
676.24901008710299
 21
1044.5467153284574
  0
LINE
  8
_0-0_計極細
  6
CONTINUOUS
 62
    2
 10
689.24901008710299
 20
1050.1467153284577
 11
689.24901008710299
 21
1044.5467153284574
  0
LINE
  8
_0-0_計極細
  6
CONTINUOUS
 62
    2
 10
676.24901008710299
 20
1067.1467153284586
 11
676.24901008710299
 21
1061.5467153284583
  0
LINE
  8
_0-0_計極細
  6
CONTINUOUS
 62
    2
 10
689.24901008710299
 20
1067.1467153284586
 11
689.24901008710299
 21
1061.5467153284583
  0
LINE
  8
_0-0_計極細
  6
CONTINUOUS
 62
    2
 10
676.24901008710299
 20
1084.1467153284591
 11
676.24901008710299
 21
1078.5467153284592
  0
LINE
  8
_0-0_計極細
  6
CONTINUOUS
 62
    2
 10
689.24901008710299
 20
1084.1467153284591
 11
689.24901008710299
 21
1078.5467153284592
  0
LINE
  8
_0-0_計極細
  6
CONTINUOUS
 62
    2
 10
676.24901008710299
 20
1169.4467153284597
 11
676.24901008710299
 21
1163.5467153284596
  0
LINE
  8
_0-0_計極細
  6
CONTINUOUS
 62
    2
 10
689.24901008710299
 20
1169.4467153284597
 11
689.24901008710299
 21
1163.5467153284596
  0
LINE
  8
_0-0_計極細
  6
CONTINUOUS
 62
    2
 10
676.24901008710299
 20
942.24671532846082
 11
676.24901008710299
 21
948.14671532846091
  0
LINE
  8
_0-0_計極細
  6
CONTINUOUS
 62
    2
 10
689.24901008710299
 20
942.24671532846082
 11
689.24901008710299
 21
948.14671532846091
  0
LINE
  8
_0-0_計極細
  6
CENTER1
 62
    2
 10
682.74901008710299
 20
1189.5974347529225
 11
682.74901008710299
 21
923.08889158744819
  0
LINE
  8
_0-0_計極細
  6
CONTINUOUS
 62
    2
 10
676.24901008710299
 20
1101.1467153284595
 11
676.24901008710299
 21
1095.5467153284596
  0
LINE
  8
_0-0_計極細
  6
CONTINUOUS
 62
    2
 10
689.24901008710299
 20
1101.1467153284595
 11
689.24901008710299
 21
1095.5467153284596
  0
LINE
  8
_0-0_計極細
  6
CONTINUOUS
 62
    2
 10
676.24901008710299
 20
1118.1467153284605
 11
676.24901008710299
 21
1112.5467153284601
  0
LINE
  8
_0-0_計極細
  6
CONTINUOUS
 62
    2
 10
689.24901008710299
 20
1118.1467153284605
 11
689.24901008710299
 21
1112.5467153284601
  0
LINE
  8
_0-0_計極細
  6
CONTINUOUS
 62
    2
 10
676.24901008710299
 20
1135.1467153284614
 11
676.24901008710299
 21
1129.546715328461
  0
LINE
  8
_0-0_計極細
  6
CONTINUOUS
 62
    2
 10
689.24901008710299
 20
1135.1467153284614
 11
689.24901008710299
 21
1129.546715328461
  0
LINE
  8
_0-0_計極細
  6
CONTINUOUS
 62
    2
 10
676.24901008710299
 20
1152.1467153284618
 11
676.24901008710299
 21
1146.5467153284619
  0
LINE
  8
_0-0_計極細
  6
CONTINUOUS
 62
    2
 10
689.24901008710299
 20
1152.1467153284618
 11
689.24901008710299
 21
1146.5467153284619
  0
LINE
  8
_0-0_計極細
  6
CONTINUOUS
 62
    2
 10
676.24901008710299
 20
1010.546715328461
 11
676.24901008710299
 21
1016.1467153284609
  0
LINE
  8
_0-0_計極細
  6
CONTINUOUS
 62
    2
 10
689.24901008710299
 20
1010.546715328461
 11
689.24901008710299
 21
1016.1467153284609
  0
LINE
  8
_0-0_計極細
  6
CONTINUOUS
 62
    2
 10
676.24901008710299
 20
993.5467153284601
 11
676.24901008710299
 21
999.14671532846046
  0
LINE
  8
_0-0_計極細
  6
CONTINUOUS
 62
    2
 10
689.24901008710299
 20
993.5467153284601
 11
689.24901008710299
 21
999.14671532846046
  0
LINE
  8
_0-0_計極細
  6
CONTINUOUS
 62
    2
 10
676.24901008710299
 20
976.54671532845919
 11
676.24901008710299
 21
982.14671532845955
  0
LINE
  8
_0-0_計極細
  6
CONTINUOUS
 62
    2
 10
689.24901008710299
 20
976.54671532845919
 11
689.24901008710299
 21
982.14671532845955
  0
LINE
  8
_0-0_計極細
  6
CONTINUOUS
 62
    2
 10
676.24901008710299
 20
959.54671532845873
 11
676.24901008710299
 21
965.14671532845864
  0
LINE
  8
_0-0_計極細
  6
CONTINUOUS
 62
    2
 10
689.24901008710299
 20
959.54671532845873
 11
689.24901008710299
 21
965.14671532845864
  0
LINE
  8
_0-0_計極細
  6
CONTINUOUS
 62
    2
 10
724.74901008710299
 20
1027.5467153284615
 11
724.74901008710299
 21
1033.1467153284614
  0
LINE
  8
_0-0_計極細
  6
CONTINUOUS
 62
    2
 10
737.74901008710299
 20
1027.5467153284615
 11
737.74901008710299
 21
1033.1467153284614
  0
LINE
  8
_0-0_計極細
  6
CONTINUOUS
 62
    2
 10
724.74901008710299
 20
1050.1467153284577
 11
724.74901008710299
 21
1044.5467153284574
  0
LINE
  8
_0-0_計極細
  6
CONTINUOUS
 62
    2
 10
737.74901008710299
 20
1050.1467153284577
 11
737.74901008710299
 21
1044.5467153284574
  0
LINE
  8
_0-0_計極細
  6
CONTINUOUS
 62
    2
 10
724.74901008710299
 20
1067.1467153284586
 11
724.74901008710299
 21
1061.5467153284583
  0
LINE
  8
_0-0_計極細
  6
CONTINUOUS
 62
    2
 10
737.74901008710299
 20
1067.1467153284586
 11
737.74901008710299
 21
1061.5467153284583
  0
LINE
  8
_0-0_計極細
  6
CONTINUOUS
 62
    2
 10
724.74901008710299
 20
1084.1467153284591
 11
724.74901008710299
 21
1078.5467153284592
  0
LINE
  8
_0-0_計極細
  6
CONTINUOUS
 62
    2
 10
737.74901008710299
 20
1084.1467153284591
 11
737.74901008710299
 21
1078.5467153284592
  0
LINE
  8
_0-0_計極細
  6
CONTINUOUS
 62
    2
 10
724.74901008710299
 20
1169.4467153284597
 11
724.74901008710299
 21
1163.5467153284596
  0
LINE
  8
_0-0_計極細
  6
CONTINUOUS
 62
    2
 10
737.74901008710299
 20
1169.4467153284597
 11
737.74901008710299
 21
1163.5467153284596
  0
LINE
  8
_0-0_計極細
  6
CONTINUOUS
 62
    2
 10
724.74901008710299
 20
942.24671532846082
 11
724.74901008710299
 21
948.14671532846091
  0
LINE
  8
_0-0_計極細
  6
CONTINUOUS
 62
    2
 10
737.74901008710299
 20
942.24671532846082
 11
737.74901008710299
 21
948.14671532846091
  0
LINE
  8
_0-0_計極細
  6
CENTER1
 62
    2
 10
731.24901008710299
 20
1189.5974347529225
 11
731.24901008710299
 21
923.08889158744819
  0
LINE
  8
_0-0_計極細
  6
CONTINUOUS
 62
    2
 10
724.74901008710299
 20
1101.1467153284595
 11
724.74901008710299
 21
1095.5467153284596
  0
LINE
  8
_0-0_計極細
  6
CONTINUOUS
 62
    2
 10
737.74901008710299
 20
1101.1467153284595
 11
737.74901008710299
 21
1095.5467153284596
  0
LINE
  8
_0-0_計極細
  6
CONTINUOUS
 62
    2
 10
724.74901008710299
 20
1118.1467153284605
 11
724.74901008710299
 21
1112.5467153284601
  0
LINE
  8
_0-0_計極細
  6
CONTINUOUS
 62
    2
 10
737.74901008710299
 20
1118.1467153284605
 11
737.74901008710299
 21
1112.5467153284601
  0
LINE
  8
_0-0_計極細
  6
CONTINUOUS
 62
    2
 10
724.74901008710299
 20
1135.1467153284614
 11
724.74901008710299
 21
1129.546715328461
  0
LINE
  8
_0-0_計極細
  6
CONTINUOUS
 62
    2
 10
737.74901008710299
 20
1135.1467153284614
 11
737.74901008710299
 21
1129.546715328461
  0
LINE
  8
_0-0_計極細
  6
CONTINUOUS
 62
    2
 10
724.74901008710299
 20
1152.1467153284618
 11
724.74901008710299
 21
1146.5467153284619
  0
LINE
  8
_0-0_計極細
  6
CONTINUOUS
 62
    2
 10
737.74901008710299
 20
1152.1467153284618
 11
737.74901008710299
 21
1146.5467153284619
  0
LINE
  8
_0-0_計極細
  6
CONTINUOUS
 62
    2
 10
724.74901008710299
 20
1010.546715328461
 11
724.74901008710299
 21
1016.1467153284609
  0
LINE
  8
_0-0_計極細
  6
CONTINUOUS
 62
    2
 10
737.74901008710299
 20
1010.546715328461
 11
737.74901008710299
 21
1016.1467153284609
  0
LINE
  8
_0-0_計極細
  6
CONTINUOUS
 62
    2
 10
724.74901008710299
 20
993.5467153284601
 11
724.74901008710299
 21
999.14671532846046
  0
LINE
  8
_0-0_計極細
  6
CONTINUOUS
 62
    2
 10
737.74901008710299
 20
993.5467153284601
 11
737.74901008710299
 21
999.14671532846046
  0
LINE
  8
_0-0_計極細
  6
CONTINUOUS
 62
    2
 10
724.74901008710299
 20
976.54671532845919
 11
724.74901008710299
 21
982.14671532845955
  0
LINE
  8
_0-0_計極細
  6
CONTINUOUS
 62
    2
 10
737.74901008710299
 20
976.54671532845919
 11
737.74901008710299
 21
982.14671532845955
  0
LINE
  8
_0-0_計極細
  6
CONTINUOUS
 62
    2
 10
724.74901008710299
 20
959.54671532845873
 11
724.74901008710299
 21
965.14671532845864
  0
LINE
  8
_0-0_計極細
  6
CONTINUOUS
 62
    2
 10
737.74901008710299
 20
959.54671532845873
 11
737.74901008710299
 21
965.14671532845864
  0
LINE
  8
_0-0_計極細
  6
CONTINUOUS
 62
    2
 10
773.24901008710299
 20
1027.5467153284615
 11
773.24901008710299
 21
1033.1467153284614
  0
LINE
  8
_0-0_計極細
  6
CONTINUOUS
 62
    2
 10
786.24901008710299
 20
1027.5467153284615
 11
786.24901008710299
 21
1033.1467153284614
  0
LINE
  8
_0-0_計極細
  6
CONTINUOUS
 62
    2
 10
773.24901008710299
 20
1050.1467153284577
 11
773.24901008710299
 21
1044.5467153284574
  0
LINE
  8
_0-0_計極細
  6
CONTINUOUS
 62
    2
 10
786.24901008710299
 20
1050.1467153284577
 11
786.24901008710299
 21
1044.5467153284574
  0
LINE
  8
_0-0_計極細
  6
CONTINUOUS
 62
    2
 10
773.24901008710299
 20
1067.1467153284586
 11
773.24901008710299
 21
1061.5467153284583
  0
LINE
  8
_0-0_計極細
  6
CONTINUOUS
 62
    2
 10
786.24901008710299
 20
1067.1467153284586
 11
786.24901008710299
 21
1061.5467153284583
  0
LINE
  8
_0-0_計極細
  6
CONTINUOUS
 62
    2
 10
773.24901008710299
 20
1084.1467153284591
 11
773.24901008710299
 21
1078.5467153284592
  0
LINE
  8
_0-0_計極細
  6
CONTINUOUS
 62
    2
 10
786.24901008710299
 20
1084.1467153284591
 11
786.24901008710299
 21
1078.5467153284592
  0
LINE
  8
_0-0_計極細
  6
CONTINUOUS
 62
    2
 10
773.24901008710299
 20
1169.4467153284597
 11
773.24901008710299
 21
1163.5467153284596
  0
LINE
  8
_0-0_計極細
  6
CONTINUOUS
 62
    2
 10
786.24901008710299
 20
1169.4467153284597
 11
786.24901008710299
 21
1163.5467153284596
  0
LINE
  8
_0-0_計極細
  6
CONTINUOUS
 62
    2
 10
773.24901008710299
 20
942.24671532846082
 11
773.24901008710299
 21
948.14671532846091
  0
LINE
  8
_0-0_計極細
  6
CONTINUOUS
 62
    2
 10
786.24901008710299
 20
942.24671532846082
 11
786.24901008710299
 21
948.14671532846091
  0
LINE
  8
_0-0_計極細
  6
CENTER1
 62
    2
 10
779.74901008710299
 20
1189.5974347529225
 11
779.74901008710299
 21
923.08889158744819
  0
LINE
  8
_0-0_計極細
  6
CONTINUOUS
 62
    2
 10
773.24901008710299
 20
1101.1467153284595
 11
773.24901008710299
 21
1095.5467153284596
  0
LINE
  8
_0-0_計極細
  6
CONTINUOUS
 62
    2
 10
786.24901008710299
 20
1101.1467153284595
 11
786.24901008710299
 21
1095.5467153284596
  0
LINE
  8
_0-0_計極細
  6
CONTINUOUS
 62
    2
 10
773.24901008710299
 20
1118.1467153284605
 11
773.24901008710299
 21
1112.5467153284601
  0
LINE
  8
_0-0_計極細
  6
CONTINUOUS
 62
    2
 10
786.24901008710299
 20
1118.1467153284605
 11
786.24901008710299
 21
1112.5467153284601
  0
LINE
  8
_0-0_計極細
  6
CONTINUOUS
 62
    2
 10
773.24901008710299
 20
1135.1467153284614
 11
773.24901008710299
 21
1129.546715328461
  0
LINE
  8
_0-0_計極細
  6
CONTINUOUS
 62
    2
 10
786.24901008710299
 20
1135.1467153284614
 11
786.24901008710299
 21
1129.546715328461
  0
LINE
  8
_0-0_計極細
  6
CONTINUOUS
 62
    2
 10
773.24901008710299
 20
1152.1467153284618
 11
773.24901008710299
 21
1146.5467153284619
  0
LINE
  8
_0-0_計極細
  6
CONTINUOUS
 62
    2
 10
786.24901008710299
 20
1152.1467153284618
 11
786.24901008710299
 21
1146.5467153284619
  0
LINE
  8
_0-0_計極細
  6
CONTINUOUS
 62
    2
 10
773.24901008710299
 20
1010.546715328461
 11
773.24901008710299
 21
1016.1467153284609
  0
LINE
  8
_0-0_計極細
  6
CONTINUOUS
 62
    2
 10
786.24901008710299
 20
1010.546715328461
 11
786.24901008710299
 21
1016.1467153284609
  0
LINE
  8
_0-0_計極細
  6
CONTINUOUS
 62
    2
 10
773.24901008710299
 20
993.5467153284601
 11
773.24901008710299
 21
999.14671532846046
  0
LINE
  8
_0-0_計極細
  6
CONTINUOUS
 62
    2
 10
786.24901008710299
 20
993.5467153284601
 11
786.24901008710299
 21
999.14671532846046
  0
LINE
  8
_0-0_計極細
  6
CONTINUOUS
 62
    2
 10
773.24901008710299
 20
976.54671532845919
 11
773.24901008710299
 21
982.14671532845955
  0
LINE
  8
_0-0_計極細
  6
CONTINUOUS
 62
    2
 10
786.24901008710299
 20
976.54671532845919
 11
786.24901008710299
 21
982.14671532845955
  0
LINE
  8
_0-0_計極細
  6
CONTINUOUS
 62
    2
 10
773.24901008710299
 20
959.54671532845873
 11
773.24901008710299
 21
965.14671532845864
  0
LINE
  8
_0-0_計極細
  6
CONTINUOUS
 62
    2
 10
786.24901008710299
 20
959.54671532845873
 11
786.24901008710299
 21
965.14671532845864
  0
LINE
  8
_0-0_計極細
  6
CONTINUOUS
 62
    2
 10
821.74901008710299
 20
1027.5467153284615
 11
821.74901008710299
 21
1033.1467153284614
  0
LINE
  8
_0-0_計極細
  6
CONTINUOUS
 62
    2
 10
834.74901008710299
 20
1027.5467153284615
 11
834.74901008710299
 21
1033.1467153284614
  0
LINE
  8
_0-0_計極細
  6
CONTINUOUS
 62
    2
 10
821.74901008710299
 20
1050.1467153284577
 11
821.74901008710299
 21
1044.5467153284574
  0
LINE
  8
_0-0_計極細
  6
CONTINUOUS
 62
    2
 10
834.74901008710299
 20
1050.1467153284577
 11
834.74901008710299
 21
1044.5467153284574
  0
LINE
  8
_0-0_計極細
  6
CONTINUOUS
 62
    2
 10
821.74901008710299
 20
1067.1467153284586
 11
821.74901008710299
 21
1061.5467153284583
  0
LINE
  8
_0-0_計極細
  6
CONTINUOUS
 62
    2
 10
834.74901008710299
 20
1067.1467153284586
 11
834.74901008710299
 21
1061.5467153284583
  0
LINE
  8
_0-0_計極細
  6
CONTINUOUS
 62
    2
 10
821.74901008710299
 20
1084.1467153284591
 11
821.74901008710299
 21
1078.5467153284592
  0
LINE
  8
_0-0_計極細
  6
CONTINUOUS
 62
    2
 10
834.74901008710299
 20
1084.1467153284591
 11
834.74901008710299
 21
1078.5467153284592
  0
LINE
  8
_0-0_計極細
  6
CONTINUOUS
 62
    2
 10
821.74901008710299
 20
1169.4467153284597
 11
821.74901008710299
 21
1163.5467153284596
  0
LINE
  8
_0-0_計極細
  6
CONTINUOUS
 62
    2
 10
834.74901008710299
 20
1169.4467153284597
 11
834.74901008710299
 21
1163.5467153284596
  0
LINE
  8
_0-0_計極細
  6
CONTINUOUS
 62
    2
 10
821.74901008710299
 20
942.24671532846082
 11
821.74901008710299
 21
948.14671532846091
  0
LINE
  8
_0-0_計極細
  6
CONTINUOUS
 62
    2
 10
834.74901008710299
 20
942.24671532846082
 11
834.74901008710299
 21
948.14671532846091
  0
LINE
  8
_0-0_計極細
  6
CENTER1
 62
    2
 10
828.24901008710299
 20
1189.5974347529225
 11
828.24901008710299
 21
923.08889158744819
  0
LINE
  8
_0-0_計極細
  6
CONTINUOUS
 62
    2
 10
821.74901008710299
 20
1101.1467153284595
 11
821.74901008710299
 21
1095.5467153284596
  0
LINE
  8
_0-0_計極細
  6
CONTINUOUS
 62
    2
 10
834.74901008710299
 20
1101.1467153284595
 11
834.74901008710299
 21
1095.5467153284596
  0
LINE
  8
_0-0_計極細
  6
CONTINUOUS
 62
    2
 10
821.74901008710299
 20
1118.1467153284605
 11
821.74901008710299
 21
1112.5467153284601
  0
LINE
  8
_0-0_計極細
  6
CONTINUOUS
 62
    2
 10
834.74901008710299
 20
1118.1467153284605
 11
834.74901008710299
 21
1112.5467153284601
  0
LINE
  8
_0-0_計極細
  6
CONTINUOUS
 62
    2
 10
821.74901008710299
 20
1135.1467153284614
 11
821.74901008710299
 21
1129.546715328461
  0
LINE
  8
_0-0_計極細
  6
CONTINUOUS
 62
    2
 10
834.74901008710299
 20
1135.1467153284614
 11
834.74901008710299
 21
1129.546715328461
  0
LINE
  8
_0-0_計極細
  6
CONTINUOUS
 62
    2
 10
821.74901008710299
 20
1152.1467153284618
 11
821.74901008710299
 21
1146.5467153284619
  0
LINE
  8
_0-0_計極細
  6
CONTINUOUS
 62
    2
 10
834.74901008710299
 20
1152.1467153284618
 11
834.74901008710299
 21
1146.5467153284619
  0
LINE
  8
_0-0_計極細
  6
CONTINUOUS
 62
    2
 10
821.74901008710299
 20
1010.546715328461
 11
821.74901008710299
 21
1016.1467153284609
  0
LINE
  8
_0-0_計極細
  6
CONTINUOUS
 62
    2
 10
834.74901008710299
 20
1010.546715328461
 11
834.74901008710299
 21
1016.1467153284609
  0
LINE
  8
_0-0_計極細
  6
CONTINUOUS
 62
    2
 10
821.74901008710299
 20
993.5467153284601
 11
821.74901008710299
 21
999.14671532846046
  0
LINE
  8
_0-0_計極細
  6
CONTINUOUS
 62
    2
 10
834.74901008710299
 20
993.5467153284601
 11
834.74901008710299
 21
999.14671532846046
  0
LINE
  8
_0-0_計極細
  6
CONTINUOUS
 62
    2
 10
821.74901008710299
 20
976.54671532845919
 11
821.74901008710299
 21
982.14671532845955
  0
LINE
  8
_0-0_計極細
  6
CONTINUOUS
 62
    2
 10
834.74901008710299
 20
976.54671532845919
 11
834.74901008710299
 21
982.14671532845955
  0
LINE
  8
_0-0_計極細
  6
CONTINUOUS
 62
    2
 10
821.74901008710299
 20
959.54671532845873
 11
821.74901008710299
 21
965.14671532845864
  0
LINE
  8
_0-0_計極細
  6
CONTINUOUS
 62
    2
 10
834.74901008710299
 20
959.54671532845873
 11
834.74901008710299
 21
965.14671532845864
  0
LINE
  8
_0-0_計極細
  6
CONTINUOUS
 62
    2
 10
870.24901008710299
 20
1027.5467153284615
 11
870.24901008710299
 21
1033.1467153284614
  0
LINE
  8
_0-0_計極細
  6
CONTINUOUS
 62
    2
 10
883.24901008710299
 20
1027.5467153284615
 11
883.24901008710299
 21
1033.1467153284614
  0
LINE
  8
_0-0_計極細
  6
CONTINUOUS
 62
    2
 10
870.24901008710299
 20
1050.1467153284577
 11
870.24901008710299
 21
1044.5467153284574
  0
LINE
  8
_0-0_計極細
  6
CONTINUOUS
 62
    2
 10
883.24901008710299
 20
1050.1467153284577
 11
883.24901008710299
 21
1044.5467153284574
  0
LINE
  8
_0-0_計極細
  6
CONTINUOUS
 62
    2
 10
870.24901008710299
 20
1067.1467153284586
 11
870.24901008710299
 21
1061.5467153284583
  0
LINE
  8
_0-0_計極細
  6
CONTINUOUS
 62
    2
 10
883.24901008710299
 20
1067.1467153284586
 11
883.24901008710299
 21
1061.5467153284583
  0
LINE
  8
_0-0_計極細
  6
CONTINUOUS
 62
    2
 10
870.24901008710299
 20
1084.1467153284591
 11
870.24901008710299
 21
1078.5467153284592
  0
LINE
  8
_0-0_計極細
  6
CONTINUOUS
 62
    2
 10
883.24901008710299
 20
1084.1467153284591
 11
883.24901008710299
 21
1078.5467153284592
  0
LINE
  8
_0-0_計極細
  6
CONTINUOUS
 62
    2
 10
870.24901008710299
 20
1169.4467153284597
 11
870.24901008710299
 21
1163.5467153284596
  0
LINE
  8
_0-0_計極細
  6
CONTINUOUS
 62
    2
 10
883.24901008710299
 20
1169.4467153284597
 11
883.24901008710299
 21
1163.5467153284596
  0
LINE
  8
_0-0_計極細
  6
CONTINUOUS
 62
    2
 10
870.24901008710299
 20
942.24671532846082
 11
870.24901008710299
 21
948.14671532846091
  0
LINE
  8
_0-0_計極細
  6
CONTINUOUS
 62
    2
 10
883.24901008710299
 20
942.24671532846082
 11
883.24901008710299
 21
948.14671532846091
  0
LINE
  8
_0-0_計極細
  6
CENTER1
 62
    2
 10
876.74901008710299
 20
1189.5974347529225
 11
876.74901008710299
 21
923.08889158744819
  0
LINE
  8
_0-0_計極細
  6
CONTINUOUS
 62
    2
 10
870.24901008710299
 20
1101.1467153284595
 11
870.24901008710299
 21
1095.5467153284596
  0
LINE
  8
_0-0_計極細
  6
CONTINUOUS
 62
    2
 10
883.24901008710299
 20
1101.1467153284595
 11
883.24901008710299
 21
1095.5467153284596
  0
LINE
  8
_0-0_計極細
  6
CONTINUOUS
 62
    2
 10
870.24901008710299
 20
1118.1467153284605
 11
870.24901008710299
 21
1112.5467153284601
  0
LINE
  8
_0-0_計極細
  6
CONTINUOUS
 62
    2
 10
883.24901008710299
 20
1118.1467153284605
 11
883.24901008710299
 21
1112.5467153284601
  0
LINE
  8
_0-0_計極細
  6
CONTINUOUS
 62
    2
 10
870.24901008710299
 20
1135.1467153284614
 11
870.24901008710299
 21
1129.546715328461
  0
LINE
  8
_0-0_計極細
  6
CONTINUOUS
 62
    2
 10
883.24901008710299
 20
1135.1467153284614
 11
883.24901008710299
 21
1129.546715328461
  0
LINE
  8
_0-0_計極細
  6
CONTINUOUS
 62
    2
 10
870.24901008710299
 20
1152.1467153284618
 11
870.24901008710299
 21
1146.5467153284619
  0
LINE
  8
_0-0_計極細
  6
CONTINUOUS
 62
    2
 10
883.24901008710299
 20
1152.1467153284618
 11
883.24901008710299
 21
1146.5467153284619
  0
LINE
  8
_0-0_計極細
  6
CONTINUOUS
 62
    2
 10
870.24901008710299
 20
1010.546715328461
 11
870.24901008710299
 21
1016.1467153284609
  0
LINE
  8
_0-0_計極細
  6
CONTINUOUS
 62
    2
 10
883.24901008710299
 20
1010.546715328461
 11
883.24901008710299
 21
1016.1467153284609
  0
LINE
  8
_0-0_計極細
  6
CONTINUOUS
 62
    2
 10
870.24901008710299
 20
993.5467153284601
 11
870.24901008710299
 21
999.14671532846046
  0
LINE
  8
_0-0_計極細
  6
CONTINUOUS
 62
    2
 10
883.24901008710299
 20
993.5467153284601
 11
883.24901008710299
 21
999.14671532846046
  0
LINE
  8
_0-0_計極細
  6
CONTINUOUS
 62
    2
 10
870.24901008710299
 20
976.54671532845919
 11
870.24901008710299
 21
982.14671532845955
  0
LINE
  8
_0-0_計極細
  6
CONTINUOUS
 62
    2
 10
883.24901008710299
 20
976.54671532845919
 11
883.24901008710299
 21
982.14671532845955
  0
LINE
  8
_0-0_計極細
  6
CONTINUOUS
 62
    2
 10
870.24901008710299
 20
959.54671532845873
 11
870.24901008710299
 21
965.14671532845864
  0
LINE
  8
_0-0_計極細
  6
CONTINUOUS
 62
    2
 10
883.24901008710299
 20
959.54671532845873
 11
883.24901008710299
 21
965.14671532845864
  0
LINE
  8
_0-0_計極細
  6
CONTINUOUS
 62
    2
 10
918.74901008710299
 20
1027.5467153284615
 11
918.74901008710299
 21
1033.1467153284614
  0
LINE
  8
_0-0_計極細
  6
CONTINUOUS
 62
    2
 10
931.74901008710299
 20
1027.5467153284615
 11
931.74901008710299
 21
1033.1467153284614
  0
LINE
  8
_0-0_計極細
  6
CONTINUOUS
 62
    2
 10
918.74901008710299
 20
1050.1467153284577
 11
918.74901008710299
 21
1044.5467153284574
  0
LINE
  8
_0-0_計極細
  6
CONTINUOUS
 62
    2
 10
931.74901008710299
 20
1050.1467153284577
 11
931.74901008710299
 21
1044.5467153284574
  0
LINE
  8
_0-0_計極細
  6
CONTINUOUS
 62
    2
 10
918.74901008710299
 20
1067.1467153284586
 11
918.74901008710299
 21
1061.5467153284583
  0
LINE
  8
_0-0_計極細
  6
CONTINUOUS
 62
    2
 10
931.74901008710299
 20
1067.1467153284586
 11
931.74901008710299
 21
1061.5467153284583
  0
LINE
  8
_0-0_計極細
  6
CONTINUOUS
 62
    2
 10
918.74901008710299
 20
1084.1467153284591
 11
918.74901008710299
 21
1078.5467153284592
  0
LINE
  8
_0-0_計極細
  6
CONTINUOUS
 62
    2
 10
931.74901008710299
 20
1084.1467153284591
 11
931.74901008710299
 21
1078.5467153284592
  0
LINE
  8
_0-0_計極細
  6
CONTINUOUS
 62
    2
 10
918.74901008710299
 20
1169.4467153284597
 11
918.74901008710299
 21
1163.5467153284596
  0
LINE
  8
_0-0_計極細
  6
CONTINUOUS
 62
    2
 10
931.74901008710299
 20
1169.4467153284597
 11
931.74901008710299
 21
1163.5467153284596
  0
LINE
  8
_0-0_計極細
  6
CONTINUOUS
 62
    2
 10
918.74901008710299
 20
942.24671532846082
 11
918.74901008710299
 21
948.14671532846091
  0
LINE
  8
_0-0_計極細
  6
CONTINUOUS
 62
    2
 10
931.74901008710299
 20
942.24671532846082
 11
931.74901008710299
 21
948.14671532846091
  0
LINE
  8
_0-0_計極細
  6
CENTER1
 62
    2
 10
925.24901008710299
 20
1189.5974347529225
 11
925.24901008710299
 21
923.08889158744819
  0
LINE
  8
_0-0_計極細
  6
CONTINUOUS
 62
    2
 10
918.74901008710299
 20
1101.1467153284595
 11
918.74901008710299
 21
1095.5467153284596
  0
LINE
  8
_0-0_計極細
  6
CONTINUOUS
 62
    2
 10
931.74901008710299
 20
1101.1467153284595
 11
931.74901008710299
 21
1095.5467153284596
  0
LINE
  8
_0-0_計極細
  6
CONTINUOUS
 62
    2
 10
918.74901008710299
 20
1118.1467153284605
 11
918.74901008710299
 21
1112.5467153284601
  0
LINE
  8
_0-0_計極細
  6
CONTINUOUS
 62
    2
 10
931.74901008710299
 20
1118.1467153284605
 11
931.74901008710299
 21
1112.5467153284601
  0
LINE
  8
_0-0_計極細
  6
CONTINUOUS
 62
    2
 10
918.74901008710299
 20
1135.1467153284614
 11
918.74901008710299
 21
1129.546715328461
  0
LINE
  8
_0-0_計極細
  6
CONTINUOUS
 62
    2
 10
931.74901008710299
 20
1135.1467153284614
 11
931.74901008710299
 21
1129.546715328461
  0
LINE
  8
_0-0_計極細
  6
CONTINUOUS
 62
    2
 10
918.74901008710299
 20
1152.1467153284618
 11
918.74901008710299
 21
1146.5467153284619
  0
LINE
  8
_0-0_計極細
  6
CONTINUOUS
 62
    2
 10
931.74901008710299
 20
1152.1467153284618
 11
931.74901008710299
 21
1146.5467153284619
  0
LINE
  8
_0-0_計極細
  6
CONTINUOUS
 62
    2
 10
918.74901008710299
 20
1010.546715328461
 11
918.74901008710299
 21
1016.1467153284609
  0
LINE
  8
_0-0_計極細
  6
CONTINUOUS
 62
    2
 10
931.74901008710299
 20
1010.546715328461
 11
931.74901008710299
 21
1016.1467153284609
  0
LINE
  8
_0-0_計極細
  6
CONTINUOUS
 62
    2
 10
918.74901008710299
 20
993.5467153284601
 11
918.74901008710299
 21
999.14671532846046
  0
LINE
  8
_0-0_計極細
  6
CONTINUOUS
 62
    2
 10
931.74901008710299
 20
993.5467153284601
 11
931.74901008710299
 21
999.14671532846046
  0
LINE
  8
_0-0_計極細
  6
CONTINUOUS
 62
    2
 10
918.74901008710299
 20
976.54671532845919
 11
918.74901008710299
 21
982.14671532845955
  0
LINE
  8
_0-0_計極細
  6
CONTINUOUS
 62
    2
 10
931.74901008710299
 20
976.54671532845919
 11
931.74901008710299
 21
982.14671532845955
  0
LINE
  8
_0-0_計極細
  6
CONTINUOUS
 62
    2
 10
918.74901008710299
 20
959.54671532845873
 11
918.74901008710299
 21
965.14671532845864
  0
LINE
  8
_0-0_計極細
  6
CONTINUOUS
 62
    2
 10
931.74901008710299
 20
959.54671532845873
 11
931.74901008710299
 21
965.14671532845864
  0
LINE
  8
_0-0_計極細
  6
CONTINUOUS
 62
    2
 10
967.24901008710299
 20
1027.5467153284615
 11
967.24901008710299
 21
1033.1467153284614
  0
LINE
  8
_0-0_計極細
  6
CONTINUOUS
 62
    2
 10
980.24901008710299
 20
1027.5467153284615
 11
980.24901008710299
 21
1033.1467153284614
  0
LINE
  8
_0-0_計極細
  6
CONTINUOUS
 62
    2
 10
967.24901008710299
 20
1050.1467153284577
 11
967.24901008710299
 21
1044.5467153284574
  0
LINE
  8
_0-0_計極細
  6
CONTINUOUS
 62
    2
 10
980.24901008710299
 20
1050.1467153284577
 11
980.24901008710299
 21
1044.5467153284574
  0
LINE
  8
_0-0_計極細
  6
CONTINUOUS
 62
    2
 10
967.24901008710299
 20
1067.1467153284586
 11
967.24901008710299
 21
1061.5467153284583
  0
LINE
  8
_0-0_計極細
  6
CONTINUOUS
 62
    2
 10
980.24901008710299
 20
1067.1467153284586
 11
980.24901008710299
 21
1061.5467153284583
  0
LINE
  8
_0-0_計極細
  6
CONTINUOUS
 62
    2
 10
967.24901008710299
 20
1084.1467153284591
 11
967.24901008710299
 21
1078.5467153284592
  0
LINE
  8
_0-0_計極細
  6
CONTINUOUS
 62
    2
 10
980.24901008710299
 20
1084.1467153284591
 11
980.24901008710299
 21
1078.5467153284592
  0
LINE
  8
_0-0_計極細
  6
CONTINUOUS
 62
    2
 10
967.24901008710299
 20
1169.4467153284597
 11
967.24901008710299
 21
1163.5467153284596
  0
LINE
  8
_0-0_計極細
  6
CONTINUOUS
 62
    2
 10
980.24901008710299
 20
1169.4467153284597
 11
980.24901008710299
 21
1163.5467153284596
  0
LINE
  8
_0-0_計極細
  6
CONTINUOUS
 62
    2
 10
967.24901008710299
 20
942.24671532846082
 11
967.24901008710299
 21
948.14671532846091
  0
LINE
  8
_0-0_計極細
  6
CONTINUOUS
 62
    2
 10
980.24901008710299
 20
942.24671532846082
 11
980.24901008710299
 21
948.14671532846091
  0
LINE
  8
_0-0_計極細
  6
CENTER1
 62
    2
 10
973.74901008710299
 20
1189.5974347529225
 11
973.74901008710299
 21
923.08889158744819
  0
LINE
  8
_0-0_計極細
  6
CONTINUOUS
 62
    2
 10
967.24901008710299
 20
1101.1467153284595
 11
967.24901008710299
 21
1095.5467153284596
  0
LINE
  8
_0-0_計極細
  6
CONTINUOUS
 62
    2
 10
980.24901008710299
 20
1101.1467153284595
 11
980.24901008710299
 21
1095.5467153284596
  0
LINE
  8
_0-0_計極細
  6
CONTINUOUS
 62
    2
 10
967.24901008710299
 20
1118.1467153284605
 11
967.24901008710299
 21
1112.5467153284601
  0
LINE
  8
_0-0_計極細
  6
CONTINUOUS
 62
    2
 10
980.24901008710299
 20
1118.1467153284605
 11
980.24901008710299
 21
1112.5467153284601
  0
LINE
  8
_0-0_計極細
  6
CONTINUOUS
 62
    2
 10
967.24901008710299
 20
1135.1467153284614
 11
967.24901008710299
 21
1129.546715328461
  0
LINE
  8
_0-0_計極細
  6
CONTINUOUS
 62
    2
 10
980.24901008710299
 20
1135.1467153284614
 11
980.24901008710299
 21
1129.546715328461
  0
LINE
  8
_0-0_計極細
  6
CONTINUOUS
 62
    2
 10
967.24901008710299
 20
1152.1467153284618
 11
967.24901008710299
 21
1146.5467153284619
  0
LINE
  8
_0-0_計極細
  6
CONTINUOUS
 62
    2
 10
980.24901008710299
 20
1152.1467153284618
 11
980.24901008710299
 21
1146.5467153284619
  0
LINE
  8
_0-0_計極細
  6
CONTINUOUS
 62
    2
 10
967.24901008710299
 20
1010.546715328461
 11
967.24901008710299
 21
1016.1467153284609
  0
LINE
  8
_0-0_計極細
  6
CONTINUOUS
 62
    2
 10
980.24901008710299
 20
1010.546715328461
 11
980.24901008710299
 21
1016.1467153284609
  0
LINE
  8
_0-0_計極細
  6
CONTINUOUS
 62
    2
 10
967.24901008710299
 20
993.5467153284601
 11
967.24901008710299
 21
999.14671532846046
  0
LINE
  8
_0-0_計極細
  6
CONTINUOUS
 62
    2
 10
980.24901008710299
 20
993.5467153284601
 11
980.24901008710299
 21
999.14671532846046
  0
LINE
  8
_0-0_計極細
  6
CONTINUOUS
 62
    2
 10
967.24901008710299
 20
976.54671532845919
 11
967.24901008710299
 21
982.14671532845955
  0
LINE
  8
_0-0_計極細
  6
CONTINUOUS
 62
    2
 10
980.24901008710299
 20
976.54671532845919
 11
980.24901008710299
 21
982.14671532845955
  0
LINE
  8
_0-0_計極細
  6
CONTINUOUS
 62
    2
 10
967.24901008710299
 20
959.54671532845873
 11
967.24901008710299
 21
965.14671532845864
  0
LINE
  8
_0-0_計極細
  6
CONTINUOUS
 62
    2
 10
980.24901008710299
 20
959.54671532845873
 11
980.24901008710299
 21
965.14671532845864
  0
LINE
  8
_0-0_計極細
  6
CONTINUOUS
 62
    2
 10
1015.749010087103
 20
1027.5467153284615
 11
1015.749010087103
 21
1033.1467153284614
  0
LINE
  8
_0-0_計極細
  6
CONTINUOUS
 62
    2
 10
1028.749010087103
 20
1027.5467153284615
 11
1028.749010087103
 21
1033.1467153284614
  0
LINE
  8
_0-0_計極細
  6
CONTINUOUS
 62
    2
 10
1015.749010087103
 20
1050.1467153284577
 11
1015.749010087103
 21
1044.5467153284574
  0
LINE
  8
_0-0_計極細
  6
CONTINUOUS
 62
    2
 10
1028.749010087103
 20
1050.1467153284577
 11
1028.749010087103
 21
1044.5467153284574
  0
LINE
  8
_0-0_計極細
  6
CONTINUOUS
 62
    2
 10
1015.749010087103
 20
1067.1467153284586
 11
1015.749010087103
 21
1061.5467153284583
  0
LINE
  8
_0-0_計極細
  6
CONTINUOUS
 62
    2
 10
1028.749010087103
 20
1067.1467153284586
 11
1028.749010087103
 21
1061.5467153284583
  0
LINE
  8
_0-0_計極細
  6
CONTINUOUS
 62
    2
 10
1015.749010087103
 20
1084.1467153284591
 11
1015.749010087103
 21
1078.5467153284592
  0
LINE
  8
_0-0_計極細
  6
CONTINUOUS
 62
    2
 10
1028.749010087103
 20
1084.1467153284591
 11
1028.749010087103
 21
1078.5467153284592
  0
LINE
  8
_0-0_計極細
  6
CONTINUOUS
 62
    2
 10
1015.749010087103
 20
1169.4467153284597
 11
1015.749010087103
 21
1163.5467153284596
  0
LINE
  8
_0-0_計極細
  6
CONTINUOUS
 62
    2
 10
1028.749010087103
 20
1169.4467153284597
 11
1028.749010087103
 21
1163.5467153284596
  0
LINE
  8
_0-0_計極細
  6
CONTINUOUS
 62
    2
 10
1015.749010087103
 20
942.24671532846082
 11
1015.749010087103
 21
948.14671532846091
  0
LINE
  8
_0-0_計極細
  6
CONTINUOUS
 62
    2
 10
1028.749010087103
 20
942.24671532846082
 11
1028.749010087103
 21
948.14671532846091
  0
LINE
  8
_0-0_計極細
  6
CENTER1
 62
    2
 10
1022.249010087103
 20
1189.5974347529225
 11
1022.249010087103
 21
923.08889158744819
  0
LINE
  8
_0-0_計極細
  6
CONTINUOUS
 62
    2
 10
1015.749010087103
 20
1101.1467153284595
 11
1015.749010087103
 21
1095.5467153284596
  0
LINE
  8
_0-0_計極細
  6
CONTINUOUS
 62
    2
 10
1028.749010087103
 20
1101.1467153284595
 11
1028.749010087103
 21
1095.5467153284596
  0
LINE
  8
_0-0_計極細
  6
CONTINUOUS
 62
    2
 10
1015.749010087103
 20
1118.1467153284605
 11
1015.749010087103
 21
1112.5467153284601
  0
LINE
  8
_0-0_計極細
  6
CONTINUOUS
 62
    2
 10
1028.749010087103
 20
1118.1467153284605
 11
1028.749010087103
 21
1112.5467153284601
  0
LINE
  8
_0-0_計極細
  6
CONTINUOUS
 62
    2
 10
1015.749010087103
 20
1135.1467153284614
 11
1015.749010087103
 21
1129.546715328461
  0
LINE
  8
_0-0_計極細
  6
CONTINUOUS
 62
    2
 10
1028.749010087103
 20
1135.1467153284614
 11
1028.749010087103
 21
1129.546715328461
  0
LINE
  8
_0-0_計極細
  6
CONTINUOUS
 62
    2
 10
1015.749010087103
 20
1152.1467153284618
 11
1015.749010087103
 21
1146.5467153284619
  0
LINE
  8
_0-0_計極細
  6
CONTINUOUS
 62
    2
 10
1028.749010087103
 20
1152.1467153284618
 11
1028.749010087103
 21
1146.5467153284619
  0
LINE
  8
_0-0_計極細
  6
CONTINUOUS
 62
    2
 10
1015.749010087103
 20
1010.546715328461
 11
1015.749010087103
 21
1016.1467153284609
  0
LINE
  8
_0-0_計極細
  6
CONTINUOUS
 62
    2
 10
1028.749010087103
 20
1010.546715328461
 11
1028.749010087103
 21
1016.1467153284609
  0
LINE
  8
_0-0_計極細
  6
CONTINUOUS
 62
    2
 10
1015.749010087103
 20
993.5467153284601
 11
1015.749010087103
 21
999.14671532846046
  0
LINE
  8
_0-0_計極細
  6
CONTINUOUS
 62
    2
 10
1028.749010087103
 20
993.5467153284601
 11
1028.749010087103
 21
999.14671532846046
  0
LINE
  8
_0-0_計極細
  6
CONTINUOUS
 62
    2
 10
1015.749010087103
 20
976.54671532845919
 11
1015.749010087103
 21
982.14671532845955
  0
LINE
  8
_0-0_計極細
  6
CONTINUOUS
 62
    2
 10
1028.749010087103
 20
976.54671532845919
 11
1028.749010087103
 21
982.14671532845955
  0
LINE
  8
_0-0_計極細
  6
CONTINUOUS
 62
    2
 10
1015.749010087103
 20
959.54671532845873
 11
1015.749010087103
 21
965.14671532845864
  0
LINE
  8
_0-0_計極細
  6
CONTINUOUS
 62
    2
 10
1028.749010087103
 20
959.54671532845873
 11
1028.749010087103
 21
965.14671532845864
  0
LINE
  8
_0-0_計極細
  6
CONTINUOUS
 62
    2
 10
1064.249010087103
 20
1027.5467153284615
 11
1064.249010087103
 21
1033.1467153284614
  0
LINE
  8
_0-0_計極細
  6
CONTINUOUS
 62
    2
 10
1077.249010087103
 20
1027.5467153284615
 11
1077.249010087103
 21
1033.1467153284614
  0
LINE
  8
_0-0_計極細
  6
CONTINUOUS
 62
    2
 10
1064.249010087103
 20
1050.1467153284577
 11
1064.249010087103
 21
1044.5467153284574
  0
LINE
  8
_0-0_計極細
  6
CONTINUOUS
 62
    2
 10
1077.249010087103
 20
1050.1467153284577
 11
1077.249010087103
 21
1044.5467153284574
  0
LINE
  8
_0-0_計極細
  6
CONTINUOUS
 62
    2
 10
1064.249010087103
 20
1067.1467153284586
 11
1064.249010087103
 21
1061.5467153284583
  0
LINE
  8
_0-0_計極細
  6
CONTINUOUS
 62
    2
 10
1077.249010087103
 20
1067.1467153284586
 11
1077.249010087103
 21
1061.5467153284583
  0
LINE
  8
_0-0_計極細
  6
CONTINUOUS
 62
    2
 10
1064.249010087103
 20
1084.1467153284591
 11
1064.249010087103
 21
1078.5467153284592
  0
LINE
  8
_0-0_計極細
  6
CONTINUOUS
 62
    2
 10
1077.249010087103
 20
1084.1467153284591
 11
1077.249010087103
 21
1078.5467153284592
  0
LINE
  8
_0-0_計極細
  6
CONTINUOUS
 62
    2
 10
1064.249010087103
 20
1169.4467153284597
 11
1064.249010087103
 21
1163.5467153284596
  0
LINE
  8
_0-0_計極細
  6
CONTINUOUS
 62
    2
 10
1077.249010087103
 20
1169.4467153284597
 11
1077.249010087103
 21
1163.5467153284596
  0
LINE
  8
_0-0_計極細
  6
CONTINUOUS
 62
    2
 10
1064.249010087103
 20
942.24671532846082
 11
1064.249010087103
 21
948.14671532846091
  0
LINE
  8
_0-0_計極細
  6
CONTINUOUS
 62
    2
 10
1077.249010087103
 20
942.24671532846082
 11
1077.249010087103
 21
948.14671532846091
  0
LINE
  8
_0-0_計極細
  6
CENTER1
 62
    2
 10
1070.749010087103
 20
1189.5974347529225
 11
1070.749010087103
 21
923.08889158744819
  0
LINE
  8
_0-0_計極細
  6
CONTINUOUS
 62
    2
 10
1064.249010087103
 20
1101.1467153284595
 11
1064.249010087103
 21
1095.5467153284596
  0
LINE
  8
_0-0_計極細
  6
CONTINUOUS
 62
    2
 10
1077.249010087103
 20
1101.1467153284595
 11
1077.249010087103
 21
1095.5467153284596
  0
LINE
  8
_0-0_計極細
  6
CONTINUOUS
 62
    2
 10
1064.249010087103
 20
1118.1467153284605
 11
1064.249010087103
 21
1112.5467153284601
  0
LINE
  8
_0-0_計極細
  6
CONTINUOUS
 62
    2
 10
1077.249010087103
 20
1118.1467153284605
 11
1077.249010087103
 21
1112.5467153284601
  0
LINE
  8
_0-0_計極細
  6
CONTINUOUS
 62
    2
 10
1064.249010087103
 20
1135.1467153284614
 11
1064.249010087103
 21
1129.546715328461
  0
LINE
  8
_0-0_計極細
  6
CONTINUOUS
 62
    2
 10
1077.249010087103
 20
1135.1467153284614
 11
1077.249010087103
 21
1129.546715328461
  0
LINE
  8
_0-0_計極細
  6
CONTINUOUS
 62
    2
 10
1064.249010087103
 20
1152.1467153284618
 11
1064.249010087103
 21
1146.5467153284619
  0
LINE
  8
_0-0_計極細
  6
CONTINUOUS
 62
    2
 10
1077.249010087103
 20
1152.1467153284618
 11
1077.249010087103
 21
1146.5467153284619
  0
LINE
  8
_0-0_計極細
  6
CONTINUOUS
 62
    2
 10
1064.249010087103
 20
1010.546715328461
 11
1064.249010087103
 21
1016.1467153284609
  0
LINE
  8
_0-0_計極細
  6
CONTINUOUS
 62
    2
 10
1077.249010087103
 20
1010.546715328461
 11
1077.249010087103
 21
1016.1467153284609
  0
LINE
  8
_0-0_計極細
  6
CONTINUOUS
 62
    2
 10
1064.249010087103
 20
993.5467153284601
 11
1064.249010087103
 21
999.14671532846046
  0
LINE
  8
_0-0_計極細
  6
CONTINUOUS
 62
    2
 10
1077.249010087103
 20
993.5467153284601
 11
1077.249010087103
 21
999.14671532846046
  0
LINE
  8
_0-0_計極細
  6
CONTINUOUS
 62
    2
 10
1064.249010087103
 20
976.54671532845919
 11
1064.249010087103
 21
982.14671532845955
  0
LINE
  8
_0-0_計極細
  6
CONTINUOUS
 62
    2
 10
1077.249010087103
 20
976.54671532845919
 11
1077.249010087103
 21
982.14671532845955
  0
LINE
  8
_0-0_計極細
  6
CONTINUOUS
 62
    2
 10
1064.249010087103
 20
959.54671532845873
 11
1064.249010087103
 21
965.14671532845864
  0
LINE
  8
_0-0_計極細
  6
CONTINUOUS
 62
    2
 10
1077.249010087103
 20
959.54671532845873
 11
1077.249010087103
 21
965.14671532845864
  0
LINE
  8
_0-0_計極細
  6
CONTINUOUS
 62
    2
 10
1112.749010087103
 20
1027.5467153284615
 11
1112.749010087103
 21
1033.1467153284614
  0
LINE
  8
_0-0_計極細
  6
CONTINUOUS
 62
    2
 10
1125.749010087103
 20
1027.5467153284615
 11
1125.749010087103
 21
1033.1467153284614
  0
LINE
  8
_0-0_計極細
  6
CONTINUOUS
 62
    2
 10
1112.749010087103
 20
1050.1467153284577
 11
1112.749010087103
 21
1044.5467153284574
  0
LINE
  8
_0-0_計極細
  6
CONTINUOUS
 62
    2
 10
1125.749010087103
 20
1050.1467153284577
 11
1125.749010087103
 21
1044.5467153284574
  0
LINE
  8
_0-0_計極細
  6
CONTINUOUS
 62
    2
 10
1112.749010087103
 20
1067.1467153284586
 11
1112.749010087103
 21
1061.5467153284583
  0
LINE
  8
_0-0_計極細
  6
CONTINUOUS
 62
    2
 10
1125.749010087103
 20
1067.1467153284586
 11
1125.749010087103
 21
1061.5467153284583
  0
LINE
  8
_0-0_計極細
  6
CONTINUOUS
 62
    2
 10
1112.749010087103
 20
1084.1467153284591
 11
1112.749010087103
 21
1078.5467153284592
  0
LINE
  8
_0-0_計極細
  6
CONTINUOUS
 62
    2
 10
1125.749010087103
 20
1084.1467153284591
 11
1125.749010087103
 21
1078.5467153284592
  0
LINE
  8
_0-0_計極細
  6
CONTINUOUS
 62
    2
 10
1112.749010087103
 20
1169.4467153284597
 11
1112.749010087103
 21
1163.5467153284596
  0
LINE
  8
_0-0_計極細
  6
CONTINUOUS
 62
    2
 10
1125.749010087103
 20
1169.4467153284597
 11
1125.749010087103
 21
1163.5467153284596
  0
LINE
  8
_0-0_計極細
  6
CONTINUOUS
 62
    2
 10
1112.749010087103
 20
942.24671532846082
 11
1112.749010087103
 21
948.14671532846091
  0
LINE
  8
_0-0_計極細
  6
CONTINUOUS
 62
    2
 10
1125.749010087103
 20
942.24671532846082
 11
1125.749010087103
 21
948.14671532846091
  0
LINE
  8
_0-0_計極細
  6
CENTER1
 62
    2
 10
1119.249010087103
 20
1189.5974347529225
 11
1119.249010087103
 21
923.08889158744819
  0
LINE
  8
_0-0_計極細
  6
CONTINUOUS
 62
    2
 10
1112.749010087103
 20
1101.1467153284595
 11
1112.749010087103
 21
1095.5467153284596
  0
LINE
  8
_0-0_計極細
  6
CONTINUOUS
 62
    2
 10
1125.749010087103
 20
1101.1467153284595
 11
1125.749010087103
 21
1095.5467153284596
  0
LINE
  8
_0-0_計極細
  6
CONTINUOUS
 62
    2
 10
1112.749010087103
 20
1118.1467153284605
 11
1112.749010087103
 21
1112.5467153284601
  0
LINE
  8
_0-0_計極細
  6
CONTINUOUS
 62
    2
 10
1125.749010087103
 20
1118.1467153284605
 11
1125.749010087103
 21
1112.5467153284601
  0
LINE
  8
_0-0_計極細
  6
CONTINUOUS
 62
    2
 10
1112.749010087103
 20
1135.1467153284614
 11
1112.749010087103
 21
1129.546715328461
  0
LINE
  8
_0-0_計極細
  6
CONTINUOUS
 62
    2
 10
1125.749010087103
 20
1135.1467153284614
 11
1125.749010087103
 21
1129.546715328461
  0
LINE
  8
_0-0_計極細
  6
CONTINUOUS
 62
    2
 10
1112.749010087103
 20
1152.1467153284618
 11
1112.749010087103
 21
1146.5467153284619
  0
LINE
  8
_0-0_計極細
  6
CONTINUOUS
 62
    2
 10
1125.749010087103
 20
1152.1467153284618
 11
1125.749010087103
 21
1146.5467153284619
  0
LINE
  8
_0-0_計極細
  6
CONTINUOUS
 62
    2
 10
1112.749010087103
 20
1010.546715328461
 11
1112.749010087103
 21
1016.1467153284609
  0
LINE
  8
_0-0_計極細
  6
CONTINUOUS
 62
    2
 10
1125.749010087103
 20
1010.546715328461
 11
1125.749010087103
 21
1016.1467153284609
  0
LINE
  8
_0-0_計極細
  6
CONTINUOUS
 62
    2
 10
1112.749010087103
 20
993.5467153284601
 11
1112.749010087103
 21
999.14671532846046
  0
LINE
  8
_0-0_計極細
  6
CONTINUOUS
 62
    2
 10
1125.749010087103
 20
993.5467153284601
 11
1125.749010087103
 21
999.14671532846046
  0
LINE
  8
_0-0_計極細
  6
CONTINUOUS
 62
    2
 10
1112.749010087103
 20
976.54671532845919
 11
1112.749010087103
 21
982.14671532845955
  0
LINE
  8
_0-0_計極細
  6
CONTINUOUS
 62
    2
 10
1125.749010087103
 20
976.54671532845919
 11
1125.749010087103
 21
982.14671532845955
  0
LINE
  8
_0-0_計極細
  6
CONTINUOUS
 62
    2
 10
1112.749010087103
 20
959.54671532845873
 11
1112.749010087103
 21
965.14671532845864
  0
LINE
  8
_0-0_計極細
  6
CONTINUOUS
 62
    2
 10
1125.749010087103
 20
959.54671532845873
 11
1125.749010087103
 21
965.14671532845864
  0
LINE
  8
_0-1_計細線
  6
CONTINUOUS
 62
    3
 10
280.24901008710299
 20
1078.5467153284592
 11
1279.249010087103
 21
1078.5467153284592
  0
LINE
  8
_0-1_計細線
  6
CONTINUOUS
 62
    3
 10
1279.249010087103
 20
1078.5467153284592
 11
1279.249010087103
 21
1067.1467153284586
  0
LINE
  8
_0-0_計極細
  6
CONTINUOUS
 62
    2
 10
280.24901008710299
 20
1070.3467153284585
 11
1279.249010087103
 21
1070.3467153284585
  0
LINE
  8
_0-0_計極細
  6
CONTINUOUS
 62
    2
 10
280.24901008710299
 20
1075.3467153284585
 11
1279.249010087103
 21
1075.3467153284585
  0
LINE
  8
_0-1_計細線
  6
CONTINUOUS
 62
    3
 10
280.24901008710299
 20
1067.1467153284586
 11
1279.249010087103
 21
1067.1467153284586
  0
LINE
  8
_0-1_計細線
  6
CONTINUOUS
 62
    3
 10
280.24901008710299
 20
1078.5467153284592
 11
280.24901008710299
 21
1067.1467153284586
  0
LINE
  8
_0-1_計細線
  6
CONTINUOUS
 62
    3
 10
280.24901008710299
 20
1050.1467153284577
 11
1279.249010087103
 21
1050.1467153284577
  0
LINE
  8
_0-1_計細線
  6
CONTINUOUS
 62
    3
 10
1279.249010087103
 20
1061.5467153284583
 11
1279.249010087103
 21
1050.1467153284577
  0
LINE
  8
_0-0_計極細
  6
CONTINUOUS
 62
    2
 10
280.24901008710299
 20
1053.346715328458
 11
1279.249010087103
 21
1053.346715328458
  0
LINE
  8
_0-0_計極細
  6
CONTINUOUS
 62
    2
 10
280.24901008710299
 20
1058.346715328458
 11
1279.249010087103
 21
1058.346715328458
  0
LINE
  8
_0-1_計細線
  6
CONTINUOUS
 62
    3
 10
280.24901008710299
 20
1061.5467153284583
 11
280.24901008710299
 21
1050.1467153284577
  0
LINE
  8
_0-1_計細線
  6
CONTINUOUS
 62
    3
 10
280.24901008710299
 20
1061.5467153284583
 11
1279.249010087103
 21
1061.5467153284583
  0
LINE
  8
_0-0_計極細
  6
CONTINUOUS
 62
    2
 10
385.24901008710299
 20
1067.1467153284586
 11
385.24901008710299
 21
1066.6967153284584
  0
LINE
  8
_0-0_計極細
  6
CONTINUOUS
 62
    2
 10
385.24901008710299
 20
1061.9967153284585
 11
385.24901008710299
 21
1061.5467153284583
  0
LINE
  8
_0-0_計極細
  6
CONTINUOUS
 62
    2
 10
398.24901008710299
 20
1067.1467153284586
 11
398.24901008710299
 21
1066.6967153284584
  0
LINE
  8
_0-0_計極細
  6
CONTINUOUS
 62
    2
 10
398.24901008710299
 20
1061.9967153284585
 11
398.24901008710299
 21
1061.5467153284583
  0
LINE
  8
_0-5_寸法線
  6
CONTINUOUS
 62
    7
 10
804.06987821252619
 20
970.03398512417925
 11
812.06987821252608
 21
956.1775786636282
  0
LINE
  8
_0-5_寸法線
  6
CONTINUOUS
 62
    7
 10
804.06987821252619
 20
970.03398512417925
 11
804.06987821252608
 21
954.03398512417925
  0
LINE
  8
_0-5_寸法線
  6
CONTINUOUS
 62
    7
 10
804.06987821252619
 20
970.03398512417925
 11
837.51297789489422
 21
845.22263794698893
  0
LINE
  8
_0-5_寸法線
  6
CONTINUOUS
 62
    7
 10
837.51297789489422
 20
845.22263794698893
 11
1125.5129778948942
 21
845.22263794698893
  0
TEXT
  8
_0-5_寸法線
 62
    7
 10
837.51297789489422
 20
845.22263794698893
 40
24
 41
0.8000000000000001
 50
0
  1
セーフティグレーチング補強仕様
  0
LINE
  8
_0-5_寸法線
  6
CONTINUOUS
 62
    7
 10
242.74901008710117
 20
1185.8467153284598
 11
167.89971656637442
 21
1185.8467153284598
  0
LINE
  8
_0-5_寸法線
  6
CONTINUOUS
 62
    7
 10
175.89971656637442
 20
1185.8467153284598
 11
180.04082128801474
 21
1170.3919021078348
  0
LINE
  8
_0-5_寸法線
  6
CONTINUOUS
 62
    7
 10
175.89971656637442
 20
1185.8467153284598
 11
171.75861184473399
 21
1170.3919021078348
  0
LINE
  8
_0-5_寸法線
  6
CONTINUOUS
 62
    7
 10
242.7490100871039
 20
1155.8467153284598
 11
167.89971656637442
 21
1155.8467153284598
  0
LINE
  8
_0-5_寸法線
  6
CONTINUOUS
 62
    7
 10
175.89971656637442
 20
1155.8467153284598
 11
171.75861184473411
 21
1171.3015285490849
  0
LINE
  8
_0-5_寸法線
  6
CONTINUOUS
 62
    7
 10
175.89971656637442
 20
1155.8467153284598
 11
180.04082128801474
 21
1171.3015285490849
  0
LINE
  8
_0-5_寸法線
  6
CONTINUOUS
 62
    7
 10
175.89971656637442
 20
1185.8467153284598
 11
175.89971656637442
 21
1155.8467153284598
  0
TEXT
  8
_0-5_寸法線
 62
    7
 10
175.89971656637442
 20
1158.8467153284598
 40
24
 41
1
 50
90
  1
30
  0
LINE
  8
_0-5_寸法線
  6
CONTINUOUS
 62
    7
 10
175.89971656637442
 20
1155.8467153284598
 11
180.04082128801474
 21
1140.3919021078348
  0
LINE
  8
_0-5_寸法線
  6
CONTINUOUS
 62
    7
 10
175.89971656637442
 20
1155.8467153284598
 11
171.75861184473411
 21
1140.3919021078348
  0
LINE
  8
_0-5_寸法線
  6
CONTINUOUS
 62
    7
 10
242.74901008710162
 20
955.84671532845982
 11
167.89971656637442
 21
955.84671532845982
  0
LINE
  8
_0-5_寸法線
  6
CONTINUOUS
 62
    7
 10
175.89971656637442
 20
955.84671532845982
 11
171.75861184473411
 21
971.30152854908488
  0
LINE
  8
_0-5_寸法線
  6
CONTINUOUS
 62
    7
 10
175.89971656637442
 20
955.84671532845982
 11
180.04082128801474
 21
971.30152854908488
  0
LINE
  8
_0-5_寸法線
  6
CONTINUOUS
 62
    7
 10
175.89971656637442
 20
1155.8467153284598
 11
175.89971656637442
 21
955.84671532845982
  0
TEXT
  8
_0-5_寸法線
 62
    7
 10
175.89971656637442
 20
1037.8467153284598
 40
24
 41
1
 50
90
  1
200
  0
LINE
  8
_0-5_寸法線
  6
CONTINUOUS
 62
    7
 10
175.89971656637442
 20
955.84671532845982
 11
180.04082128801474
 21
940.39190210783477
  0
LINE
  8
_0-5_寸法線
  6
CONTINUOUS
 62
    7
 10
175.89971656637442
 20
955.84671532845982
 11
171.75861184473411
 21
940.39190210783477
  0
LINE
  8
_0-5_寸法線
  6
CONTINUOUS
 62
    7
 10
242.74901008710663
 20
925.84671532846301
 11
167.89971656637442
 21
925.84671532846301
  0
LINE
  8
_0-5_寸法線
  6
CONTINUOUS
 62
    7
 10
175.89971656637442
 20
925.84671532846301
 11
171.75861184473411
 21
941.30152854908806
  0
LINE
  8
_0-5_寸法線
  6
CONTINUOUS
 62
    7
 10
175.89971656637442
 20
925.84671532846301
 11
180.04082128801474
 21
941.30152854908806
  0
LINE
  8
_0-5_寸法線
  6
CONTINUOUS
 62
    7
 10
175.89971656637442
 20
955.84671532845982
 11
175.89971656637442
 21
925.84671532846301
  0
TEXT
  8
_0-5_寸法線
 62
    7
 10
175.89971656637442
 20
928.84671532846141
 40
24
 41
1
 50
90
  1
30
  0
LINE
  8
_0-5_寸法線
  6
CONTINUOUS
 62
    7
 10
1316.749010087103
 20
1185.8467153284596
 11
1447.5983036078305
 21
1185.8467153284587
  0
LINE
  8
_0-5_寸法線
  6
CONTINUOUS
 62
    7
 10
1439.5983036078305
 20
1185.8467153284587
 11
1443.739408329471
 21
1170.3919021078336
  0
LINE
  8
_0-5_寸法線
  6
CONTINUOUS
 62
    7
 10
1439.5983036078305
 20
1185.8467153284587
 11
1435.4571988861903
 21
1170.3919021078336
  0
LINE
  8
_0-5_寸法線
  6
CONTINUOUS
 62
    7
 10
1316.7490100871021
 20
925.84671532845607
 11
1447.5983036078305
 21
925.84671532845528
  0
LINE
  8
_0-5_寸法線
  6
CONTINUOUS
 62
    7
 10
1439.5983036078305
 20
925.84671532845528
 11
1435.4571988861903
 21
941.30152854908033
  0
LINE
  8
_0-5_寸法線
  6
CONTINUOUS
 62
    7
 10
1439.5983036078305
 20
925.84671532845528
 11
1443.739408329471
 21
941.30152854908033
  0
LINE
  8
_0-5_寸法線
  6
CONTINUOUS
 62
    7
 10
1439.5983036078305
 20
1185.8467153284587
 11
1439.5983036078305
 21
925.84671532845528
  0
TEXT
  8
_0-5_寸法線
 62
    7
 10
1439.5983036078305
 20
1037.8467153284569
 40
24
 41
1
 50
90
  1
260
  0
TEXT
  8
_0-5_寸法線
 62
    7
 10
840.45735894371614
 20
819.87224492541509
 40
24
 41
0.7999999999999999
 50
0
  1
ＧＲＳＫ－２５Ｗ２５０
  0
LINE
  8
_0-d_寸法3
  6
CONTINUOUS
 62
    7
 10
513.08234342043625
 20
358.53560944738535
 11
513.08234342043625
 21
217.2022761140521
  0
LINE
  8
_0-d_寸法3
  6
CONTINUOUS
 62
    7
 10
513.08234342043625
 20
225.2022761140521
 11
528.5371566410613
 21
229.34338083569241
  0
LINE
  8
_0-d_寸法3
  6
CONTINUOUS
 62
    7
 10
513.08234342043625
 20
225.2022761140521
 11
528.5371566410613
 21
221.06117139241178
  0
LINE
  8
_0-d_寸法3
  6
CONTINUOUS
 62
    7
 10
1046.4156767537693
 20
358.53560944738535
 11
1046.4156767537693
 21
217.2022761140521
  0
LINE
  8
_0-d_寸法3
  6
CONTINUOUS
 62
    7
 10
1046.4156767537693
 20
225.2022761140521
 11
1030.9608635331442
 21
221.06117139241178
  0
LINE
  8
_0-d_寸法3
  6
CONTINUOUS
 62
    7
 10
1046.4156767537693
 20
225.2022761140521
 11
1030.9608635331442
 21
229.34338083569253
  0
LINE
  8
_0-d_寸法3
  6
CONTINUOUS
 62
    7
 10
513.08234342043625
 20
225.2022761140521
 11
1046.4156767537693
 21
225.2022761140521
  0
TEXT
  8
_0-d_寸法3
 62
    7
 10
761.74901008710299
 20
225.2022761140521
 40
24
 41
1
 50
0
  1
200
  0
LINE
  8
_0-d_寸法3
  6
CONTINUOUS
 62
    7
 10
433.08234342043602
 20
289.20227611405244
 11
433.08234342043511
 21
217.2022761140521
  0
LINE
  8
_0-d_寸法3
  6
CONTINUOUS
 62
    7
 10
433.08234342043522
 20
225.2022761140521
 11
448.53715664106039
 21
229.34338083569241
  0
LINE
  8
_0-d_寸法3
  6
CONTINUOUS
 62
    7
 10
433.08234342043522
 20
225.2022761140521
 11
448.53715664106039
 21
221.06117139241178
  0
LINE
  8
_0-d_寸法3
  6
CONTINUOUS
 62
    7
 10
513.08234342043602
 20
350.53560944738535
 11
513.08234342043443
 21
217.2022761140521
  0
LINE
  8
_0-d_寸法3
  6
CONTINUOUS
 62
    7
 10
513.08234342043454
 20
225.2022761140521
 11
497.62753019980937
 21
221.06117139241178
  0
LINE
  8
_0-d_寸法3
  6
CONTINUOUS
 62
    7
 10
513.08234342043454
 20
225.2022761140521
 11
497.62753019980948
 21
229.34338083569253
  0
LINE
  8
_0-d_寸法3
  6
CONTINUOUS
 62
    7
 10
433.08234342043522
 20
225.2022761140521
 11
513.08234342043454
 21
225.2022761140521
  0
TEXT
  8
_0-d_寸法3
 62
    7
 10
461.08234342043488
 20
225.2022761140521
 40
24
 41
1
 50
0
  1
30
  0
LINE
  8
_0-d_寸法3
  6
CONTINUOUS
 62
    7
 10
1126.4156767537702
 20
289.20227611405244
 11
1126.4156767537702
 21
217.2022761140521
  0
LINE
  8
_0-d_寸法3
  6
CONTINUOUS
 62
    7
 10
1126.4156767537702
 20
225.2022761140521
 11
1110.9608635331451
 21
221.06117139241178
  0
LINE
  8
_0-d_寸法3
  6
CONTINUOUS
 62
    7
 10
1126.4156767537702
 20
225.2022761140521
 11
1110.9608635331451
 21
229.34338083569241
  0
LINE
  8
_0-d_寸法3
  6
CONTINUOUS
 62
    7
 10
1046.4156767537702
 20
350.53560944738535
 11
1046.4156767537702
 21
217.2022761140521
  0
LINE
  8
_0-d_寸法3
  6
CONTINUOUS
 62
    7
 10
1046.4156767537702
 20
225.2022761140521
 11
1061.8704899743952
 21
229.34338083569253
  0
LINE
  8
_0-d_寸法3
  6
CONTINUOUS
 62
    7
 10
1046.4156767537702
 20
225.2022761140521
 11
1061.8704899743952
 21
221.06117139241178
  0
LINE
  8
_0-d_寸法3
  6
CONTINUOUS
 62
    7
 10
1126.4156767537702
 20
225.2022761140521
 11
1046.4156767537702
 21
225.2022761140521
  0
TEXT
  8
_0-d_寸法3
 62
    7
 10
1074.4156767537702
 20
225.2022761140521
 40
24
 41
1
 50
0.0000000000002714
  1
30
  0
LINE
  8
_0-5_寸法線
  6
CONTINUOUS
 62
    7
 10
1383.5983036078305
 20
1185.8467153284598
 11
1379.4571988861903
 21
1201.3015285490849
  0
LINE
  8
_0-5_寸法線
  6
CONTINUOUS
 62
    7
 10
1383.5983036078305
 20
1185.8467153284598
 11
1387.739408329471
 21
1201.3015285490849
  0
LINE
  8
_0-5_寸法線
  6
CONTINUOUS
 62
    7
 10
1316.749010087103
 20
1182.8467153284598
 11
1391.5983036078305
 21
1182.8467153284598
  0
CIRCLE
  8
_0-5_寸法線
  6
CONTINUOUS
 62
    1
 10
1383.5983036078305
 20
1182.8467153284598
 40
2.3999999999999999
  0
LINE
  8
_0-5_寸法線
  6
CONTINUOUS
 62
    7
 10
1383.5983036078305
 20
1225.8467153284598
 11
1383.5983036078305
 21
1182.8467153284598
  0
TEXT
  8
_0-5_寸法線
 62
    7
 10
1383.5983036078305
 20
1207.5172120197883
 40
24
 41
1
 50
90
  1
3
  0
LINE
  8
_0-5_寸法線
  6
CONTINUOUS
 62
    7
 10
1316.749010087103
 20
1180.8467153284607
 11
1391.5983036078305
 21
1180.8467153284607
  0
LINE
  8
_0-5_寸法線
  6
CONTINUOUS
 62
    7
 10
1383.5983036078305
 20
1182.8467153284598
 11
1383.5983036078305
 21
1180.8467153284607
  0
TEXT
  8
_0-5_寸法線
 62
    7
 10
1415.0890327505469
 20
1171.315570822507
 40
24
 41
1
 50
90
  1
2
  0
LINE
  8
_0-5_寸法線
  6
CONTINUOUS
 62
    7
 10
1383.5983036078305
 20
1180.8467153284607
 11
1387.739408329471
 21
1165.3919021078357
  0
LINE
  8
_0-5_寸法線
  6
CONTINUOUS
 62
    7
 10
1383.5983036078305
 20
1180.8467153284607
 11
1379.4571988861903
 21
1165.3919021078357
  0
LINE
  8
_0-5_寸法線
  6
CONTINUOUS
 62
    7
 10
1316.749010087103
 20
930.84671532846028
 11
1391.5983036078305
 21
930.84671532846028
  0
LINE
  8
_0-5_寸法線
  6
CONTINUOUS
 62
    7
 10
1383.5983036078305
 20
930.84671532846028
 11
1379.4571988861903
 21
946.30152854908533
  0
LINE
  8
_0-5_寸法線
  6
CONTINUOUS
 62
    7
 10
1383.5983036078305
 20
930.84671532846028
 11
1387.739408329471
 21
946.30152854908533
  0
LINE
  8
_0-5_寸法線
  6
CONTINUOUS
 62
    7
 10
1383.5983036078305
 20
1180.8467153284607
 11
1383.5983036078305
 21
930.84671532846028
  0
TEXT
  8
_0-5_寸法線
 62
    7
 10
1383.598303607831
 20
1037.8467153284607
 40
24
 41
1
 50
90
  1
250
  0
LINE
  8
_0-5_寸法線
  6
CONTINUOUS
 62
    7
 10
1316.749010087103
 20
928.84671532846119
 11
1391.5983036078305
 21
928.84671532846119
  0
CIRCLE
  8
_0-5_寸法線
  6
CONTINUOUS
 62
    1
 10
1383.5983036078305
 20
928.84671532846119
 40
2.3999999999999999
  0
LINE
  8
_0-5_寸法線
  6
CONTINUOUS
 62
    7
 10
1383.5983036078305
 20
930.84671532846028
 11
1383.5983036078305
 21
928.84671532846119
  0
TEXT
  8
_0-5_寸法線
 62
    7
 10
1415.9439820319733
 20
931.24671532846128
 40
24
 41
1
 50
90
  1
2
  0
LINE
  8
_0-5_寸法線
  6
CONTINUOUS
 62
    7
 10
1383.5983036078305
 20
925.84671532845618
 11
1387.7394083294707
 21
910.39190210783113
  0
LINE
  8
_0-5_寸法線
  6
CONTINUOUS
 62
    7
 10
1383.5983036078305
 20
925.84671532845618
 11
1379.4571988861901
 21
910.39190210783113
  0
LINE
  8
_0-5_寸法線
  6
CONTINUOUS
 62
    7
 10
1383.5983036078305
 20
928.84671532846119
 11
1383.5983036078305
 21
885.84671532845618
  0
TEXT
  8
_0-5_寸法線
 62
    7
 10
1383.5983036078305
 20
890.79355852086678
 40
24
 41
1
 50
90
  1
3
  0
LINE
  8
_0-d_寸法3
  6
CONTINUOUS
 62
    7
 10
433.08234342043625
 20
561.20227344470095
 11
417.62753019981119
 21
557.06116872306063
  0
LINE
  8
_0-d_寸法3
  6
CONTINUOUS
 62
    7
 10
433.08234342043625
 20
561.20227344470095
 11
417.62753019981119
 21
565.34337816634138
  0
LINE
  8
_0-d_寸法3
  6
CONTINUOUS
 62
    7
 10
441.08234342043625
 20
447.86894278071895
 11
441.08234342043625
 21
569.20227344470095
  0
CIRCLE
  8
_0-d_寸法3
  6
CONTINUOUS
 62
    1
 10
441.08234342043625
 20
561.20227344470095
 40
2.4000000000000004
  0
LINE
  8
_0-d_寸法3
  6
CONTINUOUS
 62
    7
 10
393.08234342043625
 20
561.20227344470095
 11
441.08234342043625
 21
561.20227344470095
  0
TEXT
  8
_0-d_寸法3
 62
    7
 10
399.250874710159
 20
561.20227344470095
 40
24
 41
1
 50
0
  1
3
  0
LINE
  8
_0-d_寸法3
  6
CONTINUOUS
 62
    7
 10
446.41567675376905
 20
443.86894011136729
 11
446.41567675376973
 21
569.20227344470095
  0
LINE
  8
_0-d_寸法3
  6
CONTINUOUS
 62
    7
 10
441.08234342043625
 20
561.20227344470095
 11
446.41567675376973
 21
561.20227344470095
  0
TEXT
  8
_0-d_寸法3
 62
    7
 10
437.74901008710253
 20
561.20227344470095
 40
24
 41
1
 50
0
  1
2
  0
LINE
  8
_0-d_寸法3
  6
CONTINUOUS
 62
    7
 10
446.41567675376973
 20
561.20227344470095
 11
461.87048997439479
 21
565.34337816634127
  0
LINE
  8
_0-d_寸法3
  6
CONTINUOUS
 62
    7
 10
446.41567675376973
 20
561.20227344470095
 11
461.87048997439479
 21
557.06116872306063
  0
LINE
  8
_0-d_寸法3
  6
CONTINUOUS
 62
    7
 10
1113.0823434204365
 20
443.86894011136729
 11
1113.0823434204365
 21
569.20227344470095
  0
LINE
  8
_0-d_寸法3
  6
CONTINUOUS
 62
    7
 10
1113.0823434204365
 20
561.20227344470095
 11
1097.6275301998114
 21
557.06116872306063
  0
LINE
  8
_0-d_寸法3
  6
CONTINUOUS
 62
    7
 10
1113.0823434204365
 20
561.20227344470095
 11
1097.6275301998114
 21
565.34337816634138
  0
LINE
  8
_0-d_寸法3
  6
CONTINUOUS
 62
    7
 10
446.41567675376973
 20
561.20227344470095
 11
1113.0823434204365
 21
561.20227344470095
  0
TEXT
  8
_0-d_寸法3
 62
    7
 10
761.74901008710333
 20
561.20227344470095
 40
24
 41
1
 50
0
  1
250
  0
LINE
  8
_0-d_寸法3
  6
CONTINUOUS
 62
    7
 10
1118.4156767537695
 20
447.86894278071895
 11
1118.4156767537702
 21
569.20227344470095
  0
CIRCLE
  8
_0-d_寸法3
  6
CONTINUOUS
 62
    1
 10
1118.4156767537702
 20
561.20227344470095
 40
2.4000000000000004
  0
LINE
  8
_0-d_寸法3
  6
CONTINUOUS
 62
    7
 10
1113.0823434204365
 20
561.20227344470095
 11
1118.4156767537702
 21
561.20227344470095
  0
TEXT
  8
_0-d_寸法3
 62
    7
 10
1109.7490100871037
 20
561.20227344470095
 40
24
 41
1
 50
0
  1
2
  0
LINE
  8
_0-d_寸法3
  6
CONTINUOUS
 62
    7
 10
1126.4156767537702
 20
561.20227344470095
 11
1141.8704899743952
 21
565.34337816634115
  0
LINE
  8
_0-d_寸法3
  6
CONTINUOUS
 62
    7
 10
1126.4156767537702
 20
561.20227344470095
 11
1141.8704899743952
 21
557.06116872306052
  0
LINE
  8
_0-d_寸法3
  6
CONTINUOUS
 62
    7
 10
1118.4156767537702
 20
561.20227344470095
 11
1166.4156767537702
 21
561.20227344470095
  0
TEXT
  8
_0-d_寸法3
 62
    7
 10
1148.9778482406309
 20
561.20227344470095
 40
24
 41
1
 50
0
  1
3
  0
LINE
  8
_0-5_寸法線
  6
CONTINUOUS
 62
    7
 10
779.7490100871031
 20
1201.8467153284598
 11
779.7490100871031
 21
1273.8467153284598
  0
LINE
  8
_0-5_寸法線
  6
CONTINUOUS
 62
    7
 10
779.7490100871031
 20
1265.8467153284598
 11
795.20382330772816
 21
1269.9878200501003
  0
LINE
  8
_0-5_寸法線
  6
CONTINUOUS
 62
    7
 10
779.7490100871031
 20
1265.8467153284598
 11
795.20382330772816
 21
1261.7056106068194
  0
LINE
  8
_0-5_寸法線
  6
CONTINUOUS
 62
    7
 10
828.2490100871031
 20
1201.8467153284598
 11
828.2490100871031
 21
1273.8467153284598
  0
LINE
  8
_0-5_寸法線
  6
CONTINUOUS
 62
    7
 10
828.2490100871031
 20
1265.8467153284598
 11
812.79419686647805
 21
1261.7056106068196
  0
LINE
  8
_0-5_寸法線
  6
CONTINUOUS
 62
    7
 10
828.2490100871031
 20
1265.8467153284598
 11
812.79419686647805
 21
1269.9878200501003
  0
LINE
  8
_0-5_寸法線
  6
CONTINUOUS
 62
    7
 10
779.7490100871031
 20
1265.8467153284598
 11
828.2490100871031
 21
1265.8467153284598
  0
TEXT
  8
_0-5_寸法線
 62
    7
 10
791.99901008710401
 20
1265.8467153284598
 40
24
 41
1
 50
0
  1
Ｂ
  0
LINE
  8
_0-5_寸法線
  6
CONTINUOUS
 62
    7
 10
280.2490100871031
 20
1201.8467153284598
 11
280.2490100871031
 21
1273.8467153284598
  0
LINE
  8
_0-5_寸法線
  6
CONTINUOUS
 62
    7
 10
280.2490100871031
 20
1265.8467153284598
 11
295.70382330772827
 21
1269.9878200501003
  0
LINE
  8
_0-5_寸法線
  6
CONTINUOUS
 62
    7
 10
280.2490100871031
 20
1265.8467153284598
 11
295.70382330772827
 21
1261.7056106068194
  0
LINE
  8
_0-5_寸法線
  6
CONTINUOUS
 62
    7
 10
294.7490100871031
 20
1201.8467153284598
 11
294.7490100871031
 21
1273.8467153284598
  0
LINE
  8
_0-5_寸法線
  6
CONTINUOUS
 62
    7
 10
294.7490100871031
 20
1265.8467153284598
 11
279.29419686647793
 21
1261.7056106068196
  0
LINE
  8
_0-5_寸法線
  6
CONTINUOUS
 62
    7
 10
294.7490100871031
 20
1265.8467153284598
 11
279.29419686647805
 21
1269.9878200501003
  0
LINE
  8
_0-5_寸法線
  6
CONTINUOUS
 62
    7
 10
280.2490100871031
 20
1265.8467153284598
 11
294.7490100871031
 21
1265.8467153284598
  0
TEXT
  8
_0-5_寸法線
 62
    7
 10
275.4990100871031
 20
1265.8467153284598
 40
24
 41
1
 50
0
  1
Ａ
  0
LINE
  8
_0-5_寸法線
  6
CONTINUOUS
 62
    7
 10
1264.7490100871032
 20
1201.8467153284598
 11
1264.7490100871032
 21
1273.8467153284598
  0
LINE
  8
_0-5_寸法線
  6
CONTINUOUS
 62
    7
 10
1264.7490100871032
 20
1265.8467153284598
 11
1280.2038233077283
 21
1269.9878200501003
  0
LINE
  8
_0-5_寸法線
  6
CONTINUOUS
 62
    7
 10
1264.7490100871032
 20
1265.8467153284598
 11
1280.2038233077283
 21
1261.7056106068194
  0
LINE
  8
_0-5_寸法線
  6
CONTINUOUS
 62
    7
 10
1279.2490100871032
 20
1201.8467153284598
 11
1279.2490100871032
 21
1273.8467153284598
  0
LINE
  8
_0-5_寸法線
  6
CONTINUOUS
 62
    7
 10
1279.2490100871032
 20
1265.8467153284598
 11
1263.7941968664782
 21
1261.7056106068196
  0
LINE
  8
_0-5_寸法線
  6
CONTINUOUS
 62
    7
 10
1279.2490100871032
 20
1265.8467153284598
 11
1263.7941968664782
 21
1269.9878200501003
  0
LINE
  8
_0-5_寸法線
  6
CONTINUOUS
 62
    7
 10
1264.7490100871032
 20
1265.8467153284598
 11
1279.2490100871032
 21
1265.8467153284598
  0
TEXT
  8
_0-5_寸法線
 62
    7
 10
1259.9990100871032
 20
1265.8467153284598
 40
24
 41
1
 50
0
  1
Ａ
  0
LINE
  8
_0-5_寸法線
  6
CONTINUOUS
 62
    7
 10
280.24901008710322
 20
1201.8467153284589
 11
280.2490100871039
 21
1329.8467153284598
  0
LINE
  8
_0-5_寸法線
  6
CONTINUOUS
 62
    7
 10
280.24901008710378
 20
1321.8467153284598
 11
291.84012000257258
 21
1324.9525438696901
  0
LINE
  8
_0-5_寸法線
  6
CONTINUOUS
 62
    7
 10
280.24901008710378
 20
1321.8467153284598
 11
291.84012000257258
 21
1318.7408867872296
  0
LINE
  8
_0-5_寸法線
  6
CONTINUOUS
 62
    7
 10
1279.2490100871032
 20
1201.8467153284589
 11
1279.2490100871032
 21
1329.8467153284598
  0
LINE
  8
_0-5_寸法線
  6
CONTINUOUS
 62
    7
 10
1279.2490100871032
 20
1321.8467153284598
 11
1267.6579001716343
 21
1318.7408867872296
  0
LINE
  8
_0-5_寸法線
  6
CONTINUOUS
 62
    7
 10
1279.2490100871032
 20
1321.8467153284598
 11
1267.6579001716343
 21
1324.9525438696901
  0
LINE
  8
_0-5_寸法線
  6
CONTINUOUS
 62
    7
 10
280.24901008710378
 20
1321.8467153284598
 11
1279.2490100871032
 21
1321.8467153284598
  0
TEXT
  8
_0-5_寸法線
 62
    7
 10
767.7490100871039
 20
1321.8467153284598
 40
24
 41
1
 50
0
  1
Ｌ
  0
LINE
  8
_0-5_寸法線
  6
CONTINUOUS
 62
    7
 10
682.74901008710401
 20
1201.8467153284598
 11
682.74901008710401
 21
1273.8467153284598
  0
LINE
  8
_0-5_寸法線
  6
CONTINUOUS
 62
    7
 10
682.74901008710401
 20
1265.8467153284598
 11
698.20382330772907
 21
1269.9878200501003
  0
LINE
  8
_0-5_寸法線
  6
CONTINUOUS
 62
    7
 10
682.74901008710401
 20
1265.8467153284598
 11
698.20382330772907
 21
1261.7056106068194
  0
LINE
  8
_0-5_寸法線
  6
CONTINUOUS
 62
    7
 10
731.24901008710401
 20
1201.8467153284598
 11
731.24901008710401
 21
1273.8467153284598
  0
LINE
  8
_0-5_寸法線
  6
CONTINUOUS
 62
    7
 10
731.24901008710401
 20
1265.8467153284598
 11
715.79419686647896
 21
1261.7056106068196
  0
LINE
  8
_0-5_寸法線
  6
CONTINUOUS
 62
    7
 10
731.24901008710401
 20
1265.8467153284598
 11
715.79419686647896
 21
1269.9878200501003
  0
LINE
  8
_0-5_寸法線
  6
CONTINUOUS
 62
    7
 10
682.74901008710401
 20
1265.8467153284598
 11
731.24901008710401
 21
1265.8467153284598
  0
TEXT
  8
_0-5_寸法線
 62
    7
 10
682.99901008710401
 20
1265.8467153284598
 40
24
 41
1
 50
0
  1
48.5
  0
LINE
  8
_0-5_寸法線
  6
CONTINUOUS
 62
    7
 10
731.24901008710401
 20
1265.8467153284598
 11
746.70382330772918
 21
1269.9878200501
  0
LINE
  8
_0-5_寸法線
  6
CONTINUOUS
 62
    7
 10
731.24901008710401
 20
1265.8467153284598
 11
746.70382330772907
 21
1261.7056106068194
  0
LINE
  8
_0-5_寸法線
  6
CONTINUOUS
 62
    7
 10
779.74901008710401
 20
1201.8467153284598
 11
779.74901008710401
 21
1273.8467153284598
  0
LINE
  8
_0-5_寸法線
  6
CONTINUOUS
 62
    7
 10
779.74901008710401
 20
1265.8467153284598
 11
764.29419686647896
 21
1261.7056106068196
  0
LINE
  8
_0-5_寸法線
  6
CONTINUOUS
 62
    7
 10
779.74901008710401
 20
1265.8467153284598
 11
764.29419686647896
 21
1269.9878200501003
  0
LINE
  8
_0-5_寸法線
  6
CONTINUOUS
 62
    7
 10
731.24901008710401
 20
1265.8467153284598
 11
779.74901008710401
 21
1265.8467153284598
  0
TEXT
  8
_0-5_寸法線
 62
    7
 10
732.37554281369046
 20
1241.8467153284598
 40
24
 41
1
 50
0
  1
48.5
  0
LINE
  8
_0-7_枠細線
  6
CONTINUOUS
 62
    5
 10
720.7831632691508
 20
1294.3310535460546
 11
708.7831632691508
 21
1318.3310535460546
  0
LINE
  8
_0-7_枠細線
  6
CONTINUOUS
 62
    5
 10
696.7831632691508
 20
1294.3310535460546
 11
720.7831632691508
 21
1294.3310535460546
  0
LINE
  8
_0-7_枠細線
  6
CONTINUOUS
 62
    5
 10
708.7831632691508
 20
1318.3310535460546
 11
696.7831632691508
 21
1294.3310535460546
  0
TEXT
  8
_0-7_枠細線
 62
    5
 10
700.56740529818774
 20
1293.8398499534458
 40
20
 41
0.8
 50
0
  1
１
  0
LINE
  8
_0-7_枠細線
  6
CONTINUOUS
 62
    5
 10
737.19964279867179
 20
1318.3310535460546
 11
725.19964279867179
 21
1294.3310535460546
  0
LINE
  8
_0-7_枠細線
  6
CONTINUOUS
 62
    5
 10
725.19964279867179
 20
1294.3310535460546
 11
749.19964279867179
 21
1294.3310535460546
  0
LINE
  8
_0-7_枠細線
  6
CONTINUOUS
 62
    5
 10
749.19964279867179
 20
1294.3310535460546
 11
737.19964279867179
 21
1318.3310535460546
  0
LINE
  8
_0-7_枠細線
  6
CONTINUOUS
 62
    5
 10
1464
 20
1314.307734354795
 11
1452
 21
1338.307734354795
  0
LINE
  8
_0-7_枠細線
  6
CONTINUOUS
 62
    5
 10
1440
 20
1314.307734354795
 11
1464
 21
1314.307734354795
  0
LINE
  8
_0-7_枠細線
  6
CONTINUOUS
 62
    5
 10
1452
 20
1338.307734354795
 11
1440
 21
1314.307734354795
  0
LINE
  8
_0-7_枠細線
  6
CONTINUOUS
 62
    5
 10
2280
 20
1312
 11
1424
 21
1312
  0
LINE
  8
_0-7_枠細線
  6
CONTINUOUS
 62
    5
 10
1464
 20
1286.307734354795
 11
1452
 21
1310.307734354795
  0
LINE
  8
_0-7_枠細線
  6
CONTINUOUS
 62
    5
 10
1440
 20
1286.307734354795
 11
1464
 21
1286.307734354795
  0
LINE
  8
_0-7_枠細線
  6
CONTINUOUS
 62
    5
 10
1452
 20
1310.307734354795
 11
1440
 21
1286.307734354795
  0
LINE
  8
_0-7_枠細線
  6
CONTINUOUS
 62
    5
 10
2280
 20
1284
 11
1424
 21
1284
  0
TEXT
  8
_0-7_枠細線
 62
    5
 10
1443.7842420290372
 20
1312.7896224110355
 40
20
 41
0.8
 50
0
  1
６
  0
TEXT
  8
_0-7_枠細線
 62
    5
 10
1443.7842420290372
 20
1284.7896224110352
 40
20
 41
0.8
 50
0
  1
７
  0
LINE
  8
_0-7_枠細線
  6
CONTINUOUS
 62
    5
 10
1424
 20
1284
 11
1424
 21
1535.9999999999986
  0
LINE
  8
_0-7_枠細線
  6
CONTINUOUS
 62
    5
 10
1480
 20
1284
 11
1480
 21
1535.9999999999986
  0
LINE
  8
_0-7_枠細線
  6
CONTINUOUS
 62
    5
 10
1880
 20
1284
 11
1880
 21
1535.9999999999986
  0
LINE
  8
_0-7_枠細線
  6
CONTINUOUS
 62
    5
 10
2040
 20
1284
 11
2040
 21
1535.9999999999986
  0
LINE
  8
_0-7_枠細線
  6
CONTINUOUS
 62
    5
 10
1668.4453960905375
 20
1133.8946910356817
 11
1668.4453960905375
 21
1013.8946910356818
  0
TEXT
  8
_0-7_枠細線
 62
    5
 10
1671.7225259619295
 20
980.73377816458583
 40
24
 41
0.8000000000000001
 50
0
  1
※ 特寸品はAが20以下となるようBにて調整
  0
TEXT
  8
_0-7_枠細線
 62
    5
 10
1671.7225259619295
 20
949.54143699835436
 40
24
 41
0.8000000000000001
 50
0
  1
※ 角型の場合は、集水マス補強仕様による
  0
TEXT
  8
_0-7_枠細線
 62
    5
 10
1709.6453960905396
 20
1101.8946910356817
 40
24
 41
0.8000000000000001
 50
0
  1
種　別
  0
TEXT
  8
_0-7_枠細線
 62
    5
 10
1709.645396090539
 20
1061.8946910356817
 40
24
 41
0.8000000000000001
 50
0
  1
定尺品
  0
TEXT
  8
_0-7_枠細線
 62
    5
 10
1709.645396090539
 20
1021.8946910356818
 40
24
 41
0.8000000000000001
 50
0
  1
特寸品
  0
LINE
  8
_0-7_枠細線
  6
CONTINUOUS
 62
    5
 10
1808.4453960905398
 20
1133.8946910356817
 11
1808.4453960905398
 21
1013.8946910356818
  0
TEXT
  8
_0-7_枠細線
 62
    5
 10
1856.845396090542
 20
1061.8946910356817
 40
24
 41
0.5999999999999999
 50
0
  1
９９９
  0
TEXT
  8
_0-7_枠細線
 62
    5
 10
1868.845396090542
 20
1101.8946910356817
 40
24
 41
0.8000000000000001
 50
0
  1
Ｌ
  0
TEXT
  8
_0-7_枠細線
 62
    5
 10
1820.8453960905404
 20
1021.8946910356818
 40
24
 41
0.5999999999999999
 50
0
  1
３０５～１３０５
  0
LINE
  8
_0-7_枠細線
  6
CONTINUOUS
 62
    5
 10
1948.4453960905398
 20
1133.8946910356817
 11
1948.4453960905398
 21
1013.8946910356818
  0
TEXT
  8
_0-7_枠細線
 62
    5
 10
1849.2540219487705
 20
1141.8946910356817
 40
28
 41
1
 50
0
  1
寸法表
  0
LINE
  8
_0-7_枠細線
  6
CONTINUOUS
 62
    5
 10
2228.4453960905412
 20
1133.8946910356817
 11
2228.4453960905412
 21
1013.8946910356818
  0
LINE
  8
_0-7_枠細線
  6
CONTINUOUS
 62
    5
 10
1668.4453960905375
 20
1133.8946910356817
 11
2228.4453960905412
 21
1133.8946910356817
  0
LINE
  8
_0-7_枠細線
  6
CONTINUOUS
 62
    5
 10
1668.4453960905375
 20
1093.8946910356817
 11
2228.4453960905412
 21
1093.8946910356817
  0
LINE
  8
_0-7_枠細線
  6
CONTINUOUS
 62
    5
 10
1668.4453960905375
 20
1053.8946910356817
 11
2228.4453960905412
 21
1053.8946910356817
  0
LINE
  8
_0-7_枠細線
  6
CONTINUOUS
 62
    5
 10
1668.4453960905375
 20
1013.8946910356818
 11
2228.4453960905412
 21
1013.8946910356818
  0
LINE
  8
_0-7_枠細線
  6
CONTINUOUS
 62
    5
 10
2088.4453960905407
 20
1133.8946910356817
 11
2088.4453960905407
 21
1013.8946910356818
  0
TEXT
  8
_0-7_枠細線
 62
    5
 10
1989.6453960905442
 20
1021.8946910356818
 40
24
 41
0.5999999999999999
 50
0
  1
７～２０
  0
TEXT
  8
_0-7_枠細線
 62
    5
 10
2008.8453960905454
 20
1101.8946910356817
 40
24
 41
0.8000000000000001
 50
0
  1
Ａ
  0
TEXT
  8
_0-7_枠細線
 62
    5
 10
2148.8453960905426
 20
1101.8946910356817
 40
24
 41
0.8000000000000001
 50
0
  1
Ｂ
  0
TEXT
  8
_0-7_枠細線
 62
    5
 10
2129.6453960905392
 20
1061.8946910356817
 40
24
 41
0.5999999999999999
 50
0
  1
４８．５
  0
TEXT
  8
_0-7_枠細線
 62
    5
 10
1989.6453960905401
 20
1061.8946910356817
 40
24
 41
0.5999999999999999
 50
0
  1
１４．５
  0
TEXT
  8
_0-7_枠細線
 62
    5
 10
2093.645396090541
 20
1021.8946910356818
 40
24
 41
0.5999999999999999
 50
0
  1
２６．５～４８．５
  0
TEXT
  8
_0-7_枠細線
 62
    5
 10
1882.8453960905383
 20
608
 40
24
 41
0.7999999999999999
 50
0
  1
ライトグレー
  0
TEXT
  8
_0-7_枠細線
 62
    5
 10
1902.0453960905381
 20
648
 40
24
 41
0.7999999999999999
 50
0
  1
ベージュ
  0
TEXT
  8
_0-7_枠細線
 62
    5
 10
1902.0453960905381
 20
567.99999999999977
 40
24
 41
0.7999999999999999
 50
0
  1
ホワイト
  0
TEXT
  8
_0-7_枠細線
 62
    5
 10
1911.6453960905383
 20
527.99999999999977
 40
24
 41
0.7999999999999999
 50
0
  1
ピンク
  0
TEXT
  8
_0-7_枠細線
 62
    5
 10
1911.6453960905383
 20
487.99999999999977
 40
24
 41
0.7999999999999999
 50
0
  1
ブルー
  0
TEXT
  8
_0-7_枠細線
 62
    5
 10
1882.8453960905383
 20
447.99999999999977
 40
24
 41
0.7999999999999999
 50
0
  1
ダークグレー
  0
TEXT
  8
_0-7_枠細線
 62
    5
 10
1911.6453960905383
 20
407.99999999999977
 40
24
 41
0.7999999999999999
 50
0
  1
ウッド
  0
TEXT
  8
_0-7_枠細線
 62
    5
 10
1902.0453960905381
 20
327.99999999999977
 40
24
 41
0.7999999999999999
 50
0
  1
ブラック
  0
TEXT
  8
_0-7_枠細線
 62
    5
 10
1902.0453960905381
 20
367.99999999999977
 40
24
 41
0.7999999999999999
 50
0
  1
ブラウン
  0
LINE
  8
_0-0_計極細
  6
CONTINUOUS
 62
    2
 10
336.74901008710299
 20
1027.5467153284615
 11
336.74901008710299
 21
1033.1467153284614
  0
LINE
  8
_0-0_計極細
  6
CONTINUOUS
 62
    2
 10
349.74901008710299
 20
1027.5467153284615
 11
349.74901008710299
 21
1033.1467153284614
  0
LINE
  8
_0-0_計極細
  6
CONTINUOUS
 62
    2
 10
336.74901008710299
 20
1050.1467153284577
 11
336.74901008710299
 21
1044.5467153284574
  0
LINE
  8
_0-0_計極細
  6
CONTINUOUS
 62
    2
 10
349.74901008710299
 20
1050.1467153284577
 11
349.74901008710299
 21
1044.5467153284574
  0
LINE
  8
_0-0_計極細
  6
CONTINUOUS
 62
    2
 10
336.74901008710299
 20
1067.1467153284586
 11
336.74901008710299
 21
1061.5467153284583
  0
LINE
  8
_0-0_計極細
  6
CONTINUOUS
 62
    2
 10
349.74901008710299
 20
1067.1467153284586
 11
349.74901008710299
 21
1061.5467153284583
  0
LINE
  8
_0-0_計極細
  6
CONTINUOUS
 62
    2
 10
336.74901008710299
 20
1084.1467153284591
 11
336.74901008710299
 21
1078.5467153284592
  0
LINE
  8
_0-0_計極細
  6
CONTINUOUS
 62
    2
 10
349.74901008710299
 20
1084.1467153284591
 11
349.74901008710299
 21
1078.5467153284592
  0
LINE
  8
_0-0_計極細
  6
CONTINUOUS
 62
    2
 10
336.74901008710299
 20
1169.4467153284597
 11
336.74901008710299
 21
1163.5467153284596
  0
LINE
  8
_0-0_計極細
  6
CONTINUOUS
 62
    2
 10
349.74901008710299
 20
1169.4467153284597
 11
349.74901008710299
 21
1163.5467153284596
  0
LINE
  8
_0-0_計極細
  6
CONTINUOUS
 62
    2
 10
336.74901008710299
 20
942.24671532846082
 11
336.74901008710299
 21
948.14671532846091
  0
LINE
  8
_0-0_計極細
  6
CONTINUOUS
 62
    2
 10
349.74901008710299
 20
942.24671532846082
 11
349.74901008710299
 21
948.14671532846091
  0
LINE
  8
_0-0_計極細
  6
CENTER1
 62
    2
 10
343.24901008710299
 20
1189.5974347529225
 11
343.24901008710299
 21
923.08889158744819
  0
LINE
  8
_0-0_計極細
  6
CONTINUOUS
 62
    2
 10
336.74901008710299
 20
1101.1467153284595
 11
336.74901008710299
 21
1095.5467153284596
  0
LINE
  8
_0-0_計極細
  6
CONTINUOUS
 62
    2
 10
349.74901008710299
 20
1101.1467153284595
 11
349.74901008710299
 21
1095.5467153284596
  0
LINE
  8
_0-0_計極細
  6
CONTINUOUS
 62
    2
 10
336.74901008710299
 20
1118.1467153284605
 11
336.74901008710299
 21
1112.5467153284601
  0
LINE
  8
_0-0_計極細
  6
CONTINUOUS
 62
    2
 10
349.74901008710299
 20
1118.1467153284605
 11
349.74901008710299
 21
1112.5467153284601
  0
LINE
  8
_0-0_計極細
  6
CONTINUOUS
 62
    2
 10
336.74901008710299
 20
1135.1467153284614
 11
336.74901008710299
 21
1129.546715328461
  0
LINE
  8
_0-0_計極細
  6
CONTINUOUS
 62
    2
 10
349.74901008710299
 20
1135.1467153284614
 11
349.74901008710299
 21
1129.546715328461
  0
LINE
  8
_0-0_計極細
  6
CONTINUOUS
 62
    2
 10
336.74901008710299
 20
1152.1467153284618
 11
336.74901008710299
 21
1146.5467153284619
  0
LINE
  8
_0-0_計極細
  6
CONTINUOUS
 62
    2
 10
349.74901008710299
 20
1152.1467153284618
 11
349.74901008710299
 21
1146.5467153284619
  0
LINE
  8
_0-0_計極細
  6
CONTINUOUS
 62
    2
 10
336.74901008710299
 20
1010.546715328461
 11
336.74901008710299
 21
1016.1467153284609
  0
LINE
  8
_0-0_計極細
  6
CONTINUOUS
 62
    2
 10
349.74901008710299
 20
1010.546715328461
 11
349.74901008710299
 21
1016.1467153284609
  0
LINE
  8
_0-0_計極細
  6
CONTINUOUS
 62
    2
 10
336.74901008710299
 20
993.5467153284601
 11
336.74901008710299
 21
999.14671532846046
  0
LINE
  8
_0-0_計極細
  6
CONTINUOUS
 62
    2
 10
349.74901008710299
 20
993.5467153284601
 11
349.74901008710299
 21
999.14671532846046
  0
LINE
  8
_0-0_計極細
  6
CONTINUOUS
 62
    2
 10
336.74901008710299
 20
976.54671532845919
 11
336.74901008710299
 21
982.14671532845955
  0
LINE
  8
_0-0_計極細
  6
CONTINUOUS
 62
    2
 10
349.74901008710299
 20
976.54671532845919
 11
349.74901008710299
 21
982.14671532845955
  0
LINE
  8
_0-0_計極細
  6
CONTINUOUS
 62
    2
 10
336.74901008710299
 20
959.54671532845873
 11
336.74901008710299
 21
965.14671532845864
  0
LINE
  8
_0-0_計極細
  6
CONTINUOUS
 62
    2
 10
349.74901008710299
 20
959.54671532845873
 11
349.74901008710299
 21
965.14671532845864
  0
LINE
  8
_0-0_計極細
  6
CONTINUOUS
 62
    2
 10
1209.749010087103
 20
1027.5467153284615
 11
1209.749010087103
 21
1033.1467153284614
  0
LINE
  8
_0-0_計極細
  6
CONTINUOUS
 62
    2
 10
1222.749010087103
 20
1027.5467153284615
 11
1222.749010087103
 21
1033.1467153284614
  0
LINE
  8
_0-0_計極細
  6
CONTINUOUS
 62
    2
 10
1209.749010087103
 20
1050.1467153284577
 11
1209.749010087103
 21
1044.5467153284574
  0
LINE
  8
_0-0_計極細
  6
CONTINUOUS
 62
    2
 10
1222.749010087103
 20
1050.1467153284577
 11
1222.749010087103
 21
1044.5467153284574
  0
LINE
  8
_0-0_計極細
  6
CONTINUOUS
 62
    2
 10
1209.749010087103
 20
1067.1467153284586
 11
1209.749010087103
 21
1061.5467153284583
  0
LINE
  8
_0-0_計極細
  6
CONTINUOUS
 62
    2
 10
1222.749010087103
 20
1067.1467153284586
 11
1222.749010087103
 21
1061.5467153284583
  0
LINE
  8
_0-0_計極細
  6
CONTINUOUS
 62
    2
 10
1209.749010087103
 20
1084.1467153284591
 11
1209.749010087103
 21
1078.5467153284592
  0
LINE
  8
_0-0_計極細
  6
CONTINUOUS
 62
    2
 10
1222.749010087103
 20
1084.1467153284591
 11
1222.749010087103
 21
1078.5467153284592
  0
LINE
  8
_0-0_計極細
  6
CONTINUOUS
 62
    2
 10
1209.749010087103
 20
1169.4467153284597
 11
1209.749010087103
 21
1163.5467153284596
  0
LINE
  8
_0-0_計極細
  6
CONTINUOUS
 62
    2
 10
1222.749010087103
 20
1169.4467153284597
 11
1222.749010087103
 21
1163.5467153284596
  0
LINE
  8
_0-0_計極細
  6
CONTINUOUS
 62
    2
 10
1209.749010087103
 20
942.24671532846082
 11
1209.749010087103
 21
948.14671532846091
  0
LINE
  8
_0-0_計極細
  6
CONTINUOUS
 62
    2
 10
1222.749010087103
 20
942.24671532846082
 11
1222.749010087103
 21
948.14671532846091
  0
LINE
  8
_0-0_計極細
  6
CENTER1
 62
    2
 10
1216.249010087103
 20
1189.5974347529225
 11
1216.249010087103
 21
923.08889158744819
  0
LINE
  8
_0-0_計極細
  6
CONTINUOUS
 62
    2
 10
1209.749010087103
 20
1101.1467153284595
 11
1209.749010087103
 21
1095.5467153284596
  0
LINE
  8
_0-0_計極細
  6
CONTINUOUS
 62
    2
 10
1222.749010087103
 20
1101.1467153284595
 11
1222.749010087103
 21
1095.5467153284596
  0
LINE
  8
_0-0_計極細
  6
CONTINUOUS
 62
    2
 10
1209.749010087103
 20
1118.1467153284605
 11
1209.749010087103
 21
1112.5467153284601
  0
LINE
  8
_0-0_計極細
  6
CONTINUOUS
 62
    2
 10
1222.749010087103
 20
1118.1467153284605
 11
1222.749010087103
 21
1112.5467153284601
  0
LINE
  8
_0-0_計極細
  6
CONTINUOUS
 62
    2
 10
1209.749010087103
 20
1135.1467153284614
 11
1209.749010087103
 21
1129.546715328461
  0
LINE
  8
_0-0_計極細
  6
CONTINUOUS
 62
    2
 10
1222.749010087103
 20
1135.1467153284614
 11
1222.749010087103
 21
1129.546715328461
  0
LINE
  8
_0-0_計極細
  6
CONTINUOUS
 62
    2
 10
1209.749010087103
 20
1152.1467153284618
 11
1209.749010087103
 21
1146.5467153284619
  0
LINE
  8
_0-0_計極細
  6
CONTINUOUS
 62
    2
 10
1222.749010087103
 20
1152.1467153284618
 11
1222.749010087103
 21
1146.5467153284619
  0
LINE
  8
_0-0_計極細
  6
CONTINUOUS
 62
    2
 10
1209.749010087103
 20
1010.546715328461
 11
1209.749010087103
 21
1016.1467153284609
  0
LINE
  8
_0-0_計極細
  6
CONTINUOUS
 62
    2
 10
1222.749010087103
 20
1010.546715328461
 11
1222.749010087103
 21
1016.1467153284609
  0
LINE
  8
_0-0_計極細
  6
CONTINUOUS
 62
    2
 10
1209.749010087103
 20
993.5467153284601
 11
1209.749010087103
 21
999.14671532846046
  0
LINE
  8
_0-0_計極細
  6
CONTINUOUS
 62
    2
 10
1222.749010087103
 20
993.5467153284601
 11
1222.749010087103
 21
999.14671532846046
  0
LINE
  8
_0-0_計極細
  6
CONTINUOUS
 62
    2
 10
1209.749010087103
 20
976.54671532845919
 11
1209.749010087103
 21
982.14671532845955
  0
LINE
  8
_0-0_計極細
  6
CONTINUOUS
 62
    2
 10
1222.749010087103
 20
976.54671532845919
 11
1222.749010087103
 21
982.14671532845955
  0
LINE
  8
_0-0_計極細
  6
CONTINUOUS
 62
    2
 10
1209.749010087103
 20
959.54671532845873
 11
1209.749010087103
 21
965.14671532845864
  0
LINE
  8
_0-0_計極細
  6
CONTINUOUS
 62
    2
 10
1222.749010087103
 20
959.54671532845873
 11
1222.749010087103
 21
965.14671532845864
  0
TEXT
  8
_0-7_枠細線
 62
    5
 10
883.79208546299708
 20
138.52824478432262
 40
32
 41
0.6
 50
0
  1
Ｓ＝１：３
  0
LINE
  8
_0-1_計細線
  6
CONTINUOUS
 62
    3
 10
352.74901008710253
 20
1061.9967153284585
 11
405.74901008710253
 21
1061.9967153284585
  0
LINE
  8
_0-1_計細線
  6
CONTINUOUS
 62
    3
 10
405.74901008710253
 20
1066.6967153284584
 11
352.74901008710253
 21
1066.6967153284584
  0
LINE
  8
_0-1_計細線
  6
CONTINUOUS
 62
    3
 10
352.74901008710253
 20
1066.6967153284584
 11
352.74901008710253
 21
1061.9967153284585
  0
LINE
  8
_0-1_計細線
  6
CONTINUOUS
 62
    3
 10
395.74901008710253
 20
1066.6967153284584
 11
395.74901008710253
 21
1061.9967153284585
  0
LINE
  8
_0-1_計細線
  6
CONTINUOUS
 62
    3
 10
403.74901008710253
 20
1066.6967153284584
 11
403.74901008710253
 21
1061.9967153284585
  0
LINE
  8
_0-1_計細線
  6
CONTINUOUS
 62
    3
 10
405.74901008710253
 20
1066.6967153284584
 11
405.74901008710253
 21
1061.9967153284585
  0
LINE
  8
_0-1_計細線
  6
CONTINUOUS
 62
    3
 10
401.74901008710253
 20
1066.6967153284584
 11
401.74901008710253
 21
1061.9967153284585
  0
LINE
  8
_0-1_計細線
  6
CONTINUOUS
 62
    3
 10
399.74901008710253
 20
1066.6967153284584
 11
399.74901008710253
 21
1061.9967153284585
  0
LINE
  8
_0-1_計細線
  6
CONTINUOUS
 62
    3
 10
397.74901008710253
 20
1066.6967153284584
 11
397.74901008710253
 21
1061.9967153284585
  0
LINE
  8
_0-5_寸法線
  6
CONTINUOUS
 62
    7
 10
572.99170523518205
 20
927.05526397579706
 11
580.99170523518194
 21
913.198857515246
  0
LINE
  8
_0-5_寸法線
  6
CONTINUOUS
 62
    7
 10
572.99170523518205
 20
927.05526397579706
 11
572.99170523518194
 21
911.05526397579706
  0
LINE
  8
_0-5_寸法線
  6
CONTINUOUS
 62
    7
 10
572.99170523518205
 20
927.05526397579706
 11
594.91869129411884
 21
845.22263794698893
  0
LINE
  8
_0-5_寸法線
  6
CONTINUOUS
 62
    7
 10
594.91869129411884
 20
845.22263794698893
 11
767.7186912941188
 21
845.22263794698893
  0
TEXT
  8
_0-5_寸法線
 62
    7
 10
594.91869129411884
 20
846.18263794698873
 40
24
 41
0.8000000000000001
 50
0
  1
ＳＵＳアングル受枠
  0
LINE
  8
_0-5_寸法線
  6
CONTINUOUS
 62
    7
 10
381.30923132886062
 20
1063.9850687443095
 11
389.30923132886051
 21
1050.1286622837583
  0
LINE
  8
_0-5_寸法線
  6
CONTINUOUS
 62
    7
 10
381.30923132886062
 20
1063.9850687443095
 11
381.30923132886051
 21
1047.9850687443095
  0
LINE
  8
_0-5_寸法線
  6
CONTINUOUS
 62
    7
 10
381.30923132886062
 20
1063.9850687443095
 11
439.92644799527091
 21
845.22263794698893
  0
LINE
  8
_0-5_寸法線
  6
CONTINUOUS
 62
    7
 10
439.92644799527091
 20
845.22263794698893
 11
535.92644799527079
 21
845.22263794698893
  0
TEXT
  8
_0-5_寸法線
 62
    7
 10
439.92644799527091
 20
845.22263794698893
 40
24
 41
0.8000000000000001
 50
0
  1
取　外　具
  0
TEXT
  8
_0-5_寸法線
 62
    7
 10
446.71591406819084
 20
818.74370516462147
 40
24
 41
0.7999999999999999
 50
0
  1
(標準付属)
  0
TEXT
  8
_0-7_枠細線
 62
    5
 10
453.28287229490752
 20
872.35773750583348
 40
20
 41
0.8
 50
0
  1
２
  0
LINE
  8
_0-7_枠細線
  6
CONTINUOUS
 62
    5
 10
473.49863026587127
 20
872.8489410984422
 11
461.49863026587127
 21
896.8489410984422
  0
LINE
  8
_0-7_枠細線
  6
CONTINUOUS
 62
    5
 10
449.49863026587127
 20
872.8489410984422
 11
473.49863026587127
 21
872.8489410984422
  0
LINE
  8
_0-7_枠細線
  6
CONTINUOUS
 62
    5
 10
461.49863026587127
 20
896.8489410984422
 11
449.49863026587127
 21
872.8489410984422
  0
LINE
  8
_0-7_枠細線
  6
CONTINUOUS
 62
    5
 10
503.44100452938483
 20
872.8489410984422
 11
491.44100452938483
 21
896.8489410984422
  0
LINE
  8
_0-7_枠細線
  6
CONTINUOUS
 62
    5
 10
479.44100452938483
 20
872.8489410984422
 11
503.44100452938483
 21
872.8489410984422
  0
LINE
  8
_0-7_枠細線
  6
CONTINUOUS
 62
    5
 10
491.44100452938483
 20
896.8489410984422
 11
479.44100452938483
 21
872.8489410984422
  0
TEXT
  8
_0-7_枠細線
 62
    5
 10
483.22524655842199
 20
871.97264687415202
 40
20
 41
0.8
 50
0
  1
３
  0
TEXT
  8
_0-5_寸法線
 62
    7
 10
597.28969698438084
 20
819.87224492541509
 40
24
 41
0.7999999999999999
 50
0
  1
ＧＳＬ－２５
  0
LINE
  8
_0-7_枠細線
  6
CONTINUOUS
 62
    5
 10
519.85748405890581
 20
896.8489410984422
 11
507.85748405890581
 21
872.8489410984422
  0
LINE
  8
_0-7_枠細線
  6
CONTINUOUS
 62
    5
 10
507.85748405890581
 20
872.8489410984422
 11
531.85748405890581
 21
872.8489410984422
  0
LINE
  8
_0-7_枠細線
  6
CONTINUOUS
 62
    5
 10
531.85748405890581
 20
872.8489410984422
 11
519.85748405890581
 21
896.8489410984422
  0
TEXT
  8
_0-7_枠細線
 62
    5
 10
1502.1605925925924
 20
1316
 40
20
 41
1
 50
0
  1
クロスバーピッチ変更
  0
TEXT
  8
_0-7_枠細線
 62
    5
 10
1502.1605925925924
 20
1288
 40
20
 41
1
 50
0
  1
取外具形状変更
  0
TEXT
  8
_0-7_枠細線
 62
    5
 10
1888
 20
1316
 40
20
 41
0.7199999999999999
 50
0
  1
２０２０．０９．０１
  0
TEXT
  8
_0-7_枠細線
 62
    5
 10
1888
 20
1288
 40
20
 41
0.7199999999999999
 50
0
  1
２０２０．１０．０１
  0
TEXT
  8
_0-7_枠細線
 62
    5
 10
728.98388482770895
 20
1293.4547593217644
 40
20
 41
0.8
 50
0
  1
６
  0
TEXT
  8
_0-7_枠細線
 62
    5
 10
511.64172608794297
 20
871.97264687415202
 40
20
 41
0.8
 50
0
  1
７
  0
ENDSEC
  0
EOF
