  0
SECTION
  2
HEADER
  9
$ACADVER
  1
AC1009
  9
$INSBASE
 10
0
 20
0
 30
0
  9
$EXTMIN
 10
0
 20
0
  9
$EXTMAX
 10
2376
 20
1680
  9
$LIMMIN
 10
0
 20
0
  9
$LIMMAX
 10
2376
 20
1680
  9
$LTSCALE
 40
8
  0
ENDSEC
  0
SECTION
  2
TABLES
  0
TABLE
  2
LTYPE
 70
     9
  0
LTYPE
  2
CONTINUOUS
 70
    64
  3
実線
 72
    65
 73
     0
 40
0.0
  0
LTYPE
  2
DASHED1
 70
    64
  3
--  --  --  --  --  --  --  --  
 72
    65
 73
     2
 40
2.5
 49
1.25
 49
-1.25
  0
LTYPE
  2
DASHED2
 70
    64
  3
----    ----    ----    ----    
 72
    65
 73
     2
 40
5.0
 49
2.5
 49
-2.5
  0
LTYPE
  2
DASHED3
 70
    64
  3
------  ------  ------  ------  
 72
    65
 73
     2
 40
5.0
 49
3.75
 49
-1.25
  0
LTYPE
  2
CENTER1
 70
    64
  3
----- - ----- - ----- - ----- - 
 72
    65
 73
     4
 40
10.0
 49
6.25
 49
-1.25
 49
1.25
 49
-1.25
  0
LTYPE
  2
CENTER2
 70
    64
  3
----------  --  ----------  --  
 72
    65
 73
     4
 40
20.0
 49
12.5
 49
-2.5
 49
2.5
 49
-2.5
  0
LTYPE
  2
PHANTOM1
 70
    64
  3
--- - - --- - - --- - - --- - - 
 72
    65
 73
     6
 40
10.0
 49
3.25
 49
-1.25
 49
1.25
 49
-1.25
 49
1.25
 49
-1.25
  0
LTYPE
  2
PHANTOM2
 70
    64
  3
--------  -  -  --------  -  -  
 72
    65
 73
     6
 40
20.0
 49
10.0
 49
-2.5
 49
1.25
 49
-2.5
 49
1.25
 49
-2.5
  0
LTYPE
  2
DOT
 70
    64
  3
-   -   -   -   -   -   -   -   
 72
    65
 73
     2
 40
2.5
 49
0.625
 49
-1.875
  0
LTYPE
  2
DUMMY
 70
    64
  3
ダミー
 72
    65
 73
     0
 40
0.0
  0
LTYPE
  2
RAND1
 70
    64
  3
ランダム線1
 72
    65
 73
     4
 40
10.0
 49
1.0
 49
-2.0
 49
3.0
 49
-4.0
  0
LTYPE
  2
RAND2
 70
    64
  3
ランダム線2
 72
    65
 73
     4
 40
14.0
 49
2.0
 49
-3.0
 49
4.0
 49
-5.0
  0
LTYPE
  2
RAND3
 70
    64
  3
ランダム線3
 72
    65
 73
     4
 40
18.0
 49
3.0
 49
-4.0
 49
5.0
 49
-6.0
  0
LTYPE
  2
RAND4
 70
    64
  3
ランダム線4
 72
    65
 73
     4
 40
22.0
 49
4.0
 49
-5.0
 49
6.0
 49
-7.0
  0
LTYPE
  2
RAND5
 70
    64
  3
ランダム線5
 72
    65
 73
     4
 40
26.0
 49
5.0
 49
-6.0
 49
7.0
 49
-8.0
  0
LTYPE
  2
LONG1
 70
    64
  3
----------  --  ----------  --  
 72
    65
 73
     4
 40
40.0
 49
32.5
 49
-2.5
 49
2.5
 49
-2.5
  0
LTYPE
  2
LONG2
 70
    64
  3
--------  -  -  --------  -  -  
 72
    65
 73
     6
 40
40.0
 49
30.0
 49
-2.5
 49
1.25
 49
-2.5
 49
1.25
 49
-2.5
  0
LTYPE
  2
LONG3
 70
    64
  3
+++++++++++++++..+++++++++++++++
 72
    65
 73
     2
 40
40.0
 49
37.5
 49
-2.5
  0
LTYPE
  2
LONG4
 70
    64
  3
+++++++++++++++..+++++++++++++++
 72
    65
 73
     2
 40
80.0
 49
75.0
 49
-5.0
  0
LTYPE
  2
LONG5
 70
    64
  3
----------  --  ----------  --  
 72
    65
 73
     4
 40
60.0
 49
37.5
 49
-7.5
 49
7.5
 49
-7.5
  0
LTYPE
  2
dashed
 70
   64
  3
-------   -------------   ------
 72
   65
 73
    2
 40
7.5
 49
6
 49
-1.5
  0
LTYPE
  2
dashed_spaced
 70
   64
  3
----        --------        ----
 72
   65
 73
    2
 40
12
 49
6
 49
-6
  0
LTYPE
  2
long_dashed_dotted
 70
   64
  3
------------- --- --------------
 72
   65
 73
    4
 40
15.25
 49
12
 49
-1.5
 49
0.25
 49
-1.5
  0
LTYPE
  2
long_dashed_double-dotted
 70
   64
  3
----------- --- --- ------------
 72
   65
 73
    6
 40
17
 49
12
 49
-1.5
 49
0.25
 49
-1.5
 49
0.25
 49
-1.5
  0
LTYPE
  2
long_dashed_triplicate-dotted
 70
   64
  3
--------- --- --- --- ----------
 72
   65
 73
    8
 40
18.75
 49
12
 49
-1.5
 49
0.25
 49
-1.5
 49
0.25
 49
-1.5
 49
0.25
 49
-1.5
  0
LTYPE
  2
dotted
 70
   64
  3
   -       -       -       -    
 72
   65
 73
    2
 40
1.75
 49
0.25
 49
-1.5
  0
LTYPE
  2
chain
 70
   64
  3
-------------- -- --------------
 72
   65
 73
    4
 40
18.5
 49
12
 49
-1.5
 49
3.5
 49
-1.5
  0
LTYPE
  2
chain_double_dash
 70
   64
  3
------------ -- -- -------------
 72
   65
 73
    6
 40
23.5
 49
12
 49
-1.5
 49
3.5
 49
-1.5
 49
3.5
 49
-1.5
  0
LTYPE
  2
dashed_dotted
 70
   64
  3
-----------     -     ----------
 72
   65
 73
    4
 40
9.25
 49
6
 49
-1.5
 49
0.25
 49
-1.5
  0
LTYPE
  2
double-dashed_dotted
 70
   64
  3
------   -----------   -   -----
 72
   65
 73
    6
 40
16.75
 49
6
 49
-1.5
 49
6
 49
-1.5
 49
0.25
 49
-1.5
  0
LTYPE
  2
dashed_double-dotted
 70
   64
  3
---------    -    -    ---------
 72
   65
 73
    6
 40
11
 49
6
 49
-1.5
 49
0.25
 49
-1.5
 49
0.25
 49
-1.5
  0
LTYPE
  2
double-dashed_double-dotted
 70
   64
  3
-----   ---------   -   -   ----
 72
   65
 73
    8
 40
18.5
 49
6
 49
-1.5
 49
6
 49
-1.5
 49
0.25
 49
-1.5
 49
0.25
 49
-1.5
  0
LTYPE
  2
dashed_triplicate-dotted
 70
   64
  3
-------    -    -    -    ------
 72
   65
 73
    8
 40
12.75
 49
6
 49
-1.5
 49
0.25
 49
-1.5
 49
0.25
 49
-1.5
 49
0.25
 49
-1.5
  0
LTYPE
  2
double-dashed_triplicate-dotted
 70
   64
  3
-----  ---------  -  -  -  -----
 72
   65
 73
   10
 40
20.25
 49
6
 49
-1.5
 49
6
 49
-1.5
 49
0.25
 49
-1.5
 49
0.25
 49
-1.5
 49
0.25
 49
-1.5
  0
LTYPE
  2
undefined
 70
   64
  3
--------------------------------
 72
   65
 73
    0
 40
0
  0
ENDTAB
  0
TABLE
  2
STYLE
  5
3
100
AcDbSymbolTable
 70
     1
  0
STYLE
  5
10
100
AcDbSymbolTableRecord
100
AcDbTextStyleTableRecord
  2
STANDARD
 70
     0
 40
0.0
 41
1.0
 50
0.0
 71
     0
 42
0.2
  3
txt
  4
bigfont.shx
  0
STYLE
  5
26
100
AcDbSymbolTableRecord
100
AcDbTextStyleTableRecord
  2
TATEGAKI
 70
    68
 40
0.0
 41
1.0
 50
0.0
 71
     0
 42
1.0
  3
txt
  4
bigfont.shx
  0
ENDTAB
  0
TABLE
  2
LAYER
 70
   10
  0
LAYER
  2
_0-0_計極細
 70
   64
 62
    7
  6
CONTINUOUS
  0
LAYER
  2
_0-1_計細線
 70
   64
 62
    7
  6
CONTINUOUS
  0
LAYER
  2
_0-5_寸法線
 70
   64
 62
    7
  6
CONTINUOUS
  0
LAYER
  2
_0-7_枠細線
 70
   64
 62
    7
  6
CONTINUOUS
  0
LAYER
  2
_0-8_枠中線
 70
   64
 62
    7
  6
CONTINUOUS
  0
LAYER
  2
_0-9_枠極太
 70
   64
 62
    7
  6
CONTINUOUS
  0
LAYER
  2
_0-a_極細3
 70
   64
 62
    7
  6
CONTINUOUS
  0
LAYER
  2
_0-b_細線3
 70
   64
 62
    7
  6
CONTINUOUS
  0
LAYER
  2
_0-d_寸法3
 70
   64
 62
    7
  6
CONTINUOUS
  0
LAYER
  2
ADD_LINE
 70
   64
 62
    7
  6
CONTINUOUS
  0
ENDTAB
  0
ENDSEC
  0
SECTION
  2
BLOCKS
  0
ENDSEC
  0
SECTION
  2
ENTITIES
  0
LINE
  8
_0-7_枠細線
  6
CONTINUOUS
 62
    5
 10
1896
 20
288
 11
1896
 21
160
  0
TEXT
  8
_0-7_枠細線
 62
    5
 10
1500
 20
156
 40
28
 41
1
 50
0
  1
備考
  7
TATEGAKI
  0
TEXT
  8
_0-7_枠細線
 62
    5
 10
1500
 20
220
 40
28
 41
1
 50
0
  1
品番
  7
TATEGAKI
  0
TEXT
  8
_0-7_枠細線
 62
    5
 10
1500
 20
284
 40
28
 41
1
 50
0
  1
品名
  7
TATEGAKI
  0
LINE
  8
_0-7_枠細線
  6
CONTINUOUS
 62
    5
 10
1896
 20
224
 11
1480
 21
224
  0
LINE
  8
_0-7_枠細線
  6
CONTINUOUS
 62
    5
 10
1520
 20
288
 11
1520
 21
96
  0
LINE
  8
_0-8_枠中線
  6
CONTINUOUS
 62
    5
 10
2280
 20
288
 11
1480
 21
288
  0
LINE
  8
_0-8_枠中線
  6
CONTINUOUS
 62
    5
 10
1480
 20
288
 11
1480
 21
96
  0
LINE
  8
_0-7_枠細線
  6
CONTINUOUS
 62
    5
 10
1992
 20
288
 11
1992
 21
96
  0
TEXT
  8
_0-7_枠細線
 62
    5
 10
1908
 20
256
 40
24
 41
1
 50
0
  1
縮　尺
  0
LINE
  8
_0-7_枠細線
  6
CONTINUOUS
 62
    5
 10
1896
 20
248
 11
1992
 21
248
  0
LINE
  8
_0-7_枠細線
  6
CONTINUOUS
 62
    5
 10
1992
 20
160
 11
1480
 21
160
  0
LINE
  8
_0-7_枠細線
  6
CONTINUOUS
 62
    5
 10
2280
 20
144
 11
1992
 21
144
  0
LINE
  8
_0-7_枠細線
  6
CONTINUOUS
 62
    5
 10
1992
 20
192
 11
2280
 21
192
  0
LINE
  8
_0-7_枠細線
  6
CONTINUOUS
 62
    5
 10
2280
 20
224
 11
1992
 21
224
  0
TEXT
  8
_0-7_枠細線
 62
    5
 10
2008
 20
236
 40
40
 41
0.8
 50
0
  1
株式会社シマブン
  0
TEXT
  8
_0-7_枠細線
 62
    5
 10
2004
 20
96
 40
24
 41
1
 50
0
  1
年月日
  0
TEXT
  8
_0-7_枠細線
 62
    5
 10
2004
 20
120
 40
24
 41
1
 50
0
  1
作　成
  0
TEXT
  8
_0-7_枠細線
 62
    5
 10
2010
 20
196
 40
24
 41
1
 50
0
  1
承 認
  0
LINE
  8
_0-7_枠細線
  6
CONTINUOUS
 62
    5
 10
2088
 20
224
 11
2088
 21
96
  0
TEXT
  8
_0-7_枠細線
 62
    5
 10
2106
 20
196
 40
24
 41
1
 50
0
  1
検 図
  0
LINE
  8
_0-7_枠細線
  6
CONTINUOUS
 62
    5
 10
2184
 20
224
 11
2184
 21
144
  0
TEXT
  8
_0-7_枠細線
 62
    5
 10
2200
 20
152
 40
32
 41
1
 50
0
  1
藤戸
  0
TEXT
  8
_0-7_枠細線
 62
    5
 10
2202
 20
196
 40
24
 41
1
 50
0
  1
設 計
  0
TEXT
  8
_0-7_枠細線
 62
    5
 10
2008
 20
152
 40
32
 41
1
 50
0
  1
隠塚
  0
TEXT
  8
_0-7_枠細線
 62
    5
 10
2104
 20
152
 40
32
 41
1
 50
0
  1
渋田
  0
TEXT
  8
_0-7_枠細線
 62
    5
 10
1910.3999999999996
 20
188
 40
32
 41
0.7000000000000001
 50
0
  1
１：８
  0
TEXT
  8
_0-7_枠細線
 62
    5
 10
2096
 20
108
 40
24
 41
0.6666666666666666
 50
0
  1
２０１０年０３月０１日
  0
TEXT
  8
_0-7_枠細線
 62
    5
 10
1536.8000000000002
 20
112
 40
32
 41
0.5999999999999998
 50
0
  1
色については品番表参照のこと
  0
TEXT
  8
_0-7_枠細線
 62
    5
 10
1536.8000000000002
 20
240
 40
32
 41
0.5
 50
0
  1
セーフティグレーチング補強仕様Ｈ２５タイプ
  0
TEXT
  8
_0-7_枠細線
 62
    5
 10
1536.8000000000002
 20
176
 40
32
 41
0.6
 50
0
  1
ＧＲＳＫ－２５Ｗ３５０　ＳＥＴ
  0
TEXT
  8
_0-7_枠細線
 62
    5
 10
1726.0453960905379
 20
688
 40
24
 41
0.8000000000000001
 50
0
  1
品　　番
  0
LINE
  8
_0-7_枠細線
  6
CONTINUOUS
 62
    5
 10
1668.4453960905375
 20
600
 11
2180.445396090538
 21
600
  0
LINE
  8
_0-7_枠細線
  6
CONTINUOUS
 62
    5
 10
1668.4453960905375
 20
640
 11
2180.445396090538
 21
640
  0
LINE
  8
_0-7_枠細線
  6
CONTINUOUS
 62
    5
 10
1668.4453960905375
 20
680
 11
2180.445396090538
 21
680
  0
TEXT
  8
_0-7_枠細線
 62
    5
 10
1930.8453960905381
 20
688
 40
24
 41
0.8000000000000001
 50
0
  1
色
  0
TEXT
  8
_0-7_枠細線
 62
    5
 10
2062.0453960905384
 20
688
 40
24
 41
0.8000000000000001
 50
0
  1
備　　考
  0
LINE
  8
_0-7_枠細線
  6
CONTINUOUS
 62
    5
 10
1668.4453960905375
 20
720
 11
2180.445396090538
 21
720
  0
LINE
  8
_0-7_枠細線
  6
CONTINUOUS
 62
    5
 10
1668.4453960905375
 20
360
 11
2180.445396090538
 21
360
  0
LINE
  8
_0-7_枠細線
  6
CONTINUOUS
 62
    5
 10
1668.4453960905375
 20
560
 11
2180.445396090538
 21
560
  0
LINE
  8
_0-7_枠細線
  6
CONTINUOUS
 62
    5
 10
1668.4453960905375
 20
520
 11
2180.445396090538
 21
520
  0
LINE
  8
_0-7_枠細線
  6
CONTINUOUS
 62
    5
 10
1668.4453960905375
 20
480
 11
2180.445396090538
 21
480
  0
LINE
  8
_0-7_枠細線
  6
CONTINUOUS
 62
    5
 10
1668.4453960905375
 20
440
 11
2180.445396090538
 21
440
  0
LINE
  8
_0-7_枠細線
  6
CONTINUOUS
 62
    5
 10
1668.4453960905375
 20
400
 11
2180.445396090538
 21
400
  0
TEXT
  8
_0-7_枠細線
 62
    5
 10
1826.4453960905375
 20
728
 40
28
 41
1
 50
0
  1
品番表
  0
LINE
  8
_0-7_枠細線
  6
CONTINUOUS
 62
    5
 10
1668.4453960905375
 20
320
 11
2180.445396090538
 21
320
  0
LINE
  8
_0-7_枠細線
  6
CONTINUOUS
 62
    5
 10
2180.445396090538
 20
720
 11
2180.445396090538
 21
320
  0
LINE
  8
_0-7_枠細線
  6
CONTINUOUS
 62
    5
 10
2020.4453960905375
 20
720
 11
2020.4453960905375
 21
320
  0
LINE
  8
_0-7_枠細線
  6
CONTINUOUS
 62
    5
 10
1860.4453960905385
 20
720
 11
1860.4453960905385
 21
320
  0
LINE
  8
_0-7_枠細線
  6
CONTINUOUS
 62
    5
 10
1668.4453960905375
 20
720
 11
1668.4453960905375
 21
320
  0
LINE
  8
_0-7_枠細線
  6
CONTINUOUS
 62
    5
 10
1661.6656491420354
 20
368.532854836659
 11
1649.6656491420354
 21
392.532854836659
  0
LINE
  8
_0-7_枠細線
  6
CONTINUOUS
 62
    5
 10
1637.6656491420354
 20
368.532854836659
 11
1661.6656491420354
 21
368.532854836659
  0
LINE
  8
_0-7_枠細線
  6
CONTINUOUS
 62
    5
 10
1649.6656491420354
 20
392.532854836659
 11
1637.6656491420354
 21
368.532854836659
  0
TEXT
  8
_0-7_枠細線
 62
    5
 10
1641.4498911710725
 20
367.01474289289899
 40
20
 41
0.8
 50
0
  1
４
  0
LINE
  8
_0-7_枠細線
  6
CONTINUOUS
 62
    5
 10
1668.4453960905375
 20
768.00000000000011
 11
1668.4453960905375
 21
896.00000000000011
  0
TEXT
  8
_0-7_枠細線
 62
    5
 10
1704.4453960905375
 20
860.00000000000011
 40
24
 41
1
 50
0
  1
耐荷重
  0
TEXT
  8
_0-7_枠細線
 62
    5
 10
1680.4453960905375
 20
780.00000000000011
 40
24
 41
1
 50
0
  1
（歩道用）
  0
LINE
  8
_0-7_枠細線
  6
CONTINUOUS
 62
    5
 10
1812.4453960905375
 20
768.00000000000011
 11
1812.4453960905375
 21
896.00000000000011
  0
TEXT
  8
_0-7_枠細線
 62
    5
 10
1848.4453960905375
 20
860.00000000000011
 40
24
 41
1
 50
0
  1
蓋重量
  0
LINE
  8
_0-7_枠細線
  6
CONTINUOUS
 62
    5
 10
1956.4453960905375
 20
768.00000000000011
 11
1956.4453960905375
 21
896.00000000000011
  0
TEXT
  8
_0-7_枠細線
 62
    5
 10
1992.4453960905375
 20
860.00000000000011
 40
24
 41
1
 50
0
  1
枠重量
  0
LINE
  8
_0-7_枠細線
  6
CONTINUOUS
 62
    5
 10
1668.4453960905375
 20
848.00000000000011
 11
2100.4453960905375
 21
848.00000000000011
  0
LINE
  8
_0-7_枠細線
  6
CONTINUOUS
 62
    5
 10
1668.4453960905375
 20
896.00000000000011
 11
2100.4453960905375
 21
896.00000000000011
  0
LINE
  8
_0-7_枠細線
  6
CONTINUOUS
 62
    5
 10
1668.4453960905375
 20
768.00000000000011
 11
2100.4453960905375
 21
768.00000000000011
  0
LINE
  8
_0-7_枠細線
  6
CONTINUOUS
 62
    5
 10
2100.4453960905375
 20
768.00000000000011
 11
2100.4453960905375
 21
896.00000000000011
  0
TEXT
  8
_0-7_枠細線
 62
    5
 10
1692.4453960905375
 20
812.00000000000011
 40
24
 41
1
 50
0
  1
5.0kN/㎡
  0
TEXT
  8
_0-7_枠細線
 62
    5
 10
1980.4453960905375
 20
798.00000000000011
 40
24
 41
0.8000000000000001
 50
0
  1
2.6kg/ｍ組
  0
TEXT
  8
_0-7_枠細線
 62
    5
 10
1846.045396090537
 20
798.00000000000011
 40
24
 41
0.8000000000000001
 50
0
  1
6.0kg/ｍ
  0
TEXT
  8
_0-7_枠細線
 62
    5
 10
1676.0453960905384
 20
648
 40
24
 41
0.5666666666666667
 50
0
  1
ＧＲＳＫ－２５Ｗ３５０－Ｂ
  0
TEXT
  8
_0-7_枠細線
 62
    5
 10
1676.0453960905384
 20
608
 40
24
 41
0.5666666666666667
 50
0
  1
ＧＲＳＫ－２５Ｗ３５０－Ｇ
  0
TEXT
  8
_0-7_枠細線
 62
    5
 10
1676.0453960905384
 20
568
 40
24
 41
0.5666666666666667
 50
0
  1
ＧＲＳＫ－２５Ｗ３５０－Ｓ
  0
TEXT
  8
_0-7_枠細線
 62
    5
 10
1676.0453960905384
 20
528
 40
24
 41
0.5666666666666667
 50
0
  1
ＧＲＳＫ－２５Ｗ３５０－Ｐ
  0
TEXT
  8
_0-7_枠細線
 62
    5
 10
1676.0453960905384
 20
488
 40
24
 41
0.5666666666666667
 50
0
  1
ＧＲＳＫ－２５Ｗ３５０－Ａ
  0
TEXT
  8
_0-7_枠細線
 62
    5
 10
1676.0453960905384
 20
448
 40
24
 41
0.5666666666666667
 50
0
  1
ＧＲＳＫ－２５Ｗ３５０－Ｄ
  0
TEXT
  8
_0-7_枠細線
 62
    5
 10
1676.0453960905384
 20
408
 40
24
 41
0.5666666666666667
 50
0
  1
ＧＲＳＫ－２５Ｗ３５０－Ｍ
  0
TEXT
  8
_0-7_枠細線
 62
    5
 10
1676.0453960905384
 20
368
 40
24
 41
0.5666666666666667
 50
0
  1
ＧＲＳＫ－２５Ｗ３５０－Ｃ
  0
TEXT
  8
_0-7_枠細線
 62
    5
 10
1676.0453960905384
 20
328
 40
24
 41
0.5666666666666667
 50
0
  1
ＧＲＳＫ－２５Ｗ３５０－Ｋ
  0
LINE
  8
_0-9_枠極太
  6
CONTINUOUS
 62
    5
 10
96
 20
96
 11
96
 21
1536
  0
LINE
  8
_0-9_枠極太
  6
CONTINUOUS
 62
    5
 10
96
 20
1536
 11
2280
 21
1536
  0
LINE
  8
_0-9_枠極太
  6
CONTINUOUS
 62
    5
 10
2280
 20
1536
 11
2280
 21
96
  0
LINE
  8
_0-9_枠極太
  6
CONTINUOUS
 62
    5
 10
2280
 20
96
 11
96
 21
96
  0
LINE
  8
_0-7_枠細線
  6
CONTINUOUS
 62
    5
 10
2280
 20
1508
 11
1424
 21
1508
  0
TEXT
  8
_0-7_枠細線
 62
    5
 10
1432
 20
1512
 40
20
 41
1
 50
0
  1
記号
  0
TEXT
  8
_0-7_枠細線
 62
    5
 10
1595
 20
1512
 40
20
 41
1
 50
0
  1
訂　 正　 記　 事
  0
TEXT
  8
_0-7_枠細線
 62
    5
 10
1890
 20
1512
 40
20
 41
1
 50
0
  1
訂 正 年 月 日
  0
TEXT
  8
_0-7_枠細線
 62
    5
 10
2090
 20
1512
 40
20
 41
1
 50
0
  1
備　　　　　考
  0
LINE
  8
_0-7_枠細線
  6
CONTINUOUS
 62
    5
 10
2280
 20
1480
 11
1424
 21
1480
  0
TEXT
  8
_0-7_枠細線
 62
    5
 10
1502.1605925925924
 20
1484
 40
20
 41
1
 50
0
  1
品番・色記号変更
  0
TEXT
  8
_0-7_枠細線
 62
    5
 10
1888
 20
1484
 40
20
 41
0.7199999999999999
 50
0
  1
２０１３．０３．１３
  0
LINE
  8
_0-7_枠細線
  6
CONTINUOUS
 62
    5
 10
2280
 20
1452
 11
1424
 21
1452
  0
LINE
  8
_0-7_枠細線
  6
CONTINUOUS
 62
    5
 10
2280
 20
1424
 11
1424
 21
1424
  0
TEXT
  8
_0-7_枠細線
 62
    5
 10
1502.1605925925924
 20
1456
 40
20
 41
1
 50
0
  1
クロスバーピッチ変更
  0
TEXT
  8
_0-7_枠細線
 62
    5
 10
1502.1605925925924
 20
1428
 40
20
 41
1
 50
0
  1
取外具形状変更
  0
TEXT
  8
_0-7_枠細線
 62
    5
 10
1888
 20
1456
 40
20
 41
0.7199999999999999
 50
0
  1
２０１５．１１．２０
  0
LINE
  8
_0-7_枠細線
  6
CONTINUOUS
 62
    5
 10
1464
 20
1454.307734354795
 11
1452
 21
1478.307734354795
  0
LINE
  8
_0-7_枠細線
  6
CONTINUOUS
 62
    5
 10
1440
 20
1454.307734354795
 11
1464
 21
1454.307734354795
  0
LINE
  8
_0-7_枠細線
  6
CONTINUOUS
 62
    5
 10
1452
 20
1478.307734354795
 11
1440
 21
1454.307734354795
  0
TEXT
  8
_0-7_枠細線
 62
    5
 10
1443.7842420290369
 20
1453.8165307621864
 40
20
 41
0.8
 50
0
  1
１
  0
TEXT
  8
_0-7_枠細線
 62
    5
 10
1443.7842420290369
 20
1425.8165307621864
 40
20
 41
0.8
 50
0
  1
２
  0
LINE
  8
_0-7_枠細線
  6
CONTINUOUS
 62
    5
 10
2280
 20
1396
 11
1424
 21
1396
  0
LINE
  8
_0-7_枠細線
  6
CONTINUOUS
 62
    5
 10
1452
 20
1450.307734354795
 11
1440
 21
1426.307734354795
  0
LINE
  8
_0-7_枠細線
  6
CONTINUOUS
 62
    5
 10
1440
 20
1426.307734354795
 11
1464
 21
1426.307734354795
  0
LINE
  8
_0-7_枠細線
  6
CONTINUOUS
 62
    5
 10
1464
 20
1426.307734354795
 11
1452
 21
1450.307734354795
  0
TEXT
  8
_0-7_枠細線
 62
    5
 10
1443.7842420290369
 20
1397.4314401305048
 40
20
 41
0.8
 50
0
  1
３
  0
TEXT
  8
_0-7_枠細線
 62
    5
 10
1888
 20
1400
 40
20
 41
0.7199999999999999
 50
0
  1
２０１７．０４．０１
  0
LINE
  8
_0-7_枠細線
  6
CONTINUOUS
 62
    5
 10
1464
 20
1370.307734354795
 11
1452
 21
1394.307734354795
  0
LINE
  8
_0-7_枠細線
  6
CONTINUOUS
 62
    5
 10
1440
 20
1370.307734354795
 11
1464
 21
1370.307734354795
  0
LINE
  8
_0-7_枠細線
  6
CONTINUOUS
 62
    5
 10
1452
 20
1394.307734354795
 11
1440
 21
1370.307734354795
  0
TEXT
  8
_0-7_枠細線
 62
    5
 10
1888
 20
1372
 40
20
 41
0.7199999999999999
 50
0
  1
２０１７．０４．０１
  0
TEXT
  8
_0-7_枠細線
 62
    5
 10
1502.1605925925924
 20
1372
 40
20
 41
1
 50
0
  1
ブラウン色（Ｃ）追加
  0
LINE
  8
_0-7_枠細線
  6
CONTINUOUS
 62
    5
 10
2280
 20
1368
 11
1424
 21
1368
  0
LINE
  8
_0-7_枠細線
  6
CONTINUOUS
 62
    5
 10
1452
 20
1422.307734354795
 11
1440
 21
1398.307734354795
  0
LINE
  8
_0-7_枠細線
  6
CONTINUOUS
 62
    5
 10
1440
 20
1398.307734354795
 11
1464
 21
1398.307734354795
  0
LINE
  8
_0-7_枠細線
  6
CONTINUOUS
 62
    5
 10
1464
 20
1398.307734354795
 11
1452
 21
1422.307734354795
  0
TEXT
  8
_0-7_枠細線
 62
    5
 10
1443.7842420290369
 20
1368.789622411035
 40
20
 41
0.8
 50
0
  1
４
  0
TEXT
  8
_0-7_枠細線
 62
    5
 10
1502.1605925925924
 20
1400
 40
20
 41
1
 50
0
  1
取外具形状変更
  0
TEXT
  8
_0-7_枠細線
 62
    5
 10
1888
 20
1428
 40
20
 41
0.7199999999999999
 50
0
  1
２０１５．１１．２０
  0
LINE
  8
_0-7_枠細線
  6
CONTINUOUS
 62
    5
 10
1464
 20
1342.307734354795
 11
1452
 21
1366.307734354795
  0
LINE
  8
_0-7_枠細線
  6
CONTINUOUS
 62
    5
 10
1440
 20
1342.307734354795
 11
1464
 21
1342.307734354795
  0
LINE
  8
_0-7_枠細線
  6
CONTINUOUS
 62
    5
 10
1452
 20
1366.307734354795
 11
1440
 21
1342.307734354795
  0
LINE
  8
_0-7_枠細線
  6
CONTINUOUS
 62
    5
 10
2280
 20
1340
 11
1424
 21
1340
  0
TEXT
  8
_0-7_枠細線
 62
    5
 10
1888
 20
1344
 40
20
 41
0.7199999999999999
 50
0
  1
２０１９．０９．０１
  0
TEXT
  8
_0-7_枠細線
 62
    5
 10
1443.7842420290369
 20
1340.789622411035
 40
20
 41
0.8
 50
0
  1
５
  0
TEXT
  8
_0-7_枠細線
 62
    5
 10
1502.1605925925924
 20
1344
 40
20
 41
1
 50
0
  1
アンカー材質･厚み変更
  0
CIRCLE
  8
_0-a_極細3
  6
CONTINUOUS
 62
    7
 10
168.58787030026963
 20
364.79948748579295
 40
0.884938271604915
  0
LINE
  8
_0-a_極細3
  6
CONTINUOUS
 62
    7
 10
1366.4156767537711
 20
356.40291970802582
 11
1366.4156767537711
 21
247.06958637469154
  0
LINE
  8
_0-a_極細3
  6
CONTINUOUS
 62
    7
 10
1233.0823434204376
 20
247.06958637469154
 11
1366.4156767537711
 21
247.06958637469154
  0
LINE
  8
_0-a_極細3
  6
CONTINUOUS
 62
    7
 10
1366.4156767537711
 20
356.40291970802582
 11
1415.7667388526215
 21
356.40291970802582
  0
LINE
  8
_0-a_極細3
  6
CONTINUOUS
 62
    7
 10
1233.0823434204376
 20
247.06958637469154
 11
1233.0823434204376
 21
205.08302590304618
  0
LINE
  8
_0-a_極細3
  6
CONTINUOUS
 62
    7
 10
1379.6796806171201
 20
205.08302590304618
 11
1415.766738919086
 21
241.17008420501168
  0
LINE
  8
_0-a_極細3
  6
CONTINUOUS
 62
    7
 10
1266.5425956272716
 20
205.08302590304618
 11
1308.5291560989185
 21
247.06958637469154
  0
LINE
  8
_0-a_極細3
  6
CONTINUOUS
 62
    7
 10
1366.4156767537711
 20
304.95610702954457
 11
1415.7667388538298
 21
354.30716912960281
  0
LINE
  8
_0-a_極細3
  6
CONTINUOUS
 62
    7
 10
1368.3659721181348
 20
205.08302590304618
 11
1415.7667389125604
 21
252.48379269747113
  0
LINE
  8
_0-a_極細3
  6
CONTINUOUS
 62
    7
 10
1255.2288871282872
 20
205.08302590304618
 11
1297.2154475999341
 21
247.06958637469154
  0
LINE
  8
_0-a_極細3
  6
CONTINUOUS
 62
    7
 10
1366.4156767537711
 20
316.26981552852908
 11
1406.5487806459864
 21
356.40291942074487
  0
LINE
  8
_0-a_極細3
  6
CONTINUOUS
 62
    7
 10
1357.0522636191504
 20
205.08302590304618
 11
1415.7667389060348
 21
263.79750118993047
  0
LINE
  8
_0-a_極細3
  6
CONTINUOUS
 62
    7
 10
1243.9151786293028
 20
205.08302590304618
 11
1285.9017391009488
 21
247.06958637469154
  0
LINE
  8
_0-a_極細3
  6
CONTINUOUS
 62
    7
 10
1366.4156767537711
 20
327.58352402751416
 11
1395.235072227988
 21
356.40291950173071
  0
CIRCLE
  8
_0-a_極細3
  6
CONTINUOUS
 62
    7
 10
1211.331615450898
 20
341.23652452283
 40
0.884938271604915
  0
CIRCLE
  8
_0-a_極細3
  6
CONTINUOUS
 62
    7
 10
1227.2605043397866
 20
348.9165245228296
 40
0.884938271604915
  0
CIRCLE
  8
_0-a_極細3
  6
CONTINUOUS
 62
    7
 10
1220.7182821175647
 20
308.95208007838608
 40
0.884938271604915
  0
CIRCLE
  8
_0-a_極細3
  6
CONTINUOUS
 62
    7
 10
1248.7716154508976
 20
281.71652452283035
 40
0.884938271604915
  0
CIRCLE
  8
_0-a_極細3
  6
CONTINUOUS
 62
    7
 10
1220.2382821175647
 20
244.43652452283084
 40
0.884938271604915
  0
CIRCLE
  8
_0-a_極細3
  6
CONTINUOUS
 62
    7
 10
1205.3049487842313
 20
215.8498578561647
 40
0.884938271604915
  0
CIRCLE
  8
_0-a_極細3
  6
CONTINUOUS
 62
    7
 10
1223.6516154508977
 20
263.63652452283065
 40
0.884938271604915
  0
CIRCLE
  8
_0-a_極細3
  6
CONTINUOUS
 62
    7
 10
1245.8382821175642
 20
255.95652452283036
 40
0.884938271604915
  0
CIRCLE
  8
_0-a_極細3
  6
CONTINUOUS
 62
    7
 10
1288.931615450897
 20
256.38319118949755
 40
0.884938271604915
  0
CIRCLE
  8
_0-a_極細3
  6
CONTINUOUS
 62
    7
 10
1269.7316154508976
 20
270.88985785616399
 40
0.884938271604915
  0
CIRCLE
  8
_0-a_極細3
  6
CONTINUOUS
 62
    7
 10
1287.6516154508968
 20
279.84985785616391
 40
0.884938271604915
  0
CIRCLE
  8
_0-a_極細3
  6
CONTINUOUS
 62
    7
 10
1272.4693932286746
 20
398.2854134117182
 40
0.884938271604915
  0
CIRCLE
  8
_0-a_極細3
  6
CONTINUOUS
 62
    7
 10
1268.4871710064531
 20
366.71208007838527
 40
0.884938271604915
  0
CIRCLE
  8
_0-a_極細3
  6
CONTINUOUS
 62
    7
 10
1301.3405043397856
 20
365.5743023006072
 40
0.884938271604915
  0
CIRCLE
  8
_0-a_極細3
  6
CONTINUOUS
 62
    7
 10
1282.7805043397857
 20
343.17430230060802
 40
0.884938271604915
  0
CIRCLE
  8
_0-a_極細3
  6
CONTINUOUS
 62
    7
 10
1345.500504339785
 20
258.05430230060824
 40
0.884938271604915
  0
CIRCLE
  8
_0-a_極細3
  6
CONTINUOUS
 62
    7
 10
1357.0205043397846
 20
280.45430230060822
 40
0.884938271604915
  0
CIRCLE
  8
_0-a_極細3
  6
CONTINUOUS
 62
    7
 10
1354.4605043397846
 20
313.73430230060785
 40
0.884938271604915
  0
CIRCLE
  8
_0-a_極細3
  6
CONTINUOUS
 62
    7
 10
1325.6605043397849
 20
347.65430230060747
 40
0.884938271604915
  0
CIRCLE
  8
_0-a_極細3
  6
CONTINUOUS
 62
    7
 10
1352.5405043397845
 20
379.01430230060737
 40
0.884938271604915
  0
CIRCLE
  8
_0-a_極細3
  6
CONTINUOUS
 62
    7
 10
1348.060504339785
 20
336.13430230060794
 40
0.884938271604915
  0
CIRCLE
  8
_0-a_極細3
  6
CONTINUOUS
 62
    7
 10
1395.4205043397847
 20
370.05430230060688
 40
0.884938271604915
  0
CIRCLE
  8
_0-a_極細3
  6
CONTINUOUS
 62
    7
 10
1387.7405043397844
 20
392.08640106603946
 40
2.9208503562902273
  0
CIRCLE
  8
_0-a_極細3
  6
CONTINUOUS
 62
    7
 10
1362.709393228673
 20
367.33973439937347
 40
2.9208503562902273
  0
CIRCLE
  8
_0-a_極細3
  6
CONTINUOUS
 62
    7
 10
1274.0338376731188
 20
377.86417884381751
 40
2.9208503562902273
  0
CIRCLE
  8
_0-a_極細3
  6
CONTINUOUS
 62
    7
 10
1325.2338376731177
 20
326.66417884381747
 40
2.9208503562902273
  0
CIRCLE
  8
_0-a_極細3
  6
CONTINUOUS
 62
    7
 10
1212.6027265620087
 20
255.38417884381863
 40
2.9208503562902273
  0
CIRCLE
  8
_0-a_極細3
  6
CONTINUOUS
 62
    7
 10
1228.9582821175636
 20
303.17084551048492
 40
2.9208503562902273
  0
CIRCLE
  8
_0-a_極細3
  6
CONTINUOUS
 62
    7
 10
1285.2782821175638
 20
267.33084551048535
 40
2.9208503562902273
  0
CIRCLE
  8
_0-a_極細3
  6
CONTINUOUS
 62
    7
 10
1359.3025903340172
 20
251.03156168333385
 40
2.9208503562902273
  0
CIRCLE
  8
_0-a_極細3
  6
CONTINUOUS
 62
    7
 10
1278.2382821175634
 20
336.45084551048444
 40
2.9208503562902273
  0
CIRCLE
  8
_0-a_極細3
  6
CONTINUOUS
 62
    7
 10
1202.2926031052189
 20
327.77371685922651
 40
0.884938271604915
  0
CIRCLE
  8
_0-a_極細3
  6
CONTINUOUS
 62
    7
 10
1202.6126031052204
 20
289.44482797033788
 40
0.884938271604915
  0
CIRCLE
  8
_0-a_極細3
  6
CONTINUOUS
 62
    7
 10
1325.6605043397849
 20
396.72096896727396
 40
0.884938271604915
  0
CIRCLE
  8
_0-a_極細3
  6
CONTINUOUS
 62
    7
 10
1325.8738376731185
 20
386.6108455104835
 40
2.9208503562902273
  0
LINE
  8
_0-a_極細3
  6
CONTINUOUS
 62
    7
 10
1181.0823434204362
 20
367.06958637469165
 11
1179.7490100871041
 21
367.06958637469165
  0
LINE
  8
_0-a_極細3
  6
CONTINUOUS
 62
    7
 10
1179.7490100871041
 20
367.06958637469165
 11
1179.7490100871041
 21
205.08302590304618
  0
CIRCLE
  8
_0-a_極細3
  6
CONTINUOUS
 62
    7
 10
1189.3240434344366
 20
302.97874674505226
 40
0.884938271604915
  0
CIRCLE
  8
_0-a_極細3
  6
CONTINUOUS
 62
    7
 10
1191.4145784138614
 20
240.16985785616441
 40
0.884938271604915
  0
CIRCLE
  8
_0-a_極細3
  6
CONTINUOUS
 62
    7
 10
1190.3923561916372
 20
345.69528995492965
 40
2.9208503562902273
  0
CIRCLE
  8
_0-a_極細3
  6
CONTINUOUS
 62
    7
 10
1195.1093932286744
 20
229.49973439937401
 40
2.9208503562902273
  0
LINE
  8
_0-a_極細3
  6
CONTINUOUS
 62
    7
 10
1329.5731192398807
 20
286.88030823469683
 11
1337.7816026796972
 21
309.43293113355924
  0
LINE
  8
_0-a_極細3
  6
CONTINUOUS
 62
    7
 10
1249.5826509618064
 20
341.53472425235327
 11
1241.3741675219912
 21
318.98210135349086
  0
LINE
  8
_0-a_極細3
  6
CONTINUOUS
 62
    7
 10
1337.7816026796972
 20
309.43293113355924
 11
1249.5826509618064
 21
341.53472425235327
  0
LINE
  8
_0-a_極細3
  6
CONTINUOUS
 62
    7
 10
1329.5731192398807
 20
286.88030823469683
 11
1241.3741675219912
 21
318.98210135349086
  0
LINE
  8
_0-a_極細3
  6
CENTER1
 62
    7
 10
1341.6060543869776
 20
295.27081162008062
 11
1239.1564216148722
 21
332.55942839613658
  0
LINE
  8
_0-a_極細3
  6
CONTINUOUS
 62
    7
 10
1299.7490100871041
 20
247.06958637469154
 11
1299.7490100871041
 21
317.60648453199701
  0
LINE
  8
_0-a_極細3
  6
CONTINUOUS
 62
    7
 10
1323.749010087105
 20
317.60648453199701
 11
1323.749010087105
 21
247.06958637469154
  0
LINE
  8
_0-a_極細3
  6
CENTER1
 62
    7
 10
1311.7490100871046
 20
233.82680191956695
 11
1311.7490100871046
 21
324.4476367953722
  0
LINE
  8
_0-a_極細3
  6
CONTINUOUS
 62
    7
 10
1299.7490100871041
 20
317.60648453199701
 11
1323.749010087105
 21
317.60648453199701
  0
CIRCLE
  8
_0-a_極細3
  6
CONTINUOUS
 62
    7
 10
1334.8338376731194
 20
326.40788254752056
 40
0.884938271604915
  0
CIRCLE
  8
_0-a_極細3
  6
CONTINUOUS
 62
    7
 10
1303.4738376731198
 20
335.36788254752128
 40
0.884938271604915
  0
LINE
  8
_0-a_極細3
  6
CONTINUOUS
 62
    7
 10
193.08234342043693
 20
356.40291970802582
 11
193.08234342043693
 21
247.06958637469154
  0
LINE
  8
_0-a_極細3
  6
CONTINUOUS
 62
    7
 10
326.41567675377098
 20
247.06958637469154
 11
193.08234342043693
 21
247.06958637469154
  0
LINE
  8
_0-a_極細3
  6
CONTINUOUS
 62
    7
 10
193.08234342043693
 20
356.40291970802582
 11
143.73128132158695
 21
356.40291970802582
  0
LINE
  8
_0-a_極細3
  6
CONTINUOUS
 62
    7
 10
326.41567675377098
 20
247.06958637469154
 11
326.41567675377098
 21
205.08302590304618
  0
LINE
  8
_0-a_極細3
  6
CONTINUOUS
 62
    7
 10
266.54051744978688
 20
205.08302608934412
 11
308.52707773513509
 21
247.06958637469154
  0
LINE
  8
_0-a_極細3
  6
CONTINUOUS
 62
    7
 10
153.40343281196056
 20
205.08302644136586
 11
195.38999274528737
 21
247.06958637469154
  0
LINE
  8
_0-a_極細3
  6
CONTINUOUS
 62
    7
 10
143.73128132158695
 20
308.54795994083918
 11
191.58624108877279
 21
356.40291970802582
  0
LINE
  8
_0-a_極細3
  6
CONTINUOUS
 62
    7
 10
255.22680898600436
 20
205.08302612454656
 11
297.21336923614979
 21
247.06958637469154
  0
LINE
  8
_0-a_極細3
  6
CONTINUOUS
 62
    7
 10
143.73128132158695
 20
206.72458344997665
 11
193.08234342043693
 21
256.07564554882708
  0
LINE
  8
_0-a_極細3
  6
CONTINUOUS
 62
    7
 10
143.73128132158695
 20
319.86166843982448
 11
180.27253258978817
 21
356.40291970802582
  0
LINE
  8
_0-a_極細3
  6
CONTINUOUS
 62
    7
 10
243.91310052222252
 20
205.08302615974924
 11
285.89966073716528
 21
247.06958637469154
  0
LINE
  8
_0-a_極細3
  6
CONTINUOUS
 62
    7
 10
143.73128132158695
 20
218.03829194896196
 11
193.08234342043693
 21
267.38935404781171
  0
LINE
  8
_0-a_極細3
  6
CONTINUOUS
 62
    7
 10
143.73128132158695
 20
331.17537693880968
 11
168.95882409080355
 21
356.40291970802582
  0
CIRCLE
  8
_0-a_極細3
  6
CONTINUOUS
 62
    7
 10
172.36470187065447
 20
380.72837637468137
 40
0.884938271604915
  0
CIRCLE
  8
_0-a_極細3
  6
CONTINUOUS
 62
    7
 10
172.80717100645757
 20
366.50615415245943
 40
0.884938271604915
  0
CIRCLE
  8
_0-a_極細3
  6
CONTINUOUS
 62
    7
 10
193.00272656201287
 20
369.6350430413479
 40
0.884938271604915
  0
CIRCLE
  8
_0-a_極細3
  6
CONTINUOUS
 62
    7
 10
238.51383767312359
 20
388.40837637468167
 40
0.884938271604915
  0
CIRCLE
  8
_0-a_極細3
  6
CONTINUOUS
 62
    7
 10
287.43828211756716
 20
378.45282081912546
 40
0.884938271604915
  0
CIRCLE
  8
_0-a_極細3
  6
CONTINUOUS
 62
    7
 10
247.61605989534553
 20
377.59948748579279
 40
0.884938271604915
  0
CIRCLE
  8
_0-a_極細3
  6
CONTINUOUS
 62
    7
 10
204.11383767312452
 20
358.02615415245918
 40
0.884938271604915
  0
CIRCLE
  8
_0-a_極細3
  6
CONTINUOUS
 62
    7
 10
236.82494878423472
 20
356.03504304134776
 40
0.884938271604915
  0
CIRCLE
  8
_0-a_極細3
  6
CONTINUOUS
 62
    7
 10
276.93161545090106
 20
350.06170970801486
 40
0.884938271604915
  0
CIRCLE
  8
_0-a_極細3
  6
CONTINUOUS
 62
    7
 10
256.73605989534508
 20
340.95948748579269
 40
0.884938271604915
  0
CIRCLE
  8
_0-a_極細3
  6
CONTINUOUS
 62
    7
 10
233.12717100645693
 20
319.34170970801506
 40
0.884938271604915
  0
CIRCLE
  8
_0-a_極細3
  6
CONTINUOUS
 62
    7
 10
276.93161545090106
 20
331.00393193023729
 40
0.884938271604915
  0
CIRCLE
  8
_0-a_極細3
  6
CONTINUOUS
 62
    7
 10
211.15383767312323
 20
287.62615415245978
 40
0.884938271604915
  0
CIRCLE
  8
_0-a_極細3
  6
CONTINUOUS
 62
    7
 10
202.05161545090129
 20
258.89726526357128
 40
0.884938271604915
  0
CIRCLE
  8
_0-a_極細3
  6
CONTINUOUS
 62
    7
 10
215.98939322867943
 20
269.70615415246004
 40
0.884938271604915
  0
CIRCLE
  8
_0-a_極細3
  6
CONTINUOUS
 62
    7
 10
225.94494878423427
 20
256.05282081912685
 40
0.884938271604915
  0
CIRCLE
  8
_0-a_極細3
  6
CONTINUOUS
 62
    7
 10
288.82494878423438
 20
284.67504304134866
 40
0.884938271604915
  0
CIRCLE
  8
_0-a_極細3
  6
CONTINUOUS
 62
    7
 10
270.90494878423442
 20
275.85726526357109
 40
0.884938271604915
  0
CIRCLE
  8
_0-a_極細3
  6
CONTINUOUS
 62
    7
 10
280.86050433979005
 20
271.8750430413487
 40
0.884938271604915
  0
CIRCLE
  8
_0-a_極細3
  6
CONTINUOUS
 62
    7
 10
275.17161545090107
 20
257.08393193023755
 40
0.884938271604915
  0
CIRCLE
  8
_0-a_極細3
  6
CONTINUOUS
 62
    7
 10
307.02939322867837
 20
258.79059859690472
 40
0.884938271604915
  0
CIRCLE
  8
_0-a_極細3
  6
CONTINUOUS
 62
    7
 10
327.79383767312311
 20
263.91059859690438
 40
0.884938271604915
  0
CIRCLE
  8
_0-a_極細3
  6
CONTINUOUS
 62
    7
 10
349.69605989534489
 20
240.01726526357186
 40
0.884938271604915
  0
CIRCLE
  8
_0-a_極細3
  6
CONTINUOUS
 62
    7
 10
338.60272656201164
 20
216.12393193023843
 40
0.884938271604915
  0
CIRCLE
  8
_0-a_極細3
  6
CONTINUOUS
 62
    7
 10
311.93605989534569
 20
285.9076356339416
 40
0.884938271604915
  0
CIRCLE
  8
_0-a_極細3
  6
CONTINUOUS
 62
    7
 10
335.54494878423384
 20
340.52096896727403
 40
0.884938271604915
  0
CIRCLE
  8
_0-a_極細3
  6
CONTINUOUS
 62
    7
 10
359.72272656201164
 20
324.59208007838561
 40
0.884938271604915
  0
CIRCLE
  8
_0-a_極細3
  6
CONTINUOUS
 62
    7
 10
360.57605989534454
 20
295.863191189497
 40
0.884938271604915
  0
CIRCLE
  8
_0-a_極細3
  6
CONTINUOUS
 62
    7
 10
304.18494878423417
 20
343.43652452283004
 40
0.884938271604915
  0
CIRCLE
  8
_0-a_極細3
  6
CONTINUOUS
 62
    7
 10
271.7227265620121
 20
378.61084551048361
 40
2.9208503562902273
  0
CIRCLE
  8
_0-a_極細3
  6
CONTINUOUS
 62
    7
 10
188.90333503971613
 20
389.69822835000036
 40
2.9208503562902273
  0
CIRCLE
  8
_0-a_極細3
  6
CONTINUOUS
 62
    7
 10
267.20717100645675
 20
325.91751217715159
 40
2.9208503562902273
  0
CIRCLE
  8
_0-a_極細3
  6
CONTINUOUS
 62
    7
 10
231.36717100645615
 20
342.13084551048473
 40
2.9208503562902273
  0
CIRCLE
  8
_0-a_極細3
  6
CONTINUOUS
 62
    7
 10
200.00717100645647
 20
281.33084551048466
 40
2.9208503562902273
  0
CIRCLE
  8
_0-a_極細3
  6
CONTINUOUS
 62
    7
 10
285.12717100645591
 20
260.8508455104851
 40
2.9208503562902273
  0
CIRCLE
  8
_0-a_極細3
  6
CONTINUOUS
 62
    7
 10
342.6916154508998
 20
255.09084551048534
 40
2.9208503562902273
  0
CIRCLE
  8
_0-a_極細3
  6
CONTINUOUS
 62
    7
 10
350.3716154508993
 20
225.22417884381946
 40
2.9208503562902273
  0
CIRCLE
  8
_0-a_極細3
  6
CONTINUOUS
 62
    7
 10
156.58800777398937
 20
391.12640106603953
 40
2.9208503562902273
  0
LINE
  8
_0-a_極細3
  6
CONTINUOUS
 62
    7
 10
378.41567675377064
 20
367.06958637469165
 11
379.74901008710435
 21
367.06958637469165
  0
LINE
  8
_0-a_極細3
  6
CONTINUOUS
 62
    7
 10
379.74901008710435
 20
367.06958637469165
 11
379.74901008710435
 21
205.08302590304618
  0
CIRCLE
  8
_0-a_極細3
  6
CONTINUOUS
 62
    7
 10
368.72911545089823
 20
341.4908455104852
 40
2.9208503562902273
  0
CIRCLE
  8
_0-a_極細3
  6
CONTINUOUS
 62
    7
 10
367.14198582127062
 20
253.95504304134909
 40
0.884938271604915
  0
CIRCLE
  8
_0-a_極細3
  6
CONTINUOUS
 62
    7
 10
369.27531915460509
 20
217.70532938827762
 40
0.884938271604915
  0
CIRCLE
  8
_0-a_極細3
  6
CONTINUOUS
 62
    7
 10
349.48272656200447
 20
310.91306773270719
 40
2.9208503562902273
  0
CIRCLE
  8
_0-a_極細3
  6
CONTINUOUS
 62
    7
 10
252.03680063608624
 20
397.02862328825961
 40
2.9208503562902273
  0
LINE
  8
_0-a_極細3
  6
CONTINUOUS
 62
    7
 10
229.92490093432787
 20
286.88030823469683
 11
221.71641749451135
 21
309.43293113355924
  0
LINE
  8
_0-a_極細3
  6
CONTINUOUS
 62
    7
 10
309.9153692124022
 20
341.53472425235327
 11
318.12385265221724
 21
318.98210135349086
  0
LINE
  8
_0-a_極細3
  6
CONTINUOUS
 62
    7
 10
221.71641749451135
 20
309.43293113355924
 11
309.9153692124022
 21
341.53472425235327
  0
LINE
  8
_0-a_極細3
  6
CONTINUOUS
 62
    7
 10
229.92490093432787
 20
286.88030823469683
 11
318.12385265221724
 21
318.98210135349086
  0
LINE
  8
_0-a_極細3
  6
CENTER1
 62
    7
 10
217.89196578723102
 20
295.27081162008062
 11
320.34159855933626
 21
332.55942839613658
  0
LINE
  8
_0-a_極細3
  6
CONTINUOUS
 62
    7
 10
259.74901008710435
 20
247.06958637469154
 11
259.74901008710435
 21
317.60648453199701
  0
LINE
  8
_0-a_極細3
  6
CONTINUOUS
 62
    7
 10
259.74901008710435
 20
317.60648453199701
 11
235.74901008710412
 21
317.60648453199701
  0
LINE
  8
_0-a_極細3
  6
CONTINUOUS
 62
    7
 10
235.74901008710412
 20
317.60648453199701
 11
235.74901008710412
 21
247.06958637469154
  0
LINE
  8
_0-a_極細3
  6
CENTER1
 62
    7
 10
247.74901008710458
 20
233.82680191956695
 11
247.74901008710458
 21
324.4476367953722
  0
CIRCLE
  8
_0-a_極細3
  6
CONTINUOUS
 62
    7
 10
1374.9405043397851
 20
418.16096896727379
 40
0.884938271604915
  0
CIRCLE
  8
_0-a_極細3
  6
CONTINUOUS
 62
    7
 10
1291.7405043397853
 20
419.65430230060713
 40
0.884938271604915
  0
LINE
  8
_0-a_極細3
  6
CONTINUOUS
 62
    7
 10
1273.0823434204376
 20
441.73625304135908
 11
1273.0823434204376
 21
423.06958637469199
  0
LINE
  8
_0-a_極細3
  6
CONTINUOUS
 62
    7
 10
1259.7490100871041
 20
423.06958637469199
 11
1415.7667388526215
 21
423.06958637469199
  0
LINE
  8
_0-a_極細3
  6
CONTINUOUS
 62
    7
 10
1259.7490100871041
 20
440.40291970802468
 11
1259.7490100871041
 21
441.73625304135908
  0
LINE
  8
_0-a_極細3
  6
CONTINUOUS
 62
    7
 10
1273.0823434204376
 20
428.9401244238511
 11
1267.2118053712779
 21
423.06958637469199
  0
LINE
  8
_0-a_極細3
  6
CONTINUOUS
 62
    7
 10
1273.0823434204376
 20
435.7283495232416
 11
1260.4235802718872
 21
423.06958637469199
  0
LINE
  8
_0-a_極細3
  6
CONTINUOUS
 62
    7
 10
1259.7490100871041
 20
429.18324128929999
 11
1272.302021839163
 21
441.73625304135908
  0
LINE
  8
_0-a_極細3
  6
CONTINUOUS
 62
    7
 10
1259.7490100871041
 20
435.9714663886906
 11
1265.5137967397718
 21
441.73625304135828
  0
LINE
  8
_0-a_極細3
  6
CONTINUOUS
 62
    7
 10
1273.0823434204376
 20
439.32133750615014
 11
1270.6674278852292
 21
441.73625304135908
  0
LINE
  8
_0-a_極細3
  6
CONTINUOUS
 62
    7
 10
1273.0823434204376
 20
432.53311240675873
 11
1263.8792027858381
 21
441.73625304135908
  0
LINE
  8
_0-a_極細3
  6
CONTINUOUS
 62
    7
 10
1273.0823434204376
 20
425.74488730736823
 11
1259.7490100871041
 21
439.07822064070172
  0
LINE
  8
_0-a_極細3
  6
CONTINUOUS
 62
    7
 10
1268.9694192537231
 20
423.06958637469199
 11
1259.7490100871041
 21
432.28999554131053
  0
LINE
  8
_0-a_極細3
  6
CONTINUOUS
 62
    7
 10
1262.1811941543319
 20
423.06958637469199
 11
1259.7490100871041
 21
425.50177044191923
  0
LINE
  8
_0-a_極細3
  6
CONTINUOUS
 62
    7
 10
1382.6116320609231
 20
423.06958637469199
 11
1401.2782977247266
 21
441.73625203849645
  0
LINE
  8
_0-a_極細3
  6
CONTINUOUS
 62
    7
 10
1348.6705065639685
 20
423.06958637469199
 11
1367.3371724932908
 21
441.73625230401353
  0
LINE
  8
_0-a_極細3
  6
CONTINUOUS
 62
    7
 10
1314.7293810670135
 20
423.06958637469199
 11
1333.3960472618537
 21
441.73625256953142
  0
LINE
  8
_0-a_極細3
  6
CONTINUOUS
 62
    7
 10
1280.7882555700598
 20
423.06958637469199
 11
1299.454922030417
 21
441.7362528350493
  0
LINE
  8
_0-a_極細3
  6
DASHED2
 62
    7
 10
1399.5821948093999
 20
423.06958637469199
 11
1415.7667388526215
 21
439.25413041791307
  0
LINE
  8
_0-a_極細3
  6
DASHED2
 62
    7
 10
1365.6410693124449
 20
423.06958637469199
 11
1384.3077351090083
 21
441.73625217125493
  0
LINE
  8
_0-a_極細3
  6
DASHED2
 62
    7
 10
1331.6999438154912
 20
423.06958637469199
 11
1350.3666098775725
 21
441.73625243677213
  0
LINE
  8
_0-a_極細3
  6
DASHED2
 62
    7
 10
1297.7588183185367
 20
423.06958637469199
 11
1316.4254846461349
 21
441.73625270229002
  0
LINE
  8
_0-a_極細3
  6
DASHED2
 62
    7
 10
1273.0823434204376
 20
432.33423697354715
 11
1282.4843594146987
 21
441.7362529678079
  0
ARC
  8
_0-b_細線3
  6
CONTINUOUS
 62
    7
 10
1251.7490100871041
 20
375.06958637469165
 40
8
 50
269.99999999999977
 51
359.99999999999966
  0
LINE
  8
_0-b_細線3
  6
CONTINUOUS
 62
    7
 10
1259.7490100871041
 20
375.06958637469165
 11
1259.7490100871041
 21
440.40291970802468
  0
LINE
  8
_0-b_細線3
  6
CONTINUOUS
 62
    7
 10
1251.7490100871041
 20
367.06958637469165
 11
1181.0823434204362
 21
367.06958637469165
  0
LINE
  8
_0-b_細線3
  6
CONTINUOUS
 62
    7
 10
1179.7490100871041
 20
368.40291970802593
 11
1181.0823434204362
 21
367.06958637469165
  0
LINE
  8
_0-b_細線3
  6
CONTINUOUS
 62
    7
 10
1179.7490100871041
 20
373.73625304135874
 11
1179.7490100871041
 21
368.40291970802593
  0
LINE
  8
_0-b_細線3
  6
CONTINUOUS
 62
    7
 10
1181.0823434204362
 20
375.06958637469165
 11
1179.7490100871041
 21
373.73625304135874
  0
LINE
  8
_0-b_細線3
  6
CONTINUOUS
 62
    7
 10
1251.7490100871041
 20
375.06958637469165
 11
1181.0823434204362
 21
375.06958637469165
  0
LINE
  8
_0-b_細線3
  6
CONTINUOUS
 62
    7
 10
1258.4156767537715
 20
441.73625304135908
 11
1259.7490100871041
 21
440.40291970802468
  0
LINE
  8
_0-b_細線3
  6
CONTINUOUS
 62
    7
 10
1253.0823434204376
 20
441.73625304135908
 11
1258.4156767537715
 21
441.73625304135908
  0
LINE
  8
_0-b_細線3
  6
CONTINUOUS
 62
    7
 10
1251.7490100871041
 20
440.40291970802468
 11
1253.0823434204376
 21
441.73625304135908
  0
LINE
  8
_0-b_細線3
  6
CONTINUOUS
 62
    7
 10
1251.7490100871041
 20
375.06958637469165
 11
1251.7490100871041
 21
440.40291970802468
  0
CIRCLE
  8
_0-a_極細3
  6
CONTINUOUS
 62
    7
 10
278.33605989534522
 20
417.67059859690323
 40
0.884938271604915
  0
CIRCLE
  8
_0-a_極細3
  6
CONTINUOUS
 62
    7
 10
228.84272656201279
 20
414.82615415245868
 40
0.884938271604915
  0
LINE
  8
_0-a_極細3
  6
CONTINUOUS
 62
    7
 10
286.41567675377098
 20
441.73625304135908
 11
286.41567675377098
 21
423.06958637469199
  0
LINE
  8
_0-a_極細3
  6
CONTINUOUS
 62
    7
 10
299.74901008710435
 20
423.06958637469199
 11
143.73128132158695
 21
423.06958637469199
  0
LINE
  8
_0-a_極細3
  6
CONTINUOUS
 62
    7
 10
299.74901008710435
 20
440.40291970802468
 11
299.74901008710435
 21
441.73625304135908
  0
LINE
  8
_0-a_極細3
  6
CONTINUOUS
 62
    7
 10
299.43206567692869
 20
423.06958637469199
 11
299.74901008710356
 21
423.38653078486652
  0
LINE
  8
_0-a_極細3
  6
CONTINUOUS
 62
    7
 10
292.64384057753819
 20
423.06958637469199
 11
299.74901008710435
 21
430.17475588425702
  0
LINE
  8
_0-a_極細3
  6
CONTINUOUS
 62
    7
 10
286.41567675377098
 20
423.62964765031484
 11
299.74901008710435
 21
436.96298098364832
  0
LINE
  8
_0-a_極細3
  6
CONTINUOUS
 62
    7
 10
286.41567675377098
 20
430.41787274970613
 11
297.73405704542256
 21
441.73625304135908
  0
LINE
  8
_0-a_極細3
  6
CONTINUOUS
 62
    7
 10
286.41567675377098
 20
437.20609784909732
 11
290.94583194603274
 21
441.73625304135908
  0
LINE
  8
_0-a_極細3
  6
CONTINUOUS
 62
    7
 10
299.74901008710435
 20
438.08670604574479
 11
296.09946309149109
 21
441.73625304135908
  0
LINE
  8
_0-a_極細3
  6
CONTINUOUS
 62
    7
 10
299.74901008710435
 20
431.29848094635361
 11
289.31123799209979
 21
441.73625304135908
  0
LINE
  8
_0-a_極細3
  6
CONTINUOUS
 62
    7
 10
286.41567675377098
 20
437.84358918029659
 11
299.74901008710435
 21
424.51025584696299
  0
LINE
  8
_0-a_極細3
  6
CONTINUOUS
 62
    7
 10
286.41567675377098
 20
431.05536408090541
 11
294.40145445998348
 21
423.06958637469199
  0
LINE
  8
_0-a_極細3
  6
CONTINUOUS
 62
    7
 10
286.41567675377098
 20
424.26713898151479
 11
287.61322936059366
 21
423.06958637469199
  0
LINE
  8
_0-a_極細3
  6
CONTINUOUS
 62
    7
 10
272.2791652695613
 20
423.06958636488832
 11
286.41567675377098
 21
437.20609784909732
  0
LINE
  8
_0-a_極細3
  6
CONTINUOUS
 62
    7
 10
238.33803974906914
 20
423.0695863413506
 11
257.00470644907762
 21
441.73625304135828
  0
LINE
  8
_0-a_極細3
  6
CONTINUOUS
 62
    7
 10
204.39691422857709
 20
423.0695863178122
 11
223.06358095212317
 21
441.73625304135908
  0
LINE
  8
_0-a_極細3
  6
CONTINUOUS
 62
    7
 10
170.45578870808413
 20
423.06958629427368
 11
189.12245545516885
 21
441.73625304135908
  0
LINE
  8
_0-a_極細3
  6
CONTINUOUS
 62
    7
 10
156.48383246725052
 20
430.28620440473071
 11
167.93388110387889
 21
441.7362530413584
  0
LINE
  8
_0-a_極細3
  6
DASHED2
 62
    7
 10
255.30860250931562
 20
423.06958635311878
 11
273.97526919755524
 21
441.73625304135908
  0
LINE
  8
_0-a_極細3
  6
DASHED2
 62
    7
 10
221.36747698882277
 20
423.06958632958106
 11
240.03414370060079
 21
441.73625304135908
  0
LINE
  8
_0-a_極細3
  6
DASHED2
 62
    7
 10
187.4263514683314
 20
423.06958630604333
 11
206.09301820364635
 21
441.73625304135908
  0
LINE
  8
_0-a_極細3
  6
DASHED2
 62
    7
 10
153.48522594783844
 20
423.06958628250561
 11
172.15189270669202
 21
441.73625304135908
  0
ARC
  8
_0-b_細線3
  6
CONTINUOUS
 62
    7
 10
307.74901008710458
 20
375.06958637469165
 40
8
 50
179.99999999999983
 51
269.99999999999977
  0
LINE
  8
_0-b_細線3
  6
CONTINUOUS
 62
    7
 10
299.74901008710435
 20
375.06958637469165
 11
299.74901008710435
 21
440.40291970802468
  0
LINE
  8
_0-b_細線3
  6
CONTINUOUS
 62
    7
 10
307.74901008710458
 20
367.06958637469165
 11
378.41567675377064
 21
367.06958637469165
  0
LINE
  8
_0-b_細線3
  6
CONTINUOUS
 62
    7
 10
379.74901008710435
 20
368.40291970802593
 11
378.41567675377064
 21
367.06958637469165
  0
LINE
  8
_0-b_細線3
  6
CONTINUOUS
 62
    7
 10
379.74901008710435
 20
373.73625304135874
 11
379.74901008710435
 21
368.40291970802593
  0
LINE
  8
_0-b_細線3
  6
CONTINUOUS
 62
    7
 10
378.41567675377064
 20
375.06958637469165
 11
379.74901008710435
 21
373.73625304135874
  0
LINE
  8
_0-b_細線3
  6
CONTINUOUS
 62
    7
 10
307.74901008710458
 20
375.06958637469165
 11
378.41567675377064
 21
375.06958637469165
  0
LINE
  8
_0-b_細線3
  6
CONTINUOUS
 62
    7
 10
301.08234342043716
 20
441.73625304135908
 11
299.74901008710435
 21
440.40291970802468
  0
LINE
  8
_0-b_細線3
  6
CONTINUOUS
 62
    7
 10
306.41567675377098
 20
441.73625304135908
 11
301.08234342043716
 21
441.73625304135908
  0
LINE
  8
_0-b_細線3
  6
CONTINUOUS
 62
    7
 10
307.74901008710458
 20
440.40291970802468
 11
306.41567675377098
 21
441.73625304135908
  0
LINE
  8
_0-b_細線3
  6
CONTINUOUS
 62
    7
 10
307.74901008710458
 20
375.06958637469165
 11
307.74901008710458
 21
440.40291970802468
  0
LINE
  8
_0-a_極細3
  6
CENTER1
 62
    7
 10
779.74901008710367
 20
349.17284320065914
 11
779.74901008710367
 21
464.02617653400205
  0
ARC
  8
_0-b_細線3
  6
CONTINUOUS
 62
    7
 10
903.2156767596075
 20
436.40291970802639
 40
2.6666666666666674
 50
89.999999999999915
 51
179.99999999999983
  0
ARC
  8
_0-b_細線3
  6
CONTINUOUS
 62
    7
 10
904.46354126981464
 20
441.73625304135908
 40
2.6666666666666674
 50
269.99999999999977
 51
329.99999999999625
  0
ARC
  8
_0-b_細線3
  6
CONTINUOUS
 62
    7
 10
909.0823434233298
 20
439.06958637469336
 40
2.6666666666666674
 50
89.999999999999915
 51
150.00000000000119
  0
LINE
  8
_0-b_細線3
  6
CONTINUOUS
 62
    7
 10
903.2156767596075
 20
439.06958637469336
 11
904.46354126981464
 21
439.06958637469336
  0
ARC
  8
_0-b_細線3
  6
CONTINUOUS
 62
    7
 10
928.28234342038832
 20
436.40291970802639
 40
2.6666666666666674
 50
0
 51
89.999999999999915
  0
ARC
  8
_0-b_細線3
  6
CONTINUOUS
 62
    7
 10
927.03447891018118
 20
441.73625304135908
 40
2.6666666666666674
 50
210.00000000000301
 51
269.99999999999977
  0
ARC
  8
_0-b_細線3
  6
CONTINUOUS
 62
    7
 10
922.41567675666465
 20
439.06958637469336
 40
2.6666666666666674
 50
29.999999999984158
 51
89.999999999999929
  0
LINE
  8
_0-b_細線3
  6
CONTINUOUS
 62
    7
 10
928.28234342038832
 20
439.06958637469336
 11
927.03447891018118
 21
439.06958637469336
  0
ARC
  8
_0-b_細線3
  6
CONTINUOUS
 62
    7
 10
901.88234342627402
 20
432.66958637469349
 40
1.3333333333333337
 50
179.99999999999983
 51
269.99999999999977
  0
LINE
  8
_0-b_細線3
  6
CONTINUOUS
 62
    7
 10
900.54901009294031
 20
436.40291970802639
 11
900.54901009294031
 21
432.66958637469349
  0
ARC
  8
_0-b_細線3
  6
CONTINUOUS
 62
    7
 10
929.6156767537218
 20
432.66958637469349
 40
1.3333333333333337
 50
269.99999999999977
 51
359.99999999999966
  0
LINE
  8
_0-b_細線3
  6
CONTINUOUS
 62
    7
 10
930.94901008705551
 20
436.40291970802639
 11
930.94901008705551
 21
432.66958637469349
  0
ARC
  8
_0-b_細線3
  6
CONTINUOUS
 62
    7
 10
908.54901009294053
 20
428.66958637469372
 40
2.6666666666666674
 50
0
 51
89.999999999999915
  0
LINE
  8
_0-b_細線3
  6
CONTINUOUS
 62
    7
 10
908.54901009294053
 20
431.33625304135944
 11
901.88234342627402
 21
431.33625304135944
  0
ARC
  8
_0-b_細線3
  6
CONTINUOUS
 62
    7
 10
922.94901009294108
 20
428.66958637469372
 40
2.6666666666666674
 50
89.999999999999915
 51
179.99999999999983
  0
LINE
  8
_0-b_細線3
  6
CONTINUOUS
 62
    7
 10
922.94901008705529
 20
431.33625304135944
 11
929.6156767537218
 21
431.33625304135944
  0
LINE
  8
_0-b_細線3
  6
CONTINUOUS
 62
    7
 10
922.41567675666465
 20
441.73625304135908
 11
909.0823434233298
 21
441.73625304135908
  0
LINE
  8
_0-b_細線3
  6
CONTINUOUS
 62
    7
 10
911.21567675666415
 20
375.06958637469313
 11
911.21567675960796
 21
428.66958637469372
  0
LINE
  8
_0-b_細線3
  6
CONTINUOUS
 62
    7
 10
920.28234342333167
 20
375.06958637469313
 11
920.28234342627388
 21
428.66958637469372
  0
LINE
  8
_0-b_細線3
  6
CONTINUOUS
 62
    7
 10
920.28234342333167
 20
375.06958637469313
 11
911.21567675666415
 21
375.06958637469313
  0
ARC
  8
_0-b_細線3
  6
CONTINUOUS
 62
    7
 10
857.88234342531041
 20
436.40291970802639
 40
2.6666666666666674
 50
89.999999999999915
 51
179.99999999999983
  0
ARC
  8
_0-b_細線3
  6
CONTINUOUS
 62
    7
 10
859.13020793551595
 20
441.73625304135908
 40
2.6666666666666674
 50
269.99999999999977
 51
329.99999999999869
  0
ARC
  8
_0-b_細線3
  6
CONTINUOUS
 62
    7
 10
863.74901008903271
 20
439.06958637469336
 40
2.6666666666666674
 50
89.999999999999915
 51
150.00000000001586
  0
LINE
  8
_0-b_細線3
  6
CONTINUOUS
 62
    7
 10
857.88234342531041
 20
439.06958637469336
 11
859.13020793551595
 21
439.06958637469336
  0
ARC
  8
_0-b_細線3
  6
CONTINUOUS
 62
    7
 10
882.94901008608963
 20
436.40291970802639
 40
2.6666666666666674
 50
0
 51
89.999999999999915
  0
ARC
  8
_0-b_細線3
  6
CONTINUOUS
 62
    7
 10
881.70114557588408
 20
441.73625304135908
 40
2.6666666666666674
 50
209.99999999998593
 51
269.99999999999977
  0
ARC
  8
_0-b_細線3
  6
CONTINUOUS
 62
    7
 10
877.08234342236597
 20
439.06958637469336
 40
2.6666666666666674
 50
29.999999999984158
 51
89.999999999999929
  0
LINE
  8
_0-b_細線3
  6
CONTINUOUS
 62
    7
 10
882.94901008608963
 20
439.06958637469336
 11
881.70114557588408
 21
439.06958637469336
  0
ARC
  8
_0-b_細線3
  6
CONTINUOUS
 62
    7
 10
856.54901009197533
 20
432.66958637469349
 40
1.3333333333333337
 50
179.99999999999983
 51
269.99999999999977
  0
LINE
  8
_0-b_細線3
  6
CONTINUOUS
 62
    7
 10
855.21567675864321
 20
436.40291970802639
 11
855.21567675864321
 21
432.66958637469349
  0
ARC
  8
_0-b_細線3
  6
CONTINUOUS
 62
    7
 10
884.28234341942334
 20
432.66958637469349
 40
1.3333333333333337
 50
269.99999999999977
 51
359.99999999999966
  0
LINE
  8
_0-b_細線3
  6
CONTINUOUS
 62
    7
 10
885.61567675275683
 20
436.40291970802639
 11
885.61567675275683
 21
432.66958637469349
  0
ARC
  8
_0-b_細線3
  6
CONTINUOUS
 62
    7
 10
863.21567675864208
 20
428.66958637469372
 40
2.6666666666666674
 50
0
 51
89.999999999999915
  0
LINE
  8
_0-b_細線3
  6
CONTINUOUS
 62
    7
 10
863.21567675864208
 20
431.33625304135944
 11
856.54901009197533
 21
431.33625304135944
  0
ARC
  8
_0-b_細線3
  6
CONTINUOUS
 62
    7
 10
877.61567675864399
 20
428.66958637469372
 40
2.6666666666666674
 50
89.999999999999915
 51
179.99999999999983
  0
LINE
  8
_0-b_細線3
  6
CONTINUOUS
 62
    7
 10
877.6156767527566
 20
431.33625304135944
 11
884.28234341942334
 21
431.33625304135944
  0
LINE
  8
_0-b_細線3
  6
CONTINUOUS
 62
    7
 10
877.08234342236597
 20
441.73625304135908
 11
863.74901008903271
 21
441.73625304135908
  0
LINE
  8
_0-b_細線3
  6
CONTINUOUS
 62
    7
 10
865.88234342236706
 20
375.06958637469313
 11
865.88234342530927
 21
428.66958637469372
  0
LINE
  8
_0-b_細線3
  6
CONTINUOUS
 62
    7
 10
874.94901008903298
 20
375.06958637469313
 11
874.94901009197679
 21
428.66958637469372
  0
LINE
  8
_0-b_細線3
  6
CONTINUOUS
 62
    7
 10
874.94901008903298
 20
375.06958637469313
 11
865.88234342236706
 21
375.06958637469313
  0
ARC
  8
_0-b_細線3
  6
CONTINUOUS
 62
    7
 10
812.54901009101195
 20
436.40291970802639
 40
2.6666666666666674
 50
89.999999999999915
 51
179.99999999999983
  0
ARC
  8
_0-b_細線3
  6
CONTINUOUS
 62
    7
 10
813.7968746012175
 20
441.73625304135908
 40
2.6666666666666674
 50
269.99999999999977
 51
330.00000000001336
  0
ARC
  8
_0-b_細線3
  6
CONTINUOUS
 62
    7
 10
818.41567675473561
 20
439.06958637469336
 40
2.6666666666666674
 50
89.999999999999915
 51
150.00000000001586
  0
LINE
  8
_0-b_細線3
  6
CONTINUOUS
 62
    7
 10
812.54901009101195
 20
439.06958637469336
 11
813.7968746012175
 21
439.06958637469336
  0
ARC
  8
_0-b_細線3
  6
CONTINUOUS
 62
    7
 10
837.61567675179253
 20
436.40291970802639
 40
2.6666666666666674
 50
0
 51
89.999999999999915
  0
ARC
  8
_0-b_細線3
  6
CONTINUOUS
 62
    7
 10
836.3678122415854
 20
441.73625304135908
 40
2.6666666666666674
 50
209.99999999998593
 51
269.99999999999977
  0
ARC
  8
_0-b_細線3
  6
CONTINUOUS
 62
    7
 10
831.74901008806887
 20
439.06958637469336
 40
2.6666666666666674
 50
30.000000000001258
 51
89.999999999999929
  0
LINE
  8
_0-b_細線3
  6
CONTINUOUS
 62
    7
 10
837.61567675179253
 20
439.06958637469336
 11
836.3678122415854
 21
439.06958637469336
  0
ARC
  8
_0-b_細線3
  6
CONTINUOUS
 62
    7
 10
811.21567675767824
 20
432.66958637469349
 40
1.3333333333333337
 50
179.99999999999983
 51
269.99999999999977
  0
LINE
  8
_0-b_細線3
  6
CONTINUOUS
 62
    7
 10
809.88234342434453
 20
436.40291970802639
 11
809.88234342434453
 21
432.66958637469349
  0
ARC
  8
_0-b_細線3
  6
CONTINUOUS
 62
    7
 10
838.94901008512625
 20
432.66958637469349
 40
1.3333333333333337
 50
269.99999999999977
 51
359.99999999999966
  0
LINE
  8
_0-b_細線3
  6
CONTINUOUS
 62
    7
 10
840.28234341845837
 20
436.40291970802639
 11
840.28234341845837
 21
432.66958637469349
  0
ARC
  8
_0-b_細線3
  6
CONTINUOUS
 62
    7
 10
817.88234342434498
 20
428.66958637469372
 40
2.6666666666666674
 50
0
 51
89.999999999999915
  0
LINE
  8
_0-b_細線3
  6
CONTINUOUS
 62
    7
 10
817.88234342434498
 20
431.33625304135944
 11
811.21567675767824
 21
431.33625304135944
  0
ARC
  8
_0-b_細線3
  6
CONTINUOUS
 62
    7
 10
832.28234342434553
 20
428.66958637469372
 40
2.6666666666666674
 50
89.999999999999915
 51
179.99999999999983
  0
LINE
  8
_0-b_細線3
  6
CONTINUOUS
 62
    7
 10
832.28234341845791
 20
431.33625304135944
 11
838.94901008512625
 21
431.33625304135944
  0
LINE
  8
_0-b_細線3
  6
CONTINUOUS
 62
    7
 10
831.74901008806887
 20
441.73625304135908
 11
818.41567675473561
 21
441.73625304135908
  0
LINE
  8
_0-b_細線3
  6
CONTINUOUS
 62
    7
 10
820.54901008806837
 20
375.06958637469313
 11
820.54901009101059
 21
428.66958637469372
  0
LINE
  8
_0-b_細線3
  6
CONTINUOUS
 62
    7
 10
829.61567675473452
 20
375.06958637469313
 11
829.6156767576781
 21
428.66958637469372
  0
LINE
  8
_0-b_細線3
  6
CONTINUOUS
 62
    7
 10
829.61567675473452
 20
375.06958637469313
 11
820.54901008806837
 21
375.06958637469313
  0
ARC
  8
_0-b_細線3
  6
CONTINUOUS
 62
    7
 10
767.21567675671326
 20
436.40291970802639
 40
2.6666666666666674
 50
89.999999999999915
 51
179.99999999999983
  0
ARC
  8
_0-b_細線3
  6
CONTINUOUS
 62
    7
 10
768.46354126691881
 20
441.73625304135908
 40
2.6666666666666674
 50
269.99999999999977
 51
330.00000000003047
  0
ARC
  8
_0-b_細線3
  6
CONTINUOUS
 62
    7
 10
773.08234342043693
 20
439.06958637469336
 40
2.6666666666666674
 50
89.999999999999915
 51
149.99999999999875
  0
LINE
  8
_0-b_細線3
  6
CONTINUOUS
 62
    7
 10
767.21567675671326
 20
439.06958637469336
 11
768.46354126691881
 21
439.06958637469336
  0
ARC
  8
_0-b_細線3
  6
CONTINUOUS
 62
    7
 10
792.28234341749385
 20
436.40291970802639
 40
2.6666666666666674
 50
0
 51
89.999999999999915
  0
ARC
  8
_0-b_細線3
  6
CONTINUOUS
 62
    7
 10
791.0344789072883
 20
441.73625304135908
 40
2.6666666666666674
 50
209.99999999998593
 51
269.99999999999977
  0
ARC
  8
_0-b_細線3
  6
CONTINUOUS
 62
    7
 10
786.41567675377019
 20
439.06958637469336
 40
2.6666666666666674
 50
29.999999999984158
 51
89.999999999999929
  0
LINE
  8
_0-b_細線3
  6
CONTINUOUS
 62
    7
 10
792.28234341749385
 20
439.06958637469336
 11
791.0344789072883
 21
439.06958637469336
  0
ARC
  8
_0-b_細線3
  6
CONTINUOUS
 62
    7
 10
765.88234342337955
 20
432.66958637469349
 40
1.3333333333333337
 50
179.99999999999983
 51
269.99999999999977
  0
LINE
  8
_0-b_細線3
  6
CONTINUOUS
 62
    7
 10
764.54901009004607
 20
436.40291970802639
 11
764.54901009004607
 21
432.66958637469349
  0
ARC
  8
_0-b_細線3
  6
CONTINUOUS
 62
    7
 10
793.61567675082756
 20
432.66958637469349
 40
1.3333333333333337
 50
269.99999999999977
 51
359.99999999999966
  0
LINE
  8
_0-b_細線3
  6
CONTINUOUS
 62
    7
 10
794.94901008416127
 20
436.40291970802639
 11
794.94901008416127
 21
432.66958637469349
  0
ARC
  8
_0-b_細線3
  6
CONTINUOUS
 62
    7
 10
772.54901009004629
 20
428.66958637469372
 40
2.6666666666666674
 50
0
 51
89.999999999999915
  0
LINE
  8
_0-b_細線3
  6
CONTINUOUS
 62
    7
 10
772.54901009004629
 20
431.33625304135944
 11
765.88234342337955
 21
431.33625304135944
  0
ARC
  8
_0-b_細線3
  6
CONTINUOUS
 62
    7
 10
786.94901009004684
 20
428.66958637469372
 40
2.6666666666666674
 50
89.999999999999915
 51
179.99999999999983
  0
LINE
  8
_0-b_細線3
  6
CONTINUOUS
 62
    7
 10
786.94901008415945
 20
431.33625304135944
 11
793.61567675082756
 21
431.33625304135944
  0
LINE
  8
_0-b_細線3
  6
CONTINUOUS
 62
    7
 10
786.41567675377019
 20
441.73625304135908
 11
773.08234342043693
 21
441.73625304135908
  0
LINE
  8
_0-b_細線3
  6
CONTINUOUS
 62
    7
 10
775.21567675377128
 20
375.06958637469313
 11
775.21567675671213
 21
428.66958637469372
  0
LINE
  8
_0-b_細線3
  6
CONTINUOUS
 62
    7
 10
784.28234342043584
 20
375.06958637469313
 11
784.28234342337964
 21
428.66958637469372
  0
LINE
  8
_0-b_細線3
  6
CONTINUOUS
 62
    7
 10
784.28234342043584
 20
375.06958637469313
 11
775.21567675377128
 21
375.06958637469313
  0
ARC
  8
_0-b_細線3
  6
CONTINUOUS
 62
    7
 10
721.88234342241458
 20
436.40291970802639
 40
2.6666666666666674
 50
89.999999999999915
 51
179.99999999999983
  0
ARC
  8
_0-b_細線3
  6
CONTINUOUS
 62
    7
 10
723.13020793262331
 20
441.73625304135908
 40
2.6666666666666674
 50
269.99999999999977
 51
329.99999999999625
  0
ARC
  8
_0-b_細線3
  6
CONTINUOUS
 62
    7
 10
727.74901008613983
 20
439.06958637469336
 40
2.6666666666666674
 50
89.999999999999915
 51
150.00000000001586
  0
LINE
  8
_0-b_細線3
  6
CONTINUOUS
 62
    7
 10
721.88234342241458
 20
439.06958637469336
 11
723.13020793262331
 21
439.06958637469336
  0
ARC
  8
_0-b_細線3
  6
CONTINUOUS
 62
    7
 10
746.94901008319539
 20
436.40291970802639
 40
2.6666666666666674
 50
0
 51
89.999999999999915
  0
ARC
  8
_0-b_細線3
  6
CONTINUOUS
 62
    7
 10
745.70114557298984
 20
441.73625304135908
 40
2.6666666666666674
 50
209.99999999998593
 51
269.99999999999977
  0
ARC
  8
_0-b_細線3
  6
CONTINUOUS
 62
    7
 10
741.08234341947173
 20
439.06958637469336
 40
2.6666666666666674
 50
29.999999999984158
 51
89.999999999970683
  0
LINE
  8
_0-b_細線3
  6
CONTINUOUS
 62
    7
 10
746.94901008319539
 20
439.06958637469336
 11
745.70114557298984
 21
439.06958637469336
  0
ARC
  8
_0-b_細線3
  6
CONTINUOUS
 62
    7
 10
720.54901008908246
 20
432.66958637469349
 40
1.3333333333333337
 50
179.99999999999983
 51
269.99999999999977
  0
LINE
  8
_0-b_細線3
  6
CONTINUOUS
 62
    7
 10
719.21567675574897
 20
436.40291970802639
 11
719.21567675574897
 21
432.66958637469349
  0
ARC
  8
_0-b_細線3
  6
CONTINUOUS
 62
    7
 10
748.28234341653047
 20
432.66958637469349
 40
1.3333333333333337
 50
269.99999999999977
 51
359.99999999999966
  0
LINE
  8
_0-b_細線3
  6
CONTINUOUS
 62
    7
 10
749.61567674986259
 20
436.40291970802639
 11
749.61567674986259
 21
432.66958637469349
  0
ARC
  8
_0-b_細線3
  6
CONTINUOUS
 62
    7
 10
727.2156767557492
 20
428.66958637469372
 40
2.6666666666666674
 50
0
 51
89.999999999999915
  0
LINE
  8
_0-b_細線3
  6
CONTINUOUS
 62
    7
 10
727.2156767557492
 20
431.33625304135944
 11
720.54901008908246
 21
431.33625304135944
  0
ARC
  8
_0-b_細線3
  6
CONTINUOUS
 62
    7
 10
741.61567675574815
 20
428.66958637469372
 40
2.6666666666666674
 50
89.999999999999915
 51
179.99999999999983
  0
LINE
  8
_0-b_細線3
  6
CONTINUOUS
 62
    7
 10
741.61567674986236
 20
431.33625304135944
 11
748.28234341653047
 21
431.33625304135944
  0
LINE
  8
_0-b_細線3
  6
CONTINUOUS
 62
    7
 10
741.08234341947173
 20
441.73625304135908
 11
727.74901008613983
 21
441.73625304135908
  0
LINE
  8
_0-b_細線3
  6
CONTINUOUS
 62
    7
 10
729.88234341947282
 20
375.06958637469313
 11
729.88234342241503
 21
428.66958637469372
  0
LINE
  8
_0-b_細線3
  6
CONTINUOUS
 62
    7
 10
738.94901008614033
 20
375.06958637469313
 11
738.94901008908255
 21
428.66958637469372
  0
LINE
  8
_0-b_細線3
  6
CONTINUOUS
 62
    7
 10
738.94901008614033
 20
375.06958637469313
 11
729.88234341947282
 21
375.06958637469313
  0
ARC
  8
_0-b_細線3
  6
CONTINUOUS
 62
    7
 10
676.54901008811612
 20
436.40291970802639
 40
2.6666666666666674
 50
89.999999999999915
 51
179.99999999999983
  0
ARC
  8
_0-b_細線3
  6
CONTINUOUS
 62
    7
 10
677.79687459832462
 20
441.73625304135908
 40
2.6666666666666674
 50
269.99999999999977
 51
329.99999999999625
  0
ARC
  8
_0-b_細線3
  6
CONTINUOUS
 62
    7
 10
682.41567675184115
 20
439.06958637469336
 40
2.6666666666666674
 50
89.999999999999915
 51
150.00000000001586
  0
LINE
  8
_0-b_細線3
  6
CONTINUOUS
 62
    7
 10
676.54901008811612
 20
439.06958637469336
 11
677.79687459832462
 21
439.06958637469336
  0
ARC
  8
_0-b_細線3
  6
CONTINUOUS
 62
    7
 10
701.6156767488967
 20
436.40291970802639
 40
2.6666666666666674
 50
0
 51
89.999999999999915
  0
ARC
  8
_0-b_細線3
  6
CONTINUOUS
 62
    7
 10
700.36781223869116
 20
441.73625304135908
 40
2.6666666666666674
 50
209.99999999998593
 51
269.99999999999977
  0
ARC
  8
_0-b_細線3
  6
CONTINUOUS
 62
    7
 10
695.74901008517463
 20
439.06958637469336
 40
2.6666666666666674
 50
30.000000000001258
 51
89.999999999999929
  0
LINE
  8
_0-b_細線3
  6
CONTINUOUS
 62
    7
 10
701.6156767488967
 20
439.06958637469336
 11
700.36781223869116
 21
439.06958637469336
  0
ARC
  8
_0-b_細線3
  6
CONTINUOUS
 62
    7
 10
675.215676754784
 20
432.66958637469349
 40
1.3333333333333337
 50
179.99999999999983
 51
269.99999999999977
  0
LINE
  8
_0-b_細線3
  6
CONTINUOUS
 62
    7
 10
673.88234342145029
 20
436.40291970802639
 11
673.88234342145029
 21
432.66958637469349
  0
ARC
  8
_0-b_細線3
  6
CONTINUOUS
 62
    7
 10
702.94901008223178
 20
432.66958637469349
 40
1.3333333333333337
 50
269.99999999999977
 51
359.99999999999966
  0
LINE
  8
_0-b_細線3
  6
CONTINUOUS
 62
    7
 10
704.2823434155639
 20
436.40291970802639
 11
704.2823434155639
 21
432.66958637469349
  0
ARC
  8
_0-b_細線3
  6
CONTINUOUS
 62
    7
 10
681.88234342145051
 20
428.66958637469372
 40
2.6666666666666674
 50
0
 51
89.999999999999915
  0
LINE
  8
_0-b_細線3
  6
CONTINUOUS
 62
    7
 10
681.88234342145051
 20
431.33625304135944
 11
675.215676754784
 21
431.33625304135944
  0
ARC
  8
_0-b_細線3
  6
CONTINUOUS
 62
    7
 10
696.2823434214497
 20
428.66958637469372
 40
2.6666666666666674
 50
89.999999999999915
 51
179.99999999999983
  0
LINE
  8
_0-b_細線3
  6
CONTINUOUS
 62
    7
 10
696.28234341556526
 20
431.33625304135944
 11
702.94901008223178
 21
431.33625304135944
  0
LINE
  8
_0-b_細線3
  6
CONTINUOUS
 62
    7
 10
695.74901008517463
 20
441.73625304135908
 11
682.41567675184115
 21
441.73625304135908
  0
LINE
  8
_0-b_細線3
  6
CONTINUOUS
 62
    7
 10
684.54901008517413
 20
375.06958637469313
 11
684.54901008811794
 21
428.66958637469372
  0
LINE
  8
_0-b_細線3
  6
CONTINUOUS
 62
    7
 10
693.61567675184165
 20
375.06958637469313
 11
693.61567675478386
 21
428.66958637469372
  0
LINE
  8
_0-b_細線3
  6
CONTINUOUS
 62
    7
 10
693.61567675184165
 20
375.06958637469313
 11
684.54901008517413
 21
375.06958637469313
  0
ARC
  8
_0-b_細線3
  6
CONTINUOUS
 62
    7
 10
631.21567675381743
 20
436.40291970802639
 40
2.6666666666666674
 50
89.999999999999915
 51
179.99999999999983
  0
ARC
  8
_0-b_細線3
  6
CONTINUOUS
 62
    7
 10
632.46354126402593
 20
441.73625304135908
 40
2.6666666666666674
 50
269.99999999999977
 51
329.99999999999869
  0
ARC
  8
_0-b_細線3
  6
CONTINUOUS
 62
    7
 10
637.08234341754269
 20
439.06958637469336
 40
2.6666666666666674
 50
89.999999999999915
 51
150.00000000001586
  0
LINE
  8
_0-b_細線3
  6
CONTINUOUS
 62
    7
 10
631.21567675381743
 20
439.06958637469336
 11
632.46354126402593
 21
439.06958637469336
  0
ARC
  8
_0-b_細線3
  6
CONTINUOUS
 62
    7
 10
656.28234341459961
 20
436.40291970802639
 40
2.6666666666666674
 50
0
 51
89.999999999999915
  0
ARC
  8
_0-b_細線3
  6
CONTINUOUS
 62
    7
 10
655.03447890439247
 20
441.73625304135908
 40
2.6666666666666674
 50
209.99999999998593
 51
269.99999999999977
  0
ARC
  8
_0-b_細線3
  6
CONTINUOUS
 62
    7
 10
650.41567675087595
 20
439.06958637469336
 40
2.6666666666666674
 50
30.000000000001258
 51
89.999999999999929
  0
LINE
  8
_0-b_細線3
  6
CONTINUOUS
 62
    7
 10
656.28234341459961
 20
439.06958637469336
 11
655.03447890439247
 21
439.06958637469336
  0
ARC
  8
_0-b_細線3
  6
CONTINUOUS
 62
    7
 10
629.88234342048531
 20
432.66958637469349
 40
1.3333333333333337
 50
179.99999999999983
 51
269.99999999999977
  0
LINE
  8
_0-b_細線3
  6
CONTINUOUS
 62
    7
 10
628.5490100871516
 20
436.40291970802639
 11
628.5490100871516
 21
432.66958637469349
  0
ARC
  8
_0-b_細線3
  6
CONTINUOUS
 62
    7
 10
657.61567674793332
 20
432.66958637469349
 40
1.3333333333333337
 50
269.99999999999977
 51
359.99999999999966
  0
LINE
  8
_0-b_細線3
  6
CONTINUOUS
 62
    7
 10
658.94901008126681
 20
436.40291970802639
 11
658.94901008126681
 21
432.66958637469349
  0
ARC
  8
_0-b_細線3
  6
CONTINUOUS
 62
    7
 10
636.54901008715206
 20
428.66958637469372
 40
2.6666666666666674
 50
0
 51
89.999999999999915
  0
LINE
  8
_0-b_細線3
  6
CONTINUOUS
 62
    7
 10
636.54901008715206
 20
431.33625304135944
 11
629.88234342048531
 21
431.33625304135944
  0
ARC
  8
_0-b_細線3
  6
CONTINUOUS
 62
    7
 10
650.94901008715101
 20
428.66958637469372
 40
2.6666666666666674
 50
89.999999999999915
 51
179.99999999999983
  0
LINE
  8
_0-b_細線3
  6
CONTINUOUS
 62
    7
 10
650.94901008126658
 20
431.33625304135944
 11
657.61567674793332
 21
431.33625304135944
  0
LINE
  8
_0-b_細線3
  6
CONTINUOUS
 62
    7
 10
650.41567675087595
 20
441.73625304135908
 11
637.08234341754269
 21
441.73625304135908
  0
LINE
  8
_0-b_細線3
  6
CONTINUOUS
 62
    7
 10
639.21567675087545
 20
375.06958637469313
 11
639.21567675381925
 21
428.66958637469372
  0
LINE
  8
_0-b_細線3
  6
CONTINUOUS
 62
    7
 10
648.28234341754296
 20
375.06958637469313
 11
648.28234342048518
 21
428.66958637469372
  0
LINE
  8
_0-b_細線3
  6
CONTINUOUS
 62
    7
 10
648.28234341754296
 20
375.06958637469313
 11
639.21567675087545
 21
375.06958637469313
  0
ARC
  8
_0-b_細線3
  6
CONTINUOUS
 62
    7
 10
948.54901009339846
 20
436.40291970802639
 40
2.6666666666666674
 50
89.999999999999915
 51
179.99999999999983
  0
ARC
  8
_0-b_細線3
  6
CONTINUOUS
 62
    7
 10
949.79687460360401
 20
441.73625304135908
 40
2.6666666666666674
 50
269.99999999999977
 51
330.00000000001336
  0
ARC
  8
_0-b_細線3
  6
CONTINUOUS
 62
    7
 10
954.41567675712213
 20
439.06958637469336
 40
2.6666666666666674
 50
89.999999999999915
 51
150.00000000001586
  0
LINE
  8
_0-b_細線3
  6
CONTINUOUS
 62
    7
 10
948.54901009339846
 20
439.06958637469336
 11
949.79687460360401
 21
439.06958637469336
  0
ARC
  8
_0-b_細線3
  6
CONTINUOUS
 62
    7
 10
973.61567675417905
 20
436.40291970802639
 40
2.6666666666666674
 50
0
 51
89.999999999999915
  0
ARC
  8
_0-b_細線3
  6
CONTINUOUS
 62
    7
 10
972.36781224397191
 20
441.73625304135908
 40
2.6666666666666674
 50
210.00000000000301
 51
269.99999999999977
  0
ARC
  8
_0-b_細線3
  6
CONTINUOUS
 62
    7
 10
967.74901009045539
 20
439.06958637469336
 40
2.6666666666666674
 50
29.999999999984158
 51
89.999999999999929
  0
LINE
  8
_0-b_細線3
  6
CONTINUOUS
 62
    7
 10
973.61567675417905
 20
439.06958637469336
 11
972.36781224397191
 21
439.06958637469336
  0
ARC
  8
_0-b_細線3
  6
CONTINUOUS
 62
    7
 10
947.21567676006634
 20
432.66958637469349
 40
1.3333333333333337
 50
179.99999999999983
 51
269.99999999999977
  0
LINE
  8
_0-b_細線3
  6
CONTINUOUS
 62
    7
 10
945.88234342673104
 20
436.40291970802639
 11
945.88234342673104
 21
432.66958637469349
  0
ARC
  8
_0-b_細線3
  6
CONTINUOUS
 62
    7
 10
974.94901008751276
 20
432.66958637469349
 40
1.3333333333333337
 50
269.99999999999977
 51
359.99999999999966
  0
LINE
  8
_0-b_細線3
  6
CONTINUOUS
 62
    7
 10
976.28234342084625
 20
436.40291970802639
 11
976.28234342084625
 21
432.66958637469349
  0
ARC
  8
_0-b_細線3
  6
CONTINUOUS
 62
    7
 10
953.8823434267315
 20
428.66958637469372
 40
2.6666666666666674
 50
0
 51
89.999999999999915
  0
LINE
  8
_0-b_細線3
  6
CONTINUOUS
 62
    7
 10
953.8823434267315
 20
431.33625304135944
 11
947.21567676006634
 21
431.33625304135944
  0
ARC
  8
_0-b_細線3
  6
CONTINUOUS
 62
    7
 10
968.28234342673204
 20
428.66958637469372
 40
2.6666666666666674
 50
89.999999999999915
 51
179.99999999999983
  0
LINE
  8
_0-b_細線3
  6
CONTINUOUS
 62
    7
 10
968.28234342084602
 20
431.33625304135944
 11
974.94901008751276
 21
431.33625304135944
  0
LINE
  8
_0-b_細線3
  6
CONTINUOUS
 62
    7
 10
967.74901009045539
 20
441.73625304135908
 11
954.41567675712213
 21
441.73625304135908
  0
LINE
  8
_0-b_細線3
  6
CONTINUOUS
 62
    7
 10
956.54901009045648
 20
375.06958637469313
 11
956.54901009339869
 21
428.66958637469372
  0
LINE
  8
_0-b_細線3
  6
CONTINUOUS
 62
    7
 10
965.6156767571224
 20
375.06958637469313
 11
965.61567676006621
 21
428.66958637469372
  0
LINE
  8
_0-b_細線3
  6
CONTINUOUS
 62
    7
 10
965.6156767571224
 20
375.06958637469313
 11
956.54901009045648
 21
375.06958637469313
  0
ARC
  8
_0-b_細線3
  6
CONTINUOUS
 62
    7
 10
993.88234342769692
 20
436.40291970802639
 40
2.6666666666666674
 50
89.999999999999915
 51
179.99999999999983
  0
ARC
  8
_0-b_細線3
  6
CONTINUOUS
 62
    7
 10
995.13020793790406
 20
441.73625304135908
 40
2.6666666666666674
 50
269.99999999999977
 51
329.99999999999625
  0
ARC
  8
_0-b_細線3
  6
CONTINUOUS
 62
    7
 10
999.74901009142059
 20
439.06958637469336
 40
2.6666666666666674
 50
89.999999999999915
 51
150.00000000001586
  0
LINE
  8
_0-b_細線3
  6
CONTINUOUS
 62
    7
 10
993.88234342769692
 20
439.06958637469336
 11
995.13020793790406
 21
439.06958637469336
  0
ARC
  8
_0-b_細線3
  6
CONTINUOUS
 62
    7
 10
1018.9490100884778
 20
436.40291970802639
 40
2.6666666666666674
 50
0
 51
89.999999999999915
  0
ARC
  8
_0-b_細線3
  6
CONTINUOUS
 62
    7
 10
1017.7011455782705
 20
441.73625304135908
 40
2.6666666666666674
 50
209.99999999998593
 51
269.99999999999977
  0
ARC
  8
_0-b_細線3
  6
CONTINUOUS
 62
    7
 10
1013.0823434247542
 20
439.06958637469336
 40
2.6666666666666674
 50
30.000000000003698
 51
89.999999999999929
  0
LINE
  8
_0-b_細線3
  6
CONTINUOUS
 62
    7
 10
1018.9490100884778
 20
439.06958637469336
 11
1017.7011455782705
 21
439.06958637469336
  0
ARC
  8
_0-b_細線3
  6
CONTINUOUS
 62
    7
 10
992.54901009436344
 20
432.66958637469349
 40
1.3333333333333337
 50
179.99999999999983
 51
269.99999999999977
  0
LINE
  8
_0-b_細線3
  6
CONTINUOUS
 62
    7
 10
991.21567676102973
 20
436.40291970802639
 11
991.21567676102973
 21
432.66958637469349
  0
ARC
  8
_0-b_細線3
  6
CONTINUOUS
 62
    7
 10
1020.2823434218113
 20
432.66958637469349
 40
1.3333333333333337
 50
269.99999999999977
 51
359.99999999999966
  0
LINE
  8
_0-b_細線3
  6
CONTINUOUS
 62
    7
 10
1021.6156767551448
 20
436.40291970802639
 11
1021.6156767551448
 21
432.66958637469349
  0
ARC
  8
_0-b_細線3
  6
CONTINUOUS
 62
    7
 10
999.21567676102995
 20
428.66958637469372
 40
2.6666666666666674
 50
0
 51
89.999999999999915
  0
LINE
  8
_0-b_細線3
  6
CONTINUOUS
 62
    7
 10
999.21567676102995
 20
431.33625304135944
 11
992.54901009436344
 21
431.33625304135944
  0
ARC
  8
_0-b_細線3
  6
CONTINUOUS
 62
    7
 10
1013.6156767610306
 20
428.66958637469372
 40
2.6666666666666674
 50
89.999999999999915
 51
179.99999999999983
  0
LINE
  8
_0-b_細線3
  6
CONTINUOUS
 62
    7
 10
1013.615676755143
 20
431.33625304135944
 11
1020.2823434218113
 21
431.33625304135944
  0
LINE
  8
_0-b_細線3
  6
CONTINUOUS
 62
    7
 10
1013.0823434247542
 20
441.73625304135908
 11
999.74901009142059
 21
441.73625304135908
  0
LINE
  8
_0-b_細線3
  6
CONTINUOUS
 62
    7
 10
1001.8823434247536
 20
375.06958637469313
 11
1001.8823434276958
 21
428.66958637469372
  0
LINE
  8
_0-b_細線3
  6
CONTINUOUS
 62
    7
 10
1010.9490100914211
 20
375.06958637469313
 11
1010.9490100943633
 21
428.66958637469372
  0
LINE
  8
_0-b_細線3
  6
CONTINUOUS
 62
    7
 10
1010.9490100914211
 20
375.06958637469313
 11
1001.8823434247536
 21
375.06958637469313
  0
ARC
  8
_0-b_細線3
  6
CONTINUOUS
 62
    7
 10
585.8823434204844
 20
436.40291970802639
 40
2.6666666666666674
 50
89.999999999999915
 51
179.99999999999983
  0
ARC
  8
_0-b_細線3
  6
CONTINUOUS
 62
    7
 10
587.13020793069154
 20
441.73625304135908
 40
2.6666666666666674
 50
269.99999999999977
 51
330.00000000001336
  0
ARC
  8
_0-b_細線3
  6
CONTINUOUS
 62
    7
 10
591.74901008420966
 20
439.06958637469336
 40
2.6666666666666674
 50
89.999999999999915
 51
150.00000000001586
  0
LINE
  8
_0-b_細線3
  6
CONTINUOUS
 62
    7
 10
585.8823434204844
 20
439.06958637469336
 11
587.13020793069154
 21
439.06958637469336
  0
ARC
  8
_0-b_細線3
  6
CONTINUOUS
 62
    7
 10
610.94901008126658
 20
436.40291970802639
 40
2.6666666666666674
 50
0
 51
89.999999999999915
  0
ARC
  8
_0-b_細線3
  6
CONTINUOUS
 62
    7
 10
609.70114557105944
 20
441.73625304135908
 40
2.6666666666666674
 50
209.99999999998593
 51
269.99999999999977
  0
ARC
  8
_0-b_細線3
  6
CONTINUOUS
 62
    7
 10
605.08234341754132
 20
439.06958637469336
 40
2.6666666666666674
 50
29.999999999984158
 51
89.999999999965809
  0
LINE
  8
_0-b_細線3
  6
CONTINUOUS
 62
    7
 10
610.94901008126658
 20
439.06958637469336
 11
609.70114557105944
 21
439.06958637469336
  0
ARC
  8
_0-b_細線3
  6
CONTINUOUS
 62
    7
 10
584.54901008715228
 20
432.66958637469349
 40
1.3333333333333337
 50
179.99999999999983
 51
269.99999999999977
  0
LINE
  8
_0-b_細線3
  6
CONTINUOUS
 62
    7
 10
583.21567675381857
 20
436.40291970802639
 11
583.21567675381857
 21
432.66958637469349
  0
ARC
  8
_0-b_細線3
  6
CONTINUOUS
 62
    7
 10
612.2823434145987
 20
432.66958637469349
 40
1.3333333333333337
 50
269.99999999999977
 51
359.99999999999966
  0
LINE
  8
_0-b_細線3
  6
CONTINUOUS
 62
    7
 10
613.61567674793378
 20
436.40291970802639
 11
613.61567674793378
 21
432.66958637469349
  0
ARC
  8
_0-b_細線3
  6
CONTINUOUS
 62
    7
 10
591.21567675381743
 20
428.66958637469372
 40
2.6666666666666674
 50
0
 51
89.999999999999915
  0
LINE
  8
_0-b_細線3
  6
CONTINUOUS
 62
    7
 10
591.21567675381743
 20
431.33625304135944
 11
584.54901008715228
 21
431.33625304135944
  0
ARC
  8
_0-b_細線3
  6
CONTINUOUS
 62
    7
 10
605.61567675381798
 20
428.66958637469372
 40
2.6666666666666674
 50
89.999999999999915
 51
179.99999999999983
  0
LINE
  8
_0-b_細線3
  6
CONTINUOUS
 62
    7
 10
605.61567674793196
 20
431.33625304135944
 11
612.2823434145987
 21
431.33625304135944
  0
LINE
  8
_0-b_細線3
  6
CONTINUOUS
 62
    7
 10
605.08234341754132
 20
441.73625304135908
 11
591.74901008420966
 21
441.73625304135908
  0
LINE
  8
_0-b_細線3
  6
CONTINUOUS
 62
    7
 10
593.88234341754242
 20
375.06958637469313
 11
593.88234342048463
 21
428.66958637469372
  0
LINE
  8
_0-b_細線3
  6
CONTINUOUS
 62
    7
 10
602.94901008420857
 20
375.06958637469313
 11
602.94901008715215
 21
428.66958637469372
  0
LINE
  8
_0-b_細線3
  6
CONTINUOUS
 62
    7
 10
602.94901008420857
 20
375.06958637469313
 11
593.88234341754242
 21
375.06958637469313
  0
ARC
  8
_0-b_細線3
  6
CONTINUOUS
 62
    7
 10
1039.2156767614879
 20
436.40291970802639
 40
2.6666666666666674
 50
89.999999999999915
 51
179.99999999999983
  0
ARC
  8
_0-b_細線3
  6
CONTINUOUS
 62
    7
 10
1040.4635412716948
 20
441.73625304135908
 40
2.6666666666666674
 50
269.99999999999977
 51
330.00000000001336
  0
ARC
  8
_0-b_細線3
  6
CONTINUOUS
 62
    7
 10
1045.0823434252115
 20
439.06958637469336
 40
2.6666666666666674
 50
89.999999999999915
 51
150.00000000000119
  0
LINE
  8
_0-b_細線3
  6
CONTINUOUS
 62
    7
 10
1039.2156767614879
 20
439.06958637469336
 11
1040.4635412716948
 21
439.06958637469336
  0
ARC
  8
_0-b_細線3
  6
CONTINUOUS
 62
    7
 10
1064.2823434222682
 20
436.40291970802639
 40
2.6666666666666674
 50
0
 51
89.999999999999915
  0
ARC
  8
_0-b_細線3
  6
CONTINUOUS
 62
    7
 10
1063.0344789120613
 20
441.73625304135908
 40
2.6666666666666674
 50
210.00000000000057
 51
269.99999999999977
  0
ARC
  8
_0-b_細線3
  6
CONTINUOUS
 62
    7
 10
1058.4156767585446
 20
439.06958637469336
 40
2.6666666666666674
 50
29.999999999984158
 51
89.99999999996092
  0
LINE
  8
_0-b_細線3
  6
CONTINUOUS
 62
    7
 10
1064.2823434222682
 20
439.06958637469336
 11
1063.0344789120613
 21
439.06958637469336
  0
ARC
  8
_0-b_細線3
  6
CONTINUOUS
 62
    7
 10
1037.8823434281539
 20
432.66958637469349
 40
1.3333333333333337
 50
179.99999999999983
 51
269.99999999999977
  0
LINE
  8
_0-b_細線3
  6
CONTINUOUS
 62
    7
 10
1036.5490100948218
 20
436.40291970802639
 11
1036.5490100948218
 21
432.66958637469349
  0
ARC
  8
_0-b_細線3
  6
CONTINUOUS
 62
    7
 10
1065.6156767556022
 20
432.66958637469349
 40
1.3333333333333337
 50
269.99999999999977
 51
359.99999999999966
  0
LINE
  8
_0-b_細線3
  6
CONTINUOUS
 62
    7
 10
1066.9490100889357
 20
436.40291970802639
 11
1066.9490100889357
 21
432.66958637469349
  0
ARC
  8
_0-b_細線3
  6
CONTINUOUS
 62
    7
 10
1044.5490100948209
 20
428.66958637469372
 40
2.6666666666666674
 50
0
 51
89.999999999999915
  0
LINE
  8
_0-b_細線3
  6
CONTINUOUS
 62
    7
 10
1044.5490100948209
 20
431.33625304135944
 11
1037.8823434281539
 21
431.33625304135944
  0
ARC
  8
_0-b_細線3
  6
CONTINUOUS
 62
    7
 10
1058.9490100948215
 20
428.66958637469372
 40
2.6666666666666674
 50
89.999999999999915
 51
179.99999999999983
  0
LINE
  8
_0-b_細線3
  6
CONTINUOUS
 62
    7
 10
1058.9490100889352
 20
431.33625304135944
 11
1065.6156767556022
 21
431.33625304135944
  0
LINE
  8
_0-b_細線3
  6
CONTINUOUS
 62
    7
 10
1058.4156767585446
 20
441.73625304135908
 11
1045.0823434252115
 21
441.73625304135908
  0
LINE
  8
_0-b_細線3
  6
CONTINUOUS
 62
    7
 10
1047.2156767585443
 20
375.06958637469313
 11
1047.2156767614879
 21
428.66958637469372
  0
LINE
  8
_0-b_細線3
  6
CONTINUOUS
 62
    7
 10
1056.2823434252118
 20
375.06958637469313
 11
1056.2823434281554
 21
428.66958637469372
  0
LINE
  8
_0-b_細線3
  6
CONTINUOUS
 62
    7
 10
1056.2823434252118
 20
375.06958637469313
 11
1047.2156767585443
 21
375.06958637469313
  0
ARC
  8
_0-b_細線3
  6
CONTINUOUS
 62
    7
 10
1084.5490100952784
 20
436.40291970802639
 40
2.6666666666666674
 50
89.999999999999915
 51
179.99999999999983
  0
ARC
  8
_0-b_細線3
  6
CONTINUOUS
 62
    7
 10
1085.7968746054871
 20
441.73625304135908
 40
2.6666666666666674
 50
269.99999999999977
 51
329.99999999999869
  0
ARC
  8
_0-b_細線3
  6
CONTINUOUS
 62
    7
 10
1090.4156767590021
 20
439.06958637469336
 40
2.6666666666666674
 50
89.999999999999915
 51
149.99999999999631
  0
LINE
  8
_0-b_細線3
  6
CONTINUOUS
 62
    7
 10
1084.5490100952784
 20
439.06958637469336
 11
1085.7968746054871
 21
439.06958637469336
  0
ARC
  8
_0-b_細線3
  6
CONTINUOUS
 62
    7
 10
1109.6156767560606
 20
436.40291970802639
 40
2.6666666666666674
 50
0
 51
89.999999999999915
  0
ARC
  8
_0-b_細線3
  6
CONTINUOUS
 62
    7
 10
1108.3678122458537
 20
441.73625304135908
 40
2.6666666666666674
 50
209.99999999998593
 51
269.99999999999977
  0
ARC
  8
_0-b_細線3
  6
CONTINUOUS
 62
    7
 10
1103.7490100923355
 20
439.06958637469336
 40
2.6666666666666674
 50
29.999999999984158
 51
89.999999999970683
  0
LINE
  8
_0-b_細線3
  6
CONTINUOUS
 62
    7
 10
1109.6156767560606
 20
439.06958637469336
 11
1108.3678122458537
 21
439.06958637469336
  0
ARC
  8
_0-b_細線3
  6
CONTINUOUS
 62
    7
 10
1083.2156767619463
 20
432.66958637469349
 40
1.3333333333333337
 50
179.99999999999983
 51
269.99999999999977
  0
LINE
  8
_0-b_細線3
  6
CONTINUOUS
 62
    7
 10
1081.8823434286128
 20
436.40291970802639
 11
1081.8823434286128
 21
432.66958637469349
  0
ARC
  8
_0-b_細線3
  6
CONTINUOUS
 62
    7
 10
1110.9490100893945
 20
432.66958637469349
 40
1.3333333333333337
 50
269.99999999999977
 51
359.99999999999966
  0
LINE
  8
_0-b_細線3
  6
CONTINUOUS
 62
    7
 10
1112.2823434227266
 20
436.40291970802639
 11
1112.2823434227266
 21
432.66958637469349
  0
ARC
  8
_0-b_細線3
  6
CONTINUOUS
 62
    7
 10
1089.8823434286132
 20
428.66958637469372
 40
2.6666666666666674
 50
0
 51
89.999999999999915
  0
LINE
  8
_0-b_細線3
  6
CONTINUOUS
 62
    7
 10
1089.8823434286132
 20
431.33625304135944
 11
1083.2156767619463
 21
431.33625304135944
  0
ARC
  8
_0-b_細線3
  6
CONTINUOUS
 62
    7
 10
1104.282343428612
 20
428.66958637469372
 40
2.6666666666666674
 50
89.999999999999915
 51
179.99999999999983
  0
LINE
  8
_0-b_細線3
  6
CONTINUOUS
 62
    7
 10
1104.2823434227262
 20
431.33625304135944
 11
1110.9490100893945
 21
431.33625304135944
  0
LINE
  8
_0-b_細線3
  6
CONTINUOUS
 62
    7
 10
1103.7490100923355
 20
441.73625304135908
 11
1090.4156767590021
 21
441.73625304135908
  0
LINE
  8
_0-b_細線3
  6
CONTINUOUS
 62
    7
 10
1092.5490100923366
 20
375.06958637469313
 11
1092.5490100952788
 21
428.66958637469372
  0
LINE
  8
_0-b_細線3
  6
CONTINUOUS
 62
    7
 10
1101.6156767590041
 20
375.06958637469313
 11
1101.6156767619464
 21
428.66958637469372
  0
LINE
  8
_0-b_細線3
  6
CONTINUOUS
 62
    7
 10
1101.6156767590041
 20
375.06958637469313
 11
1092.5490100923366
 21
375.06958637469313
  0
ARC
  8
_0-b_細線3
  6
CONTINUOUS
 62
    7
 10
1129.8823434290707
 20
436.40291970802639
 40
2.6666666666666674
 50
89.999999999999915
 51
179.99999999999983
  0
ARC
  8
_0-b_細線3
  6
CONTINUOUS
 62
    7
 10
1131.1302079392781
 20
441.73625304135908
 40
2.6666666666666674
 50
269.99999999999977
 51
329.9999999999938
  0
ARC
  8
_0-b_細線3
  6
CONTINUOUS
 62
    7
 10
1135.7490100927944
 20
439.06958637469336
 40
2.6666666666666674
 50
89.999999999999915
 51
150.00000000001586
  0
LINE
  8
_0-b_細線3
  6
CONTINUOUS
 62
    7
 10
1129.8823434290707
 20
439.06958637469336
 11
1131.1302079392781
 21
439.06958637469336
  0
ARC
  8
_0-b_細線3
  6
CONTINUOUS
 62
    7
 10
1154.9490100898515
 20
436.40291970802639
 40
2.6666666666666674
 50
0
 51
89.999999999999915
  0
ARC
  8
_0-b_細線3
  6
CONTINUOUS
 62
    7
 10
1153.701145579646
 20
441.73625304135908
 40
2.6666666666666674
 50
209.99999999998593
 51
269.99999999999977
  0
ARC
  8
_0-b_細線3
  6
CONTINUOUS
 62
    7
 10
1149.0823434261279
 20
439.06958637469336
 40
2.6666666666666674
 50
29.999999999984158
 51
89.999999999999929
  0
LINE
  8
_0-b_細線3
  6
CONTINUOUS
 62
    7
 10
1154.9490100898515
 20
439.06958637469336
 11
1153.701145579646
 21
439.06958637469336
  0
ARC
  8
_0-b_細線3
  6
CONTINUOUS
 62
    7
 10
1128.5490100957372
 20
432.66958637469349
 40
1.3333333333333337
 50
179.99999999999983
 51
269.99999999999977
  0
LINE
  8
_0-b_細線3
  6
CONTINUOUS
 62
    7
 10
1127.2156767624037
 20
436.40291970802639
 11
1127.2156767624037
 21
432.66958637469349
  0
ARC
  8
_0-b_細線3
  6
CONTINUOUS
 62
    7
 10
1156.282343423185
 20
432.66958637469349
 40
1.3333333333333337
 50
269.99999999999977
 51
359.99999999999966
  0
LINE
  8
_0-b_細線3
  6
CONTINUOUS
 62
    7
 10
1157.615676756519
 20
436.40291970802639
 11
1157.615676756519
 21
432.66958637469349
  0
ARC
  8
_0-b_細線3
  6
CONTINUOUS
 62
    7
 10
1135.2156767624037
 20
428.66958637469372
 40
2.6666666666666674
 50
0
 51
89.999999999999915
  0
LINE
  8
_0-b_細線3
  6
CONTINUOUS
 62
    7
 10
1135.2156767624037
 20
431.33625304135944
 11
1128.5490100957372
 21
431.33625304135944
  0
ARC
  8
_0-b_細線3
  6
CONTINUOUS
 62
    7
 10
1149.6156767624043
 20
428.66958637469372
 40
2.6666666666666674
 50
89.999999999999915
 51
179.99999999999983
  0
LINE
  8
_0-b_細線3
  6
CONTINUOUS
 62
    7
 10
1149.6156767565171
 20
431.33625304135944
 11
1156.282343423185
 21
431.33625304135944
  0
LINE
  8
_0-b_細線3
  6
CONTINUOUS
 62
    7
 10
1149.0823434261279
 20
441.73625304135908
 11
1135.7490100927944
 21
441.73625304135908
  0
LINE
  8
_0-b_細線3
  6
CONTINUOUS
 62
    7
 10
1137.882343426129
 20
375.06958637469313
 11
1137.8823434290698
 21
428.66958637469372
  0
LINE
  8
_0-b_細線3
  6
CONTINUOUS
 62
    7
 10
1146.9490100927951
 20
375.06958637469313
 11
1146.9490100957373
 21
428.66958637469372
  0
LINE
  8
_0-b_細線3
  6
CONTINUOUS
 62
    7
 10
1146.9490100927951
 20
375.06958637469313
 11
1137.882343426129
 21
375.06958637469313
  0
ARC
  8
_0-b_細線3
  6
CONTINUOUS
 62
    7
 10
1174.4156767624518
 20
436.40291970802639
 40
2.6666666666666674
 50
89.999999999999915
 51
179.99999999999983
  0
ARC
  8
_0-b_細線3
  6
CONTINUOUS
 62
    7
 10
1175.66354127266
 20
441.73625304135908
 40
2.6666666666666674
 50
269.99999999999977
 51
329.99999999999869
  0
ARC
  8
_0-b_細線3
  6
CONTINUOUS
 62
    7
 10
1180.2823434261754
 20
439.06958637469336
 40
2.6666666666666674
 50
89.999999999999915
 51
150.00000000000119
  0
LINE
  8
_0-b_細線3
  6
CONTINUOUS
 62
    7
 10
1174.4156767624518
 20
439.06958637469336
 11
1175.66354127266
 21
439.06958637469336
  0
ARC
  8
_0-b_細線3
  6
CONTINUOUS
 62
    7
 10
1199.4823434232339
 20
436.40291970802639
 40
2.6666666666666674
 50
0
 51
89.999999999999915
  0
ARC
  8
_0-b_細線3
  6
CONTINUOUS
 62
    7
 10
1198.2344789130266
 20
441.73625304135908
 40
2.6666666666666674
 50
209.99999999998593
 51
269.99999999999977
  0
ARC
  8
_0-b_細線3
  6
CONTINUOUS
 62
    7
 10
1193.6156767595085
 20
439.06958637469336
 40
2.6666666666666674
 50
29.999999999984158
 51
89.99999999996092
  0
LINE
  8
_0-b_細線3
  6
CONTINUOUS
 62
    7
 10
1199.4823434232339
 20
439.06958637469336
 11
1198.2344789130266
 21
439.06958637469336
  0
ARC
  8
_0-b_細線3
  6
CONTINUOUS
 62
    7
 10
1173.0823434291196
 20
432.66958637469349
 40
1.3333333333333337
 50
179.99999999999983
 51
269.99999999999977
  0
LINE
  8
_0-b_細線3
  6
CONTINUOUS
 62
    7
 10
1171.7490100957857
 20
436.40291970802639
 11
1171.7490100957857
 21
432.66958637469349
  0
ARC
  8
_0-b_細線3
  6
CONTINUOUS
 62
    7
 10
1200.8156767565674
 20
432.66958637469349
 40
1.3333333333333337
 50
269.99999999999977
 51
359.99999999999966
  0
LINE
  8
_0-b_細線3
  6
CONTINUOUS
 62
    7
 10
1202.1490100898995
 20
436.40291970802639
 11
1202.1490100898995
 21
432.66958637469349
  0
ARC
  8
_0-b_細線3
  6
CONTINUOUS
 62
    7
 10
1179.7490100957862
 20
428.66958637469372
 40
2.6666666666666674
 50
0
 51
89.999999999999915
  0
LINE
  8
_0-b_細線3
  6
CONTINUOUS
 62
    7
 10
1179.7490100957862
 20
431.33625304135944
 11
1173.0823434291196
 21
431.33625304135944
  0
ARC
  8
_0-b_細線3
  6
CONTINUOUS
 62
    7
 10
1194.1490100957853
 20
428.66958637469372
 40
2.6666666666666674
 50
89.999999999999915
 51
179.99999999999983
  0
LINE
  8
_0-b_細線3
  6
CONTINUOUS
 62
    7
 10
1194.1490100898991
 20
431.33625304135944
 11
1200.8156767565674
 21
431.33625304135944
  0
LINE
  8
_0-b_細線3
  6
CONTINUOUS
 62
    7
 10
1193.6156767595085
 20
441.73625304135908
 11
1180.2823434261754
 21
441.73625304135908
  0
LINE
  8
_0-b_細線3
  6
CONTINUOUS
 62
    7
 10
1182.4156767595096
 20
375.06958637469313
 11
1182.4156767624518
 21
428.66958637469372
  0
LINE
  8
_0-b_細線3
  6
CONTINUOUS
 62
    7
 10
1191.4823434261771
 20
375.06958637469313
 11
1191.4823434291193
 21
428.66958637469372
  0
LINE
  8
_0-b_細線3
  6
CONTINUOUS
 62
    7
 10
1191.4823434261771
 20
375.06958637469313
 11
1182.4156767595096
 21
375.06958637469313
  0
ARC
  8
_0-b_細線3
  6
CONTINUOUS
 62
    7
 10
1218.6823434299877
 20
436.40291970802639
 40
2.6666666666666674
 50
89.999999999999915
 51
179.99999999999983
  0
ARC
  8
_0-b_細線3
  6
CONTINUOUS
 62
    7
 10
1219.9302079401932
 20
441.73625304135908
 40
2.6666666666666674
 50
269.99999999999977
 51
330.00000000001336
  0
ARC
  8
_0-b_細線3
  6
CONTINUOUS
 62
    7
 10
1224.5490100937095
 20
439.06958637469336
 40
2.6666666666666674
 50
89.999999999999915
 51
149.99999999999631
  0
LINE
  8
_0-b_細線3
  6
CONTINUOUS
 62
    7
 10
1218.6823434299877
 20
439.06958637469336
 11
1219.9302079401932
 21
439.06958637469336
  0
ARC
  8
_0-b_細線3
  6
CONTINUOUS
 62
    7
 10
1243.749010090768
 20
436.40291970802639
 40
2.6666666666666674
 50
0
 51
89.999999999999915
  0
ARC
  8
_0-b_細線3
  6
CONTINUOUS
 62
    7
 10
1242.5011455805611
 20
441.73625304135908
 40
2.6666666666666674
 50
209.99999999998593
 51
269.99999999999977
  0
ARC
  8
_0-b_細線3
  6
CONTINUOUS
 62
    7
 10
1237.8823434270444
 20
439.06958637469336
 40
2.6666666666666674
 50
29.999999999998813
 51
89.999999999999929
  0
LINE
  8
_0-b_細線3
  6
CONTINUOUS
 62
    7
 10
1243.749010090768
 20
439.06958637469336
 11
1242.5011455805611
 21
439.06958637469336
  0
ARC
  8
_0-b_細線3
  6
CONTINUOUS
 62
    7
 10
1217.3490100966524
 20
432.66958637469349
 40
1.3333333333333337
 50
179.99999999999983
 51
269.99999999999977
  0
LINE
  8
_0-b_細線3
  6
CONTINUOUS
 62
    7
 10
1216.0156767633202
 20
436.40291970802639
 11
1216.0156767633202
 21
432.66958637469349
  0
ARC
  8
_0-b_細線3
  6
CONTINUOUS
 62
    7
 10
1245.082343424102
 20
432.66958637469349
 40
1.3333333333333337
 50
269.99999999999977
 51
359.99999999999966
  0
LINE
  8
_0-b_細線3
  6
CONTINUOUS
 62
    7
 10
1246.4156767574341
 20
436.40291970802639
 11
1246.4156767574341
 21
432.66958637469349
  0
ARC
  8
_0-b_細線3
  6
CONTINUOUS
 62
    7
 10
1224.0156767633207
 20
428.66958637469372
 40
2.6666666666666674
 50
0
 51
89.999999999999915
  0
LINE
  8
_0-b_細線3
  6
CONTINUOUS
 62
    7
 10
1224.0156767633207
 20
431.33625304135944
 11
1217.3490100966524
 21
431.33625304135944
  0
ARC
  8
_0-b_細線3
  6
CONTINUOUS
 62
    7
 10
1238.4156767633212
 20
428.66958637469372
 40
2.6666666666666674
 50
89.999999999999915
 51
179.99999999999983
  0
LINE
  8
_0-b_細線3
  6
CONTINUOUS
 62
    7
 10
1238.4156767574336
 20
431.33625304135944
 11
1245.082343424102
 21
431.33625304135944
  0
LINE
  8
_0-b_細線3
  6
CONTINUOUS
 62
    7
 10
1237.8823434270444
 20
441.73625304135908
 11
1224.5490100937095
 21
441.73625304135908
  0
LINE
  8
_0-b_細線3
  6
CONTINUOUS
 62
    7
 10
1226.6823434270441
 20
375.06958637469313
 11
1226.6823434299863
 21
428.66958637469372
  0
LINE
  8
_0-b_細線3
  6
CONTINUOUS
 62
    7
 10
1235.7490100937102
 20
375.06958637469313
 11
1235.7490100966538
 21
428.66958637469372
  0
LINE
  8
_0-b_細線3
  6
CONTINUOUS
 62
    7
 10
1235.7490100937102
 20
375.06958637469313
 11
1226.6823434270441
 21
375.06958637469313
  0
ARC
  8
_0-b_細線3
  6
CONTINUOUS
 62
    7
 10
565.615677256764
 20
436.40291970802639
 40
2.6666666666666674
 50
0
 51
89.999999999999915
  0
ARC
  8
_0-b_細線3
  6
CONTINUOUS
 62
    7
 10
564.3678127465555
 20
441.73625304135908
 40
2.6666666666666674
 50
210.00000000000057
 51
269.99999999999977
  0
ARC
  8
_0-b_細線3
  6
CONTINUOUS
 62
    7
 10
559.74901059304034
 20
439.06958637469336
 40
2.6666666666666674
 50
30.000000000001258
 51
89.999999999999929
  0
LINE
  8
_0-b_細線3
  6
CONTINUOUS
 62
    7
 10
565.615677256764
 20
439.06958637469336
 11
564.3678127465555
 21
439.06958637469336
  0
ARC
  8
_0-b_細線3
  6
CONTINUOUS
 62
    7
 10
540.54901059598342
 20
436.40291970802639
 40
2.6666666666666674
 50
89.999999999999915
 51
179.99999999999983
  0
ARC
  8
_0-b_細線3
  6
CONTINUOUS
 62
    7
 10
541.79687510618896
 20
441.73625304135908
 40
2.6666666666666674
 50
269.99999999999977
 51
330.00000000001336
  0
ARC
  8
_0-b_細線3
  6
CONTINUOUS
 62
    7
 10
546.41567725970708
 20
439.06958637469336
 40
2.6666666666666674
 50
89.999999999999915
 51
150.00000000001586
  0
LINE
  8
_0-b_細線3
  6
CONTINUOUS
 62
    7
 10
540.54901059598342
 20
439.06958637469336
 11
541.79687510618896
 21
439.06958637469336
  0
ARC
  8
_0-b_細線3
  6
CONTINUOUS
 62
    7
 10
566.94901059009612
 20
432.66958637469349
 40
1.3333333333333337
 50
269.99999999999977
 51
359.99999999999966
  0
LINE
  8
_0-b_細線3
  6
CONTINUOUS
 62
    7
 10
568.28234392342983
 20
436.40291970802639
 11
568.28234392342983
 21
432.66958637469349
  0
ARC
  8
_0-b_細線3
  6
CONTINUOUS
 62
    7
 10
539.21567726264811
 20
432.66958637469349
 40
1.3333333333333337
 50
179.99999999999983
 51
269.99999999999977
  0
LINE
  8
_0-b_細線3
  6
CONTINUOUS
 62
    7
 10
537.88234392931599
 20
436.40291970802639
 11
537.88234392931599
 21
432.66958637469349
  0
ARC
  8
_0-b_細線3
  6
CONTINUOUS
 62
    7
 10
560.28234392342938
 20
428.66958637469372
 40
2.6666666666666674
 50
89.999999999999915
 51
179.99999999999983
  0
LINE
  8
_0-b_細線3
  6
CONTINUOUS
 62
    7
 10
560.28234392342938
 20
431.33625304135944
 11
566.94901059009612
 21
431.33625304135944
  0
ARC
  8
_0-b_細線3
  6
CONTINUOUS
 62
    7
 10
545.88234392343043
 20
428.66958637469372
 40
2.6666666666666674
 50
0
 51
89.999999999999915
  0
LINE
  8
_0-b_細線3
  6
CONTINUOUS
 62
    7
 10
545.88234392931645
 20
431.33625304135944
 11
539.21567726264811
 21
431.33625304135944
  0
LINE
  8
_0-b_細線3
  6
CONTINUOUS
 62
    7
 10
546.41567725970708
 20
441.73625304135908
 11
559.74901059304034
 21
441.73625304135908
  0
LINE
  8
_0-b_細線3
  6
CONTINUOUS
 62
    7
 10
557.61567725970599
 20
375.06958637469313
 11
557.61567725676377
 21
428.66958637469372
  0
LINE
  8
_0-b_細線3
  6
CONTINUOUS
 62
    7
 10
548.54901059303847
 20
375.06958637469313
 11
548.54901059009626
 21
428.66958637469372
  0
LINE
  8
_0-b_細線3
  6
CONTINUOUS
 62
    7
 10
548.54901059303847
 20
375.06958637469313
 11
557.61567725970599
 21
375.06958637469313
  0
ARC
  8
_0-b_細線3
  6
CONTINUOUS
 62
    7
 10
520.28234392297168
 20
436.40291970802639
 40
2.6666666666666674
 50
0
 51
89.999999999999915
  0
ARC
  8
_0-b_細線3
  6
CONTINUOUS
 62
    7
 10
519.03447941276454
 20
441.73625304135908
 40
2.6666666666666674
 50
209.99999999998593
 51
269.99999999999977
  0
ARC
  8
_0-b_細線3
  6
CONTINUOUS
 62
    7
 10
514.41567725924801
 20
439.06958637469336
 40
2.6666666666666674
 50
30.000000000001258
 51
89.999999999999929
  0
LINE
  8
_0-b_細線3
  6
CONTINUOUS
 62
    7
 10
520.28234392297168
 20
439.06958637469336
 11
519.03447941276454
 21
439.06958637469336
  0
ARC
  8
_0-b_細線3
  6
CONTINUOUS
 62
    7
 10
495.21567726219109
 20
436.40291970802639
 40
2.6666666666666674
 50
89.999999999999915
 51
179.99999999999983
  0
ARC
  8
_0-b_細線3
  6
CONTINUOUS
 62
    7
 10
496.463541772398
 20
441.73625304135908
 40
2.6666666666666674
 50
269.99999999999977
 51
330.00000000001336
  0
ARC
  8
_0-b_細線3
  6
CONTINUOUS
 62
    7
 10
501.08234392591476
 20
439.06958637469336
 40
2.6666666666666674
 50
89.999999999999915
 51
150.00000000000119
  0
LINE
  8
_0-b_細線3
  6
CONTINUOUS
 62
    7
 10
495.21567726219109
 20
439.06958637469336
 11
496.463541772398
 21
439.06958637469336
  0
ARC
  8
_0-b_細線3
  6
CONTINUOUS
 62
    7
 10
521.61567725630539
 20
432.66958637469349
 40
1.3333333333333337
 50
269.99999999999977
 51
359.99999999999966
  0
LINE
  8
_0-b_細線3
  6
CONTINUOUS
 62
    7
 10
522.94901058963887
 20
436.40291970802639
 11
522.94901058963887
 21
432.66958637469349
  0
ARC
  8
_0-b_細線3
  6
CONTINUOUS
 62
    7
 10
493.88234392885738
 20
432.66958637469349
 40
1.3333333333333337
 50
179.99999999999983
 51
269.99999999999977
  0
LINE
  8
_0-b_細線3
  6
CONTINUOUS
 62
    7
 10
492.54901059552367
 20
436.40291970802639
 11
492.54901059552367
 21
432.66958637469349
  0
ARC
  8
_0-b_細線3
  6
CONTINUOUS
 62
    7
 10
514.94901058963865
 20
428.66958637469372
 40
2.6666666666666674
 50
89.999999999999915
 51
179.99999999999983
  0
LINE
  8
_0-b_細線3
  6
CONTINUOUS
 62
    7
 10
514.94901058963865
 20
431.33625304135944
 11
521.61567725630539
 21
431.33625304135944
  0
ARC
  8
_0-b_細線3
  6
CONTINUOUS
 62
    7
 10
500.5490105896381
 20
428.66958637469372
 40
2.6666666666666674
 50
0
 51
89.999999999999915
  0
LINE
  8
_0-b_細線3
  6
CONTINUOUS
 62
    7
 10
500.54901059552549
 20
431.33625304135944
 11
493.88234392885738
 21
431.33625304135944
  0
LINE
  8
_0-b_細線3
  6
CONTINUOUS
 62
    7
 10
501.08234392591476
 20
441.73625304135908
 11
514.41567725924801
 21
441.73625304135908
  0
LINE
  8
_0-b_細線3
  6
CONTINUOUS
 62
    7
 10
512.28234392591503
 20
375.06958637469313
 11
512.28234392297281
 21
428.66958637469372
  0
LINE
  8
_0-b_細線3
  6
CONTINUOUS
 62
    7
 10
503.21567725924751
 20
375.06958637469313
 11
503.2156772563053
 21
428.66958637469372
  0
LINE
  8
_0-b_細線3
  6
CONTINUOUS
 62
    7
 10
503.21567725924751
 20
375.06958637469313
 11
512.28234392591503
 21
375.06958637469313
  0
ARC
  8
_0-b_細線3
  6
CONTINUOUS
 62
    7
 10
474.94901058918083
 20
436.40291970802639
 40
2.6666666666666674
 50
0
 51
89.999999999999915
  0
ARC
  8
_0-b_細線3
  6
CONTINUOUS
 62
    7
 10
473.70114607897381
 20
441.73625304135908
 40
2.6666666666666674
 50
210.00000000000179
 51
269.99999999999977
  0
ARC
  8
_0-b_細線3
  6
CONTINUOUS
 62
    7
 10
469.08234392545717
 20
439.06958637469336
 40
2.6666666666666674
 50
29.999999999984158
 51
89.999999999999929
  0
LINE
  8
_0-b_細線3
  6
CONTINUOUS
 62
    7
 10
474.94901058918083
 20
439.06958637469336
 11
473.70114607897381
 21
439.06958637469336
  0
ARC
  8
_0-b_細線3
  6
CONTINUOUS
 62
    7
 10
449.88234392839865
 20
436.40291970802639
 40
2.6666666666666674
 50
89.999999999999915
 51
179.99999999999983
  0
ARC
  8
_0-b_細線3
  6
CONTINUOUS
 62
    7
 10
451.13020843860727
 20
441.73625304135908
 40
2.6666666666666674
 50
269.99999999999977
 51
329.99999999999625
  0
ARC
  8
_0-b_細線3
  6
CONTINUOUS
 62
    7
 10
455.7490105921238
 20
439.06958637469336
 40
2.6666666666666674
 50
90.000000000031761
 51
150.00000000001586
  0
LINE
  8
_0-b_細線3
  6
CONTINUOUS
 62
    7
 10
449.88234392839865
 20
439.06958637469336
 11
451.13020843860727
 21
439.06958637469336
  0
ARC
  8
_0-b_細線3
  6
CONTINUOUS
 62
    7
 10
476.28234392251443
 20
432.66958637469349
 40
1.3333333333333337
 50
269.99999999999977
 51
359.99999999999966
  0
LINE
  8
_0-b_細線3
  6
CONTINUOUS
 62
    7
 10
477.61567725584655
 20
436.40291970802639
 11
477.61567725584655
 21
432.66958637469349
  0
ARC
  8
_0-b_細線3
  6
CONTINUOUS
 62
    7
 10
448.54901059506653
 20
432.66958637469349
 40
1.3333333333333337
 50
179.99999999999983
 51
269.99999999999977
  0
LINE
  8
_0-b_細線3
  6
CONTINUOUS
 62
    7
 10
447.21567726173294
 20
436.40291970802639
 11
447.21567726173294
 21
432.66958637469349
  0
ARC
  8
_0-b_細線3
  6
CONTINUOUS
 62
    7
 10
469.6156772558478
 20
428.66958637469372
 40
2.6666666666666674
 50
89.999999999999915
 51
179.99999999999983
  0
LINE
  8
_0-b_細線3
  6
CONTINUOUS
 62
    7
 10
469.6156772558478
 20
431.33625304135944
 11
476.28234392251443
 21
431.33625304135944
  0
ARC
  8
_0-b_細線3
  6
CONTINUOUS
 62
    7
 10
455.21567725584725
 20
428.66958637469372
 40
2.6666666666666674
 50
0
 51
89.999999999999915
  0
LINE
  8
_0-b_細線3
  6
CONTINUOUS
 62
    7
 10
455.21567726173316
 20
431.33625304135944
 11
448.54901059506653
 21
431.33625304135944
  0
LINE
  8
_0-b_細線3
  6
CONTINUOUS
 62
    7
 10
455.7490105921238
 20
441.73625304135908
 11
469.08234392545717
 21
441.73625304135908
  0
LINE
  8
_0-b_細線3
  6
CONTINUOUS
 62
    7
 10
466.9490105921243
 20
375.06958637469313
 11
466.94901058918049
 21
428.66958637469372
  0
LINE
  8
_0-b_細線3
  6
CONTINUOUS
 62
    7
 10
457.88234392545678
 20
375.06958637469313
 11
457.88234392251297
 21
428.66958637469372
  0
LINE
  8
_0-b_細線3
  6
CONTINUOUS
 62
    7
 10
457.88234392545678
 20
375.06958637469313
 11
466.9490105921243
 21
375.06958637469313
  0
ARC
  8
_0-b_細線3
  6
CONTINUOUS
 62
    7
 10
429.61567725538998
 20
436.40291970802639
 40
2.6666666666666674
 50
0
 51
89.999999999999915
  0
ARC
  8
_0-b_細線3
  6
CONTINUOUS
 62
    7
 10
428.36781274518148
 20
441.73625304135908
 40
2.6666666666666674
 50
210.00000000000179
 51
269.99999999999977
  0
ARC
  8
_0-b_細線3
  6
CONTINUOUS
 62
    7
 10
423.74901059166632
 20
439.06958637469336
 40
2.6666666666666674
 50
30.000000000000036
 51
89.999999999999929
  0
LINE
  8
_0-b_細線3
  6
CONTINUOUS
 62
    7
 10
429.61567725538998
 20
439.06958637469336
 11
428.36781274518148
 21
439.06958637469336
  0
ARC
  8
_0-b_細線3
  6
CONTINUOUS
 62
    7
 10
404.54901059460781
 20
436.40291970802639
 40
2.6666666666666674
 50
89.999999999999915
 51
179.99999999999983
  0
ARC
  8
_0-b_細線3
  6
CONTINUOUS
 62
    7
 10
405.79687510481494
 20
441.73625304135908
 40
2.6666666666666674
 50
269.99999999999977
 51
329.99999999999625
  0
ARC
  8
_0-b_細線3
  6
CONTINUOUS
 62
    7
 10
410.41567725833147
 20
439.06958637469336
 40
2.6666666666666674
 50
89.999999999999915
 51
150.00000000001586
  0
LINE
  8
_0-b_細線3
  6
CONTINUOUS
 62
    7
 10
404.54901059460781
 20
439.06958637469336
 11
405.79687510481494
 21
439.06958637469336
  0
ARC
  8
_0-b_細線3
  6
CONTINUOUS
 62
    7
 10
430.9490105887221
 20
432.66958637469349
 40
1.3333333333333337
 50
269.99999999999977
 51
359.99999999999966
  0
LINE
  8
_0-b_細線3
  6
CONTINUOUS
 62
    7
 10
432.28234392205582
 20
436.40291970802639
 11
432.28234392205582
 21
432.66958637469349
  0
ARC
  8
_0-b_細線3
  6
CONTINUOUS
 62
    7
 10
403.21567726127421
 20
432.66958637469349
 40
1.3333333333333337
 50
179.99999999999983
 51
269.99999999999977
  0
LINE
  8
_0-b_細線3
  6
CONTINUOUS
 62
    7
 10
401.88234392794209
 20
436.40291970802639
 11
401.88234392794209
 21
432.66958637469349
  0
ARC
  8
_0-b_細線3
  6
CONTINUOUS
 62
    7
 10
424.28234392205547
 20
428.66958637469372
 40
2.6666666666666674
 50
89.999999999999915
 51
179.99999999999983
  0
LINE
  8
_0-b_細線3
  6
CONTINUOUS
 62
    7
 10
424.28234392205547
 20
431.33625304135944
 11
430.9490105887221
 21
431.33625304135944
  0
ARC
  8
_0-b_細線3
  6
CONTINUOUS
 62
    7
 10
409.88234392205641
 20
428.66958637469372
 40
2.6666666666666674
 50
0
 51
89.999999999999915
  0
LINE
  8
_0-b_細線3
  6
CONTINUOUS
 62
    7
 10
409.88234392794243
 20
431.33625304135944
 11
403.21567726127421
 21
431.33625304135944
  0
LINE
  8
_0-b_細線3
  6
CONTINUOUS
 62
    7
 10
410.41567725833147
 20
441.73625304135908
 11
423.74901059166632
 21
441.73625304135908
  0
LINE
  8
_0-b_細線3
  6
CONTINUOUS
 62
    7
 10
421.61567725833197
 20
375.06958637469313
 11
421.61567725538976
 21
428.66958637469372
  0
LINE
  8
_0-b_細線3
  6
CONTINUOUS
 62
    7
 10
412.54901059166446
 20
375.06958637469313
 11
412.54901058872224
 21
428.66958637469372
  0
LINE
  8
_0-b_細線3
  6
CONTINUOUS
 62
    7
 10
412.54901059166446
 20
375.06958637469313
 11
421.61567725833197
 21
375.06958637469313
  0
ARC
  8
_0-b_細線3
  6
CONTINUOUS
 62
    7
 10
385.08234392200779
 20
436.40291970802639
 40
2.6666666666666674
 50
0
 51
89.999999999999915
  0
ARC
  8
_0-b_細線3
  6
CONTINUOUS
 62
    7
 10
383.83447941180066
 20
441.73625304135908
 40
2.6666666666666674
 50
210.00000000000301
 51
269.99999999999977
  0
ARC
  8
_0-b_細線3
  6
CONTINUOUS
 62
    7
 10
379.21567725828413
 20
439.06958637469336
 40
2.6666666666666674
 50
29.999999999984158
 51
89.999999999999929
  0
LINE
  8
_0-b_細線3
  6
CONTINUOUS
 62
    7
 10
385.08234392200779
 20
439.06958637469336
 11
383.83447941180066
 21
439.06958637469336
  0
ARC
  8
_0-b_細線3
  6
CONTINUOUS
 62
    7
 10
360.01567726122562
 20
436.40291970802639
 40
2.6666666666666674
 50
89.999999999999915
 51
179.99999999999983
  0
ARC
  8
_0-b_細線3
  6
CONTINUOUS
 62
    7
 10
361.26354177143412
 20
441.73625304135908
 40
2.6666666666666674
 50
269.99999999999977
 51
329.9999999999975
  0
ARC
  8
_0-b_細線3
  6
CONTINUOUS
 62
    7
 10
365.88234392495076
 20
439.06958637469336
 40
2.6666666666666674
 50
90.000000000031761
 51
150.00000000001586
  0
LINE
  8
_0-b_細線3
  6
CONTINUOUS
 62
    7
 10
360.01567726122562
 20
439.06958637469336
 11
361.26354177143412
 21
439.06958637469336
  0
ARC
  8
_0-b_細線3
  6
CONTINUOUS
 62
    7
 10
386.41567725534139
 20
432.66958637469349
 40
1.3333333333333337
 50
269.99999999999977
 51
359.99999999999966
  0
LINE
  8
_0-b_細線3
  6
CONTINUOUS
 62
    7
 10
387.74901058867351
 20
436.40291970802639
 11
387.74901058867351
 21
432.66958637469349
  0
ARC
  8
_0-b_細線3
  6
CONTINUOUS
 62
    7
 10
358.6823439278935
 20
432.66958637469349
 40
1.3333333333333337
 50
179.99999999999983
 51
269.99999999999977
  0
LINE
  8
_0-b_細線3
  6
CONTINUOUS
 62
    7
 10
357.34901059455979
 20
436.40291970802639
 11
357.34901059455979
 21
432.66958637469349
  0
ARC
  8
_0-b_細線3
  6
CONTINUOUS
 62
    7
 10
379.74901058867476
 20
428.66958637469372
 40
2.6666666666666674
 50
89.999999999999915
 51
179.99999999999983
  0
LINE
  8
_0-b_細線3
  6
CONTINUOUS
 62
    7
 10
379.74901058867476
 20
431.33625304135944
 11
386.41567725534139
 21
431.33625304135944
  0
ARC
  8
_0-b_細線3
  6
CONTINUOUS
 62
    7
 10
365.34901058867422
 20
428.66958637469372
 40
2.6666666666666674
 50
0
 51
89.999999999999915
  0
LINE
  8
_0-b_細線3
  6
CONTINUOUS
 62
    7
 10
365.34901059456013
 20
431.33625304135944
 11
358.6823439278935
 21
431.33625304135944
  0
LINE
  8
_0-b_細線3
  6
CONTINUOUS
 62
    7
 10
365.88234392495076
 20
441.73625304135908
 11
379.21567725828413
 21
441.73625304135908
  0
LINE
  8
_0-b_細線3
  6
CONTINUOUS
 62
    7
 10
377.08234392495115
 20
375.06958637469313
 11
377.08234392200745
 21
428.66958637469372
  0
LINE
  8
_0-b_細線3
  6
CONTINUOUS
 62
    7
 10
368.01567725828363
 20
375.06958637469313
 11
368.01567725533994
 21
428.66958637469372
  0
LINE
  8
_0-b_細線3
  6
CONTINUOUS
 62
    7
 10
368.01567725828363
 20
375.06958637469313
 11
377.08234392495115
 21
375.06958637469313
  0
ARC
  8
_0-b_細線3
  6
CONTINUOUS
 62
    7
 10
340.81567725447337
 20
436.40291970802639
 40
2.6666666666666674
 50
0
 51
89.999999999999915
  0
ARC
  8
_0-b_細線3
  6
CONTINUOUS
 62
    7
 10
339.56781274426635
 20
441.73625304135908
 40
2.6666666666666674
 50
209.99999999998593
 51
269.99999999999977
  0
ARC
  8
_0-b_細線3
  6
CONTINUOUS
 62
    7
 10
334.94901059074971
 20
439.06958637469336
 40
2.6666666666666674
 50
30.000000000000036
 51
89.999999999999929
  0
LINE
  8
_0-b_細線3
  6
CONTINUOUS
 62
    7
 10
340.81567725447337
 20
439.06958637469336
 11
339.56781274426635
 21
439.06958637469336
  0
ARC
  8
_0-b_細線3
  6
CONTINUOUS
 62
    7
 10
315.74901059369267
 20
436.40291970802639
 40
2.6666666666666674
 50
89.999999999999915
 51
179.99999999999983
  0
ARC
  8
_0-b_細線3
  6
CONTINUOUS
 62
    7
 10
316.99687510389822
 20
441.73625304135908
 40
2.6666666666666674
 50
269.99999999999977
 51
330.00000000001336
  0
ARC
  8
_0-b_細線3
  6
CONTINUOUS
 62
    7
 10
321.61567725741634
 20
439.06958637469336
 40
2.6666666666666674
 50
89.999999999999915
 51
150.00000000001586
  0
LINE
  8
_0-b_細線3
  6
CONTINUOUS
 62
    7
 10
315.74901059369267
 20
439.06958637469336
 11
316.99687510389822
 21
439.06958637469336
  0
ARC
  8
_0-b_細線3
  6
CONTINUOUS
 62
    7
 10
342.14901058780697
 20
432.66958637469349
 40
1.3333333333333337
 50
269.99999999999977
 51
359.99999999999966
  0
LINE
  8
_0-b_細線3
  6
CONTINUOUS
 62
    7
 10
343.48234392113909
 20
436.40291970802639
 11
343.48234392113909
 21
432.66958637469349
  0
ARC
  8
_0-b_細線3
  6
CONTINUOUS
 62
    7
 10
314.4156772603576
 20
432.66958637469349
 40
1.3333333333333337
 50
179.99999999999983
 51
269.99999999999977
  0
LINE
  8
_0-b_細線3
  6
CONTINUOUS
 62
    7
 10
313.08234392702548
 20
436.40291970802639
 11
313.08234392702548
 21
432.66958637469349
  0
ARC
  8
_0-b_細線3
  6
CONTINUOUS
 62
    7
 10
335.48234392113886
 20
428.66958637469372
 40
2.6666666666666674
 50
89.999999999999915
 51
179.99999999999983
  0
LINE
  8
_0-b_細線3
  6
CONTINUOUS
 62
    7
 10
335.48234392113886
 20
431.33625304135944
 11
342.14901058780697
 21
431.33625304135944
  0
ARC
  8
_0-b_細線3
  6
CONTINUOUS
 62
    7
 10
321.0823439211398
 20
428.66958637469372
 40
2.6666666666666674
 50
0
 51
89.999999999999915
  0
LINE
  8
_0-b_細線3
  6
CONTINUOUS
 62
    7
 10
321.0823439270257
 20
431.33625304135944
 11
314.4156772603576
 21
431.33625304135944
  0
LINE
  8
_0-b_細線3
  6
CONTINUOUS
 62
    7
 10
321.61567725741634
 20
441.73625304135908
 11
334.94901059074971
 21
441.73625304135908
  0
LINE
  8
_0-b_細線3
  6
CONTINUOUS
 62
    7
 10
332.81567725741525
 20
375.06958637469313
 11
332.81567725447303
 21
428.66958637469372
  0
LINE
  8
_0-b_細線3
  6
CONTINUOUS
 62
    7
 10
323.74901059074932
 20
375.06958637469313
 11
323.74901058780551
 21
428.66958637469372
  0
LINE
  8
_0-b_細線3
  6
CONTINUOUS
 62
    7
 10
323.74901059074932
 20
375.06958637469313
 11
332.81567725741525
 21
375.06958637469313
  0
LINE
  8
_0-d_寸法3
  6
CONTINUOUS
 62
    7
 10
716.63204697169567
 20
419.26455973700581
 11
709.73020576896192
 21
445.02258177138094
  0
LINE
  8
_0-d_寸法3
  6
CONTINUOUS
 62
    7
 10
716.63204697169567
 20
419.26455973700581
 11
723.53388817442919
 21
445.02258177138094
  0
LINE
  8
_0-d_寸法3
  6
CONTINUOUS
 62
    7
 10
757.90495557273061
 20
457.03162467738684
 11
705.71001971450869
 21
493.57891222168564
  0
LINE
  8
_0-d_寸法3
  6
CONTINUOUS
 62
    7
 10
716.63204697169567
 20
485.93122640367176
 11
723.53388817442919
 21
460.17320436929651
  0
LINE
  8
_0-d_寸法3
  6
CONTINUOUS
 62
    7
 10
716.63204697169567
 20
485.93122640367176
 11
709.73020576896192
 21
460.17320436929663
  0
LINE
  8
_0-d_寸法3
  6
CONTINUOUS
 62
    7
 10
716.63204697169567
 20
419.26455973700581
 11
716.63204697169567
 21
485.93122640367176
  0
LINE
  8
_0-b_細線3
  6
CONTINUOUS
 62
    7
 10
874.949010090505
 20
394.53622336288618
 11
911.21567675717188
 21
394.53622336288618
  0
LINE
  8
_0-b_細線3
  6
CONTINUOUS
 62
    7
 10
829.61567675620631
 20
394.53622336288618
 11
865.88234342287183
 21
394.53622336288618
  0
LINE
  8
_0-b_細線3
  6
CONTINUOUS
 62
    7
 10
738.94901008761053
 20
394.53622336288618
 11
775.21567675427605
 21
394.53622336288618
  0
LINE
  8
_0-b_細線3
  6
CONTINUOUS
 62
    7
 10
693.61567675331207
 20
394.53622336288618
 11
729.88234341997895
 21
394.53622336288618
  0
LINE
  8
_0-b_細線3
  6
CONTINUOUS
 62
    7
 10
648.28234341901339
 20
394.53622336288618
 11
684.54901008568049
 21
394.53622336288618
  0
LINE
  8
_0-b_細線3
  6
CONTINUOUS
 62
    7
 10
920.28234342429573
 20
394.53622336288618
 11
956.54901009096284
 21
394.53622336288618
  0
LINE
  8
_0-b_細線3
  6
CONTINUOUS
 62
    7
 10
965.61567675859283
 20
394.53622336288618
 11
1001.8823434252613
 21
394.53622336288618
  0
LINE
  8
_0-b_細線3
  6
CONTINUOUS
 62
    7
 10
602.94901008568036
 20
394.53622336288618
 11
639.21567675234746
 21
394.53622336288618
  0
LINE
  8
_0-b_細線3
  6
CONTINUOUS
 62
    7
 10
1010.9490100923852
 20
394.53622336288618
 11
1047.2156767590523
 21
394.53622336288618
  0
LINE
  8
_0-b_細線3
  6
CONTINUOUS
 62
    7
 10
1056.2823434261772
 20
394.53622336288618
 11
1092.5490100928428
 21
394.53622336288618
  0
LINE
  8
_0-b_細線3
  6
CONTINUOUS
 62
    7
 10
1101.6156767599682
 20
394.53622336288618
 11
1137.8823434266351
 21
394.53622336288618
  0
LINE
  8
_0-b_細線3
  6
CONTINUOUS
 62
    7
 10
874.949010090505
 20
429.20289002955235
 11
911.21567675717051
 21
429.20289002955235
  0
LINE
  8
_0-b_細線3
  6
CONTINUOUS
 62
    7
 10
829.61567675620631
 20
429.20289002955235
 11
865.88234342287342
 21
429.20289002955235
  0
LINE
  8
_0-b_細線3
  6
CONTINUOUS
 62
    7
 10
738.94901008761053
 20
429.20289002955235
 11
775.21567675427764
 21
429.20289002955235
  0
LINE
  8
_0-b_細線3
  6
CONTINUOUS
 62
    7
 10
693.61567675331207
 20
429.20289002955235
 11
729.88234341997895
 21
429.20289002955235
  0
LINE
  8
_0-b_細線3
  6
CONTINUOUS
 62
    7
 10
648.28234341901339
 20
429.20289002955235
 11
684.54901008568049
 21
429.20289002955235
  0
LINE
  8
_0-b_細線3
  6
CONTINUOUS
 62
    7
 10
920.28234342429573
 20
429.20289002955235
 11
956.54901009096284
 21
429.20289002955235
  0
LINE
  8
_0-b_細線3
  6
CONTINUOUS
 62
    7
 10
965.61567675859442
 20
429.20289002955235
 11
1001.8823434252613
 21
429.20289002955235
  0
LINE
  8
_0-b_細線3
  6
CONTINUOUS
 62
    7
 10
602.94901008568036
 20
429.20289002955235
 11
639.21567675234746
 21
429.20289002955235
  0
LINE
  8
_0-b_細線3
  6
CONTINUOUS
 62
    7
 10
1010.9490100923852
 20
429.20289002955235
 11
1047.2156767590523
 21
429.20289002955235
  0
LINE
  8
_0-b_細線3
  6
CONTINUOUS
 62
    7
 10
1056.2823434261759
 20
429.20289002955235
 11
1092.5490100928428
 21
429.20289002955235
  0
LINE
  8
_0-b_細線3
  6
CONTINUOUS
 62
    7
 10
1101.6156767599682
 20
429.20289002955235
 11
1137.8823434266351
 21
429.20289002955235
  0
LINE
  8
_0-b_細線3
  6
CONTINUOUS
 62
    7
 10
1146.9490100933513
 20
394.53622336288618
 11
1182.4156767600161
 21
394.53622336288618
  0
LINE
  8
_0-b_細線3
  6
CONTINUOUS
 62
    7
 10
1146.9490100933499
 20
429.20289002955235
 11
1182.4156767600161
 21
429.20289002955235
  0
ARC
  8
_0-b_細線3
  6
CONTINUOUS
 62
    7
 10
1239.2070047595589
 20
395.06955669621902
 40
0.5333333333333335
 50
269.99999999999977
 51
359.99999999999966
  0
LINE
  8
_0-b_細線3
  6
CONTINUOUS
 62
    7
 10
1235.7490100928917
 20
394.53622336288618
 11
1239.2070047595589
 21
394.53622336288618
  0
ARC
  8
_0-b_細線3
  6
CONTINUOUS
 62
    7
 10
1239.2070047595589
 20
428.66955669621916
 40
0.5333333333333335
 50
0
 51
89.999999999999915
  0
LINE
  8
_0-b_細線3
  6
CONTINUOUS
 62
    7
 10
1235.7490100928917
 20
429.20289002955315
 11
1239.2070047595589
 21
429.20289002955315
  0
LINE
  8
_0-b_細線3
  6
CONTINUOUS
 62
    7
 10
1239.7403380928936
 20
410.53622336288606
 11
1239.7403380928936
 21
395.06955669621902
  0
LINE
  8
_0-b_細線3
  6
CONTINUOUS
 62
    7
 10
1239.7403380928936
 20
428.66955669621916
 11
1239.7403380928936
 21
410.53622336288606
  0
LINE
  8
_0-b_細線3
  6
CONTINUOUS
 62
    7
 10
1239.7403380928936
 20
411.86955669621886
 11
1247.7523807595594
 21
411.86955669621886
  0
LINE
  8
_0-b_細線3
  6
CONTINUOUS
 62
    7
 10
1239.7403380928936
 20
402.53622336288652
 11
1247.7524127595575
 21
402.53622336288652
  0
ARC
  8
_0-b_細線3
  6
CONTINUOUS
 62
    7
 10
1247.7524127595575
 20
403.06955669621937
 40
0.5333333333333335
 50
269.99999999999977
 51
359.99999999999966
  0
ARC
  8
_0-b_細線3
  6
CONTINUOUS
 62
    7
 10
1227.5977994262266
 20
407.20250069622045
 40
20.687882666666667
 50
346.96432999999911
 51
13.038021999995184
  0
ARC
  8
_0-b_細線3
  6
CONTINUOUS
 62
    7
 10
1247.7524127595575
 20
420.66955669622075
 40
0.5333333333333335
 50
0
 51
89.999999999999915
  0
ARC
  8
_0-b_細線3
  6
CONTINUOUS
 62
    7
 10
1227.5977994262266
 20
416.53660736288509
 40
20.687882666666667
 50
346.96197800000101
 51
13.035670000000184
  0
LINE
  8
_0-b_細線3
  6
CONTINUOUS
 62
    7
 10
1239.7403380928936
 20
421.2028900295536
 11
1247.7524127595575
 21
421.2028900295536
  0
LINE
  8
_0-b_細線3
  6
CONTINUOUS
 62
    7
 10
1248.2857460928917
 20
403.06955669621937
 11
1248.2857460928917
 21
420.66955669622075
  0
LINE
  8
_0-b_細線3
  6
CONTINUOUS
 62
    7
 10
1191.4823434271411
 20
394.53622336288618
 11
1226.6823434271428
 21
394.53622336288618
  0
LINE
  8
_0-b_細線3
  6
CONTINUOUS
 62
    7
 10
1191.4823434271411
 20
429.20289002955235
 11
1226.6823434271409
 21
429.20289002955235
  0
LINE
  8
_0-b_細線3
  6
CONTINUOUS
 62
    7
 10
593.88234392586673
 20
394.53622336288618
 11
557.61567725919963
 21
394.53622336288618
  0
LINE
  8
_0-b_細線3
  6
CONTINUOUS
 62
    7
 10
548.54901059207441
 20
394.53622336288618
 11
512.2823439254073
 21
394.53622336288618
  0
LINE
  8
_0-b_細線3
  6
CONTINUOUS
 62
    7
 10
503.21567725828208
 20
394.53622336288618
 11
466.94901059161646
 21
394.53622336288618
  0
LINE
  8
_0-b_細線3
  6
CONTINUOUS
 62
    7
 10
457.88234392449112
 20
394.53622336288618
 11
421.61567725782413
 21
394.53622336288618
  0
LINE
  8
_0-b_細線3
  6
CONTINUOUS
 62
    7
 10
593.88234392586673
 20
429.20289002955235
 11
557.61567725919963
 21
429.20289002955235
  0
LINE
  8
_0-b_細線3
  6
CONTINUOUS
 62
    7
 10
548.54901059207441
 20
429.20289002955235
 11
512.2823439254073
 21
429.20289002955235
  0
LINE
  8
_0-b_細線3
  6
CONTINUOUS
 62
    7
 10
503.21567725828345
 20
429.20289002955235
 11
466.94901059161646
 21
429.20289002955235
  0
LINE
  8
_0-b_細線3
  6
CONTINUOUS
 62
    7
 10
457.88234392449272
 20
429.20289002955235
 11
421.61567725782561
 21
429.20289002955235
  0
LINE
  8
_0-b_細線3
  6
CONTINUOUS
 62
    7
 10
412.54901059110966
 20
394.53622336288618
 11
377.08234392444342
 21
394.53622336288618
  0
LINE
  8
_0-b_細線3
  6
CONTINUOUS
 62
    7
 10
412.54901059110966
 20
429.20289002955235
 11
377.08234392444342
 21
429.20289002955235
  0
ARC
  8
_0-b_細線3
  6
CONTINUOUS
 62
    7
 10
320.29101592490031
 20
395.06955669621902
 40
0.5333333333333335
 50
179.99999999999983
 51
269.99999999999977
  0
LINE
  8
_0-b_細線3
  6
CONTINUOUS
 62
    7
 10
323.74901059156787
 20
394.53622336288618
 11
320.29101592490031
 21
394.53622336288618
  0
ARC
  8
_0-b_細線3
  6
CONTINUOUS
 62
    7
 10
320.29101592490031
 20
428.66955669621916
 40
0.5333333333333335
 50
89.999999999999915
 51
179.99999999999983
  0
LINE
  8
_0-b_細線3
  6
CONTINUOUS
 62
    7
 10
323.74901059156787
 20
429.20289002955315
 11
320.29101592490031
 21
429.20289002955315
  0
LINE
  8
_0-b_細線3
  6
CONTINUOUS
 62
    7
 10
319.75768259156746
 20
410.53622336288606
 11
319.75768259156746
 21
395.06955669621902
  0
LINE
  8
_0-b_細線3
  6
CONTINUOUS
 62
    7
 10
319.75768259156746
 20
428.66955669621916
 11
319.75768259156746
 21
410.53622336288606
  0
LINE
  8
_0-b_細線3
  6
CONTINUOUS
 62
    7
 10
319.75768259156746
 20
411.86955669621886
 11
311.74563992489993
 21
411.86955669621886
  0
LINE
  8
_0-b_細線3
  6
CONTINUOUS
 62
    7
 10
319.75768259156746
 20
402.53622336288652
 11
311.74560792490183
 21
402.53622336288652
  0
ARC
  8
_0-b_細線3
  6
CONTINUOUS
 62
    7
 10
311.74560792490183
 20
403.06955669621937
 40
0.5333333333333335
 50
179.99999999999983
 51
269.99999999999977
  0
ARC
  8
_0-b_細線3
  6
CONTINUOUS
 62
    7
 10
331.90022125823441
 20
407.20250069622045
 40
20.687882666666667
 50
166.96197800000442
 51
193.03566999999904
  0
ARC
  8
_0-b_細線3
  6
CONTINUOUS
 62
    7
 10
311.74560792490183
 20
420.66955669622075
 40
0.5333333333333335
 50
89.999999999999915
 51
179.99999999999983
  0
ARC
  8
_0-b_細線3
  6
CONTINUOUS
 62
    7
 10
331.90022125823441
 20
416.53660736288509
 40
20.687882666666667
 50
166.96433000000061
 51
193.03802199999825
  0
LINE
  8
_0-b_細線3
  6
CONTINUOUS
 62
    7
 10
319.75768259156746
 20
421.2028900295536
 11
311.74560792490183
 21
421.2028900295536
  0
LINE
  8
_0-b_細線3
  6
CONTINUOUS
 62
    7
 10
311.21227459156751
 20
403.06955669621937
 11
311.21227459156751
 21
420.66955669622075
  0
LINE
  8
_0-b_細線3
  6
CONTINUOUS
 62
    7
 10
368.01567725731809
 20
394.53622336288618
 11
332.81567725731827
 21
394.53622336288618
  0
LINE
  8
_0-b_細線3
  6
CONTINUOUS
 62
    7
 10
368.01567725731957
 20
429.20289002955235
 11
332.81567725731827
 21
429.20289002955235
  0
LINE
  8
_0-a_極細3
  6
CENTER1
 62
    7
 10
1262.9490100871044
 20
411.86958637469274
 11
291.71842404838651
 21
411.86958637469274
  0
LINE
  8
_0-b_細線3
  6
CONTINUOUS
 62
    7
 10
784.28234342190922
 20
429.20289002955235
 11
796.1490100890569
 21
429.20289002955235
  0
LINE
  8
_0-b_細線3
  6
CONTINUOUS
 62
    7
 10
808.68234342239134
 20
429.20289002955235
 11
820.54901008857473
 21
429.20289002955235
  0
LINE
  8
_0-b_細線3
  6
CONTINUOUS
 62
    7
 10
784.28234342147584
 20
394.53622336288618
 11
796.14901008905713
 21
394.53622336288618
  0
LINE
  8
_0-b_細線3
  6
CONTINUOUS
 62
    7
 10
808.68234342239134
 20
394.53622336288618
 11
820.54901008857473
 21
394.53622336288618
  0
LINE
  8
_0-b_細線3
  6
CONTINUOUS
 62
    7
 10
808.68234342239134
 20
442.27022973417945
 11
808.68234342239134
 21
388.93689640084506
  0
LINE
  8
_0-b_細線3
  6
CONTINUOUS
 62
    7
 10
796.14901008905713
 20
388.93689640084506
 11
796.14901008905713
 21
442.27022973417945
  0
LINE
  8
_0-b_細線3
  6
CONTINUOUS
 62
    7
 10
808.68234342239134
 20
388.93689640084506
 11
796.14901008905713
 21
388.93689640084506
  0
LINE
  8
_0-b_細線3
  6
CONTINUOUS
 62
    7
 10
796.14901008905713
 20
442.27022973417945
 11
808.68234342239134
 21
442.27022973417945
  0
LINE
  8
_0-b_細線3
  6
DASHED2
 62
    7
 10
796.14901008905713
 20
396.93689640084506
 11
808.68234342239134
 21
396.93689640084506
  0
LINE
  8
_0-b_細線3
  6
DASHED2
 62
    7
 10
796.14901008905713
 20
434.27022973417945
 11
808.68234342239134
 21
434.27022973417945
  0
LINE
  8
_0-a_極細3
  6
CONTINUOUS
 62
    7
 10
1259.7490100871041
 20
441.73625304135908
 11
1415.7667388526215
 21
441.73625304135908
  0
LINE
  8
_0-a_極細3
  6
CONTINUOUS
 62
    7
 10
299.74901008710435
 20
441.73625304135908
 11
143.73128132158695
 21
441.73625304135908
  0
LINE
  8
_0-b_細線3
  6
CONTINUOUS
 62
    7
 10
299.74901008710458
 20
399.06958637469165
 11
299.74901008710458
 21
305.73625304135851
  0
LINE
  8
_0-b_細線3
  6
CONTINUOUS
 62
    7
 10
299.74901008710458
 20
305.73625304135851
 11
293.61567675377137
 21
305.73625304135851
  0
LINE
  8
_0-b_細線3
  6
CONTINUOUS
 62
    7
 10
293.61567675377137
 20
305.73625304135851
 11
293.61567675377137
 21
399.06958637469165
  0
LINE
  8
_0-b_細線3
  6
CONTINUOUS
 62
    7
 10
293.61567675377137
 20
399.06958637469165
 11
299.74901008710458
 21
399.06958637469165
  0
LINE
  8
_0-a_極細3
  6
CONTINUOUS
 62
    7
 10
293.61567675377137
 20
356.40291970802502
 11
299.74901008710458
 21
356.40291970802502
  0
LINE
  8
_0-a_極細3
  6
CONTINUOUS
 62
    7
 10
293.61567675377137
 20
361.7362530413584
 11
299.74901008710458
 21
361.7362530413584
  0
LINE
  8
_0-a_極細3
  6
CONTINUOUS
 62
    7
 10
293.61567675377137
 20
351.06958637469165
 11
299.74901008710458
 21
351.06958637469165
  0
LINE
  8
_0-a_極細3
  6
CONTINUOUS
 62
    7
 10
293.61567675377137
 20
367.06958637469165
 11
299.74901008710458
 21
367.06958637469165
  0
LINE
  8
_0-a_極細3
  6
CONTINUOUS
 62
    7
 10
299.74901008710458
 20
313.7362530413584
 11
293.61567675377137
 21
313.7362530413584
  0
LINE
  8
_0-a_極細3
  6
CONTINUOUS
 62
    7
 10
293.61567675377137
 20
393.7362530413584
 11
299.74901008710458
 21
393.7362530413584
  0
LINE
  8
_0-b_細線3
  6
CONTINUOUS
 62
    7
 10
1259.7490100871041
 20
399.06958637469324
 11
1259.7490100871041
 21
305.73625304135999
  0
LINE
  8
_0-b_細線3
  6
CONTINUOUS
 62
    7
 10
1259.7490100871041
 20
305.73625304135999
 11
1265.8823434204378
 21
305.73625304135999
  0
LINE
  8
_0-b_細線3
  6
CONTINUOUS
 62
    7
 10
1265.8823434204378
 20
305.73625304135999
 11
1265.8823434204378
 21
399.06958637469324
  0
LINE
  8
_0-b_細線3
  6
CONTINUOUS
 62
    7
 10
1265.8823434204378
 20
399.06958637469324
 11
1259.7490100871041
 21
399.06958637469324
  0
LINE
  8
_0-a_極細3
  6
CONTINUOUS
 62
    7
 10
1265.8823434204378
 20
356.4029197080265
 11
1259.7490100871041
 21
356.4029197080265
  0
LINE
  8
_0-a_極細3
  6
CONTINUOUS
 62
    7
 10
1265.8823434204378
 20
361.73625304135987
 11
1259.7490100871041
 21
361.73625304135987
  0
LINE
  8
_0-a_極細3
  6
CONTINUOUS
 62
    7
 10
1265.8823434204378
 20
351.06958637469324
 11
1259.7490100871041
 21
351.06958637469324
  0
LINE
  8
_0-a_極細3
  6
CONTINUOUS
 62
    7
 10
1265.8823434204378
 20
367.06958637469313
 11
1259.7490100871041
 21
367.06958637469313
  0
LINE
  8
_0-a_極細3
  6
CONTINUOUS
 62
    7
 10
1259.7490100871041
 20
313.73625304135987
 11
1265.8823434204378
 21
313.73625304135987
  0
LINE
  8
_0-a_極細3
  6
CONTINUOUS
 62
    7
 10
1265.8823434204378
 20
393.73625304135987
 11
1259.7490100871041
 21
393.73625304135987
  0
LINE
  8
_0-d_寸法3
  6
CONTINUOUS
 62
    7
 10
915.74901008999859
 20
457.73566903867288
 11
915.74901008999859
 21
529.73625304135896
  0
LINE
  8
_0-d_寸法3
  6
CONTINUOUS
 62
    7
 10
915.74901008999859
 20
521.73625304135896
 11
931.20382331062365
 21
525.87735776299928
  0
LINE
  8
_0-d_寸法3
  6
CONTINUOUS
 62
    7
 10
915.74901008999859
 20
521.73625304135896
 11
931.20382331062365
 21
517.59514831971865
  0
LINE
  8
_0-d_寸法3
  6
CONTINUOUS
 62
    7
 10
961.08234342429728
 20
457.73566903867288
 11
961.08234342429728
 21
529.73625304135896
  0
LINE
  8
_0-d_寸法3
  6
CONTINUOUS
 62
    7
 10
961.08234342429728
 20
521.73625304135896
 11
945.62753020367222
 21
517.59514831971865
  0
LINE
  8
_0-d_寸法3
  6
CONTINUOUS
 62
    7
 10
961.08234342429728
 20
521.73625304135896
 11
945.62753020367222
 21
525.8773577629994
  0
LINE
  8
_0-d_寸法3
  6
CONTINUOUS
 62
    7
 10
915.74901008999859
 20
521.73625304135896
 11
961.08234342429728
 21
521.73625304135896
  0
TEXT
  8
_0-d_寸法3
 62
    7
 10
912.56611308897982
 20
497.73625304135896
 40
24
 41
1
 50
0
  1
(17)
  0
LINE
  8
_0-d_寸法3
  6
CONTINUOUS
 62
    7
 10
961.08234342429728
 20
521.73625304135896
 11
976.53715664492245
 21
525.87735776299917
  0
LINE
  8
_0-d_寸法3
  6
CONTINUOUS
 62
    7
 10
961.08234342429728
 20
521.73625304135896
 11
976.53715664492233
 21
517.59514831971853
  0
LINE
  8
_0-d_寸法3
  6
CONTINUOUS
 62
    7
 10
1006.4156767585944
 20
457.73566903867288
 11
1006.4156767585944
 21
529.73625304135896
  0
LINE
  8
_0-d_寸法3
  6
CONTINUOUS
 62
    7
 10
1006.4156767585944
 20
521.73625304135896
 11
990.96086353796932
 21
517.59514831971865
  0
LINE
  8
_0-d_寸法3
  6
CONTINUOUS
 62
    7
 10
1006.4156767585944
 20
521.73625304135896
 11
990.96086353796932
 21
525.8773577629994
  0
LINE
  8
_0-d_寸法3
  6
CONTINUOUS
 62
    7
 10
961.08234342429728
 20
521.73625304135896
 11
1006.4156767585944
 21
521.73625304135896
  0
TEXT
  8
_0-d_寸法3
 62
    7
 10
961.20611308897992
 20
521.73625304135896
 40
24
 41
1
 50
0
  1
(17)
  0
LINE
  8
_0-d_寸法3
  6
CONTINUOUS
 62
    7
 10
299.74901008710435
 20
449.73625304135908
 11
299.74901008710435
 21
641.73625304135908
  0
LINE
  8
_0-d_寸法3
  6
CONTINUOUS
 62
    7
 10
299.74901008710435
 20
633.73625304135908
 11
315.20382330772941
 21
637.8773577629994
  0
LINE
  8
_0-d_寸法3
  6
CONTINUOUS
 62
    7
 10
299.74901008710435
 20
633.73625304135908
 11
315.20382330772941
 21
629.59514831971876
  0
LINE
  8
_0-d_寸法3
  6
CONTINUOUS
 62
    7
 10
1259.7490100871041
 20
449.73625304135908
 11
1259.7490100871046
 21
641.73625304135908
  0
LINE
  8
_0-d_寸法3
  6
CONTINUOUS
 62
    7
 10
1259.7490100871046
 20
633.73625304135908
 11
1244.2941968664795
 21
629.59514831971876
  0
LINE
  8
_0-d_寸法3
  6
CONTINUOUS
 62
    7
 10
1259.7490100871046
 20
633.73625304135908
 11
1244.2941968664795
 21
637.87735776299951
  0
LINE
  8
_0-d_寸法3
  6
CONTINUOUS
 62
    7
 10
299.74901008710435
 20
633.73625304135908
 11
1259.7490100871046
 21
633.73625304135908
  0
TEXT
  8
_0-d_寸法3
 62
    7
 10
761.74901008710458
 20
633.73625304135908
 40
24
 41
1
 50
0
  1
360
  0
LINE
  8
_0-d_寸法3
  6
CONTINUOUS
 62
    7
 10
283.74901008710435
 20
367.06958637469165
 11
205.61567675377137
 21
367.06958637469154
  0
LINE
  8
_0-d_寸法3
  6
CONTINUOUS
 62
    7
 10
213.61567675377137
 20
367.06958637469154
 11
217.75678147541169
 21
351.61477315406643
  0
LINE
  8
_0-d_寸法3
  6
CONTINUOUS
 62
    7
 10
213.61567675377137
 20
367.06958637469154
 11
209.47457203213105
 21
351.61477315406648
  0
LINE
  8
_0-d_寸法3
  6
CONTINUOUS
 62
    7
 10
280.54901008710419
 20
305.73625304135817
 11
205.61567675377137
 21
305.73625304135805
  0
LINE
  8
_0-d_寸法3
  6
CONTINUOUS
 62
    7
 10
213.61567675377137
 20
305.73625304135805
 11
209.47457203213094
 21
321.19106626198311
  0
LINE
  8
_0-d_寸法3
  6
CONTINUOUS
 62
    7
 10
213.61567675377137
 20
305.73625304135805
 11
217.75678147541157
 21
321.19106626198322
  0
LINE
  8
_0-d_寸法3
  6
CONTINUOUS
 62
    7
 10
213.61567675377137
 20
367.06958637469154
 11
213.61567675377137
 21
305.73625304135805
  0
TEXT
  8
_0-d_寸法3
 62
    7
 10
213.61567675377137
 20
324.4029197080248
 40
24
 41
1
 50
90
  1
23
  0
LINE
  8
_0-d_寸法3
  6
CONTINUOUS
 62
    7
 10
283.74901008710435
 20
441.73625304135834
 11
205.61567675377137
 21
441.73625304135828
  0
LINE
  8
_0-d_寸法3
  6
CONTINUOUS
 62
    7
 10
213.61567675377137
 20
441.73625304135828
 11
217.75678147541169
 21
426.28143982073317
  0
LINE
  8
_0-d_寸法3
  6
CONTINUOUS
 62
    7
 10
213.61567675377137
 20
441.73625304135828
 11
209.47457203213105
 21
426.28143982073323
  0
LINE
  8
_0-d_寸法3
  6
CONTINUOUS
 62
    7
 10
280.54901008710419
 20
367.06958637469165
 11
205.61567675377137
 21
367.06958637469154
  0
LINE
  8
_0-d_寸法3
  6
CONTINUOUS
 62
    7
 10
213.61567675377137
 20
367.06958637469154
 11
209.47457203213094
 21
382.52439959531659
  0
LINE
  8
_0-d_寸法3
  6
CONTINUOUS
 62
    7
 10
213.61567675377137
 20
367.06958637469154
 11
217.75678147541157
 21
382.52439959531665
  0
LINE
  8
_0-d_寸法3
  6
CONTINUOUS
 62
    7
 10
213.61567675377137
 20
441.73625304135828
 11
213.61567675377137
 21
367.06958637469154
  0
TEXT
  8
_0-d_寸法3
 62
    7
 10
213.61567675377137
 20
392.40291970802491
 40
24
 41
1
 50
90
  1
28
  0
LINE
  8
_0-d_寸法3
  6
CONTINUOUS
 62
    7
 10
1259.7490100871041
 20
289.73625304135885
 11
1259.7490100871041
 21
217.73625304135851
  0
LINE
  8
_0-d_寸法3
  6
CONTINUOUS
 62
    7
 10
1259.7490100871041
 20
225.73625304135851
 11
1244.2941968664791
 21
221.59514831971819
  0
LINE
  8
_0-d_寸法3
  6
CONTINUOUS
 62
    7
 10
1259.7490100871041
 20
225.73625304135851
 11
1244.2941968664791
 21
229.87735776299883
  0
LINE
  8
_0-d_寸法3
  6
CONTINUOUS
 62
    7
 10
1179.7490100871044
 20
351.06958637469165
 11
1179.7490100871055
 21
217.73625304135851
  0
LINE
  8
_0-d_寸法3
  6
CONTINUOUS
 62
    7
 10
1179.7490100871055
 20
225.73625304135851
 11
1195.2038233077305
 21
229.87735776299883
  0
LINE
  8
_0-d_寸法3
  6
CONTINUOUS
 62
    7
 10
1179.7490100871055
 20
225.73625304135851
 11
1195.2038233077305
 21
221.59514831971819
  0
LINE
  8
_0-d_寸法3
  6
CONTINUOUS
 62
    7
 10
1259.7490100871041
 20
225.73625304135851
 11
1179.7490100871055
 21
225.73625304135851
  0
TEXT
  8
_0-d_寸法3
 62
    7
 10
1207.749010087105
 20
225.73625304135851
 40
24
 41
1
 50
0
  1
30
  0
LINE
  8
_0-d_寸法3
  6
CONTINUOUS
 62
    7
 10
299.74901008710412
 20
289.73625304135885
 11
299.74901008710287
 21
217.73625304135851
  0
LINE
  8
_0-d_寸法3
  6
CONTINUOUS
 62
    7
 10
299.74901008710299
 20
225.73625304135851
 11
315.20382330772804
 21
229.87735776299883
  0
LINE
  8
_0-d_寸法3
  6
CONTINUOUS
 62
    7
 10
299.74901008710299
 20
225.73625304135851
 11
315.20382330772804
 21
221.59514831971819
  0
LINE
  8
_0-d_寸法3
  6
CONTINUOUS
 62
    7
 10
379.74901008710412
 20
351.06958637469165
 11
379.74901008710208
 21
217.73625304135851
  0
LINE
  8
_0-d_寸法3
  6
CONTINUOUS
 62
    7
 10
379.74901008710219
 20
225.73625304135851
 11
364.29419686647702
 21
221.59514831971819
  0
LINE
  8
_0-d_寸法3
  6
CONTINUOUS
 62
    7
 10
379.74901008710219
 20
225.73625304135851
 11
364.29419686647714
 21
229.87735776299883
  0
LINE
  8
_0-d_寸法3
  6
CONTINUOUS
 62
    7
 10
299.74901008710299
 20
225.73625304135851
 11
379.74901008710219
 21
225.73625304135851
  0
TEXT
  8
_0-d_寸法3
 62
    7
 10
327.74901008710231
 20
225.73625304135851
 40
24
 41
1
 50
0
  1
30
  0
LINE
  8
_0-d_寸法3
  6
CONTINUOUS
 62
    7
 10
379.74901008710435
 20
359.06958637469165
 11
379.74901008710367
 21
217.73625304135851
  0
LINE
  8
_0-d_寸法3
  6
CONTINUOUS
 62
    7
 10
379.74901008710378
 20
225.73625304135851
 11
395.20382330772895
 21
229.87735776299883
  0
LINE
  8
_0-d_寸法3
  6
CONTINUOUS
 62
    7
 10
379.74901008710378
 20
225.73625304135851
 11
395.20382330772895
 21
221.59514831971819
  0
LINE
  8
_0-d_寸法3
  6
CONTINUOUS
 62
    7
 10
1179.7490100871041
 20
359.06958637469165
 11
1179.7490100871037
 21
217.73625304135851
  0
LINE
  8
_0-d_寸法3
  6
CONTINUOUS
 62
    7
 10
1179.7490100871037
 20
225.73625304135851
 11
1164.2941968664786
 21
221.59514831971819
  0
LINE
  8
_0-d_寸法3
  6
CONTINUOUS
 62
    7
 10
1179.7490100871037
 20
225.73625304135851
 11
1164.2941968664786
 21
229.87735776299883
  0
LINE
  8
_0-d_寸法3
  6
CONTINUOUS
 62
    7
 10
379.74901008710378
 20
225.73625304135851
 11
1179.7490100871037
 21
225.73625304135851
  0
TEXT
  8
_0-d_寸法3
 62
    7
 10
761.7490100871039
 20
225.73625304135851
 40
24
 41
1
 50
0
  1
300
  0
TEXT
  8
_0-7_枠細線
 62
    5
 10
706.45262249882239
 20
141.76475063666123
 40
40
 41
0.8
 50
0
  1
断面詳細図
  0
LINE
  8
_0-7_枠細線
  6
CONTINUOUS
 62
    5
 10
1295.3724488592288
 20
379.3371759657652
 11
1283.3724488592288
 21
403.3371759657652
  0
LINE
  8
_0-7_枠細線
  6
CONTINUOUS
 62
    5
 10
1271.3724488592288
 20
379.3371759657652
 11
1295.3724488592288
 21
379.3371759657652
  0
LINE
  8
_0-7_枠細線
  6
CONTINUOUS
 62
    5
 10
1283.3724488592288
 20
403.3371759657652
 11
1271.3724488592288
 21
379.3371759657652
  0
TEXT
  8
_0-7_枠細線
 62
    5
 10
1275.156690888266
 20
377.81906402200536
 40
20
 41
0.8
 50
0
  1
５
  0
ARC
  8
_0-0_計極細
  6
CONTINUOUS
 62
    2
 10
267.19523124378725
 20
1228.3467153284598
 40
11.295514677412786
 50
138.39585046827571
 51
221.60414953172395
  0
ARC
  8
_0-0_計極細
  6
CONTINUOUS
 62
    2
 10
250.30278893041691
 20
1213.346715328458
 40
11.295514677412786
 50
318.39585046827227
 51
41.60414953172549
  0
LINE
  8
_0-1_計細線
  6
CONTINUOUS
 62
    3
 10
258.74901008710117
 20
1235.8467153284598
 11
1300.7490100871021
 21
1235.8467153284598
  0
ARC
  8
_0-0_計極細
  6
CONTINUOUS
 62
    2
 10
1309.1952312437882
 20
1228.3467153284598
 40
11.295514677412786
 50
138.39585046827571
 51
221.60414953172395
  0
ARC
  8
_0-0_計極細
  6
CONTINUOUS
 62
    2
 10
1292.3027889304178
 20
1213.346715328458
 40
11.295514677412786
 50
318.39585046827534
 51
41.604149531723962
  0
LINE
  8
_0-1_計細線
  6
CONTINUOUS
 62
    3
 10
256.8347943887286
 20
1232.8467153284598
 11
1298.8347943887295
 21
1232.8467153284598
  0
LINE
  8
_0-1_計細線
  6
CONTINUOUS
 62
    3
 10
1279.249010087103
 20
1205.8467153284598
 11
1300.7490100871021
 21
1205.8467153284598
  0
LINE
  8
_0-1_計細線
  6
CONTINUOUS
 62
    3
 10
258.74901008710117
 20
1205.8467153284598
 11
280.24901008710299
 21
1205.8467153284598
  0
ARC
  8
_0-0_計極細
  6
CONTINUOUS
 62
    2
 10
267.19523124378725
 20
898.34671532845982
 40
11.295514677412786
 50
138.39585046827415
 51
221.60414953172548
  0
ARC
  8
_0-0_計極細
  6
CONTINUOUS
 62
    2
 10
250.30278893041691
 20
883.346715328458
 40
11.295514677412786
 50
318.39585046827534
 51
41.604149531723962
  0
LINE
  8
_0-1_計細線
  6
CONTINUOUS
 62
    3
 10
1300.749010087103
 20
875.84671532846073
 11
258.74901008710208
 21
875.84671532846073
  0
ARC
  8
_0-0_計極細
  6
CONTINUOUS
 62
    2
 10
1309.1952312437882
 20
898.34671532845982
 40
11.295514677412786
 50
138.39585046827264
 51
221.60414953172702
  0
ARC
  8
_0-0_計極細
  6
CONTINUOUS
 62
    2
 10
1292.3027889304178
 20
883.346715328458
 40
11.295514677412786
 50
318.39585046827534
 51
41.604149531723962
  0
LINE
  8
_0-1_計細線
  6
CONTINUOUS
 62
    3
 10
1302.6632257854774
 20
878.84671532846073
 11
260.66322578547783
 21
878.84671532846073
  0
LINE
  8
_0-1_計細線
  6
CONTINUOUS
 62
    3
 10
1279.249010087103
 20
905.84671532846073
 11
1300.749010087103
 21
905.84671532846073
  0
LINE
  8
_0-1_計細線
  6
CONTINUOUS
 62
    3
 10
258.74901008710208
 20
905.84671532846073
 11
280.24901008710299
 21
905.84671532846073
  0
LINE
  8
_0-1_計細線
  6
CONTINUOUS
 62
    3
 10
280.24901008710299
 20
1033.1467153284646
 11
1279.249010087103
 21
1033.1467153284646
  0
LINE
  8
_0-1_計細線
  6
CONTINUOUS
 62
    3
 10
280.24901008710299
 20
1044.5467153284651
 11
1279.249010087103
 21
1044.5467153284651
  0
LINE
  8
_0-1_計細線
  6
CONTINUOUS
 62
    3
 10
280.24901008710299
 20
1033.1467153284646
 11
280.24901008710299
 21
1044.5467153284651
  0
LINE
  8
_0-1_計細線
  6
CONTINUOUS
 62
    3
 10
1279.249010087103
 20
1033.1467153284646
 11
1279.249010087103
 21
1044.5467153284651
  0
LINE
  8
_0-0_計極細
  6
CONTINUOUS
 62
    2
 10
280.24901008710299
 20
1041.3467153284648
 11
1279.249010087103
 21
1041.3467153284648
  0
LINE
  8
_0-0_計極細
  6
CONTINUOUS
 62
    2
 10
280.24901008710299
 20
1036.3467153284648
 11
1279.249010087103
 21
1036.3467153284648
  0
LINE
  8
_0-1_計細線
  6
CONTINUOUS
 62
    3
 10
280.24901008710299
 20
1129.5467153284624
 11
1279.249010087103
 21
1129.5467153284624
  0
LINE
  8
_0-1_計細線
  6
CONTINUOUS
 62
    3
 10
280.24901008710299
 20
1118.1467153284618
 11
1279.249010087103
 21
1118.1467153284618
  0
LINE
  8
_0-1_計細線
  6
CONTINUOUS
 62
    3
 10
280.24901008710299
 20
1129.5467153284624
 11
280.24901008710299
 21
1118.1467153284618
  0
LINE
  8
_0-1_計細線
  6
CONTINUOUS
 62
    3
 10
1279.249010087103
 20
1129.5467153284624
 11
1279.249010087103
 21
1118.1467153284618
  0
LINE
  8
_0-0_計極細
  6
CONTINUOUS
 62
    2
 10
280.24901008710299
 20
1121.3467153284621
 11
1279.249010087103
 21
1121.3467153284621
  0
LINE
  8
_0-0_計極細
  6
CONTINUOUS
 62
    2
 10
280.24901008710299
 20
1126.3467153284621
 11
1279.249010087103
 21
1126.3467153284621
  0
LINE
  8
_0-1_計細線
  6
CONTINUOUS
 62
    3
 10
280.24901008710299
 20
1095.5467153284624
 11
1279.249010087103
 21
1095.5467153284624
  0
LINE
  8
_0-1_計細線
  6
CONTINUOUS
 62
    3
 10
280.24901008710299
 20
1084.1467153284618
 11
1279.249010087103
 21
1084.1467153284618
  0
LINE
  8
_0-1_計細線
  6
CONTINUOUS
 62
    3
 10
280.24901008710299
 20
1095.5467153284624
 11
280.24901008710299
 21
1084.1467153284618
  0
LINE
  8
_0-1_計細線
  6
CONTINUOUS
 62
    3
 10
1279.249010087103
 20
1095.5467153284624
 11
1279.249010087103
 21
1084.1467153284618
  0
LINE
  8
_0-0_計極細
  6
CONTINUOUS
 62
    2
 10
280.24901008710299
 20
1087.3467153284621
 11
1279.249010087103
 21
1087.3467153284621
  0
LINE
  8
_0-0_計極細
  6
CONTINUOUS
 62
    2
 10
280.24901008710299
 20
1092.3467153284621
 11
1279.249010087103
 21
1092.3467153284621
  0
LINE
  8
_0-1_計細線
  6
CONTINUOUS
 62
    3
 10
280.24901008710299
 20
1112.5467153284633
 11
1279.249010087103
 21
1112.5467153284633
  0
LINE
  8
_0-1_計細線
  6
CONTINUOUS
 62
    3
 10
280.24901008710299
 20
1101.1467153284627
 11
1279.249010087103
 21
1101.1467153284627
  0
LINE
  8
_0-1_計細線
  6
CONTINUOUS
 62
    3
 10
280.24901008710299
 20
1112.5467153284633
 11
280.24901008710299
 21
1101.1467153284627
  0
LINE
  8
_0-1_計細線
  6
CONTINUOUS
 62
    3
 10
1279.249010087103
 20
1112.5467153284633
 11
1279.249010087103
 21
1101.1467153284627
  0
LINE
  8
_0-0_計極細
  6
CONTINUOUS
 62
    2
 10
280.24901008710299
 20
1104.346715328463
 11
1279.249010087103
 21
1104.346715328463
  0
LINE
  8
_0-0_計極細
  6
CONTINUOUS
 62
    2
 10
280.24901008710299
 20
1109.346715328463
 11
1279.249010087103
 21
1109.346715328463
  0
LINE
  8
_0-1_計細線
  6
CONTINUOUS
 62
    3
 10
280.24901008710299
 20
1197.5467153284628
 11
1279.249010087103
 21
1197.5467153284628
  0
LINE
  8
_0-1_計細線
  6
CONTINUOUS
 62
    3
 10
280.24901008710299
 20
1186.1467153284623
 11
1279.249010087103
 21
1186.1467153284623
  0
LINE
  8
_0-1_計細線
  6
CONTINUOUS
 62
    3
 10
280.24901008710299
 20
1197.5467153284628
 11
280.24901008710299
 21
1186.1467153284623
  0
LINE
  8
_0-1_計細線
  6
CONTINUOUS
 62
    3
 10
1279.249010087103
 20
1197.5467153284628
 11
1279.249010087103
 21
1186.1467153284623
  0
LINE
  8
_0-0_計極細
  6
CONTINUOUS
 62
    2
 10
280.24901008710299
 20
1189.346715328463
 11
1279.249010087103
 21
1189.346715328463
  0
LINE
  8
_0-0_計極細
  6
CONTINUOUS
 62
    2
 10
280.24901008710299
 20
1194.346715328463
 11
1279.249010087103
 21
1194.346715328463
  0
LINE
  8
_0-1_計細線
  6
CONTINUOUS
 62
    3
 10
280.24901008710299
 20
1146.5467153284615
 11
1279.249010087103
 21
1146.5467153284615
  0
LINE
  8
_0-1_計細線
  6
CONTINUOUS
 62
    3
 10
280.24901008710299
 20
1135.1467153284609
 11
1279.249010087103
 21
1135.1467153284609
  0
LINE
  8
_0-1_計細線
  6
CONTINUOUS
 62
    3
 10
280.24901008710299
 20
1146.5467153284615
 11
280.24901008710299
 21
1135.1467153284609
  0
LINE
  8
_0-1_計細線
  6
CONTINUOUS
 62
    3
 10
1279.249010087103
 20
1146.5467153284615
 11
1279.249010087103
 21
1135.1467153284609
  0
LINE
  8
_0-0_計極細
  6
CONTINUOUS
 62
    2
 10
280.24901008710299
 20
1138.3467153284612
 11
1279.249010087103
 21
1138.3467153284612
  0
LINE
  8
_0-0_計極細
  6
CONTINUOUS
 62
    2
 10
280.24901008710299
 20
1143.3467153284612
 11
1279.249010087103
 21
1143.3467153284612
  0
LINE
  8
_0-1_計細線
  6
CONTINUOUS
 62
    3
 10
280.24901008710299
 20
1163.5467153284606
 11
1279.249010087103
 21
1163.5467153284606
  0
LINE
  8
_0-1_計細線
  6
CONTINUOUS
 62
    3
 10
280.24901008710299
 20
1152.14671532846
 11
1279.249010087103
 21
1152.14671532846
  0
LINE
  8
_0-1_計細線
  6
CONTINUOUS
 62
    3
 10
280.24901008710299
 20
1163.5467153284606
 11
280.24901008710299
 21
1152.14671532846
  0
LINE
  8
_0-1_計細線
  6
CONTINUOUS
 62
    3
 10
1279.249010087103
 20
1163.5467153284606
 11
1279.249010087103
 21
1152.14671532846
  0
LINE
  8
_0-0_計極細
  6
CONTINUOUS
 62
    2
 10
280.24901008710299
 20
1155.3467153284603
 11
1279.249010087103
 21
1155.3467153284603
  0
LINE
  8
_0-0_計極細
  6
CONTINUOUS
 62
    2
 10
280.24901008710299
 20
1160.3467153284603
 11
1279.249010087103
 21
1160.3467153284603
  0
LINE
  8
_0-1_計細線
  6
CONTINUOUS
 62
    3
 10
280.24901008710299
 20
1180.5467153284596
 11
1279.249010087103
 21
1180.5467153284596
  0
LINE
  8
_0-1_計細線
  6
CONTINUOUS
 62
    3
 10
280.24901008710299
 20
1169.1467153284591
 11
1279.249010087103
 21
1169.1467153284591
  0
LINE
  8
_0-1_計細線
  6
CONTINUOUS
 62
    3
 10
280.24901008710299
 20
1180.5467153284596
 11
280.24901008710299
 21
1169.1467153284591
  0
LINE
  8
_0-1_計細線
  6
CONTINUOUS
 62
    3
 10
1279.249010087103
 20
1180.5467153284596
 11
1279.249010087103
 21
1169.1467153284591
  0
LINE
  8
_0-0_計極細
  6
CONTINUOUS
 62
    2
 10
280.24901008710299
 20
1172.3467153284594
 11
1279.249010087103
 21
1172.3467153284594
  0
LINE
  8
_0-0_計極細
  6
CONTINUOUS
 62
    2
 10
280.24901008710299
 20
1177.3467153284594
 11
1279.249010087103
 21
1177.3467153284594
  0
LINE
  8
_0-0_計極細
  6
CENTER2
 62
    2
 10
264.36041055008377
 20
1055.8467153284607
 11
1295.2937438834608
 21
1055.8467153284607
  0
LINE
  8
_0-1_計細線
  6
CONTINUOUS
 62
    3
 10
280.24901008710299
 20
1214.2467153284617
 11
1279.249010087103
 21
1214.2467153284617
  0
LINE
  8
_0-1_計細線
  6
CONTINUOUS
 62
    3
 10
280.24901008710299
 20
1202.8467153284612
 11
1279.249010087103
 21
1202.8467153284612
  0
LINE
  8
_0-1_計細線
  6
CONTINUOUS
 62
    3
 10
280.24901008710299
 20
1214.2467153284617
 11
280.24901008710299
 21
1202.8467153284612
  0
LINE
  8
_0-1_計細線
  6
CONTINUOUS
 62
    3
 10
1279.249010087103
 20
1214.2467153284617
 11
1279.249010087103
 21
1202.8467153284612
  0
LINE
  8
_0-0_計極細
  6
CONTINUOUS
 62
    2
 10
280.24901008710299
 20
1206.0467153284615
 11
1279.249010087103
 21
1206.0467153284615
  0
LINE
  8
_0-0_計極細
  6
CONTINUOUS
 62
    2
 10
280.24901008710299
 20
1211.0467153284615
 11
1279.249010087103
 21
1211.0467153284615
  0
LINE
  8
_0-1_計細線
  6
CONTINUOUS
 62
    3
 10
280.24901008710299
 20
1230.8467153284657
 11
1279.249010087103
 21
1230.8467153284657
  0
LINE
  8
_0-1_計細線
  6
CONTINUOUS
 62
    3
 10
280.24901008710299
 20
1219.4467153284652
 11
1279.249010087103
 21
1219.4467153284652
  0
LINE
  8
_0-1_計細線
  6
CONTINUOUS
 62
    3
 10
280.24901008710299
 20
1230.8467153284657
 11
280.24901008710299
 21
1219.4467153284652
  0
LINE
  8
_0-1_計細線
  6
CONTINUOUS
 62
    3
 10
1279.249010087103
 20
1230.8467153284657
 11
1279.249010087103
 21
1219.4467153284652
  0
LINE
  8
_0-0_計極細
  6
CONTINUOUS
 62
    2
 10
280.24901008710299
 20
1222.6467153284655
 11
1279.249010087103
 21
1222.6467153284655
  0
LINE
  8
_0-0_計極細
  6
CONTINUOUS
 62
    2
 10
280.24901008710299
 20
1227.6467153284655
 11
1279.249010087103
 21
1227.6467153284655
  0
LINE
  8
_0-1_計細線
  6
CONTINUOUS
 62
    3
 10
280.24901008710299
 20
982.14671532845909
 11
1279.249010087103
 21
982.14671532845909
  0
LINE
  8
_0-1_計細線
  6
CONTINUOUS
 62
    3
 10
280.24901008710299
 20
993.54671532845964
 11
1279.249010087103
 21
993.54671532845964
  0
LINE
  8
_0-1_計細線
  6
CONTINUOUS
 62
    3
 10
280.24901008710299
 20
982.14671532845909
 11
280.24901008710299
 21
993.54671532845964
  0
LINE
  8
_0-1_計細線
  6
CONTINUOUS
 62
    3
 10
1279.249010087103
 20
982.14671532845909
 11
1279.249010087103
 21
993.54671532845964
  0
LINE
  8
_0-0_計極細
  6
CONTINUOUS
 62
    2
 10
280.24901008710299
 20
990.34671532845937
 11
1279.249010087103
 21
990.34671532845937
  0
LINE
  8
_0-0_計極細
  6
CONTINUOUS
 62
    2
 10
280.24901008710299
 20
985.34671532845937
 11
1279.249010087103
 21
985.34671532845937
  0
LINE
  8
_0-1_計細線
  6
CONTINUOUS
 62
    3
 10
280.24901008710299
 20
1016.1467153284591
 11
1279.249010087103
 21
1016.1467153284591
  0
LINE
  8
_0-1_計細線
  6
CONTINUOUS
 62
    3
 10
280.24901008710299
 20
1027.5467153284596
 11
1279.249010087103
 21
1027.5467153284596
  0
LINE
  8
_0-1_計細線
  6
CONTINUOUS
 62
    3
 10
280.24901008710299
 20
1016.1467153284591
 11
280.24901008710299
 21
1027.5467153284596
  0
LINE
  8
_0-1_計細線
  6
CONTINUOUS
 62
    3
 10
1279.249010087103
 20
1016.1467153284591
 11
1279.249010087103
 21
1027.5467153284596
  0
LINE
  8
_0-0_計極細
  6
CONTINUOUS
 62
    2
 10
280.24901008710299
 20
1024.3467153284594
 11
1279.249010087103
 21
1024.3467153284594
  0
LINE
  8
_0-0_計極細
  6
CONTINUOUS
 62
    2
 10
280.24901008710299
 20
1019.3467153284594
 11
1279.249010087103
 21
1019.3467153284594
  0
LINE
  8
_0-1_計細線
  6
CONTINUOUS
 62
    3
 10
280.24901008710299
 20
999.14671532845819
 11
1279.249010087103
 21
999.14671532845819
  0
LINE
  8
_0-1_計細線
  6
CONTINUOUS
 62
    3
 10
280.24901008710299
 20
1010.5467153284587
 11
1279.249010087103
 21
1010.5467153284587
  0
LINE
  8
_0-1_計細線
  6
CONTINUOUS
 62
    3
 10
280.24901008710299
 20
999.14671532845819
 11
280.24901008710299
 21
1010.5467153284587
  0
LINE
  8
_0-1_計細線
  6
CONTINUOUS
 62
    3
 10
1279.249010087103
 20
999.14671532845819
 11
1279.249010087103
 21
1010.5467153284587
  0
LINE
  8
_0-0_計極細
  6
CONTINUOUS
 62
    2
 10
280.24901008710299
 20
1007.3467153284585
 11
1279.249010087103
 21
1007.3467153284585
  0
LINE
  8
_0-0_計極細
  6
CONTINUOUS
 62
    2
 10
280.24901008710299
 20
1002.3467153284585
 11
1279.249010087103
 21
1002.3467153284585
  0
LINE
  8
_0-1_計細線
  6
CONTINUOUS
 62
    3
 10
280.24901008710299
 20
914.14671532845864
 11
1279.249010087103
 21
914.14671532845864
  0
LINE
  8
_0-1_計細線
  6
CONTINUOUS
 62
    3
 10
280.24901008710299
 20
925.54671532845919
 11
1279.249010087103
 21
925.54671532845919
  0
LINE
  8
_0-1_計細線
  6
CONTINUOUS
 62
    3
 10
280.24901008710299
 20
914.14671532845864
 11
280.24901008710299
 21
925.54671532845919
  0
LINE
  8
_0-1_計細線
  6
CONTINUOUS
 62
    3
 10
1279.249010087103
 20
914.14671532845864
 11
1279.249010087103
 21
925.54671532845919
  0
LINE
  8
_0-0_計極細
  6
CONTINUOUS
 62
    2
 10
280.24901008710299
 20
922.34671532845846
 11
1279.249010087103
 21
922.34671532845846
  0
LINE
  8
_0-0_計極細
  6
CONTINUOUS
 62
    2
 10
280.24901008710299
 20
917.34671532845846
 11
1279.249010087103
 21
917.34671532845846
  0
LINE
  8
_0-1_計細線
  6
CONTINUOUS
 62
    3
 10
280.24901008710299
 20
965.14671532846
 11
1279.249010087103
 21
965.14671532846
  0
LINE
  8
_0-1_計細線
  6
CONTINUOUS
 62
    3
 10
280.24901008710299
 20
976.54671532846055
 11
1279.249010087103
 21
976.54671532846055
  0
LINE
  8
_0-1_計細線
  6
CONTINUOUS
 62
    3
 10
280.24901008710299
 20
965.14671532846
 11
280.24901008710299
 21
976.54671532846055
  0
LINE
  8
_0-1_計細線
  6
CONTINUOUS
 62
    3
 10
1279.249010087103
 20
965.14671532846
 11
1279.249010087103
 21
976.54671532846055
  0
LINE
  8
_0-0_計極細
  6
CONTINUOUS
 62
    2
 10
280.24901008710299
 20
973.34671532846028
 11
1279.249010087103
 21
973.34671532846028
  0
LINE
  8
_0-0_計極細
  6
CONTINUOUS
 62
    2
 10
280.24901008710299
 20
968.34671532846028
 11
1279.249010087103
 21
968.34671532846028
  0
LINE
  8
_0-1_計細線
  6
CONTINUOUS
 62
    3
 10
280.24901008710299
 20
948.14671532846091
 11
1279.249010087103
 21
948.14671532846091
  0
LINE
  8
_0-1_計細線
  6
CONTINUOUS
 62
    3
 10
280.24901008710299
 20
959.54671532846146
 11
1279.249010087103
 21
959.54671532846146
  0
LINE
  8
_0-1_計細線
  6
CONTINUOUS
 62
    3
 10
280.24901008710299
 20
948.14671532846091
 11
280.24901008710299
 21
959.54671532846146
  0
LINE
  8
_0-1_計細線
  6
CONTINUOUS
 62
    3
 10
1279.249010087103
 20
948.14671532846091
 11
1279.249010087103
 21
959.54671532846146
  0
LINE
  8
_0-0_計極細
  6
CONTINUOUS
 62
    2
 10
280.24901008710299
 20
956.34671532846119
 11
1279.249010087103
 21
956.34671532846119
  0
LINE
  8
_0-0_計極細
  6
CONTINUOUS
 62
    2
 10
280.24901008710299
 20
951.34671532846119
 11
1279.249010087103
 21
951.34671532846119
  0
LINE
  8
_0-1_計細線
  6
CONTINUOUS
 62
    3
 10
280.24901008710299
 20
931.14671532846182
 11
1279.249010087103
 21
931.14671532846182
  0
LINE
  8
_0-1_計細線
  6
CONTINUOUS
 62
    3
 10
280.24901008710299
 20
942.54671532846237
 11
1279.249010087103
 21
942.54671532846237
  0
LINE
  8
_0-1_計細線
  6
CONTINUOUS
 62
    3
 10
280.24901008710299
 20
931.14671532846182
 11
280.24901008710299
 21
942.54671532846237
  0
LINE
  8
_0-1_計細線
  6
CONTINUOUS
 62
    3
 10
1279.249010087103
 20
931.14671532846182
 11
1279.249010087103
 21
942.54671532846237
  0
LINE
  8
_0-0_計極細
  6
CONTINUOUS
 62
    2
 10
280.24901008710299
 20
939.3467153284621
 11
1279.249010087103
 21
939.3467153284621
  0
LINE
  8
_0-0_計極細
  6
CONTINUOUS
 62
    2
 10
280.24901008710299
 20
934.3467153284621
 11
1279.249010087103
 21
934.3467153284621
  0
LINE
  8
_0-1_計細線
  6
CONTINUOUS
 62
    3
 10
280.24901008710299
 20
897.44671532845973
 11
1279.249010087103
 21
897.44671532845973
  0
LINE
  8
_0-1_計細線
  6
CONTINUOUS
 62
    3
 10
280.24901008710299
 20
908.84671532846028
 11
1279.249010087103
 21
908.84671532846028
  0
LINE
  8
_0-1_計細線
  6
CONTINUOUS
 62
    3
 10
280.24901008710299
 20
897.44671532845973
 11
280.24901008710299
 21
908.84671532846028
  0
LINE
  8
_0-1_計細線
  6
CONTINUOUS
 62
    3
 10
1279.249010087103
 20
897.44671532845973
 11
1279.249010087103
 21
908.84671532846028
  0
LINE
  8
_0-0_計極細
  6
CONTINUOUS
 62
    2
 10
280.24901008710299
 20
905.64671532846
 11
1279.249010087103
 21
905.64671532846
  0
LINE
  8
_0-0_計極細
  6
CONTINUOUS
 62
    2
 10
280.24901008710299
 20
900.64671532846
 11
1279.249010087103
 21
900.64671532846
  0
LINE
  8
_0-1_計細線
  6
CONTINUOUS
 62
    3
 10
280.24901008710299
 20
880.84671532845573
 11
1279.249010087103
 21
880.84671532845573
  0
LINE
  8
_0-1_計細線
  6
CONTINUOUS
 62
    3
 10
280.24901008710299
 20
892.24671532845628
 11
1279.249010087103
 21
892.24671532845628
  0
LINE
  8
_0-1_計細線
  6
CONTINUOUS
 62
    3
 10
280.24901008710299
 20
880.84671532845573
 11
280.24901008710299
 21
892.24671532845628
  0
LINE
  8
_0-1_計細線
  6
CONTINUOUS
 62
    3
 10
1279.249010087103
 20
880.84671532845573
 11
1279.249010087103
 21
892.24671532845628
  0
LINE
  8
_0-0_計極細
  6
CONTINUOUS
 62
    2
 10
280.24901008710299
 20
889.046715328456
 11
1279.249010087103
 21
889.046715328456
  0
LINE
  8
_0-0_計極細
  6
CONTINUOUS
 62
    2
 10
280.24901008710299
 20
884.046715328456
 11
1279.249010087103
 21
884.046715328456
  0
LINE
  8
_0-0_計極細
  6
CONTINUOUS
 62
    2
 10
288.24901008710299
 20
1050.1467153284605
 11
288.24901008710299
 21
1044.5467153284606
  0
LINE
  8
_0-0_計極細
  6
CONTINUOUS
 62
    2
 10
301.24901008710299
 20
1050.1467153284605
 11
301.24901008710299
 21
1044.5467153284606
  0
LINE
  8
_0-0_計極細
  6
CONTINUOUS
 62
    2
 10
288.24901008710299
 20
1067.1467153284614
 11
288.24901008710299
 21
1061.546715328461
  0
LINE
  8
_0-0_計極細
  6
CONTINUOUS
 62
    2
 10
301.24901008710299
 20
1067.1467153284614
 11
301.24901008710299
 21
1061.546715328461
  0
LINE
  8
_0-0_計極細
  6
CONTINUOUS
 62
    2
 10
288.24901008710299
 20
1084.1467153284618
 11
288.24901008710299
 21
1078.5467153284619
  0
LINE
  8
_0-0_計極細
  6
CONTINUOUS
 62
    2
 10
301.24901008710299
 20
1084.1467153284618
 11
301.24901008710299
 21
1078.5467153284619
  0
LINE
  8
_0-0_計極細
  6
CONTINUOUS
 62
    2
 10
288.24901008710299
 20
1101.1467153284627
 11
288.24901008710299
 21
1095.5467153284624
  0
LINE
  8
_0-0_計極細
  6
CONTINUOUS
 62
    2
 10
301.24901008710299
 20
1101.1467153284627
 11
301.24901008710299
 21
1095.5467153284624
  0
LINE
  8
_0-0_計極細
  6
CONTINUOUS
 62
    2
 10
288.24901008710299
 20
1118.1467153284632
 11
288.24901008710299
 21
1112.5467153284633
  0
LINE
  8
_0-0_計極細
  6
CONTINUOUS
 62
    2
 10
301.24901008710299
 20
1118.1467153284632
 11
301.24901008710299
 21
1112.5467153284633
  0
LINE
  8
_0-0_計極細
  6
CONTINUOUS
 62
    2
 10
288.24901008710299
 20
1135.1467153284623
 11
288.24901008710299
 21
1129.5467153284624
  0
LINE
  8
_0-0_計極細
  6
CONTINUOUS
 62
    2
 10
301.24901008710299
 20
1135.1467153284623
 11
301.24901008710299
 21
1129.5467153284624
  0
LINE
  8
_0-0_計極細
  6
CONTINUOUS
 62
    2
 10
288.24901008710299
 20
1152.1467153284614
 11
288.24901008710299
 21
1146.5467153284615
  0
LINE
  8
_0-0_計極細
  6
CONTINUOUS
 62
    2
 10
301.24901008710299
 20
1152.1467153284614
 11
301.24901008710299
 21
1146.5467153284615
  0
LINE
  8
_0-0_計極細
  6
CONTINUOUS
 62
    2
 10
288.24901008710299
 20
1169.1467153284605
 11
288.24901008710299
 21
1163.5467153284606
  0
LINE
  8
_0-0_計極細
  6
CONTINUOUS
 62
    2
 10
301.24901008710299
 20
1169.1467153284605
 11
301.24901008710299
 21
1163.5467153284606
  0
LINE
  8
_0-0_計極細
  6
CONTINUOUS
 62
    2
 10
288.24901008710299
 20
1186.1467153284595
 11
288.24901008710299
 21
1180.5467153284596
  0
LINE
  8
_0-0_計極細
  6
CONTINUOUS
 62
    2
 10
301.24901008710299
 20
1186.1467153284595
 11
301.24901008710299
 21
1180.5467153284596
  0
LINE
  8
_0-0_計極細
  6
CONTINUOUS
 62
    2
 10
288.24901008710299
 20
1202.8467153284626
 11
288.24901008710299
 21
1197.5467153284628
  0
LINE
  8
_0-0_計極細
  6
CONTINUOUS
 62
    2
 10
301.24901008710299
 20
1202.8467153284626
 11
301.24901008710299
 21
1197.5467153284628
  0
LINE
  8
_0-0_計極細
  6
CONTINUOUS
 62
    2
 10
288.24901008710299
 20
1219.4467153284616
 11
288.24901008710299
 21
1214.2467153284617
  0
LINE
  8
_0-0_計極細
  6
CONTINUOUS
 62
    2
 10
301.24901008710299
 20
1219.4467153284616
 11
301.24901008710299
 21
1214.2467153284617
  0
LINE
  8
_0-0_計極細
  6
CONTINUOUS
 62
    2
 10
288.24901008710299
 20
1027.5467153284596
 11
288.24901008710299
 21
1033.1467153284595
  0
LINE
  8
_0-0_計極細
  6
CONTINUOUS
 62
    2
 10
301.24901008710299
 20
1027.5467153284596
 11
301.24901008710299
 21
1033.1467153284595
  0
LINE
  8
_0-0_計極細
  6
CONTINUOUS
 62
    2
 10
288.24901008710299
 20
1010.5467153284587
 11
288.24901008710299
 21
1016.1467153284591
  0
LINE
  8
_0-0_計極細
  6
CONTINUOUS
 62
    2
 10
301.24901008710299
 20
1010.5467153284587
 11
301.24901008710299
 21
1016.1467153284591
  0
LINE
  8
_0-0_計極細
  6
CONTINUOUS
 62
    2
 10
288.24901008710299
 20
993.54671532845828
 11
288.24901008710299
 21
999.14671532845819
  0
LINE
  8
_0-0_計極細
  6
CONTINUOUS
 62
    2
 10
301.24901008710299
 20
993.54671532845828
 11
301.24901008710299
 21
999.14671532845819
  0
LINE
  8
_0-0_計極細
  6
CONTINUOUS
 62
    2
 10
288.24901008710299
 20
976.54671532845919
 11
288.24901008710299
 21
982.14671532845909
  0
LINE
  8
_0-0_計極細
  6
CONTINUOUS
 62
    2
 10
301.24901008710299
 20
976.54671532845919
 11
301.24901008710299
 21
982.14671532845909
  0
LINE
  8
_0-0_計極細
  6
CONTINUOUS
 62
    2
 10
288.24901008710299
 20
959.5467153284601
 11
288.24901008710299
 21
965.14671532846
  0
LINE
  8
_0-0_計極細
  6
CONTINUOUS
 62
    2
 10
301.24901008710299
 20
959.5467153284601
 11
301.24901008710299
 21
965.14671532846
  0
LINE
  8
_0-0_計極細
  6
CONTINUOUS
 62
    2
 10
288.24901008710299
 20
942.546715328461
 11
288.24901008710299
 21
948.14671532846091
  0
LINE
  8
_0-0_計極細
  6
CONTINUOUS
 62
    2
 10
301.24901008710299
 20
942.546715328461
 11
301.24901008710299
 21
948.14671532846091
  0
LINE
  8
_0-0_計極細
  6
CONTINUOUS
 62
    2
 10
288.24901008710299
 20
925.54671532846191
 11
288.24901008710299
 21
931.14671532846182
  0
LINE
  8
_0-0_計極細
  6
CONTINUOUS
 62
    2
 10
301.24901008710299
 20
925.54671532846191
 11
301.24901008710299
 21
931.14671532846182
  0
LINE
  8
_0-0_計極細
  6
CONTINUOUS
 62
    2
 10
288.24901008710299
 20
908.84671532845891
 11
288.24901008710299
 21
914.14671532845864
  0
LINE
  8
_0-0_計極細
  6
CONTINUOUS
 62
    2
 10
301.24901008710299
 20
908.84671532845891
 11
301.24901008710299
 21
914.14671532845864
  0
LINE
  8
_0-0_計極細
  6
CONTINUOUS
 62
    2
 10
288.24901008710299
 20
892.24671532845991
 11
288.24901008710299
 21
897.44671532845973
  0
LINE
  8
_0-0_計極細
  6
CONTINUOUS
 62
    2
 10
301.24901008710299
 20
892.24671532845991
 11
301.24901008710299
 21
897.44671532845973
  0
LINE
  8
_0-0_計極細
  6
CENTER1
 62
    2
 10
294.74901008710299
 20
1239.5974347529275
 11
294.74901008710299
 21
873.28889158744846
  0
LINE
  8
_0-0_計極細
  6
CONTINUOUS
 62
    2
 10
1258.249010087103
 20
1050.1467153284605
 11
1258.249010087103
 21
1044.5467153284606
  0
LINE
  8
_0-0_計極細
  6
CONTINUOUS
 62
    2
 10
1271.249010087103
 20
1050.1467153284605
 11
1271.249010087103
 21
1044.5467153284606
  0
LINE
  8
_0-0_計極細
  6
CONTINUOUS
 62
    2
 10
1258.249010087103
 20
1067.1467153284614
 11
1258.249010087103
 21
1061.546715328461
  0
LINE
  8
_0-0_計極細
  6
CONTINUOUS
 62
    2
 10
1271.249010087103
 20
1067.1467153284614
 11
1271.249010087103
 21
1061.546715328461
  0
LINE
  8
_0-0_計極細
  6
CONTINUOUS
 62
    2
 10
1258.249010087103
 20
1084.1467153284618
 11
1258.249010087103
 21
1078.5467153284619
  0
LINE
  8
_0-0_計極細
  6
CONTINUOUS
 62
    2
 10
1271.249010087103
 20
1084.1467153284618
 11
1271.249010087103
 21
1078.5467153284619
  0
LINE
  8
_0-0_計極細
  6
CONTINUOUS
 62
    2
 10
1258.249010087103
 20
1101.1467153284627
 11
1258.249010087103
 21
1095.5467153284624
  0
LINE
  8
_0-0_計極細
  6
CONTINUOUS
 62
    2
 10
1271.249010087103
 20
1101.1467153284627
 11
1271.249010087103
 21
1095.5467153284624
  0
LINE
  8
_0-0_計極細
  6
CONTINUOUS
 62
    2
 10
1258.249010087103
 20
1118.1467153284632
 11
1258.249010087103
 21
1112.5467153284633
  0
LINE
  8
_0-0_計極細
  6
CONTINUOUS
 62
    2
 10
1271.249010087103
 20
1118.1467153284632
 11
1271.249010087103
 21
1112.5467153284633
  0
LINE
  8
_0-0_計極細
  6
CONTINUOUS
 62
    2
 10
1258.249010087103
 20
1135.1467153284623
 11
1258.249010087103
 21
1129.5467153284624
  0
LINE
  8
_0-0_計極細
  6
CONTINUOUS
 62
    2
 10
1271.249010087103
 20
1135.1467153284623
 11
1271.249010087103
 21
1129.5467153284624
  0
LINE
  8
_0-0_計極細
  6
CONTINUOUS
 62
    2
 10
1258.249010087103
 20
1152.1467153284614
 11
1258.249010087103
 21
1146.5467153284615
  0
LINE
  8
_0-0_計極細
  6
CONTINUOUS
 62
    2
 10
1271.249010087103
 20
1152.1467153284614
 11
1271.249010087103
 21
1146.5467153284615
  0
LINE
  8
_0-0_計極細
  6
CONTINUOUS
 62
    2
 10
1258.249010087103
 20
1169.1467153284605
 11
1258.249010087103
 21
1163.5467153284606
  0
LINE
  8
_0-0_計極細
  6
CONTINUOUS
 62
    2
 10
1271.249010087103
 20
1169.1467153284605
 11
1271.249010087103
 21
1163.5467153284606
  0
LINE
  8
_0-0_計極細
  6
CONTINUOUS
 62
    2
 10
1258.249010087103
 20
1186.1467153284595
 11
1258.249010087103
 21
1180.5467153284596
  0
LINE
  8
_0-0_計極細
  6
CONTINUOUS
 62
    2
 10
1271.249010087103
 20
1186.1467153284595
 11
1271.249010087103
 21
1180.5467153284596
  0
LINE
  8
_0-0_計極細
  6
CONTINUOUS
 62
    2
 10
1258.249010087103
 20
1202.8467153284626
 11
1258.249010087103
 21
1197.5467153284628
  0
LINE
  8
_0-0_計極細
  6
CONTINUOUS
 62
    2
 10
1271.249010087103
 20
1202.8467153284626
 11
1271.249010087103
 21
1197.5467153284628
  0
LINE
  8
_0-0_計極細
  6
CONTINUOUS
 62
    2
 10
1258.249010087103
 20
1219.4467153284616
 11
1258.249010087103
 21
1214.2467153284617
  0
LINE
  8
_0-0_計極細
  6
CONTINUOUS
 62
    2
 10
1271.249010087103
 20
1219.4467153284616
 11
1271.249010087103
 21
1214.2467153284617
  0
LINE
  8
_0-0_計極細
  6
CONTINUOUS
 62
    2
 10
1258.249010087103
 20
1027.5467153284596
 11
1258.249010087103
 21
1033.1467153284595
  0
LINE
  8
_0-0_計極細
  6
CONTINUOUS
 62
    2
 10
1271.249010087103
 20
1027.5467153284596
 11
1271.249010087103
 21
1033.1467153284595
  0
LINE
  8
_0-0_計極細
  6
CONTINUOUS
 62
    2
 10
1258.249010087103
 20
1010.5467153284587
 11
1258.249010087103
 21
1016.1467153284591
  0
LINE
  8
_0-0_計極細
  6
CONTINUOUS
 62
    2
 10
1271.249010087103
 20
1010.5467153284587
 11
1271.249010087103
 21
1016.1467153284591
  0
LINE
  8
_0-0_計極細
  6
CONTINUOUS
 62
    2
 10
1258.249010087103
 20
993.54671532845828
 11
1258.249010087103
 21
999.14671532845819
  0
LINE
  8
_0-0_計極細
  6
CONTINUOUS
 62
    2
 10
1271.249010087103
 20
993.54671532845828
 11
1271.249010087103
 21
999.14671532845819
  0
LINE
  8
_0-0_計極細
  6
CONTINUOUS
 62
    2
 10
1258.249010087103
 20
976.54671532845919
 11
1258.249010087103
 21
982.14671532845909
  0
LINE
  8
_0-0_計極細
  6
CONTINUOUS
 62
    2
 10
1271.249010087103
 20
976.54671532845919
 11
1271.249010087103
 21
982.14671532845909
  0
LINE
  8
_0-0_計極細
  6
CONTINUOUS
 62
    2
 10
1258.249010087103
 20
959.5467153284601
 11
1258.249010087103
 21
965.14671532846
  0
LINE
  8
_0-0_計極細
  6
CONTINUOUS
 62
    2
 10
1271.249010087103
 20
959.5467153284601
 11
1271.249010087103
 21
965.14671532846
  0
LINE
  8
_0-0_計極細
  6
CONTINUOUS
 62
    2
 10
1258.249010087103
 20
942.546715328461
 11
1258.249010087103
 21
948.14671532846091
  0
LINE
  8
_0-0_計極細
  6
CONTINUOUS
 62
    2
 10
1271.249010087103
 20
942.546715328461
 11
1271.249010087103
 21
948.14671532846091
  0
LINE
  8
_0-0_計極細
  6
CONTINUOUS
 62
    2
 10
1258.249010087103
 20
925.54671532846191
 11
1258.249010087103
 21
931.14671532846182
  0
LINE
  8
_0-0_計極細
  6
CONTINUOUS
 62
    2
 10
1271.249010087103
 20
925.54671532846191
 11
1271.249010087103
 21
931.14671532846182
  0
LINE
  8
_0-0_計極細
  6
CONTINUOUS
 62
    2
 10
1258.249010087103
 20
908.84671532845891
 11
1258.249010087103
 21
914.14671532845864
  0
LINE
  8
_0-0_計極細
  6
CONTINUOUS
 62
    2
 10
1271.249010087103
 20
908.84671532845891
 11
1271.249010087103
 21
914.14671532845864
  0
LINE
  8
_0-0_計極細
  6
CONTINUOUS
 62
    2
 10
1258.249010087103
 20
892.24671532845991
 11
1258.249010087103
 21
897.44671532845973
  0
LINE
  8
_0-0_計極細
  6
CONTINUOUS
 62
    2
 10
1271.249010087103
 20
892.24671532845991
 11
1271.249010087103
 21
897.44671532845973
  0
LINE
  8
_0-0_計極細
  6
CENTER1
 62
    2
 10
1264.749010087103
 20
1239.5974347529275
 11
1264.749010087103
 21
873.28889158744846
  0
LINE
  8
_0-0_計極細
  6
CONTINUOUS
 62
    2
 10
385.24901008710299
 20
1050.1467153284605
 11
385.24901008710299
 21
1044.5467153284606
  0
LINE
  8
_0-0_計極細
  6
CONTINUOUS
 62
    2
 10
398.24901008710299
 20
1050.1467153284605
 11
398.24901008710299
 21
1044.5467153284606
  0
LINE
  8
_0-0_計極細
  6
CONTINUOUS
 62
    2
 10
385.24901008710299
 20
1084.1467153284618
 11
385.24901008710299
 21
1078.5467153284619
  0
LINE
  8
_0-0_計極細
  6
CONTINUOUS
 62
    2
 10
398.24901008710299
 20
1084.1467153284618
 11
398.24901008710299
 21
1078.5467153284619
  0
LINE
  8
_0-0_計極細
  6
CONTINUOUS
 62
    2
 10
385.24901008710299
 20
1101.1467153284627
 11
385.24901008710299
 21
1095.5467153284624
  0
LINE
  8
_0-0_計極細
  6
CONTINUOUS
 62
    2
 10
398.24901008710299
 20
1101.1467153284627
 11
398.24901008710299
 21
1095.5467153284624
  0
LINE
  8
_0-0_計極細
  6
CONTINUOUS
 62
    2
 10
385.24901008710299
 20
1118.1467153284632
 11
385.24901008710299
 21
1112.5467153284633
  0
LINE
  8
_0-0_計極細
  6
CONTINUOUS
 62
    2
 10
398.24901008710299
 20
1118.1467153284632
 11
398.24901008710299
 21
1112.5467153284633
  0
LINE
  8
_0-0_計極細
  6
CONTINUOUS
 62
    2
 10
385.24901008710299
 20
1135.1467153284623
 11
385.24901008710299
 21
1129.5467153284624
  0
LINE
  8
_0-0_計極細
  6
CONTINUOUS
 62
    2
 10
398.24901008710299
 20
1135.1467153284623
 11
398.24901008710299
 21
1129.5467153284624
  0
LINE
  8
_0-0_計極細
  6
CONTINUOUS
 62
    2
 10
385.24901008710299
 20
1152.1467153284614
 11
385.24901008710299
 21
1146.5467153284615
  0
LINE
  8
_0-0_計極細
  6
CONTINUOUS
 62
    2
 10
398.24901008710299
 20
1152.1467153284614
 11
398.24901008710299
 21
1146.5467153284615
  0
LINE
  8
_0-0_計極細
  6
CONTINUOUS
 62
    2
 10
385.24901008710299
 20
1169.1467153284605
 11
385.24901008710299
 21
1163.5467153284606
  0
LINE
  8
_0-0_計極細
  6
CONTINUOUS
 62
    2
 10
398.24901008710299
 20
1169.1467153284605
 11
398.24901008710299
 21
1163.5467153284606
  0
LINE
  8
_0-0_計極細
  6
CONTINUOUS
 62
    2
 10
385.24901008710299
 20
1186.1467153284595
 11
385.24901008710299
 21
1180.5467153284596
  0
LINE
  8
_0-0_計極細
  6
CONTINUOUS
 62
    2
 10
398.24901008710299
 20
1186.1467153284595
 11
398.24901008710299
 21
1180.5467153284596
  0
LINE
  8
_0-0_計極細
  6
CONTINUOUS
 62
    2
 10
385.24901008710299
 20
1202.8467153284626
 11
385.24901008710299
 21
1197.5467153284628
  0
LINE
  8
_0-0_計極細
  6
CONTINUOUS
 62
    2
 10
398.24901008710299
 20
1202.8467153284626
 11
398.24901008710299
 21
1197.5467153284628
  0
LINE
  8
_0-0_計極細
  6
CONTINUOUS
 62
    2
 10
385.24901008710299
 20
1219.4467153284616
 11
385.24901008710299
 21
1214.2467153284617
  0
LINE
  8
_0-0_計極細
  6
CONTINUOUS
 62
    2
 10
398.24901008710299
 20
1219.4467153284616
 11
398.24901008710299
 21
1214.2467153284617
  0
LINE
  8
_0-0_計極細
  6
CONTINUOUS
 62
    2
 10
385.24901008710299
 20
1027.5467153284596
 11
385.24901008710299
 21
1033.1467153284595
  0
LINE
  8
_0-0_計極細
  6
CONTINUOUS
 62
    2
 10
398.24901008710299
 20
1027.5467153284596
 11
398.24901008710299
 21
1033.1467153284595
  0
LINE
  8
_0-0_計極細
  6
CONTINUOUS
 62
    2
 10
385.24901008710299
 20
1010.5467153284587
 11
385.24901008710299
 21
1016.1467153284591
  0
LINE
  8
_0-0_計極細
  6
CONTINUOUS
 62
    2
 10
398.24901008710299
 20
1010.5467153284587
 11
398.24901008710299
 21
1016.1467153284591
  0
LINE
  8
_0-0_計極細
  6
CONTINUOUS
 62
    2
 10
385.24901008710299
 20
993.54671532845828
 11
385.24901008710299
 21
999.14671532845819
  0
LINE
  8
_0-0_計極細
  6
CONTINUOUS
 62
    2
 10
398.24901008710299
 20
993.54671532845828
 11
398.24901008710299
 21
999.14671532845819
  0
LINE
  8
_0-0_計極細
  6
CONTINUOUS
 62
    2
 10
385.24901008710299
 20
976.54671532845919
 11
385.24901008710299
 21
982.14671532845909
  0
LINE
  8
_0-0_計極細
  6
CONTINUOUS
 62
    2
 10
398.24901008710299
 20
976.54671532845919
 11
398.24901008710299
 21
982.14671532845909
  0
LINE
  8
_0-0_計極細
  6
CONTINUOUS
 62
    2
 10
385.24901008710299
 20
959.5467153284601
 11
385.24901008710299
 21
965.14671532846
  0
LINE
  8
_0-0_計極細
  6
CONTINUOUS
 62
    2
 10
398.24901008710299
 20
959.5467153284601
 11
398.24901008710299
 21
965.14671532846
  0
LINE
  8
_0-0_計極細
  6
CONTINUOUS
 62
    2
 10
385.24901008710299
 20
942.546715328461
 11
385.24901008710299
 21
948.14671532846091
  0
LINE
  8
_0-0_計極細
  6
CONTINUOUS
 62
    2
 10
398.24901008710299
 20
942.546715328461
 11
398.24901008710299
 21
948.14671532846091
  0
LINE
  8
_0-0_計極細
  6
CONTINUOUS
 62
    2
 10
385.24901008710299
 20
925.54671532846191
 11
385.24901008710299
 21
931.14671532846182
  0
LINE
  8
_0-0_計極細
  6
CONTINUOUS
 62
    2
 10
398.24901008710299
 20
925.54671532846191
 11
398.24901008710299
 21
931.14671532846182
  0
LINE
  8
_0-0_計極細
  6
CONTINUOUS
 62
    2
 10
385.24901008710299
 20
908.84671532845891
 11
385.24901008710299
 21
914.14671532845864
  0
LINE
  8
_0-0_計極細
  6
CONTINUOUS
 62
    2
 10
398.24901008710299
 20
908.84671532845891
 11
398.24901008710299
 21
914.14671532845864
  0
LINE
  8
_0-0_計極細
  6
CONTINUOUS
 62
    2
 10
385.24901008710299
 20
892.24671532845991
 11
385.24901008710299
 21
897.44671532845973
  0
LINE
  8
_0-0_計極細
  6
CONTINUOUS
 62
    2
 10
398.24901008710299
 20
892.24671532845991
 11
398.24901008710299
 21
897.44671532845973
  0
LINE
  8
_0-0_計極細
  6
CENTER1
 62
    2
 10
391.74901008710299
 20
1239.5974347529275
 11
391.74901008710299
 21
873.28889158744846
  0
LINE
  8
_0-0_計極細
  6
CONTINUOUS
 62
    2
 10
1161.249010087103
 20
1050.1467153284605
 11
1161.249010087103
 21
1044.5467153284606
  0
LINE
  8
_0-0_計極細
  6
CONTINUOUS
 62
    2
 10
1174.249010087103
 20
1050.1467153284605
 11
1174.249010087103
 21
1044.5467153284606
  0
LINE
  8
_0-0_計極細
  6
CONTINUOUS
 62
    2
 10
1161.249010087103
 20
1067.1467153284614
 11
1161.249010087103
 21
1061.546715328461
  0
LINE
  8
_0-0_計極細
  6
CONTINUOUS
 62
    2
 10
1174.249010087103
 20
1067.1467153284614
 11
1174.249010087103
 21
1061.546715328461
  0
LINE
  8
_0-0_計極細
  6
CONTINUOUS
 62
    2
 10
1161.249010087103
 20
1084.1467153284618
 11
1161.249010087103
 21
1078.5467153284619
  0
LINE
  8
_0-0_計極細
  6
CONTINUOUS
 62
    2
 10
1174.249010087103
 20
1084.1467153284618
 11
1174.249010087103
 21
1078.5467153284619
  0
LINE
  8
_0-0_計極細
  6
CONTINUOUS
 62
    2
 10
1161.249010087103
 20
1101.1467153284627
 11
1161.249010087103
 21
1095.5467153284624
  0
LINE
  8
_0-0_計極細
  6
CONTINUOUS
 62
    2
 10
1174.249010087103
 20
1101.1467153284627
 11
1174.249010087103
 21
1095.5467153284624
  0
LINE
  8
_0-0_計極細
  6
CONTINUOUS
 62
    2
 10
1161.249010087103
 20
1118.1467153284632
 11
1161.249010087103
 21
1112.5467153284633
  0
LINE
  8
_0-0_計極細
  6
CONTINUOUS
 62
    2
 10
1174.249010087103
 20
1118.1467153284632
 11
1174.249010087103
 21
1112.5467153284633
  0
LINE
  8
_0-0_計極細
  6
CONTINUOUS
 62
    2
 10
1161.249010087103
 20
1135.1467153284623
 11
1161.249010087103
 21
1129.5467153284624
  0
LINE
  8
_0-0_計極細
  6
CONTINUOUS
 62
    2
 10
1174.249010087103
 20
1135.1467153284623
 11
1174.249010087103
 21
1129.5467153284624
  0
LINE
  8
_0-0_計極細
  6
CONTINUOUS
 62
    2
 10
1161.249010087103
 20
1152.1467153284614
 11
1161.249010087103
 21
1146.5467153284615
  0
LINE
  8
_0-0_計極細
  6
CONTINUOUS
 62
    2
 10
1174.249010087103
 20
1152.1467153284614
 11
1174.249010087103
 21
1146.5467153284615
  0
LINE
  8
_0-0_計極細
  6
CONTINUOUS
 62
    2
 10
1161.249010087103
 20
1169.1467153284605
 11
1161.249010087103
 21
1163.5467153284606
  0
LINE
  8
_0-0_計極細
  6
CONTINUOUS
 62
    2
 10
1174.249010087103
 20
1169.1467153284605
 11
1174.249010087103
 21
1163.5467153284606
  0
LINE
  8
_0-0_計極細
  6
CONTINUOUS
 62
    2
 10
1161.249010087103
 20
1186.1467153284595
 11
1161.249010087103
 21
1180.5467153284596
  0
LINE
  8
_0-0_計極細
  6
CONTINUOUS
 62
    2
 10
1174.249010087103
 20
1186.1467153284595
 11
1174.249010087103
 21
1180.5467153284596
  0
LINE
  8
_0-0_計極細
  6
CONTINUOUS
 62
    2
 10
1161.249010087103
 20
1202.8467153284626
 11
1161.249010087103
 21
1197.5467153284628
  0
LINE
  8
_0-0_計極細
  6
CONTINUOUS
 62
    2
 10
1174.249010087103
 20
1202.8467153284626
 11
1174.249010087103
 21
1197.5467153284628
  0
LINE
  8
_0-0_計極細
  6
CONTINUOUS
 62
    2
 10
1161.249010087103
 20
1219.4467153284616
 11
1161.249010087103
 21
1214.2467153284617
  0
LINE
  8
_0-0_計極細
  6
CONTINUOUS
 62
    2
 10
1174.249010087103
 20
1219.4467153284616
 11
1174.249010087103
 21
1214.2467153284617
  0
LINE
  8
_0-0_計極細
  6
CONTINUOUS
 62
    2
 10
1161.249010087103
 20
1027.5467153284596
 11
1161.249010087103
 21
1033.1467153284595
  0
LINE
  8
_0-0_計極細
  6
CONTINUOUS
 62
    2
 10
1174.249010087103
 20
1027.5467153284596
 11
1174.249010087103
 21
1033.1467153284595
  0
LINE
  8
_0-0_計極細
  6
CONTINUOUS
 62
    2
 10
1161.249010087103
 20
1010.5467153284587
 11
1161.249010087103
 21
1016.1467153284591
  0
LINE
  8
_0-0_計極細
  6
CONTINUOUS
 62
    2
 10
1174.249010087103
 20
1010.5467153284587
 11
1174.249010087103
 21
1016.1467153284591
  0
LINE
  8
_0-0_計極細
  6
CONTINUOUS
 62
    2
 10
1161.249010087103
 20
993.54671532845828
 11
1161.249010087103
 21
999.14671532845819
  0
LINE
  8
_0-0_計極細
  6
CONTINUOUS
 62
    2
 10
1174.249010087103
 20
993.54671532845828
 11
1174.249010087103
 21
999.14671532845819
  0
LINE
  8
_0-0_計極細
  6
CONTINUOUS
 62
    2
 10
1161.249010087103
 20
976.54671532845919
 11
1161.249010087103
 21
982.14671532845909
  0
LINE
  8
_0-0_計極細
  6
CONTINUOUS
 62
    2
 10
1174.249010087103
 20
976.54671532845919
 11
1174.249010087103
 21
982.14671532845909
  0
LINE
  8
_0-0_計極細
  6
CONTINUOUS
 62
    2
 10
1161.249010087103
 20
959.5467153284601
 11
1161.249010087103
 21
965.14671532846
  0
LINE
  8
_0-0_計極細
  6
CONTINUOUS
 62
    2
 10
1174.249010087103
 20
959.5467153284601
 11
1174.249010087103
 21
965.14671532846
  0
LINE
  8
_0-0_計極細
  6
CONTINUOUS
 62
    2
 10
1161.249010087103
 20
942.546715328461
 11
1161.249010087103
 21
948.14671532846091
  0
LINE
  8
_0-0_計極細
  6
CONTINUOUS
 62
    2
 10
1174.249010087103
 20
942.546715328461
 11
1174.249010087103
 21
948.14671532846091
  0
LINE
  8
_0-0_計極細
  6
CONTINUOUS
 62
    2
 10
1161.249010087103
 20
925.54671532846191
 11
1161.249010087103
 21
931.14671532846182
  0
LINE
  8
_0-0_計極細
  6
CONTINUOUS
 62
    2
 10
1174.249010087103
 20
925.54671532846191
 11
1174.249010087103
 21
931.14671532846182
  0
LINE
  8
_0-0_計極細
  6
CONTINUOUS
 62
    2
 10
1161.249010087103
 20
908.84671532845891
 11
1161.249010087103
 21
914.14671532845864
  0
LINE
  8
_0-0_計極細
  6
CONTINUOUS
 62
    2
 10
1174.249010087103
 20
908.84671532845891
 11
1174.249010087103
 21
914.14671532845864
  0
LINE
  8
_0-0_計極細
  6
CONTINUOUS
 62
    2
 10
1161.249010087103
 20
892.24671532845991
 11
1161.249010087103
 21
897.44671532845973
  0
LINE
  8
_0-0_計極細
  6
CONTINUOUS
 62
    2
 10
1174.249010087103
 20
892.24671532845991
 11
1174.249010087103
 21
897.44671532845973
  0
LINE
  8
_0-0_計極細
  6
CENTER1
 62
    2
 10
1167.749010087103
 20
1239.5974347529275
 11
1167.749010087103
 21
873.28889158744846
  0
LINE
  8
_0-0_計極細
  6
CONTINUOUS
 62
    2
 10
433.74901008710299
 20
1050.1467153284605
 11
433.74901008710299
 21
1044.5467153284606
  0
LINE
  8
_0-0_計極細
  6
CONTINUOUS
 62
    2
 10
446.74901008710299
 20
1050.1467153284605
 11
446.74901008710299
 21
1044.5467153284606
  0
LINE
  8
_0-0_計極細
  6
CONTINUOUS
 62
    2
 10
433.74901008710299
 20
1067.1467153284614
 11
433.74901008710299
 21
1061.546715328461
  0
LINE
  8
_0-0_計極細
  6
CONTINUOUS
 62
    2
 10
446.74901008710299
 20
1067.1467153284614
 11
446.74901008710299
 21
1061.546715328461
  0
LINE
  8
_0-0_計極細
  6
CONTINUOUS
 62
    2
 10
433.74901008710299
 20
1084.1467153284618
 11
433.74901008710299
 21
1078.5467153284619
  0
LINE
  8
_0-0_計極細
  6
CONTINUOUS
 62
    2
 10
446.74901008710299
 20
1084.1467153284618
 11
446.74901008710299
 21
1078.5467153284619
  0
LINE
  8
_0-0_計極細
  6
CONTINUOUS
 62
    2
 10
433.74901008710299
 20
1101.1467153284627
 11
433.74901008710299
 21
1095.5467153284624
  0
LINE
  8
_0-0_計極細
  6
CONTINUOUS
 62
    2
 10
446.74901008710299
 20
1101.1467153284627
 11
446.74901008710299
 21
1095.5467153284624
  0
LINE
  8
_0-0_計極細
  6
CONTINUOUS
 62
    2
 10
433.74901008710299
 20
1118.1467153284632
 11
433.74901008710299
 21
1112.5467153284633
  0
LINE
  8
_0-0_計極細
  6
CONTINUOUS
 62
    2
 10
446.74901008710299
 20
1118.1467153284632
 11
446.74901008710299
 21
1112.5467153284633
  0
LINE
  8
_0-0_計極細
  6
CONTINUOUS
 62
    2
 10
433.74901008710299
 20
1135.1467153284623
 11
433.74901008710299
 21
1129.5467153284624
  0
LINE
  8
_0-0_計極細
  6
CONTINUOUS
 62
    2
 10
446.74901008710299
 20
1135.1467153284623
 11
446.74901008710299
 21
1129.5467153284624
  0
LINE
  8
_0-0_計極細
  6
CONTINUOUS
 62
    2
 10
433.74901008710299
 20
1152.1467153284614
 11
433.74901008710299
 21
1146.5467153284615
  0
LINE
  8
_0-0_計極細
  6
CONTINUOUS
 62
    2
 10
446.74901008710299
 20
1152.1467153284614
 11
446.74901008710299
 21
1146.5467153284615
  0
LINE
  8
_0-0_計極細
  6
CONTINUOUS
 62
    2
 10
433.74901008710299
 20
1169.1467153284605
 11
433.74901008710299
 21
1163.5467153284606
  0
LINE
  8
_0-0_計極細
  6
CONTINUOUS
 62
    2
 10
446.74901008710299
 20
1169.1467153284605
 11
446.74901008710299
 21
1163.5467153284606
  0
LINE
  8
_0-0_計極細
  6
CONTINUOUS
 62
    2
 10
433.74901008710299
 20
1186.1467153284595
 11
433.74901008710299
 21
1180.5467153284596
  0
LINE
  8
_0-0_計極細
  6
CONTINUOUS
 62
    2
 10
446.74901008710299
 20
1186.1467153284595
 11
446.74901008710299
 21
1180.5467153284596
  0
LINE
  8
_0-0_計極細
  6
CONTINUOUS
 62
    2
 10
433.74901008710299
 20
1202.8467153284626
 11
433.74901008710299
 21
1197.5467153284628
  0
LINE
  8
_0-0_計極細
  6
CONTINUOUS
 62
    2
 10
446.74901008710299
 20
1202.8467153284626
 11
446.74901008710299
 21
1197.5467153284628
  0
LINE
  8
_0-0_計極細
  6
CONTINUOUS
 62
    2
 10
433.74901008710299
 20
1219.4467153284616
 11
433.74901008710299
 21
1214.2467153284617
  0
LINE
  8
_0-0_計極細
  6
CONTINUOUS
 62
    2
 10
446.74901008710299
 20
1219.4467153284616
 11
446.74901008710299
 21
1214.2467153284617
  0
LINE
  8
_0-0_計極細
  6
CONTINUOUS
 62
    2
 10
433.74901008710299
 20
1027.5467153284596
 11
433.74901008710299
 21
1033.1467153284595
  0
LINE
  8
_0-0_計極細
  6
CONTINUOUS
 62
    2
 10
446.74901008710299
 20
1027.5467153284596
 11
446.74901008710299
 21
1033.1467153284595
  0
LINE
  8
_0-0_計極細
  6
CONTINUOUS
 62
    2
 10
433.74901008710299
 20
1010.5467153284587
 11
433.74901008710299
 21
1016.1467153284591
  0
LINE
  8
_0-0_計極細
  6
CONTINUOUS
 62
    2
 10
446.74901008710299
 20
1010.5467153284587
 11
446.74901008710299
 21
1016.1467153284591
  0
LINE
  8
_0-0_計極細
  6
CONTINUOUS
 62
    2
 10
433.74901008710299
 20
993.54671532845828
 11
433.74901008710299
 21
999.14671532845819
  0
LINE
  8
_0-0_計極細
  6
CONTINUOUS
 62
    2
 10
446.74901008710299
 20
993.54671532845828
 11
446.74901008710299
 21
999.14671532845819
  0
LINE
  8
_0-0_計極細
  6
CONTINUOUS
 62
    2
 10
433.74901008710299
 20
976.54671532845919
 11
433.74901008710299
 21
982.14671532845909
  0
LINE
  8
_0-0_計極細
  6
CONTINUOUS
 62
    2
 10
446.74901008710299
 20
976.54671532845919
 11
446.74901008710299
 21
982.14671532845909
  0
LINE
  8
_0-0_計極細
  6
CONTINUOUS
 62
    2
 10
433.74901008710299
 20
959.5467153284601
 11
433.74901008710299
 21
965.14671532846
  0
LINE
  8
_0-0_計極細
  6
CONTINUOUS
 62
    2
 10
446.74901008710299
 20
959.5467153284601
 11
446.74901008710299
 21
965.14671532846
  0
LINE
  8
_0-0_計極細
  6
CONTINUOUS
 62
    2
 10
433.74901008710299
 20
942.546715328461
 11
433.74901008710299
 21
948.14671532846091
  0
LINE
  8
_0-0_計極細
  6
CONTINUOUS
 62
    2
 10
446.74901008710299
 20
942.546715328461
 11
446.74901008710299
 21
948.14671532846091
  0
LINE
  8
_0-0_計極細
  6
CONTINUOUS
 62
    2
 10
433.74901008710299
 20
925.54671532846191
 11
433.74901008710299
 21
931.14671532846182
  0
LINE
  8
_0-0_計極細
  6
CONTINUOUS
 62
    2
 10
446.74901008710299
 20
925.54671532846191
 11
446.74901008710299
 21
931.14671532846182
  0
LINE
  8
_0-0_計極細
  6
CONTINUOUS
 62
    2
 10
433.74901008710299
 20
908.84671532845891
 11
433.74901008710299
 21
914.14671532845864
  0
LINE
  8
_0-0_計極細
  6
CONTINUOUS
 62
    2
 10
446.74901008710299
 20
908.84671532845891
 11
446.74901008710299
 21
914.14671532845864
  0
LINE
  8
_0-0_計極細
  6
CONTINUOUS
 62
    2
 10
433.74901008710299
 20
892.24671532845991
 11
433.74901008710299
 21
897.44671532845973
  0
LINE
  8
_0-0_計極細
  6
CONTINUOUS
 62
    2
 10
446.74901008710299
 20
892.24671532845991
 11
446.74901008710299
 21
897.44671532845973
  0
LINE
  8
_0-0_計極細
  6
CENTER1
 62
    2
 10
440.24901008710299
 20
1239.5974347529275
 11
440.24901008710299
 21
873.28889158744846
  0
LINE
  8
_0-0_計極細
  6
CONTINUOUS
 62
    2
 10
482.24901008710299
 20
1050.1467153284605
 11
482.24901008710299
 21
1044.5467153284606
  0
LINE
  8
_0-0_計極細
  6
CONTINUOUS
 62
    2
 10
495.24901008710299
 20
1050.1467153284605
 11
495.24901008710299
 21
1044.5467153284606
  0
LINE
  8
_0-0_計極細
  6
CONTINUOUS
 62
    2
 10
482.24901008710299
 20
1067.1467153284614
 11
482.24901008710299
 21
1061.546715328461
  0
LINE
  8
_0-0_計極細
  6
CONTINUOUS
 62
    2
 10
495.24901008710299
 20
1067.1467153284614
 11
495.24901008710299
 21
1061.546715328461
  0
LINE
  8
_0-0_計極細
  6
CONTINUOUS
 62
    2
 10
482.24901008710299
 20
1084.1467153284618
 11
482.24901008710299
 21
1078.5467153284619
  0
LINE
  8
_0-0_計極細
  6
CONTINUOUS
 62
    2
 10
495.24901008710299
 20
1084.1467153284618
 11
495.24901008710299
 21
1078.5467153284619
  0
LINE
  8
_0-0_計極細
  6
CONTINUOUS
 62
    2
 10
482.24901008710299
 20
1101.1467153284627
 11
482.24901008710299
 21
1095.5467153284624
  0
LINE
  8
_0-0_計極細
  6
CONTINUOUS
 62
    2
 10
495.24901008710299
 20
1101.1467153284627
 11
495.24901008710299
 21
1095.5467153284624
  0
LINE
  8
_0-0_計極細
  6
CONTINUOUS
 62
    2
 10
482.24901008710299
 20
1118.1467153284632
 11
482.24901008710299
 21
1112.5467153284633
  0
LINE
  8
_0-0_計極細
  6
CONTINUOUS
 62
    2
 10
495.24901008710299
 20
1118.1467153284632
 11
495.24901008710299
 21
1112.5467153284633
  0
LINE
  8
_0-0_計極細
  6
CONTINUOUS
 62
    2
 10
482.24901008710299
 20
1135.1467153284623
 11
482.24901008710299
 21
1129.5467153284624
  0
LINE
  8
_0-0_計極細
  6
CONTINUOUS
 62
    2
 10
495.24901008710299
 20
1135.1467153284623
 11
495.24901008710299
 21
1129.5467153284624
  0
LINE
  8
_0-0_計極細
  6
CONTINUOUS
 62
    2
 10
482.24901008710299
 20
1152.1467153284614
 11
482.24901008710299
 21
1146.5467153284615
  0
LINE
  8
_0-0_計極細
  6
CONTINUOUS
 62
    2
 10
495.24901008710299
 20
1152.1467153284614
 11
495.24901008710299
 21
1146.5467153284615
  0
LINE
  8
_0-0_計極細
  6
CONTINUOUS
 62
    2
 10
482.24901008710299
 20
1169.1467153284605
 11
482.24901008710299
 21
1163.5467153284606
  0
LINE
  8
_0-0_計極細
  6
CONTINUOUS
 62
    2
 10
495.24901008710299
 20
1169.1467153284605
 11
495.24901008710299
 21
1163.5467153284606
  0
LINE
  8
_0-0_計極細
  6
CONTINUOUS
 62
    2
 10
482.24901008710299
 20
1186.1467153284595
 11
482.24901008710299
 21
1180.5467153284596
  0
LINE
  8
_0-0_計極細
  6
CONTINUOUS
 62
    2
 10
495.24901008710299
 20
1186.1467153284595
 11
495.24901008710299
 21
1180.5467153284596
  0
LINE
  8
_0-0_計極細
  6
CONTINUOUS
 62
    2
 10
482.24901008710299
 20
1202.8467153284626
 11
482.24901008710299
 21
1197.5467153284628
  0
LINE
  8
_0-0_計極細
  6
CONTINUOUS
 62
    2
 10
495.24901008710299
 20
1202.8467153284626
 11
495.24901008710299
 21
1197.5467153284628
  0
LINE
  8
_0-0_計極細
  6
CONTINUOUS
 62
    2
 10
482.24901008710299
 20
1219.4467153284616
 11
482.24901008710299
 21
1214.2467153284617
  0
LINE
  8
_0-0_計極細
  6
CONTINUOUS
 62
    2
 10
495.24901008710299
 20
1219.4467153284616
 11
495.24901008710299
 21
1214.2467153284617
  0
LINE
  8
_0-0_計極細
  6
CONTINUOUS
 62
    2
 10
482.24901008710299
 20
1027.5467153284596
 11
482.24901008710299
 21
1033.1467153284595
  0
LINE
  8
_0-0_計極細
  6
CONTINUOUS
 62
    2
 10
495.24901008710299
 20
1027.5467153284596
 11
495.24901008710299
 21
1033.1467153284595
  0
LINE
  8
_0-0_計極細
  6
CONTINUOUS
 62
    2
 10
482.24901008710299
 20
1010.5467153284587
 11
482.24901008710299
 21
1016.1467153284591
  0
LINE
  8
_0-0_計極細
  6
CONTINUOUS
 62
    2
 10
495.24901008710299
 20
1010.5467153284587
 11
495.24901008710299
 21
1016.1467153284591
  0
LINE
  8
_0-0_計極細
  6
CONTINUOUS
 62
    2
 10
482.24901008710299
 20
993.54671532845828
 11
482.24901008710299
 21
999.14671532845819
  0
LINE
  8
_0-0_計極細
  6
CONTINUOUS
 62
    2
 10
495.24901008710299
 20
993.54671532845828
 11
495.24901008710299
 21
999.14671532845819
  0
LINE
  8
_0-0_計極細
  6
CONTINUOUS
 62
    2
 10
482.24901008710299
 20
976.54671532845919
 11
482.24901008710299
 21
982.14671532845909
  0
LINE
  8
_0-0_計極細
  6
CONTINUOUS
 62
    2
 10
495.24901008710299
 20
976.54671532845919
 11
495.24901008710299
 21
982.14671532845909
  0
LINE
  8
_0-0_計極細
  6
CONTINUOUS
 62
    2
 10
482.24901008710299
 20
959.5467153284601
 11
482.24901008710299
 21
965.14671532846
  0
LINE
  8
_0-0_計極細
  6
CONTINUOUS
 62
    2
 10
495.24901008710299
 20
959.5467153284601
 11
495.24901008710299
 21
965.14671532846
  0
LINE
  8
_0-0_計極細
  6
CONTINUOUS
 62
    2
 10
482.24901008710299
 20
942.546715328461
 11
482.24901008710299
 21
948.14671532846091
  0
LINE
  8
_0-0_計極細
  6
CONTINUOUS
 62
    2
 10
495.24901008710299
 20
942.546715328461
 11
495.24901008710299
 21
948.14671532846091
  0
LINE
  8
_0-0_計極細
  6
CONTINUOUS
 62
    2
 10
482.24901008710299
 20
925.54671532846191
 11
482.24901008710299
 21
931.14671532846182
  0
LINE
  8
_0-0_計極細
  6
CONTINUOUS
 62
    2
 10
495.24901008710299
 20
925.54671532846191
 11
495.24901008710299
 21
931.14671532846182
  0
LINE
  8
_0-0_計極細
  6
CONTINUOUS
 62
    2
 10
482.24901008710299
 20
908.84671532845891
 11
482.24901008710299
 21
914.14671532845864
  0
LINE
  8
_0-0_計極細
  6
CONTINUOUS
 62
    2
 10
495.24901008710299
 20
908.84671532845891
 11
495.24901008710299
 21
914.14671532845864
  0
LINE
  8
_0-0_計極細
  6
CONTINUOUS
 62
    2
 10
482.24901008710299
 20
892.24671532845991
 11
482.24901008710299
 21
897.44671532845973
  0
LINE
  8
_0-0_計極細
  6
CONTINUOUS
 62
    2
 10
495.24901008710299
 20
892.24671532845991
 11
495.24901008710299
 21
897.44671532845973
  0
LINE
  8
_0-0_計極細
  6
CENTER1
 62
    2
 10
488.74901008710299
 20
1239.5974347529275
 11
488.74901008710299
 21
873.28889158744846
  0
LINE
  8
_0-0_計極細
  6
CONTINUOUS
 62
    2
 10
530.74901008710299
 20
1050.1467153284605
 11
530.74901008710299
 21
1044.5467153284606
  0
LINE
  8
_0-0_計極細
  6
CONTINUOUS
 62
    2
 10
543.74901008710299
 20
1050.1467153284605
 11
543.74901008710299
 21
1044.5467153284606
  0
LINE
  8
_0-0_計極細
  6
CONTINUOUS
 62
    2
 10
530.74901008710299
 20
1067.1467153284614
 11
530.74901008710299
 21
1061.546715328461
  0
LINE
  8
_0-0_計極細
  6
CONTINUOUS
 62
    2
 10
543.74901008710299
 20
1067.1467153284614
 11
543.74901008710299
 21
1061.546715328461
  0
LINE
  8
_0-0_計極細
  6
CONTINUOUS
 62
    2
 10
530.74901008710299
 20
1084.1467153284618
 11
530.74901008710299
 21
1078.5467153284619
  0
LINE
  8
_0-0_計極細
  6
CONTINUOUS
 62
    2
 10
543.74901008710299
 20
1084.1467153284618
 11
543.74901008710299
 21
1078.5467153284619
  0
LINE
  8
_0-0_計極細
  6
CONTINUOUS
 62
    2
 10
530.74901008710299
 20
1101.1467153284627
 11
530.74901008710299
 21
1095.5467153284624
  0
LINE
  8
_0-0_計極細
  6
CONTINUOUS
 62
    2
 10
543.74901008710299
 20
1101.1467153284627
 11
543.74901008710299
 21
1095.5467153284624
  0
LINE
  8
_0-0_計極細
  6
CONTINUOUS
 62
    2
 10
530.74901008710299
 20
1118.1467153284632
 11
530.74901008710299
 21
1112.5467153284633
  0
LINE
  8
_0-0_計極細
  6
CONTINUOUS
 62
    2
 10
543.74901008710299
 20
1118.1467153284632
 11
543.74901008710299
 21
1112.5467153284633
  0
LINE
  8
_0-0_計極細
  6
CONTINUOUS
 62
    2
 10
530.74901008710299
 20
1135.1467153284623
 11
530.74901008710299
 21
1129.5467153284624
  0
LINE
  8
_0-0_計極細
  6
CONTINUOUS
 62
    2
 10
543.74901008710299
 20
1135.1467153284623
 11
543.74901008710299
 21
1129.5467153284624
  0
LINE
  8
_0-0_計極細
  6
CONTINUOUS
 62
    2
 10
530.74901008710299
 20
1152.1467153284614
 11
530.74901008710299
 21
1146.5467153284615
  0
LINE
  8
_0-0_計極細
  6
CONTINUOUS
 62
    2
 10
543.74901008710299
 20
1152.1467153284614
 11
543.74901008710299
 21
1146.5467153284615
  0
LINE
  8
_0-0_計極細
  6
CONTINUOUS
 62
    2
 10
530.74901008710299
 20
1169.1467153284605
 11
530.74901008710299
 21
1163.5467153284606
  0
LINE
  8
_0-0_計極細
  6
CONTINUOUS
 62
    2
 10
543.74901008710299
 20
1169.1467153284605
 11
543.74901008710299
 21
1163.5467153284606
  0
LINE
  8
_0-0_計極細
  6
CONTINUOUS
 62
    2
 10
530.74901008710299
 20
1186.1467153284595
 11
530.74901008710299
 21
1180.5467153284596
  0
LINE
  8
_0-0_計極細
  6
CONTINUOUS
 62
    2
 10
543.74901008710299
 20
1186.1467153284595
 11
543.74901008710299
 21
1180.5467153284596
  0
LINE
  8
_0-0_計極細
  6
CONTINUOUS
 62
    2
 10
530.74901008710299
 20
1202.8467153284626
 11
530.74901008710299
 21
1197.5467153284628
  0
LINE
  8
_0-0_計極細
  6
CONTINUOUS
 62
    2
 10
543.74901008710299
 20
1202.8467153284626
 11
543.74901008710299
 21
1197.5467153284628
  0
LINE
  8
_0-0_計極細
  6
CONTINUOUS
 62
    2
 10
530.74901008710299
 20
1219.4467153284616
 11
530.74901008710299
 21
1214.2467153284617
  0
LINE
  8
_0-0_計極細
  6
CONTINUOUS
 62
    2
 10
543.74901008710299
 20
1219.4467153284616
 11
543.74901008710299
 21
1214.2467153284617
  0
LINE
  8
_0-0_計極細
  6
CONTINUOUS
 62
    2
 10
530.74901008710299
 20
1027.5467153284596
 11
530.74901008710299
 21
1033.1467153284595
  0
LINE
  8
_0-0_計極細
  6
CONTINUOUS
 62
    2
 10
543.74901008710299
 20
1027.5467153284596
 11
543.74901008710299
 21
1033.1467153284595
  0
LINE
  8
_0-0_計極細
  6
CONTINUOUS
 62
    2
 10
530.74901008710299
 20
1010.5467153284587
 11
530.74901008710299
 21
1016.1467153284591
  0
LINE
  8
_0-0_計極細
  6
CONTINUOUS
 62
    2
 10
543.74901008710299
 20
1010.5467153284587
 11
543.74901008710299
 21
1016.1467153284591
  0
LINE
  8
_0-0_計極細
  6
CONTINUOUS
 62
    2
 10
530.74901008710299
 20
993.54671532845828
 11
530.74901008710299
 21
999.14671532845819
  0
LINE
  8
_0-0_計極細
  6
CONTINUOUS
 62
    2
 10
543.74901008710299
 20
993.54671532845828
 11
543.74901008710299
 21
999.14671532845819
  0
LINE
  8
_0-0_計極細
  6
CONTINUOUS
 62
    2
 10
530.74901008710299
 20
976.54671532845919
 11
530.74901008710299
 21
982.14671532845909
  0
LINE
  8
_0-0_計極細
  6
CONTINUOUS
 62
    2
 10
543.74901008710299
 20
976.54671532845919
 11
543.74901008710299
 21
982.14671532845909
  0
LINE
  8
_0-0_計極細
  6
CONTINUOUS
 62
    2
 10
530.74901008710299
 20
959.5467153284601
 11
530.74901008710299
 21
965.14671532846
  0
LINE
  8
_0-0_計極細
  6
CONTINUOUS
 62
    2
 10
543.74901008710299
 20
959.5467153284601
 11
543.74901008710299
 21
965.14671532846
  0
LINE
  8
_0-0_計極細
  6
CONTINUOUS
 62
    2
 10
530.74901008710299
 20
942.546715328461
 11
530.74901008710299
 21
948.14671532846091
  0
LINE
  8
_0-0_計極細
  6
CONTINUOUS
 62
    2
 10
543.74901008710299
 20
942.546715328461
 11
543.74901008710299
 21
948.14671532846091
  0
LINE
  8
_0-0_計極細
  6
CONTINUOUS
 62
    2
 10
530.74901008710299
 20
925.54671532846191
 11
530.74901008710299
 21
931.14671532846182
  0
LINE
  8
_0-0_計極細
  6
CONTINUOUS
 62
    2
 10
543.74901008710299
 20
925.54671532846191
 11
543.74901008710299
 21
931.14671532846182
  0
LINE
  8
_0-0_計極細
  6
CONTINUOUS
 62
    2
 10
530.74901008710299
 20
908.84671532845891
 11
530.74901008710299
 21
914.14671532845864
  0
LINE
  8
_0-0_計極細
  6
CONTINUOUS
 62
    2
 10
543.74901008710299
 20
908.84671532845891
 11
543.74901008710299
 21
914.14671532845864
  0
LINE
  8
_0-0_計極細
  6
CONTINUOUS
 62
    2
 10
530.74901008710299
 20
892.24671532845991
 11
530.74901008710299
 21
897.44671532845973
  0
LINE
  8
_0-0_計極細
  6
CONTINUOUS
 62
    2
 10
543.74901008710299
 20
892.24671532845991
 11
543.74901008710299
 21
897.44671532845973
  0
LINE
  8
_0-0_計極細
  6
CENTER1
 62
    2
 10
537.24901008710299
 20
1239.5974347529275
 11
537.24901008710299
 21
873.28889158744846
  0
LINE
  8
_0-0_計極細
  6
CONTINUOUS
 62
    2
 10
579.24901008710299
 20
1050.1467153284605
 11
579.24901008710299
 21
1044.5467153284606
  0
LINE
  8
_0-0_計極細
  6
CONTINUOUS
 62
    2
 10
592.24901008710299
 20
1050.1467153284605
 11
592.24901008710299
 21
1044.5467153284606
  0
LINE
  8
_0-0_計極細
  6
CONTINUOUS
 62
    2
 10
579.24901008710299
 20
1067.1467153284614
 11
579.24901008710299
 21
1061.546715328461
  0
LINE
  8
_0-0_計極細
  6
CONTINUOUS
 62
    2
 10
592.24901008710299
 20
1067.1467153284614
 11
592.24901008710299
 21
1061.546715328461
  0
LINE
  8
_0-0_計極細
  6
CONTINUOUS
 62
    2
 10
579.24901008710299
 20
1084.1467153284618
 11
579.24901008710299
 21
1078.5467153284619
  0
LINE
  8
_0-0_計極細
  6
CONTINUOUS
 62
    2
 10
592.24901008710299
 20
1084.1467153284618
 11
592.24901008710299
 21
1078.5467153284619
  0
LINE
  8
_0-0_計極細
  6
CONTINUOUS
 62
    2
 10
579.24901008710299
 20
1101.1467153284627
 11
579.24901008710299
 21
1095.5467153284624
  0
LINE
  8
_0-0_計極細
  6
CONTINUOUS
 62
    2
 10
592.24901008710299
 20
1101.1467153284627
 11
592.24901008710299
 21
1095.5467153284624
  0
LINE
  8
_0-0_計極細
  6
CONTINUOUS
 62
    2
 10
579.24901008710299
 20
1118.1467153284632
 11
579.24901008710299
 21
1112.5467153284633
  0
LINE
  8
_0-0_計極細
  6
CONTINUOUS
 62
    2
 10
592.24901008710299
 20
1118.1467153284632
 11
592.24901008710299
 21
1112.5467153284633
  0
LINE
  8
_0-0_計極細
  6
CONTINUOUS
 62
    2
 10
579.24901008710299
 20
1135.1467153284623
 11
579.24901008710299
 21
1129.5467153284624
  0
LINE
  8
_0-0_計極細
  6
CONTINUOUS
 62
    2
 10
592.24901008710299
 20
1135.1467153284623
 11
592.24901008710299
 21
1129.5467153284624
  0
LINE
  8
_0-0_計極細
  6
CONTINUOUS
 62
    2
 10
579.24901008710299
 20
1152.1467153284614
 11
579.24901008710299
 21
1146.5467153284615
  0
LINE
  8
_0-0_計極細
  6
CONTINUOUS
 62
    2
 10
592.24901008710299
 20
1152.1467153284614
 11
592.24901008710299
 21
1146.5467153284615
  0
LINE
  8
_0-0_計極細
  6
CONTINUOUS
 62
    2
 10
579.24901008710299
 20
1169.1467153284605
 11
579.24901008710299
 21
1163.5467153284606
  0
LINE
  8
_0-0_計極細
  6
CONTINUOUS
 62
    2
 10
592.24901008710299
 20
1169.1467153284605
 11
592.24901008710299
 21
1163.5467153284606
  0
LINE
  8
_0-0_計極細
  6
CONTINUOUS
 62
    2
 10
579.24901008710299
 20
1186.1467153284595
 11
579.24901008710299
 21
1180.5467153284596
  0
LINE
  8
_0-0_計極細
  6
CONTINUOUS
 62
    2
 10
592.24901008710299
 20
1186.1467153284595
 11
592.24901008710299
 21
1180.5467153284596
  0
LINE
  8
_0-0_計極細
  6
CONTINUOUS
 62
    2
 10
579.24901008710299
 20
1202.8467153284626
 11
579.24901008710299
 21
1197.5467153284628
  0
LINE
  8
_0-0_計極細
  6
CONTINUOUS
 62
    2
 10
592.24901008710299
 20
1202.8467153284626
 11
592.24901008710299
 21
1197.5467153284628
  0
LINE
  8
_0-0_計極細
  6
CONTINUOUS
 62
    2
 10
579.24901008710299
 20
1219.4467153284616
 11
579.24901008710299
 21
1214.2467153284617
  0
LINE
  8
_0-0_計極細
  6
CONTINUOUS
 62
    2
 10
592.24901008710299
 20
1219.4467153284616
 11
592.24901008710299
 21
1214.2467153284617
  0
LINE
  8
_0-0_計極細
  6
CONTINUOUS
 62
    2
 10
579.24901008710299
 20
1027.5467153284596
 11
579.24901008710299
 21
1033.1467153284595
  0
LINE
  8
_0-0_計極細
  6
CONTINUOUS
 62
    2
 10
592.24901008710299
 20
1027.5467153284596
 11
592.24901008710299
 21
1033.1467153284595
  0
LINE
  8
_0-0_計極細
  6
CONTINUOUS
 62
    2
 10
579.24901008710299
 20
1010.5467153284587
 11
579.24901008710299
 21
1016.1467153284591
  0
LINE
  8
_0-0_計極細
  6
CONTINUOUS
 62
    2
 10
592.24901008710299
 20
1010.5467153284587
 11
592.24901008710299
 21
1016.1467153284591
  0
LINE
  8
_0-0_計極細
  6
CONTINUOUS
 62
    2
 10
579.24901008710299
 20
993.54671532845828
 11
579.24901008710299
 21
999.14671532845819
  0
LINE
  8
_0-0_計極細
  6
CONTINUOUS
 62
    2
 10
592.24901008710299
 20
993.54671532845828
 11
592.24901008710299
 21
999.14671532845819
  0
LINE
  8
_0-0_計極細
  6
CONTINUOUS
 62
    2
 10
579.24901008710299
 20
976.54671532845919
 11
579.24901008710299
 21
982.14671532845909
  0
LINE
  8
_0-0_計極細
  6
CONTINUOUS
 62
    2
 10
592.24901008710299
 20
976.54671532845919
 11
592.24901008710299
 21
982.14671532845909
  0
LINE
  8
_0-0_計極細
  6
CONTINUOUS
 62
    2
 10
579.24901008710299
 20
959.5467153284601
 11
579.24901008710299
 21
965.14671532846
  0
LINE
  8
_0-0_計極細
  6
CONTINUOUS
 62
    2
 10
592.24901008710299
 20
959.5467153284601
 11
592.24901008710299
 21
965.14671532846
  0
LINE
  8
_0-0_計極細
  6
CONTINUOUS
 62
    2
 10
579.24901008710299
 20
942.546715328461
 11
579.24901008710299
 21
948.14671532846091
  0
LINE
  8
_0-0_計極細
  6
CONTINUOUS
 62
    2
 10
592.24901008710299
 20
942.546715328461
 11
592.24901008710299
 21
948.14671532846091
  0
LINE
  8
_0-0_計極細
  6
CONTINUOUS
 62
    2
 10
579.24901008710299
 20
925.54671532846191
 11
579.24901008710299
 21
931.14671532846182
  0
LINE
  8
_0-0_計極細
  6
CONTINUOUS
 62
    2
 10
592.24901008710299
 20
925.54671532846191
 11
592.24901008710299
 21
931.14671532846182
  0
LINE
  8
_0-0_計極細
  6
CONTINUOUS
 62
    2
 10
579.24901008710299
 20
908.84671532845891
 11
579.24901008710299
 21
914.14671532845864
  0
LINE
  8
_0-0_計極細
  6
CONTINUOUS
 62
    2
 10
592.24901008710299
 20
908.84671532845891
 11
592.24901008710299
 21
914.14671532845864
  0
LINE
  8
_0-0_計極細
  6
CONTINUOUS
 62
    2
 10
579.24901008710299
 20
892.24671532845991
 11
579.24901008710299
 21
897.44671532845973
  0
LINE
  8
_0-0_計極細
  6
CONTINUOUS
 62
    2
 10
592.24901008710299
 20
892.24671532845991
 11
592.24901008710299
 21
897.44671532845973
  0
LINE
  8
_0-0_計極細
  6
CENTER1
 62
    2
 10
585.74901008710299
 20
1239.5974347529275
 11
585.74901008710299
 21
873.28889158744846
  0
LINE
  8
_0-0_計極細
  6
CONTINUOUS
 62
    2
 10
627.74901008710299
 20
1050.1467153284605
 11
627.74901008710299
 21
1044.5467153284606
  0
LINE
  8
_0-0_計極細
  6
CONTINUOUS
 62
    2
 10
640.74901008710299
 20
1050.1467153284605
 11
640.74901008710299
 21
1044.5467153284606
  0
LINE
  8
_0-0_計極細
  6
CONTINUOUS
 62
    2
 10
627.74901008710299
 20
1067.1467153284614
 11
627.74901008710299
 21
1061.546715328461
  0
LINE
  8
_0-0_計極細
  6
CONTINUOUS
 62
    2
 10
640.74901008710299
 20
1067.1467153284614
 11
640.74901008710299
 21
1061.546715328461
  0
LINE
  8
_0-0_計極細
  6
CONTINUOUS
 62
    2
 10
627.74901008710299
 20
1084.1467153284618
 11
627.74901008710299
 21
1078.5467153284619
  0
LINE
  8
_0-0_計極細
  6
CONTINUOUS
 62
    2
 10
640.74901008710299
 20
1084.1467153284618
 11
640.74901008710299
 21
1078.5467153284619
  0
LINE
  8
_0-0_計極細
  6
CONTINUOUS
 62
    2
 10
627.74901008710299
 20
1101.1467153284627
 11
627.74901008710299
 21
1095.5467153284624
  0
LINE
  8
_0-0_計極細
  6
CONTINUOUS
 62
    2
 10
640.74901008710299
 20
1101.1467153284627
 11
640.74901008710299
 21
1095.5467153284624
  0
LINE
  8
_0-0_計極細
  6
CONTINUOUS
 62
    2
 10
627.74901008710299
 20
1118.1467153284632
 11
627.74901008710299
 21
1112.5467153284633
  0
LINE
  8
_0-0_計極細
  6
CONTINUOUS
 62
    2
 10
640.74901008710299
 20
1118.1467153284632
 11
640.74901008710299
 21
1112.5467153284633
  0
LINE
  8
_0-0_計極細
  6
CONTINUOUS
 62
    2
 10
627.74901008710299
 20
1135.1467153284623
 11
627.74901008710299
 21
1129.5467153284624
  0
LINE
  8
_0-0_計極細
  6
CONTINUOUS
 62
    2
 10
640.74901008710299
 20
1135.1467153284623
 11
640.74901008710299
 21
1129.5467153284624
  0
LINE
  8
_0-0_計極細
  6
CONTINUOUS
 62
    2
 10
627.74901008710299
 20
1152.1467153284614
 11
627.74901008710299
 21
1146.5467153284615
  0
LINE
  8
_0-0_計極細
  6
CONTINUOUS
 62
    2
 10
640.74901008710299
 20
1152.1467153284614
 11
640.74901008710299
 21
1146.5467153284615
  0
LINE
  8
_0-0_計極細
  6
CONTINUOUS
 62
    2
 10
627.74901008710299
 20
1169.1467153284605
 11
627.74901008710299
 21
1163.5467153284606
  0
LINE
  8
_0-0_計極細
  6
CONTINUOUS
 62
    2
 10
640.74901008710299
 20
1169.1467153284605
 11
640.74901008710299
 21
1163.5467153284606
  0
LINE
  8
_0-0_計極細
  6
CONTINUOUS
 62
    2
 10
627.74901008710299
 20
1186.1467153284595
 11
627.74901008710299
 21
1180.5467153284596
  0
LINE
  8
_0-0_計極細
  6
CONTINUOUS
 62
    2
 10
640.74901008710299
 20
1186.1467153284595
 11
640.74901008710299
 21
1180.5467153284596
  0
LINE
  8
_0-0_計極細
  6
CONTINUOUS
 62
    2
 10
627.74901008710299
 20
1202.8467153284626
 11
627.74901008710299
 21
1197.5467153284628
  0
LINE
  8
_0-0_計極細
  6
CONTINUOUS
 62
    2
 10
640.74901008710299
 20
1202.8467153284626
 11
640.74901008710299
 21
1197.5467153284628
  0
LINE
  8
_0-0_計極細
  6
CONTINUOUS
 62
    2
 10
627.74901008710299
 20
1219.4467153284616
 11
627.74901008710299
 21
1214.2467153284617
  0
LINE
  8
_0-0_計極細
  6
CONTINUOUS
 62
    2
 10
640.74901008710299
 20
1219.4467153284616
 11
640.74901008710299
 21
1214.2467153284617
  0
LINE
  8
_0-0_計極細
  6
CONTINUOUS
 62
    2
 10
627.74901008710299
 20
1027.5467153284596
 11
627.74901008710299
 21
1033.1467153284595
  0
LINE
  8
_0-0_計極細
  6
CONTINUOUS
 62
    2
 10
640.74901008710299
 20
1027.5467153284596
 11
640.74901008710299
 21
1033.1467153284595
  0
LINE
  8
_0-0_計極細
  6
CONTINUOUS
 62
    2
 10
627.74901008710299
 20
1010.5467153284587
 11
627.74901008710299
 21
1016.1467153284591
  0
LINE
  8
_0-0_計極細
  6
CONTINUOUS
 62
    2
 10
640.74901008710299
 20
1010.5467153284587
 11
640.74901008710299
 21
1016.1467153284591
  0
LINE
  8
_0-0_計極細
  6
CONTINUOUS
 62
    2
 10
627.74901008710299
 20
993.54671532845828
 11
627.74901008710299
 21
999.14671532845819
  0
LINE
  8
_0-0_計極細
  6
CONTINUOUS
 62
    2
 10
640.74901008710299
 20
993.54671532845828
 11
640.74901008710299
 21
999.14671532845819
  0
LINE
  8
_0-0_計極細
  6
CONTINUOUS
 62
    2
 10
627.74901008710299
 20
976.54671532845919
 11
627.74901008710299
 21
982.14671532845909
  0
LINE
  8
_0-0_計極細
  6
CONTINUOUS
 62
    2
 10
640.74901008710299
 20
976.54671532845919
 11
640.74901008710299
 21
982.14671532845909
  0
LINE
  8
_0-0_計極細
  6
CONTINUOUS
 62
    2
 10
627.74901008710299
 20
959.5467153284601
 11
627.74901008710299
 21
965.14671532846
  0
LINE
  8
_0-0_計極細
  6
CONTINUOUS
 62
    2
 10
640.74901008710299
 20
959.5467153284601
 11
640.74901008710299
 21
965.14671532846
  0
LINE
  8
_0-0_計極細
  6
CONTINUOUS
 62
    2
 10
627.74901008710299
 20
942.546715328461
 11
627.74901008710299
 21
948.14671532846091
  0
LINE
  8
_0-0_計極細
  6
CONTINUOUS
 62
    2
 10
640.74901008710299
 20
942.546715328461
 11
640.74901008710299
 21
948.14671532846091
  0
LINE
  8
_0-0_計極細
  6
CONTINUOUS
 62
    2
 10
627.74901008710299
 20
925.54671532846191
 11
627.74901008710299
 21
931.14671532846182
  0
LINE
  8
_0-0_計極細
  6
CONTINUOUS
 62
    2
 10
640.74901008710299
 20
925.54671532846191
 11
640.74901008710299
 21
931.14671532846182
  0
LINE
  8
_0-0_計極細
  6
CONTINUOUS
 62
    2
 10
627.74901008710299
 20
908.84671532845891
 11
627.74901008710299
 21
914.14671532845864
  0
LINE
  8
_0-0_計極細
  6
CONTINUOUS
 62
    2
 10
640.74901008710299
 20
908.84671532845891
 11
640.74901008710299
 21
914.14671532845864
  0
LINE
  8
_0-0_計極細
  6
CONTINUOUS
 62
    2
 10
627.74901008710299
 20
892.24671532845991
 11
627.74901008710299
 21
897.44671532845973
  0
LINE
  8
_0-0_計極細
  6
CONTINUOUS
 62
    2
 10
640.74901008710299
 20
892.24671532845991
 11
640.74901008710299
 21
897.44671532845973
  0
LINE
  8
_0-0_計極細
  6
CENTER1
 62
    2
 10
634.24901008710299
 20
1239.5974347529275
 11
634.24901008710299
 21
873.28889158744846
  0
LINE
  8
_0-0_計極細
  6
CONTINUOUS
 62
    2
 10
676.24901008710299
 20
1050.1467153284605
 11
676.24901008710299
 21
1044.5467153284606
  0
LINE
  8
_0-0_計極細
  6
CONTINUOUS
 62
    2
 10
689.24901008710299
 20
1050.1467153284605
 11
689.24901008710299
 21
1044.5467153284606
  0
LINE
  8
_0-0_計極細
  6
CONTINUOUS
 62
    2
 10
676.24901008710299
 20
1067.1467153284614
 11
676.24901008710299
 21
1061.546715328461
  0
LINE
  8
_0-0_計極細
  6
CONTINUOUS
 62
    2
 10
689.24901008710299
 20
1067.1467153284614
 11
689.24901008710299
 21
1061.546715328461
  0
LINE
  8
_0-0_計極細
  6
CONTINUOUS
 62
    2
 10
676.24901008710299
 20
1084.1467153284618
 11
676.24901008710299
 21
1078.5467153284619
  0
LINE
  8
_0-0_計極細
  6
CONTINUOUS
 62
    2
 10
689.24901008710299
 20
1084.1467153284618
 11
689.24901008710299
 21
1078.5467153284619
  0
LINE
  8
_0-0_計極細
  6
CONTINUOUS
 62
    2
 10
676.24901008710299
 20
1101.1467153284627
 11
676.24901008710299
 21
1095.5467153284624
  0
LINE
  8
_0-0_計極細
  6
CONTINUOUS
 62
    2
 10
689.24901008710299
 20
1101.1467153284627
 11
689.24901008710299
 21
1095.5467153284624
  0
LINE
  8
_0-0_計極細
  6
CONTINUOUS
 62
    2
 10
676.24901008710299
 20
1118.1467153284632
 11
676.24901008710299
 21
1112.5467153284633
  0
LINE
  8
_0-0_計極細
  6
CONTINUOUS
 62
    2
 10
689.24901008710299
 20
1118.1467153284632
 11
689.24901008710299
 21
1112.5467153284633
  0
LINE
  8
_0-0_計極細
  6
CONTINUOUS
 62
    2
 10
676.24901008710299
 20
1135.1467153284623
 11
676.24901008710299
 21
1129.5467153284624
  0
LINE
  8
_0-0_計極細
  6
CONTINUOUS
 62
    2
 10
689.24901008710299
 20
1135.1467153284623
 11
689.24901008710299
 21
1129.5467153284624
  0
LINE
  8
_0-0_計極細
  6
CONTINUOUS
 62
    2
 10
676.24901008710299
 20
1152.1467153284614
 11
676.24901008710299
 21
1146.5467153284615
  0
LINE
  8
_0-0_計極細
  6
CONTINUOUS
 62
    2
 10
689.24901008710299
 20
1152.1467153284614
 11
689.24901008710299
 21
1146.5467153284615
  0
LINE
  8
_0-0_計極細
  6
CONTINUOUS
 62
    2
 10
676.24901008710299
 20
1169.1467153284605
 11
676.24901008710299
 21
1163.5467153284606
  0
LINE
  8
_0-0_計極細
  6
CONTINUOUS
 62
    2
 10
689.24901008710299
 20
1169.1467153284605
 11
689.24901008710299
 21
1163.5467153284606
  0
LINE
  8
_0-0_計極細
  6
CONTINUOUS
 62
    2
 10
676.24901008710299
 20
1186.1467153284595
 11
676.24901008710299
 21
1180.5467153284596
  0
LINE
  8
_0-0_計極細
  6
CONTINUOUS
 62
    2
 10
689.24901008710299
 20
1186.1467153284595
 11
689.24901008710299
 21
1180.5467153284596
  0
LINE
  8
_0-0_計極細
  6
CONTINUOUS
 62
    2
 10
676.24901008710299
 20
1202.8467153284626
 11
676.24901008710299
 21
1197.5467153284628
  0
LINE
  8
_0-0_計極細
  6
CONTINUOUS
 62
    2
 10
689.24901008710299
 20
1202.8467153284626
 11
689.24901008710299
 21
1197.5467153284628
  0
LINE
  8
_0-0_計極細
  6
CONTINUOUS
 62
    2
 10
676.24901008710299
 20
1219.4467153284616
 11
676.24901008710299
 21
1214.2467153284617
  0
LINE
  8
_0-0_計極細
  6
CONTINUOUS
 62
    2
 10
689.24901008710299
 20
1219.4467153284616
 11
689.24901008710299
 21
1214.2467153284617
  0
LINE
  8
_0-0_計極細
  6
CONTINUOUS
 62
    2
 10
676.24901008710299
 20
1027.5467153284596
 11
676.24901008710299
 21
1033.1467153284595
  0
LINE
  8
_0-0_計極細
  6
CONTINUOUS
 62
    2
 10
689.24901008710299
 20
1027.5467153284596
 11
689.24901008710299
 21
1033.1467153284595
  0
LINE
  8
_0-0_計極細
  6
CONTINUOUS
 62
    2
 10
676.24901008710299
 20
1010.5467153284587
 11
676.24901008710299
 21
1016.1467153284591
  0
LINE
  8
_0-0_計極細
  6
CONTINUOUS
 62
    2
 10
689.24901008710299
 20
1010.5467153284587
 11
689.24901008710299
 21
1016.1467153284591
  0
LINE
  8
_0-0_計極細
  6
CONTINUOUS
 62
    2
 10
676.24901008710299
 20
993.54671532845828
 11
676.24901008710299
 21
999.14671532845819
  0
LINE
  8
_0-0_計極細
  6
CONTINUOUS
 62
    2
 10
689.24901008710299
 20
993.54671532845828
 11
689.24901008710299
 21
999.14671532845819
  0
LINE
  8
_0-0_計極細
  6
CONTINUOUS
 62
    2
 10
676.24901008710299
 20
976.54671532845919
 11
676.24901008710299
 21
982.14671532845909
  0
LINE
  8
_0-0_計極細
  6
CONTINUOUS
 62
    2
 10
689.24901008710299
 20
976.54671532845919
 11
689.24901008710299
 21
982.14671532845909
  0
LINE
  8
_0-0_計極細
  6
CONTINUOUS
 62
    2
 10
676.24901008710299
 20
959.5467153284601
 11
676.24901008710299
 21
965.14671532846
  0
LINE
  8
_0-0_計極細
  6
CONTINUOUS
 62
    2
 10
689.24901008710299
 20
959.5467153284601
 11
689.24901008710299
 21
965.14671532846
  0
LINE
  8
_0-0_計極細
  6
CONTINUOUS
 62
    2
 10
676.24901008710299
 20
942.546715328461
 11
676.24901008710299
 21
948.14671532846091
  0
LINE
  8
_0-0_計極細
  6
CONTINUOUS
 62
    2
 10
689.24901008710299
 20
942.546715328461
 11
689.24901008710299
 21
948.14671532846091
  0
LINE
  8
_0-0_計極細
  6
CONTINUOUS
 62
    2
 10
676.24901008710299
 20
925.54671532846191
 11
676.24901008710299
 21
931.14671532846182
  0
LINE
  8
_0-0_計極細
  6
CONTINUOUS
 62
    2
 10
689.24901008710299
 20
925.54671532846191
 11
689.24901008710299
 21
931.14671532846182
  0
LINE
  8
_0-0_計極細
  6
CONTINUOUS
 62
    2
 10
676.24901008710299
 20
908.84671532845891
 11
676.24901008710299
 21
914.14671532845864
  0
LINE
  8
_0-0_計極細
  6
CONTINUOUS
 62
    2
 10
689.24901008710299
 20
908.84671532845891
 11
689.24901008710299
 21
914.14671532845864
  0
LINE
  8
_0-0_計極細
  6
CONTINUOUS
 62
    2
 10
676.24901008710299
 20
892.24671532845991
 11
676.24901008710299
 21
897.44671532845973
  0
LINE
  8
_0-0_計極細
  6
CONTINUOUS
 62
    2
 10
689.24901008710299
 20
892.24671532845991
 11
689.24901008710299
 21
897.44671532845973
  0
LINE
  8
_0-0_計極細
  6
CENTER1
 62
    2
 10
682.74901008710299
 20
1239.5974347529275
 11
682.74901008710299
 21
873.28889158744846
  0
LINE
  8
_0-0_計極細
  6
CONTINUOUS
 62
    2
 10
724.74901008710299
 20
1050.1467153284605
 11
724.74901008710299
 21
1044.5467153284606
  0
LINE
  8
_0-0_計極細
  6
CONTINUOUS
 62
    2
 10
737.74901008710299
 20
1050.1467153284605
 11
737.74901008710299
 21
1044.5467153284606
  0
LINE
  8
_0-0_計極細
  6
CONTINUOUS
 62
    2
 10
724.74901008710299
 20
1067.1467153284614
 11
724.74901008710299
 21
1061.546715328461
  0
LINE
  8
_0-0_計極細
  6
CONTINUOUS
 62
    2
 10
737.74901008710299
 20
1067.1467153284614
 11
737.74901008710299
 21
1061.546715328461
  0
LINE
  8
_0-0_計極細
  6
CONTINUOUS
 62
    2
 10
724.74901008710299
 20
1084.1467153284618
 11
724.74901008710299
 21
1078.5467153284619
  0
LINE
  8
_0-0_計極細
  6
CONTINUOUS
 62
    2
 10
737.74901008710299
 20
1084.1467153284618
 11
737.74901008710299
 21
1078.5467153284619
  0
LINE
  8
_0-0_計極細
  6
CONTINUOUS
 62
    2
 10
724.74901008710299
 20
1101.1467153284627
 11
724.74901008710299
 21
1095.5467153284624
  0
LINE
  8
_0-0_計極細
  6
CONTINUOUS
 62
    2
 10
737.74901008710299
 20
1101.1467153284627
 11
737.74901008710299
 21
1095.5467153284624
  0
LINE
  8
_0-0_計極細
  6
CONTINUOUS
 62
    2
 10
724.74901008710299
 20
1118.1467153284632
 11
724.74901008710299
 21
1112.5467153284633
  0
LINE
  8
_0-0_計極細
  6
CONTINUOUS
 62
    2
 10
737.74901008710299
 20
1118.1467153284632
 11
737.74901008710299
 21
1112.5467153284633
  0
LINE
  8
_0-0_計極細
  6
CONTINUOUS
 62
    2
 10
724.74901008710299
 20
1135.1467153284623
 11
724.74901008710299
 21
1129.5467153284624
  0
LINE
  8
_0-0_計極細
  6
CONTINUOUS
 62
    2
 10
737.74901008710299
 20
1135.1467153284623
 11
737.74901008710299
 21
1129.5467153284624
  0
LINE
  8
_0-0_計極細
  6
CONTINUOUS
 62
    2
 10
724.74901008710299
 20
1152.1467153284614
 11
724.74901008710299
 21
1146.5467153284615
  0
LINE
  8
_0-0_計極細
  6
CONTINUOUS
 62
    2
 10
737.74901008710299
 20
1152.1467153284614
 11
737.74901008710299
 21
1146.5467153284615
  0
LINE
  8
_0-0_計極細
  6
CONTINUOUS
 62
    2
 10
724.74901008710299
 20
1169.1467153284605
 11
724.74901008710299
 21
1163.5467153284606
  0
LINE
  8
_0-0_計極細
  6
CONTINUOUS
 62
    2
 10
737.74901008710299
 20
1169.1467153284605
 11
737.74901008710299
 21
1163.5467153284606
  0
LINE
  8
_0-0_計極細
  6
CONTINUOUS
 62
    2
 10
724.74901008710299
 20
1186.1467153284595
 11
724.74901008710299
 21
1180.5467153284596
  0
LINE
  8
_0-0_計極細
  6
CONTINUOUS
 62
    2
 10
737.74901008710299
 20
1186.1467153284595
 11
737.74901008710299
 21
1180.5467153284596
  0
LINE
  8
_0-0_計極細
  6
CONTINUOUS
 62
    2
 10
724.74901008710299
 20
1202.8467153284626
 11
724.74901008710299
 21
1197.5467153284628
  0
LINE
  8
_0-0_計極細
  6
CONTINUOUS
 62
    2
 10
737.74901008710299
 20
1202.8467153284626
 11
737.74901008710299
 21
1197.5467153284628
  0
LINE
  8
_0-0_計極細
  6
CONTINUOUS
 62
    2
 10
724.74901008710299
 20
1219.4467153284616
 11
724.74901008710299
 21
1214.2467153284617
  0
LINE
  8
_0-0_計極細
  6
CONTINUOUS
 62
    2
 10
737.74901008710299
 20
1219.4467153284616
 11
737.74901008710299
 21
1214.2467153284617
  0
LINE
  8
_0-0_計極細
  6
CONTINUOUS
 62
    2
 10
724.74901008710299
 20
1027.5467153284596
 11
724.74901008710299
 21
1033.1467153284595
  0
LINE
  8
_0-0_計極細
  6
CONTINUOUS
 62
    2
 10
737.74901008710299
 20
1027.5467153284596
 11
737.74901008710299
 21
1033.1467153284595
  0
LINE
  8
_0-0_計極細
  6
CONTINUOUS
 62
    2
 10
724.74901008710299
 20
1010.5467153284587
 11
724.74901008710299
 21
1016.1467153284591
  0
LINE
  8
_0-0_計極細
  6
CONTINUOUS
 62
    2
 10
737.74901008710299
 20
1010.5467153284587
 11
737.74901008710299
 21
1016.1467153284591
  0
LINE
  8
_0-0_計極細
  6
CONTINUOUS
 62
    2
 10
724.74901008710299
 20
993.54671532845828
 11
724.74901008710299
 21
999.14671532845819
  0
LINE
  8
_0-0_計極細
  6
CONTINUOUS
 62
    2
 10
737.74901008710299
 20
993.54671532845828
 11
737.74901008710299
 21
999.14671532845819
  0
LINE
  8
_0-0_計極細
  6
CONTINUOUS
 62
    2
 10
724.74901008710299
 20
976.54671532845919
 11
724.74901008710299
 21
982.14671532845909
  0
LINE
  8
_0-0_計極細
  6
CONTINUOUS
 62
    2
 10
737.74901008710299
 20
976.54671532845919
 11
737.74901008710299
 21
982.14671532845909
  0
LINE
  8
_0-0_計極細
  6
CONTINUOUS
 62
    2
 10
724.74901008710299
 20
959.5467153284601
 11
724.74901008710299
 21
965.14671532846
  0
LINE
  8
_0-0_計極細
  6
CONTINUOUS
 62
    2
 10
737.74901008710299
 20
959.5467153284601
 11
737.74901008710299
 21
965.14671532846
  0
LINE
  8
_0-0_計極細
  6
CONTINUOUS
 62
    2
 10
724.74901008710299
 20
942.546715328461
 11
724.74901008710299
 21
948.14671532846091
  0
LINE
  8
_0-0_計極細
  6
CONTINUOUS
 62
    2
 10
737.74901008710299
 20
942.546715328461
 11
737.74901008710299
 21
948.14671532846091
  0
LINE
  8
_0-0_計極細
  6
CONTINUOUS
 62
    2
 10
724.74901008710299
 20
925.54671532846191
 11
724.74901008710299
 21
931.14671532846182
  0
LINE
  8
_0-0_計極細
  6
CONTINUOUS
 62
    2
 10
737.74901008710299
 20
925.54671532846191
 11
737.74901008710299
 21
931.14671532846182
  0
LINE
  8
_0-0_計極細
  6
CONTINUOUS
 62
    2
 10
724.74901008710299
 20
908.84671532845891
 11
724.74901008710299
 21
914.14671532845864
  0
LINE
  8
_0-0_計極細
  6
CONTINUOUS
 62
    2
 10
737.74901008710299
 20
908.84671532845891
 11
737.74901008710299
 21
914.14671532845864
  0
LINE
  8
_0-0_計極細
  6
CONTINUOUS
 62
    2
 10
724.74901008710299
 20
892.24671532845991
 11
724.74901008710299
 21
897.44671532845973
  0
LINE
  8
_0-0_計極細
  6
CONTINUOUS
 62
    2
 10
737.74901008710299
 20
892.24671532845991
 11
737.74901008710299
 21
897.44671532845973
  0
LINE
  8
_0-0_計極細
  6
CENTER1
 62
    2
 10
731.24901008710299
 20
1239.5974347529275
 11
731.24901008710299
 21
873.28889158744846
  0
LINE
  8
_0-0_計極細
  6
CONTINUOUS
 62
    2
 10
773.24901008710299
 20
1050.1467153284605
 11
773.24901008710299
 21
1044.5467153284606
  0
LINE
  8
_0-0_計極細
  6
CONTINUOUS
 62
    2
 10
786.24901008710299
 20
1050.1467153284605
 11
786.24901008710299
 21
1044.5467153284606
  0
LINE
  8
_0-0_計極細
  6
CONTINUOUS
 62
    2
 10
773.24901008710299
 20
1067.1467153284614
 11
773.24901008710299
 21
1061.546715328461
  0
LINE
  8
_0-0_計極細
  6
CONTINUOUS
 62
    2
 10
786.24901008710299
 20
1067.1467153284614
 11
786.24901008710299
 21
1061.546715328461
  0
LINE
  8
_0-0_計極細
  6
CONTINUOUS
 62
    2
 10
773.24901008710299
 20
1084.1467153284618
 11
773.24901008710299
 21
1078.5467153284619
  0
LINE
  8
_0-0_計極細
  6
CONTINUOUS
 62
    2
 10
786.24901008710299
 20
1084.1467153284618
 11
786.24901008710299
 21
1078.5467153284619
  0
LINE
  8
_0-0_計極細
  6
CONTINUOUS
 62
    2
 10
773.24901008710299
 20
1101.1467153284627
 11
773.24901008710299
 21
1095.5467153284624
  0
LINE
  8
_0-0_計極細
  6
CONTINUOUS
 62
    2
 10
786.24901008710299
 20
1101.1467153284627
 11
786.24901008710299
 21
1095.5467153284624
  0
LINE
  8
_0-0_計極細
  6
CONTINUOUS
 62
    2
 10
773.24901008710299
 20
1118.1467153284632
 11
773.24901008710299
 21
1112.5467153284633
  0
LINE
  8
_0-0_計極細
  6
CONTINUOUS
 62
    2
 10
786.24901008710299
 20
1118.1467153284632
 11
786.24901008710299
 21
1112.5467153284633
  0
LINE
  8
_0-0_計極細
  6
CONTINUOUS
 62
    2
 10
773.24901008710299
 20
1135.1467153284623
 11
773.24901008710299
 21
1129.5467153284624
  0
LINE
  8
_0-0_計極細
  6
CONTINUOUS
 62
    2
 10
786.24901008710299
 20
1135.1467153284623
 11
786.24901008710299
 21
1129.5467153284624
  0
LINE
  8
_0-0_計極細
  6
CONTINUOUS
 62
    2
 10
773.24901008710299
 20
1152.1467153284614
 11
773.24901008710299
 21
1146.5467153284615
  0
LINE
  8
_0-0_計極細
  6
CONTINUOUS
 62
    2
 10
786.24901008710299
 20
1152.1467153284614
 11
786.24901008710299
 21
1146.5467153284615
  0
LINE
  8
_0-0_計極細
  6
CONTINUOUS
 62
    2
 10
773.24901008710299
 20
1169.1467153284605
 11
773.24901008710299
 21
1163.5467153284606
  0
LINE
  8
_0-0_計極細
  6
CONTINUOUS
 62
    2
 10
786.24901008710299
 20
1169.1467153284605
 11
786.24901008710299
 21
1163.5467153284606
  0
LINE
  8
_0-0_計極細
  6
CONTINUOUS
 62
    2
 10
773.24901008710299
 20
1186.1467153284595
 11
773.24901008710299
 21
1180.5467153284596
  0
LINE
  8
_0-0_計極細
  6
CONTINUOUS
 62
    2
 10
786.24901008710299
 20
1186.1467153284595
 11
786.24901008710299
 21
1180.5467153284596
  0
LINE
  8
_0-0_計極細
  6
CONTINUOUS
 62
    2
 10
773.24901008710299
 20
1202.8467153284626
 11
773.24901008710299
 21
1197.5467153284628
  0
LINE
  8
_0-0_計極細
  6
CONTINUOUS
 62
    2
 10
786.24901008710299
 20
1202.8467153284626
 11
786.24901008710299
 21
1197.5467153284628
  0
LINE
  8
_0-0_計極細
  6
CONTINUOUS
 62
    2
 10
773.24901008710299
 20
1219.4467153284616
 11
773.24901008710299
 21
1214.2467153284617
  0
LINE
  8
_0-0_計極細
  6
CONTINUOUS
 62
    2
 10
786.24901008710299
 20
1219.4467153284616
 11
786.24901008710299
 21
1214.2467153284617
  0
LINE
  8
_0-0_計極細
  6
CONTINUOUS
 62
    2
 10
773.24901008710299
 20
1027.5467153284596
 11
773.24901008710299
 21
1033.1467153284595
  0
LINE
  8
_0-0_計極細
  6
CONTINUOUS
 62
    2
 10
786.24901008710299
 20
1027.5467153284596
 11
786.24901008710299
 21
1033.1467153284595
  0
LINE
  8
_0-0_計極細
  6
CONTINUOUS
 62
    2
 10
773.24901008710299
 20
1010.5467153284587
 11
773.24901008710299
 21
1016.1467153284591
  0
LINE
  8
_0-0_計極細
  6
CONTINUOUS
 62
    2
 10
786.24901008710299
 20
1010.5467153284587
 11
786.24901008710299
 21
1016.1467153284591
  0
LINE
  8
_0-0_計極細
  6
CONTINUOUS
 62
    2
 10
773.24901008710299
 20
993.54671532845828
 11
773.24901008710299
 21
999.14671532845819
  0
LINE
  8
_0-0_計極細
  6
CONTINUOUS
 62
    2
 10
786.24901008710299
 20
993.54671532845828
 11
786.24901008710299
 21
999.14671532845819
  0
LINE
  8
_0-0_計極細
  6
CONTINUOUS
 62
    2
 10
773.24901008710299
 20
976.54671532845919
 11
773.24901008710299
 21
982.14671532845909
  0
LINE
  8
_0-0_計極細
  6
CONTINUOUS
 62
    2
 10
786.24901008710299
 20
976.54671532845919
 11
786.24901008710299
 21
982.14671532845909
  0
LINE
  8
_0-0_計極細
  6
CONTINUOUS
 62
    2
 10
773.24901008710299
 20
959.5467153284601
 11
773.24901008710299
 21
965.14671532846
  0
LINE
  8
_0-0_計極細
  6
CONTINUOUS
 62
    2
 10
786.24901008710299
 20
959.5467153284601
 11
786.24901008710299
 21
965.14671532846
  0
LINE
  8
_0-0_計極細
  6
CONTINUOUS
 62
    2
 10
773.24901008710299
 20
942.546715328461
 11
773.24901008710299
 21
948.14671532846091
  0
LINE
  8
_0-0_計極細
  6
CONTINUOUS
 62
    2
 10
786.24901008710299
 20
942.546715328461
 11
786.24901008710299
 21
948.14671532846091
  0
LINE
  8
_0-0_計極細
  6
CONTINUOUS
 62
    2
 10
773.24901008710299
 20
925.54671532846191
 11
773.24901008710299
 21
931.14671532846182
  0
LINE
  8
_0-0_計極細
  6
CONTINUOUS
 62
    2
 10
786.24901008710299
 20
925.54671532846191
 11
786.24901008710299
 21
931.14671532846182
  0
LINE
  8
_0-0_計極細
  6
CONTINUOUS
 62
    2
 10
773.24901008710299
 20
908.84671532845891
 11
773.24901008710299
 21
914.14671532845864
  0
LINE
  8
_0-0_計極細
  6
CONTINUOUS
 62
    2
 10
786.24901008710299
 20
908.84671532845891
 11
786.24901008710299
 21
914.14671532845864
  0
LINE
  8
_0-0_計極細
  6
CONTINUOUS
 62
    2
 10
773.24901008710299
 20
892.24671532845991
 11
773.24901008710299
 21
897.44671532845973
  0
LINE
  8
_0-0_計極細
  6
CONTINUOUS
 62
    2
 10
786.24901008710299
 20
892.24671532845991
 11
786.24901008710299
 21
897.44671532845973
  0
LINE
  8
_0-0_計極細
  6
CENTER1
 62
    2
 10
779.74901008710299
 20
1239.5974347529275
 11
779.74901008710299
 21
873.28889158744846
  0
LINE
  8
_0-0_計極細
  6
CONTINUOUS
 62
    2
 10
821.74901008710299
 20
1050.1467153284605
 11
821.74901008710299
 21
1044.5467153284606
  0
LINE
  8
_0-0_計極細
  6
CONTINUOUS
 62
    2
 10
834.74901008710299
 20
1050.1467153284605
 11
834.74901008710299
 21
1044.5467153284606
  0
LINE
  8
_0-0_計極細
  6
CONTINUOUS
 62
    2
 10
821.74901008710299
 20
1067.1467153284614
 11
821.74901008710299
 21
1061.546715328461
  0
LINE
  8
_0-0_計極細
  6
CONTINUOUS
 62
    2
 10
834.74901008710299
 20
1067.1467153284614
 11
834.74901008710299
 21
1061.546715328461
  0
LINE
  8
_0-0_計極細
  6
CONTINUOUS
 62
    2
 10
821.74901008710299
 20
1084.1467153284618
 11
821.74901008710299
 21
1078.5467153284619
  0
LINE
  8
_0-0_計極細
  6
CONTINUOUS
 62
    2
 10
834.74901008710299
 20
1084.1467153284618
 11
834.74901008710299
 21
1078.5467153284619
  0
LINE
  8
_0-0_計極細
  6
CONTINUOUS
 62
    2
 10
821.74901008710299
 20
1101.1467153284627
 11
821.74901008710299
 21
1095.5467153284624
  0
LINE
  8
_0-0_計極細
  6
CONTINUOUS
 62
    2
 10
834.74901008710299
 20
1101.1467153284627
 11
834.74901008710299
 21
1095.5467153284624
  0
LINE
  8
_0-0_計極細
  6
CONTINUOUS
 62
    2
 10
821.74901008710299
 20
1118.1467153284632
 11
821.74901008710299
 21
1112.5467153284633
  0
LINE
  8
_0-0_計極細
  6
CONTINUOUS
 62
    2
 10
834.74901008710299
 20
1118.1467153284632
 11
834.74901008710299
 21
1112.5467153284633
  0
LINE
  8
_0-0_計極細
  6
CONTINUOUS
 62
    2
 10
821.74901008710299
 20
1135.1467153284623
 11
821.74901008710299
 21
1129.5467153284624
  0
LINE
  8
_0-0_計極細
  6
CONTINUOUS
 62
    2
 10
834.74901008710299
 20
1135.1467153284623
 11
834.74901008710299
 21
1129.5467153284624
  0
LINE
  8
_0-0_計極細
  6
CONTINUOUS
 62
    2
 10
821.74901008710299
 20
1152.1467153284614
 11
821.74901008710299
 21
1146.5467153284615
  0
LINE
  8
_0-0_計極細
  6
CONTINUOUS
 62
    2
 10
834.74901008710299
 20
1152.1467153284614
 11
834.74901008710299
 21
1146.5467153284615
  0
LINE
  8
_0-0_計極細
  6
CONTINUOUS
 62
    2
 10
821.74901008710299
 20
1169.1467153284605
 11
821.74901008710299
 21
1163.5467153284606
  0
LINE
  8
_0-0_計極細
  6
CONTINUOUS
 62
    2
 10
834.74901008710299
 20
1169.1467153284605
 11
834.74901008710299
 21
1163.5467153284606
  0
LINE
  8
_0-0_計極細
  6
CONTINUOUS
 62
    2
 10
821.74901008710299
 20
1186.1467153284595
 11
821.74901008710299
 21
1180.5467153284596
  0
LINE
  8
_0-0_計極細
  6
CONTINUOUS
 62
    2
 10
834.74901008710299
 20
1186.1467153284595
 11
834.74901008710299
 21
1180.5467153284596
  0
LINE
  8
_0-0_計極細
  6
CONTINUOUS
 62
    2
 10
821.74901008710299
 20
1202.8467153284626
 11
821.74901008710299
 21
1197.5467153284628
  0
LINE
  8
_0-0_計極細
  6
CONTINUOUS
 62
    2
 10
834.74901008710299
 20
1202.8467153284626
 11
834.74901008710299
 21
1197.5467153284628
  0
LINE
  8
_0-0_計極細
  6
CONTINUOUS
 62
    2
 10
821.74901008710299
 20
1219.4467153284616
 11
821.74901008710299
 21
1214.2467153284617
  0
LINE
  8
_0-0_計極細
  6
CONTINUOUS
 62
    2
 10
834.74901008710299
 20
1219.4467153284616
 11
834.74901008710299
 21
1214.2467153284617
  0
LINE
  8
_0-0_計極細
  6
CONTINUOUS
 62
    2
 10
821.74901008710299
 20
1027.5467153284596
 11
821.74901008710299
 21
1033.1467153284595
  0
LINE
  8
_0-0_計極細
  6
CONTINUOUS
 62
    2
 10
834.74901008710299
 20
1027.5467153284596
 11
834.74901008710299
 21
1033.1467153284595
  0
LINE
  8
_0-0_計極細
  6
CONTINUOUS
 62
    2
 10
821.74901008710299
 20
1010.5467153284587
 11
821.74901008710299
 21
1016.1467153284591
  0
LINE
  8
_0-0_計極細
  6
CONTINUOUS
 62
    2
 10
834.74901008710299
 20
1010.5467153284587
 11
834.74901008710299
 21
1016.1467153284591
  0
LINE
  8
_0-0_計極細
  6
CONTINUOUS
 62
    2
 10
821.74901008710299
 20
993.54671532845828
 11
821.74901008710299
 21
999.14671532845819
  0
LINE
  8
_0-0_計極細
  6
CONTINUOUS
 62
    2
 10
834.74901008710299
 20
993.54671532845828
 11
834.74901008710299
 21
999.14671532845819
  0
LINE
  8
_0-0_計極細
  6
CONTINUOUS
 62
    2
 10
821.74901008710299
 20
976.54671532845919
 11
821.74901008710299
 21
982.14671532845909
  0
LINE
  8
_0-0_計極細
  6
CONTINUOUS
 62
    2
 10
834.74901008710299
 20
976.54671532845919
 11
834.74901008710299
 21
982.14671532845909
  0
LINE
  8
_0-0_計極細
  6
CONTINUOUS
 62
    2
 10
821.74901008710299
 20
959.5467153284601
 11
821.74901008710299
 21
965.14671532846
  0
LINE
  8
_0-0_計極細
  6
CONTINUOUS
 62
    2
 10
834.74901008710299
 20
959.5467153284601
 11
834.74901008710299
 21
965.14671532846
  0
LINE
  8
_0-0_計極細
  6
CONTINUOUS
 62
    2
 10
821.74901008710299
 20
942.546715328461
 11
821.74901008710299
 21
948.14671532846091
  0
LINE
  8
_0-0_計極細
  6
CONTINUOUS
 62
    2
 10
834.74901008710299
 20
942.546715328461
 11
834.74901008710299
 21
948.14671532846091
  0
LINE
  8
_0-0_計極細
  6
CONTINUOUS
 62
    2
 10
821.74901008710299
 20
925.54671532846191
 11
821.74901008710299
 21
931.14671532846182
  0
LINE
  8
_0-0_計極細
  6
CONTINUOUS
 62
    2
 10
834.74901008710299
 20
925.54671532846191
 11
834.74901008710299
 21
931.14671532846182
  0
LINE
  8
_0-0_計極細
  6
CONTINUOUS
 62
    2
 10
821.74901008710299
 20
908.84671532845891
 11
821.74901008710299
 21
914.14671532845864
  0
LINE
  8
_0-0_計極細
  6
CONTINUOUS
 62
    2
 10
834.74901008710299
 20
908.84671532845891
 11
834.74901008710299
 21
914.14671532845864
  0
LINE
  8
_0-0_計極細
  6
CONTINUOUS
 62
    2
 10
821.74901008710299
 20
892.24671532845991
 11
821.74901008710299
 21
897.44671532845973
  0
LINE
  8
_0-0_計極細
  6
CONTINUOUS
 62
    2
 10
834.74901008710299
 20
892.24671532845991
 11
834.74901008710299
 21
897.44671532845973
  0
LINE
  8
_0-0_計極細
  6
CENTER1
 62
    2
 10
828.24901008710299
 20
1239.5974347529275
 11
828.24901008710299
 21
873.28889158744846
  0
LINE
  8
_0-0_計極細
  6
CONTINUOUS
 62
    2
 10
870.24901008710299
 20
1050.1467153284605
 11
870.24901008710299
 21
1044.5467153284606
  0
LINE
  8
_0-0_計極細
  6
CONTINUOUS
 62
    2
 10
883.24901008710299
 20
1050.1467153284605
 11
883.24901008710299
 21
1044.5467153284606
  0
LINE
  8
_0-0_計極細
  6
CONTINUOUS
 62
    2
 10
870.24901008710299
 20
1067.1467153284614
 11
870.24901008710299
 21
1061.546715328461
  0
LINE
  8
_0-0_計極細
  6
CONTINUOUS
 62
    2
 10
883.24901008710299
 20
1067.1467153284614
 11
883.24901008710299
 21
1061.546715328461
  0
LINE
  8
_0-0_計極細
  6
CONTINUOUS
 62
    2
 10
870.24901008710299
 20
1084.1467153284618
 11
870.24901008710299
 21
1078.5467153284619
  0
LINE
  8
_0-0_計極細
  6
CONTINUOUS
 62
    2
 10
883.24901008710299
 20
1084.1467153284618
 11
883.24901008710299
 21
1078.5467153284619
  0
LINE
  8
_0-0_計極細
  6
CONTINUOUS
 62
    2
 10
870.24901008710299
 20
1101.1467153284627
 11
870.24901008710299
 21
1095.5467153284624
  0
LINE
  8
_0-0_計極細
  6
CONTINUOUS
 62
    2
 10
883.24901008710299
 20
1101.1467153284627
 11
883.24901008710299
 21
1095.5467153284624
  0
LINE
  8
_0-0_計極細
  6
CONTINUOUS
 62
    2
 10
870.24901008710299
 20
1118.1467153284632
 11
870.24901008710299
 21
1112.5467153284633
  0
LINE
  8
_0-0_計極細
  6
CONTINUOUS
 62
    2
 10
883.24901008710299
 20
1118.1467153284632
 11
883.24901008710299
 21
1112.5467153284633
  0
LINE
  8
_0-0_計極細
  6
CONTINUOUS
 62
    2
 10
870.24901008710299
 20
1135.1467153284623
 11
870.24901008710299
 21
1129.5467153284624
  0
LINE
  8
_0-0_計極細
  6
CONTINUOUS
 62
    2
 10
883.24901008710299
 20
1135.1467153284623
 11
883.24901008710299
 21
1129.5467153284624
  0
LINE
  8
_0-0_計極細
  6
CONTINUOUS
 62
    2
 10
870.24901008710299
 20
1152.1467153284614
 11
870.24901008710299
 21
1146.5467153284615
  0
LINE
  8
_0-0_計極細
  6
CONTINUOUS
 62
    2
 10
883.24901008710299
 20
1152.1467153284614
 11
883.24901008710299
 21
1146.5467153284615
  0
LINE
  8
_0-0_計極細
  6
CONTINUOUS
 62
    2
 10
870.24901008710299
 20
1169.1467153284605
 11
870.24901008710299
 21
1163.5467153284606
  0
LINE
  8
_0-0_計極細
  6
CONTINUOUS
 62
    2
 10
883.24901008710299
 20
1169.1467153284605
 11
883.24901008710299
 21
1163.5467153284606
  0
LINE
  8
_0-0_計極細
  6
CONTINUOUS
 62
    2
 10
870.24901008710299
 20
1186.1467153284595
 11
870.24901008710299
 21
1180.5467153284596
  0
LINE
  8
_0-0_計極細
  6
CONTINUOUS
 62
    2
 10
883.24901008710299
 20
1186.1467153284595
 11
883.24901008710299
 21
1180.5467153284596
  0
LINE
  8
_0-0_計極細
  6
CONTINUOUS
 62
    2
 10
870.24901008710299
 20
1202.8467153284626
 11
870.24901008710299
 21
1197.5467153284628
  0
LINE
  8
_0-0_計極細
  6
CONTINUOUS
 62
    2
 10
883.24901008710299
 20
1202.8467153284626
 11
883.24901008710299
 21
1197.5467153284628
  0
LINE
  8
_0-0_計極細
  6
CONTINUOUS
 62
    2
 10
870.24901008710299
 20
1219.4467153284616
 11
870.24901008710299
 21
1214.2467153284617
  0
LINE
  8
_0-0_計極細
  6
CONTINUOUS
 62
    2
 10
883.24901008710299
 20
1219.4467153284616
 11
883.24901008710299
 21
1214.2467153284617
  0
LINE
  8
_0-0_計極細
  6
CONTINUOUS
 62
    2
 10
870.24901008710299
 20
1027.5467153284596
 11
870.24901008710299
 21
1033.1467153284595
  0
LINE
  8
_0-0_計極細
  6
CONTINUOUS
 62
    2
 10
883.24901008710299
 20
1027.5467153284596
 11
883.24901008710299
 21
1033.1467153284595
  0
LINE
  8
_0-0_計極細
  6
CONTINUOUS
 62
    2
 10
870.24901008710299
 20
1010.5467153284587
 11
870.24901008710299
 21
1016.1467153284591
  0
LINE
  8
_0-0_計極細
  6
CONTINUOUS
 62
    2
 10
883.24901008710299
 20
1010.5467153284587
 11
883.24901008710299
 21
1016.1467153284591
  0
LINE
  8
_0-0_計極細
  6
CONTINUOUS
 62
    2
 10
870.24901008710299
 20
993.54671532845828
 11
870.24901008710299
 21
999.14671532845819
  0
LINE
  8
_0-0_計極細
  6
CONTINUOUS
 62
    2
 10
883.24901008710299
 20
993.54671532845828
 11
883.24901008710299
 21
999.14671532845819
  0
LINE
  8
_0-0_計極細
  6
CONTINUOUS
 62
    2
 10
870.24901008710299
 20
976.54671532845919
 11
870.24901008710299
 21
982.14671532845909
  0
LINE
  8
_0-0_計極細
  6
CONTINUOUS
 62
    2
 10
883.24901008710299
 20
976.54671532845919
 11
883.24901008710299
 21
982.14671532845909
  0
LINE
  8
_0-0_計極細
  6
CONTINUOUS
 62
    2
 10
870.24901008710299
 20
959.5467153284601
 11
870.24901008710299
 21
965.14671532846
  0
LINE
  8
_0-0_計極細
  6
CONTINUOUS
 62
    2
 10
883.24901008710299
 20
959.5467153284601
 11
883.24901008710299
 21
965.14671532846
  0
LINE
  8
_0-0_計極細
  6
CONTINUOUS
 62
    2
 10
870.24901008710299
 20
942.546715328461
 11
870.24901008710299
 21
948.14671532846091
  0
LINE
  8
_0-0_計極細
  6
CONTINUOUS
 62
    2
 10
883.24901008710299
 20
942.546715328461
 11
883.24901008710299
 21
948.14671532846091
  0
LINE
  8
_0-0_計極細
  6
CONTINUOUS
 62
    2
 10
870.24901008710299
 20
925.54671532846191
 11
870.24901008710299
 21
931.14671532846182
  0
LINE
  8
_0-0_計極細
  6
CONTINUOUS
 62
    2
 10
883.24901008710299
 20
925.54671532846191
 11
883.24901008710299
 21
931.14671532846182
  0
LINE
  8
_0-0_計極細
  6
CONTINUOUS
 62
    2
 10
870.24901008710299
 20
908.84671532845891
 11
870.24901008710299
 21
914.14671532845864
  0
LINE
  8
_0-0_計極細
  6
CONTINUOUS
 62
    2
 10
883.24901008710299
 20
908.84671532845891
 11
883.24901008710299
 21
914.14671532845864
  0
LINE
  8
_0-0_計極細
  6
CONTINUOUS
 62
    2
 10
870.24901008710299
 20
892.24671532845991
 11
870.24901008710299
 21
897.44671532845973
  0
LINE
  8
_0-0_計極細
  6
CONTINUOUS
 62
    2
 10
883.24901008710299
 20
892.24671532845991
 11
883.24901008710299
 21
897.44671532845973
  0
LINE
  8
_0-0_計極細
  6
CENTER1
 62
    2
 10
876.74901008710299
 20
1239.5974347529275
 11
876.74901008710299
 21
873.28889158744846
  0
LINE
  8
_0-0_計極細
  6
CONTINUOUS
 62
    2
 10
918.74901008710299
 20
1050.1467153284605
 11
918.74901008710299
 21
1044.5467153284606
  0
LINE
  8
_0-0_計極細
  6
CONTINUOUS
 62
    2
 10
931.74901008710299
 20
1050.1467153284605
 11
931.74901008710299
 21
1044.5467153284606
  0
LINE
  8
_0-0_計極細
  6
CONTINUOUS
 62
    2
 10
918.74901008710299
 20
1067.1467153284614
 11
918.74901008710299
 21
1061.546715328461
  0
LINE
  8
_0-0_計極細
  6
CONTINUOUS
 62
    2
 10
931.74901008710299
 20
1067.1467153284614
 11
931.74901008710299
 21
1061.546715328461
  0
LINE
  8
_0-0_計極細
  6
CONTINUOUS
 62
    2
 10
918.74901008710299
 20
1084.1467153284618
 11
918.74901008710299
 21
1078.5467153284619
  0
LINE
  8
_0-0_計極細
  6
CONTINUOUS
 62
    2
 10
931.74901008710299
 20
1084.1467153284618
 11
931.74901008710299
 21
1078.5467153284619
  0
LINE
  8
_0-0_計極細
  6
CONTINUOUS
 62
    2
 10
918.74901008710299
 20
1101.1467153284627
 11
918.74901008710299
 21
1095.5467153284624
  0
LINE
  8
_0-0_計極細
  6
CONTINUOUS
 62
    2
 10
931.74901008710299
 20
1101.1467153284627
 11
931.74901008710299
 21
1095.5467153284624
  0
LINE
  8
_0-0_計極細
  6
CONTINUOUS
 62
    2
 10
918.74901008710299
 20
1118.1467153284632
 11
918.74901008710299
 21
1112.5467153284633
  0
LINE
  8
_0-0_計極細
  6
CONTINUOUS
 62
    2
 10
931.74901008710299
 20
1118.1467153284632
 11
931.74901008710299
 21
1112.5467153284633
  0
LINE
  8
_0-0_計極細
  6
CONTINUOUS
 62
    2
 10
918.74901008710299
 20
1135.1467153284623
 11
918.74901008710299
 21
1129.5467153284624
  0
LINE
  8
_0-0_計極細
  6
CONTINUOUS
 62
    2
 10
931.74901008710299
 20
1135.1467153284623
 11
931.74901008710299
 21
1129.5467153284624
  0
LINE
  8
_0-0_計極細
  6
CONTINUOUS
 62
    2
 10
918.74901008710299
 20
1152.1467153284614
 11
918.74901008710299
 21
1146.5467153284615
  0
LINE
  8
_0-0_計極細
  6
CONTINUOUS
 62
    2
 10
931.74901008710299
 20
1152.1467153284614
 11
931.74901008710299
 21
1146.5467153284615
  0
LINE
  8
_0-0_計極細
  6
CONTINUOUS
 62
    2
 10
918.74901008710299
 20
1169.1467153284605
 11
918.74901008710299
 21
1163.5467153284606
  0
LINE
  8
_0-0_計極細
  6
CONTINUOUS
 62
    2
 10
931.74901008710299
 20
1169.1467153284605
 11
931.74901008710299
 21
1163.5467153284606
  0
LINE
  8
_0-0_計極細
  6
CONTINUOUS
 62
    2
 10
918.74901008710299
 20
1186.1467153284595
 11
918.74901008710299
 21
1180.5467153284596
  0
LINE
  8
_0-0_計極細
  6
CONTINUOUS
 62
    2
 10
931.74901008710299
 20
1186.1467153284595
 11
931.74901008710299
 21
1180.5467153284596
  0
LINE
  8
_0-0_計極細
  6
CONTINUOUS
 62
    2
 10
918.74901008710299
 20
1202.8467153284626
 11
918.74901008710299
 21
1197.5467153284628
  0
LINE
  8
_0-0_計極細
  6
CONTINUOUS
 62
    2
 10
931.74901008710299
 20
1202.8467153284626
 11
931.74901008710299
 21
1197.5467153284628
  0
LINE
  8
_0-0_計極細
  6
CONTINUOUS
 62
    2
 10
918.74901008710299
 20
1219.4467153284616
 11
918.74901008710299
 21
1214.2467153284617
  0
LINE
  8
_0-0_計極細
  6
CONTINUOUS
 62
    2
 10
931.74901008710299
 20
1219.4467153284616
 11
931.74901008710299
 21
1214.2467153284617
  0
LINE
  8
_0-0_計極細
  6
CONTINUOUS
 62
    2
 10
918.74901008710299
 20
1027.5467153284596
 11
918.74901008710299
 21
1033.1467153284595
  0
LINE
  8
_0-0_計極細
  6
CONTINUOUS
 62
    2
 10
931.74901008710299
 20
1027.5467153284596
 11
931.74901008710299
 21
1033.1467153284595
  0
LINE
  8
_0-0_計極細
  6
CONTINUOUS
 62
    2
 10
918.74901008710299
 20
1010.5467153284587
 11
918.74901008710299
 21
1016.1467153284591
  0
LINE
  8
_0-0_計極細
  6
CONTINUOUS
 62
    2
 10
931.74901008710299
 20
1010.5467153284587
 11
931.74901008710299
 21
1016.1467153284591
  0
LINE
  8
_0-0_計極細
  6
CONTINUOUS
 62
    2
 10
918.74901008710299
 20
993.54671532845828
 11
918.74901008710299
 21
999.14671532845819
  0
LINE
  8
_0-0_計極細
  6
CONTINUOUS
 62
    2
 10
931.74901008710299
 20
993.54671532845828
 11
931.74901008710299
 21
999.14671532845819
  0
LINE
  8
_0-0_計極細
  6
CONTINUOUS
 62
    2
 10
918.74901008710299
 20
976.54671532845919
 11
918.74901008710299
 21
982.14671532845909
  0
LINE
  8
_0-0_計極細
  6
CONTINUOUS
 62
    2
 10
931.74901008710299
 20
976.54671532845919
 11
931.74901008710299
 21
982.14671532845909
  0
LINE
  8
_0-0_計極細
  6
CONTINUOUS
 62
    2
 10
918.74901008710299
 20
959.5467153284601
 11
918.74901008710299
 21
965.14671532846
  0
LINE
  8
_0-0_計極細
  6
CONTINUOUS
 62
    2
 10
931.74901008710299
 20
959.5467153284601
 11
931.74901008710299
 21
965.14671532846
  0
LINE
  8
_0-0_計極細
  6
CONTINUOUS
 62
    2
 10
918.74901008710299
 20
942.546715328461
 11
918.74901008710299
 21
948.14671532846091
  0
LINE
  8
_0-0_計極細
  6
CONTINUOUS
 62
    2
 10
931.74901008710299
 20
942.546715328461
 11
931.74901008710299
 21
948.14671532846091
  0
LINE
  8
_0-0_計極細
  6
CONTINUOUS
 62
    2
 10
918.74901008710299
 20
925.54671532846191
 11
918.74901008710299
 21
931.14671532846182
  0
LINE
  8
_0-0_計極細
  6
CONTINUOUS
 62
    2
 10
931.74901008710299
 20
925.54671532846191
 11
931.74901008710299
 21
931.14671532846182
  0
LINE
  8
_0-0_計極細
  6
CONTINUOUS
 62
    2
 10
918.74901008710299
 20
908.84671532845891
 11
918.74901008710299
 21
914.14671532845864
  0
LINE
  8
_0-0_計極細
  6
CONTINUOUS
 62
    2
 10
931.74901008710299
 20
908.84671532845891
 11
931.74901008710299
 21
914.14671532845864
  0
LINE
  8
_0-0_計極細
  6
CONTINUOUS
 62
    2
 10
918.74901008710299
 20
892.24671532845991
 11
918.74901008710299
 21
897.44671532845973
  0
LINE
  8
_0-0_計極細
  6
CONTINUOUS
 62
    2
 10
931.74901008710299
 20
892.24671532845991
 11
931.74901008710299
 21
897.44671532845973
  0
LINE
  8
_0-0_計極細
  6
CENTER1
 62
    2
 10
925.24901008710299
 20
1239.5974347529275
 11
925.24901008710299
 21
873.28889158744846
  0
LINE
  8
_0-0_計極細
  6
CONTINUOUS
 62
    2
 10
967.24901008710299
 20
1050.1467153284605
 11
967.24901008710299
 21
1044.5467153284606
  0
LINE
  8
_0-0_計極細
  6
CONTINUOUS
 62
    2
 10
980.24901008710299
 20
1050.1467153284605
 11
980.24901008710299
 21
1044.5467153284606
  0
LINE
  8
_0-0_計極細
  6
CONTINUOUS
 62
    2
 10
967.24901008710299
 20
1067.1467153284614
 11
967.24901008710299
 21
1061.546715328461
  0
LINE
  8
_0-0_計極細
  6
CONTINUOUS
 62
    2
 10
980.24901008710299
 20
1067.1467153284614
 11
980.24901008710299
 21
1061.546715328461
  0
LINE
  8
_0-0_計極細
  6
CONTINUOUS
 62
    2
 10
967.24901008710299
 20
1084.1467153284618
 11
967.24901008710299
 21
1078.5467153284619
  0
LINE
  8
_0-0_計極細
  6
CONTINUOUS
 62
    2
 10
980.24901008710299
 20
1084.1467153284618
 11
980.24901008710299
 21
1078.5467153284619
  0
LINE
  8
_0-0_計極細
  6
CONTINUOUS
 62
    2
 10
967.24901008710299
 20
1101.1467153284627
 11
967.24901008710299
 21
1095.5467153284624
  0
LINE
  8
_0-0_計極細
  6
CONTINUOUS
 62
    2
 10
980.24901008710299
 20
1101.1467153284627
 11
980.24901008710299
 21
1095.5467153284624
  0
LINE
  8
_0-0_計極細
  6
CONTINUOUS
 62
    2
 10
967.24901008710299
 20
1118.1467153284632
 11
967.24901008710299
 21
1112.5467153284633
  0
LINE
  8
_0-0_計極細
  6
CONTINUOUS
 62
    2
 10
980.24901008710299
 20
1118.1467153284632
 11
980.24901008710299
 21
1112.5467153284633
  0
LINE
  8
_0-0_計極細
  6
CONTINUOUS
 62
    2
 10
967.24901008710299
 20
1135.1467153284623
 11
967.24901008710299
 21
1129.5467153284624
  0
LINE
  8
_0-0_計極細
  6
CONTINUOUS
 62
    2
 10
980.24901008710299
 20
1135.1467153284623
 11
980.24901008710299
 21
1129.5467153284624
  0
LINE
  8
_0-0_計極細
  6
CONTINUOUS
 62
    2
 10
967.24901008710299
 20
1152.1467153284614
 11
967.24901008710299
 21
1146.5467153284615
  0
LINE
  8
_0-0_計極細
  6
CONTINUOUS
 62
    2
 10
980.24901008710299
 20
1152.1467153284614
 11
980.24901008710299
 21
1146.5467153284615
  0
LINE
  8
_0-0_計極細
  6
CONTINUOUS
 62
    2
 10
967.24901008710299
 20
1169.1467153284605
 11
967.24901008710299
 21
1163.5467153284606
  0
LINE
  8
_0-0_計極細
  6
CONTINUOUS
 62
    2
 10
980.24901008710299
 20
1169.1467153284605
 11
980.24901008710299
 21
1163.5467153284606
  0
LINE
  8
_0-0_計極細
  6
CONTINUOUS
 62
    2
 10
967.24901008710299
 20
1186.1467153284595
 11
967.24901008710299
 21
1180.5467153284596
  0
LINE
  8
_0-0_計極細
  6
CONTINUOUS
 62
    2
 10
980.24901008710299
 20
1186.1467153284595
 11
980.24901008710299
 21
1180.5467153284596
  0
LINE
  8
_0-0_計極細
  6
CONTINUOUS
 62
    2
 10
967.24901008710299
 20
1202.8467153284626
 11
967.24901008710299
 21
1197.5467153284628
  0
LINE
  8
_0-0_計極細
  6
CONTINUOUS
 62
    2
 10
980.24901008710299
 20
1202.8467153284626
 11
980.24901008710299
 21
1197.5467153284628
  0
LINE
  8
_0-0_計極細
  6
CONTINUOUS
 62
    2
 10
967.24901008710299
 20
1219.4467153284616
 11
967.24901008710299
 21
1214.2467153284617
  0
LINE
  8
_0-0_計極細
  6
CONTINUOUS
 62
    2
 10
980.24901008710299
 20
1219.4467153284616
 11
980.24901008710299
 21
1214.2467153284617
  0
LINE
  8
_0-0_計極細
  6
CONTINUOUS
 62
    2
 10
967.24901008710299
 20
1027.5467153284596
 11
967.24901008710299
 21
1033.1467153284595
  0
LINE
  8
_0-0_計極細
  6
CONTINUOUS
 62
    2
 10
980.24901008710299
 20
1027.5467153284596
 11
980.24901008710299
 21
1033.1467153284595
  0
LINE
  8
_0-0_計極細
  6
CONTINUOUS
 62
    2
 10
967.24901008710299
 20
1010.5467153284587
 11
967.24901008710299
 21
1016.1467153284591
  0
LINE
  8
_0-0_計極細
  6
CONTINUOUS
 62
    2
 10
980.24901008710299
 20
1010.5467153284587
 11
980.24901008710299
 21
1016.1467153284591
  0
LINE
  8
_0-0_計極細
  6
CONTINUOUS
 62
    2
 10
967.24901008710299
 20
993.54671532845828
 11
967.24901008710299
 21
999.14671532845819
  0
LINE
  8
_0-0_計極細
  6
CONTINUOUS
 62
    2
 10
980.24901008710299
 20
993.54671532845828
 11
980.24901008710299
 21
999.14671532845819
  0
LINE
  8
_0-0_計極細
  6
CONTINUOUS
 62
    2
 10
967.24901008710299
 20
976.54671532845919
 11
967.24901008710299
 21
982.14671532845909
  0
LINE
  8
_0-0_計極細
  6
CONTINUOUS
 62
    2
 10
980.24901008710299
 20
976.54671532845919
 11
980.24901008710299
 21
982.14671532845909
  0
LINE
  8
_0-0_計極細
  6
CONTINUOUS
 62
    2
 10
967.24901008710299
 20
959.5467153284601
 11
967.24901008710299
 21
965.14671532846
  0
LINE
  8
_0-0_計極細
  6
CONTINUOUS
 62
    2
 10
980.24901008710299
 20
959.5467153284601
 11
980.24901008710299
 21
965.14671532846
  0
LINE
  8
_0-0_計極細
  6
CONTINUOUS
 62
    2
 10
967.24901008710299
 20
942.546715328461
 11
967.24901008710299
 21
948.14671532846091
  0
LINE
  8
_0-0_計極細
  6
CONTINUOUS
 62
    2
 10
980.24901008710299
 20
942.546715328461
 11
980.24901008710299
 21
948.14671532846091
  0
LINE
  8
_0-0_計極細
  6
CONTINUOUS
 62
    2
 10
967.24901008710299
 20
925.54671532846191
 11
967.24901008710299
 21
931.14671532846182
  0
LINE
  8
_0-0_計極細
  6
CONTINUOUS
 62
    2
 10
980.24901008710299
 20
925.54671532846191
 11
980.24901008710299
 21
931.14671532846182
  0
LINE
  8
_0-0_計極細
  6
CONTINUOUS
 62
    2
 10
967.24901008710299
 20
908.84671532845891
 11
967.24901008710299
 21
914.14671532845864
  0
LINE
  8
_0-0_計極細
  6
CONTINUOUS
 62
    2
 10
980.24901008710299
 20
908.84671532845891
 11
980.24901008710299
 21
914.14671532845864
  0
LINE
  8
_0-0_計極細
  6
CONTINUOUS
 62
    2
 10
967.24901008710299
 20
892.24671532845991
 11
967.24901008710299
 21
897.44671532845973
  0
LINE
  8
_0-0_計極細
  6
CONTINUOUS
 62
    2
 10
980.24901008710299
 20
892.24671532845991
 11
980.24901008710299
 21
897.44671532845973
  0
LINE
  8
_0-0_計極細
  6
CENTER1
 62
    2
 10
973.74901008710299
 20
1239.5974347529275
 11
973.74901008710299
 21
873.28889158744846
  0
LINE
  8
_0-0_計極細
  6
CONTINUOUS
 62
    2
 10
1015.749010087103
 20
1050.1467153284605
 11
1015.749010087103
 21
1044.5467153284606
  0
LINE
  8
_0-0_計極細
  6
CONTINUOUS
 62
    2
 10
1028.749010087103
 20
1050.1467153284605
 11
1028.749010087103
 21
1044.5467153284606
  0
LINE
  8
_0-0_計極細
  6
CONTINUOUS
 62
    2
 10
1015.749010087103
 20
1067.1467153284614
 11
1015.749010087103
 21
1061.546715328461
  0
LINE
  8
_0-0_計極細
  6
CONTINUOUS
 62
    2
 10
1028.749010087103
 20
1067.1467153284614
 11
1028.749010087103
 21
1061.546715328461
  0
LINE
  8
_0-0_計極細
  6
CONTINUOUS
 62
    2
 10
1015.749010087103
 20
1084.1467153284618
 11
1015.749010087103
 21
1078.5467153284619
  0
LINE
  8
_0-0_計極細
  6
CONTINUOUS
 62
    2
 10
1028.749010087103
 20
1084.1467153284618
 11
1028.749010087103
 21
1078.5467153284619
  0
LINE
  8
_0-0_計極細
  6
CONTINUOUS
 62
    2
 10
1015.749010087103
 20
1101.1467153284627
 11
1015.749010087103
 21
1095.5467153284624
  0
LINE
  8
_0-0_計極細
  6
CONTINUOUS
 62
    2
 10
1028.749010087103
 20
1101.1467153284627
 11
1028.749010087103
 21
1095.5467153284624
  0
LINE
  8
_0-0_計極細
  6
CONTINUOUS
 62
    2
 10
1015.749010087103
 20
1118.1467153284632
 11
1015.749010087103
 21
1112.5467153284633
  0
LINE
  8
_0-0_計極細
  6
CONTINUOUS
 62
    2
 10
1028.749010087103
 20
1118.1467153284632
 11
1028.749010087103
 21
1112.5467153284633
  0
LINE
  8
_0-0_計極細
  6
CONTINUOUS
 62
    2
 10
1015.749010087103
 20
1135.1467153284623
 11
1015.749010087103
 21
1129.5467153284624
  0
LINE
  8
_0-0_計極細
  6
CONTINUOUS
 62
    2
 10
1028.749010087103
 20
1135.1467153284623
 11
1028.749010087103
 21
1129.5467153284624
  0
LINE
  8
_0-0_計極細
  6
CONTINUOUS
 62
    2
 10
1015.749010087103
 20
1152.1467153284614
 11
1015.749010087103
 21
1146.5467153284615
  0
LINE
  8
_0-0_計極細
  6
CONTINUOUS
 62
    2
 10
1028.749010087103
 20
1152.1467153284614
 11
1028.749010087103
 21
1146.5467153284615
  0
LINE
  8
_0-0_計極細
  6
CONTINUOUS
 62
    2
 10
1015.749010087103
 20
1169.1467153284605
 11
1015.749010087103
 21
1163.5467153284606
  0
LINE
  8
_0-0_計極細
  6
CONTINUOUS
 62
    2
 10
1028.749010087103
 20
1169.1467153284605
 11
1028.749010087103
 21
1163.5467153284606
  0
LINE
  8
_0-0_計極細
  6
CONTINUOUS
 62
    2
 10
1015.749010087103
 20
1186.1467153284595
 11
1015.749010087103
 21
1180.5467153284596
  0
LINE
  8
_0-0_計極細
  6
CONTINUOUS
 62
    2
 10
1028.749010087103
 20
1186.1467153284595
 11
1028.749010087103
 21
1180.5467153284596
  0
LINE
  8
_0-0_計極細
  6
CONTINUOUS
 62
    2
 10
1015.749010087103
 20
1202.8467153284626
 11
1015.749010087103
 21
1197.5467153284628
  0
LINE
  8
_0-0_計極細
  6
CONTINUOUS
 62
    2
 10
1028.749010087103
 20
1202.8467153284626
 11
1028.749010087103
 21
1197.5467153284628
  0
LINE
  8
_0-0_計極細
  6
CONTINUOUS
 62
    2
 10
1015.749010087103
 20
1219.4467153284616
 11
1015.749010087103
 21
1214.2467153284617
  0
LINE
  8
_0-0_計極細
  6
CONTINUOUS
 62
    2
 10
1028.749010087103
 20
1219.4467153284616
 11
1028.749010087103
 21
1214.2467153284617
  0
LINE
  8
_0-0_計極細
  6
CONTINUOUS
 62
    2
 10
1015.749010087103
 20
1027.5467153284596
 11
1015.749010087103
 21
1033.1467153284595
  0
LINE
  8
_0-0_計極細
  6
CONTINUOUS
 62
    2
 10
1028.749010087103
 20
1027.5467153284596
 11
1028.749010087103
 21
1033.1467153284595
  0
LINE
  8
_0-0_計極細
  6
CONTINUOUS
 62
    2
 10
1015.749010087103
 20
1010.5467153284587
 11
1015.749010087103
 21
1016.1467153284591
  0
LINE
  8
_0-0_計極細
  6
CONTINUOUS
 62
    2
 10
1028.749010087103
 20
1010.5467153284587
 11
1028.749010087103
 21
1016.1467153284591
  0
LINE
  8
_0-0_計極細
  6
CONTINUOUS
 62
    2
 10
1015.749010087103
 20
993.54671532845828
 11
1015.749010087103
 21
999.14671532845819
  0
LINE
  8
_0-0_計極細
  6
CONTINUOUS
 62
    2
 10
1028.749010087103
 20
993.54671532845828
 11
1028.749010087103
 21
999.14671532845819
  0
LINE
  8
_0-0_計極細
  6
CONTINUOUS
 62
    2
 10
1015.749010087103
 20
976.54671532845919
 11
1015.749010087103
 21
982.14671532845909
  0
LINE
  8
_0-0_計極細
  6
CONTINUOUS
 62
    2
 10
1028.749010087103
 20
976.54671532845919
 11
1028.749010087103
 21
982.14671532845909
  0
LINE
  8
_0-0_計極細
  6
CONTINUOUS
 62
    2
 10
1015.749010087103
 20
959.5467153284601
 11
1015.749010087103
 21
965.14671532846
  0
LINE
  8
_0-0_計極細
  6
CONTINUOUS
 62
    2
 10
1028.749010087103
 20
959.5467153284601
 11
1028.749010087103
 21
965.14671532846
  0
LINE
  8
_0-0_計極細
  6
CONTINUOUS
 62
    2
 10
1015.749010087103
 20
942.546715328461
 11
1015.749010087103
 21
948.14671532846091
  0
LINE
  8
_0-0_計極細
  6
CONTINUOUS
 62
    2
 10
1028.749010087103
 20
942.546715328461
 11
1028.749010087103
 21
948.14671532846091
  0
LINE
  8
_0-0_計極細
  6
CONTINUOUS
 62
    2
 10
1015.749010087103
 20
925.54671532846191
 11
1015.749010087103
 21
931.14671532846182
  0
LINE
  8
_0-0_計極細
  6
CONTINUOUS
 62
    2
 10
1028.749010087103
 20
925.54671532846191
 11
1028.749010087103
 21
931.14671532846182
  0
LINE
  8
_0-0_計極細
  6
CONTINUOUS
 62
    2
 10
1015.749010087103
 20
908.84671532845891
 11
1015.749010087103
 21
914.14671532845864
  0
LINE
  8
_0-0_計極細
  6
CONTINUOUS
 62
    2
 10
1028.749010087103
 20
908.84671532845891
 11
1028.749010087103
 21
914.14671532845864
  0
LINE
  8
_0-0_計極細
  6
CONTINUOUS
 62
    2
 10
1015.749010087103
 20
892.24671532845991
 11
1015.749010087103
 21
897.44671532845973
  0
LINE
  8
_0-0_計極細
  6
CONTINUOUS
 62
    2
 10
1028.749010087103
 20
892.24671532845991
 11
1028.749010087103
 21
897.44671532845973
  0
LINE
  8
_0-0_計極細
  6
CENTER1
 62
    2
 10
1022.249010087103
 20
1239.5974347529275
 11
1022.249010087103
 21
873.28889158744846
  0
LINE
  8
_0-0_計極細
  6
CONTINUOUS
 62
    2
 10
1064.249010087103
 20
1050.1467153284605
 11
1064.249010087103
 21
1044.5467153284606
  0
LINE
  8
_0-0_計極細
  6
CONTINUOUS
 62
    2
 10
1077.249010087103
 20
1050.1467153284605
 11
1077.249010087103
 21
1044.5467153284606
  0
LINE
  8
_0-0_計極細
  6
CONTINUOUS
 62
    2
 10
1064.249010087103
 20
1067.1467153284614
 11
1064.249010087103
 21
1061.546715328461
  0
LINE
  8
_0-0_計極細
  6
CONTINUOUS
 62
    2
 10
1077.249010087103
 20
1067.1467153284614
 11
1077.249010087103
 21
1061.546715328461
  0
LINE
  8
_0-0_計極細
  6
CONTINUOUS
 62
    2
 10
1064.249010087103
 20
1084.1467153284618
 11
1064.249010087103
 21
1078.5467153284619
  0
LINE
  8
_0-0_計極細
  6
CONTINUOUS
 62
    2
 10
1077.249010087103
 20
1084.1467153284618
 11
1077.249010087103
 21
1078.5467153284619
  0
LINE
  8
_0-0_計極細
  6
CONTINUOUS
 62
    2
 10
1064.249010087103
 20
1101.1467153284627
 11
1064.249010087103
 21
1095.5467153284624
  0
LINE
  8
_0-0_計極細
  6
CONTINUOUS
 62
    2
 10
1077.249010087103
 20
1101.1467153284627
 11
1077.249010087103
 21
1095.5467153284624
  0
LINE
  8
_0-0_計極細
  6
CONTINUOUS
 62
    2
 10
1064.249010087103
 20
1118.1467153284632
 11
1064.249010087103
 21
1112.5467153284633
  0
LINE
  8
_0-0_計極細
  6
CONTINUOUS
 62
    2
 10
1077.249010087103
 20
1118.1467153284632
 11
1077.249010087103
 21
1112.5467153284633
  0
LINE
  8
_0-0_計極細
  6
CONTINUOUS
 62
    2
 10
1064.249010087103
 20
1135.1467153284623
 11
1064.249010087103
 21
1129.5467153284624
  0
LINE
  8
_0-0_計極細
  6
CONTINUOUS
 62
    2
 10
1077.249010087103
 20
1135.1467153284623
 11
1077.249010087103
 21
1129.5467153284624
  0
LINE
  8
_0-0_計極細
  6
CONTINUOUS
 62
    2
 10
1064.249010087103
 20
1152.1467153284614
 11
1064.249010087103
 21
1146.5467153284615
  0
LINE
  8
_0-0_計極細
  6
CONTINUOUS
 62
    2
 10
1077.249010087103
 20
1152.1467153284614
 11
1077.249010087103
 21
1146.5467153284615
  0
LINE
  8
_0-0_計極細
  6
CONTINUOUS
 62
    2
 10
1064.249010087103
 20
1169.1467153284605
 11
1064.249010087103
 21
1163.5467153284606
  0
LINE
  8
_0-0_計極細
  6
CONTINUOUS
 62
    2
 10
1077.249010087103
 20
1169.1467153284605
 11
1077.249010087103
 21
1163.5467153284606
  0
LINE
  8
_0-0_計極細
  6
CONTINUOUS
 62
    2
 10
1064.249010087103
 20
1186.1467153284595
 11
1064.249010087103
 21
1180.5467153284596
  0
LINE
  8
_0-0_計極細
  6
CONTINUOUS
 62
    2
 10
1077.249010087103
 20
1186.1467153284595
 11
1077.249010087103
 21
1180.5467153284596
  0
LINE
  8
_0-0_計極細
  6
CONTINUOUS
 62
    2
 10
1064.249010087103
 20
1202.8467153284626
 11
1064.249010087103
 21
1197.5467153284628
  0
LINE
  8
_0-0_計極細
  6
CONTINUOUS
 62
    2
 10
1077.249010087103
 20
1202.8467153284626
 11
1077.249010087103
 21
1197.5467153284628
  0
LINE
  8
_0-0_計極細
  6
CONTINUOUS
 62
    2
 10
1064.249010087103
 20
1219.4467153284616
 11
1064.249010087103
 21
1214.2467153284617
  0
LINE
  8
_0-0_計極細
  6
CONTINUOUS
 62
    2
 10
1077.249010087103
 20
1219.4467153284616
 11
1077.249010087103
 21
1214.2467153284617
  0
LINE
  8
_0-0_計極細
  6
CONTINUOUS
 62
    2
 10
1064.249010087103
 20
1027.5467153284596
 11
1064.249010087103
 21
1033.1467153284595
  0
LINE
  8
_0-0_計極細
  6
CONTINUOUS
 62
    2
 10
1077.249010087103
 20
1027.5467153284596
 11
1077.249010087103
 21
1033.1467153284595
  0
LINE
  8
_0-0_計極細
  6
CONTINUOUS
 62
    2
 10
1064.249010087103
 20
1010.5467153284587
 11
1064.249010087103
 21
1016.1467153284591
  0
LINE
  8
_0-0_計極細
  6
CONTINUOUS
 62
    2
 10
1077.249010087103
 20
1010.5467153284587
 11
1077.249010087103
 21
1016.1467153284591
  0
LINE
  8
_0-0_計極細
  6
CONTINUOUS
 62
    2
 10
1064.249010087103
 20
993.54671532845828
 11
1064.249010087103
 21
999.14671532845819
  0
LINE
  8
_0-0_計極細
  6
CONTINUOUS
 62
    2
 10
1077.249010087103
 20
993.54671532845828
 11
1077.249010087103
 21
999.14671532845819
  0
LINE
  8
_0-0_計極細
  6
CONTINUOUS
 62
    2
 10
1064.249010087103
 20
976.54671532845919
 11
1064.249010087103
 21
982.14671532845909
  0
LINE
  8
_0-0_計極細
  6
CONTINUOUS
 62
    2
 10
1077.249010087103
 20
976.54671532845919
 11
1077.249010087103
 21
982.14671532845909
  0
LINE
  8
_0-0_計極細
  6
CONTINUOUS
 62
    2
 10
1064.249010087103
 20
959.5467153284601
 11
1064.249010087103
 21
965.14671532846
  0
LINE
  8
_0-0_計極細
  6
CONTINUOUS
 62
    2
 10
1077.249010087103
 20
959.5467153284601
 11
1077.249010087103
 21
965.14671532846
  0
LINE
  8
_0-0_計極細
  6
CONTINUOUS
 62
    2
 10
1064.249010087103
 20
942.546715328461
 11
1064.249010087103
 21
948.14671532846091
  0
LINE
  8
_0-0_計極細
  6
CONTINUOUS
 62
    2
 10
1077.249010087103
 20
942.546715328461
 11
1077.249010087103
 21
948.14671532846091
  0
LINE
  8
_0-0_計極細
  6
CONTINUOUS
 62
    2
 10
1064.249010087103
 20
925.54671532846191
 11
1064.249010087103
 21
931.14671532846182
  0
LINE
  8
_0-0_計極細
  6
CONTINUOUS
 62
    2
 10
1077.249010087103
 20
925.54671532846191
 11
1077.249010087103
 21
931.14671532846182
  0
LINE
  8
_0-0_計極細
  6
CONTINUOUS
 62
    2
 10
1064.249010087103
 20
908.84671532845891
 11
1064.249010087103
 21
914.14671532845864
  0
LINE
  8
_0-0_計極細
  6
CONTINUOUS
 62
    2
 10
1077.249010087103
 20
908.84671532845891
 11
1077.249010087103
 21
914.14671532845864
  0
LINE
  8
_0-0_計極細
  6
CONTINUOUS
 62
    2
 10
1064.249010087103
 20
892.24671532845991
 11
1064.249010087103
 21
897.44671532845973
  0
LINE
  8
_0-0_計極細
  6
CONTINUOUS
 62
    2
 10
1077.249010087103
 20
892.24671532845991
 11
1077.249010087103
 21
897.44671532845973
  0
LINE
  8
_0-0_計極細
  6
CENTER1
 62
    2
 10
1070.749010087103
 20
1239.5974347529275
 11
1070.749010087103
 21
873.28889158744846
  0
LINE
  8
_0-0_計極細
  6
CONTINUOUS
 62
    2
 10
1112.749010087103
 20
1050.1467153284605
 11
1112.749010087103
 21
1044.5467153284606
  0
LINE
  8
_0-0_計極細
  6
CONTINUOUS
 62
    2
 10
1125.749010087103
 20
1050.1467153284605
 11
1125.749010087103
 21
1044.5467153284606
  0
LINE
  8
_0-0_計極細
  6
CONTINUOUS
 62
    2
 10
1112.749010087103
 20
1067.1467153284614
 11
1112.749010087103
 21
1061.546715328461
  0
LINE
  8
_0-0_計極細
  6
CONTINUOUS
 62
    2
 10
1125.749010087103
 20
1067.1467153284614
 11
1125.749010087103
 21
1061.546715328461
  0
LINE
  8
_0-0_計極細
  6
CONTINUOUS
 62
    2
 10
1112.749010087103
 20
1084.1467153284618
 11
1112.749010087103
 21
1078.5467153284619
  0
LINE
  8
_0-0_計極細
  6
CONTINUOUS
 62
    2
 10
1125.749010087103
 20
1084.1467153284618
 11
1125.749010087103
 21
1078.5467153284619
  0
LINE
  8
_0-0_計極細
  6
CONTINUOUS
 62
    2
 10
1112.749010087103
 20
1101.1467153284627
 11
1112.749010087103
 21
1095.5467153284624
  0
LINE
  8
_0-0_計極細
  6
CONTINUOUS
 62
    2
 10
1125.749010087103
 20
1101.1467153284627
 11
1125.749010087103
 21
1095.5467153284624
  0
LINE
  8
_0-0_計極細
  6
CONTINUOUS
 62
    2
 10
1112.749010087103
 20
1118.1467153284632
 11
1112.749010087103
 21
1112.5467153284633
  0
LINE
  8
_0-0_計極細
  6
CONTINUOUS
 62
    2
 10
1125.749010087103
 20
1118.1467153284632
 11
1125.749010087103
 21
1112.5467153284633
  0
LINE
  8
_0-0_計極細
  6
CONTINUOUS
 62
    2
 10
1112.749010087103
 20
1135.1467153284623
 11
1112.749010087103
 21
1129.5467153284624
  0
LINE
  8
_0-0_計極細
  6
CONTINUOUS
 62
    2
 10
1125.749010087103
 20
1135.1467153284623
 11
1125.749010087103
 21
1129.5467153284624
  0
LINE
  8
_0-0_計極細
  6
CONTINUOUS
 62
    2
 10
1112.749010087103
 20
1152.1467153284614
 11
1112.749010087103
 21
1146.5467153284615
  0
LINE
  8
_0-0_計極細
  6
CONTINUOUS
 62
    2
 10
1125.749010087103
 20
1152.1467153284614
 11
1125.749010087103
 21
1146.5467153284615
  0
LINE
  8
_0-0_計極細
  6
CONTINUOUS
 62
    2
 10
1112.749010087103
 20
1169.1467153284605
 11
1112.749010087103
 21
1163.5467153284606
  0
LINE
  8
_0-0_計極細
  6
CONTINUOUS
 62
    2
 10
1125.749010087103
 20
1169.1467153284605
 11
1125.749010087103
 21
1163.5467153284606
  0
LINE
  8
_0-0_計極細
  6
CONTINUOUS
 62
    2
 10
1112.749010087103
 20
1186.1467153284595
 11
1112.749010087103
 21
1180.5467153284596
  0
LINE
  8
_0-0_計極細
  6
CONTINUOUS
 62
    2
 10
1125.749010087103
 20
1186.1467153284595
 11
1125.749010087103
 21
1180.5467153284596
  0
LINE
  8
_0-0_計極細
  6
CONTINUOUS
 62
    2
 10
1112.749010087103
 20
1202.8467153284626
 11
1112.749010087103
 21
1197.5467153284628
  0
LINE
  8
_0-0_計極細
  6
CONTINUOUS
 62
    2
 10
1125.749010087103
 20
1202.8467153284626
 11
1125.749010087103
 21
1197.5467153284628
  0
LINE
  8
_0-0_計極細
  6
CONTINUOUS
 62
    2
 10
1112.749010087103
 20
1219.4467153284616
 11
1112.749010087103
 21
1214.2467153284617
  0
LINE
  8
_0-0_計極細
  6
CONTINUOUS
 62
    2
 10
1125.749010087103
 20
1219.4467153284616
 11
1125.749010087103
 21
1214.2467153284617
  0
LINE
  8
_0-0_計極細
  6
CONTINUOUS
 62
    2
 10
1112.749010087103
 20
1027.5467153284596
 11
1112.749010087103
 21
1033.1467153284595
  0
LINE
  8
_0-0_計極細
  6
CONTINUOUS
 62
    2
 10
1125.749010087103
 20
1027.5467153284596
 11
1125.749010087103
 21
1033.1467153284595
  0
LINE
  8
_0-0_計極細
  6
CONTINUOUS
 62
    2
 10
1112.749010087103
 20
1010.5467153284587
 11
1112.749010087103
 21
1016.1467153284591
  0
LINE
  8
_0-0_計極細
  6
CONTINUOUS
 62
    2
 10
1125.749010087103
 20
1010.5467153284587
 11
1125.749010087103
 21
1016.1467153284591
  0
LINE
  8
_0-0_計極細
  6
CONTINUOUS
 62
    2
 10
1112.749010087103
 20
993.54671532845828
 11
1112.749010087103
 21
999.14671532845819
  0
LINE
  8
_0-0_計極細
  6
CONTINUOUS
 62
    2
 10
1125.749010087103
 20
993.54671532845828
 11
1125.749010087103
 21
999.14671532845819
  0
LINE
  8
_0-0_計極細
  6
CONTINUOUS
 62
    2
 10
1112.749010087103
 20
976.54671532845919
 11
1112.749010087103
 21
982.14671532845909
  0
LINE
  8
_0-0_計極細
  6
CONTINUOUS
 62
    2
 10
1125.749010087103
 20
976.54671532845919
 11
1125.749010087103
 21
982.14671532845909
  0
LINE
  8
_0-0_計極細
  6
CONTINUOUS
 62
    2
 10
1112.749010087103
 20
959.5467153284601
 11
1112.749010087103
 21
965.14671532846
  0
LINE
  8
_0-0_計極細
  6
CONTINUOUS
 62
    2
 10
1125.749010087103
 20
959.5467153284601
 11
1125.749010087103
 21
965.14671532846
  0
LINE
  8
_0-0_計極細
  6
CONTINUOUS
 62
    2
 10
1112.749010087103
 20
942.546715328461
 11
1112.749010087103
 21
948.14671532846091
  0
LINE
  8
_0-0_計極細
  6
CONTINUOUS
 62
    2
 10
1125.749010087103
 20
942.546715328461
 11
1125.749010087103
 21
948.14671532846091
  0
LINE
  8
_0-0_計極細
  6
CONTINUOUS
 62
    2
 10
1112.749010087103
 20
925.54671532846191
 11
1112.749010087103
 21
931.14671532846182
  0
LINE
  8
_0-0_計極細
  6
CONTINUOUS
 62
    2
 10
1125.749010087103
 20
925.54671532846191
 11
1125.749010087103
 21
931.14671532846182
  0
LINE
  8
_0-0_計極細
  6
CONTINUOUS
 62
    2
 10
1112.749010087103
 20
908.84671532845891
 11
1112.749010087103
 21
914.14671532845864
  0
LINE
  8
_0-0_計極細
  6
CONTINUOUS
 62
    2
 10
1125.749010087103
 20
908.84671532845891
 11
1125.749010087103
 21
914.14671532845864
  0
LINE
  8
_0-0_計極細
  6
CONTINUOUS
 62
    2
 10
1112.749010087103
 20
892.24671532845991
 11
1112.749010087103
 21
897.44671532845973
  0
LINE
  8
_0-0_計極細
  6
CONTINUOUS
 62
    2
 10
1125.749010087103
 20
892.24671532845991
 11
1125.749010087103
 21
897.44671532845973
  0
LINE
  8
_0-0_計極細
  6
CENTER1
 62
    2
 10
1119.249010087103
 20
1239.5974347529275
 11
1119.249010087103
 21
873.28889158744846
  0
LINE
  8
_0-1_計細線
  6
CONTINUOUS
 62
    3
 10
280.24901008710299
 20
1078.5467153284619
 11
1279.249010087103
 21
1078.5467153284619
  0
LINE
  8
_0-1_計細線
  6
CONTINUOUS
 62
    3
 10
1279.249010087103
 20
1078.5467153284619
 11
1279.249010087103
 21
1067.1467153284614
  0
LINE
  8
_0-0_計極細
  6
CONTINUOUS
 62
    2
 10
280.24901008710299
 20
1070.3467153284616
 11
1279.249010087103
 21
1070.3467153284616
  0
LINE
  8
_0-0_計極細
  6
CONTINUOUS
 62
    2
 10
280.24901008710299
 20
1075.3467153284616
 11
1279.249010087103
 21
1075.3467153284616
  0
LINE
  8
_0-1_計細線
  6
CONTINUOUS
 62
    3
 10
280.24901008710299
 20
1078.5467153284619
 11
280.24901008710299
 21
1067.1467153284614
  0
LINE
  8
_0-1_計細線
  6
CONTINUOUS
 62
    3
 10
280.24901008710299
 20
1067.1467153284614
 11
1279.249010087103
 21
1067.1467153284614
  0
LINE
  8
_0-1_計細線
  6
CONTINUOUS
 62
    3
 10
280.24901008710299
 20
1050.1467153284605
 11
1279.249010087103
 21
1050.1467153284605
  0
LINE
  8
_0-1_計細線
  6
CONTINUOUS
 62
    3
 10
1279.249010087103
 20
1061.546715328461
 11
1279.249010087103
 21
1050.1467153284605
  0
LINE
  8
_0-0_計極細
  6
CONTINUOUS
 62
    2
 10
280.24901008710299
 20
1053.3467153284607
 11
1279.249010087103
 21
1053.3467153284607
  0
LINE
  8
_0-0_計極細
  6
CONTINUOUS
 62
    2
 10
280.24901008710299
 20
1058.3467153284607
 11
1279.249010087103
 21
1058.3467153284607
  0
LINE
  8
_0-1_計細線
  6
CONTINUOUS
 62
    3
 10
280.24901008710299
 20
1061.546715328461
 11
1279.249010087103
 21
1061.546715328461
  0
LINE
  8
_0-1_計細線
  6
CONTINUOUS
 62
    3
 10
280.24901008710299
 20
1061.546715328461
 11
280.24901008710299
 21
1050.1467153284605
  0
LINE
  8
_0-0_計極細
  6
CONTINUOUS
 62
    2
 10
385.24901008710299
 20
1067.1467153284614
 11
385.24901008710299
 21
1066.6967153284611
  0
LINE
  8
_0-0_計極細
  6
CONTINUOUS
 62
    2
 10
385.24901008710299
 20
1061.9967153284613
 11
385.24901008710299
 21
1061.546715328461
  0
LINE
  8
_0-0_計極細
  6
CONTINUOUS
 62
    2
 10
398.24901008710299
 20
1067.1467153284614
 11
398.24901008710299
 21
1066.6967153284611
  0
LINE
  8
_0-0_計極細
  6
CONTINUOUS
 62
    2
 10
398.24901008710299
 20
1061.9967153284613
 11
398.24901008710299
 21
1061.546715328461
  0
LINE
  8
_0-5_寸法線
  6
CONTINUOUS
 62
    7
 10
242.74901008710117
 20
1235.8467153284598
 11
192.24901008710208
 21
1235.8467153284598
  0
LINE
  8
_0-5_寸法線
  6
CONTINUOUS
 62
    7
 10
200.24901008710208
 20
1235.8467153284598
 11
204.39011480874228
 21
1220.3919021078348
  0
LINE
  8
_0-5_寸法線
  6
CONTINUOUS
 62
    7
 10
200.24901008710208
 20
1235.8467153284598
 11
196.10790536546165
 21
1220.3919021078348
  0
LINE
  8
_0-5_寸法線
  6
CONTINUOUS
 62
    7
 10
242.7490100871039
 20
1205.8467153284598
 11
192.24901008710299
 21
1205.8467153284598
  0
LINE
  8
_0-5_寸法線
  6
CONTINUOUS
 62
    7
 10
200.24901008710299
 20
1205.8467153284598
 11
196.10790536546267
 21
1221.3015285490849
  0
LINE
  8
_0-5_寸法線
  6
CONTINUOUS
 62
    7
 10
200.24901008710299
 20
1205.8467153284598
 11
204.39011480874331
 21
1221.3015285490849
  0
LINE
  8
_0-5_寸法線
  6
CONTINUOUS
 62
    7
 10
200.24901008710208
 20
1235.8467153284598
 11
200.24901008710299
 21
1205.8467153284598
  0
TEXT
  8
_0-5_寸法線
 62
    7
 10
200.24901008710253
 20
1208.8467153284598
 40
24
 41
1
 50
90
  1
30
  0
LINE
  8
_0-5_寸法線
  6
CONTINUOUS
 62
    7
 10
200.24901008710299
 20
1205.8467153284598
 11
204.39011480874331
 21
1190.3919021078348
  0
LINE
  8
_0-5_寸法線
  6
CONTINUOUS
 62
    7
 10
200.24901008710299
 20
1205.8467153284598
 11
196.10790536546267
 21
1190.3919021078348
  0
LINE
  8
_0-5_寸法線
  6
CONTINUOUS
 62
    7
 10
242.74901008710208
 20
905.84671532845982
 11
192.24901008710299
 21
905.84671532845982
  0
LINE
  8
_0-5_寸法線
  6
CONTINUOUS
 62
    7
 10
200.24901008710299
 20
905.84671532845982
 11
196.10790536546267
 21
921.30152854908488
  0
LINE
  8
_0-5_寸法線
  6
CONTINUOUS
 62
    7
 10
200.24901008710299
 20
905.84671532845982
 11
204.39011480874331
 21
921.30152854908488
  0
LINE
  8
_0-5_寸法線
  6
CONTINUOUS
 62
    7
 10
200.24901008710299
 20
1205.8467153284598
 11
200.24901008710299
 21
905.84671532845982
  0
TEXT
  8
_0-5_寸法線
 62
    7
 10
200.24901008710299
 20
1037.8467153284598
 40
24
 41
1
 50
90
  1
300
  0
LINE
  8
_0-5_寸法線
  6
CONTINUOUS
 62
    7
 10
200.24901008710299
 20
905.84671532845982
 11
204.39011480874331
 21
890.39190210783477
  0
LINE
  8
_0-5_寸法線
  6
CONTINUOUS
 62
    7
 10
200.24901008710299
 20
905.84671532845982
 11
196.10790536546267
 21
890.39190210783477
  0
LINE
  8
_0-5_寸法線
  6
CONTINUOUS
 62
    7
 10
242.74901008710663
 20
875.84671532846255
 11
192.24901008710299
 21
875.84671532846255
  0
LINE
  8
_0-5_寸法線
  6
CONTINUOUS
 62
    7
 10
200.24901008710299
 20
875.84671532846255
 11
196.10790536546267
 21
891.30152854908761
  0
LINE
  8
_0-5_寸法線
  6
CONTINUOUS
 62
    7
 10
200.24901008710299
 20
875.84671532846255
 11
204.39011480874331
 21
891.30152854908761
  0
LINE
  8
_0-5_寸法線
  6
CONTINUOUS
 62
    7
 10
200.24901008710299
 20
905.84671532845982
 11
200.24901008710299
 21
875.84671532846255
  0
TEXT
  8
_0-5_寸法線
 62
    7
 10
200.24901008710299
 20
878.84671532846119
 40
24
 41
1
 50
90
  1
30
  0
LINE
  8
_0-5_寸法線
  6
CONTINUOUS
 62
    7
 10
1316.7490100871021
 20
1235.8467153284598
 11
1423.2490100871039
 21
1235.8467153284598
  0
LINE
  8
_0-5_寸法線
  6
CONTINUOUS
 62
    7
 10
1415.2490100871039
 20
1235.8467153284598
 11
1419.3901148087441
 21
1220.3919021078348
  0
LINE
  8
_0-5_寸法線
  6
CONTINUOUS
 62
    7
 10
1415.2490100871039
 20
1235.8467153284598
 11
1411.1079053654635
 21
1220.3919021078348
  0
LINE
  8
_0-5_寸法線
  6
CONTINUOUS
 62
    7
 10
1316.7490100871021
 20
875.84671532845618
 11
1423.2490100871039
 21
875.84671532845618
  0
LINE
  8
_0-5_寸法線
  6
CONTINUOUS
 62
    7
 10
1415.2490100871039
 20
875.84671532845618
 11
1411.1079053654635
 21
891.30152854908124
  0
LINE
  8
_0-5_寸法線
  6
CONTINUOUS
 62
    7
 10
1415.2490100871039
 20
875.84671532845618
 11
1419.3901148087441
 21
891.30152854908124
  0
LINE
  8
_0-5_寸法線
  6
CONTINUOUS
 62
    7
 10
1415.2490100871039
 20
1235.8467153284598
 11
1415.2490100871039
 21
875.84671532845618
  0
TEXT
  8
_0-5_寸法線
 62
    7
 10
1415.2490100871039
 20
1037.846715328458
 40
24
 41
1
 50
90
  1
360
  0
LINE
  8
_0-d_寸法3
  6
CONTINUOUS
 62
    7
 10
613.61567674696971
 20
452.40233570534019
 11
613.61567674696983
 21
529.73625304135896
  0
LINE
  8
_0-d_寸法3
  6
CONTINUOUS
 62
    7
 10
613.61567674696983
 20
521.73625304135896
 11
598.16086352634477
 21
517.59514831971865
  0
LINE
  8
_0-d_寸法3
  6
CONTINUOUS
 62
    7
 10
613.61567674696983
 20
521.73625304135896
 11
598.16086352634477
 21
525.8773577629994
  0
LINE
  8
_0-d_寸法3
  6
CONTINUOUS
 62
    7
 10
628.54901008715387
 20
452.40233570534019
 11
628.54901008715399
 21
529.73625304135896
  0
LINE
  8
_0-d_寸法3
  6
CONTINUOUS
 62
    7
 10
550.61734765390258
 20
521.73625304135896
 11
628.54901008715399
 21
521.73625304135896
  0
TEXT
  8
_0-d_寸法3
 62
    7
 10
550.61734765390258
 20
497.73625304135885
 40
24
 41
1
 50
0
  1
(5.6)
  0
LINE
  8
_0-d_寸法3
  6
CONTINUOUS
 62
    7
 10
628.54901008715399
 20
521.73625304135896
 11
644.00382330777916
 21
525.87735776299917
  0
LINE
  8
_0-d_寸法3
  6
CONTINUOUS
 62
    7
 10
628.54901008715399
 20
521.73625304135896
 11
644.00382330777904
 21
517.59514831971853
  0
LINE
  8
_0-d_寸法3
  6
CONTINUOUS
 62
    7
 10
658.94901008126772
 20
452.40233570534019
 11
658.94901008126783
 21
529.73625304135896
  0
LINE
  8
_0-d_寸法3
  6
CONTINUOUS
 62
    7
 10
658.94901008126783
 20
521.73625304135896
 11
643.49419686064277
 21
517.59514831971865
  0
LINE
  8
_0-d_寸法3
  6
CONTINUOUS
 62
    7
 10
658.94901008126783
 20
521.73625304135896
 11
643.49419686064277
 21
525.8773577629994
  0
LINE
  8
_0-d_寸法3
  6
CONTINUOUS
 62
    7
 10
628.54901008715399
 20
521.73625304135896
 11
658.94901008126783
 21
521.73625304135896
  0
TEXT
  8
_0-d_寸法3
 62
    7
 10
613.72549580205066
 20
521.73625304135885
 40
24
 41
1
 50
0
  1
11.4
  0
TEXT
  8
_0-d_寸法3
 62
    7
 10
716.63204697169567
 20
442.81898580467617
 40
24
 41
1
 50
90
  1
25
  0
LINE
  8
_0-5_寸法線
  6
CONTINUOUS
 62
    7
 10
1359.249010087103
 20
1235.8467153284598
 11
1355.1079053654628
 21
1251.3015285490849
  0
LINE
  8
_0-5_寸法線
  6
CONTINUOUS
 62
    7
 10
1359.249010087103
 20
1235.8467153284598
 11
1363.3901148087434
 21
1251.3015285490849
  0
LINE
  8
_0-5_寸法線
  6
CONTINUOUS
 62
    7
 10
1316.7490100871021
 20
1232.8467153284598
 11
1367.249010087103
 21
1232.8467153284598
  0
CIRCLE
  8
_0-5_寸法線
  6
CONTINUOUS
 62
    1
 10
1359.249010087103
 20
1232.8467153284598
 40
2.4000000000000004
  0
LINE
  8
_0-5_寸法線
  6
CONTINUOUS
 62
    7
 10
1359.249010087103
 20
1275.8467153284598
 11
1359.249010087103
 21
1232.8467153284598
  0
TEXT
  8
_0-5_寸法線
 62
    7
 10
1359.249010087103
 20
1257.2796445540534
 40
24
 41
1
 50
90
  1
3
  0
LINE
  8
_0-5_寸法線
  6
CONTINUOUS
 62
    7
 10
1316.7490100871021
 20
1230.8467153284607
 11
1367.249010087103
 21
1230.8467153284607
  0
LINE
  8
_0-5_寸法線
  6
CONTINUOUS
 62
    7
 10
1359.249010087103
 20
1232.8467153284598
 11
1359.249010087103
 21
1230.8467153284607
  0
TEXT
  8
_0-5_寸法線
 62
    7
 10
1389.5337218576744
 20
1220.5518807220485
 40
24
 41
1
 50
90
  1
2
  0
LINE
  8
_0-5_寸法線
  6
CONTINUOUS
 62
    7
 10
1359.249010087103
 20
1230.8467153284607
 11
1363.3901148087432
 21
1215.3919021078357
  0
LINE
  8
_0-5_寸法線
  6
CONTINUOUS
 62
    7
 10
1359.249010087103
 20
1230.8467153284607
 11
1355.1079053654626
 21
1215.3919021078357
  0
LINE
  8
_0-5_寸法線
  6
CONTINUOUS
 62
    7
 10
1316.749010087103
 20
880.84671532846073
 11
1367.2490100871039
 21
880.84671532846073
  0
LINE
  8
_0-5_寸法線
  6
CONTINUOUS
 62
    7
 10
1359.2490100871039
 20
880.84671532846073
 11
1355.1079053654635
 21
896.30152854908579
  0
LINE
  8
_0-5_寸法線
  6
CONTINUOUS
 62
    7
 10
1359.2490100871039
 20
880.84671532846073
 11
1363.3901148087441
 21
896.30152854908579
  0
LINE
  8
_0-5_寸法線
  6
CONTINUOUS
 62
    7
 10
1359.249010087103
 20
1230.8467153284607
 11
1359.2490100871039
 21
880.84671532846073
  0
TEXT
  8
_0-5_寸法線
 62
    7
 10
1359.2490100871039
 20
1037.8467153284607
 40
24
 41
1
 50
90
  1
350
  0
LINE
  8
_0-5_寸法線
  6
CONTINUOUS
 62
    7
 10
1316.749010087103
 20
878.84671532846073
 11
1367.2490100870975
 21
878.84671532846073
  0
CIRCLE
  8
_0-5_寸法線
  6
CONTINUOUS
 62
    1
 10
1359.2490100870975
 20
878.84671532846073
 40
2.4000000000000004
  0
LINE
  8
_0-5_寸法線
  6
CONTINUOUS
 62
    7
 10
1359.2490100871039
 20
880.84671532846073
 11
1359.2490100870975
 21
878.84671532846073
  0
TEXT
  8
_0-5_寸法線
 62
    7
 10
1392.1424132548455
 20
879.58935815191523
 40
24
 41
1
 50
90
  1
2
  0
LINE
  8
_0-5_寸法線
  6
CONTINUOUS
 62
    7
 10
1359.2490100871057
 20
875.84671532845618
 11
1363.3901148087882
 21
860.39190210784238
  0
LINE
  8
_0-5_寸法線
  6
CONTINUOUS
 62
    7
 10
1359.2490100871057
 20
875.84671532845618
 11
1355.1079053655076
 21
860.39190210781976
  0
LINE
  8
_0-5_寸法線
  6
CONTINUOUS
 62
    7
 10
1359.2490100870975
 20
878.84671532846073
 11
1359.2490100872149
 21
835.84671532845618
  0
TEXT
  8
_0-5_寸法線
 62
    7
 10
1359.2490100871039
 20
842.86159431991041
 40
24
 41
1
 50
90
  1
3
  0
LINE
  8
_0-d_寸法3
  6
CONTINUOUS
 62
    7
 10
299.74901008710435
 20
577.73625304135896
 11
284.2941968664793
 21
573.59514831971865
  0
LINE
  8
_0-d_寸法3
  6
CONTINUOUS
 62
    7
 10
299.74901008710435
 20
577.73625304135896
 11
284.2941968664793
 21
581.8773577629994
  0
LINE
  8
_0-d_寸法3
  6
CONTINUOUS
 62
    7
 10
307.74901008710458
 20
448.40291970802468
 11
307.74901008710458
 21
585.73625304135896
  0
CIRCLE
  8
_0-d_寸法3
  6
CONTINUOUS
 62
    1
 10
307.74901008710458
 20
577.73625304135896
 40
2.4000000000000004
  0
LINE
  8
_0-d_寸法3
  6
CONTINUOUS
 62
    7
 10
259.74901008710435
 20
577.73625304135896
 11
307.74901008710458
 21
577.73625304135896
  0
TEXT
  8
_0-d_寸法3
 62
    7
 10
265.91754137682688
 20
577.73625304135896
 40
24
 41
1
 50
0
  1
3
  0
LINE
  8
_0-d_寸法3
  6
CONTINUOUS
 62
    7
 10
313.08234342043693
 20
444.40291703867388
 11
313.08234342043806
 21
585.73625304135896
  0
LINE
  8
_0-d_寸法3
  6
CONTINUOUS
 62
    7
 10
307.74901008710458
 20
577.73625304135896
 11
313.08234342043795
 21
577.73625304135896
  0
TEXT
  8
_0-d_寸法3
 62
    7
 10
304.41567675377064
 20
577.73625304135896
 40
24
 41
1
 50
0
  1
2
  0
LINE
  8
_0-d_寸法3
  6
CONTINUOUS
 62
    7
 10
313.08234342043795
 20
577.73625304135896
 11
328.53715664106312
 21
581.87735776299928
  0
LINE
  8
_0-d_寸法3
  6
CONTINUOUS
 62
    7
 10
313.08234342043795
 20
577.73625304135896
 11
328.53715664106312
 21
573.59514831971865
  0
LINE
  8
_0-d_寸法3
  6
CONTINUOUS
 62
    7
 10
1246.4156767537711
 20
444.40291703867388
 11
1246.4156767537711
 21
585.73625304135896
  0
LINE
  8
_0-d_寸法3
  6
CONTINUOUS
 62
    7
 10
1246.4156767537711
 20
577.73625304135896
 11
1230.960863533146
 21
573.59514831971865
  0
LINE
  8
_0-d_寸法3
  6
CONTINUOUS
 62
    7
 10
1246.4156767537711
 20
577.73625304135896
 11
1230.960863533146
 21
581.8773577629994
  0
LINE
  8
_0-d_寸法3
  6
CONTINUOUS
 62
    7
 10
313.08234342043795
 20
577.73625304135896
 11
1246.4156767537711
 21
577.73625304135896
  0
TEXT
  8
_0-d_寸法3
 62
    7
 10
761.74901008710435
 20
577.73625304135896
 40
24
 41
1
 50
0
  1
350
  0
LINE
  8
_0-d_寸法3
  6
CONTINUOUS
 62
    7
 10
1251.7490100871041
 20
448.40291970802468
 11
1251.749010087105
 21
585.73625304135896
  0
CIRCLE
  8
_0-d_寸法3
  6
CONTINUOUS
 62
    1
 10
1251.749010087105
 20
577.73625304135896
 40
2.4000000000000004
  0
LINE
  8
_0-d_寸法3
  6
CONTINUOUS
 62
    7
 10
1246.4156767537711
 20
577.73625304135896
 11
1251.749010087105
 21
577.73625304135896
  0
TEXT
  8
_0-d_寸法3
 62
    7
 10
1243.0823434204381
 20
577.73625304135896
 40
24
 41
1
 50
0
  1
2
  0
LINE
  8
_0-d_寸法3
  6
CONTINUOUS
 62
    7
 10
1259.7490100871046
 20
577.73625304135896
 11
1275.2038233077296
 21
581.87735776299917
  0
LINE
  8
_0-d_寸法3
  6
CONTINUOUS
 62
    7
 10
1259.7490100871046
 20
577.73625304135896
 11
1275.2038233077296
 21
573.59514831971853
  0
LINE
  8
_0-d_寸法3
  6
CONTINUOUS
 62
    7
 10
1251.749010087105
 20
577.73625304135896
 11
1299.7490100871046
 21
577.73625304135896
  0
TEXT
  8
_0-d_寸法3
 62
    7
 10
1281.5443108586196
 20
577.73625304135896
 40
24
 41
1
 50
0
  1
3
  0
LINE
  8
_0-5_寸法線
  6
CONTINUOUS
 62
    7
 10
779.7490100871031
 20
1251.8467153284598
 11
779.7490100871031
 21
1323.8467153284598
  0
LINE
  8
_0-5_寸法線
  6
CONTINUOUS
 62
    7
 10
779.7490100871031
 20
1315.8467153284598
 11
795.20382330772816
 21
1319.9878200501003
  0
LINE
  8
_0-5_寸法線
  6
CONTINUOUS
 62
    7
 10
779.7490100871031
 20
1315.8467153284598
 11
795.20382330772816
 21
1311.7056106068194
  0
LINE
  8
_0-5_寸法線
  6
CONTINUOUS
 62
    7
 10
828.2490100871031
 20
1251.8467153284598
 11
828.2490100871031
 21
1323.8467153284598
  0
LINE
  8
_0-5_寸法線
  6
CONTINUOUS
 62
    7
 10
828.2490100871031
 20
1315.8467153284598
 11
812.79419686647805
 21
1311.7056106068196
  0
LINE
  8
_0-5_寸法線
  6
CONTINUOUS
 62
    7
 10
828.2490100871031
 20
1315.8467153284598
 11
812.79419686647805
 21
1319.9878200501003
  0
LINE
  8
_0-5_寸法線
  6
CONTINUOUS
 62
    7
 10
779.7490100871031
 20
1315.8467153284598
 11
828.2490100871031
 21
1315.8467153284598
  0
TEXT
  8
_0-5_寸法線
 62
    7
 10
791.99901008710401
 20
1315.8467153284598
 40
24
 41
1
 50
0
  1
Ｂ
  0
LINE
  8
_0-5_寸法線
  6
CONTINUOUS
 62
    7
 10
280.2490100871031
 20
1251.8467153284598
 11
280.2490100871031
 21
1323.8467153284598
  0
LINE
  8
_0-5_寸法線
  6
CONTINUOUS
 62
    7
 10
280.2490100871031
 20
1315.8467153284598
 11
295.70382330772827
 21
1319.9878200501003
  0
LINE
  8
_0-5_寸法線
  6
CONTINUOUS
 62
    7
 10
280.2490100871031
 20
1315.8467153284598
 11
295.70382330772827
 21
1311.7056106068194
  0
LINE
  8
_0-5_寸法線
  6
CONTINUOUS
 62
    7
 10
294.7490100871031
 20
1251.8467153284598
 11
294.7490100871031
 21
1323.8467153284598
  0
LINE
  8
_0-5_寸法線
  6
CONTINUOUS
 62
    7
 10
294.7490100871031
 20
1315.8467153284598
 11
279.29419686647793
 21
1311.7056106068196
  0
LINE
  8
_0-5_寸法線
  6
CONTINUOUS
 62
    7
 10
294.7490100871031
 20
1315.8467153284598
 11
279.29419686647805
 21
1319.9878200501003
  0
LINE
  8
_0-5_寸法線
  6
CONTINUOUS
 62
    7
 10
280.2490100871031
 20
1315.8467153284598
 11
294.7490100871031
 21
1315.8467153284598
  0
TEXT
  8
_0-5_寸法線
 62
    7
 10
275.4990100871031
 20
1315.8467153284598
 40
24
 41
1
 50
0
  1
Ａ
  0
LINE
  8
_0-5_寸法線
  6
CONTINUOUS
 62
    7
 10
1264.7490100871032
 20
1251.8467153284598
 11
1264.7490100871032
 21
1323.8467153284598
  0
LINE
  8
_0-5_寸法線
  6
CONTINUOUS
 62
    7
 10
1264.7490100871032
 20
1315.8467153284598
 11
1280.2038233077283
 21
1319.9878200501003
  0
LINE
  8
_0-5_寸法線
  6
CONTINUOUS
 62
    7
 10
1264.7490100871032
 20
1315.8467153284598
 11
1280.2038233077283
 21
1311.7056106068194
  0
LINE
  8
_0-5_寸法線
  6
CONTINUOUS
 62
    7
 10
1279.2490100871032
 20
1251.8467153284598
 11
1279.2490100871032
 21
1323.8467153284598
  0
LINE
  8
_0-5_寸法線
  6
CONTINUOUS
 62
    7
 10
1279.2490100871032
 20
1315.8467153284598
 11
1263.7941968664782
 21
1311.7056106068196
  0
LINE
  8
_0-5_寸法線
  6
CONTINUOUS
 62
    7
 10
1279.2490100871032
 20
1315.8467153284598
 11
1263.7941968664782
 21
1319.9878200501003
  0
LINE
  8
_0-5_寸法線
  6
CONTINUOUS
 62
    7
 10
1264.7490100871032
 20
1315.8467153284598
 11
1279.2490100871032
 21
1315.8467153284598
  0
TEXT
  8
_0-5_寸法線
 62
    7
 10
1259.9990100871032
 20
1315.8467153284598
 40
24
 41
1
 50
0
  1
Ａ
  0
LINE
  8
_0-5_寸法線
  6
CONTINUOUS
 62
    7
 10
280.24901008710322
 20
1251.8467153284589
 11
280.2490100871039
 21
1379.8467153284598
  0
LINE
  8
_0-5_寸法線
  6
CONTINUOUS
 62
    7
 10
280.24901008710378
 20
1371.8467153284598
 11
291.84012000257258
 21
1374.9525438696901
  0
LINE
  8
_0-5_寸法線
  6
CONTINUOUS
 62
    7
 10
280.24901008710378
 20
1371.8467153284598
 11
291.84012000257258
 21
1368.7408867872296
  0
LINE
  8
_0-5_寸法線
  6
CONTINUOUS
 62
    7
 10
1279.2490100871032
 20
1251.8467153284589
 11
1279.2490100871032
 21
1379.8467153284598
  0
LINE
  8
_0-5_寸法線
  6
CONTINUOUS
 62
    7
 10
1279.2490100871032
 20
1371.8467153284598
 11
1267.6579001716343
 21
1368.7408867872296
  0
LINE
  8
_0-5_寸法線
  6
CONTINUOUS
 62
    7
 10
1279.2490100871032
 20
1371.8467153284598
 11
1267.6579001716343
 21
1374.9525438696901
  0
LINE
  8
_0-5_寸法線
  6
CONTINUOUS
 62
    7
 10
280.24901008710378
 20
1371.8467153284598
 11
1279.2490100871032
 21
1371.8467153284598
  0
TEXT
  8
_0-5_寸法線
 62
    7
 10
767.7490100871039
 20
1371.8467153284598
 40
24
 41
1
 50
0
  1
Ｌ
  0
LINE
  8
_0-5_寸法線
  6
CONTINUOUS
 62
    7
 10
682.74901008710401
 20
1251.8467153284598
 11
682.74901008710401
 21
1323.8467153284598
  0
LINE
  8
_0-5_寸法線
  6
CONTINUOUS
 62
    7
 10
682.74901008710401
 20
1315.8467153284598
 11
698.20382330772907
 21
1319.9878200501003
  0
LINE
  8
_0-5_寸法線
  6
CONTINUOUS
 62
    7
 10
682.74901008710401
 20
1315.8467153284598
 11
698.20382330772907
 21
1311.7056106068194
  0
LINE
  8
_0-5_寸法線
  6
CONTINUOUS
 62
    7
 10
731.24901008710401
 20
1251.8467153284598
 11
731.24901008710401
 21
1323.8467153284598
  0
LINE
  8
_0-5_寸法線
  6
CONTINUOUS
 62
    7
 10
731.24901008710401
 20
1315.8467153284598
 11
715.79419686647896
 21
1311.7056106068196
  0
LINE
  8
_0-5_寸法線
  6
CONTINUOUS
 62
    7
 10
731.24901008710401
 20
1315.8467153284598
 11
715.79419686647896
 21
1319.9878200501003
  0
LINE
  8
_0-5_寸法線
  6
CONTINUOUS
 62
    7
 10
682.74901008710401
 20
1315.8467153284598
 11
731.24901008710401
 21
1315.8467153284598
  0
TEXT
  8
_0-5_寸法線
 62
    7
 10
682.99901008710401
 20
1315.8467153284598
 40
24
 41
1
 50
0
  1
48.5
  0
LINE
  8
_0-5_寸法線
  6
CONTINUOUS
 62
    7
 10
731.24901008710401
 20
1315.8467153284598
 11
746.70382330772918
 21
1319.9878200501
  0
LINE
  8
_0-5_寸法線
  6
CONTINUOUS
 62
    7
 10
731.24901008710401
 20
1315.8467153284598
 11
746.70382330772907
 21
1311.7056106068194
  0
LINE
  8
_0-5_寸法線
  6
CONTINUOUS
 62
    7
 10
779.74901008710401
 20
1251.8467153284598
 11
779.74901008710401
 21
1323.8467153284598
  0
LINE
  8
_0-5_寸法線
  6
CONTINUOUS
 62
    7
 10
779.74901008710401
 20
1315.8467153284598
 11
764.29419686647896
 21
1311.7056106068196
  0
LINE
  8
_0-5_寸法線
  6
CONTINUOUS
 62
    7
 10
779.74901008710401
 20
1315.8467153284598
 11
764.29419686647896
 21
1319.9878200501003
  0
LINE
  8
_0-5_寸法線
  6
CONTINUOUS
 62
    7
 10
731.24901008710401
 20
1315.8467153284598
 11
779.74901008710401
 21
1315.8467153284598
  0
TEXT
  8
_0-5_寸法線
 62
    7
 10
732.37554281369046
 20
1291.8467153284598
 40
24
 41
1
 50
0
  1
48.5
  0
LINE
  8
_0-7_枠細線
  6
CONTINUOUS
 62
    5
 10
720.7831632691508
 20
1344.3310535460546
 11
708.7831632691508
 21
1368.3310535460546
  0
LINE
  8
_0-7_枠細線
  6
CONTINUOUS
 62
    5
 10
696.7831632691508
 20
1344.3310535460546
 11
720.7831632691508
 21
1344.3310535460546
  0
LINE
  8
_0-7_枠細線
  6
CONTINUOUS
 62
    5
 10
708.7831632691508
 20
1368.3310535460546
 11
696.7831632691508
 21
1344.3310535460546
  0
TEXT
  8
_0-7_枠細線
 62
    5
 10
700.56740529818774
 20
1343.8398499534458
 40
20
 41
0.8
 50
0
  1
１
  0
LINE
  8
_0-7_枠細線
  6
CONTINUOUS
 62
    5
 10
737.19964279867179
 20
1368.3310535460546
 11
725.19964279867179
 21
1344.3310535460546
  0
LINE
  8
_0-7_枠細線
  6
CONTINUOUS
 62
    5
 10
725.19964279867179
 20
1344.3310535460546
 11
749.19964279867179
 21
1344.3310535460546
  0
LINE
  8
_0-7_枠細線
  6
CONTINUOUS
 62
    5
 10
749.19964279867179
 20
1344.3310535460546
 11
737.19964279867179
 21
1368.3310535460546
  0
LINE
  8
_0-7_枠細線
  6
CONTINUOUS
 62
    5
 10
1464
 20
1314.307734354795
 11
1452
 21
1338.307734354795
  0
LINE
  8
_0-7_枠細線
  6
CONTINUOUS
 62
    5
 10
1440
 20
1314.307734354795
 11
1464
 21
1314.307734354795
  0
LINE
  8
_0-7_枠細線
  6
CONTINUOUS
 62
    5
 10
1452
 20
1338.307734354795
 11
1440
 21
1314.307734354795
  0
LINE
  8
_0-7_枠細線
  6
CONTINUOUS
 62
    5
 10
2280
 20
1312
 11
1424
 21
1312
  0
LINE
  8
_0-7_枠細線
  6
CONTINUOUS
 62
    5
 10
1464
 20
1286.307734354795
 11
1452
 21
1310.307734354795
  0
LINE
  8
_0-7_枠細線
  6
CONTINUOUS
 62
    5
 10
1440
 20
1286.307734354795
 11
1464
 21
1286.307734354795
  0
LINE
  8
_0-7_枠細線
  6
CONTINUOUS
 62
    5
 10
1452
 20
1310.307734354795
 11
1440
 21
1286.307734354795
  0
LINE
  8
_0-7_枠細線
  6
CONTINUOUS
 62
    5
 10
2280
 20
1284
 11
1424
 21
1284
  0
TEXT
  8
_0-7_枠細線
 62
    5
 10
1443.7842420290372
 20
1312.7896224110355
 40
20
 41
0.8
 50
0
  1
６
  0
TEXT
  8
_0-7_枠細線
 62
    5
 10
1443.7842420290372
 20
1284.7896224110352
 40
20
 41
0.8
 50
0
  1
７
  0
LINE
  8
_0-7_枠細線
  6
CONTINUOUS
 62
    5
 10
1424
 20
1284
 11
1424
 21
1535.9999999999986
  0
LINE
  8
_0-7_枠細線
  6
CONTINUOUS
 62
    5
 10
1480
 20
1284
 11
1480
 21
1535.9999999999986
  0
LINE
  8
_0-7_枠細線
  6
CONTINUOUS
 62
    5
 10
1880
 20
1284
 11
1880
 21
1535.9999999999986
  0
LINE
  8
_0-7_枠細線
  6
CONTINUOUS
 62
    5
 10
2040
 20
1284
 11
2040
 21
1535.9999999999986
  0
LINE
  8
_0-7_枠細線
  6
CONTINUOUS
 62
    5
 10
1668.4453960905375
 20
1133.8946910356817
 11
1668.4453960905375
 21
1013.8946910356818
  0
TEXT
  8
_0-7_枠細線
 62
    5
 10
1671.7225259619295
 20
980.73377816458583
 40
24
 41
0.8000000000000001
 50
0
  1
※ 特寸品はAが20以下となるようBにて調整
  0
TEXT
  8
_0-7_枠細線
 62
    5
 10
1671.7225259619295
 20
949.54143699835436
 40
24
 41
0.8000000000000001
 50
0
  1
※ 角型の場合は、集水マス補強仕様による
  0
TEXT
  8
_0-7_枠細線
 62
    5
 10
1709.6453960905396
 20
1101.8946910356817
 40
24
 41
0.8000000000000001
 50
0
  1
種　別
  0
TEXT
  8
_0-7_枠細線
 62
    5
 10
1709.645396090539
 20
1061.8946910356817
 40
24
 41
0.8000000000000001
 50
0
  1
定尺品
  0
TEXT
  8
_0-7_枠細線
 62
    5
 10
1709.645396090539
 20
1021.8946910356818
 40
24
 41
0.8000000000000001
 50
0
  1
特寸品
  0
LINE
  8
_0-7_枠細線
  6
CONTINUOUS
 62
    5
 10
1808.4453960905398
 20
1133.8946910356817
 11
1808.4453960905398
 21
1013.8946910356818
  0
TEXT
  8
_0-7_枠細線
 62
    5
 10
1856.845396090542
 20
1061.8946910356817
 40
24
 41
0.5999999999999999
 50
0
  1
９９９
  0
TEXT
  8
_0-7_枠細線
 62
    5
 10
1868.845396090542
 20
1101.8946910356817
 40
24
 41
0.8000000000000001
 50
0
  1
Ｌ
  0
TEXT
  8
_0-7_枠細線
 62
    5
 10
1820.8453960905404
 20
1021.8946910356818
 40
24
 41
0.5999999999999999
 50
0
  1
３０５～１３０５
  0
LINE
  8
_0-7_枠細線
  6
CONTINUOUS
 62
    5
 10
1948.4453960905398
 20
1133.8946910356817
 11
1948.4453960905398
 21
1013.8946910356818
  0
TEXT
  8
_0-7_枠細線
 62
    5
 10
1849.2540219487705
 20
1141.8946910356817
 40
28
 41
1
 50
0
  1
寸法表
  0
LINE
  8
_0-7_枠細線
  6
CONTINUOUS
 62
    5
 10
2228.4453960905412
 20
1133.8946910356817
 11
2228.4453960905412
 21
1013.8946910356818
  0
LINE
  8
_0-7_枠細線
  6
CONTINUOUS
 62
    5
 10
1668.4453960905375
 20
1133.8946910356817
 11
2228.4453960905412
 21
1133.8946910356817
  0
LINE
  8
_0-7_枠細線
  6
CONTINUOUS
 62
    5
 10
1668.4453960905375
 20
1093.8946910356817
 11
2228.4453960905412
 21
1093.8946910356817
  0
LINE
  8
_0-7_枠細線
  6
CONTINUOUS
 62
    5
 10
1668.4453960905375
 20
1053.8946910356817
 11
2228.4453960905412
 21
1053.8946910356817
  0
LINE
  8
_0-7_枠細線
  6
CONTINUOUS
 62
    5
 10
1668.4453960905375
 20
1013.8946910356818
 11
2228.4453960905412
 21
1013.8946910356818
  0
LINE
  8
_0-7_枠細線
  6
CONTINUOUS
 62
    5
 10
2088.4453960905407
 20
1133.8946910356817
 11
2088.4453960905407
 21
1013.8946910356818
  0
TEXT
  8
_0-7_枠細線
 62
    5
 10
1989.6453960905442
 20
1021.8946910356818
 40
24
 41
0.5999999999999999
 50
0
  1
７～２０
  0
TEXT
  8
_0-7_枠細線
 62
    5
 10
2008.8453960905454
 20
1101.8946910356817
 40
24
 41
0.8000000000000001
 50
0
  1
Ａ
  0
TEXT
  8
_0-7_枠細線
 62
    5
 10
2148.8453960905426
 20
1101.8946910356817
 40
24
 41
0.8000000000000001
 50
0
  1
Ｂ
  0
TEXT
  8
_0-7_枠細線
 62
    5
 10
2129.6453960905392
 20
1061.8946910356817
 40
24
 41
0.5999999999999999
 50
0
  1
４８．５
  0
TEXT
  8
_0-7_枠細線
 62
    5
 10
1989.6453960905401
 20
1061.8946910356817
 40
24
 41
0.5999999999999999
 50
0
  1
１４．５
  0
TEXT
  8
_0-7_枠細線
 62
    5
 10
2093.645396090541
 20
1021.8946910356818
 40
24
 41
0.5999999999999999
 50
0
  1
２６．５～４８．５
  0
TEXT
  8
_0-7_枠細線
 62
    5
 10
1882.8453960905383
 20
608
 40
24
 41
0.7999999999999999
 50
0
  1
ライトグレー
  0
TEXT
  8
_0-7_枠細線
 62
    5
 10
1902.0453960905381
 20
648
 40
24
 41
0.7999999999999999
 50
0
  1
ベージュ
  0
TEXT
  8
_0-7_枠細線
 62
    5
 10
1902.0453960905381
 20
567.99999999999977
 40
24
 41
0.7999999999999999
 50
0
  1
ホワイト
  0
TEXT
  8
_0-7_枠細線
 62
    5
 10
1911.6453960905383
 20
527.99999999999977
 40
24
 41
0.7999999999999999
 50
0
  1
ピンク
  0
TEXT
  8
_0-7_枠細線
 62
    5
 10
1911.6453960905383
 20
487.99999999999977
 40
24
 41
0.7999999999999999
 50
0
  1
ブルー
  0
TEXT
  8
_0-7_枠細線
 62
    5
 10
1882.8453960905383
 20
447.99999999999977
 40
24
 41
0.7999999999999999
 50
0
  1
ダークグレー
  0
TEXT
  8
_0-7_枠細線
 62
    5
 10
1911.6453960905383
 20
407.99999999999977
 40
24
 41
0.7999999999999999
 50
0
  1
ウッド
  0
TEXT
  8
_0-7_枠細線
 62
    5
 10
1902.0453960905381
 20
327.99999999999977
 40
24
 41
0.7999999999999999
 50
0
  1
ブラック
  0
TEXT
  8
_0-7_枠細線
 62
    5
 10
1902.0453960905381
 20
367.99999999999977
 40
24
 41
0.7999999999999999
 50
0
  1
ブラウン
  0
LINE
  8
_0-0_計極細
  6
CONTINUOUS
 62
    2
 10
336.74901008710299
 20
1050.1467153284605
 11
336.74901008710299
 21
1044.5467153284606
  0
LINE
  8
_0-0_計極細
  6
CONTINUOUS
 62
    2
 10
349.74901008710299
 20
1050.1467153284605
 11
349.74901008710299
 21
1044.5467153284606
  0
LINE
  8
_0-0_計極細
  6
CONTINUOUS
 62
    2
 10
336.74901008710299
 20
1067.1467153284614
 11
336.74901008710299
 21
1061.546715328461
  0
LINE
  8
_0-0_計極細
  6
CONTINUOUS
 62
    2
 10
349.74901008710299
 20
1067.1467153284614
 11
349.74901008710299
 21
1061.546715328461
  0
LINE
  8
_0-0_計極細
  6
CONTINUOUS
 62
    2
 10
336.74901008710299
 20
1084.1467153284618
 11
336.74901008710299
 21
1078.5467153284619
  0
LINE
  8
_0-0_計極細
  6
CONTINUOUS
 62
    2
 10
349.74901008710299
 20
1084.1467153284618
 11
349.74901008710299
 21
1078.5467153284619
  0
LINE
  8
_0-0_計極細
  6
CONTINUOUS
 62
    2
 10
336.74901008710299
 20
1101.1467153284627
 11
336.74901008710299
 21
1095.5467153284624
  0
LINE
  8
_0-0_計極細
  6
CONTINUOUS
 62
    2
 10
349.74901008710299
 20
1101.1467153284627
 11
349.74901008710299
 21
1095.5467153284624
  0
LINE
  8
_0-0_計極細
  6
CONTINUOUS
 62
    2
 10
336.74901008710299
 20
1118.1467153284632
 11
336.74901008710299
 21
1112.5467153284633
  0
LINE
  8
_0-0_計極細
  6
CONTINUOUS
 62
    2
 10
349.74901008710299
 20
1118.1467153284632
 11
349.74901008710299
 21
1112.5467153284633
  0
LINE
  8
_0-0_計極細
  6
CONTINUOUS
 62
    2
 10
336.74901008710299
 20
1135.1467153284623
 11
336.74901008710299
 21
1129.5467153284624
  0
LINE
  8
_0-0_計極細
  6
CONTINUOUS
 62
    2
 10
349.74901008710299
 20
1135.1467153284623
 11
349.74901008710299
 21
1129.5467153284624
  0
LINE
  8
_0-0_計極細
  6
CONTINUOUS
 62
    2
 10
336.74901008710299
 20
1152.1467153284614
 11
336.74901008710299
 21
1146.5467153284615
  0
LINE
  8
_0-0_計極細
  6
CONTINUOUS
 62
    2
 10
349.74901008710299
 20
1152.1467153284614
 11
349.74901008710299
 21
1146.5467153284615
  0
LINE
  8
_0-0_計極細
  6
CONTINUOUS
 62
    2
 10
336.74901008710299
 20
1169.1467153284605
 11
336.74901008710299
 21
1163.5467153284606
  0
LINE
  8
_0-0_計極細
  6
CONTINUOUS
 62
    2
 10
349.74901008710299
 20
1169.1467153284605
 11
349.74901008710299
 21
1163.5467153284606
  0
LINE
  8
_0-0_計極細
  6
CONTINUOUS
 62
    2
 10
336.74901008710299
 20
1186.1467153284595
 11
336.74901008710299
 21
1180.5467153284596
  0
LINE
  8
_0-0_計極細
  6
CONTINUOUS
 62
    2
 10
349.74901008710299
 20
1186.1467153284595
 11
349.74901008710299
 21
1180.5467153284596
  0
LINE
  8
_0-0_計極細
  6
CONTINUOUS
 62
    2
 10
336.74901008710299
 20
1202.8467153284626
 11
336.74901008710299
 21
1197.5467153284628
  0
LINE
  8
_0-0_計極細
  6
CONTINUOUS
 62
    2
 10
349.74901008710299
 20
1202.8467153284626
 11
349.74901008710299
 21
1197.5467153284628
  0
LINE
  8
_0-0_計極細
  6
CONTINUOUS
 62
    2
 10
336.74901008710299
 20
1219.4467153284616
 11
336.74901008710299
 21
1214.2467153284617
  0
LINE
  8
_0-0_計極細
  6
CONTINUOUS
 62
    2
 10
349.74901008710299
 20
1219.4467153284616
 11
349.74901008710299
 21
1214.2467153284617
  0
LINE
  8
_0-0_計極細
  6
CONTINUOUS
 62
    2
 10
336.74901008710299
 20
1027.5467153284596
 11
336.74901008710299
 21
1033.1467153284595
  0
LINE
  8
_0-0_計極細
  6
CONTINUOUS
 62
    2
 10
349.74901008710299
 20
1027.5467153284596
 11
349.74901008710299
 21
1033.1467153284595
  0
LINE
  8
_0-0_計極細
  6
CONTINUOUS
 62
    2
 10
336.74901008710299
 20
1010.5467153284587
 11
336.74901008710299
 21
1016.1467153284591
  0
LINE
  8
_0-0_計極細
  6
CONTINUOUS
 62
    2
 10
349.74901008710299
 20
1010.5467153284587
 11
349.74901008710299
 21
1016.1467153284591
  0
LINE
  8
_0-0_計極細
  6
CONTINUOUS
 62
    2
 10
336.74901008710299
 20
993.54671532845828
 11
336.74901008710299
 21
999.14671532845819
  0
LINE
  8
_0-0_計極細
  6
CONTINUOUS
 62
    2
 10
349.74901008710299
 20
993.54671532845828
 11
349.74901008710299
 21
999.14671532845819
  0
LINE
  8
_0-0_計極細
  6
CONTINUOUS
 62
    2
 10
336.74901008710299
 20
976.54671532845919
 11
336.74901008710299
 21
982.14671532845909
  0
LINE
  8
_0-0_計極細
  6
CONTINUOUS
 62
    2
 10
349.74901008710299
 20
976.54671532845919
 11
349.74901008710299
 21
982.14671532845909
  0
LINE
  8
_0-0_計極細
  6
CONTINUOUS
 62
    2
 10
336.74901008710299
 20
959.5467153284601
 11
336.74901008710299
 21
965.14671532846
  0
LINE
  8
_0-0_計極細
  6
CONTINUOUS
 62
    2
 10
349.74901008710299
 20
959.5467153284601
 11
349.74901008710299
 21
965.14671532846
  0
LINE
  8
_0-0_計極細
  6
CONTINUOUS
 62
    2
 10
336.74901008710299
 20
942.546715328461
 11
336.74901008710299
 21
948.14671532846091
  0
LINE
  8
_0-0_計極細
  6
CONTINUOUS
 62
    2
 10
349.74901008710299
 20
942.546715328461
 11
349.74901008710299
 21
948.14671532846091
  0
LINE
  8
_0-0_計極細
  6
CONTINUOUS
 62
    2
 10
336.74901008710299
 20
925.54671532846191
 11
336.74901008710299
 21
931.14671532846182
  0
LINE
  8
_0-0_計極細
  6
CONTINUOUS
 62
    2
 10
349.74901008710299
 20
925.54671532846191
 11
349.74901008710299
 21
931.14671532846182
  0
LINE
  8
_0-0_計極細
  6
CONTINUOUS
 62
    2
 10
336.74901008710299
 20
908.84671532845891
 11
336.74901008710299
 21
914.14671532845864
  0
LINE
  8
_0-0_計極細
  6
CONTINUOUS
 62
    2
 10
349.74901008710299
 20
908.84671532845891
 11
349.74901008710299
 21
914.14671532845864
  0
LINE
  8
_0-0_計極細
  6
CONTINUOUS
 62
    2
 10
336.74901008710299
 20
892.24671532845991
 11
336.74901008710299
 21
897.44671532845973
  0
LINE
  8
_0-0_計極細
  6
CONTINUOUS
 62
    2
 10
349.74901008710299
 20
892.24671532845991
 11
349.74901008710299
 21
897.44671532845973
  0
LINE
  8
_0-0_計極細
  6
CENTER1
 62
    2
 10
343.24901008710299
 20
1239.5974347529275
 11
343.24901008710299
 21
873.28889158744846
  0
LINE
  8
_0-0_計極細
  6
CONTINUOUS
 62
    2
 10
1209.749010087103
 20
1050.1467153284605
 11
1209.749010087103
 21
1044.5467153284606
  0
LINE
  8
_0-0_計極細
  6
CONTINUOUS
 62
    2
 10
1222.749010087103
 20
1050.1467153284605
 11
1222.749010087103
 21
1044.5467153284606
  0
LINE
  8
_0-0_計極細
  6
CONTINUOUS
 62
    2
 10
1209.749010087103
 20
1067.1467153284614
 11
1209.749010087103
 21
1061.546715328461
  0
LINE
  8
_0-0_計極細
  6
CONTINUOUS
 62
    2
 10
1222.749010087103
 20
1067.1467153284614
 11
1222.749010087103
 21
1061.546715328461
  0
LINE
  8
_0-0_計極細
  6
CONTINUOUS
 62
    2
 10
1209.749010087103
 20
1084.1467153284618
 11
1209.749010087103
 21
1078.5467153284619
  0
LINE
  8
_0-0_計極細
  6
CONTINUOUS
 62
    2
 10
1222.749010087103
 20
1084.1467153284618
 11
1222.749010087103
 21
1078.5467153284619
  0
LINE
  8
_0-0_計極細
  6
CONTINUOUS
 62
    2
 10
1209.749010087103
 20
1101.1467153284627
 11
1209.749010087103
 21
1095.5467153284624
  0
LINE
  8
_0-0_計極細
  6
CONTINUOUS
 62
    2
 10
1222.749010087103
 20
1101.1467153284627
 11
1222.749010087103
 21
1095.5467153284624
  0
LINE
  8
_0-0_計極細
  6
CONTINUOUS
 62
    2
 10
1209.749010087103
 20
1118.1467153284632
 11
1209.749010087103
 21
1112.5467153284633
  0
LINE
  8
_0-0_計極細
  6
CONTINUOUS
 62
    2
 10
1222.749010087103
 20
1118.1467153284632
 11
1222.749010087103
 21
1112.5467153284633
  0
LINE
  8
_0-0_計極細
  6
CONTINUOUS
 62
    2
 10
1209.749010087103
 20
1135.1467153284623
 11
1209.749010087103
 21
1129.5467153284624
  0
LINE
  8
_0-0_計極細
  6
CONTINUOUS
 62
    2
 10
1222.749010087103
 20
1135.1467153284623
 11
1222.749010087103
 21
1129.5467153284624
  0
LINE
  8
_0-0_計極細
  6
CONTINUOUS
 62
    2
 10
1209.749010087103
 20
1152.1467153284614
 11
1209.749010087103
 21
1146.5467153284615
  0
LINE
  8
_0-0_計極細
  6
CONTINUOUS
 62
    2
 10
1222.749010087103
 20
1152.1467153284614
 11
1222.749010087103
 21
1146.5467153284615
  0
LINE
  8
_0-0_計極細
  6
CONTINUOUS
 62
    2
 10
1209.749010087103
 20
1169.1467153284605
 11
1209.749010087103
 21
1163.5467153284606
  0
LINE
  8
_0-0_計極細
  6
CONTINUOUS
 62
    2
 10
1222.749010087103
 20
1169.1467153284605
 11
1222.749010087103
 21
1163.5467153284606
  0
LINE
  8
_0-0_計極細
  6
CONTINUOUS
 62
    2
 10
1209.749010087103
 20
1186.1467153284595
 11
1209.749010087103
 21
1180.5467153284596
  0
LINE
  8
_0-0_計極細
  6
CONTINUOUS
 62
    2
 10
1222.749010087103
 20
1186.1467153284595
 11
1222.749010087103
 21
1180.5467153284596
  0
LINE
  8
_0-0_計極細
  6
CONTINUOUS
 62
    2
 10
1209.749010087103
 20
1202.8467153284626
 11
1209.749010087103
 21
1197.5467153284628
  0
LINE
  8
_0-0_計極細
  6
CONTINUOUS
 62
    2
 10
1222.749010087103
 20
1202.8467153284626
 11
1222.749010087103
 21
1197.5467153284628
  0
LINE
  8
_0-0_計極細
  6
CONTINUOUS
 62
    2
 10
1209.749010087103
 20
1219.4467153284616
 11
1209.749010087103
 21
1214.2467153284617
  0
LINE
  8
_0-0_計極細
  6
CONTINUOUS
 62
    2
 10
1222.749010087103
 20
1219.4467153284616
 11
1222.749010087103
 21
1214.2467153284617
  0
LINE
  8
_0-0_計極細
  6
CONTINUOUS
 62
    2
 10
1209.749010087103
 20
1027.5467153284596
 11
1209.749010087103
 21
1033.1467153284595
  0
LINE
  8
_0-0_計極細
  6
CONTINUOUS
 62
    2
 10
1222.749010087103
 20
1027.5467153284596
 11
1222.749010087103
 21
1033.1467153284595
  0
LINE
  8
_0-0_計極細
  6
CONTINUOUS
 62
    2
 10
1209.749010087103
 20
1010.5467153284587
 11
1209.749010087103
 21
1016.1467153284591
  0
LINE
  8
_0-0_計極細
  6
CONTINUOUS
 62
    2
 10
1222.749010087103
 20
1010.5467153284587
 11
1222.749010087103
 21
1016.1467153284591
  0
LINE
  8
_0-0_計極細
  6
CONTINUOUS
 62
    2
 10
1209.749010087103
 20
993.54671532845828
 11
1209.749010087103
 21
999.14671532845819
  0
LINE
  8
_0-0_計極細
  6
CONTINUOUS
 62
    2
 10
1222.749010087103
 20
993.54671532845828
 11
1222.749010087103
 21
999.14671532845819
  0
LINE
  8
_0-0_計極細
  6
CONTINUOUS
 62
    2
 10
1209.749010087103
 20
976.54671532845919
 11
1209.749010087103
 21
982.14671532845909
  0
LINE
  8
_0-0_計極細
  6
CONTINUOUS
 62
    2
 10
1222.749010087103
 20
976.54671532845919
 11
1222.749010087103
 21
982.14671532845909
  0
LINE
  8
_0-0_計極細
  6
CONTINUOUS
 62
    2
 10
1209.749010087103
 20
959.5467153284601
 11
1209.749010087103
 21
965.14671532846
  0
LINE
  8
_0-0_計極細
  6
CONTINUOUS
 62
    2
 10
1222.749010087103
 20
959.5467153284601
 11
1222.749010087103
 21
965.14671532846
  0
LINE
  8
_0-0_計極細
  6
CONTINUOUS
 62
    2
 10
1209.749010087103
 20
942.546715328461
 11
1209.749010087103
 21
948.14671532846091
  0
LINE
  8
_0-0_計極細
  6
CONTINUOUS
 62
    2
 10
1222.749010087103
 20
942.546715328461
 11
1222.749010087103
 21
948.14671532846091
  0
LINE
  8
_0-0_計極細
  6
CONTINUOUS
 62
    2
 10
1209.749010087103
 20
925.54671532846191
 11
1209.749010087103
 21
931.14671532846182
  0
LINE
  8
_0-0_計極細
  6
CONTINUOUS
 62
    2
 10
1222.749010087103
 20
925.54671532846191
 11
1222.749010087103
 21
931.14671532846182
  0
LINE
  8
_0-0_計極細
  6
CONTINUOUS
 62
    2
 10
1209.749010087103
 20
908.84671532845891
 11
1209.749010087103
 21
914.14671532845864
  0
LINE
  8
_0-0_計極細
  6
CONTINUOUS
 62
    2
 10
1222.749010087103
 20
908.84671532845891
 11
1222.749010087103
 21
914.14671532845864
  0
LINE
  8
_0-0_計極細
  6
CONTINUOUS
 62
    2
 10
1209.749010087103
 20
892.24671532845991
 11
1209.749010087103
 21
897.44671532845973
  0
LINE
  8
_0-0_計極細
  6
CONTINUOUS
 62
    2
 10
1222.749010087103
 20
892.24671532845991
 11
1222.749010087103
 21
897.44671532845973
  0
LINE
  8
_0-0_計極細
  6
CENTER1
 62
    2
 10
1216.249010087103
 20
1239.5974347529275
 11
1216.249010087103
 21
873.28889158744846
  0
TEXT
  8
_0-7_枠細線
 62
    5
 10
890.37097409749117
 20
145.83535794798195
 40
32
 41
0.6
 50
0
  1
Ｓ＝１：３
  0
LINE
  8
_0-1_計細線
  6
CONTINUOUS
 62
    3
 10
352.74901008710253
 20
1061.9967153284613
 11
405.74901008710253
 21
1061.9967153284613
  0
LINE
  8
_0-1_計細線
  6
CONTINUOUS
 62
    3
 10
405.74901008710253
 20
1066.6967153284611
 11
352.74901008710253
 21
1066.6967153284611
  0
LINE
  8
_0-1_計細線
  6
CONTINUOUS
 62
    3
 10
352.74901008710253
 20
1066.6967153284611
 11
352.74901008710253
 21
1061.9967153284613
  0
LINE
  8
_0-1_計細線
  6
CONTINUOUS
 62
    3
 10
395.74901008710253
 20
1066.6967153284611
 11
395.74901008710253
 21
1061.9967153284613
  0
LINE
  8
_0-1_計細線
  6
CONTINUOUS
 62
    3
 10
403.74901008710253
 20
1066.6967153284611
 11
403.74901008710253
 21
1061.9967153284613
  0
LINE
  8
_0-1_計細線
  6
CONTINUOUS
 62
    3
 10
405.74901008710253
 20
1066.6967153284611
 11
405.74901008710253
 21
1061.9967153284613
  0
LINE
  8
_0-1_計細線
  6
CONTINUOUS
 62
    3
 10
401.74901008710253
 20
1066.6967153284611
 11
401.74901008710253
 21
1061.9967153284613
  0
LINE
  8
_0-1_計細線
  6
CONTINUOUS
 62
    3
 10
399.74901008710253
 20
1066.6967153284611
 11
399.74901008710253
 21
1061.9967153284613
  0
LINE
  8
_0-1_計細線
  6
CONTINUOUS
 62
    3
 10
397.74901008710253
 20
1066.6967153284611
 11
397.74901008710253
 21
1061.9967153284613
  0
TEXT
  8
_0-5_寸法線
 62
    7
 10
840.45735894371614
 20
769.87224492541509
 40
24
 41
0.7999999999999999
 50
0
  1
ＧＲＳＫ－２５Ｗ３５０
  0
LINE
  8
_0-5_寸法線
  6
CONTINUOUS
 62
    7
 10
804.06987821252619
 20
920.03398512417925
 11
812.06987821252608
 21
906.1775786636282
  0
LINE
  8
_0-5_寸法線
  6
CONTINUOUS
 62
    7
 10
804.06987821252619
 20
920.03398512417925
 11
804.06987821252608
 21
904.03398512417925
  0
LINE
  8
_0-5_寸法線
  6
CONTINUOUS
 62
    7
 10
804.06987821252619
 20
920.03398512417925
 11
837.51297789489422
 21
795.22263794698893
  0
LINE
  8
_0-5_寸法線
  6
CONTINUOUS
 62
    7
 10
837.51297789489422
 20
795.22263794698893
 11
1125.5129778948942
 21
795.22263794698893
  0
TEXT
  8
_0-5_寸法線
 62
    7
 10
837.51297789489422
 20
795.22263794698893
 40
24
 41
0.8000000000000001
 50
0
  1
セーフティグレーチング補強仕様
  0
TEXT
  8
_0-5_寸法線
 62
    7
 10
442.31686092663836
 20
769.85384238473694
 40
24
 41
0.7999999999999999
 50
0
  1
(標準付属)
  0
TEXT
  8
_0-7_枠細線
 62
    5
 10
448.88381915335481
 20
825.22088853612968
 40
20
 41
0.8
 50
0
  1
２
  0
LINE
  8
_0-7_枠細線
  6
CONTINUOUS
 62
    5
 10
469.09957712431856
 20
825.71209212873828
 11
457.09957712431856
 21
849.71209212873828
  0
LINE
  8
_0-7_枠細線
  6
CONTINUOUS
 62
    5
 10
445.09957712431856
 20
825.71209212873828
 11
469.09957712431856
 21
825.71209212873828
  0
LINE
  8
_0-7_枠細線
  6
CONTINUOUS
 62
    5
 10
457.09957712431856
 20
849.71209212873828
 11
445.09957712431856
 21
825.71209212873828
  0
LINE
  8
_0-7_枠細線
  6
CONTINUOUS
 62
    5
 10
499.04195138783211
 20
825.71209212873828
 11
487.04195138783211
 21
849.71209212873828
  0
LINE
  8
_0-7_枠細線
  6
CONTINUOUS
 62
    5
 10
475.04195138783211
 20
825.71209212873828
 11
499.04195138783211
 21
825.71209212873828
  0
LINE
  8
_0-7_枠細線
  6
CONTINUOUS
 62
    5
 10
487.04195138783211
 20
849.71209212873828
 11
475.04195138783211
 21
825.71209212873828
  0
TEXT
  8
_0-7_枠細線
 62
    5
 10
478.82619341686927
 20
824.8357979044481
 40
20
 41
0.8
 50
0
  1
３
  0
LINE
  8
_0-7_枠細線
  6
CONTINUOUS
 62
    5
 10
515.4584309173531
 20
849.71209212873828
 11
503.4584309173531
 21
825.71209212873828
  0
LINE
  8
_0-7_枠細線
  6
CONTINUOUS
 62
    5
 10
503.4584309173531
 20
825.71209212873828
 11
527.4584309173531
 21
825.71209212873828
  0
LINE
  8
_0-7_枠細線
  6
CONTINUOUS
 62
    5
 10
527.4584309173531
 20
825.71209212873828
 11
515.4584309173531
 21
849.71209212873828
  0
LINE
  8
_0-5_寸法線
  6
CONTINUOUS
 62
    7
 10
367.64388037522622
 20
1064.9848528065331
 11
375.64388037522622
 21
1051.1284463459822
  0
LINE
  8
_0-5_寸法線
  6
CONTINUOUS
 62
    7
 10
367.64388037522622
 20
1064.9848528065331
 11
367.64388037522622
 21
1048.9848528065331
  0
LINE
  8
_0-5_寸法線
  6
CONTINUOUS
 62
    7
 10
367.64388037522622
 20
1064.9848528065331
 11
439.92644799527102
 21
795.22263794698893
  0
LINE
  8
_0-5_寸法線
  6
CONTINUOUS
 62
    7
 10
439.92644799527102
 20
795.22263794698893
 11
535.92644799527102
 21
795.22263794698893
  0
TEXT
  8
_0-5_寸法線
 62
    7
 10
439.92644799527102
 20
795.22263794698893
 40
24
 41
0.8000000000000001
 50
0
  1
取　外　具
  0
TEXT
  8
_0-5_寸法線
 62
    7
 10
597.28969698438164
 20
769.87224492541509
 40
24
 41
0.7999999999999999
 50
0
  1
ＧＳＬ－２５
  0
LINE
  8
_0-5_寸法線
  6
CONTINUOUS
 62
    7
 10
572.99170523518228
 20
877.05526397579706
 11
580.99170523518217
 21
863.198857515246
  0
LINE
  8
_0-5_寸法線
  6
CONTINUOUS
 62
    7
 10
572.99170523518228
 20
877.05526397579706
 11
572.99170523518217
 21
861.05526397579706
  0
LINE
  8
_0-5_寸法線
  6
CONTINUOUS
 62
    7
 10
572.99170523518228
 20
877.05526397579706
 11
594.91869129411884
 21
795.22263794698893
  0
LINE
  8
_0-5_寸法線
  6
CONTINUOUS
 62
    7
 10
594.91869129411884
 20
795.22263794698893
 11
767.7186912941188
 21
795.22263794698893
  0
TEXT
  8
_0-5_寸法線
 62
    7
 10
594.91869129411884
 20
796.18263794698873
 40
24
 41
0.8000000000000001
 50
0
  1
ＳＵＳアングル受枠
  0
TEXT
  8
_0-7_枠細線
 62
    5
 10
1502.1605925925924
 20
1316
 40
20
 41
1
 50
0
  1
クロスバーピッチ変更
  0
TEXT
  8
_0-7_枠細線
 62
    5
 10
1502.1605925925924
 20
1288
 40
20
 41
1
 50
0
  1
取外具形状変更
  0
TEXT
  8
_0-7_枠細線
 62
    5
 10
1888
 20
1316
 40
20
 41
0.7199999999999999
 50
0
  1
２０２０．０９．０１
  0
TEXT
  8
_0-7_枠細線
 62
    5
 10
1888
 20
1288
 40
20
 41
0.7199999999999999
 50
0
  1
２０２０．１０．０１
  0
TEXT
  8
_0-7_枠細線
 62
    5
 10
728.98388482770895
 20
1343.4547593217644
 40
20
 41
0.8
 50
0
  1
６
  0
TEXT
  8
_0-7_枠細線
 62
    5
 10
507.24267294639026
 20
824.8357979044481
 40
20
 41
0.8
 50
0
  1
７
  0
ENDSEC
  0
EOF
