  0
SECTION
  2
HEADER
  9
$ACADVER
  1
AC1009
  9
$INSBASE
 10
0
 20
0
 30
0
  9
$EXTMIN
 10
0
 20
0
  9
$EXTMAX
 10
1485
 20
1050
  9
$LIMMIN
 10
0
 20
0
  9
$LIMMAX
 10
1485
 20
1050
  9
$LTSCALE
 40
5
  0
ENDSEC
  0
SECTION
  2
TABLES
  0
TABLE
  2
LTYPE
 70
     9
  0
LTYPE
  2
CONTINUOUS
 70
    64
  3
実線
 72
    65
 73
     0
 40
0.0
  0
LTYPE
  2
DASHED1
 70
    64
  3
--  --  --  --  --  --  --  --  
 72
    65
 73
     2
 40
2.5
 49
1.25
 49
-1.25
  0
LTYPE
  2
DASHED2
 70
    64
  3
----    ----    ----    ----    
 72
    65
 73
     2
 40
5.0
 49
2.5
 49
-2.5
  0
LTYPE
  2
DASHED3
 70
    64
  3
------  ------  ------  ------  
 72
    65
 73
     2
 40
5.0
 49
3.75
 49
-1.25
  0
LTYPE
  2
CENTER1
 70
    64
  3
----- - ----- - ----- - ----- - 
 72
    65
 73
     4
 40
10.0
 49
6.25
 49
-1.25
 49
1.25
 49
-1.25
  0
LTYPE
  2
CENTER2
 70
    64
  3
----------  --  ----------  --  
 72
    65
 73
     4
 40
20.0
 49
12.5
 49
-2.5
 49
2.5
 49
-2.5
  0
LTYPE
  2
PHANTOM1
 70
    64
  3
--- - - --- - - --- - - --- - - 
 72
    65
 73
     6
 40
10.0
 49
3.25
 49
-1.25
 49
1.25
 49
-1.25
 49
1.25
 49
-1.25
  0
LTYPE
  2
PHANTOM2
 70
    64
  3
--------  -  -  --------  -  -  
 72
    65
 73
     6
 40
20.0
 49
10.0
 49
-2.5
 49
1.25
 49
-2.5
 49
1.25
 49
-2.5
  0
LTYPE
  2
DOT
 70
    64
  3
-   -   -   -   -   -   -   -   
 72
    65
 73
     2
 40
2.5
 49
0.625
 49
-1.875
  0
LTYPE
  2
DUMMY
 70
    64
  3
ダミー
 72
    65
 73
     0
 40
0.0
  0
LTYPE
  2
RAND1
 70
    64
  3
ランダム線1
 72
    65
 73
     4
 40
10.0
 49
1.0
 49
-2.0
 49
3.0
 49
-4.0
  0
LTYPE
  2
RAND2
 70
    64
  3
ランダム線2
 72
    65
 73
     4
 40
14.0
 49
2.0
 49
-3.0
 49
4.0
 49
-5.0
  0
LTYPE
  2
RAND3
 70
    64
  3
ランダム線3
 72
    65
 73
     4
 40
18.0
 49
3.0
 49
-4.0
 49
5.0
 49
-6.0
  0
LTYPE
  2
RAND4
 70
    64
  3
ランダム線4
 72
    65
 73
     4
 40
22.0
 49
4.0
 49
-5.0
 49
6.0
 49
-7.0
  0
LTYPE
  2
RAND5
 70
    64
  3
ランダム線5
 72
    65
 73
     4
 40
26.0
 49
5.0
 49
-6.0
 49
7.0
 49
-8.0
  0
LTYPE
  2
LONG1
 70
    64
  3
----------  --  ----------  --  
 72
    65
 73
     4
 40
40.0
 49
32.5
 49
-2.5
 49
2.5
 49
-2.5
  0
LTYPE
  2
LONG2
 70
    64
  3
--------  -  -  --------  -  -  
 72
    65
 73
     6
 40
40.0
 49
30.0
 49
-2.5
 49
1.25
 49
-2.5
 49
1.25
 49
-2.5
  0
LTYPE
  2
LONG3
 70
    64
  3
+++++++++++++++..+++++++++++++++
 72
    65
 73
     2
 40
40.0
 49
37.5
 49
-2.5
  0
LTYPE
  2
LONG4
 70
    64
  3
+++++++++++++++..+++++++++++++++
 72
    65
 73
     2
 40
80.0
 49
75.0
 49
-5.0
  0
LTYPE
  2
LONG5
 70
    64
  3
----------  --  ----------  --  
 72
    65
 73
     4
 40
60.0
 49
37.5
 49
-7.5
 49
7.5
 49
-7.5
  0
LTYPE
  2
dashed
 70
   64
  3
-------   -------------   ------
 72
   65
 73
    2
 40
7.5
 49
6
 49
-1.5
  0
LTYPE
  2
dashed_spaced
 70
   64
  3
----        --------        ----
 72
   65
 73
    2
 40
12
 49
6
 49
-6
  0
LTYPE
  2
long_dashed_dotted
 70
   64
  3
------------- --- --------------
 72
   65
 73
    4
 40
15.25
 49
12
 49
-1.5
 49
0.25
 49
-1.5
  0
LTYPE
  2
long_dashed_double-dotted
 70
   64
  3
----------- --- --- ------------
 72
   65
 73
    6
 40
17
 49
12
 49
-1.5
 49
0.25
 49
-1.5
 49
0.25
 49
-1.5
  0
LTYPE
  2
long_dashed_triplicate-dotted
 70
   64
  3
--------- --- --- --- ----------
 72
   65
 73
    8
 40
18.75
 49
12
 49
-1.5
 49
0.25
 49
-1.5
 49
0.25
 49
-1.5
 49
0.25
 49
-1.5
  0
LTYPE
  2
dotted
 70
   64
  3
   -       -       -       -    
 72
   65
 73
    2
 40
1.75
 49
0.25
 49
-1.5
  0
LTYPE
  2
chain
 70
   64
  3
-------------- -- --------------
 72
   65
 73
    4
 40
18.5
 49
12
 49
-1.5
 49
3.5
 49
-1.5
  0
LTYPE
  2
chain_double_dash
 70
   64
  3
------------ -- -- -------------
 72
   65
 73
    6
 40
23.5
 49
12
 49
-1.5
 49
3.5
 49
-1.5
 49
3.5
 49
-1.5
  0
LTYPE
  2
dashed_dotted
 70
   64
  3
-----------     -     ----------
 72
   65
 73
    4
 40
9.25
 49
6
 49
-1.5
 49
0.25
 49
-1.5
  0
LTYPE
  2
double-dashed_dotted
 70
   64
  3
------   -----------   -   -----
 72
   65
 73
    6
 40
16.75
 49
6
 49
-1.5
 49
6
 49
-1.5
 49
0.25
 49
-1.5
  0
LTYPE
  2
dashed_double-dotted
 70
   64
  3
---------    -    -    ---------
 72
   65
 73
    6
 40
11
 49
6
 49
-1.5
 49
0.25
 49
-1.5
 49
0.25
 49
-1.5
  0
LTYPE
  2
double-dashed_double-dotted
 70
   64
  3
-----   ---------   -   -   ----
 72
   65
 73
    8
 40
18.5
 49
6
 49
-1.5
 49
6
 49
-1.5
 49
0.25
 49
-1.5
 49
0.25
 49
-1.5
  0
LTYPE
  2
dashed_triplicate-dotted
 70
   64
  3
-------    -    -    -    ------
 72
   65
 73
    8
 40
12.75
 49
6
 49
-1.5
 49
0.25
 49
-1.5
 49
0.25
 49
-1.5
 49
0.25
 49
-1.5
  0
LTYPE
  2
double-dashed_triplicate-dotted
 70
   64
  3
-----  ---------  -  -  -  -----
 72
   65
 73
   10
 40
20.25
 49
6
 49
-1.5
 49
6
 49
-1.5
 49
0.25
 49
-1.5
 49
0.25
 49
-1.5
 49
0.25
 49
-1.5
  0
LTYPE
  2
undefined
 70
   64
  3
--------------------------------
 72
   65
 73
    0
 40
0
  0
ENDTAB
  0
TABLE
  2
STYLE
  5
3
100
AcDbSymbolTable
 70
     1
  0
STYLE
  5
10
100
AcDbSymbolTableRecord
100
AcDbTextStyleTableRecord
  2
STANDARD
 70
     0
 40
0.0
 41
1.0
 50
0.0
 71
     0
 42
0.2
  3
txt
  4
bigfont.shx
  0
STYLE
  5
26
100
AcDbSymbolTableRecord
100
AcDbTextStyleTableRecord
  2
TATEGAKI
 70
    68
 40
0.0
 41
1.0
 50
0.0
 71
     0
 42
1.0
  3
txt
  4
bigfont.shx
  0
ENDTAB
  0
TABLE
  2
LAYER
 70
    9
  0
LAYER
  2
_0-0_計極細
 70
   64
 62
    7
  6
CONTINUOUS
  0
LAYER
  2
_0-1_計細線
 70
   64
 62
    7
  6
CONTINUOUS
  0
LAYER
  2
_0-5_寸法線
 70
   64
 62
    7
  6
CONTINUOUS
  0
LAYER
  2
_0-7_枠細線
 70
   64
 62
    7
  6
CONTINUOUS
  0
LAYER
  2
_0-8_枠中線
 70
   64
 62
    7
  6
CONTINUOUS
  0
LAYER
  2
_0-a_極細1
 70
   64
 62
    7
  6
CONTINUOUS
  0
LAYER
  2
_0-b_細線1
 70
   64
 62
    7
  6
CONTINUOUS
  0
LAYER
  2
_0-d_寸法1
 70
   64
 62
    7
  6
CONTINUOUS
  0
LAYER
  2
ADD_LINE
 70
   64
 62
    7
  6
CONTINUOUS
  0
ENDTAB
  0
ENDSEC
  0
SECTION
  2
BLOCKS
  0
ENDSEC
  0
SECTION
  2
ENTITIES
  0
LINE
  8
_0-7_枠細線
  6
CONTINUOUS
 62
    5
 10
1185.0000000000005
 20
180
 11
1185.0000000000005
 21
99.999999999999929
  0
TEXT
  8
_0-7_枠細線
 62
    5
 10
937.50000000000057
 20
97.499999999999929
 40
17.500000000000007
 41
1
 50
0
  1
備考
  7
TATEGAKI
  0
TEXT
  8
_0-7_枠細線
 62
    5
 10
937.50000000000057
 20
137.49999999999994
 40
17.500000000000007
 41
1
 50
0
  1
品番
  7
TATEGAKI
  0
TEXT
  8
_0-7_枠細線
 62
    5
 10
937.50000000000057
 20
177.5
 40
17.500000000000007
 41
1
 50
0
  1
品名
  7
TATEGAKI
  0
LINE
  8
_0-7_枠細線
  6
CONTINUOUS
 62
    5
 10
1185.0000000000005
 20
139.99999999999994
 11
925.00000000000057
 21
139.99999999999994
  0
LINE
  8
_0-7_枠細線
  6
CONTINUOUS
 62
    5
 10
950.00000000000057
 20
180
 11
950.00000000000057
 21
59.999999999999929
  0
LINE
  8
_0-8_枠中線
  6
CONTINUOUS
 62
    5
 10
1425.0000000000002
 20
180
 11
925.00000000000057
 21
180
  0
LINE
  8
_0-8_枠中線
  6
CONTINUOUS
 62
    5
 10
925.00000000000057
 20
180
 11
925.00000000000057
 21
59.999999999999929
  0
LINE
  8
_0-7_枠細線
  6
CONTINUOUS
 62
    5
 10
1245.0000000000005
 20
180
 11
1245.0000000000005
 21
59.999999999999929
  0
TEXT
  8
_0-7_枠細線
 62
    5
 10
1192.5000000000005
 20
159.99999999999994
 40
15.000000000000009
 41
1
 50
0
  1
縮　尺
  0
LINE
  8
_0-7_枠細線
  6
CONTINUOUS
 62
    5
 10
1185.0000000000005
 20
154.99999999999994
 11
1245.0000000000005
 21
154.99999999999994
  0
LINE
  8
_0-7_枠細線
  6
CONTINUOUS
 62
    5
 10
1245.0000000000005
 20
99.999999999999929
 11
925.00000000000057
 21
99.999999999999929
  0
LINE
  8
_0-7_枠細線
  6
CONTINUOUS
 62
    5
 10
1425.0000000000002
 20
89.999999999999929
 11
1245.0000000000005
 21
89.999999999999929
  0
LINE
  8
_0-7_枠細線
  6
CONTINUOUS
 62
    5
 10
1245.0000000000005
 20
119.99999999999993
 11
1425.0000000000002
 21
119.99999999999993
  0
LINE
  8
_0-7_枠細線
  6
CONTINUOUS
 62
    5
 10
1425.0000000000002
 20
139.99999999999994
 11
1245.0000000000005
 21
139.99999999999994
  0
TEXT
  8
_0-7_枠細線
 62
    5
 10
1255.0000000000005
 20
147.49999999999994
 40
25.000000000000004
 41
0.8
 50
0
  1
株式会社シマブン
  0
TEXT
  8
_0-7_枠細線
 62
    5
 10
1252.5000000000005
 20
59.999999999999929
 40
15.000000000000009
 41
1
 50
0
  1
年月日
  0
TEXT
  8
_0-7_枠細線
 62
    5
 10
1252.5000000000005
 20
74.999999999999929
 40
15.000000000000009
 41
1
 50
0
  1
作　成
  0
TEXT
  8
_0-7_枠細線
 62
    5
 10
1256.2500000000005
 20
122.49999999999993
 40
15.000000000000009
 41
1
 50
0
  1
承 認
  0
LINE
  8
_0-7_枠細線
  6
CONTINUOUS
 62
    5
 10
1305.0000000000002
 20
139.99999999999994
 11
1305.0000000000002
 21
59.999999999999929
  0
TEXT
  8
_0-7_枠細線
 62
    5
 10
1316.2500000000002
 20
122.49999999999993
 40
15.000000000000009
 41
1
 50
0
  1
検 図
  0
LINE
  8
_0-7_枠細線
  6
CONTINUOUS
 62
    5
 10
1365.0000000000002
 20
139.99999999999994
 11
1365.0000000000002
 21
89.999999999999929
  0
TEXT
  8
_0-7_枠細線
 62
    5
 10
1375.0000000000002
 20
94.999999999999929
 40
20.000000000000004
 41
1
 50
0
  1
藤戸
  0
TEXT
  8
_0-7_枠細線
 62
    5
 10
1376.2500000000002
 20
122.49999999999993
 40
15.000000000000009
 41
1
 50
0
  1
設 計
  0
LINE
  8
_0-8_枠中線
  6
CONTINUOUS
 62
    5
 10
1425.0000000000002
 20
59.999999999999929
 11
1425.0000000000009
 21
970.00000000000023
  0
LINE
  8
_0-8_枠中線
  6
CONTINUOUS
 62
    5
 10
59.999999999999858
 20
59.999999999999929
 11
60.000000000000142
 21
970.00000000000023
  0
LINE
  8
_0-8_枠中線
  6
CONTINUOUS
 62
    5
 10
59.999999999999858
 20
59.999999999999645
 11
1425.0000000000002
 21
59.999999999999929
  0
LINE
  8
_0-8_枠中線
  6
CONTINUOUS
 62
    5
 10
60.000000000000142
 20
970.00000000000023
 11
1425.0000000000009
 21
970.00000000000023
  0
TEXT
  8
_0-7_枠細線
 62
    5
 10
1194.0000000000005
 20
117.49999999999993
 40
20.000000000000007
 41
0.6999999999999998
 50
0
  1
１：５
  0
TEXT
  8
_0-7_枠細線
 62
    5
 10
960.50000000000045
 20
69.999999999999858
 40
20
 41
0.5999999999999998
 50
0
  1
品番・色については表参照のこと
  0
TEXT
  8
_0-7_枠細線
 62
    5
 10
1310.0000000000002
 20
67.499999999999929
 40
15.000000000000009
 41
0.6666666666666665
 50
0
  1
２０１０年０３月０１日
  0
TEXT
  8
_0-7_枠細線
 62
    5
 10
1315.0000000000002
 20
94.999999999999929
 40
20.000000000000004
 41
1
 50
0
  1
渋田
  0
TEXT
  8
_0-7_枠細線
 62
    5
 10
1255.0000000000002
 20
94.999999999999929
 40
20.000000000000004
 41
1
 50
0
  1
隠塚
  0
TEXT
  8
_0-7_枠細線
 62
    5
 10
960.50000000000045
 20
158.74999999999994
 40
20.000000000000007
 41
0.5999999999999998
 50
0
  1
セーフティグレーチングスリットタイプ
  0
TEXT
  8
_0-7_枠細線
 62
    5
 10
1104.5
 20
141.25
 40
20.000000000000007
 41
0.5999999999999998
 50
0
  1
通常枠ＳＥＴ
  0
TEXT
  8
_0-7_枠細線
 62
    5
 10
960.50000000000045
 20
109.99999999999993
 40
20.000000000000007
 41
0.5749999999999998
 50
0
  1
ＧＲＳＳ－２０Ｌ６００Ａ～２０００Ａ
  0
LINE
  8
_0-7_枠細線
  6
CONTINUOUS
 62
    5
 10
1425.0000000000009
 20
952.50000000000023
 11
890.00000000000068
 21
952.50000000000023
  0
TEXT
  8
_0-7_枠細線
 62
    5
 10
895.00000000000068
 20
955.00000000000023
 40
12.5
 41
1
 50
0
  1
記号
  0
TEXT
  8
_0-7_枠細線
 62
    5
 10
996.87500000000068
 20
955.00000000000023
 40
12.5
 41
1
 50
0
  1
訂　 正　 記　 事
  0
TEXT
  8
_0-7_枠細線
 62
    5
 10
1181.2500000000007
 20
955.00000000000023
 40
12.5
 41
1
 50
0
  1
訂 正 年 月 日
  0
TEXT
  8
_0-7_枠細線
 62
    5
 10
1306.2500000000009
 20
955.00000000000023
 40
12.5
 41
1
 50
0
  1
備　　　　　考
  0
LINE
  8
_0-7_枠細線
  6
CONTINUOUS
 62
    5
 10
1425.0000000000009
 20
917.50000000000023
 11
890.00000000000068
 21
917.50000000000023
  0
LINE
  8
_0-7_枠細線
  6
CONTINUOUS
 62
    5
 10
1425.0000000000009
 20
900.00000000000023
 11
890.00000000000068
 21
900.00000000000023
  0
TEXT
  8
_0-7_枠細線
 62
    5
 10
938.85037037037091
 20
920.00000000000023
 40
12.5
 41
1
 50
0
  1
クロスバーピッチ変更
  0
TEXT
  8
_0-7_枠細線
 62
    5
 10
938.85037037037091
 20
902.50000000000023
 40
12.5
 41
1
 50
0
  1
取外具形状変更
  0
TEXT
  8
_0-7_枠細線
 62
    5
 10
1180.0000000000007
 20
920.00000000000023
 40
12.5
 41
0.7199999999999999
 50
0
  1
２０１５．１１．２０
  0
TEXT
  8
_0-7_枠細線
 62
    5
 10
1180.0000000000007
 20
902.50000000000023
 40
12.5
 41
0.7199999999999999
 50
0
  1
２０１５．１１．２０
  0
LINE
  8
_0-7_枠細線
  6
CONTINUOUS
 62
    5
 10
915.00000000000068
 20
918.9423339717473
 11
907.50000000000068
 21
933.9423339717473
  0
LINE
  8
_0-7_枠細線
  6
CONTINUOUS
 62
    5
 10
900.00000000000068
 20
918.9423339717473
 11
915.00000000000068
 21
918.9423339717473
  0
LINE
  8
_0-7_枠細線
  6
CONTINUOUS
 62
    5
 10
907.50000000000068
 20
933.9423339717473
 11
900.00000000000068
 21
918.9423339717473
  0
TEXT
  8
_0-7_枠細線
 62
    5
 10
902.36515126814879
 20
918.63533172636676
 40
12.5
 41
0.8
 50
0
  1
１
  0
TEXT
  8
_0-7_枠細線
 62
    5
 10
902.36515126814879
 20
901.13533172636676
 40
12.5
 41
0.8
 50
0
  1
２
  0
LINE
  8
_0-7_枠細線
  6
CONTINUOUS
 62
    5
 10
915.00000000000068
 20
901.4423339717473
 11
907.50000000000068
 21
916.4423339717473
  0
LINE
  8
_0-7_枠細線
  6
CONTINUOUS
 62
    5
 10
900.00000000000068
 20
901.4423339717473
 11
915.00000000000068
 21
901.4423339717473
  0
LINE
  8
_0-7_枠細線
  6
CONTINUOUS
 62
    5
 10
907.50000000000068
 20
916.4423339717473
 11
900.00000000000068
 21
901.4423339717473
  0
LINE
  8
_0-7_枠細線
  6
CONTINUOUS
 62
    5
 10
1425.0000000000009
 20
882.50000000000023
 11
890.00000000000068
 21
882.50000000000023
  0
TEXT
  8
_0-7_枠細線
 62
    5
 10
902.36515126814879
 20
883.39465008156583
 40
12.5
 41
0.8
 50
0
  1
３
  0
TEXT
  8
_0-7_枠細線
 62
    5
 10
1180.0000000000007
 20
885.00000000000023
 40
12.5
 41
0.7199999999999999
 50
0
  1
２０１７．０４．０１
  0
LINE
  8
_0-7_枠細線
  6
CONTINUOUS
 62
    5
 10
915.00000000000068
 20
866.44233397174719
 11
907.50000000000068
 21
881.44233397174719
  0
LINE
  8
_0-7_枠細線
  6
CONTINUOUS
 62
    5
 10
900.00000000000068
 20
866.44233397174719
 11
915.00000000000068
 21
866.44233397174719
  0
LINE
  8
_0-7_枠細線
  6
CONTINUOUS
 62
    5
 10
907.50000000000068
 20
881.44233397174719
 11
900.00000000000068
 21
866.44233397174719
  0
TEXT
  8
_0-7_枠細線
 62
    5
 10
1180.0000000000007
 20
867.50000000000023
 40
12.5
 41
0.7199999999999999
 50
0
  1
２０１７．０４．０１
  0
TEXT
  8
_0-7_枠細線
 62
    5
 10
938.85037037037091
 20
867.50000000000023
 40
12.5
 41
1
 50
0
  1
ブラウン色（Ｃ）追加
  0
LINE
  8
_0-7_枠細線
  6
CONTINUOUS
 62
    5
 10
1425.0000000000009
 20
865.00000000000023
 11
890.00000000000068
 21
865.00000000000023
  0
LINE
  8
_0-7_枠細線
  6
CONTINUOUS
 62
    5
 10
907.50000000000068
 20
898.94233397174719
 11
900.00000000000068
 21
883.94233397174719
  0
LINE
  8
_0-7_枠細線
  6
CONTINUOUS
 62
    5
 10
900.00000000000068
 20
883.94233397174719
 11
915.00000000000068
 21
883.94233397174719
  0
LINE
  8
_0-7_枠細線
  6
CONTINUOUS
 62
    5
 10
915.00000000000068
 20
883.94233397174719
 11
907.50000000000068
 21
898.94233397174719
  0
TEXT
  8
_0-7_枠細線
 62
    5
 10
902.36515126814879
 20
865.49351400689716
 40
12.5
 41
0.8
 50
0
  1
４
  0
TEXT
  8
_0-7_枠細線
 62
    5
 10
938.85037037037091
 20
885.00000000000023
 40
12.5
 41
1
 50
0
  1
取外具形状変更
  0
LINE
  8
_0-7_枠細線
  6
CONTINUOUS
 62
    5
 10
915.00000000000068
 20
848.9423339717473
 11
907.50000000000068
 21
863.9423339717473
  0
LINE
  8
_0-7_枠細線
  6
CONTINUOUS
 62
    5
 10
900.00000000000068
 20
848.9423339717473
 11
915.00000000000068
 21
848.9423339717473
  0
LINE
  8
_0-7_枠細線
  6
CONTINUOUS
 62
    5
 10
907.50000000000068
 20
863.9423339717473
 11
900.00000000000068
 21
848.9423339717473
  0
LINE
  8
_0-7_枠細線
  6
CONTINUOUS
 62
    5
 10
1425.0000000000009
 20
847.50000000000045
 11
890.00000000000068
 21
847.50000000000045
  0
TEXT
  8
_0-7_枠細線
 62
    5
 10
1180.0000000000007
 20
850.00000000000045
 40
12.5
 41
0.7199999999999999
 50
0
  1
２０１９．０９．０１
  0
TEXT
  8
_0-7_枠細線
 62
    5
 10
938.85037037037091
 20
850.00000000000045
 40
12.5
 41
1
 50
0
  1
アンカー材質･厚み変更
  0
TEXT
  8
_0-7_枠細線
 62
    5
 10
902.36515126814879
 20
847.99351400689727
 40
12.5
 41
0.8
 50
0
  1
５
  0
TEXT
  8
_0-7_枠細線
 62
    5
 10
938.85037037037091
 20
832.50000000000023
 40
12.5
 41
1
 50
0
  1
取外具形状変更
  0
LINE
  8
_0-7_枠細線
  6
CONTINUOUS
 62
    5
 10
907.50000000000068
 20
846.44233397174719
 11
900.00000000000068
 21
831.44233397174719
  0
LINE
  8
_0-7_枠細線
  6
CONTINUOUS
 62
    5
 10
900.00000000000068
 20
831.44233397174719
 11
915.00000000000068
 21
831.44233397174719
  0
LINE
  8
_0-7_枠細線
  6
CONTINUOUS
 62
    5
 10
915.00000000000068
 20
831.44233397174719
 11
907.50000000000068
 21
846.44233397174719
  0
TEXT
  8
_0-7_枠細線
 62
    5
 10
902.36515126814879
 20
831.13533172636676
 40
12.5
 41
0.8
 50
0
  1
６
  0
TEXT
  8
_0-7_枠細線
 62
    5
 10
1180.0000000000007
 20
832.50000000000023
 40
12.5
 41
0.7199999999999999
 50
0
  1
２０２１．０５．０６
  0
LINE
  8
_0-7_枠細線
  6
CONTINUOUS
 62
    5
 10
1425.0000000000009
 20
830.00000000000023
 11
890.00000000000068
 21
830.00000000000023
  0
LINE
  8
_0-7_枠細線
  6
CONTINUOUS
 62
    5
 10
1275.0000000000007
 20
830.00000000000023
 11
1275.0000000000007
 21
969.99999999999943
  0
LINE
  8
_0-7_枠細線
  6
CONTINUOUS
 62
    5
 10
1175.0000000000007
 20
830.00000000000023
 11
1175.0000000000007
 21
969.99999999999943
  0
LINE
  8
_0-7_枠細線
  6
CONTINUOUS
 62
    5
 10
925.00000000000068
 20
830.00000000000023
 11
925.00000000000068
 21
969.99999999999943
  0
LINE
  8
_0-7_枠細線
  6
CONTINUOUS
 62
    5
 10
890.00000000000068
 20
830.00000000000023
 11
890.00000000000068
 21
969.99999999999943
  0
LINE
  8
_0-7_枠細線
  6
CONTINUOUS
 62
    5
 10
1425.0000000000009
 20
935.00000000000023
 11
890.00000000000068
 21
935.00000000000023
  0
TEXT
  8
_0-7_枠細線
 62
    5
 10
938.85037037037091
 20
937.50000000000023
 40
12.5
 41
1
 50
0
  1
品番・色記号変更
  0
TEXT
  8
_0-7_枠細線
 62
    5
 10
1180.0000000000007
 20
937.50000000000023
 40
12.5
 41
0.7199999999999999
 50
0
  1
２０１３．０３．１３
  0
LINE
  8
_0-7_枠細線
  6
CONTINUOUS
 62
    5
 10
1168.9821759259214
 20
443.31515330188404
 11
1168.9821759259214
 21
293.3151533018841
  0
TEXT
  8
_0-7_枠細線
 62
    5
 10
1147.9821759259219
 20
423.31515330188404
 40
15
 41
0.8000000000000001
 50
0
  1
Ｎ
  0
TEXT
  8
_0-7_枠細線
 62
    5
 10
1150.9821759259214
 20
398.31515330188427
 40
15
 41
1
 50
0
  1
1
  0
TEXT
  8
_0-7_枠細線
 62
    5
 10
1150.9821759259214
 20
373.31515330188432
 40
15
 41
1
 50
0
  1
2
  0
TEXT
  8
_0-7_枠細線
 62
    5
 10
1150.9821759259214
 20
348.31515330188427
 40
15
 41
1
 50
0
  1
3
  0
TEXT
  8
_0-7_枠細線
 62
    5
 10
1150.9821759259214
 20
323.3151533018841
 40
15
 41
1
 50
0
  1
4
  0
TEXT
  8
_0-7_枠細線
 62
    5
 10
1150.9821759259214
 20
298.3151533018841
 40
15
 41
1
 50
0
  1
4
  0
LINE
  8
_0-7_枠細線
  6
CONTINUOUS
 62
    5
 10
1138.9821759259223
 20
443.31515330188404
 11
1138.9821759259223
 21
293.3151533018841
  0
LINE
  8
_0-7_枠細線
  6
CONTINUOUS
 62
    5
 10
1078.982175925923
 20
443.31515330188404
 11
1078.982175925923
 21
293.3151533018841
  0
LINE
  8
_0-7_枠細線
  6
CONTINUOUS
 62
    5
 10
1018.9821759259225
 20
443.31515330188404
 11
1018.9821759259225
 21
293.3151533018841
  0
TEXT
  8
_0-7_枠細線
 62
    5
 10
987.982175925923
 20
423.31515330188404
 40
15
 41
0.8000000000000001
 50
0
  1
Ｌ
  0
LINE
  8
_0-7_枠細線
  6
CONTINUOUS
 62
    5
 10
968.98217592592346
 20
443.31515330188404
 11
968.98217592592346
 21
293.3151533018841
  0
TEXT
  8
_0-7_枠細線
 62
    5
 10
889.98217592592312
 20
423.31515330188404
 40
15
 41
0.8000000000000001
 50
0
  1
品　　番
  0
LINE
  8
_0-7_枠細線
  6
CONTINUOUS
 62
    5
 10
858.98217592592334
 20
443.31515330188404
 11
858.98217592592334
 21
293.3151533018841
  0
LINE
  8
_0-7_枠細線
  6
CONTINUOUS
 62
    5
 10
858.98217592592334
 20
443.31515330188404
 11
1168.9821759259214
 21
443.31515330188404
  0
LINE
  8
_0-7_枠細線
  6
CONTINUOUS
 62
    5
 10
858.98217592592334
 20
418.31515330188404
 11
1168.9821759259214
 21
418.31515330188404
  0
LINE
  8
_0-7_枠細線
  6
CONTINUOUS
 62
    5
 10
858.98217592592334
 20
393.3151533018841
 11
1168.9821759259214
 21
393.3151533018841
  0
LINE
  8
_0-7_枠細線
  6
CONTINUOUS
 62
    5
 10
858.98217592592334
 20
368.31515330188427
 11
1168.9821759259214
 21
368.31515330188427
  0
LINE
  8
_0-7_枠細線
  6
CONTINUOUS
 62
    5
 10
858.98217592592334
 20
343.3151533018841
 11
1168.9821759259214
 21
343.3151533018841
  0
LINE
  8
_0-7_枠細線
  6
CONTINUOUS
 62
    5
 10
858.98217592592334
 20
318.3151533018841
 11
1168.9821759259214
 21
318.3151533018841
  0
LINE
  8
_0-7_枠細線
  6
CONTINUOUS
 62
    5
 10
858.98217592592334
 20
293.3151533018841
 11
1168.9821759259214
 21
293.3151533018841
  0
TEXT
  8
_0-7_枠細線
 62
    5
 10
865.94232253085693
 20
448.31515330188404
 40
17.5
 41
1
 50
0
  1
品番寸法表
  0
TEXT
  8
_0-7_枠細線
 62
    5
 10
986.482175925923
 20
398.31515330188427
 40
15
 41
1
 50
0
  1
594
  0
TEXT
  8
_0-7_枠細線
 62
    5
 10
986.482175925923
 20
373.31515330188432
 40
15
 41
1
 50
0
  1
894
  0
TEXT
  8
_0-7_枠細線
 62
    5
 10
978.982175925923
 20
348.31515330188427
 40
15
 41
1
 50
0
  1
1194
  0
TEXT
  8
_0-7_枠細線
 62
    5
 10
978.982175925923
 20
323.3151533018841
 40
15
 41
1
 50
0
  1
1794
  0
TEXT
  8
_0-7_枠細線
 62
    5
 10
978.982175925923
 20
298.3151533018841
 40
15
 41
1
 50
0
  1
1994
  0
TEXT
  8
_0-7_枠細線
 62
    5
 10
1102.9821759259223
 20
423.31515330188404
 40
15
 41
0.8000000000000001
 50
0
  1
＠
  0
TEXT
  8
_0-7_枠細線
 62
    5
 10
1042.9821759259241
 20
423.31515330188404
 40
15
 41
0.8000000000000001
 50
0
  1
Ａ
  0
TEXT
  8
_0-7_枠細線
 62
    5
 10
1041.482175925923
 20
398.31515330188427
 40
15
 41
1
 50
0
  1
585
  0
TEXT
  8
_0-7_枠細線
 62
    5
 10
1041.482175925923
 20
373.31515330188432
 40
15
 41
1
 50
0
  1
885
  0
TEXT
  8
_0-7_枠細線
 62
    5
 10
1033.982175925923
 20
348.31515330188427
 40
15
 41
1
 50
0
  1
1185
  0
TEXT
  8
_0-7_枠細線
 62
    5
 10
1026.482175925923
 20
323.3151533018841
 40
15
 41
1
 50
0
  1
892×2
  0
TEXT
  8
_0-7_枠細線
 62
    5
 10
1026.482175925923
 20
298.3151533018841
 40
15
 41
1
 50
0
  1
992×2
  0
TEXT
  8
_0-7_枠細線
 62
    5
 10
1091.7321759259228
 20
398.31515330188427
 40
15
 41
1
 50
0
  1
494
  0
TEXT
  8
_0-7_枠細線
 62
    5
 10
1091.7321759259228
 20
373.31515330188432
 40
15
 41
1
 50
0
  1
397
  0
TEXT
  8
_0-7_枠細線
 62
    5
 10
1090.232175925923
 20
348.31515330188427
 40
15
 41
1
 50
0
  1
364.7
  0
TEXT
  8
_0-7_枠細線
 62
    5
 10
1090.232175925923
 20
323.3151533018841
 40
15
 41
1
 50
0
  1
423.5
  0
TEXT
  8
_0-7_枠細線
 62
    5
 10
1090.232175925923
 20
298.3151533018841
 40
15
 41
1
 50
0
  1
473.5
  0
TEXT
  8
_0-7_枠細線
 62
    5
 10
864.19884259259015
 20
273.3151533018841
 40
15
 41
1
 50
0
  1
※ ○に色記号を付記
  0
TEXT
  8
_0-7_枠細線
 62
    5
 10
863.98217592592323
 20
348.31515330188404
 40
15
 41
0.8333333333333333
 50
0
  1
GRSS-20L1200A-○
  0
TEXT
  8
_0-7_枠細線
 62
    5
 10
863.98217592592323
 20
373.3151533018841
 40
15
 41
0.8333333333333333
 50
0
  1
GRSS-20L 900A-○
  0
TEXT
  8
_0-7_枠細線
 62
    5
 10
863.98217592592323
 20
398.31515330188404
 40
15
 41
0.8333333333333333
 50
0
  1
GRSS-20L 600A-○
  0
TEXT
  8
_0-7_枠細線
 62
    5
 10
863.98217592592323
 20
323.31515330188404
 40
15
 41
0.8333333333333333
 50
0
  1
GRSS-20L1800A-○
  0
TEXT
  8
_0-7_枠細線
 62
    5
 10
863.98217592592323
 20
298.31515330188398
 40
15
 41
0.8333333333333333
 50
0
  1
GRSS-20L2000A-○
  0
TEXT
  8
_0-7_枠細線
 62
    5
 10
1207.0974537037009
 20
398.31515330188404
 40
15
 41
0.5999999999999999
 50
0
  1
Ｂ
  0
TEXT
  8
_0-7_枠細線
 62
    5
 10
1207.0974537037009
 20
373.31515330188427
 40
15
 41
0.5999999999999999
 50
0
  1
Ｇ
  0
TEXT
  8
_0-7_枠細線
 62
    5
 10
1199.5974537037009
 20
423.31515330188404
 40
15
 41
0.8000000000000001
 50
0
  1
記号
  0
TEXT
  8
_0-7_枠細線
 62
    5
 10
1244.5974537037018
 20
373.31515330188427
 40
15
 41
0.5999999999999999
 50
0
  1
ライトグレー
  0
TEXT
  8
_0-7_枠細線
 62
    5
 10
1253.5974537037016
 20
398.31515330188404
 40
15
 41
0.5999999999999999
 50
0
  1
ベージュ
  0
TEXT
  8
_0-7_枠細線
 62
    5
 10
1265.5974537037016
 20
423.31515330188404
 40
15
 41
0.8000000000000001
 50
0
  1
色
  0
LINE
  8
_0-7_枠細線
  6
CONTINUOUS
 62
    5
 10
1191.5974537037011
 20
268.31515330188427
 11
1381.5974537037014
 21
268.31515330188427
  0
LINE
  8
_0-7_枠細線
  6
CONTINUOUS
 62
    5
 10
1191.5974537037011
 20
293.31515330188427
 11
1381.5974537037014
 21
293.31515330188427
  0
LINE
  8
_0-7_枠細線
  6
CONTINUOUS
 62
    5
 10
1191.5974537037011
 20
318.31515330188427
 11
1381.5974537037014
 21
318.31515330188427
  0
LINE
  8
_0-7_枠細線
  6
CONTINUOUS
 62
    5
 10
1191.5974537037011
 20
343.31515330188427
 11
1381.5974537037014
 21
343.31515330188427
  0
LINE
  8
_0-7_枠細線
  6
CONTINUOUS
 62
    5
 10
1191.5974537037011
 20
368.31515330188427
 11
1381.5974537037014
 21
368.31515330188427
  0
LINE
  8
_0-7_枠細線
  6
CONTINUOUS
 62
    5
 10
1191.5974537037011
 20
393.31515330188427
 11
1381.5974537037014
 21
393.31515330188427
  0
LINE
  8
_0-7_枠細線
  6
CONTINUOUS
 62
    5
 10
1191.5974537037011
 20
418.31515330188404
 11
1381.5974537037014
 21
418.31515330188404
  0
LINE
  8
_0-7_枠細線
  6
CONTINUOUS
 62
    5
 10
1191.5974537037011
 20
443.31515330188404
 11
1381.5974537037014
 21
443.31515330188404
  0
LINE
  8
_0-7_枠細線
  6
CONTINUOUS
 62
    5
 10
1191.5974537037011
 20
243.31515330188398
 11
1381.5974537037014
 21
243.31515330188398
  0
TEXT
  8
_0-7_枠細線
 62
    5
 10
1328.5974537037021
 20
423.31515330188404
 40
15
 41
0.8000000000000001
 50
0
  1
備　考
  0
TEXT
  8
_0-7_枠細線
 62
    5
 10
1203.3076003086348
 20
448.31515330188404
 40
17.5
 41
1
 50
0
  1
色記号表
  0
LINE
  8
_0-7_枠細線
  6
CONTINUOUS
 62
    5
 10
1191.5974537037011
 20
218.31515330188378
 11
1381.5974537037014
 21
218.31515330188378
  0
TEXT
  8
_0-7_枠細線
 62
    5
 10
1207.0974537037009
 20
323.31515330188427
 40
15
 41
0.5999999999999999
 50
0
  1
Ｐ
  0
TEXT
  8
_0-7_枠細線
 62
    5
 10
1207.0974537037009
 20
298.31515330188427
 40
15
 41
0.5999999999999999
 50
0
  1
Ａ
  0
TEXT
  8
_0-7_枠細線
 62
    5
 10
1258.0974537037016
 20
298.31515330188427
 40
15
 41
0.5999999999999999
 50
0
  1
ブルー
  0
TEXT
  8
_0-7_枠細線
 62
    5
 10
1258.0974537037016
 20
323.31515330188427
 40
15
 41
0.5999999999999999
 50
0
  1
ピンク
  0
TEXT
  8
_0-7_枠細線
 62
    5
 10
1207.0974537037009
 20
348.31515330188427
 40
15
 41
0.5999999999999999
 50
0
  1
Ｓ
  0
TEXT
  8
_0-7_枠細線
 62
    5
 10
1253.5974537037016
 20
348.31515330188427
 40
15
 41
0.5999999999999999
 50
0
  1
ホワイト
  0
TEXT
  8
_0-7_枠細線
 62
    5
 10
1244.5974537037011
 20
273.31515330188427
 40
15
 41
0.5999999999999999
 50
0
  1
ダークグレー
  0
TEXT
  8
_0-7_枠細線
 62
    5
 10
1207.0974537037009
 20
248.31515330188398
 40
15
 41
0.5999999999999999
 50
0
  1
Ｍ
  0
TEXT
  8
_0-7_枠細線
 62
    5
 10
1207.0974537037009
 20
273.31515330188427
 40
15
 41
0.5999999999999999
 50
0
  1
Ｄ
  0
TEXT
  8
_0-7_枠細線
 62
    5
 10
1258.0974537037014
 20
248.31515330188398
 40
15
 41
0.5999999999999999
 50
0
  1
ウッド
  0
LINE
  8
_0-7_枠細線
  6
CONTINUOUS
 62
    5
 10
1191.5974537037011
 20
193.31515330188353
 11
1381.5974537037014
 21
193.31515330188353
  0
TEXT
  8
_0-7_枠細線
 62
    5
 10
1207.0974537037009
 20
198.31515330188381
 40
15
 41
0.5999999999999999
 50
0
  1
Ｋ
  0
TEXT
  8
_0-7_枠細線
 62
    5
 10
1253.5974537037021
 20
198.31515330188381
 40
15
 41
0.5999999999999999
 50
0
  1
ブラック
  0
LINE
  8
_0-7_枠細線
  6
CONTINUOUS
 62
    5
 10
1191.5974537037011
 20
443.31515330188404
 11
1191.5974537037011
 21
193.31515330188353
  0
LINE
  8
_0-7_枠細線
  6
CONTINUOUS
 62
    5
 10
1231.5974537037016
 20
443.31515330188404
 11
1231.5974537037016
 21
193.31515330188353
  0
LINE
  8
_0-7_枠細線
  6
CONTINUOUS
 62
    5
 10
1311.5974537037014
 20
443.31515330188404
 11
1311.5974537037014
 21
193.31515330188353
  0
LINE
  8
_0-7_枠細線
  6
CONTINUOUS
 62
    5
 10
1381.5974537037016
 20
443.31515330188404
 11
1381.5974537037014
 21
193.31515330188353
  0
TEXT
  8
_0-7_枠細線
 62
    5
 10
1207.0974537037014
 20
223.31515330188398
 40
15
 41
0.5999999999999999
 50
0
  1
Ｃ
  0
TEXT
  8
_0-7_枠細線
 62
    5
 10
1253.5974537037016
 20
223.31515330188398
 40
15
 41
0.5999999999999999
 50
0
  1
ブラウン
  0
LINE
  8
_0-7_枠細線
  6
CONTINUOUS
 62
    5
 10
1184.5096380105085
 20
223.32749470763434
 11
1177.0096380105085
 21
238.32749470763434
  0
LINE
  8
_0-7_枠細線
  6
CONTINUOUS
 62
    5
 10
1169.5096380105085
 20
223.32749470763434
 11
1184.5096380105085
 21
223.32749470763434
  0
LINE
  8
_0-7_枠細線
  6
CONTINUOUS
 62
    5
 10
1177.0096380105085
 20
238.32749470763434
 11
1169.5096380105085
 21
223.32749470763434
  0
TEXT
  8
_0-7_枠細線
 62
    5
 10
1171.8747892786566
 20
222.37867474278445
 40
12.5
 41
0.8
 50
0
  1
４
  0
LINE
  8
_0-1_計細線
  6
CONTINUOUS
 62
    3
 10
326.44201121375954
 20
543.63546888150324
 11
328.44201121375954
 21
545.63546888150324
  0
LINE
  8
_0-1_計細線
  6
CONTINUOUS
 62
    3
 10
326.44201121375954
 20
541.63546888150324
 11
328.44201121375954
 21
539.63546888150324
  0
LINE
  8
_0-1_計細線
  6
CONTINUOUS
 62
    3
 10
326.44201121375954
 20
541.63546888150324
 11
326.44201121375954
 21
543.63546888150324
  0
LINE
  8
_0-1_計細線
  6
CONTINUOUS
 62
    3
 10
314.44201121375954
 20
543.63546888150324
 11
312.44201121375954
 21
545.63546888150324
  0
LINE
  8
_0-1_計細線
  6
CONTINUOUS
 62
    3
 10
314.44201121375954
 20
541.63546888150324
 11
312.44201121375954
 21
539.63546888150324
  0
LINE
  8
_0-1_計細線
  6
CONTINUOUS
 62
    3
 10
314.44201121375954
 20
541.63546888150324
 11
314.44201121375954
 21
543.63546888150324
  0
LINE
  8
_0-0_計極細
  6
CENTER1
 62
    2
 10
320.44201121375954
 20
559.29687039665498
 11
320.44201121375954
 21
521.47881484109928
  0
LINE
  8
_0-1_計細線
  6
CONTINUOUS
 62
    3
 10
312.44201121375954
 20
545.63546888150324
 11
312.44201121375954
 21
555.63546888150324
  0
LINE
  8
_0-1_計細線
  6
CONTINUOUS
 62
    3
 10
312.44201121375954
 20
555.63546888150324
 11
314.44201121375954
 21
557.63546888150336
  0
LINE
  8
_0-1_計細線
  6
CONTINUOUS
 62
    3
 10
328.44201121375954
 20
545.63546888150324
 11
328.44201121375954
 21
555.63546888150324
  0
LINE
  8
_0-1_計細線
  6
CONTINUOUS
 62
    3
 10
314.44201121375954
 20
557.63546888150336
 11
326.44201121375954
 21
557.63546888150336
  0
LINE
  8
_0-1_計細線
  6
CONTINUOUS
 62
    3
 10
328.44201121375954
 20
555.63546888150324
 11
326.44201121375954
 21
557.63546888150336
  0
LINE
  8
_0-1_計細線
  6
CONTINUOUS
 62
    3
 10
312.44201121375954
 20
525.63546888150324
 11
312.44201121375954
 21
539.63546888150324
  0
ARC
  8
_0-1_計細線
  6
CONTINUOUS
 62
    3
 10
315.44201121375954
 20
525.63546888150324
 40
3.0000000000000004
 50
179.99999999999983
 51
269.99999999999977
  0
LINE
  8
_0-1_計細線
  6
CONTINUOUS
 62
    3
 10
325.44201121375954
 20
522.63546888150336
 11
315.44201121375954
 21
522.63546888150336
  0
LINE
  8
_0-1_計細線
  6
CONTINUOUS
 62
    3
 10
328.44201121375954
 20
539.63546888150324
 11
328.44201121375954
 21
525.63546888150324
  0
ARC
  8
_0-1_計細線
  6
CONTINUOUS
 62
    3
 10
325.44201121375954
 20
525.63546888150324
 40
3.0000000000000004
 50
269.99999999999977
 51
359.99999999999966
  0
LINE
  8
_0-1_計細線
  6
CONTINUOUS
 62
    3
 10
270.44201121375977
 20
545.63546888150324
 11
270.44201121375977
 21
568.63546888150324
  0
LINE
  8
_0-1_計細線
  6
CONTINUOUS
 62
    3
 10
312.44201121375954
 20
545.63546888150324
 11
270.44201121375977
 21
545.63546888150324
  0
LINE
  8
_0-5_寸法線
  6
CONTINUOUS
 62
    7
 10
260.44205023585232
 20
568.63546888150324
 11
215.44205023585255
 21
568.63546888150358
  0
LINE
  8
_0-5_寸法線
  6
CONTINUOUS
 62
    7
 10
220.44205023585255
 20
568.63546888150358
 11
223.0302406868779
 21
558.97621061861287
  0
LINE
  8
_0-5_寸法線
  6
CONTINUOUS
 62
    7
 10
220.44205023585255
 20
568.63546888150358
 11
217.85385978482742
 21
558.97621061861275
  0
LINE
  8
_0-5_寸法線
  6
CONTINUOUS
 62
    7
 10
260.44205023585232
 20
545.63546888150324
 11
215.44205023585255
 21
545.63546888150347
  0
LINE
  8
_0-5_寸法線
  6
CONTINUOUS
 62
    7
 10
220.44205023585255
 20
545.63546888150347
 11
217.85385978482731
 21
555.29472714439419
  0
LINE
  8
_0-5_寸法線
  6
CONTINUOUS
 62
    7
 10
220.44205023585255
 20
545.63546888150347
 11
223.03024068687776
 21
555.29472714439419
  0
LINE
  8
_0-5_寸法線
  6
CONTINUOUS
 62
    7
 10
220.44205023585255
 20
568.63546888150358
 11
220.44205023585255
 21
545.63546888150347
  0
TEXT
  8
_0-5_寸法線
 62
    7
 10
220.44205023585263
 20
549.63546888150347
 40
15
 41
1
 50
90.00000000000054
  1
23
  0
LINE
  8
_0-1_計細線
  6
CONTINUOUS
 62
    3
 10
273.44201121255969
 20
723.73197880351836
 11
273.44201121255969
 21
639.73198179399571
  0
LINE
  8
_0-1_計細線
  6
CONTINUOUS
 62
    3
 10
270.44201121375977
 20
726.73197880231828
 11
270.44201121375977
 21
636.73198179519557
  0
LINE
  8
_0-1_計細線
  6
CONTINUOUS
 62
    3
 10
1234.4420112137598
 20
543.63546888150324
 11
1236.4420112137598
 21
545.63546888150324
  0
LINE
  8
_0-1_計細線
  6
CONTINUOUS
 62
    3
 10
1234.4420112137598
 20
541.63546888150324
 11
1236.4420112137598
 21
539.63546888150324
  0
LINE
  8
_0-1_計細線
  6
CONTINUOUS
 62
    3
 10
1234.4420112137598
 20
541.63546888150324
 11
1234.4420112137598
 21
543.63546888150324
  0
LINE
  8
_0-1_計細線
  6
CONTINUOUS
 62
    3
 10
1222.4420112137598
 20
543.63546888150324
 11
1220.4420112137598
 21
545.63546888150324
  0
LINE
  8
_0-1_計細線
  6
CONTINUOUS
 62
    3
 10
1222.4420112137598
 20
541.63546888150324
 11
1220.4420112137598
 21
539.63546888150324
  0
LINE
  8
_0-1_計細線
  6
CONTINUOUS
 62
    3
 10
1222.4420112137598
 20
541.63546888150324
 11
1222.4420112137598
 21
543.63546888150324
  0
LINE
  8
_0-0_計極細
  6
CENTER1
 62
    2
 10
1228.44201121376
 20
559.29687039665498
 11
1228.44201121376
 21
521.47881484109928
  0
LINE
  8
_0-1_計細線
  6
CONTINUOUS
 62
    3
 10
1220.4420112137598
 20
545.63546888150324
 11
1220.4420112137598
 21
555.63546888150324
  0
LINE
  8
_0-1_計細線
  6
CONTINUOUS
 62
    3
 10
1220.4420112137598
 20
555.63546888150324
 11
1222.4420112137598
 21
557.63546888150336
  0
LINE
  8
_0-1_計細線
  6
CONTINUOUS
 62
    3
 10
1236.4420112137598
 20
545.63546888150324
 11
1236.4420112137598
 21
555.63546888150324
  0
LINE
  8
_0-1_計細線
  6
CONTINUOUS
 62
    3
 10
1222.4420112137598
 20
557.63546888150336
 11
1234.4420112137598
 21
557.63546888150336
  0
LINE
  8
_0-1_計細線
  6
CONTINUOUS
 62
    3
 10
1236.4420112137598
 20
555.63546888150324
 11
1234.4420112137598
 21
557.63546888150336
  0
LINE
  8
_0-1_計細線
  6
CONTINUOUS
 62
    3
 10
1220.4420112137598
 20
525.63546888150324
 11
1220.4420112137598
 21
539.63546888150324
  0
ARC
  8
_0-1_計細線
  6
CONTINUOUS
 62
    3
 10
1223.44201121376
 20
525.63546888150324
 40
3.0000000000000004
 50
179.99999999999983
 51
269.99999999999977
  0
LINE
  8
_0-1_計細線
  6
CONTINUOUS
 62
    3
 10
1233.44201121376
 20
522.63546888150336
 11
1223.44201121376
 21
522.63546888150336
  0
LINE
  8
_0-1_計細線
  6
CONTINUOUS
 62
    3
 10
1236.4420112137598
 20
539.63546888150324
 11
1236.4420112137598
 21
525.63546888150324
  0
ARC
  8
_0-1_計細線
  6
CONTINUOUS
 62
    3
 10
1233.44201121376
 20
525.63546888150324
 40
3.0000000000000004
 50
269.99999999999977
 51
359.99999999999966
  0
LINE
  8
_0-1_計細線
  6
CONTINUOUS
 62
    3
 10
270.44201121375977
 20
568.63546888150324
 11
1278.44201121376
 21
568.63546888150324
  0
LINE
  8
_0-1_計細線
  6
CONTINUOUS
 62
    3
 10
1278.44201121376
 20
568.63546888150324
 11
1278.44201121376
 21
545.63546888150324
  0
LINE
  8
_0-1_計細線
  6
CONTINUOUS
 62
    3
 10
1278.44201121376
 20
545.63546888150324
 11
1236.4420112137598
 21
545.63546888150324
  0
LINE
  8
_0-5_寸法線
  6
CONTINUOUS
 62
    7
 10
270.44201121375977
 20
535.63546888150324
 11
270.44201121375954
 21
480.63546888150336
  0
LINE
  8
_0-5_寸法線
  6
CONTINUOUS
 62
    7
 10
270.44201121375954
 20
485.63546888150336
 11
280.1012694766502
 21
488.22365933252854
  0
LINE
  8
_0-5_寸法線
  6
CONTINUOUS
 62
    7
 10
270.44201121375954
 20
485.63546888150336
 11
280.1012694766502
 21
483.04727843047817
  0
LINE
  8
_0-5_寸法線
  6
CONTINUOUS
 62
    7
 10
320.44201121375954
 20
512.63546888150336
 11
320.44201121375954
 21
480.63546888150336
  0
LINE
  8
_0-5_寸法線
  6
CONTINUOUS
 62
    7
 10
320.44201121375954
 20
485.63546888150336
 11
310.78275295086883
 21
483.04727843047817
  0
LINE
  8
_0-5_寸法線
  6
CONTINUOUS
 62
    7
 10
320.44201121375954
 20
485.63546888150336
 11
310.78275295086888
 21
488.22365933252854
  0
LINE
  8
_0-5_寸法線
  6
CONTINUOUS
 62
    7
 10
270.44201121375954
 20
485.63546888150336
 11
320.44201121375954
 21
485.63546888150336
  0
TEXT
  8
_0-5_寸法線
 62
    7
 10
287.94201121375977
 20
485.63546888150336
 40
15
 41
1
 50
0
  1
50
  0
LINE
  8
_0-5_寸法線
  6
CONTINUOUS
 62
    7
 10
320.44201121375954
 20
485.63546888150336
 11
330.10126947665026
 21
488.22365933252848
  0
LINE
  8
_0-5_寸法線
  6
CONTINUOUS
 62
    7
 10
320.44201121375954
 20
485.63546888150336
 11
330.1012694766502
 21
483.04727843047806
  0
LINE
  8
_0-5_寸法線
  6
CONTINUOUS
 62
    7
 10
1228.44201121376
 20
512.63546888150336
 11
1228.44201121376
 21
480.63546888150336
  0
LINE
  8
_0-5_寸法線
  6
CONTINUOUS
 62
    7
 10
1228.44201121376
 20
485.63546888150336
 11
1218.7827529508691
 21
483.04727843047817
  0
LINE
  8
_0-5_寸法線
  6
CONTINUOUS
 62
    7
 10
1228.44201121376
 20
485.63546888150336
 11
1218.7827529508691
 21
488.22365933252854
  0
LINE
  8
_0-5_寸法線
  6
CONTINUOUS
 62
    7
 10
320.44201121375954
 20
485.63546888150336
 11
1228.44201121376
 21
485.63546888150336
  0
TEXT
  8
_0-5_寸法線
 62
    7
 10
751.94201121375954
 20
485.63546888150336
 40
15
 41
1
 50
0
  1
＠×Ｎ
  0
LINE
  8
_0-5_寸法線
  6
CONTINUOUS
 62
    7
 10
1228.44201121376
 20
485.63546888150336
 11
1238.1012694766505
 21
488.22365933252848
  0
LINE
  8
_0-5_寸法線
  6
CONTINUOUS
 62
    7
 10
1228.44201121376
 20
485.63546888150336
 11
1238.1012694766505
 21
483.04727843047806
  0
LINE
  8
_0-5_寸法線
  6
CONTINUOUS
 62
    7
 10
1278.44201121376
 20
535.63546888150324
 11
1278.44201121376
 21
480.63546888150336
  0
LINE
  8
_0-5_寸法線
  6
CONTINUOUS
 62
    7
 10
1278.44201121376
 20
485.63546888150336
 11
1268.7827529508691
 21
483.04727843047817
  0
LINE
  8
_0-5_寸法線
  6
CONTINUOUS
 62
    7
 10
1278.44201121376
 20
485.63546888150336
 11
1268.7827529508691
 21
488.22365933252854
  0
LINE
  8
_0-5_寸法線
  6
CONTINUOUS
 62
    7
 10
1228.44201121376
 20
485.63546888150336
 11
1278.44201121376
 21
485.63546888150336
  0
TEXT
  8
_0-5_寸法線
 62
    7
 10
1245.9420112137593
 20
485.63546888150336
 40
15
 41
1
 50
0
  1
50
  0
LINE
  8
_0-1_計細線
  6
CONTINUOUS
 62
    3
 10
1275.4419715805438
 20
695.23197991495272
 11
1275.4419715805438
 21
682.23198027855631
  0
LINE
  8
_0-1_計細線
  6
CONTINUOUS
 62
    3
 10
1275.4419715805438
 20
723.73197880351836
 11
1275.4419715805438
 21
639.73198179399571
  0
LINE
  8
_0-1_計細線
  6
CONTINUOUS
 62
    3
 10
1278.4419715793431
 20
636.73198179519557
 11
1278.4419715793431
 21
726.73197880231851
  0
LINE
  8
_0-1_計細線
  6
CONTINUOUS
 62
    3
 10
1278.4419715793431
 20
726.73197880231828
 11
270.44201121375977
 21
726.73197880231828
  0
LINE
  8
_0-1_計細線
  6
CONTINUOUS
 62
    3
 10
273.44201121255969
 20
723.73197880351836
 11
1275.4419715805438
 21
723.73197880351836
  0
LINE
  8
_0-1_計細線
  6
CONTINUOUS
 62
    3
 10
270.44201121375977
 20
636.73198179519557
 11
1278.4419715793431
 21
636.73198179519557
  0
LINE
  8
_0-1_計細線
  6
CONTINUOUS
 62
    3
 10
273.44201121255969
 20
639.73198179399571
 11
1275.4419715805438
 21
639.73198179399571
  0
LINE
  8
_0-1_計細線
  6
CONTINUOUS
 62
    3
 10
274.94201121255969
 20
722.23198029875584
 11
1273.9420112125597
 21
722.23198029875584
  0
LINE
  8
_0-1_計細線
  6
CONTINUOUS
 62
    3
 10
274.94201121255969
 20
710.8319802987553
 11
1273.9420112125597
 21
710.8319802987553
  0
LINE
  8
_0-1_計細線
  6
CONTINUOUS
 62
    3
 10
274.94201121255969
 20
722.23198029875584
 11
274.94201121255969
 21
710.8319802987553
  0
LINE
  8
_0-1_計細線
  6
CONTINUOUS
 62
    3
 10
1273.9420112125597
 20
722.23198029875584
 11
1273.9420112125597
 21
710.8319802987553
  0
LINE
  8
_0-0_計極細
  6
CONTINUOUS
 62
    2
 10
274.94201121255969
 20
714.03198029875614
 11
1273.9420112125597
 21
714.03198029875614
  0
LINE
  8
_0-0_計極細
  6
CONTINUOUS
 62
    2
 10
274.94201121255969
 20
719.03198029875614
 11
1273.9420112125597
 21
719.03198029875614
  0
LINE
  8
_0-1_計細線
  6
CONTINUOUS
 62
    3
 10
274.94201121255969
 20
641.23198029875755
 11
1273.9420112125597
 21
641.23198029875755
  0
LINE
  8
_0-1_計細線
  6
CONTINUOUS
 62
    3
 10
274.94201121255969
 20
652.63198029875809
 11
1273.9420112125597
 21
652.63198029875809
  0
LINE
  8
_0-1_計細線
  6
CONTINUOUS
 62
    3
 10
274.94201121255969
 20
641.23198029875755
 11
274.94201121255969
 21
652.63198029875809
  0
LINE
  8
_0-1_計細線
  6
CONTINUOUS
 62
    3
 10
1273.9420112125597
 20
641.23198029875755
 11
1273.9420112125597
 21
652.63198029875809
  0
LINE
  8
_0-0_計極細
  6
CONTINUOUS
 62
    2
 10
274.94201121255969
 20
649.43198029875748
 11
1273.9420112125597
 21
649.43198029875748
  0
LINE
  8
_0-0_計極細
  6
CONTINUOUS
 62
    2
 10
274.94201121255969
 20
644.43198029875748
 11
1273.9420112125597
 21
644.43198029875748
  0
LINE
  8
_0-1_計細線
  6
CONTINUOUS
 62
    3
 10
274.94201121255969
 20
658.63198029875821
 11
1273.9420112125597
 21
658.63198029875821
  0
LINE
  8
_0-1_計細線
  6
CONTINUOUS
 62
    3
 10
274.94201121255969
 20
670.03198029875864
 11
1273.9420112125597
 21
670.03198029875864
  0
LINE
  8
_0-1_計細線
  6
CONTINUOUS
 62
    3
 10
274.94201121255969
 20
658.63198029875821
 11
274.94201121255969
 21
670.03198029875864
  0
LINE
  8
_0-1_計細線
  6
CONTINUOUS
 62
    3
 10
1273.9420112125597
 20
658.63198029875821
 11
1273.9420112125597
 21
670.03198029875864
  0
LINE
  8
_0-0_計極細
  6
CONTINUOUS
 62
    2
 10
274.94201121255969
 20
666.83198029875837
 11
1273.9420112125597
 21
666.83198029875837
  0
LINE
  8
_0-0_計極細
  6
CONTINUOUS
 62
    2
 10
274.94201121255969
 20
661.83198029875837
 11
1273.9420112125597
 21
661.83198029875837
  0
LINE
  8
_0-0_計極細
  6
CONTINUOUS
 62
    2
 10
282.94201121255969
 20
710.8319802987553
 11
282.94201121255969
 21
704.8319802987553
  0
LINE
  8
_0-0_計極細
  6
CONTINUOUS
 62
    2
 10
295.94201121255969
 20
710.8319802987553
 11
295.94201121255969
 21
704.8319802987553
  0
LINE
  8
_0-0_計極細
  6
CONTINUOUS
 62
    2
 10
282.94201121255969
 20
693.43198029875464
 11
282.94201121255969
 21
687.43198029875475
  0
LINE
  8
_0-0_計極細
  6
CONTINUOUS
 62
    2
 10
295.94201121255969
 20
693.43198029875464
 11
295.94201121255969
 21
687.43198029875475
  0
LINE
  8
_0-0_計極細
  6
CONTINUOUS
 62
    2
 10
282.94201121255969
 20
676.03198029875421
 11
282.94201121255969
 21
670.03198029875409
  0
LINE
  8
_0-0_計極細
  6
CONTINUOUS
 62
    2
 10
295.94201121255969
 20
676.03198029875421
 11
295.94201121255969
 21
670.03198029875409
  0
LINE
  8
_0-0_計極細
  6
CONTINUOUS
 62
    2
 10
282.94201121255969
 20
652.63198029875809
 11
282.94201121255969
 21
658.63198029875821
  0
LINE
  8
_0-0_計極細
  6
CONTINUOUS
 62
    2
 10
295.94201121255969
 20
652.63198029875809
 11
295.94201121255969
 21
658.63198029875821
  0
LINE
  8
_0-0_計極細
  6
CENTER1
 62
    2
 10
289.44201121255969
 20
728.65630032190086
 11
289.44201121255969
 21
634.60630032189999
  0
LINE
  8
_0-0_計極細
  6
CONTINUOUS
 62
    2
 10
379.94201121255969
 20
710.8319802987553
 11
379.94201121255969
 21
704.8319802987553
  0
LINE
  8
_0-0_計極細
  6
CONTINUOUS
 62
    2
 10
392.94201121255975
 20
710.8319802987553
 11
392.94201121255975
 21
704.8319802987553
  0
LINE
  8
_0-0_計極細
  6
CONTINUOUS
 62
    2
 10
379.94201121255969
 20
676.03198029875421
 11
379.94201121255969
 21
670.03198029875409
  0
LINE
  8
_0-0_計極細
  6
CONTINUOUS
 62
    2
 10
392.94201121255975
 20
676.03198029875421
 11
392.94201121255975
 21
670.03198029875409
  0
LINE
  8
_0-0_計極細
  6
CONTINUOUS
 62
    2
 10
379.94201121255969
 20
652.63198029875809
 11
379.94201121255969
 21
658.63198029875821
  0
LINE
  8
_0-0_計極細
  6
CONTINUOUS
 62
    2
 10
392.94201121255975
 20
652.63198029875809
 11
392.94201121255975
 21
658.63198029875821
  0
LINE
  8
_0-0_計極細
  6
CENTER1
 62
    2
 10
386.44201121255975
 20
728.65630032190086
 11
386.44201121255975
 21
634.60630032189999
  0
LINE
  8
_0-0_計極細
  6
CONTINUOUS
 62
    2
 10
476.94201121255969
 20
710.8319802987553
 11
476.94201121255969
 21
704.8319802987553
  0
LINE
  8
_0-0_計極細
  6
CONTINUOUS
 62
    2
 10
489.94201121255969
 20
710.8319802987553
 11
489.94201121255969
 21
704.8319802987553
  0
LINE
  8
_0-0_計極細
  6
CONTINUOUS
 62
    2
 10
476.94201121255969
 20
693.43198029875464
 11
476.94201121255969
 21
687.43198029875475
  0
LINE
  8
_0-0_計極細
  6
CONTINUOUS
 62
    2
 10
489.94201121255969
 20
693.43198029875464
 11
489.94201121255969
 21
687.43198029875475
  0
LINE
  8
_0-0_計極細
  6
CONTINUOUS
 62
    2
 10
476.94201121255969
 20
676.03198029875421
 11
476.94201121255969
 21
670.03198029875409
  0
LINE
  8
_0-0_計極細
  6
CONTINUOUS
 62
    2
 10
489.94201121255969
 20
676.03198029875421
 11
489.94201121255969
 21
670.03198029875409
  0
LINE
  8
_0-0_計極細
  6
CONTINUOUS
 62
    2
 10
476.94201121255969
 20
652.63198029875809
 11
476.94201121255969
 21
658.63198029875821
  0
LINE
  8
_0-0_計極細
  6
CONTINUOUS
 62
    2
 10
489.94201121255969
 20
652.63198029875809
 11
489.94201121255969
 21
658.63198029875821
  0
LINE
  8
_0-0_計極細
  6
CONTINUOUS
 62
    2
 10
573.94201121255946
 20
710.8319802987553
 11
573.94201121255946
 21
704.8319802987553
  0
LINE
  8
_0-0_計極細
  6
CONTINUOUS
 62
    2
 10
586.94201121255969
 20
710.8319802987553
 11
586.94201121255969
 21
704.8319802987553
  0
LINE
  8
_0-0_計極細
  6
CONTINUOUS
 62
    2
 10
573.94201121255946
 20
693.43198029875464
 11
573.94201121255946
 21
687.43198029875475
  0
LINE
  8
_0-0_計極細
  6
CONTINUOUS
 62
    2
 10
586.94201121255969
 20
693.43198029875464
 11
586.94201121255969
 21
687.43198029875475
  0
LINE
  8
_0-0_計極細
  6
CONTINUOUS
 62
    2
 10
573.94201121255946
 20
676.03198029875421
 11
573.94201121255946
 21
670.03198029875409
  0
LINE
  8
_0-0_計極細
  6
CONTINUOUS
 62
    2
 10
586.94201121255969
 20
676.03198029875421
 11
586.94201121255969
 21
670.03198029875409
  0
LINE
  8
_0-0_計極細
  6
CONTINUOUS
 62
    2
 10
573.94201121255946
 20
652.63198029875809
 11
573.94201121255946
 21
658.63198029875821
  0
LINE
  8
_0-0_計極細
  6
CONTINUOUS
 62
    2
 10
586.94201121255969
 20
652.63198029875809
 11
586.94201121255969
 21
658.63198029875821
  0
LINE
  8
_0-0_計極細
  6
CENTER1
 62
    2
 10
580.44201121255969
 20
728.65630032190086
 11
580.44201121255969
 21
634.60630032189999
  0
LINE
  8
_0-0_計極細
  6
CONTINUOUS
 62
    2
 10
670.94201121255981
 20
710.8319802987553
 11
670.94201121255981
 21
704.8319802987553
  0
LINE
  8
_0-0_計極細
  6
CONTINUOUS
 62
    2
 10
683.94201121255969
 20
710.8319802987553
 11
683.94201121255969
 21
704.8319802987553
  0
LINE
  8
_0-0_計極細
  6
CONTINUOUS
 62
    2
 10
670.94201121255981
 20
693.43198029875464
 11
670.94201121255981
 21
687.43198029875475
  0
LINE
  8
_0-0_計極細
  6
CONTINUOUS
 62
    2
 10
683.94201121255969
 20
693.43198029875464
 11
683.94201121255969
 21
687.43198029875475
  0
LINE
  8
_0-0_計極細
  6
CONTINUOUS
 62
    2
 10
670.94201121255981
 20
676.03198029875421
 11
670.94201121255981
 21
670.03198029875409
  0
LINE
  8
_0-0_計極細
  6
CONTINUOUS
 62
    2
 10
683.94201121255969
 20
676.03198029875421
 11
683.94201121255969
 21
670.03198029875409
  0
LINE
  8
_0-0_計極細
  6
CONTINUOUS
 62
    2
 10
670.94201121255981
 20
652.63198029875809
 11
670.94201121255981
 21
658.63198029875821
  0
LINE
  8
_0-0_計極細
  6
CONTINUOUS
 62
    2
 10
683.94201121255969
 20
652.63198029875809
 11
683.94201121255969
 21
658.63198029875821
  0
LINE
  8
_0-0_計極細
  6
CENTER1
 62
    2
 10
677.44201121255969
 20
728.65630032190086
 11
677.44201121255969
 21
634.60630032189999
  0
LINE
  8
_0-0_計極細
  6
CONTINUOUS
 62
    2
 10
1252.9420112125599
 20
710.8319802987553
 11
1252.9420112125599
 21
704.8319802987553
  0
LINE
  8
_0-0_計極細
  6
CONTINUOUS
 62
    2
 10
1265.9420112125597
 20
710.8319802987553
 11
1265.9420112125597
 21
704.8319802987553
  0
LINE
  8
_0-0_計極細
  6
CONTINUOUS
 62
    2
 10
1252.9420112125599
 20
693.43198029875464
 11
1252.9420112125599
 21
687.43198029875475
  0
LINE
  8
_0-0_計極細
  6
CONTINUOUS
 62
    2
 10
1265.9420112125597
 20
693.43198029875464
 11
1265.9420112125597
 21
687.43198029875475
  0
LINE
  8
_0-0_計極細
  6
CONTINUOUS
 62
    2
 10
1252.9420112125599
 20
676.03198029875421
 11
1252.9420112125599
 21
670.03198029875409
  0
LINE
  8
_0-0_計極細
  6
CONTINUOUS
 62
    2
 10
1265.9420112125597
 20
676.03198029875421
 11
1265.9420112125597
 21
670.03198029875409
  0
LINE
  8
_0-0_計極細
  6
CONTINUOUS
 62
    2
 10
1252.9420112125599
 20
652.63198029875809
 11
1252.9420112125599
 21
658.63198029875821
  0
LINE
  8
_0-0_計極細
  6
CONTINUOUS
 62
    2
 10
1265.9420112125597
 20
652.63198029875809
 11
1265.9420112125597
 21
658.63198029875821
  0
LINE
  8
_0-0_計極細
  6
CENTER1
 62
    2
 10
1259.4420112125597
 20
728.65630032190086
 11
1259.4420112125597
 21
634.60630032189999
  0
LINE
  8
_0-0_計極細
  6
CONTINUOUS
 62
    2
 10
767.94201121255969
 20
710.8319802987553
 11
767.94201121255969
 21
704.8319802987553
  0
LINE
  8
_0-0_計極細
  6
CONTINUOUS
 62
    2
 10
780.94201121255981
 20
710.8319802987553
 11
780.94201121255981
 21
704.8319802987553
  0
LINE
  8
_0-0_計極細
  6
CONTINUOUS
 62
    2
 10
767.94201121255969
 20
693.43198029875464
 11
767.94201121255969
 21
687.43198029875475
  0
LINE
  8
_0-0_計極細
  6
CONTINUOUS
 62
    2
 10
780.94201121255981
 20
693.43198029875464
 11
780.94201121255981
 21
687.43198029875475
  0
LINE
  8
_0-0_計極細
  6
CONTINUOUS
 62
    2
 10
767.94201121255969
 20
676.03198029875421
 11
767.94201121255969
 21
670.03198029875409
  0
LINE
  8
_0-0_計極細
  6
CONTINUOUS
 62
    2
 10
780.94201121255981
 20
676.03198029875421
 11
780.94201121255981
 21
670.03198029875409
  0
LINE
  8
_0-0_計極細
  6
CONTINUOUS
 62
    2
 10
767.94201121255969
 20
652.63198029875809
 11
767.94201121255969
 21
658.63198029875821
  0
LINE
  8
_0-0_計極細
  6
CONTINUOUS
 62
    2
 10
780.94201121255981
 20
652.63198029875809
 11
780.94201121255981
 21
658.63198029875821
  0
LINE
  8
_0-0_計極細
  6
CENTER1
 62
    2
 10
774.44201121255969
 20
728.65630032190086
 11
774.44201121255969
 21
634.60630032189999
  0
LINE
  8
_0-0_計極細
  6
CONTINUOUS
 62
    2
 10
864.94201121255969
 20
710.8319802987553
 11
864.94201121255969
 21
704.8319802987553
  0
LINE
  8
_0-0_計極細
  6
CONTINUOUS
 62
    2
 10
877.94201121255981
 20
710.8319802987553
 11
877.94201121255981
 21
704.8319802987553
  0
LINE
  8
_0-0_計極細
  6
CONTINUOUS
 62
    2
 10
864.94201121255969
 20
693.43198029875464
 11
864.94201121255969
 21
687.43198029875475
  0
LINE
  8
_0-0_計極細
  6
CONTINUOUS
 62
    2
 10
877.94201121255981
 20
693.43198029875464
 11
877.94201121255981
 21
687.43198029875475
  0
LINE
  8
_0-0_計極細
  6
CONTINUOUS
 62
    2
 10
864.94201121255969
 20
676.03198029875421
 11
864.94201121255969
 21
670.03198029875409
  0
LINE
  8
_0-0_計極細
  6
CONTINUOUS
 62
    2
 10
877.94201121255981
 20
676.03198029875421
 11
877.94201121255981
 21
670.03198029875409
  0
LINE
  8
_0-0_計極細
  6
CONTINUOUS
 62
    2
 10
864.94201121255969
 20
652.63198029875809
 11
864.94201121255969
 21
658.63198029875821
  0
LINE
  8
_0-0_計極細
  6
CONTINUOUS
 62
    2
 10
877.94201121255981
 20
652.63198029875809
 11
877.94201121255981
 21
658.63198029875821
  0
LINE
  8
_0-0_計極細
  6
CENTER1
 62
    2
 10
871.44201121255969
 20
728.65630032190086
 11
871.44201121255969
 21
634.60630032189999
  0
LINE
  8
_0-0_計極細
  6
CONTINUOUS
 62
    2
 10
961.94201121255969
 20
710.8319802987553
 11
961.94201121255969
 21
704.8319802987553
  0
LINE
  8
_0-0_計極細
  6
CONTINUOUS
 62
    2
 10
974.94201121255969
 20
710.8319802987553
 11
974.94201121255969
 21
704.8319802987553
  0
LINE
  8
_0-0_計極細
  6
CONTINUOUS
 62
    2
 10
961.94201121255969
 20
693.43198029875464
 11
961.94201121255969
 21
687.43198029875475
  0
LINE
  8
_0-0_計極細
  6
CONTINUOUS
 62
    2
 10
974.94201121255969
 20
693.43198029875464
 11
974.94201121255969
 21
687.43198029875475
  0
LINE
  8
_0-0_計極細
  6
CONTINUOUS
 62
    2
 10
961.94201121255969
 20
676.03198029875421
 11
961.94201121255969
 21
670.03198029875409
  0
LINE
  8
_0-0_計極細
  6
CONTINUOUS
 62
    2
 10
974.94201121255969
 20
676.03198029875421
 11
974.94201121255969
 21
670.03198029875409
  0
LINE
  8
_0-0_計極細
  6
CONTINUOUS
 62
    2
 10
961.94201121255969
 20
652.63198029875809
 11
961.94201121255969
 21
658.63198029875821
  0
LINE
  8
_0-0_計極細
  6
CONTINUOUS
 62
    2
 10
974.94201121255969
 20
652.63198029875809
 11
974.94201121255969
 21
658.63198029875821
  0
LINE
  8
_0-0_計極細
  6
CENTER1
 62
    2
 10
968.44201121255981
 20
728.65630032190086
 11
968.44201121255981
 21
634.60630032189999
  0
LINE
  8
_0-0_計極細
  6
CONTINUOUS
 62
    2
 10
1058.9420112125597
 20
710.8319802987553
 11
1058.9420112125597
 21
704.8319802987553
  0
LINE
  8
_0-0_計極細
  6
CONTINUOUS
 62
    2
 10
1071.9420112125597
 20
710.8319802987553
 11
1071.9420112125597
 21
704.8319802987553
  0
LINE
  8
_0-0_計極細
  6
CONTINUOUS
 62
    2
 10
1058.9420112125597
 20
693.43198029875464
 11
1058.9420112125597
 21
687.43198029875475
  0
LINE
  8
_0-0_計極細
  6
CONTINUOUS
 62
    2
 10
1071.9420112125597
 20
693.43198029875464
 11
1071.9420112125597
 21
687.43198029875475
  0
LINE
  8
_0-0_計極細
  6
CONTINUOUS
 62
    2
 10
1058.9420112125597
 20
676.03198029875421
 11
1058.9420112125597
 21
670.03198029875409
  0
LINE
  8
_0-0_計極細
  6
CONTINUOUS
 62
    2
 10
1071.9420112125597
 20
676.03198029875421
 11
1071.9420112125597
 21
670.03198029875409
  0
LINE
  8
_0-0_計極細
  6
CONTINUOUS
 62
    2
 10
1058.9420112125597
 20
652.63198029875809
 11
1058.9420112125597
 21
658.63198029875821
  0
LINE
  8
_0-0_計極細
  6
CONTINUOUS
 62
    2
 10
1071.9420112125597
 20
652.63198029875809
 11
1071.9420112125597
 21
658.63198029875821
  0
LINE
  8
_0-0_計極細
  6
CENTER1
 62
    2
 10
1065.4420112125599
 20
728.65630032190086
 11
1065.4420112125599
 21
634.60630032189999
  0
LINE
  8
_0-0_計極細
  6
CONTINUOUS
 62
    2
 10
1155.9420112125597
 20
710.8319802987553
 11
1155.9420112125597
 21
704.8319802987553
  0
LINE
  8
_0-0_計極細
  6
CONTINUOUS
 62
    2
 10
1168.9420112125597
 20
710.8319802987553
 11
1168.9420112125597
 21
704.8319802987553
  0
LINE
  8
_0-0_計極細
  6
CONTINUOUS
 62
    2
 10
1155.9420112125597
 20
693.43198029875464
 11
1155.9420112125597
 21
687.43198029875475
  0
LINE
  8
_0-0_計極細
  6
CONTINUOUS
 62
    2
 10
1168.9420112125597
 20
693.43198029875464
 11
1168.9420112125597
 21
687.43198029875475
  0
LINE
  8
_0-0_計極細
  6
CONTINUOUS
 62
    2
 10
1155.9420112125597
 20
676.03198029875421
 11
1155.9420112125597
 21
670.03198029875409
  0
LINE
  8
_0-0_計極細
  6
CONTINUOUS
 62
    2
 10
1168.9420112125597
 20
676.03198029875421
 11
1168.9420112125597
 21
670.03198029875409
  0
LINE
  8
_0-0_計極細
  6
CONTINUOUS
 62
    2
 10
1155.9420112125597
 20
652.63198029875809
 11
1155.9420112125597
 21
658.63198029875821
  0
LINE
  8
_0-0_計極細
  6
CONTINUOUS
 62
    2
 10
1168.9420112125597
 20
652.63198029875809
 11
1168.9420112125597
 21
658.63198029875821
  0
LINE
  8
_0-0_計極細
  6
CENTER1
 62
    2
 10
1162.4420112125597
 20
728.65630032190086
 11
1162.4420112125597
 21
634.60630032189999
  0
LINE
  8
_0-1_計細線
  6
CONTINUOUS
 62
    3
 10
780.44201121375977
 20
543.63546888150324
 11
782.44201121375977
 21
545.63546888150324
  0
LINE
  8
_0-1_計細線
  6
CONTINUOUS
 62
    3
 10
780.44201121375977
 20
541.63546888150324
 11
782.44201121375977
 21
539.63546888150324
  0
LINE
  8
_0-1_計細線
  6
CONTINUOUS
 62
    3
 10
780.44201121375977
 20
541.63546888150324
 11
780.44201121375977
 21
543.63546888150324
  0
LINE
  8
_0-1_計細線
  6
CONTINUOUS
 62
    3
 10
768.44201121375988
 20
543.63546888150324
 11
766.44201121375988
 21
545.63546888150324
  0
LINE
  8
_0-1_計細線
  6
CONTINUOUS
 62
    3
 10
768.44201121375988
 20
541.63546888150324
 11
766.44201121375988
 21
539.63546888150324
  0
LINE
  8
_0-1_計細線
  6
CONTINUOUS
 62
    3
 10
768.44201121375988
 20
541.63546888150324
 11
768.44201121375988
 21
543.63546888150324
  0
LINE
  8
_0-0_計極細
  6
CENTER1
 62
    2
 10
774.44201121375977
 20
559.29687039665498
 11
774.44201121375977
 21
521.47881484109928
  0
LINE
  8
_0-1_計細線
  6
CONTINUOUS
 62
    3
 10
766.44201121375988
 20
545.63546888150324
 11
766.44201121375988
 21
555.63546888150324
  0
LINE
  8
_0-1_計細線
  6
CONTINUOUS
 62
    3
 10
766.44201121375988
 20
555.63546888150324
 11
768.44201121375988
 21
557.63546888150336
  0
LINE
  8
_0-1_計細線
  6
CONTINUOUS
 62
    3
 10
782.44201121375977
 20
545.63546888150324
 11
782.44201121375977
 21
555.63546888150324
  0
LINE
  8
_0-1_計細線
  6
CONTINUOUS
 62
    3
 10
768.44201121375988
 20
557.63546888150336
 11
780.44201121375977
 21
557.63546888150336
  0
LINE
  8
_0-1_計細線
  6
CONTINUOUS
 62
    3
 10
782.44201121375977
 20
555.63546888150324
 11
780.44201121375977
 21
557.63546888150336
  0
LINE
  8
_0-1_計細線
  6
CONTINUOUS
 62
    3
 10
766.44201121375988
 20
525.63546888150324
 11
766.44201121375988
 21
539.63546888150324
  0
ARC
  8
_0-1_計細線
  6
CONTINUOUS
 62
    3
 10
769.44201121375977
 20
525.63546888150324
 40
3.0000000000000004
 50
179.99999999999983
 51
269.99999999999977
  0
LINE
  8
_0-1_計細線
  6
CONTINUOUS
 62
    3
 10
779.44201121375977
 20
522.63546888150336
 11
769.44201121375977
 21
522.63546888150336
  0
LINE
  8
_0-1_計細線
  6
CONTINUOUS
 62
    3
 10
782.44201121375977
 20
539.63546888150324
 11
782.44201121375977
 21
525.63546888150324
  0
ARC
  8
_0-1_計細線
  6
CONTINUOUS
 62
    3
 10
779.44201121375977
 20
525.63546888150324
 40
3.0000000000000004
 50
269.99999999999977
 51
359.99999999999966
  0
LINE
  8
_0-1_計細線
  6
CONTINUOUS
 62
    3
 10
1220.4420112137598
 20
545.63546888150324
 11
782.44201121375977
 21
545.63546888150324
  0
LINE
  8
_0-1_計細線
  6
CONTINUOUS
 62
    3
 10
766.44201121375988
 20
545.63546888150324
 11
328.44201121375954
 21
545.63546888150324
  0
LINE
  8
_0-5_寸法線
  6
CONTINUOUS
 62
    7
 10
270.44201121375977
 20
736.73197880231828
 11
270.44201121375977
 21
816.73197880231839
  0
LINE
  8
_0-5_寸法線
  6
CONTINUOUS
 62
    7
 10
270.44201121375977
 20
811.73197880231839
 11
280.10126947665043
 21
814.32016925334347
  0
LINE
  8
_0-5_寸法線
  6
CONTINUOUS
 62
    7
 10
270.44201121375977
 20
811.73197880231839
 11
280.10126947665043
 21
809.1437883512931
  0
LINE
  8
_0-5_寸法線
  6
CONTINUOUS
 62
    7
 10
1278.4419715793431
 20
736.73197880231828
 11
1278.4419715793433
 21
816.73197880231839
  0
LINE
  8
_0-5_寸法線
  6
CONTINUOUS
 62
    7
 10
1278.4419715793433
 20
811.73197880231839
 11
1268.7827133164526
 21
809.1437883512931
  0
LINE
  8
_0-5_寸法線
  6
CONTINUOUS
 62
    7
 10
1278.4419715793433
 20
811.73197880231839
 11
1268.7827133164526
 21
814.32016925334347
  0
LINE
  8
_0-5_寸法線
  6
CONTINUOUS
 62
    7
 10
270.44201121375977
 20
811.73197880231839
 11
1278.4419715793433
 21
811.73197880231839
  0
TEXT
  8
_0-5_寸法線
 62
    7
 10
766.94199139655166
 20
811.73197880231805
 40
15
 41
1
 50
0
  1
Ｌ
  0
LINE
  8
_0-1_計細線
  6
CONTINUOUS
 62
    3
 10
274.94201121255969
 20
704.8319802987553
 11
1273.9420112125597
 21
704.8319802987553
  0
LINE
  8
_0-1_計細線
  6
CONTINUOUS
 62
    3
 10
1273.9420112125597
 20
704.8319802987553
 11
1273.9420112125597
 21
693.43198029875464
  0
LINE
  8
_0-0_計極細
  6
CONTINUOUS
 62
    2
 10
274.94201121255969
 20
696.63198029875491
 11
1273.9420112125597
 21
696.63198029875491
  0
LINE
  8
_0-0_計極細
  6
CONTINUOUS
 62
    2
 10
274.94201121255969
 20
701.63198029875491
 11
1273.9420112125597
 21
701.63198029875491
  0
LINE
  8
_0-1_計細線
  6
CONTINUOUS
 62
    3
 10
274.94201121255969
 20
704.8319802987553
 11
274.94201121255969
 21
693.43198029875464
  0
LINE
  8
_0-1_計細線
  6
CONTINUOUS
 62
    3
 10
274.94201121255969
 20
693.43198029875464
 11
1273.9420112125597
 21
693.43198029875464
  0
LINE
  8
_0-1_計細線
  6
CONTINUOUS
 62
    3
 10
274.94201121255969
 20
676.03198029875421
 11
1273.9420112125597
 21
676.03198029875421
  0
LINE
  8
_0-1_計細線
  6
CONTINUOUS
 62
    3
 10
1273.9420112125597
 20
687.43198029875475
 11
1273.9420112125597
 21
676.03198029875421
  0
LINE
  8
_0-0_計極細
  6
CONTINUOUS
 62
    2
 10
274.94201121255969
 20
679.23198029875437
 11
1273.9420112125597
 21
679.23198029875437
  0
LINE
  8
_0-0_計極細
  6
CONTINUOUS
 62
    2
 10
274.94201121255969
 20
684.23198029875437
 11
1273.9420112125597
 21
684.23198029875437
  0
LINE
  8
_0-1_計細線
  6
CONTINUOUS
 62
    3
 10
274.94201121255969
 20
687.43198029875475
 11
1273.9420112125597
 21
687.43198029875475
  0
LINE
  8
_0-1_計細線
  6
CONTINUOUS
 62
    3
 10
274.94201121255969
 20
687.43198029875475
 11
274.94201121255969
 21
676.03198029875421
  0
LINE
  8
_0-0_計極細
  6
CONTINUOUS
 62
    2
 10
379.94201121255969
 20
693.43198029875464
 11
379.94201121255969
 21
692.78198029875523
  0
LINE
  8
_0-0_計極細
  6
CONTINUOUS
 62
    2
 10
379.94201121255969
 20
688.08198029875541
 11
379.94201121255969
 21
687.43198029875475
  0
LINE
  8
_0-0_計極細
  6
CONTINUOUS
 62
    2
 10
392.94201121255975
 20
693.43198029875464
 11
392.94201121255975
 21
692.78198029875523
  0
LINE
  8
_0-0_計極細
  6
CONTINUOUS
 62
    2
 10
392.94201121255975
 20
688.08198029875541
 11
392.94201121255975
 21
687.43198029875475
  0
LINE
  8
_0-1_計細線
  6
CONTINUOUS
 62
    3
 10
348.44201121255878
 20
688.08198029875541
 11
401.44201121255884
 21
688.08198029875541
  0
LINE
  8
_0-1_計細線
  6
CONTINUOUS
 62
    3
 10
401.44201121255884
 20
692.78198029875523
 11
348.44201121255878
 21
692.78198029875523
  0
LINE
  8
_0-1_計細線
  6
CONTINUOUS
 62
    3
 10
348.44201121255878
 20
692.78198029875523
 11
348.44201121255878
 21
688.08198029875541
  0
LINE
  8
_0-1_計細線
  6
CONTINUOUS
 62
    3
 10
391.44201121255884
 20
692.78198029875523
 11
391.44201121255884
 21
688.08198029875541
  0
LINE
  8
_0-1_計細線
  6
CONTINUOUS
 62
    3
 10
399.44201121255878
 20
692.78198029875523
 11
399.44201121255878
 21
688.08198029875541
  0
LINE
  8
_0-1_計細線
  6
CONTINUOUS
 62
    3
 10
401.44201121255884
 20
692.78198029875523
 11
401.44201121255884
 21
688.08198029875541
  0
LINE
  8
_0-1_計細線
  6
CONTINUOUS
 62
    3
 10
397.44201121255884
 20
692.78198029875523
 11
397.44201121255884
 21
688.08198029875541
  0
LINE
  8
_0-1_計細線
  6
CONTINUOUS
 62
    3
 10
395.44201121255878
 20
692.78198029875523
 11
395.44201121255878
 21
688.08198029875541
  0
LINE
  8
_0-1_計細線
  6
CONTINUOUS
 62
    3
 10
393.44201121255878
 20
692.78198029875523
 11
393.44201121255878
 21
688.08198029875541
  0
LINE
  8
_0-5_寸法線
  6
CONTINUOUS
 62
    7
 10
320.44201121375954
 20
522.63546888150336
 11
326.76288600316326
 21
514.88649850495119
  0
LINE
  8
_0-5_寸法線
  6
CONTINUOUS
 62
    7
 10
320.44201121375954
 20
522.63546888150336
 11
322.04156416724777
 21
512.76422628753426
  0
LINE
  8
_0-5_寸法線
  6
CONTINUOUS
 62
    7
 10
320.44201121375954
 20
522.63546888150336
 11
331.89766386539213
 21
497.15060291334567
  0
LINE
  8
_0-5_寸法線
  6
CONTINUOUS
 62
    7
 10
331.89766386539213
 20
497.15060291334567
 11
379.89766386539225
 21
497.15060291334567
  0
TEXT
  8
_0-5_寸法線
 62
    7
 10
331.89766386539213
 20
497.15060291334567
 40
15
 41
0.8000000000000001
 50
0
  1
アンカー
  0
TEXT
  8
_0-5_寸法線
 62
    7
 10
381.54150626665847
 20
581.99111755623369
 40
15
 41
0.8000000000000001
 50
0
  1
(標準付属)
  0
LINE
  8
_0-5_寸法線
  6
CONTINUOUS
 62
    7
 10
362.49039032093719
 20
689.1507192330165
 11
367.49039031825788
 21
680.49046519362537
  0
LINE
  8
_0-5_寸法線
  6
CONTINUOUS
 62
    7
 10
362.49039032093719
 20
689.1507192330165
 11
362.49039031784343
 21
679.1507192330165
  0
LINE
  8
_0-5_寸法線
  6
CONTINUOUS
 62
    7
 10
362.49039032093719
 20
689.1507192330165
 11
386.74210139589377
 21
598.64210121879046
  0
LINE
  8
_0-5_寸法線
  6
CONTINUOUS
 62
    7
 10
386.74210139589377
 20
598.64210121879046
 11
446.74210139589371
 21
598.64210121879046
  0
TEXT
  8
_0-5_寸法線
 62
    7
 10
386.74210139589377
 20
598.64210121879046
 40
15
 41
0.8000000000000001
 50
0
  1
取　外　具
  0
TEXT
  8
_0-7_枠細線
 62
    5
 10
389.64440238437646
 20
616.76267643046037
 40
12.5
 41
0.8
 50
0
  1
２
  0
LINE
  8
_0-7_枠細線
  6
CONTINUOUS
 62
    5
 10
402.27925111622858
 20
617.06967867584103
 11
394.77925111622835
 21
632.06967867584103
  0
LINE
  8
_0-7_枠細線
  6
CONTINUOUS
 62
    5
 10
387.27925111622835
 20
617.06967867584103
 11
402.27925111622858
 21
617.06967867584103
  0
LINE
  8
_0-7_枠細線
  6
CONTINUOUS
 62
    5
 10
394.77925111622835
 20
632.06967867584103
 11
387.27925111622835
 21
617.06967867584103
  0
TEXT
  8
_0-7_枠細線
 62
    5
 10
408.43496535123029
 20
616.52123772082462
 40
12.5
 41
0.8
 50
0
  1
３
  0
LINE
  8
_0-7_枠細線
  6
CONTINUOUS
 62
    5
 10
413.56981408308224
 20
632.06892161100598
 11
406.06981408308224
 21
617.06892161100598
  0
LINE
  8
_0-7_枠細線
  6
CONTINUOUS
 62
    5
 10
406.06981408308224
 20
617.06892161100598
 11
421.06981408308224
 21
617.06892161100598
  0
LINE
  8
_0-7_枠細線
  6
CONTINUOUS
 62
    5
 10
421.06981408308224
 20
617.06892161100598
 11
413.56981408308224
 21
632.06892161100598
  0
LINE
  8
_0-7_枠細線
  6
CONTINUOUS
 62
    5
 10
439.78379794657855
 20
617.06892161100598
 11
432.28379794657855
 21
632.06892161100598
  0
LINE
  8
_0-7_枠細線
  6
CONTINUOUS
 62
    5
 10
424.78379794657855
 20
617.06892161100598
 11
439.78379794657855
 21
617.06892161100598
  0
LINE
  8
_0-7_枠細線
  6
CONTINUOUS
 62
    5
 10
432.28379794657855
 20
632.06892161100598
 11
424.78379794657855
 21
617.06892161100598
  0
TEXT
  8
_0-7_枠細線
 62
    5
 10
427.1489492147266
 20
616.52123772082462
 40
12.5
 41
0.8
 50
0
  1
６
  0
TEXT
  8
_0-5_寸法線
 62
    7
 10
568.61340079421188
 20
582.80159085264279
 40
15
 41
0.8000000000000001
 50
0
  1
アンカー付
  0
LINE
  8
_0-5_寸法線
  6
CONTINUOUS
 62
    7
 10
555.08442112982186
 20
638.56460782400382
 11
560.08442112374757
 21
629.90435378265238
  0
LINE
  8
_0-5_寸法線
  6
CONTINUOUS
 62
    7
 10
555.08442112982186
 20
638.56460782400382
 11
555.08442112280795
 21
628.56460782400382
  0
LINE
  8
_0-5_寸法線
  6
CONTINUOUS
 62
    7
 10
555.08442112982186
 20
638.56460782400382
 11
565.78162450450282
 21
598.64210121879046
  0
LINE
  8
_0-5_寸法線
  6
CONTINUOUS
 62
    7
 10
565.78162450450282
 20
598.64210121879046
 11
673.78162450450282
 21
598.64210121879046
  0
TEXT
  8
_0-5_寸法線
 62
    7
 10
565.78162450450282
 20
599.24210121879025
 40
15
 41
0.8000000000000001
 50
0
  1
ＳＵＳアングル受枠
  0
LINE
  8
_0-5_寸法線
  6
CONTINUOUS
 62
    7
 10
220.44201121375954
 20
726.73197880231828
 11
217.85382076273436
 21
736.391237065209
  0
LINE
  8
_0-5_寸法線
  6
CONTINUOUS
 62
    7
 10
220.44201121375954
 20
726.73197880231828
 11
223.03020166478476
 21
736.391237065209
  0
LINE
  8
_0-5_寸法線
  6
CONTINUOUS
 62
    7
 10
260.44201121375977
 20
723.73197880351836
 11
215.44201121375954
 21
723.73197880351836
  0
CIRCLE
  8
_0-5_寸法線
  6
CONTINUOUS
 62
    1
 10
220.44201121375954
 20
723.73197880351836
 40
1.5000000000000002
  0
LINE
  8
_0-5_寸法線
  6
CONTINUOUS
 62
    7
 10
220.44201121375954
 20
751.73197880231828
 11
220.44201121375954
 21
723.73197880351836
  0
TEXT
  8
_0-5_寸法線
 62
    7
 10
220.44201121375954
 20
739.97379978997105
 40
15
 41
1
 50
90
  1
3
  0
LINE
  8
_0-5_寸法線
  6
CONTINUOUS
 62
    7
 10
260.44201121375977
 20
722.23198029875584
 11
215.44201121375954
 21
722.23198029875584
  0
LINE
  8
_0-5_寸法線
  6
CONTINUOUS
 62
    7
 10
220.44201121375954
 20
723.73197880351836
 11
220.44201121375954
 21
722.23198029875584
  0
TEXT
  8
_0-5_寸法線
 62
    7
 10
237.9934406932216
 20
699.25528127145287
 40
15
 41
1
 50
90
  1
1.5
  0
LINE
  8
_0-5_寸法線
  6
CONTINUOUS
 62
    7
 10
220.44201121375954
 20
722.23198029875584
 11
223.03020166478476
 21
712.57272203586513
  0
LINE
  8
_0-5_寸法線
  6
CONTINUOUS
 62
    7
 10
220.44201121375954
 20
722.23198029875584
 11
217.85382076273436
 21
712.57272203586513
  0
LINE
  8
_0-5_寸法線
  6
CONTINUOUS
 62
    7
 10
260.44201121375977
 20
641.23198029875755
 11
215.44201121375954
 21
641.23198029875755
  0
LINE
  8
_0-5_寸法線
  6
CONTINUOUS
 62
    7
 10
220.44201121375954
 20
641.23198029875755
 11
217.85382076273436
 21
650.89123856164838
  0
LINE
  8
_0-5_寸法線
  6
CONTINUOUS
 62
    7
 10
220.44201121375954
 20
641.23198029875755
 11
223.03020166478476
 21
650.89123856164838
  0
LINE
  8
_0-5_寸法線
  6
CONTINUOUS
 62
    7
 10
220.44201121375954
 20
722.23198029875584
 11
220.44201121375954
 21
641.23198029875755
  0
TEXT
  8
_0-5_寸法線
 62
    7
 10
220.44201121375954
 20
674.23198029875664
 40
15
 41
1
 50
90
  1
81
  0
LINE
  8
_0-5_寸法線
  6
CONTINUOUS
 62
    7
 10
260.44201121375977
 20
639.73198179399571
 11
215.44201121375954
 21
639.73198179399571
  0
CIRCLE
  8
_0-5_寸法線
  6
CONTINUOUS
 62
    1
 10
220.44201121375954
 20
639.73198179399571
 40
1.5000000000000002
  0
LINE
  8
_0-5_寸法線
  6
CONTINUOUS
 62
    7
 10
220.44201121375954
 20
641.23198029875755
 11
220.44201121375954
 21
639.73198179399571
  0
TEXT
  8
_0-5_寸法線
 62
    7
 10
236.64063711393467
 20
640.63381101919822
 40
15
 41
1
 50
90
  1
1.5
  0
LINE
  8
_0-5_寸法線
  6
CONTINUOUS
 62
    7
 10
220.44201121375954
 20
636.73198179519557
 11
223.03020166478476
 21
627.07272353230485
  0
LINE
  8
_0-5_寸法線
  6
CONTINUOUS
 62
    7
 10
220.44201121375954
 20
636.73198179519557
 11
217.85382076273436
 21
627.07272353230485
  0
LINE
  8
_0-5_寸法線
  6
CONTINUOUS
 62
    7
 10
220.44201121375954
 20
639.73198179399571
 11
220.44201121375954
 21
611.73198179519557
  0
TEXT
  8
_0-5_寸法線
 62
    7
 10
220.44201121375954
 20
616.51454053071211
 40
15
 41
1
 50
90
  1
3
  0
LINE
  8
_0-5_寸法線
  6
CONTINUOUS
 62
    7
 10
270.44201121375977
 20
736.73197880231828
 11
270.44201121375977
 21
781.73197880231839
  0
LINE
  8
_0-5_寸法線
  6
CONTINUOUS
 62
    7
 10
270.44201121375977
 20
776.73197880231839
 11
260.78275295086911
 21
774.1437883512931
  0
LINE
  8
_0-5_寸法線
  6
CONTINUOUS
 62
    7
 10
270.44201121375977
 20
776.73197880231839
 11
260.78275295086911
 21
779.32016925334347
  0
LINE
  8
_0-5_寸法線
  6
CONTINUOUS
 62
    7
 10
273.44201121255969
 20
736.73197880231828
 11
273.44201121255969
 21
781.73197880231839
  0
CIRCLE
  8
_0-5_寸法線
  6
CONTINUOUS
 62
    1
 10
273.44201121255969
 20
776.73197880231839
 40
1.5000000000000002
  0
LINE
  8
_0-5_寸法線
  6
CONTINUOUS
 62
    7
 10
245.44201121375977
 20
776.73197880231839
 11
273.44201121255969
 21
776.73197880231839
  0
TEXT
  8
_0-5_寸法線
 62
    7
 10
248.24789971445554
 20
776.73197880231805
 40
15
 41
1
 50
0
  1
3
  0
LINE
  8
_0-5_寸法線
  6
CONTINUOUS
 62
    7
 10
274.94201115195881
 20
736.73197880231828
 11
274.94201115195892
 21
781.73197880231839
  0
LINE
  8
_0-5_寸法線
  6
CONTINUOUS
 62
    7
 10
273.44201121255969
 20
776.73197880231839
 11
274.94201115195892
 21
776.73197880231839
  0
TEXT
  8
_0-5_寸法線
 62
    7
 10
274.91797644220082
 20
776.73197880231805
 40
15
 41
1
 50
0
  1
1.5
  0
LINE
  8
_0-5_寸法線
  6
CONTINUOUS
 62
    7
 10
274.94201115195892
 20
776.73197880231839
 11
284.60126941484958
 21
779.32016925334347
  0
LINE
  8
_0-5_寸法線
  6
CONTINUOUS
 62
    7
 10
274.94201115195892
 20
776.73197880231839
 11
284.60126941484958
 21
774.1437883512931
  0
LINE
  8
_0-5_寸法線
  6
CONTINUOUS
 62
    7
 10
1273.9419715805436
 20
736.73197880231828
 11
1273.9419715805438
 21
781.73197880231839
  0
LINE
  8
_0-5_寸法線
  6
CONTINUOUS
 62
    7
 10
1273.9419715805438
 20
776.73197880231839
 11
1264.2827133176531
 21
774.1437883512931
  0
LINE
  8
_0-5_寸法線
  6
CONTINUOUS
 62
    7
 10
1273.9419715805438
 20
776.73197880231839
 11
1264.2827133176531
 21
779.32016925334347
  0
LINE
  8
_0-5_寸法線
  6
CONTINUOUS
 62
    7
 10
274.94201115195892
 20
776.73197880231839
 11
1273.9419715805438
 21
776.73197880231839
  0
TEXT
  8
_0-5_寸法線
 62
    7
 10
766.94199136625161
 20
776.73197880231805
 40
15
 41
1
 50
0
  1
Ａ
  0
LINE
  8
_0-5_寸法線
  6
CONTINUOUS
 62
    7
 10
1275.4419715805438
 20
736.73197880231828
 11
1275.4419715805438
 21
781.73197880231839
  0
CIRCLE
  8
_0-5_寸法線
  6
CONTINUOUS
 62
    1
 10
1275.4419715805438
 20
776.73197880231839
 40
1.5000000000000002
  0
LINE
  8
_0-5_寸法線
  6
CONTINUOUS
 62
    7
 10
1273.9419715805438
 20
776.73197880231839
 11
1275.4419715805438
 21
776.73197880231839
  0
TEXT
  8
_0-5_寸法線
 62
    7
 10
1250.7062576153846
 20
776.73197880231839
 40
15
 41
1
 50
0
  1
1.5
  0
LINE
  8
_0-5_寸法線
  6
CONTINUOUS
 62
    7
 10
1278.4419715793431
 20
736.73197880231828
 11
1278.4419715793433
 21
781.73197880231839
  0
LINE
  8
_0-5_寸法線
  6
CONTINUOUS
 62
    7
 10
1278.4419715793433
 20
776.73197880231839
 11
1288.101229842234
 21
779.32016925334347
  0
LINE
  8
_0-5_寸法線
  6
CONTINUOUS
 62
    7
 10
1278.4419715793433
 20
776.73197880231839
 11
1288.101229842234
 21
774.14378835129298
  0
LINE
  8
_0-5_寸法線
  6
CONTINUOUS
 62
    7
 10
1275.4419715805438
 20
776.73197880231839
 11
1303.4419715793433
 21
776.73197880231839
  0
TEXT
  8
_0-5_寸法線
 62
    7
 10
1292.1276166955793
 20
776.73197880231839
 40
15
 41
1
 50
0
  1
3
  0
CIRCLE
  8
_0-a_極細1
  6
CONTINUOUS
 62
    7
 10
328.96579658937208
 20
142.75474481915518
 40
0.8296296296296077
  0
CIRCLE
  8
_0-a_極細1
  6
CONTINUOUS
 62
    7
 10
348.43246325603849
 20
147.55474481915508
 40
0.8296296296296077
  0
CIRCLE
  8
_0-a_極細1
  6
CONTINUOUS
 62
    7
 10
355.6991299227052
 20
219.37696704137682
 40
0.8296296296296077
  0
CIRCLE
  8
_0-a_極細1
  6
CONTINUOUS
 62
    7
 10
326.29912992270528
 20
222.11030037471011
 40
0.8296296296296077
  0
LINE
  8
_0-a_極細1
  6
CONTINUOUS
 62
    7
 10
309.64043739414564
 20
301.76629586083089
 11
309.64043739414564
 21
284.26629586083084
  0
LINE
  8
_0-a_極細1
  6
CONTINUOUS
 62
    7
 10
309.64043739414564
 20
301.76629586083089
 11
175.87381667647378
 21
301.76629586083089
  0
LINE
  8
_0-a_極細1
  6
CONTINUOUS
 62
    7
 10
322.14043739414586
 20
284.26629586083084
 11
175.87381667647378
 21
284.26629586083084
  0
LINE
  8
_0-a_極細1
  6
CONTINUOUS
 62
    7
 10
322.14043739414586
 20
301.76629586083089
 11
309.64043739414564
 21
301.76629586083089
  0
LINE
  8
_0-a_極細1
  6
CONTINUOUS
 62
    7
 10
322.14043739414586
 20
300.51629586083089
 11
322.14043739414586
 21
301.76629586083089
  0
LINE
  8
_0-a_極細1
  6
CONTINUOUS
 62
    7
 10
321.84330200960653
 20
284.26629586083084
 11
322.14043739414524
 21
284.56343124536988
  0
LINE
  8
_0-a_極細1
  6
CONTINUOUS
 62
    7
 10
315.47934097892784
 20
284.26629586083084
 11
322.14043739414586
 21
290.92739227604869
  0
LINE
  8
_0-a_極細1
  6
CONTINUOUS
 62
    7
 10
309.64043739414564
 20
284.79135330672779
 11
322.14043739414586
 21
297.29135330672767
  0
LINE
  8
_0-a_極細1
  6
CONTINUOUS
 62
    7
 10
309.64043739414564
 20
291.15531433740659
 11
320.25141891756965
 21
301.76629586083089
  0
LINE
  8
_0-a_極細1
  6
CONTINUOUS
 62
    7
 10
309.64043739414564
 20
297.51927536808552
 11
313.88745788689107
 21
301.76629586083089
  0
LINE
  8
_0-a_極細1
  6
CONTINUOUS
 62
    7
 10
322.14043739414586
 20
298.34484555244319
 11
318.71898708575827
 21
301.76629586083089
  0
LINE
  8
_0-a_極細1
  6
CONTINUOUS
 62
    7
 10
322.14043739414586
 20
291.98088452176415
 11
312.35502605507889
 21
301.76629586083089
  0
LINE
  8
_0-a_極細1
  6
CONTINUOUS
 62
    7
 10
309.64043739414564
 20
298.1169234910854
 11
322.14043739414586
 21
285.61692349108529
  0
LINE
  8
_0-a_極細1
  6
CONTINUOUS
 62
    7
 10
309.64043739414564
 20
291.75296246040648
 11
317.12710399372071
 21
284.26629586083084
  0
LINE
  8
_0-a_極細1
  6
CONTINUOUS
 62
    7
 10
309.64043739414564
 20
285.38900142972744
 11
310.76314296304201
 21
284.26629586083084
  0
LINE
  8
_0-a_極細1
  6
CONTINUOUS
 62
    7
 10
296.3874578776996
 20
284.26629585163988
 11
309.64043739414564
 21
297.51927536808552
  0
LINE
  8
_0-a_極細1
  6
CONTINUOUS
 62
    7
 10
264.5676527022386
 20
284.26629582957293
 11
282.06765273349663
 21
301.76629586083084
  0
LINE
  8
_0-a_極細1
  6
CONTINUOUS
 62
    7
 10
232.74784752677675
 20
284.26629580750603
 11
250.24784758010134
 21
301.76629586083089
  0
LINE
  8
_0-a_極細1
  6
CONTINUOUS
 62
    7
 10
200.92804235131482
 20
284.26629578543901
 11
218.42804242670681
 21
301.76629586083089
  0
LINE
  8
_0-a_極細1
  6
CONTINUOUS
 62
    7
 10
175.87381667647378
 20
291.03187526399216
 11
186.6082372733122
 21
301.76629586083084
  0
LINE
  8
_0-a_極細1
  6
DASHED2
 62
    7
 10
280.47755528996913
 20
284.26629584060652
 11
297.97755531019379
 21
301.76629586083112
  0
LINE
  8
_0-a_極細1
  6
DASHED2
 62
    7
 10
248.65775011450737
 20
284.2662958185395
 11
266.1577501567993
 21
301.76629586083089
  0
LINE
  8
_0-a_極細1
  6
DASHED2
 62
    7
 10
216.83794493904614
 20
284.26629579647272
 11
234.33794500340412
 21
301.76629586083089
  0
LINE
  8
_0-a_極細1
  6
DASHED2
 62
    7
 10
185.01813976358426
 20
284.26629577440571
 11
202.5181398500095
 21
301.76629586083089
  0
LINE
  8
_0-b_細線1
  6
CONTINUOUS
 62
    7
 10
322.14043739414586
 20
274.26629586083089
 11
322.14043739414586
 21
186.76629586083095
  0
LINE
  8
_0-b_細線1
  6
CONTINUOUS
 62
    7
 10
322.14043739414586
 20
186.76629586083095
 11
316.39043739414603
 21
186.76629586083095
  0
LINE
  8
_0-b_細線1
  6
CONTINUOUS
 62
    7
 10
316.39043739414603
 20
186.76629586083095
 11
316.39043739414603
 21
274.26629586083089
  0
LINE
  8
_0-b_細線1
  6
CONTINUOUS
 62
    7
 10
316.39043739414603
 20
274.26629586083089
 11
322.14043739414586
 21
274.26629586083089
  0
LINE
  8
_0-a_極細1
  6
CONTINUOUS
 62
    7
 10
316.39043739414603
 20
234.26629586083092
 11
322.14043739414586
 21
234.26629586083092
  0
LINE
  8
_0-a_極細1
  6
CONTINUOUS
 62
    7
 10
316.39043739414603
 20
239.26629586083095
 11
322.14043739414586
 21
239.26629586083095
  0
LINE
  8
_0-a_極細1
  6
CONTINUOUS
 62
    7
 10
316.39043739414603
 20
229.26629586083084
 11
322.14043739414586
 21
229.26629586083084
  0
LINE
  8
_0-a_極細1
  6
CONTINUOUS
 62
    7
 10
316.39043739414603
 20
244.26629586083084
 11
322.14043739414586
 21
244.26629586083084
  0
LINE
  8
_0-a_極細1
  6
CONTINUOUS
 62
    7
 10
322.14043739414586
 20
194.26629586083095
 11
316.39043739414603
 21
194.26629586083095
  0
LINE
  8
_0-a_極細1
  6
CONTINUOUS
 62
    7
 10
316.39043739414603
 20
269.26629586083095
 11
322.14043739414586
 21
269.26629586083095
  0
CIRCLE
  8
_0-a_極細1
  6
CONTINUOUS
 62
    7
 10
340.86579658937154
 20
204.44363370804354
 40
0.8296296296296077
  0
CIRCLE
  8
_0-a_極細1
  6
CONTINUOUS
 62
    7
 10
341.66579658937155
 20
177.5103003747104
 40
0.8296296296296077
  0
LINE
  8
_0-a_極細1
  6
CONTINUOUS
 62
    7
 10
358.39043739414581
 20
244.26629586083084
 11
359.64043739414598
 21
244.26629586083084
  0
CIRCLE
  8
_0-a_極細1
  6
CONTINUOUS
 62
    7
 10
349.30928617270263
 20
220.28622630063666
 40
2.7382972090220878
  0
CIRCLE
  8
_0-a_極細1
  6
CONTINUOUS
 62
    7
 10
347.82135214492683
 20
138.22141148582182
 40
0.8296296296296077
  0
CIRCLE
  8
_0-a_極細1
  6
CONTINUOUS
 62
    7
 10
331.26579658936527
 20
191.61955963397048
 40
2.7382972090220878
  0
ARC
  8
_0-b_細線1
  6
CONTINUOUS
 62
    7
 10
329.64043739414586
 20
251.76629586083084
 40
7.5
 50
179.99999999999983
 51
269.99999999999977
  0
LINE
  8
_0-b_細線1
  6
CONTINUOUS
 62
    7
 10
322.14043739414586
 20
251.76629586083084
 11
322.14043739414586
 21
300.51629586083089
  0
LINE
  8
_0-b_細線1
  6
CONTINUOUS
 62
    7
 10
329.64043739414586
 20
244.26629586083084
 11
358.39043739414581
 21
244.26629586083084
  0
LINE
  8
_0-b_細線1
  6
CONTINUOUS
 62
    7
 10
359.64043739414598
 20
245.51629586083092
 11
358.39043739414581
 21
244.26629586083084
  0
LINE
  8
_0-b_細線1
  6
CONTINUOUS
 62
    7
 10
359.64043739414598
 20
250.51629586083095
 11
359.64043739414598
 21
245.51629586083092
  0
LINE
  8
_0-b_細線1
  6
CONTINUOUS
 62
    7
 10
358.39043739414581
 20
251.76629586083084
 11
359.64043739414598
 21
250.51629586083095
  0
LINE
  8
_0-b_細線1
  6
CONTINUOUS
 62
    7
 10
329.64043739414586
 20
251.76629586083084
 11
358.39043739414581
 21
251.76629586083084
  0
LINE
  8
_0-b_細線1
  6
CONTINUOUS
 62
    7
 10
323.39043739414541
 20
301.76629586083089
 11
322.14043739414586
 21
300.51629586083089
  0
LINE
  8
_0-b_細線1
  6
CONTINUOUS
 62
    7
 10
328.39043739414564
 20
301.76629586083089
 11
323.39043739414541
 21
301.76629586083089
  0
LINE
  8
_0-b_細線1
  6
CONTINUOUS
 62
    7
 10
329.64043739414586
 20
300.51629586083089
 11
328.39043739414564
 21
301.76629586083089
  0
LINE
  8
_0-b_細線1
  6
CONTINUOUS
 62
    7
 10
329.64043739414586
 20
251.76629586083084
 11
329.64043739414586
 21
300.51629586083089
  0
LINE
  8
_0-d_寸法1
  6
CONTINUOUS
 62
    7
 10
322.14043739414581
 20
176.76629586083095
 11
322.14043739414547
 21
148.54925800947285
  0
LINE
  8
_0-d_寸法1
  6
CONTINUOUS
 62
    7
 10
322.14043739414558
 20
153.54925800947285
 11
331.79969565703624
 21
156.13744846049804
  0
LINE
  8
_0-d_寸法1
  6
CONTINUOUS
 62
    7
 10
322.14043739414558
 20
153.54925800947285
 11
331.79969565703624
 21
150.96106755844767
  0
LINE
  8
_0-d_寸法1
  6
CONTINUOUS
 62
    7
 10
359.64043739414586
 20
234.26629586083084
 11
359.64043739414512
 21
148.54925800947285
  0
LINE
  8
_0-d_寸法1
  6
CONTINUOUS
 62
    7
 10
359.64043739414524
 20
153.54925800947285
 11
349.98117913125446
 21
150.96106755844767
  0
LINE
  8
_0-d_寸法1
  6
CONTINUOUS
 62
    7
 10
359.64043739414524
 20
153.54925800947285
 11
349.98117913125452
 21
156.13744846049812
  0
LINE
  8
_0-d_寸法1
  6
CONTINUOUS
 62
    7
 10
322.14043739414558
 20
153.54925800947285
 11
359.64043739414524
 21
153.54925800947285
  0
TEXT
  8
_0-d_寸法1
 62
    7
 10
333.39043739414529
 20
153.54925800947285
 40
15
 41
1
 50
0
  1
15
  0
CIRCLE
  8
_0-a_極細1
  6
CONTINUOUS
 62
    7
 10
513.29912992270283
 20
147.29780037471079
 40
0.8296296296296077
  0
CIRCLE
  8
_0-a_極細1
  6
CONTINUOUS
 62
    7
 10
534.09912992270256
 20
140.09780037471089
 40
0.8296296296296077
  0
CIRCLE
  8
_0-a_極細1
  6
CONTINUOUS
 62
    7
 10
556.49912992270265
 20
154.09780037471074
 40
0.8296296296296077
  0
CIRCLE
  8
_0-a_極細1
  6
CONTINUOUS
 62
    7
 10
559.0657965893688
 20
273.53113370804283
 40
0.8296296296296077
  0
CIRCLE
  8
_0-a_極細1
  6
CONTINUOUS
 62
    7
 10
555.33246325603568
 20
243.93113370804312
 40
0.8296296296296077
  0
CIRCLE
  8
_0-a_極細1
  6
CONTINUOUS
 62
    7
 10
586.13246325603518
 20
242.86446704137646
 40
0.8296296296296077
  0
CIRCLE
  8
_0-a_極細1
  6
CONTINUOUS
 62
    7
 10
568.73246325603532
 20
221.86446704137663
 40
0.8296296296296077
  0
CIRCLE
  8
_0-a_極細1
  6
CONTINUOUS
 62
    7
 10
635.93246325603468
 20
194.26446704137703
 40
0.8296296296296077
  0
CIRCLE
  8
_0-a_極細1
  6
CONTINUOUS
 62
    7
 10
608.93246325603491
 20
226.0644670413767
 40
0.8296296296296077
  0
CIRCLE
  8
_0-a_極細1
  6
CONTINUOUS
 62
    7
 10
634.1324632560345
 20
255.46446704137622
 40
0.8296296296296077
  0
CIRCLE
  8
_0-a_極細1
  6
CONTINUOUS
 62
    7
 10
629.93246325603468
 20
215.26446704137683
 40
0.8296296296296077
  0
CIRCLE
  8
_0-a_極細1
  6
CONTINUOUS
 62
    7
 10
674.33246325603409
 20
247.06446704137636
 40
0.8296296296296077
  0
CIRCLE
  8
_0-a_極細1
  6
CONTINUOUS
 62
    7
 10
667.13246325603382
 20
267.71955963396891
 40
2.7382972090220878
  0
CIRCLE
  8
_0-a_極細1
  6
CONTINUOUS
 62
    7
 10
643.66579658936757
 20
244.51955963396924
 40
2.7382972090220878
  0
CIRCLE
  8
_0-a_極細1
  6
CONTINUOUS
 62
    7
 10
560.53246325603527
 20
254.38622630063574
 40
2.7382972090220878
  0
CIRCLE
  8
_0-a_極細1
  6
CONTINUOUS
 62
    7
 10
608.53246325603459
 20
206.38622630063622
 40
2.7382972090220878
  0
CIRCLE
  8
_0-a_極細1
  6
CONTINUOUS
 62
    7
 10
564.47412992270188
 20
215.56122630063626
 40
2.7382972090220878
  0
CIRCLE
  8
_0-a_極細1
  6
CONTINUOUS
 62
    7
 10
655.1324632560345
 20
279.6644670413761
 40
0.8296296296296077
  0
CIRCLE
  8
_0-a_極細1
  6
CONTINUOUS
 62
    7
 10
608.93246325603491
 20
272.06446704137636
 40
0.8296296296296077
  0
CIRCLE
  8
_0-a_極細1
  6
CONTINUOUS
 62
    7
 10
609.13246325603473
 20
262.58622630063576
 40
2.7382972090220878
  0
CIRCLE
  8
_0-a_極細1
  6
CONTINUOUS
 62
    7
 10
577.13246325603518
 20
281.06446704137596
 40
0.8296296296296077
  0
LINE
  8
_0-a_極細1
  6
CONTINUOUS
 62
    7
 10
559.64043739414683
 20
301.76629586083089
 11
559.64043739414683
 21
284.26629586083084
  0
LINE
  8
_0-a_極細1
  6
CONTINUOUS
 62
    7
 10
559.64043739414683
 20
301.76629586083089
 11
693.40705811181874
 21
301.76629586083089
  0
LINE
  8
_0-a_極細1
  6
CONTINUOUS
 62
    7
 10
547.1404373941466
 20
284.26629586083084
 11
693.40705811181874
 21
284.26629586083084
  0
LINE
  8
_0-a_極細1
  6
CONTINUOUS
 62
    7
 10
547.1404373941466
 20
301.76629586083089
 11
559.64043739414683
 21
301.76629586083089
  0
LINE
  8
_0-a_極細1
  6
CONTINUOUS
 62
    7
 10
547.1404373941466
 20
300.51629586083089
 11
547.1404373941466
 21
301.76629586083089
  0
LINE
  8
_0-a_極細1
  6
CONTINUOUS
 62
    7
 10
559.6404373941466
 20
289.76992528191789
 11
554.13680797305938
 21
284.26629586083084
  0
LINE
  8
_0-a_極細1
  6
CONTINUOUS
 62
    7
 10
559.6404373941466
 20
296.13388631259676
 11
547.77284694238074
 21
284.26629586083084
  0
LINE
  8
_0-a_極細1
  6
CONTINUOUS
 62
    7
 10
547.1404373941466
 20
289.99784734327596
 11
558.90888591170187
 21
301.76629586083089
  0
LINE
  8
_0-a_極細1
  6
CONTINUOUS
 62
    7
 10
547.1404373941466
 20
296.36180837395489
 11
552.54492488102255
 21
301.76629586083084
  0
LINE
  8
_0-a_極細1
  6
CONTINUOUS
 62
    7
 10
559.64043739414683
 20
299.50231254657268
 11
557.37645407988839
 21
301.76629586083089
  0
LINE
  8
_0-a_極細1
  6
CONTINUOUS
 62
    7
 10
559.64043739414683
 20
293.13835151589376
 11
551.01249304920975
 21
301.76629586083089
  0
LINE
  8
_0-a_極細1
  6
CONTINUOUS
 62
    7
 10
559.64043739414683
 20
286.77439048521484
 11
547.1404373941466
 21
299.27439048521472
  0
LINE
  8
_0-a_極細1
  6
CONTINUOUS
 62
    7
 10
555.78457098785157
 20
284.26629586083084
 11
547.1404373941466
 21
292.91042945453597
  0
LINE
  8
_0-a_極細1
  6
CONTINUOUS
 62
    7
 10
549.42060995717293
 20
284.26629586083084
 11
547.1404373941466
 21
286.54646842385705
  0
LINE
  8
_0-a_極細1
  6
CONTINUOUS
 62
    7
 10
662.32414549460145
 20
284.26629586083084
 11
679.82414455441767
 21
301.76629492064751
  0
LINE
  8
_0-a_極細1
  6
CONTINUOUS
 62
    7
 10
630.50434034120644
 20
284.26629586083101
 11
648.00433964994613
 21
301.76629516957013
  0
LINE
  8
_0-a_極細1
  6
CONTINUOUS
 62
    7
 10
598.68453518781189
 20
284.26629586083084
 11
616.18453474547391
 21
301.7662954184928
  0
LINE
  8
_0-a_極細1
  6
CONTINUOUS
 62
    7
 10
566.86473003441733
 20
284.26629586083084
 11
584.36472984100237
 21
301.7662956674157
  0
LINE
  8
_0-a_極細1
  6
DASHED2
 62
    7
 10
678.23404807129907
 20
284.26629586083101
 11
693.40705811181874
 21
299.43930590135091
  0
LINE
  8
_0-a_極細1
  6
DASHED2
 62
    7
 10
646.41424291790372
 20
284.26629586083084
 11
663.91424210218202
 21
301.76629504510862
  0
LINE
  8
_0-a_極細1
  6
DASHED2
 62
    7
 10
614.59443776450917
 20
284.26629586083084
 11
632.09443719771002
 21
301.76629529403152
  0
LINE
  8
_0-a_極細1
  6
DASHED2
 62
    7
 10
582.77463261111461
 20
284.26629586083084
 11
600.2746322932378
 21
301.7662955429542
  0
LINE
  8
_0-a_極細1
  6
DASHED2
 62
    7
 10
559.6404373941466
 20
292.95190579725721
 11
568.45482738876626
 21
301.76629579187693
  0
CIRCLE
  8
_0-a_極細1
  6
CONTINUOUS
 62
    7
 10
587.06579658936903
 20
217.50891148582133
 40
0.8296296296296077
  0
CIRCLE
  8
_0-a_極細1
  6
CONTINUOUS
 62
    7
 10
620.39007642475963
 20
197.49409667100664
 40
0.8296296296296077
  0
LINE
  8
_0-b_細線1
  6
CONTINUOUS
 62
    7
 10
547.14043739414706
 20
274.26629586083089
 11
547.14043739414706
 21
186.76629586083095
  0
LINE
  8
_0-b_細線1
  6
CONTINUOUS
 62
    7
 10
547.14043739414706
 20
186.76629586083095
 11
552.89043739414706
 21
186.76629586083095
  0
LINE
  8
_0-b_細線1
  6
CONTINUOUS
 62
    7
 10
552.89043739414706
 20
186.76629586083095
 11
552.89043739414706
 21
274.26629586083089
  0
LINE
  8
_0-b_細線1
  6
CONTINUOUS
 62
    7
 10
552.89043739414706
 20
274.26629586083089
 11
547.14043739414706
 21
274.26629586083089
  0
LINE
  8
_0-a_極細1
  6
CONTINUOUS
 62
    7
 10
552.89043739414706
 20
234.26629586083092
 11
547.14043739414706
 21
234.26629586083092
  0
LINE
  8
_0-a_極細1
  6
CONTINUOUS
 62
    7
 10
552.89043739414706
 20
239.26629586083095
 11
547.14043739414706
 21
239.26629586083095
  0
LINE
  8
_0-a_極細1
  6
CONTINUOUS
 62
    7
 10
552.89043739414706
 20
229.26629586083084
 11
547.14043739414706
 21
229.26629586083084
  0
LINE
  8
_0-a_極細1
  6
CONTINUOUS
 62
    7
 10
552.89043739414706
 20
244.26629586083084
 11
547.14043739414706
 21
244.26629586083084
  0
LINE
  8
_0-a_極細1
  6
CONTINUOUS
 62
    7
 10
547.14043739414706
 20
194.26629586083095
 11
552.89043739414706
 21
194.26629586083095
  0
LINE
  8
_0-a_極細1
  6
CONTINUOUS
 62
    7
 10
552.89043739414706
 20
269.26629586083095
 11
547.14043739414706
 21
269.26629586083095
  0
LINE
  8
_0-7_枠細線
  6
CONTINUOUS
 62
    5
 10
572.40179237265875
 20
260.88540978552999
 11
564.90179237265875
 21
275.88540978552999
  0
LINE
  8
_0-7_枠細線
  6
CONTINUOUS
 62
    5
 10
557.40179237265875
 20
260.88540978552999
 11
572.40179237265875
 21
260.88540978552999
  0
LINE
  8
_0-7_枠細線
  6
CONTINUOUS
 62
    5
 10
564.90179237265875
 20
275.88540978552999
 11
557.40179237265875
 21
260.88540978552999
  0
TEXT
  8
_0-7_枠細線
 62
    5
 10
559.76694364080686
 20
259.93658982068007
 40
12.5
 41
0.8
 50
0
  1
５
  0
LINE
  8
_0-a_極細1
  6
CONTINUOUS
 62
    7
 10
510.89043739414558
 20
244.26629586083084
 11
509.64043739414598
 21
244.26629586083084
  0
CIRCLE
  8
_0-a_極細1
  6
CONTINUOUS
 62
    7
 10
518.61703115727096
 20
184.18113370804377
 40
0.8296296296296077
  0
CIRCLE
  8
_0-a_極細1
  6
CONTINUOUS
 62
    7
 10
519.61857436714627
 20
224.22789296730369
 40
2.7382972090220878
  0
ARC
  8
_0-b_細線1
  6
CONTINUOUS
 62
    7
 10
539.6404373941466
 20
251.76629586083084
 40
7.5
 50
269.99999999999977
 51
359.99999999999966
  0
LINE
  8
_0-b_細線1
  6
CONTINUOUS
 62
    7
 10
547.1404373941466
 20
251.76629586083084
 11
547.1404373941466
 21
300.51629586083089
  0
LINE
  8
_0-b_細線1
  6
CONTINUOUS
 62
    7
 10
539.6404373941466
 20
244.26629586083084
 11
510.89043739414558
 21
244.26629586083084
  0
LINE
  8
_0-b_細線1
  6
CONTINUOUS
 62
    7
 10
509.64043739414598
 20
245.51629586083092
 11
510.89043739414558
 21
244.26629586083084
  0
LINE
  8
_0-b_細線1
  6
CONTINUOUS
 62
    7
 10
509.64043739414598
 20
250.51629586083095
 11
509.64043739414598
 21
245.51629586083092
  0
LINE
  8
_0-b_細線1
  6
CONTINUOUS
 62
    7
 10
510.89043739414558
 20
251.76629586083084
 11
509.64043739414598
 21
250.51629586083095
  0
LINE
  8
_0-b_細線1
  6
CONTINUOUS
 62
    7
 10
539.6404373941466
 20
251.76629586083084
 11
510.89043739414558
 21
251.76629586083084
  0
LINE
  8
_0-b_細線1
  6
CONTINUOUS
 62
    7
 10
545.89043739414706
 20
301.76629586083089
 11
547.1404373941466
 21
300.51629586083089
  0
LINE
  8
_0-b_細線1
  6
CONTINUOUS
 62
    7
 10
540.89043739414683
 20
301.76629586083089
 11
545.89043739414706
 21
301.76629586083089
  0
LINE
  8
_0-b_細線1
  6
CONTINUOUS
 62
    7
 10
539.6404373941466
 20
300.51629586083089
 11
540.89043739414683
 21
301.76629586083089
  0
LINE
  8
_0-b_細線1
  6
CONTINUOUS
 62
    7
 10
539.6404373941466
 20
251.76629586083084
 11
539.6404373941466
 21
300.51629586083089
  0
LINE
  8
_0-d_寸法1
  6
CONTINUOUS
 62
    7
 10
359.64043739414598
 20
239.26629586083084
 11
359.64043739414598
 21
148.54925800947285
  0
LINE
  8
_0-d_寸法1
  6
CONTINUOUS
 62
    7
 10
359.64043739414598
 20
153.54925800947285
 11
369.29969565703664
 21
156.13744846049804
  0
LINE
  8
_0-d_寸法1
  6
CONTINUOUS
 62
    7
 10
359.64043739414598
 20
153.54925800947285
 11
369.29969565703664
 21
150.96106755844767
  0
LINE
  8
_0-d_寸法1
  6
CONTINUOUS
 62
    7
 10
509.64043739414598
 20
239.26629586083084
 11
509.64043739414598
 21
148.54925800947285
  0
LINE
  8
_0-d_寸法1
  6
CONTINUOUS
 62
    7
 10
509.64043739414598
 20
153.54925800947285
 11
499.98117913125526
 21
150.96106755844767
  0
LINE
  8
_0-d_寸法1
  6
CONTINUOUS
 62
    7
 10
509.64043739414598
 20
153.54925800947285
 11
499.98117913125532
 21
156.13744846049812
  0
LINE
  8
_0-d_寸法1
  6
CONTINUOUS
 62
    7
 10
359.64043739414598
 20
153.54925800947285
 11
509.64043739414598
 21
153.54925800947285
  0
TEXT
  8
_0-d_寸法1
 62
    7
 10
427.1404373941462
 20
153.54925800947285
 40
15
 41
1
 50
0
  1
60
  0
LINE
  8
_0-d_寸法1
  6
CONTINUOUS
 62
    7
 10
547.14043739414717
 20
176.76629586083095
 11
547.14043739414728
 21
148.54925800947285
  0
LINE
  8
_0-d_寸法1
  6
CONTINUOUS
 62
    7
 10
547.14043739414728
 20
153.54925800947285
 11
537.48117913125657
 21
150.96106755844767
  0
LINE
  8
_0-d_寸法1
  6
CONTINUOUS
 62
    7
 10
547.14043739414728
 20
153.54925800947285
 11
537.48117913125657
 21
156.13744846049804
  0
LINE
  8
_0-d_寸法1
  6
CONTINUOUS
 62
    7
 10
509.64043739414677
 20
234.26629586083084
 11
509.6404373941474
 21
148.54925800947285
  0
LINE
  8
_0-d_寸法1
  6
CONTINUOUS
 62
    7
 10
509.64043739414734
 20
153.54925800947285
 11
519.299695657038
 21
156.13744846049812
  0
LINE
  8
_0-d_寸法1
  6
CONTINUOUS
 62
    7
 10
509.64043739414734
 20
153.54925800947285
 11
519.299695657038
 21
150.96106755844767
  0
LINE
  8
_0-d_寸法1
  6
CONTINUOUS
 62
    7
 10
547.14043739414728
 20
153.54925800947285
 11
509.64043739414734
 21
153.54925800947285
  0
TEXT
  8
_0-d_寸法1
 62
    7
 10
520.89043739414728
 20
153.54925800947285
 40
15
 41
1
 50
0
  1
15
  0
CIRCLE
  8
_0-a_極細1
  6
CONTINUOUS
 62
    7
 10
540.03688259808973
 20
235.02996446507879
 40
0.8296296296296077
  0
CIRCLE
  8
_0-a_極細1
  6
CONTINUOUS
 62
    7
 10
531.56280852401574
 20
222.40858228045042
 40
0.8296296296296077
  0
ARC
  8
_0-b_細線1
  6
CONTINUOUS
 62
    7
 10
335.89043662971699
 20
296.76629586083084
 40
2.4999999999999996
 50
89.999999999999915
 51
179.99999999999983
  0
ARC
  8
_0-b_細線1
  6
CONTINUOUS
 62
    7
 10
337.06030960803605
 20
301.76629586083106
 40
2.4999999999999996
 50
269.99999999999977
 51
329.99999999998744
  0
ARC
  8
_0-b_細線1
  6
CONTINUOUS
 62
    7
 10
341.39043662695758
 20
299.26629586083129
 40
2.4999999999999996
 50
89.999999999999915
 51
150.00000000000915
  0
LINE
  8
_0-b_細線1
  6
CONTINUOUS
 62
    7
 10
335.89043662971699
 20
299.26629586083129
 11
337.06030960803605
 21
299.26629586083129
  0
ARC
  8
_0-b_細線1
  6
CONTINUOUS
 62
    7
 10
359.39043662419908
 20
296.76629586083084
 40
2.4999999999999996
 50
0
 51
89.999999999999915
  0
ARC
  8
_0-b_細線1
  6
CONTINUOUS
 62
    7
 10
358.22056364588002
 20
301.76629586083106
 40
2.4999999999999996
 50
210.00000000000404
 51
269.99999999999977
  0
ARC
  8
_0-b_細線1
  6
CONTINUOUS
 62
    7
 10
353.89043662695849
 20
299.26629586083129
 40
2.4999999999999996
 50
29.999999999998682
 51
89.999999999999915
  0
LINE
  8
_0-b_細線1
  6
CONTINUOUS
 62
    7
 10
359.39043662419908
 20
299.26629586083129
 11
358.22056364588002
 21
299.26629586083129
  0
ARC
  8
_0-b_細線1
  6
CONTINUOUS
 62
    7
 10
334.64043662971739
 20
293.26629586083129
 40
1.2499999999999998
 50
179.99999999999983
 51
269.99999999999977
  0
LINE
  8
_0-b_細線1
  6
CONTINUOUS
 62
    7
 10
333.39043662971721
 20
296.76629586083084
 11
333.39043662971721
 21
293.26629586083129
  0
ARC
  8
_0-b_細線1
  6
CONTINUOUS
 62
    7
 10
360.64043662419857
 20
293.26629586083129
 40
1.2499999999999998
 50
269.99999999999977
 51
359.99999999999966
  0
LINE
  8
_0-b_細線1
  6
CONTINUOUS
 62
    7
 10
361.89043662419886
 20
296.76629586083084
 11
361.89043662419886
 21
293.26629586083129
  0
ARC
  8
_0-b_細線1
  6
CONTINUOUS
 62
    7
 10
340.89043662971721
 20
289.51629586083129
 40
2.4999999999999996
 50
0
 51
89.999999999999915
  0
LINE
  8
_0-b_細線1
  6
CONTINUOUS
 62
    7
 10
340.89043662971721
 20
292.01629586083106
 11
334.64043662971739
 21
292.01629586083106
  0
ARC
  8
_0-b_細線1
  6
CONTINUOUS
 62
    7
 10
354.39043662971721
 20
289.51629586083129
 40
2.4999999999999996
 50
89.999999999999915
 51
179.99999999999983
  0
LINE
  8
_0-b_細線1
  6
CONTINUOUS
 62
    7
 10
354.39043662419886
 20
292.01629586083106
 11
360.64043662419857
 21
292.01629586083106
  0
LINE
  8
_0-b_細線1
  6
CONTINUOUS
 62
    7
 10
353.89043662695849
 20
301.76629586083106
 11
341.39043662695758
 21
301.76629586083106
  0
LINE
  8
_0-b_細線1
  6
CONTINUOUS
 62
    7
 10
343.39043662695781
 20
251.76629586083084
 11
343.39043662971699
 21
289.51629586083129
  0
LINE
  8
_0-b_細線1
  6
CONTINUOUS
 62
    7
 10
351.89043662695826
 20
251.76629586083084
 11
351.89043662971744
 21
289.51629586083129
  0
LINE
  8
_0-b_細線1
  6
CONTINUOUS
 62
    7
 10
351.89043662695826
 20
251.76629586083084
 11
343.39043662695781
 21
251.76629586083084
  0
ARC
  8
_0-b_細線1
  6
CONTINUOUS
 62
    7
 10
379.39043663062142
 20
296.76629586083084
 40
2.4999999999999996
 50
89.999999999999915
 51
179.99999999999983
  0
ARC
  8
_0-b_細線1
  6
CONTINUOUS
 62
    7
 10
380.56030960893986
 20
301.76629586083106
 40
2.4999999999999996
 50
269.99999999999977
 51
329.99999999999523
  0
ARC
  8
_0-b_細線1
  6
CONTINUOUS
 62
    7
 10
384.89043662786202
 20
299.26629586083129
 40
2.4999999999999996
 50
89.999999999999915
 51
150.00000000000915
  0
LINE
  8
_0-b_細線1
  6
CONTINUOUS
 62
    7
 10
379.39043663062142
 20
299.26629586083129
 11
380.56030960893986
 21
299.26629586083129
  0
ARC
  8
_0-b_細線1
  6
CONTINUOUS
 62
    7
 10
402.89043662510352
 20
296.76629586083084
 40
2.4999999999999996
 50
0
 51
89.999999999999915
  0
ARC
  8
_0-b_細線1
  6
CONTINUOUS
 62
    7
 10
401.72056364678519
 20
301.76629586083106
 40
2.4999999999999996
 50
209.99999999999622
 51
269.99999999999977
  0
ARC
  8
_0-b_細線1
  6
CONTINUOUS
 62
    7
 10
397.3904366278623
 20
299.26629586083129
 40
2.4999999999999996
 50
29.999999999990862
 51
89.999999999984354
  0
LINE
  8
_0-b_細線1
  6
CONTINUOUS
 62
    7
 10
402.89043662510352
 20
299.26629586083129
 11
401.72056364678519
 21
299.26629586083129
  0
ARC
  8
_0-b_細線1
  6
CONTINUOUS
 62
    7
 10
378.14043663062125
 20
293.26629586083129
 40
1.2499999999999998
 50
179.99999999999983
 51
269.99999999999977
  0
LINE
  8
_0-b_細線1
  6
CONTINUOUS
 62
    7
 10
376.89043663062102
 20
296.76629586083084
 11
376.89043663062102
 21
293.26629586083129
  0
ARC
  8
_0-b_細線1
  6
CONTINUOUS
 62
    7
 10
404.14043662510312
 20
293.26629586083129
 40
1.2499999999999998
 50
269.99999999999977
 51
359.99999999999966
  0
LINE
  8
_0-b_細線1
  6
CONTINUOUS
 62
    7
 10
405.39043662510403
 20
296.76629586083084
 11
405.39043662510403
 21
293.26629586083129
  0
ARC
  8
_0-b_細線1
  6
CONTINUOUS
 62
    7
 10
384.39043663062102
 20
289.51629586083129
 40
2.4999999999999996
 50
0
 51
89.999999999999915
  0
LINE
  8
_0-b_細線1
  6
CONTINUOUS
 62
    7
 10
384.39043663062102
 20
292.01629586083106
 11
378.14043663062125
 21
292.01629586083106
  0
ARC
  8
_0-b_細線1
  6
CONTINUOUS
 62
    7
 10
397.89043663062165
 20
289.51629586083129
 40
2.4999999999999996
 50
89.999999999999915
 51
179.99999999999983
  0
LINE
  8
_0-b_細線1
  6
CONTINUOUS
 62
    7
 10
397.89043662510329
 20
292.01629586083106
 11
404.14043662510312
 21
292.01629586083106
  0
LINE
  8
_0-b_細線1
  6
CONTINUOUS
 62
    7
 10
397.3904366278623
 20
301.76629586083106
 11
384.89043662786202
 21
301.76629586083106
  0
LINE
  8
_0-b_細線1
  6
CONTINUOUS
 62
    7
 10
386.89043662786298
 20
251.76629586083084
 11
386.89043663062142
 21
289.51629586083129
  0
LINE
  8
_0-b_細線1
  6
CONTINUOUS
 62
    7
 10
395.39043662786207
 20
251.76629586083084
 11
395.39043663062188
 21
289.51629586083129
  0
LINE
  8
_0-b_細線1
  6
CONTINUOUS
 62
    7
 10
395.39043662786207
 20
251.76629586083084
 11
386.89043662786298
 21
251.76629586083084
  0
ARC
  8
_0-b_細線1
  6
CONTINUOUS
 62
    7
 10
422.89043663152597
 20
296.76629586083084
 40
2.4999999999999996
 50
89.999999999999915
 51
179.99999999999983
  0
ARC
  8
_0-b_細線1
  6
CONTINUOUS
 62
    7
 10
424.0603096098443
 20
301.76629586083106
 40
2.4999999999999996
 50
269.99999999999977
 51
329.99999999999523
  0
ARC
  8
_0-b_細線1
  6
CONTINUOUS
 62
    7
 10
428.39043662876657
 20
299.26629586083129
 40
2.4999999999999996
 50
89.999999999999915
 51
150.00000000000915
  0
LINE
  8
_0-b_細線1
  6
CONTINUOUS
 62
    7
 10
422.89043663152597
 20
299.26629586083129
 11
424.0603096098443
 21
299.26629586083129
  0
ARC
  8
_0-b_細線1
  6
CONTINUOUS
 62
    7
 10
446.39043662600807
 20
296.76629586083084
 40
2.4999999999999996
 50
0
 51
89.999999999999915
  0
ARC
  8
_0-b_細線1
  6
CONTINUOUS
 62
    7
 10
445.22056364768963
 20
301.76629586083106
 40
2.4999999999999996
 50
209.99999999999622
 51
269.99999999999977
  0
ARC
  8
_0-b_細線1
  6
CONTINUOUS
 62
    7
 10
440.89043662876679
 20
299.26629586083129
 40
2.4999999999999996
 50
29.999999999990862
 51
89.999999999984354
  0
LINE
  8
_0-b_細線1
  6
CONTINUOUS
 62
    7
 10
446.39043662600807
 20
299.26629586083129
 11
445.22056364768963
 21
299.26629586083129
  0
ARC
  8
_0-b_細線1
  6
CONTINUOUS
 62
    7
 10
421.64043663152569
 20
293.26629586083129
 40
1.2499999999999998
 50
179.99999999999983
 51
269.99999999999977
  0
LINE
  8
_0-b_細線1
  6
CONTINUOUS
 62
    7
 10
420.39043663152546
 20
296.76629586083084
 11
420.39043663152546
 21
293.26629586083129
  0
ARC
  8
_0-b_細線1
  6
CONTINUOUS
 62
    7
 10
447.6404366260083
 20
293.26629586083129
 40
1.2499999999999998
 50
269.99999999999977
 51
359.99999999999966
  0
LINE
  8
_0-b_細線1
  6
CONTINUOUS
 62
    7
 10
448.89043662600847
 20
296.76629586083084
 11
448.89043662600847
 21
293.26629586083129
  0
ARC
  8
_0-b_細線1
  6
CONTINUOUS
 62
    7
 10
427.89043663152546
 20
289.51629586083129
 40
2.4999999999999996
 50
0
 51
89.999999999999915
  0
LINE
  8
_0-b_細線1
  6
CONTINUOUS
 62
    7
 10
427.89043663152546
 20
292.01629586083106
 11
421.64043663152569
 21
292.01629586083106
  0
ARC
  8
_0-b_細線1
  6
CONTINUOUS
 62
    7
 10
441.39043663152552
 20
289.51629586083129
 40
2.4999999999999996
 50
89.999999999999915
 51
179.99999999999983
  0
LINE
  8
_0-b_細線1
  6
CONTINUOUS
 62
    7
 10
441.39043662600716
 20
292.01629586083106
 11
447.6404366260083
 21
292.01629586083106
  0
LINE
  8
_0-b_細線1
  6
CONTINUOUS
 62
    7
 10
440.89043662876679
 20
301.76629586083106
 11
428.39043662876657
 21
301.76629586083106
  0
LINE
  8
_0-b_細線1
  6
CONTINUOUS
 62
    7
 10
430.39043662876742
 20
251.76629586083084
 11
430.39043663152597
 21
289.51629586083129
  0
LINE
  8
_0-b_細線1
  6
CONTINUOUS
 62
    7
 10
438.89043662876651
 20
251.76629586083084
 11
438.89043663152643
 21
289.51629586083129
  0
LINE
  8
_0-b_細線1
  6
CONTINUOUS
 62
    7
 10
438.89043662876651
 20
251.76629586083084
 11
430.39043662876742
 21
251.76629586083084
  0
ARC
  8
_0-b_細線1
  6
CONTINUOUS
 62
    7
 10
466.39043663243058
 20
296.76629586083084
 40
2.4999999999999996
 50
89.999999999999915
 51
179.99999999999983
  0
ARC
  8
_0-b_細線1
  6
CONTINUOUS
 62
    7
 10
467.5603096107489
 20
301.76629586083106
 40
2.4999999999999996
 50
269.99999999999977
 51
330.00000000000301
  0
ARC
  8
_0-b_細線1
  6
CONTINUOUS
 62
    7
 10
471.89043662967117
 20
299.26629586083129
 40
2.4999999999999996
 50
89.999999999999915
 51
150.00000000000134
  0
LINE
  8
_0-b_細線1
  6
CONTINUOUS
 62
    7
 10
466.39043663243058
 20
299.26629586083129
 11
467.5603096107489
 21
299.26629586083129
  0
ARC
  8
_0-b_細線1
  6
CONTINUOUS
 62
    7
 10
489.89043662691267
 20
296.76629586083084
 40
2.4999999999999996
 50
0
 51
89.999999999999915
  0
ARC
  8
_0-b_細線1
  6
CONTINUOUS
 62
    7
 10
488.72056364859361
 20
301.76629586083106
 40
2.4999999999999996
 50
210.00000000000404
 51
269.99999999999977
  0
ARC
  8
_0-b_細線1
  6
CONTINUOUS
 62
    7
 10
484.3904366296714
 20
299.26629586083129
 40
2.4999999999999996
 50
29.999999999990862
 51
89.999999999984354
  0
LINE
  8
_0-b_細線1
  6
CONTINUOUS
 62
    7
 10
489.89043662691267
 20
299.26629586083129
 11
488.72056364859361
 21
299.26629586083129
  0
ARC
  8
_0-b_細線1
  6
CONTINUOUS
 62
    7
 10
465.14043663243029
 20
293.26629586083129
 40
1.2499999999999998
 50
179.99999999999983
 51
269.99999999999977
  0
LINE
  8
_0-b_細線1
  6
CONTINUOUS
 62
    7
 10
463.89043663243007
 20
296.76629586083084
 11
463.89043663243007
 21
293.26629586083129
  0
ARC
  8
_0-b_細線1
  6
CONTINUOUS
 62
    7
 10
491.14043662691216
 20
293.26629586083129
 40
1.2499999999999998
 50
269.99999999999977
 51
359.99999999999966
  0
LINE
  8
_0-b_細線1
  6
CONTINUOUS
 62
    7
 10
492.39043662691245
 20
296.76629586083084
 11
492.39043662691245
 21
293.26629586083129
  0
ARC
  8
_0-b_細線1
  6
CONTINUOUS
 62
    7
 10
471.39043663243007
 20
289.51629586083129
 40
2.4999999999999996
 50
0
 51
89.999999999999915
  0
LINE
  8
_0-b_細線1
  6
CONTINUOUS
 62
    7
 10
471.39043663243007
 20
292.01629586083106
 11
465.14043663243029
 21
292.01629586083106
  0
ARC
  8
_0-b_細線1
  6
CONTINUOUS
 62
    7
 10
484.89043663243081
 20
289.51629586083129
 40
2.4999999999999996
 50
89.999999999999915
 51
179.99999999999983
  0
LINE
  8
_0-b_細線1
  6
CONTINUOUS
 62
    7
 10
484.89043662691245
 20
292.01629586083106
 11
491.14043662691216
 21
292.01629586083106
  0
LINE
  8
_0-b_細線1
  6
CONTINUOUS
 62
    7
 10
484.3904366296714
 20
301.76629586083106
 11
471.89043662967117
 21
301.76629586083106
  0
LINE
  8
_0-b_細線1
  6
CONTINUOUS
 62
    7
 10
473.8904366296714
 20
251.76629586083084
 11
473.89043663243058
 21
289.51629586083129
  0
LINE
  8
_0-b_細線1
  6
CONTINUOUS
 62
    7
 10
482.39043662967111
 20
251.76629586083084
 11
482.39043663243103
 21
289.51629586083129
  0
LINE
  8
_0-b_細線1
  6
CONTINUOUS
 62
    7
 10
482.39043662967111
 20
251.76629586083084
 11
473.8904366296714
 21
251.76629586083084
  0
ARC
  8
_0-b_細線1
  6
CONTINUOUS
 62
    7
 10
509.89043663333507
 20
296.76629586083084
 40
2.4999999999999996
 50
89.999999999999915
 51
179.99999999999983
  0
ARC
  8
_0-b_細線1
  6
CONTINUOUS
 62
    7
 10
511.06030961165345
 20
301.76629586083106
 40
2.4999999999999996
 50
269.99999999999977
 51
329.9999999999946
  0
ARC
  8
_0-b_細線1
  6
CONTINUOUS
 62
    7
 10
515.39043663057555
 20
299.26629586083129
 40
2.4999999999999996
 50
89.999999999999915
 51
150.00000000000915
  0
LINE
  8
_0-b_細線1
  6
CONTINUOUS
 62
    7
 10
509.89043663333507
 20
299.26629586083129
 11
511.06030961165345
 21
299.26629586083129
  0
ARC
  8
_0-b_細線1
  6
CONTINUOUS
 62
    7
 10
533.39043662781705
 20
296.76629586083084
 40
2.4999999999999996
 50
0
 51
89.999999999999915
  0
ARC
  8
_0-b_細線1
  6
CONTINUOUS
 62
    7
 10
532.22056364949799
 20
301.76629586083106
 40
2.4999999999999996
 50
209.99999999999622
 51
269.99999999999977
  0
ARC
  8
_0-b_細線1
  6
CONTINUOUS
 62
    7
 10
527.89043663057578
 20
299.26629586083129
 40
2.4999999999999996
 50
29.999999999998682
 51
89.999999999999915
  0
LINE
  8
_0-b_細線1
  6
CONTINUOUS
 62
    7
 10
533.39043662781705
 20
299.26629586083129
 11
532.22056364949799
 21
299.26629586083129
  0
ARC
  8
_0-b_細線1
  6
CONTINUOUS
 62
    7
 10
508.64043663333547
 20
293.26629586083129
 40
1.2499999999999998
 50
179.99999999999983
 51
269.99999999999977
  0
LINE
  8
_0-b_細線1
  6
CONTINUOUS
 62
    7
 10
507.39043663333462
 20
296.76629586083084
 11
507.39043663333462
 21
293.26629586083129
  0
ARC
  8
_0-b_細線1
  6
CONTINUOUS
 62
    7
 10
534.6404366278166
 20
293.26629586083129
 40
1.2499999999999998
 50
269.99999999999977
 51
359.99999999999966
  0
LINE
  8
_0-b_細線1
  6
CONTINUOUS
 62
    7
 10
535.89043662781683
 20
296.76629586083084
 11
535.89043662781683
 21
293.26629586083129
  0
ARC
  8
_0-b_細線1
  6
CONTINUOUS
 62
    7
 10
514.8904366333345
 20
289.51629586083129
 40
2.4999999999999996
 50
0
 51
89.999999999999915
  0
LINE
  8
_0-b_細線1
  6
CONTINUOUS
 62
    7
 10
514.8904366333345
 20
292.01629586083106
 11
508.64043663333547
 21
292.01629586083106
  0
ARC
  8
_0-b_細線1
  6
CONTINUOUS
 62
    7
 10
528.39043663333518
 20
289.51629586083129
 40
2.4999999999999996
 50
89.999999999999915
 51
179.99999999999983
  0
LINE
  8
_0-b_細線1
  6
CONTINUOUS
 62
    7
 10
528.39043662781683
 20
292.01629586083106
 11
534.6404366278166
 21
292.01629586083106
  0
LINE
  8
_0-b_細線1
  6
CONTINUOUS
 62
    7
 10
527.89043663057578
 20
301.76629586083106
 11
515.39043663057555
 21
301.76629586083106
  0
LINE
  8
_0-b_細線1
  6
CONTINUOUS
 62
    7
 10
517.39043663057578
 20
251.76629586083084
 11
517.39043663333496
 21
289.51629586083129
  0
LINE
  8
_0-b_細線1
  6
CONTINUOUS
 62
    7
 10
525.89043663057555
 20
251.76629586083084
 11
525.89043663333541
 21
289.51629586083129
  0
LINE
  8
_0-b_細線1
  6
CONTINUOUS
 62
    7
 10
525.89043663057555
 20
251.76629586083084
 11
517.39043663057578
 21
251.76629586083084
  0
LINE
  8
_0-a_極細1
  6
CENTER1
 62
    7
 10
434.64043662876696
 20
309.53068782403983
 11
434.64043662876696
 21
228.25392117023185
  0
LINE
  8
_0-d_寸法1
  6
CONTINUOUS
 62
    7
 10
425.98018259092265
 20
306.76629586083112
 11
371.10279298292687
 21
338.44977152343199
  0
LINE
  8
_0-d_寸法1
  6
CONTINUOUS
 62
    7
 10
375.43292000184908
 20
335.94977152343199
 11
378.02111045287415
 21
326.29051326054127
  0
LINE
  8
_0-d_寸法1
  6
CONTINUOUS
 62
    7
 10
375.43292000184908
 20
335.94977152343199
 11
372.84472955082379
 21
326.29051326054133
  0
LINE
  8
_0-d_寸法1
  6
CONTINUOUS
 62
    7
 10
425.98018259092265
 20
256.76629586083089
 11
371.10279298292687
 21
288.44977152343165
  0
LINE
  8
_0-d_寸法1
  6
CONTINUOUS
 62
    7
 10
375.43292000184908
 20
285.94977152343165
 11
372.84472955082379
 21
295.60902978632231
  0
LINE
  8
_0-d_寸法1
  6
CONTINUOUS
 62
    7
 10
375.43292000184908
 20
285.94977152343165
 11
378.02111045287427
 21
295.60902978632231
  0
LINE
  8
_0-d_寸法1
  6
CONTINUOUS
 62
    7
 10
375.43292000184908
 20
335.94977152343199
 11
375.43292000184908
 21
285.94977152343165
  0
TEXT
  8
_0-d_寸法1
 62
    7
 10
375.43292000184908
 20
303.44977152343182
 40
15
 41
1
 50
90
  1
20
  0
LINE
  8
_0-b_細線1
  6
CONTINUOUS
 62
    7
 10
351.89043662833819
 20
290.01629586083106
 11
386.89043662833768
 21
290.01629586083106
  0
LINE
  8
_0-b_細線1
  6
CONTINUOUS
 62
    7
 10
395.390436629242
 20
290.01629586083106
 11
430.39043662924223
 21
290.01629586083106
  0
LINE
  8
_0-b_細線1
  6
CONTINUOUS
 62
    7
 10
482.3904366310511
 20
290.01629586083106
 11
517.39043663105122
 21
290.01629586083106
  0
LINE
  8
_0-a_極細1
  6
CENTER1
 62
    7
 10
544.32084856866936
 20
273.76629586083106
 11
324.71792934448661
 21
273.76629586083106
  0
LINE
  8
_0-b_細線1
  6
CONTINUOUS
 62
    7
 10
351.89043662833802
 20
257.51629586083061
 11
386.89043662833745
 21
257.51629586083061
  0
LINE
  8
_0-b_細線1
  6
CONTINUOUS
 62
    7
 10
395.39043662924172
 20
257.51629586083061
 11
430.390436629242
 21
257.51629586083061
  0
LINE
  8
_0-b_細線1
  6
CONTINUOUS
 62
    7
 10
482.39043663105144
 20
257.51629586083061
 11
517.39043663105099
 21
257.51629586083061
  0
LINE
  8
_0-b_細線1
  6
CONTINUOUS
 62
    7
 10
438.8904366301465
 20
290.01629586083106
 11
450.51543663059874
 21
290.01629586083106
  0
LINE
  8
_0-b_細線1
  6
CONTINUOUS
 62
    7
 10
462.26543663059874
 20
290.01629586083106
 11
473.89043663014684
 21
290.01629586083106
  0
LINE
  8
_0-b_細線1
  6
CONTINUOUS
 62
    7
 10
438.89043662915037
 20
257.51629586083061
 11
450.51543663059874
 21
257.51629586083061
  0
LINE
  8
_0-b_細線1
  6
CONTINUOUS
 62
    7
 10
462.26543663059874
 20
257.51629586083061
 11
473.8904366301465
 21
257.51629586083061
  0
LINE
  8
_0-b_細線1
  6
CONTINUOUS
 62
    7
 10
462.26543663059874
 20
301.26629586082652
 11
462.26543663059874
 21
253.76629586082541
  0
LINE
  8
_0-b_細線1
  6
CONTINUOUS
 62
    7
 10
450.51543663059783
 20
253.76629586082541
 11
450.51543663059783
 21
301.26629586082652
  0
LINE
  8
_0-b_細線1
  6
CONTINUOUS
 62
    7
 10
462.26543663059874
 20
253.76629586082541
 11
450.51543663059783
 21
253.76629586082541
  0
LINE
  8
_0-b_細線1
  6
CONTINUOUS
 62
    7
 10
450.51543663059783
 20
301.26629586082652
 11
462.26543663059874
 21
301.26629586082652
  0
LINE
  8
_0-b_細線1
  6
DASHED2
 62
    7
 10
450.51543663059783
 20
261.26629586082538
 11
462.26543663059874
 21
261.26629586082538
  0
LINE
  8
_0-b_細線1
  6
DASHED2
 62
    7
 10
450.51543663059783
 20
295.01629586082629
 11
462.26543663059874
 21
295.01629586082629
  0
CIRCLE
  8
_0-a_極細1
  6
CONTINUOUS
 62
    7
 10
577.55105223740702
 20
169.0748911396733
 40
0.8296296296296077
  0
CIRCLE
  8
_0-a_極細1
  6
CONTINUOUS
 62
    7
 10
576.3510522374072
 20
191.07489113967313
 40
0.8296296296296077
  0
CIRCLE
  8
_0-a_極細1
  6
CONTINUOUS
 62
    7
 10
574.12605223740684
 20
179.33831706559957
 40
2.7382972090220878
  0
LINE
  8
_0-a_極細1
  6
CONTINUOUS
 62
    7
 10
359.64043739414598
 20
244.26629586083084
 11
359.64043739414598
 21
115.39301645030278
  0
LINE
  8
_0-a_極細1
  6
CONTINUOUS
 62
    7
 10
509.64043739414598
 20
244.26629586083084
 11
509.64043739414598
 21
115.39301645030278
  0
LINE
  8
_0-b_細線1
  6
CONTINUOUS
 62
    7
 10
340.8904366283374
 20
273.76629586083038
 11
333.37914662833788
 21
273.76629586083038
  0
LINE
  8
_0-b_細線1
  6
CONTINUOUS
 62
    7
 10
340.8904366283374
 20
265.01629586083152
 11
333.37911662833869
 21
265.01629586083152
  0
ARC
  8
_0-b_細線1
  6
CONTINUOUS
 62
    7
 10
333.37911662833869
 20
265.51629586083106
 40
0.5000000000000002
 50
179.99999999999983
 51
269.99999999999977
  0
ARC
  8
_0-b_細線1
  6
CONTINUOUS
 62
    7
 10
352.27406662833766
 20
269.39093086083187
 40
19.394889999999997
 50
166.96197800000462
 51
193.0356700000001
  0
ARC
  8
_0-b_細線1
  6
CONTINUOUS
 62
    7
 10
333.37911662833869
 20
282.01629586083175
 40
0.5000000000000002
 50
89.999999999999915
 51
179.99999999999983
  0
ARC
  8
_0-b_細線1
  6
CONTINUOUS
 62
    7
 10
352.27406662833766
 20
278.14165586083061
 40
19.394889999999997
 50
166.96432999999956
 51
193.03802199999899
  0
LINE
  8
_0-b_細線1
  6
CONTINUOUS
 62
    7
 10
340.8904366283374
 20
282.51629586083129
 11
333.37911662833869
 21
282.51629586083129
  0
LINE
  8
_0-b_細線1
  6
CONTINUOUS
 62
    7
 10
332.87911662833773
 20
265.51629586083106
 11
332.87911662833773
 21
282.01629586083175
  0
ARC
  8
_0-b_細線1
  6
CONTINUOUS
 62
    7
 10
341.39043662833831
 20
258.01629586083106
 40
0.5000000000000002
 50
179.99999999999983
 51
269.99999999999977
  0
ARC
  8
_0-b_細線1
  6
CONTINUOUS
 62
    7
 10
341.39043662833831
 20
289.51629586083038
 40
0.5000000000000002
 50
89.999999999999915
 51
179.99999999999983
  0
LINE
  8
_0-b_細線1
  6
CONTINUOUS
 62
    7
 10
340.8904366283374
 20
272.51629586083084
 11
340.8904366283374
 21
258.01629586083106
  0
LINE
  8
_0-b_細線1
  6
CONTINUOUS
 62
    7
 10
340.8904366283374
 20
289.51629586083038
 11
340.8904366283374
 21
272.51629586083084
  0
LINE
  8
_0-b_細線1
  6
CONTINUOUS
 62
    7
 10
343.39043662737811
 20
257.51629586083084
 11
341.39043662833831
 21
257.51629586083084
  0
LINE
  8
_0-b_細線1
  6
CONTINUOUS
 62
    7
 10
343.39043662975342
 20
290.01629586083129
 11
341.39043662833831
 21
290.01629586083129
  0
LINE
  8
_0-b_細線1
  6
CONTINUOUS
 62
    7
 10
528.39043662919653
 20
273.76629586083038
 11
535.90172662919599
 21
273.76629586083038
  0
LINE
  8
_0-b_細線1
  6
CONTINUOUS
 62
    7
 10
528.39043662919653
 20
265.01629586083152
 11
535.90175662919523
 21
265.01629586083152
  0
ARC
  8
_0-b_細線1
  6
CONTINUOUS
 62
    7
 10
535.90175662919523
 20
265.51629586083106
 40
0.5000000000000002
 50
269.99999999999977
 51
359.99999999999966
  0
ARC
  8
_0-b_細線1
  6
CONTINUOUS
 62
    7
 10
517.00680662919626
 20
269.39093086083187
 40
19.394889999999997
 50
346.96432999999922
 51
13.038021999995031
  0
ARC
  8
_0-b_細線1
  6
CONTINUOUS
 62
    7
 10
535.90175662919523
 20
282.01629586083175
 40
0.5000000000000002
 50
0
 51
89.999999999999915
  0
ARC
  8
_0-b_細線1
  6
CONTINUOUS
 62
    7
 10
517.00680662919626
 20
278.14165586083061
 40
19.394889999999997
 50
346.96197800000027
 51
13.035670000000083
  0
LINE
  8
_0-b_細線1
  6
CONTINUOUS
 62
    7
 10
528.39043662919653
 20
282.51629586083129
 11
535.90175662919523
 21
282.51629586083129
  0
LINE
  8
_0-b_細線1
  6
CONTINUOUS
 62
    7
 10
536.40175662919614
 20
265.51629586083106
 11
536.40175662919614
 21
282.01629586083175
  0
ARC
  8
_0-b_細線1
  6
CONTINUOUS
 62
    7
 10
527.89043662919562
 20
258.01629586083106
 40
0.5000000000000002
 50
269.99999999999977
 51
359.99999999999966
  0
ARC
  8
_0-b_細線1
  6
CONTINUOUS
 62
    7
 10
527.89043662919562
 20
289.51629586083038
 40
0.5000000000000002
 50
0
 51
89.999999999999915
  0
LINE
  8
_0-b_細線1
  6
CONTINUOUS
 62
    7
 10
528.39043662919653
 20
272.51629586083084
 11
528.39043662919653
 21
258.01629586083106
  0
LINE
  8
_0-b_細線1
  6
CONTINUOUS
 62
    7
 10
528.39043662919653
 20
289.51629586083038
 11
528.39043662919653
 21
272.51629586083084
  0
LINE
  8
_0-b_細線1
  6
CONTINUOUS
 62
    7
 10
525.89043663015582
 20
257.51629586083084
 11
527.89043662919562
 21
257.51629586083084
  0
LINE
  8
_0-b_細線1
  6
CONTINUOUS
 62
    7
 10
525.89043662778045
 20
290.01629586083129
 11
527.89043662919562
 21
290.01629586083129
  0
LINE
  8
_0-d_寸法1
  6
CONTINUOUS
 62
    7
 10
312.14043739414592
 20
301.76629586083095
 11
267.14043739414581
 21
301.76629586083089
  0
LINE
  8
_0-d_寸法1
  6
CONTINUOUS
 62
    7
 10
272.14043739414581
 20
301.76629586083089
 11
274.72862784517088
 21
292.10703759794018
  0
LINE
  8
_0-d_寸法1
  6
CONTINUOUS
 62
    7
 10
272.14043739414581
 20
301.76629586083089
 11
269.55224694312051
 21
292.10703759794023
  0
LINE
  8
_0-d_寸法1
  6
CONTINUOUS
 62
    7
 10
306.39043739414603
 20
244.26629586083089
 11
267.14043739414581
 21
244.26629586083089
  0
LINE
  8
_0-d_寸法1
  6
CONTINUOUS
 62
    7
 10
272.14043739414581
 20
244.26629586083084
 11
269.55224694312051
 21
253.92555412372155
  0
LINE
  8
_0-d_寸法1
  6
CONTINUOUS
 62
    7
 10
272.14043739414581
 20
244.26629586083084
 11
274.72862784517088
 21
253.92555412372155
  0
LINE
  8
_0-d_寸法1
  6
CONTINUOUS
 62
    7
 10
272.14043739414581
 20
301.76629586083089
 11
272.14043739414581
 21
244.26629586083084
  0
TEXT
  8
_0-d_寸法1
 62
    7
 10
272.14043739414581
 20
265.51629586083089
 40
15
 41
1
 50
90
  1
23
  0
LINE
  8
_0-d_寸法1
  6
CONTINUOUS
 62
    7
 10
306.39043739414603
 20
244.26629586083081
 11
267.14043739414592
 21
244.26629586083081
  0
LINE
  8
_0-d_寸法1
  6
CONTINUOUS
 62
    7
 10
272.14043739414592
 20
244.26629586083081
 11
274.72862784517105
 21
234.60703759794012
  0
LINE
  8
_0-d_寸法1
  6
CONTINUOUS
 62
    7
 10
272.14043739414592
 20
244.26629586083081
 11
269.55224694312062
 21
234.60703759794015
  0
LINE
  8
_0-d_寸法1
  6
CONTINUOUS
 62
    7
 10
306.39043739414609
 20
186.76629586083061
 11
267.14043739414592
 21
186.76629586083061
  0
LINE
  8
_0-d_寸法1
  6
CONTINUOUS
 62
    7
 10
272.14043739414592
 20
186.76629586083052
 11
269.55224694312062
 21
196.42555412372127
  0
LINE
  8
_0-d_寸法1
  6
CONTINUOUS
 62
    7
 10
272.14043739414592
 20
186.76629586083052
 11
274.72862784517105
 21
196.42555412372127
  0
LINE
  8
_0-d_寸法1
  6
CONTINUOUS
 62
    7
 10
272.14043739414592
 20
244.26629586083081
 11
272.14043739414592
 21
186.76629586083052
  0
TEXT
  8
_0-d_寸法1
 62
    7
 10
272.14043739414598
 20
208.0162958608307
 40
15
 41
1
 50
90
  1
23
  0
CIRCLE
  8
_0-a_極細1
  6
CONTINUOUS
 62
    7
 10
283.14841000149869
 20
242.86446704137646
 40
0.8296296296296077
  0
CIRCLE
  8
_0-a_極細1
  6
CONTINUOUS
 62
    7
 10
300.54841000149855
 20
221.86446704137663
 40
0.8296296296296077
  0
CIRCLE
  8
_0-a_極細1
  6
CONTINUOUS
 62
    7
 10
233.34841000149936
 20
194.26446704137703
 40
0.8296296296296077
  0
CIRCLE
  8
_0-a_極細1
  6
CONTINUOUS
 62
    7
 10
235.14841000149943
 20
255.46446704137622
 40
0.8296296296296077
  0
CIRCLE
  8
_0-a_極細1
  6
CONTINUOUS
 62
    7
 10
239.3484100014993
 20
215.26446704137683
 40
0.8296296296296077
  0
CIRCLE
  8
_0-a_極細1
  6
CONTINUOUS
 62
    7
 10
194.94841000149975
 20
247.06446704137636
 40
0.8296296296296077
  0
CIRCLE
  8
_0-a_極細1
  6
CONTINUOUS
 62
    7
 10
202.14841000150003
 20
267.71955963396891
 40
2.7382972090220878
  0
CIRCLE
  8
_0-a_極細1
  6
CONTINUOUS
 62
    7
 10
225.6150766681663
 20
244.51955963396924
 40
2.7382972090220878
  0
CIRCLE
  8
_0-a_極細1
  6
CONTINUOUS
 62
    7
 10
308.74841000149854
 20
254.38622630063574
 40
2.7382972090220878
  0
CIRCLE
  8
_0-a_極細1
  6
CONTINUOUS
 62
    7
 10
214.14841000149934
 20
279.6644670413761
 40
0.8296296296296077
  0
CIRCLE
  8
_0-a_極細1
  6
CONTINUOUS
 62
    7
 10
292.14841000149875
 20
281.06446704137596
 40
0.8296296296296077
  0
CIRCLE
  8
_0-a_極細1
  6
CONTINUOUS
 62
    7
 10
282.2150766681649
 20
217.50891148582133
 40
0.8296296296296077
  0
CIRCLE
  8
_0-a_極細1
  6
CONTINUOUS
 62
    7
 10
248.89079683277436
 20
197.49409667100664
 40
0.8296296296296077
  0
CIRCLE
  8
_0-a_極細1
  6
CONTINUOUS
 62
    7
 10
292.92982102012678
 20
191.07489113967313
 40
0.8296296296296077
  0
CIRCLE
  8
_0-a_極細1
  6
CONTINUOUS
 62
    7
 10
260.74841000149934
 20
197.50790683967693
 40
2.7382972090220878
  0
CIRCLE
  8
_0-a_極細1
  6
CONTINUOUS
 62
    7
 10
258.29324345961027
 20
230.25700678682978
 40
0.8296296296296077
  0
CIRCLE
  8
_0-a_極細1
  6
CONTINUOUS
 62
    7
 10
255.46263028599284
 20
256.91396664502281
 40
2.7382972090220878
  0
CIRCLE
  8
_0-a_極細1
  6
CONTINUOUS
 62
    7
 10
252.82650045818627
 20
278.59989664458254
 40
0.8296296296296077
  0
CIRCLE
  8
_0-a_極細1
  6
CONTINUOUS
 62
    7
 10
304.80674333483199
 20
210.56717160384662
 40
2.7382972090220878
  0
CIRCLE
  8
_0-a_極細1
  6
CONTINUOUS
 62
    7
 10
536.84912992270279
 20
174.11259977577652
 40
0.8296296296296077
  0
CIRCLE
  8
_0-a_極細1
  6
CONTINUOUS
 62
    7
 10
348.57634840158903
 20
185.98252259693254
 40
2.7382972090220878
  0
CIRCLE
  8
_0-a_極細1
  6
CONTINUOUS
 62
    7
 10
328.87456061338156
 20
173.85485797051572
 40
0.8296296296296077
  0
LINE
  8
_0-d_寸法1
  6
CONTINUOUS
 62
    7
 10
463.89043663243007
 20
311.76629586083084
 11
463.89043663243007
 21
356.76629586083106
  0
LINE
  8
_0-d_寸法1
  6
CONTINUOUS
 62
    7
 10
463.89043663243007
 20
351.76629586083106
 11
473.54969489532073
 21
354.35448631185631
  0
LINE
  8
_0-d_寸法1
  6
CONTINUOUS
 62
    7
 10
463.89043663243007
 20
351.76629586083106
 11
473.54969489532073
 21
349.17810540980588
  0
LINE
  8
_0-d_寸法1
  6
CONTINUOUS
 62
    7
 10
492.39043662691245
 20
311.76629586083084
 11
492.39043662691245
 21
356.76629586083106
  0
LINE
  8
_0-d_寸法1
  6
CONTINUOUS
 62
    7
 10
492.39043662691245
 20
351.76629586083106
 11
482.73117836402173
 21
349.17810540980588
  0
LINE
  8
_0-d_寸法1
  6
CONTINUOUS
 62
    7
 10
492.39043662691245
 20
351.76629586083106
 11
482.73117836402179
 21
354.35448631185631
  0
LINE
  8
_0-d_寸法1
  6
CONTINUOUS
 62
    7
 10
463.89043663243007
 20
351.76629586083106
 11
492.39043662691245
 21
351.76629586083106
  0
TEXT
  8
_0-d_寸法1
 62
    7
 10
463.1404366296714
 20
351.76629586083106
 40
15
 41
1
 50
0
  1
11.4
  0
LINE
  8
_0-d_寸法1
  6
CONTINUOUS
 62
    7
 10
492.39043662691245
 20
351.76629586083106
 11
502.04969488980311
 21
354.35448631185625
  0
LINE
  8
_0-d_寸法1
  6
CONTINUOUS
 62
    7
 10
492.39043662691245
 20
351.76629586083106
 11
502.04969488980311
 21
349.17810540980582
  0
LINE
  8
_0-d_寸法1
  6
CONTINUOUS
 62
    7
 10
507.39043663333462
 20
311.76629586083084
 11
507.39043663333462
 21
356.76629586083106
  0
LINE
  8
_0-d_寸法1
  6
CONTINUOUS
 62
    7
 10
507.39043663333462
 20
351.76629586083106
 11
497.7311783704439
 21
349.17810540980588
  0
LINE
  8
_0-d_寸法1
  6
CONTINUOUS
 62
    7
 10
507.39043663333462
 20
351.76629586083106
 11
497.73117837044396
 21
354.35448631185631
  0
LINE
  8
_0-d_寸法1
  6
CONTINUOUS
 62
    7
 10
492.39043662691245
 20
351.76629586083106
 11
507.39043663333462
 21
351.76629586083106
  0
TEXT
  8
_0-d_寸法1
 62
    7
 10
495.94345892913509
 20
336.76629586083106
 40
15
 41
1
 50
0
  1
6
  0
LINE
  8
_0-d_寸法1
  6
CONTINUOUS
 62
    7
 10
322.14043739414586
 20
306.76629586083089
 11
322.14043739414586
 21
426.76629586083106
  0
LINE
  8
_0-d_寸法1
  6
CONTINUOUS
 62
    7
 10
322.14043739414586
 20
421.76629586083106
 11
331.79969565703652
 21
424.35448631185631
  0
LINE
  8
_0-d_寸法1
  6
CONTINUOUS
 62
    7
 10
322.14043739414586
 20
421.76629586083106
 11
331.79969565703652
 21
419.17810540980588
  0
LINE
  8
_0-d_寸法1
  6
CONTINUOUS
 62
    7
 10
547.1404373941466
 20
306.76629586083089
 11
547.14043739414683
 21
426.76629586083106
  0
LINE
  8
_0-d_寸法1
  6
CONTINUOUS
 62
    7
 10
547.14043739414683
 20
421.76629586083106
 11
537.48117913125611
 21
419.17810540980588
  0
LINE
  8
_0-d_寸法1
  6
CONTINUOUS
 62
    7
 10
547.14043739414683
 20
421.76629586083106
 11
537.48117913125611
 21
424.35448631185636
  0
LINE
  8
_0-d_寸法1
  6
CONTINUOUS
 62
    7
 10
322.14043739414586
 20
421.76629586083106
 11
547.14043739414683
 21
421.76629586083106
  0
TEXT
  8
_0-d_寸法1
 62
    7
 10
427.14043739414649
 20
421.76629586083106
 40
15
 41
1
 50
0
  1
90
  0
CIRCLE
  8
_0-a_極細1
  6
CONTINUOUS
 62
    7
 10
236.86728964213856
 20
180.4922793165936
 40
0.8296296296296077
  0
CIRCLE
  8
_0-a_極細1
  6
CONTINUOUS
 62
    7
 10
276.38457750735779
 20
179.37812606967532
 40
0.8296296296296077
  0
CIRCLE
  8
_0-a_極細1
  6
CONTINUOUS
 62
    7
 10
289.23594137948783
 20
182.13334356256814
 40
2.7382972090220878
  0
LINE
  8
_0-d_寸法1
  6
CONTINUOUS
 62
    7
 10
319.58267886065528
 20
203.51029785235056
 11
317.29352080788715
 21
193.77583559655818
  0
LINE
  8
_0-d_寸法1
  6
CONTINUOUS
 62
    7
 10
319.58267886065528
 20
203.51029785235056
 11
312.73297870578409
 21
196.22458527303763
  0
LINE
  8
_0-d_寸法1
  6
CONTINUOUS
 62
    7
 10
319.58267886065528
 20
203.51029785235056
 11
296.48260692982632
 21
160.48881157548024
  0
LINE
  8
_0-d_寸法1
  6
CONTINUOUS
 62
    7
 10
296.48260692982632
 20
160.48881157548024
 11
248.48260692982635
 21
160.48881157548024
  0
TEXT
  8
_0-d_寸法1
 62
    7
 10
248.48260692982635
 20
160.48881157548038
 40
15
 41
0.8000000000000001
 50
-0.0000000000001696
  1
アンカー
  0
TEXT
  8
_0-7_枠細線
 62
    5
 10
381.7187993289229
 20
85.347293202326
 40
25
 41
0.8
 50
0
  1
断面詳細図
  0
TEXT
  8
_0-7_枠細線
 62
    5
 10
496.66776907809088
 20
88.288036126853342
 40
20
 41
0.6
 50
0
  1
Ｓ＝１：２
  0
LINE
  8
_0-0_計極細
  6
CENTER1
 62
    2
 10
483.44201121255969
 20
728.65630032190086
 11
483.44201121255969
 21
634.60630032189999
  0
LINE
  8
_0-5_寸法線
  6
CONTINUOUS
 62
    7
 10
722.18558151507068
 20
664.2056034192093
 11
727.18558152253547
 21
655.54534938567474
  0
LINE
  8
_0-5_寸法線
  6
CONTINUOUS
 62
    7
 10
722.18558151507068
 20
664.2056034192093
 11
722.1855815236903
 21
654.2056034192093
  0
LINE
  8
_0-5_寸法線
  6
CONTINUOUS
 62
    7
 10
722.18558151507068
 20
664.2056034192093
 11
739.75326904320002
 21
598.64210121879046
  0
LINE
  8
_0-5_寸法線
  6
CONTINUOUS
 62
    7
 10
739.75326904320002
 20
598.64210121879046
 11
955.75326904320013
 21
598.64210121879046
  0
TEXT
  8
_0-5_寸法線
 62
    7
 10
739.75326904320002
 20
598.64210121879046
 40
15
 41
0.8000000000000001
 50
0
  1
セーフティグレーチングスリットタイプ
  0
LINE
  8
_0-1_計細線
  6
DASHED2
 62
    3
 10
782.44201121375977
 20
545.63546888150324
 11
766.44201121375988
 21
545.63546888150324
  0
LINE
  8
_0-1_計細線
  6
DASHED2
 62
    3
 10
1236.4420112137598
 20
545.63546888150324
 11
1220.4420112137598
 21
545.63546888150324
  0
LINE
  8
_0-1_計細線
  6
DASHED2
 62
    3
 10
328.44201121375954
 20
545.63546888150324
 11
312.44201121375954
 21
545.63546888150324
  0
LINE
  8
_0-0_計極細
  6
CENTER1
 62
    2
 10
258.23263674959048
 20
681.73198029875664
 11
1289.37672287082
 21
681.73198029875664
  0
LINE
  8
_0-d_寸法1
  6
CONTINUOUS
 62
    7
 10
322.14043739414586
 20
386.76629586083106
 11
312.48117913125509
 21
384.17810540980588
  0
LINE
  8
_0-d_寸法1
  6
CONTINUOUS
 62
    7
 10
322.14043739414586
 20
386.76629586083106
 11
312.48117913125526
 21
389.35448631185636
  0
LINE
  8
_0-d_寸法1
  6
CONTINUOUS
 62
    7
 10
329.64043739414586
 20
306.76629586083089
 11
329.64043739414598
 21
391.76629586083106
  0
CIRCLE
  8
_0-d_寸法1
  6
CONTINUOUS
 62
    1
 10
329.64043739414598
 20
386.76629586083106
 40
1.5000000000000002
  0
LINE
  8
_0-d_寸法1
  6
CONTINUOUS
 62
    7
 10
297.14043739414592
 20
386.76629586083106
 11
329.64043739414598
 21
386.76629586083106
  0
TEXT
  8
_0-d_寸法1
 62
    7
 10
300.99576945022261
 20
386.76629586083106
 40
15
 41
1
 50
0
  1
3
  0
LINE
  8
_0-d_寸法1
  6
CONTINUOUS
 62
    7
 10
333.39043662971721
 20
306.76629586083084
 11
333.39043662971733
 21
391.76629586083106
  0
LINE
  8
_0-d_寸法1
  6
CONTINUOUS
 62
    7
 10
329.64043739414598
 20
386.76629586083106
 11
333.39043662971733
 21
386.76629586083106
  0
TEXT
  8
_0-d_寸法1
 62
    7
 10
324.76436438779785
 20
386.76629586083106
 40
15
 41
1
 50
0
  1
1.5
  0
LINE
  8
_0-d_寸法1
  6
CONTINUOUS
 62
    7
 10
333.39043662971733
 20
386.76629586083106
 11
343.04969489260799
 21
389.35448631185631
  0
LINE
  8
_0-d_寸法1
  6
CONTINUOUS
 62
    7
 10
333.39043662971733
 20
386.76629586083106
 11
343.04969489260799
 21
384.17810540980588
  0
LINE
  8
_0-d_寸法1
  6
CONTINUOUS
 62
    7
 10
535.89043662781683
 20
306.76629586083084
 11
535.89043662781694
 21
391.76629586083106
  0
LINE
  8
_0-d_寸法1
  6
CONTINUOUS
 62
    7
 10
535.89043662781694
 20
386.76629586083106
 11
526.23117836492622
 21
384.17810540980588
  0
LINE
  8
_0-d_寸法1
  6
CONTINUOUS
 62
    7
 10
535.89043662781694
 20
386.76629586083106
 11
526.23117836492622
 21
389.35448631185636
  0
LINE
  8
_0-d_寸法1
  6
CONTINUOUS
 62
    7
 10
333.39043662971733
 20
386.76629586083106
 11
535.89043662781694
 21
386.76629586083106
  0
TEXT
  8
_0-d_寸法1
 62
    7
 10
427.14043662876736
 20
386.76629586083106
 40
15
 41
1
 50
0
  1
81
  0
LINE
  8
_0-d_寸法1
  6
CONTINUOUS
 62
    7
 10
539.6404373941466
 20
306.76629586083089
 11
539.64043739414683
 21
391.76629586083106
  0
CIRCLE
  8
_0-d_寸法1
  6
CONTINUOUS
 62
    1
 10
539.64043739414683
 20
386.76629586083106
 40
1.5000000000000002
  0
LINE
  8
_0-d_寸法1
  6
CONTINUOUS
 62
    7
 10
535.89043662781694
 20
386.76629586083106
 11
539.64043739414683
 21
386.76629586083106
  0
TEXT
  8
_0-d_寸法1
 62
    7
 10
521.18652604241254
 20
386.76629586083106
 40
15
 41
1
 50
0
  1
1.5
  0
LINE
  8
_0-d_寸法1
  6
CONTINUOUS
 62
    7
 10
547.14043739414683
 20
386.76629586083106
 11
556.79969565703755
 21
389.35448631185625
  0
LINE
  8
_0-d_寸法1
  6
CONTINUOUS
 62
    7
 10
547.14043739414683
 20
386.76629586083106
 11
556.79969565703755
 21
384.17810540980582
  0
LINE
  8
_0-d_寸法1
  6
CONTINUOUS
 62
    7
 10
539.64043739414683
 20
386.76629586083106
 11
572.14043739414683
 21
386.76629586083106
  0
TEXT
  8
_0-d_寸法1
 62
    7
 10
560.70130410459274
 20
386.76629586083106
 40
15
 41
1
 50
0
  1
3
  0
LINE
  8
_0-5_寸法線
  6
CONTINUOUS
 62
    7
 10
260.44201121375977
 20
726.73197880231828
 11
180.44201121375977
 21
726.73197880231851
  0
LINE
  8
_0-5_寸法線
  6
CONTINUOUS
 62
    7
 10
185.44201121375977
 20
726.73197880231851
 11
188.0302016647849
 21
717.07272053942791
  0
LINE
  8
_0-5_寸法線
  6
CONTINUOUS
 62
    7
 10
185.44201121375977
 20
726.73197880231851
 11
182.8538207627345
 21
717.07272053942791
  0
LINE
  8
_0-5_寸法線
  6
CONTINUOUS
 62
    7
 10
260.44201121375977
 20
636.73198179519557
 11
180.44201121375977
 21
636.73198179519579
  0
LINE
  8
_0-5_寸法線
  6
CONTINUOUS
 62
    7
 10
185.44201121375977
 20
636.73198179519579
 11
182.85382076273459
 21
646.39124005808651
  0
LINE
  8
_0-5_寸法線
  6
CONTINUOUS
 62
    7
 10
185.44201121375977
 20
636.73198179519579
 11
188.03020166478495
 21
646.39124005808651
  0
LINE
  8
_0-5_寸法線
  6
CONTINUOUS
 62
    7
 10
185.44201121375977
 20
726.73197880231851
 11
185.44201121375977
 21
636.73198179519579
  0
TEXT
  8
_0-5_寸法線
 62
    7
 10
185.44201121375977
 20
674.23198029875709
 40
15
 41
1
 50
90
  1
90
  0
ENDSEC
  0
EOF
