  0
SECTION
  2
HEADER
  9
$ACADVER
  1
AC1009
  9
$INSBASE
 10
0
 20
0
 30
0
  9
$EXTMIN
 10
0
 20
0
  9
$EXTMAX
 10
1485
 20
1050
  9
$LIMMIN
 10
0
 20
0
  9
$LIMMAX
 10
1485
 20
1050
  9
$LTSCALE
 40
5
  0
ENDSEC
  0
SECTION
  2
TABLES
  0
TABLE
  2
LTYPE
 70
     9
  0
LTYPE
  2
CONTINUOUS
 70
    64
  3
実線
 72
    65
 73
     0
 40
0.0
  0
LTYPE
  2
DASHED1
 70
    64
  3
--  --  --  --  --  --  --  --  
 72
    65
 73
     2
 40
2.5
 49
1.25
 49
-1.25
  0
LTYPE
  2
DASHED2
 70
    64
  3
----    ----    ----    ----    
 72
    65
 73
     2
 40
5.0
 49
2.5
 49
-2.5
  0
LTYPE
  2
DASHED3
 70
    64
  3
------  ------  ------  ------  
 72
    65
 73
     2
 40
5.0
 49
3.75
 49
-1.25
  0
LTYPE
  2
CENTER1
 70
    64
  3
----- - ----- - ----- - ----- - 
 72
    65
 73
     4
 40
10.0
 49
6.25
 49
-1.25
 49
1.25
 49
-1.25
  0
LTYPE
  2
CENTER2
 70
    64
  3
----------  --  ----------  --  
 72
    65
 73
     4
 40
20.0
 49
12.5
 49
-2.5
 49
2.5
 49
-2.5
  0
LTYPE
  2
PHANTOM1
 70
    64
  3
--- - - --- - - --- - - --- - - 
 72
    65
 73
     6
 40
10.0
 49
3.25
 49
-1.25
 49
1.25
 49
-1.25
 49
1.25
 49
-1.25
  0
LTYPE
  2
PHANTOM2
 70
    64
  3
--------  -  -  --------  -  -  
 72
    65
 73
     6
 40
20.0
 49
10.0
 49
-2.5
 49
1.25
 49
-2.5
 49
1.25
 49
-2.5
  0
LTYPE
  2
DOT
 70
    64
  3
-   -   -   -   -   -   -   -   
 72
    65
 73
     2
 40
2.5
 49
0.625
 49
-1.875
  0
LTYPE
  2
DUMMY
 70
    64
  3
ダミー
 72
    65
 73
     0
 40
0.0
  0
LTYPE
  2
RAND1
 70
    64
  3
ランダム線1
 72
    65
 73
     4
 40
10.0
 49
1.0
 49
-2.0
 49
3.0
 49
-4.0
  0
LTYPE
  2
RAND2
 70
    64
  3
ランダム線2
 72
    65
 73
     4
 40
14.0
 49
2.0
 49
-3.0
 49
4.0
 49
-5.0
  0
LTYPE
  2
RAND3
 70
    64
  3
ランダム線3
 72
    65
 73
     4
 40
18.0
 49
3.0
 49
-4.0
 49
5.0
 49
-6.0
  0
LTYPE
  2
RAND4
 70
    64
  3
ランダム線4
 72
    65
 73
     4
 40
22.0
 49
4.0
 49
-5.0
 49
6.0
 49
-7.0
  0
LTYPE
  2
RAND5
 70
    64
  3
ランダム線5
 72
    65
 73
     4
 40
26.0
 49
5.0
 49
-6.0
 49
7.0
 49
-8.0
  0
LTYPE
  2
LONG1
 70
    64
  3
----------  --  ----------  --  
 72
    65
 73
     4
 40
40.0
 49
32.5
 49
-2.5
 49
2.5
 49
-2.5
  0
LTYPE
  2
LONG2
 70
    64
  3
--------  -  -  --------  -  -  
 72
    65
 73
     6
 40
40.0
 49
30.0
 49
-2.5
 49
1.25
 49
-2.5
 49
1.25
 49
-2.5
  0
LTYPE
  2
LONG3
 70
    64
  3
+++++++++++++++..+++++++++++++++
 72
    65
 73
     2
 40
40.0
 49
37.5
 49
-2.5
  0
LTYPE
  2
LONG4
 70
    64
  3
+++++++++++++++..+++++++++++++++
 72
    65
 73
     2
 40
80.0
 49
75.0
 49
-5.0
  0
LTYPE
  2
LONG5
 70
    64
  3
----------  --  ----------  --  
 72
    65
 73
     4
 40
60.0
 49
37.5
 49
-7.5
 49
7.5
 49
-7.5
  0
LTYPE
  2
dashed
 70
   64
  3
-------   -------------   ------
 72
   65
 73
    2
 40
7.5
 49
6
 49
-1.5
  0
LTYPE
  2
dashed_spaced
 70
   64
  3
----        --------        ----
 72
   65
 73
    2
 40
12
 49
6
 49
-6
  0
LTYPE
  2
long_dashed_dotted
 70
   64
  3
------------- --- --------------
 72
   65
 73
    4
 40
15.25
 49
12
 49
-1.5
 49
0.25
 49
-1.5
  0
LTYPE
  2
long_dashed_double-dotted
 70
   64
  3
----------- --- --- ------------
 72
   65
 73
    6
 40
17
 49
12
 49
-1.5
 49
0.25
 49
-1.5
 49
0.25
 49
-1.5
  0
LTYPE
  2
long_dashed_triplicate-dotted
 70
   64
  3
--------- --- --- --- ----------
 72
   65
 73
    8
 40
18.75
 49
12
 49
-1.5
 49
0.25
 49
-1.5
 49
0.25
 49
-1.5
 49
0.25
 49
-1.5
  0
LTYPE
  2
dotted
 70
   64
  3
   -       -       -       -    
 72
   65
 73
    2
 40
1.75
 49
0.25
 49
-1.5
  0
LTYPE
  2
chain
 70
   64
  3
-------------- -- --------------
 72
   65
 73
    4
 40
18.5
 49
12
 49
-1.5
 49
3.5
 49
-1.5
  0
LTYPE
  2
chain_double_dash
 70
   64
  3
------------ -- -- -------------
 72
   65
 73
    6
 40
23.5
 49
12
 49
-1.5
 49
3.5
 49
-1.5
 49
3.5
 49
-1.5
  0
LTYPE
  2
dashed_dotted
 70
   64
  3
-----------     -     ----------
 72
   65
 73
    4
 40
9.25
 49
6
 49
-1.5
 49
0.25
 49
-1.5
  0
LTYPE
  2
double-dashed_dotted
 70
   64
  3
------   -----------   -   -----
 72
   65
 73
    6
 40
16.75
 49
6
 49
-1.5
 49
6
 49
-1.5
 49
0.25
 49
-1.5
  0
LTYPE
  2
dashed_double-dotted
 70
   64
  3
---------    -    -    ---------
 72
   65
 73
    6
 40
11
 49
6
 49
-1.5
 49
0.25
 49
-1.5
 49
0.25
 49
-1.5
  0
LTYPE
  2
double-dashed_double-dotted
 70
   64
  3
-----   ---------   -   -   ----
 72
   65
 73
    8
 40
18.5
 49
6
 49
-1.5
 49
6
 49
-1.5
 49
0.25
 49
-1.5
 49
0.25
 49
-1.5
  0
LTYPE
  2
dashed_triplicate-dotted
 70
   64
  3
-------    -    -    -    ------
 72
   65
 73
    8
 40
12.75
 49
6
 49
-1.5
 49
0.25
 49
-1.5
 49
0.25
 49
-1.5
 49
0.25
 49
-1.5
  0
LTYPE
  2
double-dashed_triplicate-dotted
 70
   64
  3
-----  ---------  -  -  -  -----
 72
   65
 73
   10
 40
20.25
 49
6
 49
-1.5
 49
6
 49
-1.5
 49
0.25
 49
-1.5
 49
0.25
 49
-1.5
 49
0.25
 49
-1.5
  0
LTYPE
  2
undefined
 70
   64
  3
--------------------------------
 72
   65
 73
    0
 40
0
  0
ENDTAB
  0
TABLE
  2
STYLE
  5
3
100
AcDbSymbolTable
 70
     1
  0
STYLE
  5
10
100
AcDbSymbolTableRecord
100
AcDbTextStyleTableRecord
  2
STANDARD
 70
     0
 40
0.0
 41
1.0
 50
0.0
 71
     0
 42
0.2
  3
txt
  4
bigfont.shx
  0
STYLE
  5
26
100
AcDbSymbolTableRecord
100
AcDbTextStyleTableRecord
  2
TATEGAKI
 70
    68
 40
0.0
 41
1.0
 50
0.0
 71
     0
 42
1.0
  3
txt
  4
bigfont.shx
  0
ENDTAB
  0
TABLE
  2
LAYER
 70
    9
  0
LAYER
  2
_0-0_計極細
 70
   64
 62
    7
  6
CONTINUOUS
  0
LAYER
  2
_0-1_計細線
 70
   64
 62
    7
  6
CONTINUOUS
  0
LAYER
  2
_0-5_寸法線
 70
   64
 62
    7
  6
CONTINUOUS
  0
LAYER
  2
_0-7_枠細線
 70
   64
 62
    7
  6
CONTINUOUS
  0
LAYER
  2
_0-8_枠中線
 70
   64
 62
    7
  6
CONTINUOUS
  0
LAYER
  2
_0-a_極細1
 70
   64
 62
    7
  6
CONTINUOUS
  0
LAYER
  2
_0-b_細線1
 70
   64
 62
    7
  6
CONTINUOUS
  0
LAYER
  2
_0-d_寸法1
 70
   64
 62
    7
  6
CONTINUOUS
  0
LAYER
  2
ADD_LINE
 70
   64
 62
    7
  6
CONTINUOUS
  0
ENDTAB
  0
ENDSEC
  0
SECTION
  2
BLOCKS
  0
ENDSEC
  0
SECTION
  2
ENTITIES
  0
LINE
  8
_0-7_枠細線
  6
CONTINUOUS
 62
    5
 10
1185.0000000000005
 20
179.99999999999986
 11
1185.0000000000005
 21
99.999999999999787
  0
TEXT
  8
_0-7_枠細線
 62
    5
 10
937.50000000000057
 20
97.499999999999787
 40
17.500000000000007
 41
1
 50
0
  1
備考
  7
TATEGAKI
  0
TEXT
  8
_0-7_枠細線
 62
    5
 10
937.50000000000057
 20
137.49999999999986
 40
17.500000000000007
 41
1
 50
0
  1
品番
  7
TATEGAKI
  0
TEXT
  8
_0-7_枠細線
 62
    5
 10
937.50000000000057
 20
177.49999999999986
 40
17.500000000000007
 41
1
 50
0
  1
品名
  7
TATEGAKI
  0
LINE
  8
_0-7_枠細線
  6
CONTINUOUS
 62
    5
 10
1185.0000000000005
 20
139.99999999999986
 11
925.00000000000057
 21
139.99999999999986
  0
LINE
  8
_0-7_枠細線
  6
CONTINUOUS
 62
    5
 10
950.00000000000057
 20
179.99999999999986
 11
950.00000000000057
 21
59.999999999999787
  0
LINE
  8
_0-8_枠中線
  6
CONTINUOUS
 62
    5
 10
1425.0000000000002
 20
179.99999999999986
 11
925.00000000000057
 21
179.99999999999986
  0
LINE
  8
_0-8_枠中線
  6
CONTINUOUS
 62
    5
 10
925.00000000000057
 20
179.99999999999986
 11
925.00000000000057
 21
59.999999999999787
  0
LINE
  8
_0-7_枠細線
  6
CONTINUOUS
 62
    5
 10
1245.0000000000005
 20
179.99999999999986
 11
1245.0000000000005
 21
59.999999999999787
  0
TEXT
  8
_0-7_枠細線
 62
    5
 10
1192.5000000000005
 20
159.99999999999986
 40
15.000000000000009
 41
1
 50
0
  1
縮　尺
  0
LINE
  8
_0-7_枠細線
  6
CONTINUOUS
 62
    5
 10
1185.0000000000005
 20
154.99999999999986
 11
1245.0000000000005
 21
154.99999999999986
  0
LINE
  8
_0-7_枠細線
  6
CONTINUOUS
 62
    5
 10
1245.0000000000005
 20
99.999999999999787
 11
925.00000000000057
 21
99.999999999999787
  0
LINE
  8
_0-7_枠細線
  6
CONTINUOUS
 62
    5
 10
1425.0000000000002
 20
89.999999999999787
 11
1245.0000000000005
 21
89.999999999999787
  0
LINE
  8
_0-7_枠細線
  6
CONTINUOUS
 62
    5
 10
1245.0000000000005
 20
119.99999999999979
 11
1425.0000000000002
 21
119.99999999999979
  0
LINE
  8
_0-7_枠細線
  6
CONTINUOUS
 62
    5
 10
1425.0000000000002
 20
139.99999999999986
 11
1245.0000000000005
 21
139.99999999999986
  0
TEXT
  8
_0-7_枠細線
 62
    5
 10
1255.0000000000005
 20
147.49999999999986
 40
25.000000000000004
 41
0.8
 50
0
  1
株式会社シマブン
  0
TEXT
  8
_0-7_枠細線
 62
    5
 10
1252.5000000000005
 20
59.999999999999787
 40
15.000000000000009
 41
1
 50
0
  1
年月日
  0
TEXT
  8
_0-7_枠細線
 62
    5
 10
1252.5000000000005
 20
74.999999999999787
 40
15.000000000000009
 41
1
 50
0
  1
作　成
  0
TEXT
  8
_0-7_枠細線
 62
    5
 10
1256.2500000000005
 20
122.49999999999979
 40
15.000000000000009
 41
1
 50
0
  1
承 認
  0
LINE
  8
_0-7_枠細線
  6
CONTINUOUS
 62
    5
 10
1305.0000000000002
 20
139.99999999999986
 11
1305.0000000000002
 21
59.999999999999787
  0
TEXT
  8
_0-7_枠細線
 62
    5
 10
1316.2500000000002
 20
122.49999999999979
 40
15.000000000000009
 41
1
 50
0
  1
検 図
  0
LINE
  8
_0-7_枠細線
  6
CONTINUOUS
 62
    5
 10
1365.0000000000002
 20
139.99999999999986
 11
1365.0000000000002
 21
89.999999999999787
  0
TEXT
  8
_0-7_枠細線
 62
    5
 10
1376.2500000000002
 20
122.49999999999979
 40
15.000000000000009
 41
1
 50
0
  1
設 計
  0
LINE
  8
_0-8_枠中線
  6
CONTINUOUS
 62
    5
 10
1425.0000000000002
 20
59.999999999999787
 11
1425.0000000000009
 21
970.00000000000011
  0
LINE
  8
_0-8_枠中線
  6
CONTINUOUS
 62
    5
 10
59.999999999999858
 20
59.999999999999787
 11
60.000000000000142
 21
970.00000000000011
  0
LINE
  8
_0-8_枠中線
  6
CONTINUOUS
 62
    5
 10
59.999999999999858
 20
59.999999999999574
 11
1425.0000000000002
 21
59.999999999999787
  0
LINE
  8
_0-8_枠中線
  6
CONTINUOUS
 62
    5
 10
60.000000000000142
 20
970.00000000000011
 11
1425.0000000000009
 21
970.00000000000011
  0
TEXT
  8
_0-7_枠細線
 62
    5
 10
1194.0000000000005
 20
117.49999999999979
 40
20.000000000000007
 41
0.6999999999999998
 50
0
  1
１：５
  0
TEXT
  8
_0-7_枠細線
 62
    5
 10
960.50000000000045
 20
69.999999999999645
 40
20
 41
0.5999999999999998
 50
0
  1
品番・色については表参照のこと
  0
TEXT
  8
_0-7_枠細線
 62
    5
 10
1375.0000000000002
 20
94.999999999999645
 40
20.000000000000004
 41
1
 50
0
  1
藤戸
  0
TEXT
  8
_0-7_枠細線
 62
    5
 10
1310.0000000000002
 20
67.499999999999645
 40
15.000000000000009
 41
0.6666666666666665
 50
0
  1
２０１０年０３月０１日
  0
TEXT
  8
_0-7_枠細線
 62
    5
 10
1315.0000000000002
 20
94.999999999999645
 40
20.000000000000004
 41
1
 50
0
  1
渋田
  0
TEXT
  8
_0-7_枠細線
 62
    5
 10
1255.0000000000002
 20
94.999999999999645
 40
20.000000000000004
 41
1
 50
0
  1
隠塚
  0
TEXT
  8
_0-7_枠細線
 62
    5
 10
960.50000000000045
 20
158.74999999999986
 40
20.000000000000007
 41
0.5999999999999998
 50
0
  1
セーフティグレーチングスリットタイプ
  0
TEXT
  8
_0-7_枠細線
 62
    5
 10
1092.5000000000007
 20
141.24999999999986
 40
20.000000000000007
 41
0.5999999999999998
 50
0
  1
吹出口枠ＳＥＴ
  0
TEXT
  8
_0-7_枠細線
 62
    5
 10
960.50000000000045
 20
109.99999999999986
 40
20.000000000000007
 41
0.5749999999999998
 50
0
  1
ＧＲＳＳ－２０Ｌ６００Ｓ～２０００Ｓ
  0
LINE
  8
_0-7_枠細線
  6
CONTINUOUS
 62
    5
 10
1425.0000000000002
 20
952.50000000000045
 11
890.00000000000023
 21
952.50000000000045
  0
TEXT
  8
_0-7_枠細線
 62
    5
 10
895.00000000000023
 20
955.00000000000045
 40
12.5
 41
1
 50
0
  1
記号
  0
TEXT
  8
_0-7_枠細線
 62
    5
 10
996.87500000000023
 20
955.00000000000045
 40
12.5
 41
1
 50
0
  1
訂　 正　 記　 事
  0
TEXT
  8
_0-7_枠細線
 62
    5
 10
1181.2500000000002
 20
955.00000000000045
 40
12.5
 41
1
 50
0
  1
訂 正 年 月 日
  0
TEXT
  8
_0-7_枠細線
 62
    5
 10
1306.2500000000002
 20
955.00000000000045
 40
12.5
 41
1
 50
0
  1
備　　　　　考
  0
LINE
  8
_0-7_枠細線
  6
CONTINUOUS
 62
    5
 10
1425.0000000000002
 20
935.00000000000045
 11
890.00000000000023
 21
935.00000000000045
  0
TEXT
  8
_0-7_枠細線
 62
    5
 10
938.85037037037046
 20
937.50000000000045
 40
12.5
 41
1
 50
0
  1
品番・色記号変更
  0
TEXT
  8
_0-7_枠細線
 62
    5
 10
1180.0000000000002
 20
937.50000000000045
 40
12.5
 41
0.7199999999999999
 50
0
  1
２０１３．０３．１３
  0
LINE
  8
_0-7_枠細線
  6
CONTINUOUS
 62
    5
 10
1425.0000000000002
 20
917.50000000000045
 11
890.00000000000023
 21
917.50000000000045
  0
LINE
  8
_0-7_枠細線
  6
CONTINUOUS
 62
    5
 10
1425.0000000000002
 20
900.00000000000045
 11
890.00000000000023
 21
900.00000000000045
  0
TEXT
  8
_0-7_枠細線
 62
    5
 10
938.85037037037046
 20
920.00000000000045
 40
12.5
 41
1
 50
0
  1
クロスバーピッチ変更
  0
TEXT
  8
_0-7_枠細線
 62
    5
 10
938.85037037037046
 20
902.50000000000045
 40
12.5
 41
1
 50
0
  1
取外具形状変更
  0
TEXT
  8
_0-7_枠細線
 62
    5
 10
1180.0000000000002
 20
920.00000000000045
 40
12.5
 41
0.7199999999999999
 50
0
  1
２０１５．１１．２０
  0
TEXT
  8
_0-7_枠細線
 62
    5
 10
1180.0000000000002
 20
902.50000000000045
 40
12.5
 41
0.7199999999999999
 50
0
  1
２０１５．１１．２０
  0
LINE
  8
_0-7_枠細線
  6
CONTINUOUS
 62
    5
 10
915.00000000000023
 20
918.94233397174742
 11
907.50000000000023
 21
933.94233397174742
  0
LINE
  8
_0-7_枠細線
  6
CONTINUOUS
 62
    5
 10
900.00000000000023
 20
918.94233397174742
 11
915.00000000000023
 21
918.94233397174742
  0
LINE
  8
_0-7_枠細線
  6
CONTINUOUS
 62
    5
 10
907.50000000000023
 20
933.94233397174742
 11
900.00000000000023
 21
918.94233397174742
  0
TEXT
  8
_0-7_枠細線
 62
    5
 10
902.36515126814834
 20
918.63533172636699
 40
12.5
 41
0.8
 50
0
  1
１
  0
TEXT
  8
_0-7_枠細線
 62
    5
 10
902.36515126814834
 20
901.13533172636699
 40
12.5
 41
0.8
 50
0
  1
２
  0
LINE
  8
_0-7_枠細線
  6
CONTINUOUS
 62
    5
 10
915.00000000000023
 20
901.44233397174742
 11
907.50000000000023
 21
916.44233397174742
  0
LINE
  8
_0-7_枠細線
  6
CONTINUOUS
 62
    5
 10
900.00000000000023
 20
901.44233397174742
 11
915.00000000000023
 21
901.44233397174742
  0
LINE
  8
_0-7_枠細線
  6
CONTINUOUS
 62
    5
 10
907.50000000000023
 20
916.44233397174742
 11
900.00000000000023
 21
901.44233397174742
  0
LINE
  8
_0-7_枠細線
  6
CONTINUOUS
 62
    5
 10
1425.0000000000009
 20
882.50000000000045
 11
890.00000000000102
 21
882.50000000000045
  0
TEXT
  8
_0-7_枠細線
 62
    5
 10
902.36515126814902
 20
883.39465008156594
 40
12.5
 41
0.8
 50
0
  1
３
  0
TEXT
  8
_0-7_枠細線
 62
    5
 10
1180.0000000000009
 20
885.00000000000045
 40
12.5
 41
0.7199999999999999
 50
0
  1
２０１７．０４．０１
  0
LINE
  8
_0-7_枠細線
  6
CONTINUOUS
 62
    5
 10
915.00000000000102
 20
866.4423339717473
 11
907.50000000000102
 21
881.4423339717473
  0
LINE
  8
_0-7_枠細線
  6
CONTINUOUS
 62
    5
 10
900.00000000000102
 20
866.4423339717473
 11
915.00000000000102
 21
866.4423339717473
  0
LINE
  8
_0-7_枠細線
  6
CONTINUOUS
 62
    5
 10
907.50000000000102
 20
881.4423339717473
 11
900.00000000000102
 21
866.4423339717473
  0
TEXT
  8
_0-7_枠細線
 62
    5
 10
1180.0000000000009
 20
867.50000000000045
 40
12.5
 41
0.7199999999999999
 50
0
  1
２０１７．０４．０１
  0
TEXT
  8
_0-7_枠細線
 62
    5
 10
938.85037037037125
 20
867.50000000000045
 40
12.5
 41
1
 50
0
  1
ブラウン色（Ｃ）追加
  0
LINE
  8
_0-7_枠細線
  6
CONTINUOUS
 62
    5
 10
1425.0000000000009
 20
865.00000000000045
 11
890.00000000000102
 21
865.00000000000045
  0
LINE
  8
_0-7_枠細線
  6
CONTINUOUS
 62
    5
 10
907.50000000000102
 20
898.9423339717473
 11
900.00000000000102
 21
883.9423339717473
  0
LINE
  8
_0-7_枠細線
  6
CONTINUOUS
 62
    5
 10
900.00000000000102
 20
883.9423339717473
 11
915.00000000000102
 21
883.9423339717473
  0
LINE
  8
_0-7_枠細線
  6
CONTINUOUS
 62
    5
 10
915.00000000000102
 20
883.9423339717473
 11
907.50000000000102
 21
898.9423339717473
  0
TEXT
  8
_0-7_枠細線
 62
    5
 10
902.36515126814902
 20
865.49351400689727
 40
12.5
 41
0.8
 50
0
  1
４
  0
TEXT
  8
_0-7_枠細線
 62
    5
 10
938.85037037037125
 20
885.00000000000045
 40
12.5
 41
1
 50
0
  1
取外具形状変更
  0
TEXT
  8
_0-7_枠細線
 62
    5
 10
938.8503703703708
 20
850.00000000000023
 40
12.5
 41
1
 50
0
  1
取外具形状変更
  0
LINE
  8
_0-7_枠細線
  6
CONTINUOUS
 62
    5
 10
907.50000000000023
 20
863.94233397174719
 11
900.00000000000023
 21
848.94233397174719
  0
LINE
  8
_0-7_枠細線
  6
CONTINUOUS
 62
    5
 10
900.00000000000023
 20
848.94233397174719
 11
915.00000000000023
 21
848.94233397174719
  0
LINE
  8
_0-7_枠細線
  6
CONTINUOUS
 62
    5
 10
915.00000000000023
 20
848.94233397174719
 11
907.50000000000023
 21
863.94233397174719
  0
TEXT
  8
_0-7_枠細線
 62
    5
 10
1180.0000000000002
 20
850.00000000000023
 40
12.5
 41
0.7199999999999999
 50
0
  1
２０２１．０５．０６
  0
LINE
  8
_0-7_枠細線
  6
CONTINUOUS
 62
    5
 10
1425.0000000000002
 20
847.50000000000023
 11
890.00000000000023
 21
847.50000000000023
  0
LINE
  8
_0-7_枠細線
  6
CONTINUOUS
 62
    5
 10
890.00000000000023
 20
847.50000000000023
 11
890.00000000000023
 21
969.99999999999932
  0
LINE
  8
_0-7_枠細線
  6
CONTINUOUS
 62
    5
 10
925.00000000000023
 20
847.50000000000023
 11
925.00000000000023
 21
969.99999999999932
  0
LINE
  8
_0-7_枠細線
  6
CONTINUOUS
 62
    5
 10
1275.0000000000002
 20
847.50000000000023
 11
1275.0000000000002
 21
969.99999999999932
  0
LINE
  8
_0-7_枠細線
  6
CONTINUOUS
 62
    5
 10
1175.0000000000002
 20
847.50000000000023
 11
1175.0000000000002
 21
969.99999999999932
  0
TEXT
  8
_0-7_枠細線
 62
    5
 10
902.36515126814834
 20
848.63533172636676
 40
12.5
 41
0.8
 50
0
  1
５
  0
LINE
  8
_0-7_枠細線
  6
CONTINUOUS
 62
    5
 10
1168.9821759259219
 20
443.31515330188404
 11
1168.9821759259219
 21
293.31515330188427
  0
TEXT
  8
_0-7_枠細線
 62
    5
 10
1147.9821759259223
 20
423.31515330188404
 40
15
 41
0.8000000000000001
 50
0
  1
Ｎ
  0
TEXT
  8
_0-7_枠細線
 62
    5
 10
1150.9821759259219
 20
398.31515330188427
 40
15
 41
1
 50
0
  1
1
  0
TEXT
  8
_0-7_枠細線
 62
    5
 10
1150.9821759259219
 20
373.31515330188444
 40
15
 41
1
 50
0
  1
2
  0
TEXT
  8
_0-7_枠細線
 62
    5
 10
1150.9821759259219
 20
348.31515330188427
 40
15
 41
1
 50
0
  1
3
  0
TEXT
  8
_0-7_枠細線
 62
    5
 10
1150.9821759259219
 20
323.31515330188427
 40
15
 41
1
 50
0
  1
4
  0
TEXT
  8
_0-7_枠細線
 62
    5
 10
1150.9821759259219
 20
298.31515330188427
 40
15
 41
1
 50
0
  1
4
  0
LINE
  8
_0-7_枠細線
  6
CONTINUOUS
 62
    5
 10
1138.982175925923
 20
443.31515330188404
 11
1138.982175925923
 21
293.31515330188427
  0
LINE
  8
_0-7_枠細線
  6
CONTINUOUS
 62
    5
 10
1078.9821759259232
 20
443.31515330188404
 11
1078.9821759259232
 21
293.31515330188427
  0
LINE
  8
_0-7_枠細線
  6
CONTINUOUS
 62
    5
 10
1018.982175925923
 20
443.31515330188404
 11
1018.982175925923
 21
293.31515330188427
  0
TEXT
  8
_0-7_枠細線
 62
    5
 10
987.98217592592334
 20
423.31515330188404
 40
15
 41
0.8000000000000001
 50
0
  1
Ｌ
  0
LINE
  8
_0-7_枠細線
  6
CONTINUOUS
 62
    5
 10
968.98217592592391
 20
443.31515330188404
 11
968.98217592592391
 21
293.31515330188427
  0
TEXT
  8
_0-7_枠細線
 62
    5
 10
889.98217592592368
 20
423.31515330188404
 40
15
 41
0.8000000000000001
 50
0
  1
品　　番
  0
LINE
  8
_0-7_枠細線
  6
CONTINUOUS
 62
    5
 10
858.98217592592368
 20
443.31515330188404
 11
858.98217592592368
 21
293.31515330188427
  0
LINE
  8
_0-7_枠細線
  6
CONTINUOUS
 62
    5
 10
858.98217592592368
 20
443.31515330188404
 11
1168.9821759259219
 21
443.31515330188404
  0
LINE
  8
_0-7_枠細線
  6
CONTINUOUS
 62
    5
 10
858.98217592592368
 20
418.31515330188404
 11
1168.9821759259219
 21
418.31515330188404
  0
LINE
  8
_0-7_枠細線
  6
CONTINUOUS
 62
    5
 10
858.98217592592368
 20
393.31515330188427
 11
1168.9821759259219
 21
393.31515330188427
  0
LINE
  8
_0-7_枠細線
  6
CONTINUOUS
 62
    5
 10
858.98217592592368
 20
368.31515330188427
 11
1168.9821759259219
 21
368.31515330188427
  0
LINE
  8
_0-7_枠細線
  6
CONTINUOUS
 62
    5
 10
858.98217592592368
 20
343.31515330188427
 11
1168.9821759259219
 21
343.31515330188427
  0
LINE
  8
_0-7_枠細線
  6
CONTINUOUS
 62
    5
 10
858.98217592592368
 20
318.31515330188427
 11
1168.9821759259219
 21
318.31515330188427
  0
LINE
  8
_0-7_枠細線
  6
CONTINUOUS
 62
    5
 10
858.98217592592368
 20
293.31515330188427
 11
1168.9821759259219
 21
293.31515330188427
  0
TEXT
  8
_0-7_枠細線
 62
    5
 10
865.94232253085738
 20
448.31515330188404
 40
17.5
 41
1
 50
0
  1
品番寸法表
  0
TEXT
  8
_0-7_枠細線
 62
    5
 10
986.48217592592346
 20
398.31515330188427
 40
15
 41
1
 50
0
  1
594
  0
TEXT
  8
_0-7_枠細線
 62
    5
 10
986.48217592592346
 20
373.31515330188444
 40
15
 41
1
 50
0
  1
894
  0
TEXT
  8
_0-7_枠細線
 62
    5
 10
978.98217592592346
 20
348.31515330188427
 40
15
 41
1
 50
0
  1
1194
  0
TEXT
  8
_0-7_枠細線
 62
    5
 10
978.98217592592346
 20
323.31515330188427
 40
15
 41
1
 50
0
  1
1794
  0
TEXT
  8
_0-7_枠細線
 62
    5
 10
978.98217592592346
 20
298.31515330188427
 40
15
 41
1
 50
0
  1
1994
  0
TEXT
  8
_0-7_枠細線
 62
    5
 10
1102.9821759259228
 20
423.31515330188404
 40
15
 41
0.8000000000000001
 50
0
  1
＠
  0
TEXT
  8
_0-7_枠細線
 62
    5
 10
1042.9821759259246
 20
423.31515330188404
 40
15
 41
0.8000000000000001
 50
0
  1
Ａ
  0
TEXT
  8
_0-7_枠細線
 62
    5
 10
1041.4821759259232
 20
398.31515330188427
 40
15
 41
1
 50
0
  1
585
  0
TEXT
  8
_0-7_枠細線
 62
    5
 10
1041.4821759259232
 20
373.31515330188444
 40
15
 41
1
 50
0
  1
885
  0
TEXT
  8
_0-7_枠細線
 62
    5
 10
1033.9821759259232
 20
348.31515330188427
 40
15
 41
1
 50
0
  1
1185
  0
TEXT
  8
_0-7_枠細線
 62
    5
 10
1026.4821759259232
 20
323.31515330188427
 40
15
 41
1
 50
0
  1
892×2
  0
TEXT
  8
_0-7_枠細線
 62
    5
 10
1026.4821759259232
 20
298.31515330188427
 40
15
 41
1
 50
0
  1
992×2
  0
TEXT
  8
_0-7_枠細線
 62
    5
 10
1091.7321759259232
 20
398.31515330188427
 40
15
 41
1
 50
0
  1
494
  0
TEXT
  8
_0-7_枠細線
 62
    5
 10
1091.7321759259232
 20
373.31515330188444
 40
15
 41
1
 50
0
  1
397
  0
TEXT
  8
_0-7_枠細線
 62
    5
 10
1090.2321759259232
 20
348.31515330188427
 40
15
 41
1
 50
0
  1
364.7
  0
TEXT
  8
_0-7_枠細線
 62
    5
 10
1090.2321759259232
 20
323.31515330188427
 40
15
 41
1
 50
0
  1
423.5
  0
TEXT
  8
_0-7_枠細線
 62
    5
 10
1090.2321759259232
 20
298.31515330188427
 40
15
 41
1
 50
0
  1
473.5
  0
TEXT
  8
_0-7_枠細線
 62
    5
 10
864.19884259259061
 20
273.3151533018841
 40
15
 41
1
 50
0
  1
※ ○に色記号を付記
  0
TEXT
  8
_0-7_枠細線
 62
    5
 10
863.98217592592357
 20
398.31515330188404
 40
15
 41
0.8333333333333333
 50
0
  1
GRSS-20L 600S-○
  0
TEXT
  8
_0-7_枠細線
 62
    5
 10
863.98217592592357
 20
373.31515330188427
 40
15
 41
0.8333333333333333
 50
0
  1
GRSS-20L 900S-○
  0
TEXT
  8
_0-7_枠細線
 62
    5
 10
863.98217592592357
 20
348.31515330188404
 40
15
 41
0.8333333333333333
 50
0
  1
GRSS-20L1200S-○
  0
TEXT
  8
_0-7_枠細線
 62
    5
 10
863.98217592592357
 20
323.31515330188404
 40
15
 41
0.8333333333333333
 50
0
  1
GRSS-20L1800S-○
  0
TEXT
  8
_0-7_枠細線
 62
    5
 10
863.98217592592357
 20
298.31515330188398
 40
15
 41
0.8333333333333333
 50
0
  1
GRSS-20L2000S-○
  0
TEXT
  8
_0-7_枠細線
 62
    5
 10
1207.0974537037014
 20
398.31515330188404
 40
15
 41
0.5999999999999999
 50
0
  1
Ｂ
  0
TEXT
  8
_0-7_枠細線
 62
    5
 10
1207.0974537037014
 20
373.31515330188427
 40
15
 41
0.5999999999999999
 50
0
  1
Ｇ
  0
TEXT
  8
_0-7_枠細線
 62
    5
 10
1199.5974537037014
 20
423.31515330188404
 40
15
 41
0.8000000000000001
 50
0
  1
記号
  0
TEXT
  8
_0-7_枠細線
 62
    5
 10
1244.5974537037021
 20
373.31515330188427
 40
15
 41
0.5999999999999999
 50
0
  1
ライトグレー
  0
TEXT
  8
_0-7_枠細線
 62
    5
 10
1253.5974537037021
 20
398.31515330188404
 40
15
 41
0.5999999999999999
 50
0
  1
ベージュ
  0
TEXT
  8
_0-7_枠細線
 62
    5
 10
1265.5974537037021
 20
423.31515330188404
 40
15
 41
0.8000000000000001
 50
0
  1
色
  0
LINE
  8
_0-7_枠細線
  6
CONTINUOUS
 62
    5
 10
1191.5974537037016
 20
268.31515330188427
 11
1381.5974537037018
 21
268.31515330188427
  0
LINE
  8
_0-7_枠細線
  6
CONTINUOUS
 62
    5
 10
1191.5974537037016
 20
293.31515330188427
 11
1381.5974537037018
 21
293.31515330188427
  0
LINE
  8
_0-7_枠細線
  6
CONTINUOUS
 62
    5
 10
1191.5974537037016
 20
318.31515330188427
 11
1381.5974537037018
 21
318.31515330188427
  0
LINE
  8
_0-7_枠細線
  6
CONTINUOUS
 62
    5
 10
1191.5974537037016
 20
343.31515330188427
 11
1381.5974537037018
 21
343.31515330188427
  0
LINE
  8
_0-7_枠細線
  6
CONTINUOUS
 62
    5
 10
1191.5974537037016
 20
368.31515330188427
 11
1381.5974537037018
 21
368.31515330188427
  0
LINE
  8
_0-7_枠細線
  6
CONTINUOUS
 62
    5
 10
1191.5974537037016
 20
393.31515330188427
 11
1381.5974537037018
 21
393.31515330188427
  0
LINE
  8
_0-7_枠細線
  6
CONTINUOUS
 62
    5
 10
1191.5974537037016
 20
418.31515330188404
 11
1381.5974537037018
 21
418.31515330188404
  0
LINE
  8
_0-7_枠細線
  6
CONTINUOUS
 62
    5
 10
1191.5974537037016
 20
443.31515330188404
 11
1381.5974537037018
 21
443.31515330188404
  0
LINE
  8
_0-7_枠細線
  6
CONTINUOUS
 62
    5
 10
1191.5974537037016
 20
243.31515330188398
 11
1381.5974537037018
 21
243.31515330188398
  0
TEXT
  8
_0-7_枠細線
 62
    5
 10
1328.5974537037027
 20
423.31515330188404
 40
15
 41
0.8000000000000001
 50
0
  1
備　考
  0
TEXT
  8
_0-7_枠細線
 62
    5
 10
1203.3076003086353
 20
448.31515330188404
 40
17.5
 41
1
 50
0
  1
色記号表
  0
LINE
  8
_0-7_枠細線
  6
CONTINUOUS
 62
    5
 10
1191.5974537037016
 20
218.31515330188378
 11
1381.5974537037018
 21
218.31515330188378
  0
TEXT
  8
_0-7_枠細線
 62
    5
 10
1207.0974537037014
 20
323.31515330188427
 40
15
 41
0.5999999999999999
 50
0
  1
Ｐ
  0
TEXT
  8
_0-7_枠細線
 62
    5
 10
1207.0974537037014
 20
298.31515330188427
 40
15
 41
0.5999999999999999
 50
0
  1
Ａ
  0
TEXT
  8
_0-7_枠細線
 62
    5
 10
1258.0974537037021
 20
298.31515330188427
 40
15
 41
0.5999999999999999
 50
0
  1
ブルー
  0
TEXT
  8
_0-7_枠細線
 62
    5
 10
1258.0974537037021
 20
323.31515330188427
 40
15
 41
0.5999999999999999
 50
0
  1
ピンク
  0
TEXT
  8
_0-7_枠細線
 62
    5
 10
1207.0974537037014
 20
348.31515330188427
 40
15
 41
0.5999999999999999
 50
0
  1
Ｓ
  0
TEXT
  8
_0-7_枠細線
 62
    5
 10
1253.5974537037021
 20
348.31515330188427
 40
15
 41
0.5999999999999999
 50
0
  1
ホワイト
  0
TEXT
  8
_0-7_枠細線
 62
    5
 10
1244.5974537037018
 20
273.31515330188427
 40
15
 41
0.5999999999999999
 50
0
  1
ダークグレー
  0
TEXT
  8
_0-7_枠細線
 62
    5
 10
1207.0974537037014
 20
248.31515330188398
 40
15
 41
0.5999999999999999
 50
0
  1
Ｍ
  0
TEXT
  8
_0-7_枠細線
 62
    5
 10
1207.0974537037014
 20
273.31515330188427
 40
15
 41
0.5999999999999999
 50
0
  1
Ｄ
  0
TEXT
  8
_0-7_枠細線
 62
    5
 10
1258.0974537037018
 20
248.31515330188398
 40
15
 41
0.5999999999999999
 50
0
  1
ウッド
  0
LINE
  8
_0-7_枠細線
  6
CONTINUOUS
 62
    5
 10
1191.5974537037016
 20
193.31515330188353
 11
1381.5974537037018
 21
193.31515330188353
  0
TEXT
  8
_0-7_枠細線
 62
    5
 10
1207.0974537037014
 20
198.31515330188381
 40
15
 41
0.5999999999999999
 50
0
  1
Ｋ
  0
TEXT
  8
_0-7_枠細線
 62
    5
 10
1253.5974537037027
 20
198.31515330188381
 40
15
 41
0.5999999999999999
 50
0
  1
ブラック
  0
LINE
  8
_0-7_枠細線
  6
CONTINUOUS
 62
    5
 10
1191.5974537037016
 20
443.31515330188404
 11
1191.5974537037016
 21
193.31515330188353
  0
LINE
  8
_0-7_枠細線
  6
CONTINUOUS
 62
    5
 10
1231.5974537037023
 20
443.31515330188404
 11
1231.5974537037023
 21
193.31515330188353
  0
LINE
  8
_0-7_枠細線
  6
CONTINUOUS
 62
    5
 10
1311.5974537037018
 20
443.31515330188404
 11
1311.5974537037018
 21
193.31515330188353
  0
LINE
  8
_0-7_枠細線
  6
CONTINUOUS
 62
    5
 10
1381.5974537037023
 20
443.31515330188404
 11
1381.5974537037018
 21
193.31515330188353
  0
TEXT
  8
_0-7_枠細線
 62
    5
 10
1207.0974537037018
 20
223.31515330188398
 40
15
 41
0.5999999999999999
 50
0
  1
Ｃ
  0
TEXT
  8
_0-7_枠細線
 62
    5
 10
1253.5974537037021
 20
223.31515330188398
 40
15
 41
0.5999999999999999
 50
0
  1
ブラウン
  0
LINE
  8
_0-7_枠細線
  6
CONTINUOUS
 62
    5
 10
1184.509638010509
 20
223.32749470763446
 11
1177.009638010509
 21
238.32749470763446
  0
LINE
  8
_0-7_枠細線
  6
CONTINUOUS
 62
    5
 10
1169.509638010509
 20
223.32749470763446
 11
1184.509638010509
 21
223.32749470763446
  0
LINE
  8
_0-7_枠細線
  6
CONTINUOUS
 62
    5
 10
1177.009638010509
 20
238.32749470763446
 11
1169.509638010509
 21
223.32749470763446
  0
TEXT
  8
_0-7_枠細線
 62
    5
 10
1171.8747892786571
 20
222.37867474278457
 40
12.5
 41
0.8
 50
0
  1
４
  0
LINE
  8
_0-a_極細1
  6
CONTINUOUS
 62
    7
 10
358.39043739414564
 20
244.26629586083098
 11
359.64043739414586
 21
244.26629586083098
  0
ARC
  8
_0-b_細線1
  6
CONTINUOUS
 62
    7
 10
329.64043739414586
 20
251.76629586083098
 40
7.5
 50
179.99999999999983
 51
269.99999999999977
  0
LINE
  8
_0-b_細線1
  6
CONTINUOUS
 62
    7
 10
322.14043739414586
 20
251.76629586083098
 11
322.14043739414586
 21
300.51629586083106
  0
LINE
  8
_0-b_細線1
  6
CONTINUOUS
 62
    7
 10
329.64043739414586
 20
244.26629586083098
 11
358.39043739414564
 21
244.26629586083098
  0
LINE
  8
_0-b_細線1
  6
CONTINUOUS
 62
    7
 10
359.64043739414586
 20
245.51629586083106
 11
358.39043739414564
 21
244.26629586083098
  0
LINE
  8
_0-b_細線1
  6
CONTINUOUS
 62
    7
 10
359.64043739414586
 20
250.51629586083109
 11
359.64043739414586
 21
245.51629586083106
  0
LINE
  8
_0-b_細線1
  6
CONTINUOUS
 62
    7
 10
358.39043739414564
 20
251.76629586083098
 11
359.64043739414586
 21
250.51629586083109
  0
LINE
  8
_0-b_細線1
  6
CONTINUOUS
 62
    7
 10
329.64043739414586
 20
251.76629586083098
 11
358.39043739414564
 21
251.76629586083098
  0
LINE
  8
_0-b_細線1
  6
CONTINUOUS
 62
    7
 10
323.39043739414541
 20
301.76629586083106
 11
322.14043739414586
 21
300.51629586083106
  0
LINE
  8
_0-b_細線1
  6
CONTINUOUS
 62
    7
 10
328.39043739414564
 20
301.76629586083106
 11
323.39043739414541
 21
301.76629586083106
  0
LINE
  8
_0-b_細線1
  6
CONTINUOUS
 62
    7
 10
329.64043739414586
 20
300.51629586083106
 11
328.39043739414564
 21
301.76629586083106
  0
LINE
  8
_0-b_細線1
  6
CONTINUOUS
 62
    7
 10
329.64043739414586
 20
251.76629586083098
 11
329.64043739414586
 21
300.51629586083106
  0
LINE
  8
_0-a_極細1
  6
CONTINUOUS
 62
    7
 10
510.89043739414541
 20
244.26629586083098
 11
509.64043739414592
 21
244.26629586083098
  0
ARC
  8
_0-b_細線1
  6
CONTINUOUS
 62
    7
 10
539.6404373941466
 20
251.76629586083098
 40
7.5
 50
269.99999999999977
 51
359.99999999999966
  0
LINE
  8
_0-b_細線1
  6
CONTINUOUS
 62
    7
 10
547.1404373941466
 20
251.76629586083098
 11
547.1404373941466
 21
300.51629586083106
  0
LINE
  8
_0-b_細線1
  6
CONTINUOUS
 62
    7
 10
539.6404373941466
 20
244.26629586083098
 11
510.89043739414541
 21
244.26629586083098
  0
LINE
  8
_0-b_細線1
  6
CONTINUOUS
 62
    7
 10
509.64043739414592
 20
245.51629586083106
 11
510.89043739414541
 21
244.26629586083098
  0
LINE
  8
_0-b_細線1
  6
CONTINUOUS
 62
    7
 10
509.64043739414592
 20
250.51629586083109
 11
509.64043739414592
 21
245.51629586083106
  0
LINE
  8
_0-b_細線1
  6
CONTINUOUS
 62
    7
 10
510.89043739414541
 20
251.76629586083098
 11
509.64043739414592
 21
250.51629586083109
  0
LINE
  8
_0-b_細線1
  6
CONTINUOUS
 62
    7
 10
539.6404373941466
 20
251.76629586083098
 11
510.89043739414541
 21
251.76629586083098
  0
LINE
  8
_0-b_細線1
  6
CONTINUOUS
 62
    7
 10
545.89043739414706
 20
301.76629586083106
 11
547.1404373941466
 21
300.51629586083106
  0
LINE
  8
_0-b_細線1
  6
CONTINUOUS
 62
    7
 10
540.89043739414683
 20
301.76629586083106
 11
545.89043739414706
 21
301.76629586083106
  0
LINE
  8
_0-b_細線1
  6
CONTINUOUS
 62
    7
 10
539.6404373941466
 20
300.51629586083106
 11
540.89043739414683
 21
301.76629586083106
  0
LINE
  8
_0-b_細線1
  6
CONTINUOUS
 62
    7
 10
539.6404373941466
 20
251.76629586083098
 11
539.6404373941466
 21
300.51629586083106
  0
ARC
  8
_0-b_細線1
  6
CONTINUOUS
 62
    7
 10
335.89043662971699
 20
296.76629586083095
 40
2.4999999999999996
 50
89.999999999999915
 51
179.99999999999983
  0
ARC
  8
_0-b_細線1
  6
CONTINUOUS
 62
    7
 10
337.06030960803605
 20
301.76629586083118
 40
2.4999999999999996
 50
269.99999999999977
 51
329.99999999998744
  0
ARC
  8
_0-b_細線1
  6
CONTINUOUS
 62
    7
 10
341.39043662695758
 20
299.26629586083141
 40
2.4999999999999996
 50
89.999999999999915
 51
150.00000000000915
  0
LINE
  8
_0-b_細線1
  6
CONTINUOUS
 62
    7
 10
335.89043662971699
 20
299.26629586083141
 11
337.06030960803605
 21
299.26629586083141
  0
ARC
  8
_0-b_細線1
  6
CONTINUOUS
 62
    7
 10
359.39043662419908
 20
296.76629586083095
 40
2.4999999999999996
 50
0
 51
89.999999999999915
  0
ARC
  8
_0-b_細線1
  6
CONTINUOUS
 62
    7
 10
358.22056364588002
 20
301.76629586083118
 40
2.4999999999999996
 50
210.00000000000404
 51
269.99999999999977
  0
ARC
  8
_0-b_細線1
  6
CONTINUOUS
 62
    7
 10
353.89043662695849
 20
299.26629586083141
 40
2.4999999999999996
 50
29.999999999998682
 51
89.999999999999915
  0
LINE
  8
_0-b_細線1
  6
CONTINUOUS
 62
    7
 10
359.39043662419908
 20
299.26629586083141
 11
358.22056364588002
 21
299.26629586083141
  0
ARC
  8
_0-b_細線1
  6
CONTINUOUS
 62
    7
 10
334.64043662971739
 20
293.26629586083141
 40
1.2499999999999998
 50
179.99999999999983
 51
269.99999999999977
  0
LINE
  8
_0-b_細線1
  6
CONTINUOUS
 62
    7
 10
333.39043662971721
 20
296.76629586083095
 11
333.39043662971721
 21
293.26629586083141
  0
ARC
  8
_0-b_細線1
  6
CONTINUOUS
 62
    7
 10
360.64043662419857
 20
293.26629586083141
 40
1.2499999999999998
 50
269.99999999999977
 51
359.99999999999966
  0
LINE
  8
_0-b_細線1
  6
CONTINUOUS
 62
    7
 10
361.89043662419886
 20
296.76629586083095
 11
361.89043662419886
 21
293.26629586083141
  0
ARC
  8
_0-b_細線1
  6
CONTINUOUS
 62
    7
 10
340.89043662971721
 20
289.51629586083141
 40
2.4999999999999996
 50
0
 51
89.999999999999915
  0
LINE
  8
_0-b_細線1
  6
CONTINUOUS
 62
    7
 10
340.89043662971721
 20
292.01629586083118
 11
334.64043662971739
 21
292.01629586083118
  0
ARC
  8
_0-b_細線1
  6
CONTINUOUS
 62
    7
 10
354.39043662971721
 20
289.51629586083141
 40
2.4999999999999996
 50
89.999999999999915
 51
179.99999999999983
  0
LINE
  8
_0-b_細線1
  6
CONTINUOUS
 62
    7
 10
354.39043662419886
 20
292.01629586083118
 11
360.64043662419857
 21
292.01629586083118
  0
LINE
  8
_0-b_細線1
  6
CONTINUOUS
 62
    7
 10
353.89043662695849
 20
301.76629586083118
 11
341.39043662695758
 21
301.76629586083118
  0
LINE
  8
_0-b_細線1
  6
CONTINUOUS
 62
    7
 10
343.39043662695781
 20
251.76629586083098
 11
343.39043662971699
 21
289.51629586083141
  0
LINE
  8
_0-b_細線1
  6
CONTINUOUS
 62
    7
 10
351.89043662695826
 20
251.76629586083098
 11
351.89043662971744
 21
289.51629586083141
  0
LINE
  8
_0-b_細線1
  6
CONTINUOUS
 62
    7
 10
351.89043662695826
 20
251.76629586083098
 11
343.39043662695781
 21
251.76629586083098
  0
ARC
  8
_0-b_細線1
  6
CONTINUOUS
 62
    7
 10
379.39043663062142
 20
296.76629586083095
 40
2.4999999999999996
 50
89.999999999999915
 51
179.99999999999983
  0
ARC
  8
_0-b_細線1
  6
CONTINUOUS
 62
    7
 10
380.56030960893986
 20
301.76629586083118
 40
2.4999999999999996
 50
269.99999999999977
 51
329.99999999999523
  0
ARC
  8
_0-b_細線1
  6
CONTINUOUS
 62
    7
 10
384.89043662786202
 20
299.26629586083141
 40
2.4999999999999996
 50
89.999999999999915
 51
150.00000000000915
  0
LINE
  8
_0-b_細線1
  6
CONTINUOUS
 62
    7
 10
379.39043663062142
 20
299.26629586083141
 11
380.56030960893986
 21
299.26629586083141
  0
ARC
  8
_0-b_細線1
  6
CONTINUOUS
 62
    7
 10
402.89043662510352
 20
296.76629586083095
 40
2.4999999999999996
 50
0
 51
89.999999999999915
  0
ARC
  8
_0-b_細線1
  6
CONTINUOUS
 62
    7
 10
401.72056364678519
 20
301.76629586083118
 40
2.4999999999999996
 50
209.99999999999622
 51
269.99999999999977
  0
ARC
  8
_0-b_細線1
  6
CONTINUOUS
 62
    7
 10
397.3904366278623
 20
299.26629586083141
 40
2.4999999999999996
 50
29.999999999990862
 51
89.999999999984354
  0
LINE
  8
_0-b_細線1
  6
CONTINUOUS
 62
    7
 10
402.89043662510352
 20
299.26629586083141
 11
401.72056364678519
 21
299.26629586083141
  0
ARC
  8
_0-b_細線1
  6
CONTINUOUS
 62
    7
 10
378.14043663062125
 20
293.26629586083141
 40
1.2499999999999998
 50
179.99999999999983
 51
269.99999999999977
  0
LINE
  8
_0-b_細線1
  6
CONTINUOUS
 62
    7
 10
376.89043663062102
 20
296.76629586083095
 11
376.89043663062102
 21
293.26629586083141
  0
ARC
  8
_0-b_細線1
  6
CONTINUOUS
 62
    7
 10
404.14043662510312
 20
293.26629586083141
 40
1.2499999999999998
 50
269.99999999999977
 51
359.99999999999966
  0
LINE
  8
_0-b_細線1
  6
CONTINUOUS
 62
    7
 10
405.39043662510403
 20
296.76629586083095
 11
405.39043662510403
 21
293.26629586083141
  0
ARC
  8
_0-b_細線1
  6
CONTINUOUS
 62
    7
 10
384.39043663062102
 20
289.51629586083141
 40
2.4999999999999996
 50
0
 51
89.999999999999915
  0
LINE
  8
_0-b_細線1
  6
CONTINUOUS
 62
    7
 10
384.39043663062102
 20
292.01629586083118
 11
378.14043663062125
 21
292.01629586083118
  0
ARC
  8
_0-b_細線1
  6
CONTINUOUS
 62
    7
 10
397.89043663062165
 20
289.51629586083141
 40
2.4999999999999996
 50
89.999999999999915
 51
179.99999999999983
  0
LINE
  8
_0-b_細線1
  6
CONTINUOUS
 62
    7
 10
397.89043662510329
 20
292.01629586083118
 11
404.14043662510312
 21
292.01629586083118
  0
LINE
  8
_0-b_細線1
  6
CONTINUOUS
 62
    7
 10
397.3904366278623
 20
301.76629586083118
 11
384.89043662786202
 21
301.76629586083118
  0
LINE
  8
_0-b_細線1
  6
CONTINUOUS
 62
    7
 10
386.89043662786298
 20
251.76629586083098
 11
386.89043663062142
 21
289.51629586083141
  0
LINE
  8
_0-b_細線1
  6
CONTINUOUS
 62
    7
 10
395.39043662786207
 20
251.76629586083098
 11
395.39043663062188
 21
289.51629586083141
  0
LINE
  8
_0-b_細線1
  6
CONTINUOUS
 62
    7
 10
395.39043662786207
 20
251.76629586083098
 11
386.89043662786298
 21
251.76629586083098
  0
ARC
  8
_0-b_細線1
  6
CONTINUOUS
 62
    7
 10
422.89043663152597
 20
296.76629586083095
 40
2.4999999999999996
 50
89.999999999999915
 51
179.99999999999983
  0
ARC
  8
_0-b_細線1
  6
CONTINUOUS
 62
    7
 10
424.0603096098443
 20
301.76629586083118
 40
2.4999999999999996
 50
269.99999999999977
 51
329.99999999999523
  0
ARC
  8
_0-b_細線1
  6
CONTINUOUS
 62
    7
 10
428.39043662876657
 20
299.26629586083141
 40
2.4999999999999996
 50
89.999999999999915
 51
150.00000000000915
  0
LINE
  8
_0-b_細線1
  6
CONTINUOUS
 62
    7
 10
422.89043663152597
 20
299.26629586083141
 11
424.0603096098443
 21
299.26629586083141
  0
ARC
  8
_0-b_細線1
  6
CONTINUOUS
 62
    7
 10
446.39043662600807
 20
296.76629586083095
 40
2.4999999999999996
 50
0
 51
89.999999999999915
  0
ARC
  8
_0-b_細線1
  6
CONTINUOUS
 62
    7
 10
445.22056364768963
 20
301.76629586083118
 40
2.4999999999999996
 50
209.99999999999622
 51
269.99999999999977
  0
ARC
  8
_0-b_細線1
  6
CONTINUOUS
 62
    7
 10
440.89043662876679
 20
299.26629586083141
 40
2.4999999999999996
 50
29.999999999990862
 51
89.999999999984354
  0
LINE
  8
_0-b_細線1
  6
CONTINUOUS
 62
    7
 10
446.39043662600807
 20
299.26629586083141
 11
445.22056364768963
 21
299.26629586083141
  0
ARC
  8
_0-b_細線1
  6
CONTINUOUS
 62
    7
 10
421.64043663152569
 20
293.26629586083141
 40
1.2499999999999998
 50
179.99999999999983
 51
269.99999999999977
  0
LINE
  8
_0-b_細線1
  6
CONTINUOUS
 62
    7
 10
420.39043663152546
 20
296.76629586083095
 11
420.39043663152546
 21
293.26629586083141
  0
ARC
  8
_0-b_細線1
  6
CONTINUOUS
 62
    7
 10
447.6404366260083
 20
293.26629586083141
 40
1.2499999999999998
 50
269.99999999999977
 51
359.99999999999966
  0
LINE
  8
_0-b_細線1
  6
CONTINUOUS
 62
    7
 10
448.89043662600847
 20
296.76629586083095
 11
448.89043662600847
 21
293.26629586083141
  0
ARC
  8
_0-b_細線1
  6
CONTINUOUS
 62
    7
 10
427.89043663152546
 20
289.51629586083141
 40
2.4999999999999996
 50
0
 51
89.999999999999915
  0
LINE
  8
_0-b_細線1
  6
CONTINUOUS
 62
    7
 10
427.89043663152546
 20
292.01629586083118
 11
421.64043663152569
 21
292.01629586083118
  0
ARC
  8
_0-b_細線1
  6
CONTINUOUS
 62
    7
 10
441.39043663152552
 20
289.51629586083141
 40
2.4999999999999996
 50
89.999999999999915
 51
179.99999999999983
  0
LINE
  8
_0-b_細線1
  6
CONTINUOUS
 62
    7
 10
441.39043662600716
 20
292.01629586083118
 11
447.6404366260083
 21
292.01629586083118
  0
LINE
  8
_0-b_細線1
  6
CONTINUOUS
 62
    7
 10
440.89043662876679
 20
301.76629586083118
 11
428.39043662876657
 21
301.76629586083118
  0
LINE
  8
_0-b_細線1
  6
CONTINUOUS
 62
    7
 10
430.39043662876742
 20
251.76629586083098
 11
430.39043663152597
 21
289.51629586083141
  0
LINE
  8
_0-b_細線1
  6
CONTINUOUS
 62
    7
 10
438.89043662876651
 20
251.76629586083098
 11
438.89043663152643
 21
289.51629586083141
  0
LINE
  8
_0-b_細線1
  6
CONTINUOUS
 62
    7
 10
438.89043662876651
 20
251.76629586083098
 11
430.39043662876742
 21
251.76629586083098
  0
ARC
  8
_0-b_細線1
  6
CONTINUOUS
 62
    7
 10
466.39043663243046
 20
296.76629586083095
 40
2.4999999999999996
 50
89.999999999999915
 51
179.99999999999983
  0
ARC
  8
_0-b_細線1
  6
CONTINUOUS
 62
    7
 10
467.56030961074885
 20
301.76629586083118
 40
2.4999999999999996
 50
269.99999999999977
 51
330.00000000000301
  0
ARC
  8
_0-b_細線1
  6
CONTINUOUS
 62
    7
 10
471.890436629671
 20
299.26629586083141
 40
2.4999999999999996
 50
89.999999999999915
 51
150.00000000000134
  0
LINE
  8
_0-b_細線1
  6
CONTINUOUS
 62
    7
 10
466.39043663243046
 20
299.26629586083141
 11
467.56030961074885
 21
299.26629586083141
  0
ARC
  8
_0-b_細線1
  6
CONTINUOUS
 62
    7
 10
489.8904366269125
 20
296.76629586083095
 40
2.4999999999999996
 50
0
 51
89.999999999999915
  0
ARC
  8
_0-b_細線1
  6
CONTINUOUS
 62
    7
 10
488.7205636485935
 20
301.76629586083118
 40
2.4999999999999996
 50
210.00000000000404
 51
269.99999999999977
  0
ARC
  8
_0-b_細線1
  6
CONTINUOUS
 62
    7
 10
484.39043662967123
 20
299.26629586083141
 40
2.4999999999999996
 50
29.999999999990862
 51
89.999999999984354
  0
LINE
  8
_0-b_細線1
  6
CONTINUOUS
 62
    7
 10
489.8904366269125
 20
299.26629586083141
 11
488.7205636485935
 21
299.26629586083141
  0
ARC
  8
_0-b_細線1
  6
CONTINUOUS
 62
    7
 10
465.14043663243024
 20
293.26629586083141
 40
1.2499999999999998
 50
179.99999999999983
 51
269.99999999999977
  0
LINE
  8
_0-b_細線1
  6
CONTINUOUS
 62
    7
 10
463.89043663243001
 20
296.76629586083095
 11
463.89043663243001
 21
293.26629586083141
  0
ARC
  8
_0-b_細線1
  6
CONTINUOUS
 62
    7
 10
491.14043662691211
 20
293.26629586083141
 40
1.2499999999999998
 50
269.99999999999977
 51
359.99999999999966
  0
LINE
  8
_0-b_細線1
  6
CONTINUOUS
 62
    7
 10
492.39043662691233
 20
296.76629586083095
 11
492.39043662691233
 21
293.26629586083141
  0
ARC
  8
_0-b_細線1
  6
CONTINUOUS
 62
    7
 10
471.39043663243001
 20
289.51629586083141
 40
2.4999999999999996
 50
0
 51
89.999999999999915
  0
LINE
  8
_0-b_細線1
  6
CONTINUOUS
 62
    7
 10
471.39043663243001
 20
292.01629586083118
 11
465.14043663243024
 21
292.01629586083118
  0
ARC
  8
_0-b_細線1
  6
CONTINUOUS
 62
    7
 10
484.89043663243069
 20
289.51629586083141
 40
2.4999999999999996
 50
89.999999999999915
 51
179.99999999999983
  0
LINE
  8
_0-b_細線1
  6
CONTINUOUS
 62
    7
 10
484.89043662691233
 20
292.01629586083118
 11
491.14043662691211
 21
292.01629586083118
  0
LINE
  8
_0-b_細線1
  6
CONTINUOUS
 62
    7
 10
484.39043662967123
 20
301.76629586083118
 11
471.890436629671
 21
301.76629586083118
  0
LINE
  8
_0-b_細線1
  6
CONTINUOUS
 62
    7
 10
473.89043662967129
 20
251.76629586083098
 11
473.89043663243046
 21
289.51629586083141
  0
LINE
  8
_0-b_細線1
  6
CONTINUOUS
 62
    7
 10
482.39043662967106
 20
251.76629586083098
 11
482.39043663243086
 21
289.51629586083141
  0
LINE
  8
_0-b_細線1
  6
CONTINUOUS
 62
    7
 10
482.39043662967106
 20
251.76629586083098
 11
473.89043662967129
 21
251.76629586083098
  0
ARC
  8
_0-b_細線1
  6
CONTINUOUS
 62
    7
 10
509.8904366333349
 20
296.76629586083095
 40
2.4999999999999996
 50
89.999999999999915
 51
179.99999999999983
  0
ARC
  8
_0-b_細線1
  6
CONTINUOUS
 62
    7
 10
511.06030961165334
 20
301.76629586083118
 40
2.4999999999999996
 50
269.99999999999977
 51
329.99999999999591
  0
ARC
  8
_0-b_細線1
  6
CONTINUOUS
 62
    7
 10
515.39043663057555
 20
299.26629586083141
 40
2.4999999999999996
 50
89.999999999999915
 51
150.00000000000915
  0
LINE
  8
_0-b_細線1
  6
CONTINUOUS
 62
    7
 10
509.8904366333349
 20
299.26629586083141
 11
511.06030961165334
 21
299.26629586083141
  0
ARC
  8
_0-b_細線1
  6
CONTINUOUS
 62
    7
 10
533.39043662781705
 20
296.76629586083095
 40
2.4999999999999996
 50
0
 51
89.999999999999915
  0
ARC
  8
_0-b_細線1
  6
CONTINUOUS
 62
    7
 10
532.22056364949799
 20
301.76629586083118
 40
2.4999999999999996
 50
209.99999999999622
 51
269.99999999999977
  0
ARC
  8
_0-b_細線1
  6
CONTINUOUS
 62
    7
 10
527.89043663057578
 20
299.26629586083141
 40
2.4999999999999996
 50
29.999999999998682
 51
89.999999999999915
  0
LINE
  8
_0-b_細線1
  6
CONTINUOUS
 62
    7
 10
533.39043662781705
 20
299.26629586083141
 11
532.22056364949799
 21
299.26629586083141
  0
ARC
  8
_0-b_細線1
  6
CONTINUOUS
 62
    7
 10
508.64043663333541
 20
293.26629586083141
 40
1.2499999999999998
 50
179.99999999999983
 51
269.99999999999977
  0
LINE
  8
_0-b_細線1
  6
CONTINUOUS
 62
    7
 10
507.3904366333345
 20
296.76629586083095
 11
507.3904366333345
 21
293.26629586083141
  0
ARC
  8
_0-b_細線1
  6
CONTINUOUS
 62
    7
 10
534.6404366278166
 20
293.26629586083141
 40
1.2499999999999998
 50
269.99999999999977
 51
359.99999999999966
  0
LINE
  8
_0-b_細線1
  6
CONTINUOUS
 62
    7
 10
535.89043662781683
 20
296.76629586083095
 11
535.89043662781683
 21
293.26629586083141
  0
ARC
  8
_0-b_細線1
  6
CONTINUOUS
 62
    7
 10
514.8904366333345
 20
289.51629586083141
 40
2.4999999999999996
 50
0
 51
89.999999999999915
  0
LINE
  8
_0-b_細線1
  6
CONTINUOUS
 62
    7
 10
514.8904366333345
 20
292.01629586083118
 11
508.64043663333541
 21
292.01629586083118
  0
ARC
  8
_0-b_細線1
  6
CONTINUOUS
 62
    7
 10
528.39043663333518
 20
289.51629586083141
 40
2.4999999999999996
 50
89.999999999999915
 51
179.99999999999983
  0
LINE
  8
_0-b_細線1
  6
CONTINUOUS
 62
    7
 10
528.39043662781683
 20
292.01629586083118
 11
534.6404366278166
 21
292.01629586083118
  0
LINE
  8
_0-b_細線1
  6
CONTINUOUS
 62
    7
 10
527.89043663057578
 20
301.76629586083118
 11
515.39043663057555
 21
301.76629586083118
  0
LINE
  8
_0-b_細線1
  6
CONTINUOUS
 62
    7
 10
517.39043663057578
 20
251.76629586083098
 11
517.39043663333496
 21
289.51629586083141
  0
LINE
  8
_0-b_細線1
  6
CONTINUOUS
 62
    7
 10
525.89043663057555
 20
251.76629586083098
 11
525.89043663333541
 21
289.51629586083141
  0
LINE
  8
_0-b_細線1
  6
CONTINUOUS
 62
    7
 10
525.89043663057555
 20
251.76629586083098
 11
517.39043663057578
 21
251.76629586083098
  0
LINE
  8
_0-d_寸法1
  6
CONTINUOUS
 62
    7
 10
425.98018259092265
 20
306.76629586083124
 11
371.10279298292676
 21
338.44977152343222
  0
LINE
  8
_0-d_寸法1
  6
CONTINUOUS
 62
    7
 10
375.43292000184891
 20
335.9497715234321
 11
378.02111045287404
 21
326.29051326054139
  0
LINE
  8
_0-d_寸法1
  6
CONTINUOUS
 62
    7
 10
375.43292000184891
 20
335.9497715234321
 11
372.84472955082373
 21
326.29051326054145
  0
LINE
  8
_0-d_寸法1
  6
CONTINUOUS
 62
    7
 10
425.98018259092265
 20
256.76629586083101
 11
371.10279298292676
 21
288.44977152343176
  0
LINE
  8
_0-d_寸法1
  6
CONTINUOUS
 62
    7
 10
375.43292000184891
 20
285.94977152343176
 11
372.84472955082373
 21
295.60902978632242
  0
LINE
  8
_0-d_寸法1
  6
CONTINUOUS
 62
    7
 10
375.43292000184891
 20
285.94977152343176
 11
378.0211104528741
 21
295.60902978632242
  0
LINE
  8
_0-d_寸法1
  6
CONTINUOUS
 62
    7
 10
375.43292000184891
 20
335.9497715234321
 11
375.43292000184891
 21
285.94977152343176
  0
TEXT
  8
_0-d_寸法1
 62
    7
 10
375.43292000184891
 20
303.44977152343199
 40
15
 41
1
 50
90
  1
20
  0
LINE
  8
_0-b_細線1
  6
CONTINUOUS
 62
    7
 10
351.89043662833819
 20
290.01629586083118
 11
386.89043662833768
 21
290.01629586083118
  0
LINE
  8
_0-b_細線1
  6
CONTINUOUS
 62
    7
 10
395.390436629242
 20
290.01629586083118
 11
430.39043662924223
 21
290.01629586083118
  0
LINE
  8
_0-b_細線1
  6
CONTINUOUS
 62
    7
 10
482.39043663105093
 20
290.01629586083118
 11
517.39043663105122
 21
290.01629586083118
  0
LINE
  8
_0-a_極細1
  6
CENTER1
 62
    7
 10
544.32084856866936
 20
273.76629586083118
 11
324.71792934448644
 21
273.76629586083118
  0
LINE
  8
_0-b_細線1
  6
CONTINUOUS
 62
    7
 10
351.89043662833791
 20
257.51629586083072
 11
386.89043662833745
 21
257.51629586083072
  0
LINE
  8
_0-b_細線1
  6
CONTINUOUS
 62
    7
 10
395.39043662924172
 20
257.51629586083072
 11
430.390436629242
 21
257.51629586083072
  0
LINE
  8
_0-b_細線1
  6
CONTINUOUS
 62
    7
 10
482.39043663105144
 20
257.51629586083072
 11
517.39043663105099
 21
257.51629586083072
  0
LINE
  8
_0-b_細線1
  6
CONTINUOUS
 62
    7
 10
438.8904366301465
 20
290.01629586083118
 11
450.51543663059874
 21
290.01629586083118
  0
LINE
  8
_0-b_細線1
  6
CONTINUOUS
 62
    7
 10
462.26543663059874
 20
290.01629586083118
 11
473.89043663014667
 21
290.01629586083118
  0
LINE
  8
_0-b_細線1
  6
CONTINUOUS
 62
    7
 10
438.89043662915037
 20
257.51629586083072
 11
450.51543663059874
 21
257.51629586083072
  0
LINE
  8
_0-b_細線1
  6
CONTINUOUS
 62
    7
 10
462.26543663059874
 20
257.51629586083072
 11
473.8904366301465
 21
257.51629586083072
  0
LINE
  8
_0-b_細線1
  6
CONTINUOUS
 62
    7
 10
462.26543663059874
 20
301.26629586082663
 11
462.26543663059874
 21
253.76629586082555
  0
LINE
  8
_0-b_細線1
  6
CONTINUOUS
 62
    7
 10
450.51543663059783
 20
253.76629586082555
 11
450.51543663059783
 21
301.26629586082663
  0
LINE
  8
_0-b_細線1
  6
CONTINUOUS
 62
    7
 10
462.26543663059874
 20
253.76629586082555
 11
450.51543663059783
 21
253.76629586082555
  0
LINE
  8
_0-b_細線1
  6
CONTINUOUS
 62
    7
 10
450.51543663059783
 20
301.26629586082663
 11
462.26543663059874
 21
301.26629586082663
  0
LINE
  8
_0-b_細線1
  6
DASHED2
 62
    7
 10
450.51543663059783
 20
261.26629586082549
 11
462.26543663059874
 21
261.26629586082549
  0
LINE
  8
_0-b_細線1
  6
DASHED2
 62
    7
 10
450.51543663059783
 20
295.0162958608264
 11
462.26543663059874
 21
295.0162958608264
  0
LINE
  8
_0-a_極細1
  6
CONTINUOUS
 62
    7
 10
359.64043739414586
 20
244.26629586083098
 11
359.64043739414586
 21
115.39301645030292
  0
LINE
  8
_0-a_極細1
  6
CONTINUOUS
 62
    7
 10
509.64043739414592
 20
244.26629586083098
 11
509.64043739414592
 21
115.39301645030292
  0
LINE
  8
_0-b_細線1
  6
CONTINUOUS
 62
    7
 10
340.89043662833723
 20
273.7662958608305
 11
333.37914662833776
 21
273.7662958608305
  0
LINE
  8
_0-b_細線1
  6
CONTINUOUS
 62
    7
 10
340.89043662833723
 20
265.01629586083163
 11
333.37911662833852
 21
265.01629586083163
  0
ARC
  8
_0-b_細線1
  6
CONTINUOUS
 62
    7
 10
333.37911662833852
 20
265.51629586083118
 40
0.5000000000000002
 50
179.99999999999983
 51
269.99999999999977
  0
ARC
  8
_0-b_細線1
  6
CONTINUOUS
 62
    7
 10
352.27406662833749
 20
269.39093086083199
 40
19.394889999999997
 50
166.96197800000462
 51
193.0356700000001
  0
ARC
  8
_0-b_細線1
  6
CONTINUOUS
 62
    7
 10
333.37911662833852
 20
282.01629586083186
 40
0.5000000000000002
 50
89.999999999999915
 51
179.99999999999983
  0
ARC
  8
_0-b_細線1
  6
CONTINUOUS
 62
    7
 10
352.27406662833749
 20
278.14165586083072
 40
19.394889999999997
 50
166.96432999999956
 51
193.03802199999899
  0
LINE
  8
_0-b_細線1
  6
CONTINUOUS
 62
    7
 10
340.89043662833723
 20
282.51629586083141
 11
333.37911662833852
 21
282.51629586083141
  0
LINE
  8
_0-b_細線1
  6
CONTINUOUS
 62
    7
 10
332.87911662833767
 20
265.51629586083118
 11
332.87911662833767
 21
282.01629586083186
  0
ARC
  8
_0-b_細線1
  6
CONTINUOUS
 62
    7
 10
341.39043662833814
 20
258.01629586083118
 40
0.5000000000000002
 50
179.99999999999983
 51
269.99999999999977
  0
ARC
  8
_0-b_細線1
  6
CONTINUOUS
 62
    7
 10
341.39043662833814
 20
289.5162958608305
 40
0.5000000000000002
 50
89.999999999999915
 51
179.99999999999983
  0
LINE
  8
_0-b_細線1
  6
CONTINUOUS
 62
    7
 10
340.89043662833723
 20
272.51629586083095
 11
340.89043662833723
 21
258.01629586083118
  0
LINE
  8
_0-b_細線1
  6
CONTINUOUS
 62
    7
 10
340.89043662833723
 20
289.5162958608305
 11
340.89043662833723
 21
272.51629586083095
  0
LINE
  8
_0-b_細線1
  6
CONTINUOUS
 62
    7
 10
343.39043662737794
 20
257.51629586083095
 11
341.39043662833814
 21
257.51629586083095
  0
LINE
  8
_0-b_細線1
  6
CONTINUOUS
 62
    7
 10
343.39043662975337
 20
290.01629586083141
 11
341.39043662833814
 21
290.01629586083141
  0
LINE
  8
_0-b_細線1
  6
CONTINUOUS
 62
    7
 10
528.39043662919653
 20
273.7662958608305
 11
535.90172662919599
 21
273.7662958608305
  0
LINE
  8
_0-b_細線1
  6
CONTINUOUS
 62
    7
 10
528.39043662919653
 20
265.01629586083163
 11
535.90175662919523
 21
265.01629586083163
  0
ARC
  8
_0-b_細線1
  6
CONTINUOUS
 62
    7
 10
535.90175662919523
 20
265.51629586083118
 40
0.5000000000000002
 50
269.99999999999977
 51
359.99999999999966
  0
ARC
  8
_0-b_細線1
  6
CONTINUOUS
 62
    7
 10
517.00680662919626
 20
269.39093086083199
 40
19.394889999999997
 50
346.96432999999922
 51
13.038021999995031
  0
ARC
  8
_0-b_細線1
  6
CONTINUOUS
 62
    7
 10
535.90175662919523
 20
282.01629586083186
 40
0.5000000000000002
 50
0
 51
89.999999999999915
  0
ARC
  8
_0-b_細線1
  6
CONTINUOUS
 62
    7
 10
517.00680662919626
 20
278.14165586083072
 40
19.394889999999997
 50
346.96197800000027
 51
13.035670000000083
  0
LINE
  8
_0-b_細線1
  6
CONTINUOUS
 62
    7
 10
528.39043662919653
 20
282.51629586083141
 11
535.90175662919523
 21
282.51629586083141
  0
LINE
  8
_0-b_細線1
  6
CONTINUOUS
 62
    7
 10
536.40175662919614
 20
265.51629586083118
 11
536.40175662919614
 21
282.01629586083186
  0
ARC
  8
_0-b_細線1
  6
CONTINUOUS
 62
    7
 10
527.89043662919562
 20
258.01629586083118
 40
0.5000000000000002
 50
269.99999999999977
 51
359.99999999999966
  0
ARC
  8
_0-b_細線1
  6
CONTINUOUS
 62
    7
 10
527.89043662919562
 20
289.5162958608305
 40
0.5000000000000002
 50
0
 51
89.999999999999915
  0
LINE
  8
_0-b_細線1
  6
CONTINUOUS
 62
    7
 10
528.39043662919653
 20
272.51629586083095
 11
528.39043662919653
 21
258.01629586083118
  0
LINE
  8
_0-b_細線1
  6
CONTINUOUS
 62
    7
 10
528.39043662919653
 20
289.5162958608305
 11
528.39043662919653
 21
272.51629586083095
  0
LINE
  8
_0-b_細線1
  6
CONTINUOUS
 62
    7
 10
525.89043663015582
 20
257.51629586083095
 11
527.89043662919562
 21
257.51629586083095
  0
LINE
  8
_0-b_細線1
  6
CONTINUOUS
 62
    7
 10
525.89043662778045
 20
290.01629586083141
 11
527.89043662919562
 21
290.01629586083141
  0
LINE
  8
_0-d_寸法1
  6
CONTINUOUS
 62
    7
 10
312.14043739414592
 20
301.76629586083112
 11
267.14043739414564
 21
301.76629586083106
  0
LINE
  8
_0-d_寸法1
  6
CONTINUOUS
 62
    7
 10
272.14043739414564
 20
301.76629586083106
 11
274.72862784517082
 21
292.10703759794035
  0
LINE
  8
_0-d_寸法1
  6
CONTINUOUS
 62
    7
 10
272.14043739414564
 20
301.76629586083106
 11
269.55224694312039
 21
292.10703759794046
  0
LINE
  8
_0-d_寸法1
  6
CONTINUOUS
 62
    7
 10
306.39043739414592
 20
244.26629586083101
 11
267.14043739414564
 21
244.26629586083101
  0
LINE
  8
_0-d_寸法1
  6
CONTINUOUS
 62
    7
 10
272.14043739414564
 20
244.26629586083098
 11
269.55224694312039
 21
253.92555412372167
  0
LINE
  8
_0-d_寸法1
  6
CONTINUOUS
 62
    7
 10
272.14043739414564
 20
244.26629586083098
 11
274.72862784517082
 21
253.92555412372167
  0
LINE
  8
_0-d_寸法1
  6
CONTINUOUS
 62
    7
 10
272.14043739414564
 20
301.76629586083106
 11
272.14043739414564
 21
244.26629586083098
  0
TEXT
  8
_0-d_寸法1
 62
    7
 10
272.14043739414564
 20
265.51629586083106
 40
15
 41
1
 50
90
  1
23
  0
LINE
  8
_0-d_寸法1
  6
CONTINUOUS
 62
    7
 10
322.14043739414586
 20
306.76629586083106
 11
322.14043739414586
 21
426.76629586083124
  0
LINE
  8
_0-d_寸法1
  6
CONTINUOUS
 62
    7
 10
322.14043739414586
 20
421.76629586083124
 11
331.79969565703652
 21
424.35448631185636
  0
LINE
  8
_0-d_寸法1
  6
CONTINUOUS
 62
    7
 10
322.14043739414586
 20
421.76629586083124
 11
331.79969565703652
 21
419.17810540980605
  0
LINE
  8
_0-d_寸法1
  6
CONTINUOUS
 62
    7
 10
547.1404373941466
 20
306.76629586083106
 11
547.14043739414683
 21
426.76629586083124
  0
LINE
  8
_0-d_寸法1
  6
CONTINUOUS
 62
    7
 10
547.14043739414683
 20
421.76629586083124
 11
537.48117913125611
 21
419.17810540980605
  0
LINE
  8
_0-d_寸法1
  6
CONTINUOUS
 62
    7
 10
547.14043739414683
 20
421.76629586083124
 11
537.48117913125611
 21
424.35448631185642
  0
LINE
  8
_0-d_寸法1
  6
CONTINUOUS
 62
    7
 10
322.14043739414586
 20
421.76629586083124
 11
547.14043739414683
 21
421.76629586083124
  0
TEXT
  8
_0-d_寸法1
 62
    7
 10
427.14043739414637
 20
421.76629586083124
 40
15
 41
1
 50
0
  1
90
  0
TEXT
  8
_0-7_枠細線
 62
    5
 10
381.71879932892284
 20
85.347293202326142
 40
25
 41
0.8
 50
0
  1
断面詳細図
  0
TEXT
  8
_0-7_枠細線
 62
    5
 10
496.66776907809083
 20
88.288036126853555
 40
20
 41
0.6
 50
0
  1
Ｓ＝１：２
  0
LINE
  8
_0-a_極細1
  6
CONTINUOUS
 62
    7
 10
175.87381667647378
 20
244.26629586083106
 11
329.64043739414586
 21
244.26629586083106
  0
LINE
  8
_0-a_極細1
  6
CONTINUOUS
 62
    7
 10
539.64043739414683
 20
244.26629586083098
 11
693.40705811181874
 21
244.26629586083098
  0
LINE
  8
_0-a_極細1
  6
CONTINUOUS
 62
    7
 10
322.14043739414586
 20
271.76629586083106
 11
175.87381667647378
 21
271.76629586083106
  0
LINE
  8
_0-a_極細1
  6
CONTINUOUS
 62
    7
 10
322.14043739414586
 20
301.76629586083106
 11
175.87381667647378
 21
301.76629586083106
  0
LINE
  8
_0-a_極細1
  6
CONTINUOUS
 62
    7
 10
322.14043739414586
 20
300.51629586083106
 11
322.14043739414586
 21
301.76629586083106
  0
LINE
  8
_0-a_極細1
  6
CONTINUOUS
 62
    7
 10
283.88745788689039
 20
271.76629586083106
 11
313.88745788689107
 21
301.76629586083106
  0
LINE
  8
_0-a_極細1
  6
CONTINUOUS
 62
    7
 10
267.97755531019379
 20
271.76629586083106
 11
297.97755531019379
 21
301.76629586083129
  0
LINE
  8
_0-a_極細1
  6
CONTINUOUS
 62
    7
 10
252.06765273349646
 20
271.76629586083101
 11
282.06765273349646
 21
301.76629586083095
  0
LINE
  8
_0-a_極細1
  6
CONTINUOUS
 62
    7
 10
236.1577501567983
 20
271.76629586083101
 11
266.15775015679912
 21
301.76629586083106
  0
LINE
  8
_0-a_極細1
  6
CONTINUOUS
 62
    7
 10
220.24784758010185
 20
271.76629586083106
 11
250.24784758010128
 21
301.76629586083106
  0
LINE
  8
_0-a_極細1
  6
CONTINUOUS
 62
    7
 10
204.33794500340454
 20
271.76629586083106
 11
234.33794500340397
 21
301.76629586083106
  0
LINE
  8
_0-a_極細1
  6
CONTINUOUS
 62
    7
 10
188.42804242670672
 20
271.76629586083106
 11
218.42804242670672
 21
301.76629586083106
  0
LINE
  8
_0-a_極細1
  6
CONTINUOUS
 62
    7
 10
175.87381666523825
 20
275.12197267605984
 11
202.5181398500095
 21
301.76629586083106
  0
LINE
  8
_0-a_極細1
  6
CONTINUOUS
 62
    7
 10
175.87381666320573
 20
291.03187525072428
 11
186.6082372733122
 21
301.76629586083095
  0
LINE
  8
_0-a_極細1
  6
CONTINUOUS
 62
    7
 10
299.79736046358812
 20
271.76629586083129
 11
322.14043739414586
 21
294.1093727913883
  0
LINE
  8
_0-a_極細1
  6
CONTINUOUS
 62
    7
 10
315.70726304028602
 20
271.76629586083152
 11
322.14043739414586
 21
278.19947021469113
  0
LINE
  8
_0-a_極細1
  6
CONTINUOUS
 62
    7
 10
547.1404373941466
 20
301.76629586083106
 11
693.40705811181874
 21
301.76629586083106
  0
LINE
  8
_0-a_極細1
  6
CONTINUOUS
 62
    7
 10
547.1404373941466
 20
300.51629586083106
 11
547.1404373941466
 21
301.76629586083106
  0
LINE
  8
_0-a_極細1
  6
CONTINUOUS
 62
    7
 10
547.1404373941466
 20
271.76629586083106
 11
693.40705811181874
 21
271.76629586083106
  0
LINE
  8
_0-a_極細1
  6
CONTINUOUS
 62
    7
 10
554.36473003441733
 20
271.76629586083106
 11
584.36472984100237
 21
301.76629566741587
  0
LINE
  8
_0-a_極細1
  6
CONTINUOUS
 62
    7
 10
570.27463261111484
 20
271.76629586083106
 11
600.2746322932378
 21
301.76629554295437
  0
LINE
  8
_0-a_極細1
  6
CONTINUOUS
 62
    7
 10
586.18453518781189
 20
271.76629586083106
 11
616.18453474547391
 21
301.76629541849297
  0
LINE
  8
_0-a_極細1
  6
CONTINUOUS
 62
    7
 10
602.09443776450917
 20
271.76629586083106
 11
632.09443719771002
 21
301.76629529403169
  0
LINE
  8
_0-a_極細1
  6
CONTINUOUS
 62
    7
 10
618.00434034120599
 20
271.76629586083106
 11
648.00433964994613
 21
301.7662951695703
  0
LINE
  8
_0-a_極細1
  6
CONTINUOUS
 62
    7
 10
633.91424291790349
 20
271.76629586083106
 11
663.91424210218202
 21
301.76629504510879
  0
LINE
  8
_0-a_極細1
  6
CONTINUOUS
 62
    7
 10
649.82414549460191
 20
271.76629586083106
 11
679.82414455441767
 21
301.76629492064762
  0
LINE
  8
_0-a_極細1
  6
CONTINUOUS
 62
    7
 10
665.73404807129907
 20
271.76629586083106
 11
693.40705811181874
 21
299.43930590135108
  0
LINE
  8
_0-a_極細1
  6
CONTINUOUS
 62
    7
 10
547.1404373941466
 20
296.36180837395466
 11
552.54492481206898
 21
301.76629579187704
  0
LINE
  8
_0-a_極細1
  6
CONTINUOUS
 62
    7
 10
547.1404373941466
 20
280.45190579725738
 11
568.45482738876626
 21
301.76629579187704
  0
LINE
  8
_0-a_極細1
  6
CONTINUOUS
 62
    7
 10
681.64395064799601
 20
271.76629586083106
 11
693.40705786788726
 21
283.52940308072232
  0
LINE
  8
_0-a_極細1
  6
CONTINUOUS
 62
    7
 10
175.87381666523825
 20
245.12197267605984
 11
202.5181398500095
 21
271.76629586083106
  0
LINE
  8
_0-a_極細1
  6
CONTINUOUS
 62
    7
 10
175.87381666320573
 20
261.03187525072428
 11
186.6082372733122
 21
271.76629586083095
  0
LINE
  8
_0-a_極細1
  6
CONTINUOUS
 62
    7
 10
190.92804242670672
 20
244.26629586083106
 11
218.42804242670672
 21
271.76629586083106
  0
LINE
  8
_0-a_極細1
  6
CONTINUOUS
 62
    7
 10
206.83794500340454
 20
244.26629586083109
 11
234.33794500340397
 21
271.76629586083106
  0
LINE
  8
_0-a_極細1
  6
CONTINUOUS
 62
    7
 10
222.74784758010185
 20
244.26629586083109
 11
250.24784758010128
 21
271.76629586083106
  0
LINE
  8
_0-a_極細1
  6
CONTINUOUS
 62
    7
 10
238.6577501567983
 20
244.26629586083106
 11
266.15775015679912
 21
271.76629586083106
  0
LINE
  8
_0-a_極細1
  6
CONTINUOUS
 62
    7
 10
254.56765273349646
 20
244.26629586083106
 11
282.06765273349646
 21
271.76629586083095
  0
LINE
  8
_0-a_極細1
  6
CONTINUOUS
 62
    7
 10
270.47755531019379
 20
244.26629586083106
 11
297.97755531019379
 21
271.76629586083129
  0
LINE
  8
_0-a_極細1
  6
CONTINUOUS
 62
    7
 10
286.38745788689039
 20
244.26629586083106
 11
313.88745788689107
 21
271.76629586083106
  0
LINE
  8
_0-a_極細1
  6
CONTINUOUS
 62
    7
 10
318.20726304028551
 20
244.26629586083106
 11
322.74865632503906
 21
248.80768914558445
  0
LINE
  8
_0-a_極細1
  6
CONTINUOUS
 62
    7
 10
302.29736046358795
 20
244.26629586083106
 11
322.14043739414586
 21
264.1093727913883
  0
LINE
  8
_0-a_極細1
  6
CONTINUOUS
 62
    7
 10
322.14043771357552
 20
261.03187525072428
 11
311.40601710346914
 21
271.76629586083095
  0
LINE
  8
_0-a_極細1
  6
CONTINUOUS
 62
    7
 10
307.08621195007453
 20
244.26629586083106
 11
279.58621195007453
 21
271.76629586083106
  0
LINE
  8
_0-a_極細1
  6
CONTINUOUS
 62
    7
 10
291.17630937337663
 20
244.26629586083109
 11
263.67630937337719
 21
271.76629586083106
  0
LINE
  8
_0-a_極細1
  6
CONTINUOUS
 62
    7
 10
275.26640679667941
 20
244.26629586083109
 11
247.76640679667997
 21
271.76629586083106
  0
LINE
  8
_0-a_極細1
  6
CONTINUOUS
 62
    7
 10
259.35650421998287
 20
244.26629586083106
 11
231.85650421998204
 21
271.76629586083106
  0
LINE
  8
_0-a_極細1
  6
CONTINUOUS
 62
    7
 10
243.44660164328474
 20
244.26629586083106
 11
215.94660164328479
 21
271.76629586083095
  0
LINE
  8
_0-a_極細1
  6
CONTINUOUS
 62
    7
 10
227.53669906658772
 20
244.26629586083106
 11
200.03669906658757
 21
271.76629586083129
  0
LINE
  8
_0-a_極細1
  6
CONTINUOUS
 62
    7
 10
211.62679648989098
 20
244.26629586083106
 11
184.12679648989027
 21
271.76629586083106
  0
LINE
  8
_0-a_極細1
  6
CONTINUOUS
 62
    7
 10
179.80699133649566
 20
244.26629586083106
 11
175.2655980517423
 21
248.80768914558445
  0
LINE
  8
_0-a_極細1
  6
CONTINUOUS
 62
    7
 10
195.7168939131933
 20
244.26629586083106
 11
175.87381698263542
 21
264.1093727913883
  0
LINE
  8
_0-a_極細1
  6
CONTINUOUS
 62
    7
 10
322.99611452677186
 20
244.26629586083106
 11
295.49611452677186
 21
271.76629586083106
  0
LINE
  8
_0-a_極細1
  6
CONTINUOUS
 62
    7
 10
547.1404373941466
 20
266.36180837395466
 11
552.54492481206898
 21
271.76629579187704
  0
LINE
  8
_0-a_極細1
  6
CONTINUOUS
 62
    7
 10
547.1404373941466
 20
250.45190579725738
 11
568.45482738876626
 21
271.76629579187704
  0
LINE
  8
_0-a_極細1
  6
CONTINUOUS
 62
    7
 10
556.86473003441733
 20
244.26629586083098
 11
584.36472984100237
 21
271.76629566741587
  0
LINE
  8
_0-a_極細1
  6
CONTINUOUS
 62
    7
 10
572.77463261111484
 20
244.26629586083098
 11
600.2746322932378
 21
271.76629554295437
  0
LINE
  8
_0-a_極細1
  6
CONTINUOUS
 62
    7
 10
588.68453518781189
 20
244.26629586083098
 11
616.18453474547391
 21
271.76629541849297
  0
LINE
  8
_0-a_極細1
  6
CONTINUOUS
 62
    7
 10
604.59443776450917
 20
244.26629586083098
 11
632.09443719771002
 21
271.76629529403169
  0
LINE
  8
_0-a_極細1
  6
CONTINUOUS
 62
    7
 10
620.50434034120599
 20
244.26629586083098
 11
648.00433964994613
 21
271.7662951695703
  0
LINE
  8
_0-a_極細1
  6
CONTINUOUS
 62
    7
 10
636.41424291790349
 20
244.26629586083098
 11
663.91424210218202
 21
271.76629504510879
  0
LINE
  8
_0-a_極細1
  6
CONTINUOUS
 62
    7
 10
652.32414549460168
 20
244.26629586083098
 11
679.82414455441767
 21
271.76629492064762
  0
LINE
  8
_0-a_極細1
  6
CONTINUOUS
 62
    7
 10
668.23404807129873
 20
244.26629586083098
 11
693.40705811181874
 21
269.43930590135108
  0
LINE
  8
_0-a_極細1
  6
CONTINUOUS
 62
    7
 10
684.14395064799578
 20
244.26629586083098
 11
693.40705786788726
 21
253.52940308072235
  0
LINE
  8
_0-a_極細1
  6
CONTINUOUS
 62
    7
 10
693.40705841798035
 20
266.36180837395466
 11
688.00257100005797
 21
271.76629579187704
  0
LINE
  8
_0-a_極細1
  6
CONTINUOUS
 62
    7
 10
693.40705841798035
 20
250.45190579725738
 11
672.09266842336081
 21
271.76629579187704
  0
LINE
  8
_0-a_極細1
  6
CONTINUOUS
 62
    7
 10
683.68276577770973
 20
244.26629586083098
 11
656.18276597112458
 21
271.76629566741587
  0
LINE
  8
_0-a_極細1
  6
CONTINUOUS
 62
    7
 10
667.77286320101211
 20
244.26629586083098
 11
640.27286351888915
 21
271.76629554295437
  0
LINE
  8
_0-a_極細1
  6
CONTINUOUS
 62
    7
 10
651.86296062431506
 20
244.26629586083098
 11
624.36296106665304
 21
271.76629541849297
  0
LINE
  8
_0-a_極細1
  6
CONTINUOUS
 62
    7
 10
635.95305804761779
 20
244.26629586083098
 11
608.45305861441693
 21
271.76629529403169
  0
LINE
  8
_0-a_極細1
  6
CONTINUOUS
 62
    7
 10
620.04315547092096
 20
244.26629586083098
 11
592.54315616218082
 21
271.7662951695703
  0
LINE
  8
_0-a_極細1
  6
CONTINUOUS
 62
    7
 10
604.13325289422346
 20
244.26629586083098
 11
576.63325370994494
 21
271.76629504510879
  0
LINE
  8
_0-a_極細1
  6
CONTINUOUS
 62
    7
 10
588.22335031752527
 20
244.26629586083098
 11
560.72335125770928
 21
271.76629492064762
  0
LINE
  8
_0-a_極細1
  6
CONTINUOUS
 62
    7
 10
572.313447740828
 20
244.26629586083098
 11
547.14043770030821
 21
269.43930590135108
  0
LINE
  8
_0-a_極細1
  6
CONTINUOUS
 62
    7
 10
556.40354516413095
 20
244.26629586083098
 11
547.14043794423969
 21
253.52940308072235
  0
LINE
  8
_0-b_細線1
  6
DASHED2
 62
    7
 10
347.76543662876685
 20
246.64129586083101
 11
352.89043662876685
 21
251.76629586083098
  0
LINE
  8
_0-b_細線1
  6
DASHED2
 62
    7
 10
347.76543662876685
 20
246.64129586083101
 11
347.76543662876685
 21
244.26629586083098
  0
LINE
  8
_0-b_細線1
  6
DASHED2
 62
    7
 10
336.51543662876685
 20
246.64129586083101
 11
331.39043662876691
 21
251.76629586083098
  0
LINE
  8
_0-b_細線1
  6
DASHED2
 62
    7
 10
336.51543662876685
 20
246.64129586083101
 11
336.51543662876685
 21
244.26629586083098
  0
LINE
  8
_0-a_極細1
  6
CENTER1
 62
    7
 10
342.14043662876685
 20
256.62984755197226
 11
342.14043662876685
 21
237.96318088530569
  0
LINE
  8
_0-d_寸法1
  6
CONTINUOUS
 62
    7
 10
359.64043739414586
 20
239.26629586083098
 11
359.64043739414586
 21
189.26629586083095
  0
LINE
  8
_0-d_寸法1
  6
CONTINUOUS
 62
    7
 10
359.64043739414586
 20
194.26629586083095
 11
369.29969565703652
 21
196.85448631185622
  0
LINE
  8
_0-d_寸法1
  6
CONTINUOUS
 62
    7
 10
359.64043739414586
 20
194.26629586083095
 11
369.29969565703652
 21
191.67810540980582
  0
LINE
  8
_0-d_寸法1
  6
CONTINUOUS
 62
    7
 10
509.64043739414592
 20
239.26629586083098
 11
509.64043739414592
 21
189.26629586083095
  0
LINE
  8
_0-d_寸法1
  6
CONTINUOUS
 62
    7
 10
509.64043739414592
 20
194.26629586083095
 11
499.9811791312552
 21
191.67810540980582
  0
LINE
  8
_0-d_寸法1
  6
CONTINUOUS
 62
    7
 10
509.64043739414592
 20
194.26629586083095
 11
499.98117913125526
 21
196.85448631185622
  0
LINE
  8
_0-d_寸法1
  6
CONTINUOUS
 62
    7
 10
359.64043739414586
 20
194.26629586083095
 11
509.64043739414592
 21
194.26629586083095
  0
TEXT
  8
_0-d_寸法1
 62
    7
 10
427.14043739414615
 20
194.26629586083095
 40
15
 41
1
 50
0
  1
60
  0
LINE
  8
_0-d_寸法1
  6
CONTINUOUS
 62
    7
 10
322.14043739414564
 20
234.26629586083106
 11
322.14043739414501
 21
189.26629586083095
  0
LINE
  8
_0-d_寸法1
  6
CONTINUOUS
 62
    7
 10
322.14043739414507
 20
194.26629586083095
 11
331.79969565703573
 21
196.85448631185622
  0
LINE
  8
_0-d_寸法1
  6
CONTINUOUS
 62
    7
 10
322.14043739414507
 20
194.26629586083095
 11
331.79969565703573
 21
191.67810540980582
  0
LINE
  8
_0-d_寸法1
  6
CONTINUOUS
 62
    7
 10
359.64043739414581
 20
234.26629586083098
 11
359.64043739414535
 21
189.26629586083095
  0
LINE
  8
_0-d_寸法1
  6
CONTINUOUS
 62
    7
 10
359.64043739414541
 20
194.26629586083095
 11
349.98117913125469
 21
191.67810540980582
  0
LINE
  8
_0-d_寸法1
  6
CONTINUOUS
 62
    7
 10
359.64043739414541
 20
194.26629586083095
 11
349.98117913125475
 21
196.85448631185622
  0
LINE
  8
_0-d_寸法1
  6
CONTINUOUS
 62
    7
 10
322.14043739414507
 20
194.26629586083095
 11
359.64043739414541
 21
194.26629586083095
  0
TEXT
  8
_0-d_寸法1
 62
    7
 10
333.39043739414586
 20
194.26629586083095
 40
15
 41
1
 50
0
  1
15
  0
LINE
  8
_0-d_寸法1
  6
CONTINUOUS
 62
    7
 10
547.1404373941466
 20
234.26629586083098
 11
547.14043739414683
 21
189.26629586083095
  0
LINE
  8
_0-d_寸法1
  6
CONTINUOUS
 62
    7
 10
547.14043739414683
 20
194.26629586083095
 11
537.48117913125611
 21
191.67810540980582
  0
LINE
  8
_0-d_寸法1
  6
CONTINUOUS
 62
    7
 10
547.14043739414683
 20
194.26629586083095
 11
537.48117913125611
 21
196.85448631185622
  0
LINE
  8
_0-d_寸法1
  6
CONTINUOUS
 62
    7
 10
509.64043739414672
 20
234.26629586083098
 11
509.64043739414706
 21
189.26629586083095
  0
LINE
  8
_0-d_寸法1
  6
CONTINUOUS
 62
    7
 10
509.64043739414706
 20
194.26629586083095
 11
519.29969565703777
 21
196.85448631185622
  0
LINE
  8
_0-d_寸法1
  6
CONTINUOUS
 62
    7
 10
509.64043739414706
 20
194.26629586083095
 11
519.29969565703777
 21
191.67810540980582
  0
LINE
  8
_0-d_寸法1
  6
CONTINUOUS
 62
    7
 10
547.14043739414683
 20
194.26629586083095
 11
509.64043739414706
 21
194.26629586083095
  0
TEXT
  8
_0-d_寸法1
 62
    7
 10
520.89043739414706
 20
194.26629586083095
 40
15
 41
1
 50
0.0000000000002714
  1
15
  0
LINE
  8
_0-a_極細1
  6
CENTER1
 62
    7
 10
434.64043662876696
 20
309.53068782404
 11
434.64043662876696
 21
238.99165520493011
  0
LINE
  8
_0-d_寸法1
  6
CONTINUOUS
 62
    7
 10
350.95994906224638
 20
249.83580829431051
 11
357.52257861016579
 21
242.29048567584186
  0
LINE
  8
_0-d_寸法1
  6
CONTINUOUS
 62
    7
 10
350.95994906224638
 20
249.83580829431051
 11
352.87069165713666
 21
240.02005245300765
  0
LINE
  8
_0-d_寸法1
  6
CONTINUOUS
 62
    7
 10
350.95994906224638
 20
249.83580829431051
 11
365.47921345557677
 21
220.08731099448681
  0
LINE
  8
_0-d_寸法1
  6
CONTINUOUS
 62
    7
 10
365.47921345557677
 20
220.08731099448681
 11
437.47921345557677
 21
220.08731099448681
  0
TEXT
  8
_0-d_寸法1
 62
    7
 10
365.47921345557677
 20
220.08731099448681
 40
15
 41
0.8000000000000001
 50
0
  1
Ｍ４皿モミ穴
  0
LINE
  8
_0-b_細線1
  6
DASHED2
 62
    7
 10
521.51543662876702
 20
246.64129586083101
 11
516.39043662876702
 21
251.76629586083098
  0
LINE
  8
_0-b_細線1
  6
DASHED2
 62
    7
 10
521.51543662876702
 20
246.64129586083101
 11
521.51543662876702
 21
244.26629586083098
  0
LINE
  8
_0-b_細線1
  6
DASHED2
 62
    7
 10
532.76543662876702
 20
246.64129586083101
 11
537.89043662876702
 21
251.76629586083098
  0
LINE
  8
_0-b_細線1
  6
DASHED2
 62
    7
 10
532.76543662876702
 20
246.64129586083101
 11
532.76543662876702
 21
244.26629586083098
  0
LINE
  8
_0-a_極細1
  6
CENTER1
 62
    7
 10
527.14043662876702
 20
256.62984755197226
 11
527.14043662876702
 21
237.96318088530569
  0
LINE
  8
_0-d_寸法1
  6
CONTINUOUS
 62
    7
 10
463.89043663243001
 20
311.76629586083112
 11
463.89043663243001
 21
356.76629586083118
  0
LINE
  8
_0-d_寸法1
  6
CONTINUOUS
 62
    7
 10
463.89043663243001
 20
351.76629586083118
 11
473.54969489532067
 21
354.35448631185631
  0
LINE
  8
_0-d_寸法1
  6
CONTINUOUS
 62
    7
 10
463.89043663243001
 20
351.76629586083118
 11
473.54969489532067
 21
349.17810540980599
  0
LINE
  8
_0-d_寸法1
  6
CONTINUOUS
 62
    7
 10
492.39043662691233
 20
311.76629586083112
 11
492.39043662691239
 21
356.76629586083118
  0
LINE
  8
_0-d_寸法1
  6
CONTINUOUS
 62
    7
 10
492.39043662691239
 20
351.76629586083118
 11
482.73117836402162
 21
349.17810540980599
  0
LINE
  8
_0-d_寸法1
  6
CONTINUOUS
 62
    7
 10
492.39043662691239
 20
351.76629586083118
 11
482.73117836402173
 21
354.35448631185636
  0
LINE
  8
_0-d_寸法1
  6
CONTINUOUS
 62
    7
 10
463.89043663243001
 20
351.76629586083118
 11
492.39043662691239
 21
351.76629586083118
  0
TEXT
  8
_0-d_寸法1
 62
    7
 10
463.14043662967117
 20
351.76629586083118
 40
15
 41
1
 50
0
  1
11.4
  0
LINE
  8
_0-d_寸法1
  6
CONTINUOUS
 62
    7
 10
507.3904366333345
 20
311.76629586083112
 11
507.39043663333456
 21
356.76629586083118
  0
LINE
  8
_0-d_寸法1
  6
CONTINUOUS
 62
    7
 10
507.39043663333456
 20
351.76629586083118
 11
517.04969489622522
 21
354.35448631185631
  0
LINE
  8
_0-d_寸法1
  6
CONTINUOUS
 62
    7
 10
507.39043663333456
 20
351.76629586083118
 11
517.04969489622522
 21
349.17810540980588
  0
LINE
  8
_0-d_寸法1
  6
CONTINUOUS
 62
    7
 10
492.39043662691239
 20
351.76629586083118
 11
534.34002587212967
 21
351.76629586083118
  0
TEXT
  8
_0-d_寸法1
 62
    7
 10
511.84002587212967
 20
336.76629586083118
 40
15
 41
1
 50
0
  1
(6)
  0
LINE
  8
_0-d_寸法1
  6
CONTINUOUS
 62
    7
 10
322.14043739414586
 20
386.76629586083124
 11
312.48117913125509
 21
384.17810540980605
  0
LINE
  8
_0-d_寸法1
  6
CONTINUOUS
 62
    7
 10
322.14043739414586
 20
386.76629586083124
 11
312.48117913125526
 21
389.35448631185642
  0
LINE
  8
_0-d_寸法1
  6
CONTINUOUS
 62
    7
 10
329.64043739414586
 20
306.76629586083106
 11
329.64043739414586
 21
391.76629586083124
  0
CIRCLE
  8
_0-d_寸法1
  6
CONTINUOUS
 62
    1
 10
329.64043739414586
 20
386.76629586083124
 40
1.5000000000000002
  0
LINE
  8
_0-d_寸法1
  6
CONTINUOUS
 62
    7
 10
297.14043739414592
 20
386.76629586083124
 11
329.64043739414586
 21
386.76629586083124
  0
TEXT
  8
_0-d_寸法1
 62
    7
 10
300.99576945022261
 20
386.76629586083124
 40
15
 41
1
 50
0
  1
3
  0
LINE
  8
_0-d_寸法1
  6
CONTINUOUS
 62
    7
 10
333.39043662971727
 20
306.76629586083106
 11
333.39043662971739
 21
391.76629586083124
  0
LINE
  8
_0-d_寸法1
  6
CONTINUOUS
 62
    7
 10
329.64043739414586
 20
386.76629586083124
 11
333.39043662971739
 21
386.76629586083124
  0
TEXT
  8
_0-d_寸法1
 62
    7
 10
325.07062942234535
 20
386.76629586083124
 40
15
 41
1
 50
0
  1
1.5
  0
LINE
  8
_0-d_寸法1
  6
CONTINUOUS
 62
    7
 10
333.39043662971739
 20
386.76629586083124
 11
343.04969489260804
 21
389.35448631185636
  0
LINE
  8
_0-d_寸法1
  6
CONTINUOUS
 62
    7
 10
333.39043662971739
 20
386.76629586083124
 11
343.04969489260804
 21
384.17810540980605
  0
LINE
  8
_0-d_寸法1
  6
CONTINUOUS
 62
    7
 10
535.89043662781683
 20
306.76629586083106
 11
535.89043662781694
 21
391.76629586083124
  0
LINE
  8
_0-d_寸法1
  6
CONTINUOUS
 62
    7
 10
535.89043662781694
 20
386.76629586083124
 11
526.23117836492622
 21
384.17810540980605
  0
LINE
  8
_0-d_寸法1
  6
CONTINUOUS
 62
    7
 10
535.89043662781694
 20
386.76629586083124
 11
526.23117836492622
 21
389.35448631185642
  0
LINE
  8
_0-d_寸法1
  6
CONTINUOUS
 62
    7
 10
333.39043662971739
 20
386.76629586083124
 11
535.89043662781694
 21
386.76629586083124
  0
TEXT
  8
_0-d_寸法1
 62
    7
 10
427.14043662876736
 20
386.76629586083124
 40
15
 41
1
 50
0
  1
81
  0
LINE
  8
_0-d_寸法1
  6
CONTINUOUS
 62
    7
 10
539.6404373941466
 20
306.76629586083106
 11
539.64043739414683
 21
391.76629586083124
  0
CIRCLE
  8
_0-d_寸法1
  6
CONTINUOUS
 62
    1
 10
539.64043739414683
 20
386.76629586083124
 40
1.5000000000000002
  0
LINE
  8
_0-d_寸法1
  6
CONTINUOUS
 62
    7
 10
535.89043662781694
 20
386.76629586083124
 11
539.64043739414683
 21
386.76629586083124
  0
TEXT
  8
_0-d_寸法1
 62
    7
 10
520.24816074324929
 20
386.76629586083124
 40
15
 41
1
 50
0
  1
1.5
  0
LINE
  8
_0-d_寸法1
  6
CONTINUOUS
 62
    7
 10
547.14043739414683
 20
386.76629586083124
 11
556.79969565703755
 21
389.35448631185636
  0
LINE
  8
_0-d_寸法1
  6
CONTINUOUS
 62
    7
 10
547.14043739414683
 20
386.76629586083124
 11
556.79969565703755
 21
384.17810540980599
  0
LINE
  8
_0-d_寸法1
  6
CONTINUOUS
 62
    7
 10
539.64043739414683
 20
386.76629586083124
 11
572.14043739414683
 21
386.76629586083124
  0
TEXT
  8
_0-d_寸法1
 62
    7
 10
560.70130410459274
 20
386.76629586083124
 40
15
 41
1
 50
0
  1
3
  0
LINE
  8
_0-1_計細線
  6
CONTINUOUS
 62
    3
 10
270.44201121375977
 20
545.63546888150347
 11
270.44201121375977
 21
568.63546888150358
  0
LINE
  8
_0-5_寸法線
  6
CONTINUOUS
 62
    7
 10
260.44205023585255
 20
568.63546888150358
 11
215.44205023585278
 21
568.6354688815037
  0
LINE
  8
_0-5_寸法線
  6
CONTINUOUS
 62
    7
 10
220.44205023585278
 20
568.6354688815037
 11
223.03024068687805
 21
558.97621061861309
  0
LINE
  8
_0-5_寸法線
  6
CONTINUOUS
 62
    7
 10
220.44205023585278
 20
568.6354688815037
 11
217.85385978482765
 21
558.97621061861298
  0
LINE
  8
_0-5_寸法線
  6
CONTINUOUS
 62
    7
 10
260.44205023585255
 20
545.63546888150347
 11
215.44205023585278
 21
545.6354688815037
  0
LINE
  8
_0-5_寸法線
  6
CONTINUOUS
 62
    7
 10
220.44205023585278
 20
545.6354688815037
 11
217.85385978482751
 21
555.29472714439441
  0
LINE
  8
_0-5_寸法線
  6
CONTINUOUS
 62
    7
 10
220.44205023585278
 20
545.6354688815037
 11
223.0302406868779
 21
555.29472714439441
  0
LINE
  8
_0-5_寸法線
  6
CONTINUOUS
 62
    7
 10
220.44205023585278
 20
568.6354688815037
 11
220.44205023585278
 21
545.6354688815037
  0
TEXT
  8
_0-5_寸法線
 62
    7
 10
220.44205023585278
 20
549.63546888150381
 40
15
 41
1
 50
90
  1
23
  0
LINE
  8
_0-0_計極細
  6
CENTER1
 62
    2
 10
320.44201121375977
 20
534.37854516034338
 11
320.44201121375977
 21
558.68965627145462
  0
LINE
  8
_0-1_計細線
  6
CONTINUOUS
 62
    3
 10
273.44201121255969
 20
723.73197880351825
 11
273.44201121255969
 21
639.73198179399571
  0
LINE
  8
_0-1_計細線
  6
CONTINUOUS
 62
    3
 10
270.44201121375977
 20
726.73197880231828
 11
270.44201121375977
 21
636.73198179519557
  0
LINE
  8
_0-1_計細線
  6
CONTINUOUS
 62
    3
 10
270.44201121375977
 20
568.63546888150358
 11
1278.4420508481767
 21
568.63546888150358
  0
LINE
  8
_0-1_計細線
  6
CONTINUOUS
 62
    3
 10
1278.4420508481767
 20
568.63546888150358
 11
1278.4420508481767
 21
545.63546888150347
  0
LINE
  8
_0-1_計細線
  6
CONTINUOUS
 62
    3
 10
270.44201121375977
 20
545.63546888150347
 11
1278.4420508481767
 21
545.63546888150347
  0
LINE
  8
_0-5_寸法線
  6
CONTINUOUS
 62
    7
 10
270.44201121375977
 20
535.63546888150347
 11
270.44201121375977
 21
480.63546888150341
  0
LINE
  8
_0-5_寸法線
  6
CONTINUOUS
 62
    7
 10
270.44201121375977
 20
485.63546888150341
 11
280.10126947665043
 21
488.2236593325286
  0
LINE
  8
_0-5_寸法線
  6
CONTINUOUS
 62
    7
 10
270.44201121375977
 20
485.63546888150341
 11
280.10126947665043
 21
483.04727843047829
  0
LINE
  8
_0-5_寸法線
  6
CONTINUOUS
 62
    7
 10
320.44201121375977
 20
524.63546888150347
 11
320.44201121375977
 21
480.63546888150341
  0
LINE
  8
_0-5_寸法線
  6
CONTINUOUS
 62
    7
 10
320.44201121375977
 20
485.63546888150341
 11
310.78275295086911
 21
483.04727843047829
  0
LINE
  8
_0-5_寸法線
  6
CONTINUOUS
 62
    7
 10
320.44201121375977
 20
485.63546888150341
 11
310.78275295086911
 21
488.22365933252865
  0
LINE
  8
_0-5_寸法線
  6
CONTINUOUS
 62
    7
 10
270.44201121375977
 20
485.63546888150341
 11
320.44201121375977
 21
485.63546888150341
  0
TEXT
  8
_0-5_寸法線
 62
    7
 10
287.94201121375977
 20
485.63546888150341
 40
15
 41
1
 50
0
  1
50
  0
LINE
  8
_0-5_寸法線
  6
CONTINUOUS
 62
    7
 10
320.44201121375977
 20
485.63546888150341
 11
330.10126947665049
 21
488.22365933252854
  0
LINE
  8
_0-5_寸法線
  6
CONTINUOUS
 62
    7
 10
320.44201121375977
 20
485.63546888150341
 11
330.10126947665043
 21
483.04727843047823
  0
LINE
  8
_0-5_寸法線
  6
CONTINUOUS
 62
    7
 10
1228.4420508481767
 20
524.63546888150347
 11
1228.4420508481767
 21
480.63546888150341
  0
LINE
  8
_0-5_寸法線
  6
CONTINUOUS
 62
    7
 10
1228.4420508481767
 20
485.63546888150341
 11
1218.7827925852862
 21
483.04727843047829
  0
LINE
  8
_0-5_寸法線
  6
CONTINUOUS
 62
    7
 10
1228.4420508481767
 20
485.63546888150341
 11
1218.7827925852862
 21
488.22365933252865
  0
LINE
  8
_0-5_寸法線
  6
CONTINUOUS
 62
    7
 10
320.44201121375977
 20
485.63546888150341
 11
1228.4420508481767
 21
485.63546888150341
  0
TEXT
  8
_0-5_寸法線
 62
    7
 10
751.942031030968
 20
485.63546888150341
 40
15
 41
1
 50
0
  1
＠×Ｎ
  0
LINE
  8
_0-5_寸法線
  6
CONTINUOUS
 62
    7
 10
1228.4420508481767
 20
485.63546888150341
 11
1238.1013091110674
 21
488.22365933252854
  0
LINE
  8
_0-5_寸法線
  6
CONTINUOUS
 62
    7
 10
1228.4420508481767
 20
485.63546888150341
 11
1238.1013091110674
 21
483.04727843047823
  0
LINE
  8
_0-5_寸法線
  6
CONTINUOUS
 62
    7
 10
1278.4420508481767
 20
535.63546888150347
 11
1278.4420508481767
 21
480.63546888150341
  0
LINE
  8
_0-5_寸法線
  6
CONTINUOUS
 62
    7
 10
1278.4420508481767
 20
485.63546888150341
 11
1268.7827925852862
 21
483.04727843047829
  0
LINE
  8
_0-5_寸法線
  6
CONTINUOUS
 62
    7
 10
1278.4420508481767
 20
485.63546888150341
 11
1268.7827925852862
 21
488.22365933252865
  0
LINE
  8
_0-5_寸法線
  6
CONTINUOUS
 62
    7
 10
1228.4420508481767
 20
485.63546888150341
 11
1278.4420508481767
 21
485.63546888150341
  0
TEXT
  8
_0-5_寸法線
 62
    7
 10
1245.9420508481762
 20
485.63546888150341
 40
15
 41
1
 50
0
  1
50
  0
LINE
  8
_0-0_計極細
  6
CENTER1
 62
    2
 10
1228.4420508481767
 20
534.37854516034338
 11
1228.4420508481767
 21
558.68965627145462
  0
LINE
  8
_0-1_計細線
  6
CONTINUOUS
 62
    3
 10
1275.4420112149605
 20
695.23197991495272
 11
1275.4420112149605
 21
682.23198027855631
  0
LINE
  8
_0-1_計細線
  6
CONTINUOUS
 62
    3
 10
1275.4420112149605
 20
723.73197880351825
 11
1275.4420112149605
 21
639.73198179399571
  0
LINE
  8
_0-1_計細線
  6
CONTINUOUS
 62
    3
 10
1278.44201121376
 20
636.73198179519557
 11
1278.44201121376
 21
726.73197880231839
  0
LINE
  8
_0-1_計細線
  6
CONTINUOUS
 62
    3
 10
1278.44201121376
 20
726.73197880231828
 11
270.44201121375977
 21
726.73197880231828
  0
LINE
  8
_0-1_計細線
  6
CONTINUOUS
 62
    3
 10
273.44201121255969
 20
723.73197880351825
 11
1275.4420112149605
 21
723.73197880351825
  0
LINE
  8
_0-1_計細線
  6
CONTINUOUS
 62
    3
 10
270.44201121375977
 20
636.73198179519557
 11
1278.44201121376
 21
636.73198179519557
  0
LINE
  8
_0-1_計細線
  6
CONTINUOUS
 62
    3
 10
273.44201121255969
 20
639.73198179399571
 11
1275.4420112149605
 21
639.73198179399571
  0
LINE
  8
_0-1_計細線
  6
CONTINUOUS
 62
    3
 10
274.94201121255969
 20
722.23198029875573
 11
1273.9420508469766
 21
722.23198029875573
  0
LINE
  8
_0-1_計細線
  6
CONTINUOUS
 62
    3
 10
274.94201121255969
 20
710.83198029875518
 11
1273.9420508469766
 21
710.83198029875518
  0
LINE
  8
_0-1_計細線
  6
CONTINUOUS
 62
    3
 10
274.94201121255969
 20
722.23198029875573
 11
274.94201121255969
 21
710.83198029875518
  0
LINE
  8
_0-1_計細線
  6
CONTINUOUS
 62
    3
 10
1273.9420508469766
 20
722.23198029875573
 11
1273.9420508469766
 21
710.83198029875518
  0
LINE
  8
_0-0_計極細
  6
CONTINUOUS
 62
    2
 10
274.94201121255969
 20
714.03198029875603
 11
1273.9420508469766
 21
714.03198029875603
  0
LINE
  8
_0-0_計極細
  6
CONTINUOUS
 62
    2
 10
274.94201121255969
 20
719.03198029875603
 11
1273.9420508469766
 21
719.03198029875603
  0
LINE
  8
_0-1_計細線
  6
CONTINUOUS
 62
    3
 10
274.94201121255969
 20
641.23198029875755
 11
1273.9420508469766
 21
641.23198029875755
  0
LINE
  8
_0-1_計細線
  6
CONTINUOUS
 62
    3
 10
274.94201121255969
 20
652.63198029875809
 11
1273.9420508469766
 21
652.63198029875809
  0
LINE
  8
_0-1_計細線
  6
CONTINUOUS
 62
    3
 10
274.94201121255969
 20
641.23198029875755
 11
274.94201121255969
 21
652.63198029875809
  0
LINE
  8
_0-1_計細線
  6
CONTINUOUS
 62
    3
 10
1273.9420508469766
 20
641.23198029875755
 11
1273.9420508469766
 21
652.63198029875809
  0
LINE
  8
_0-0_計極細
  6
CONTINUOUS
 62
    2
 10
274.94201121255969
 20
649.43198029875748
 11
1273.9420508469766
 21
649.43198029875748
  0
LINE
  8
_0-0_計極細
  6
CONTINUOUS
 62
    2
 10
274.94201121255969
 20
644.43198029875748
 11
1273.9420508469766
 21
644.43198029875748
  0
LINE
  8
_0-1_計細線
  6
CONTINUOUS
 62
    3
 10
274.94201121255969
 20
658.63198029875821
 11
1273.9420508469766
 21
658.63198029875821
  0
LINE
  8
_0-1_計細線
  6
CONTINUOUS
 62
    3
 10
274.94201121255969
 20
670.03198029875864
 11
1273.9420508469766
 21
670.03198029875864
  0
LINE
  8
_0-1_計細線
  6
CONTINUOUS
 62
    3
 10
274.94201121255969
 20
658.63198029875821
 11
274.94201121255969
 21
670.03198029875864
  0
LINE
  8
_0-1_計細線
  6
CONTINUOUS
 62
    3
 10
1273.9420508469766
 20
658.63198029875821
 11
1273.9420508469766
 21
670.03198029875864
  0
LINE
  8
_0-0_計極細
  6
CONTINUOUS
 62
    2
 10
274.94201121255969
 20
666.83198029875837
 11
1273.9420508469766
 21
666.83198029875837
  0
LINE
  8
_0-0_計極細
  6
CONTINUOUS
 62
    2
 10
274.94201121255969
 20
661.83198029875837
 11
1273.9420508469766
 21
661.83198029875837
  0
LINE
  8
_0-0_計極細
  6
CENTER1
 62
    2
 10
258.23263674959071
 20
681.73198029875664
 11
1285.7104541617898
 21
681.73198029875664
  0
LINE
  8
_0-5_寸法線
  6
CONTINUOUS
 62
    7
 10
270.44201121375977
 20
736.73197880231828
 11
270.44201121376005
 21
816.73197880231828
  0
LINE
  8
_0-5_寸法線
  6
CONTINUOUS
 62
    7
 10
270.44201121376005
 20
811.73197880231828
 11
280.10126947665071
 21
814.32016925334335
  0
LINE
  8
_0-5_寸法線
  6
CONTINUOUS
 62
    7
 10
270.44201121376005
 20
811.73197880231828
 11
280.10126947665071
 21
809.14378835129298
  0
LINE
  8
_0-5_寸法線
  6
CONTINUOUS
 62
    7
 10
1278.44201121376
 20
736.73197880231828
 11
1278.44201121376
 21
816.73197880231828
  0
LINE
  8
_0-5_寸法線
  6
CONTINUOUS
 62
    7
 10
1278.44201121376
 20
811.73197880231828
 11
1268.7827529508693
 21
809.14378835129298
  0
LINE
  8
_0-5_寸法線
  6
CONTINUOUS
 62
    7
 10
1278.44201121376
 20
811.73197880231828
 11
1268.7827529508693
 21
814.32016925334335
  0
LINE
  8
_0-5_寸法線
  6
CONTINUOUS
 62
    7
 10
270.44201121376005
 20
811.73197880231828
 11
1278.44201121376
 21
811.73197880231828
  0
TEXT
  8
_0-5_寸法線
 62
    7
 10
766.94201121376011
 20
811.73197880231828
 40
15
 41
1
 50
0
  1
Ｌ
  0
LINE
  8
_0-0_計極細
  6
CONTINUOUS
 62
    2
 10
282.94201121255969
 20
710.83198029875518
 11
282.94201121255969
 21
704.8319802987553
  0
LINE
  8
_0-0_計極細
  6
CONTINUOUS
 62
    2
 10
295.94201121255969
 20
710.83198029875518
 11
295.94201121255969
 21
704.8319802987553
  0
LINE
  8
_0-0_計極細
  6
CONTINUOUS
 62
    2
 10
282.94201121255969
 20
693.43198029875464
 11
282.94201121255969
 21
687.43198029875475
  0
LINE
  8
_0-0_計極細
  6
CONTINUOUS
 62
    2
 10
295.94201121255969
 20
693.43198029875464
 11
295.94201121255969
 21
687.43198029875475
  0
LINE
  8
_0-0_計極細
  6
CONTINUOUS
 62
    2
 10
282.94201121255969
 20
676.03198029875421
 11
282.94201121255969
 21
670.03198029875409
  0
LINE
  8
_0-0_計極細
  6
CONTINUOUS
 62
    2
 10
295.94201121255969
 20
676.03198029875421
 11
295.94201121255969
 21
670.03198029875409
  0
LINE
  8
_0-0_計極細
  6
CONTINUOUS
 62
    2
 10
282.94201121255969
 20
652.63198029875809
 11
282.94201121255969
 21
658.63198029875821
  0
LINE
  8
_0-0_計極細
  6
CONTINUOUS
 62
    2
 10
295.94201121255969
 20
652.63198029875809
 11
295.94201121255969
 21
658.63198029875821
  0
LINE
  8
_0-0_計極細
  6
CENTER1
 62
    2
 10
289.44201121255969
 20
728.65630032190074
 11
289.44201121255969
 21
634.60630032189999
  0
LINE
  8
_0-0_計極細
  6
CONTINUOUS
 62
    2
 10
1252.9420508469766
 20
710.83198029875518
 11
1252.9420508469766
 21
704.8319802987553
  0
LINE
  8
_0-0_計極細
  6
CONTINUOUS
 62
    2
 10
1265.9420508469766
 20
710.83198029875518
 11
1265.9420508469766
 21
704.8319802987553
  0
LINE
  8
_0-0_計極細
  6
CONTINUOUS
 62
    2
 10
1252.9420508469766
 20
693.43198029875464
 11
1252.9420508469766
 21
687.43198029875475
  0
LINE
  8
_0-0_計極細
  6
CONTINUOUS
 62
    2
 10
1265.9420508469766
 20
693.43198029875464
 11
1265.9420508469766
 21
687.43198029875475
  0
LINE
  8
_0-0_計極細
  6
CONTINUOUS
 62
    2
 10
1252.9420508469766
 20
676.03198029875421
 11
1252.9420508469766
 21
670.03198029875409
  0
LINE
  8
_0-0_計極細
  6
CONTINUOUS
 62
    2
 10
1265.9420508469766
 20
676.03198029875421
 11
1265.9420508469766
 21
670.03198029875409
  0
LINE
  8
_0-0_計極細
  6
CONTINUOUS
 62
    2
 10
1252.9420508469766
 20
652.63198029875809
 11
1252.9420508469766
 21
658.63198029875821
  0
LINE
  8
_0-0_計極細
  6
CONTINUOUS
 62
    2
 10
1265.9420508469766
 20
652.63198029875809
 11
1265.9420508469766
 21
658.63198029875821
  0
LINE
  8
_0-0_計極細
  6
CENTER1
 62
    2
 10
1259.4420508469766
 20
728.65630032190074
 11
1259.4420508469766
 21
634.60630032189999
  0
LINE
  8
_0-0_計極細
  6
CONTINUOUS
 62
    2
 10
379.94201121255969
 20
710.83198029875518
 11
379.94201121255969
 21
704.8319802987553
  0
LINE
  8
_0-0_計極細
  6
CONTINUOUS
 62
    2
 10
392.94201121255975
 20
710.83198029875518
 11
392.94201121255975
 21
704.8319802987553
  0
LINE
  8
_0-0_計極細
  6
CONTINUOUS
 62
    2
 10
379.94201121255969
 20
676.03198029875421
 11
379.94201121255969
 21
670.03198029875409
  0
LINE
  8
_0-0_計極細
  6
CONTINUOUS
 62
    2
 10
392.94201121255975
 20
676.03198029875421
 11
392.94201121255975
 21
670.03198029875409
  0
LINE
  8
_0-0_計極細
  6
CONTINUOUS
 62
    2
 10
379.94201121255969
 20
652.63198029875809
 11
379.94201121255969
 21
658.63198029875821
  0
LINE
  8
_0-0_計極細
  6
CONTINUOUS
 62
    2
 10
392.94201121255975
 20
652.63198029875809
 11
392.94201121255975
 21
658.63198029875821
  0
LINE
  8
_0-0_計極細
  6
CONTINUOUS
 62
    2
 10
476.94201121255969
 20
710.83198029875518
 11
476.94201121255969
 21
704.8319802987553
  0
LINE
  8
_0-0_計極細
  6
CONTINUOUS
 62
    2
 10
489.94201121255969
 20
710.83198029875518
 11
489.94201121255969
 21
704.8319802987553
  0
LINE
  8
_0-0_計極細
  6
CONTINUOUS
 62
    2
 10
476.94201121255969
 20
693.43198029875464
 11
476.94201121255969
 21
687.43198029875475
  0
LINE
  8
_0-0_計極細
  6
CONTINUOUS
 62
    2
 10
489.94201121255969
 20
693.43198029875464
 11
489.94201121255969
 21
687.43198029875475
  0
LINE
  8
_0-0_計極細
  6
CONTINUOUS
 62
    2
 10
476.94201121255969
 20
676.03198029875421
 11
476.94201121255969
 21
670.03198029875409
  0
LINE
  8
_0-0_計極細
  6
CONTINUOUS
 62
    2
 10
489.94201121255969
 20
676.03198029875421
 11
489.94201121255969
 21
670.03198029875409
  0
LINE
  8
_0-0_計極細
  6
CONTINUOUS
 62
    2
 10
476.94201121255969
 20
652.63198029875809
 11
476.94201121255969
 21
658.63198029875821
  0
LINE
  8
_0-0_計極細
  6
CONTINUOUS
 62
    2
 10
489.94201121255969
 20
652.63198029875809
 11
489.94201121255969
 21
658.63198029875821
  0
LINE
  8
_0-0_計極細
  6
CONTINUOUS
 62
    2
 10
573.94201121255946
 20
710.83198029875518
 11
573.94201121255946
 21
704.8319802987553
  0
LINE
  8
_0-0_計極細
  6
CONTINUOUS
 62
    2
 10
586.94201121255969
 20
710.83198029875518
 11
586.94201121255969
 21
704.8319802987553
  0
LINE
  8
_0-0_計極細
  6
CONTINUOUS
 62
    2
 10
573.94201121255946
 20
693.43198029875464
 11
573.94201121255946
 21
687.43198029875475
  0
LINE
  8
_0-0_計極細
  6
CONTINUOUS
 62
    2
 10
586.94201121255969
 20
693.43198029875464
 11
586.94201121255969
 21
687.43198029875475
  0
LINE
  8
_0-0_計極細
  6
CONTINUOUS
 62
    2
 10
573.94201121255946
 20
676.03198029875421
 11
573.94201121255946
 21
670.03198029875409
  0
LINE
  8
_0-0_計極細
  6
CONTINUOUS
 62
    2
 10
586.94201121255969
 20
676.03198029875421
 11
586.94201121255969
 21
670.03198029875409
  0
LINE
  8
_0-0_計極細
  6
CONTINUOUS
 62
    2
 10
573.94201121255946
 20
652.63198029875809
 11
573.94201121255946
 21
658.63198029875821
  0
LINE
  8
_0-0_計極細
  6
CONTINUOUS
 62
    2
 10
586.94201121255969
 20
652.63198029875809
 11
586.94201121255969
 21
658.63198029875821
  0
LINE
  8
_0-0_計極細
  6
CENTER1
 62
    2
 10
580.44201121255969
 20
728.65630032190074
 11
580.44201121255969
 21
634.60630032189999
  0
LINE
  8
_0-0_計極細
  6
CONTINUOUS
 62
    2
 10
670.94201121255981
 20
710.83198029875518
 11
670.94201121255981
 21
704.8319802987553
  0
LINE
  8
_0-0_計極細
  6
CONTINUOUS
 62
    2
 10
683.94201121255969
 20
710.83198029875518
 11
683.94201121255969
 21
704.8319802987553
  0
LINE
  8
_0-0_計極細
  6
CONTINUOUS
 62
    2
 10
670.94201121255981
 20
693.43198029875464
 11
670.94201121255981
 21
687.43198029875475
  0
LINE
  8
_0-0_計極細
  6
CONTINUOUS
 62
    2
 10
683.94201121255969
 20
693.43198029875464
 11
683.94201121255969
 21
687.43198029875475
  0
LINE
  8
_0-0_計極細
  6
CONTINUOUS
 62
    2
 10
670.94201121255981
 20
676.03198029875421
 11
670.94201121255981
 21
670.03198029875409
  0
LINE
  8
_0-0_計極細
  6
CONTINUOUS
 62
    2
 10
683.94201121255969
 20
676.03198029875421
 11
683.94201121255969
 21
670.03198029875409
  0
LINE
  8
_0-0_計極細
  6
CONTINUOUS
 62
    2
 10
670.94201121255981
 20
652.63198029875809
 11
670.94201121255981
 21
658.63198029875821
  0
LINE
  8
_0-0_計極細
  6
CONTINUOUS
 62
    2
 10
683.94201121255969
 20
652.63198029875809
 11
683.94201121255969
 21
658.63198029875821
  0
LINE
  8
_0-0_計極細
  6
CENTER1
 62
    2
 10
677.44201121255969
 20
728.65630032190074
 11
677.44201121255969
 21
634.60630032189999
  0
LINE
  8
_0-0_計極細
  6
CONTINUOUS
 62
    2
 10
767.94201121255969
 20
710.83198029875518
 11
767.94201121255969
 21
704.8319802987553
  0
LINE
  8
_0-0_計極細
  6
CONTINUOUS
 62
    2
 10
780.94201121255981
 20
710.83198029875518
 11
780.94201121255981
 21
704.8319802987553
  0
LINE
  8
_0-0_計極細
  6
CONTINUOUS
 62
    2
 10
767.94201121255969
 20
693.43198029875464
 11
767.94201121255969
 21
687.43198029875475
  0
LINE
  8
_0-0_計極細
  6
CONTINUOUS
 62
    2
 10
780.94201121255981
 20
693.43198029875464
 11
780.94201121255981
 21
687.43198029875475
  0
LINE
  8
_0-0_計極細
  6
CONTINUOUS
 62
    2
 10
767.94201121255969
 20
676.03198029875421
 11
767.94201121255969
 21
670.03198029875409
  0
LINE
  8
_0-0_計極細
  6
CONTINUOUS
 62
    2
 10
780.94201121255981
 20
676.03198029875421
 11
780.94201121255981
 21
670.03198029875409
  0
LINE
  8
_0-0_計極細
  6
CONTINUOUS
 62
    2
 10
767.94201121255969
 20
652.63198029875809
 11
767.94201121255969
 21
658.63198029875821
  0
LINE
  8
_0-0_計極細
  6
CONTINUOUS
 62
    2
 10
780.94201121255981
 20
652.63198029875809
 11
780.94201121255981
 21
658.63198029875821
  0
LINE
  8
_0-0_計極細
  6
CENTER1
 62
    2
 10
774.44201121255969
 20
728.65630032190074
 11
774.44201121255969
 21
634.60630032189999
  0
LINE
  8
_0-0_計極細
  6
CONTINUOUS
 62
    2
 10
864.94201121255969
 20
710.83198029875518
 11
864.94201121255969
 21
704.8319802987553
  0
LINE
  8
_0-0_計極細
  6
CONTINUOUS
 62
    2
 10
877.94201121255981
 20
710.83198029875518
 11
877.94201121255981
 21
704.8319802987553
  0
LINE
  8
_0-0_計極細
  6
CONTINUOUS
 62
    2
 10
864.94201121255969
 20
693.43198029875464
 11
864.94201121255969
 21
687.43198029875475
  0
LINE
  8
_0-0_計極細
  6
CONTINUOUS
 62
    2
 10
877.94201121255981
 20
693.43198029875464
 11
877.94201121255981
 21
687.43198029875475
  0
LINE
  8
_0-0_計極細
  6
CONTINUOUS
 62
    2
 10
864.94201121255969
 20
676.03198029875421
 11
864.94201121255969
 21
670.03198029875409
  0
LINE
  8
_0-0_計極細
  6
CONTINUOUS
 62
    2
 10
877.94201121255981
 20
676.03198029875421
 11
877.94201121255981
 21
670.03198029875409
  0
LINE
  8
_0-0_計極細
  6
CONTINUOUS
 62
    2
 10
864.94201121255969
 20
652.63198029875809
 11
864.94201121255969
 21
658.63198029875821
  0
LINE
  8
_0-0_計極細
  6
CONTINUOUS
 62
    2
 10
877.94201121255981
 20
652.63198029875809
 11
877.94201121255981
 21
658.63198029875821
  0
LINE
  8
_0-0_計極細
  6
CENTER1
 62
    2
 10
871.44201121255969
 20
728.65630032190074
 11
871.44201121255969
 21
634.60630032189999
  0
LINE
  8
_0-0_計極細
  6
CONTINUOUS
 62
    2
 10
961.94201121255958
 20
710.83198029875518
 11
961.94201121255958
 21
704.8319802987553
  0
LINE
  8
_0-0_計極細
  6
CONTINUOUS
 62
    2
 10
974.94201121255969
 20
710.83198029875518
 11
974.94201121255969
 21
704.8319802987553
  0
LINE
  8
_0-0_計極細
  6
CONTINUOUS
 62
    2
 10
961.94201121255958
 20
693.43198029875464
 11
961.94201121255958
 21
687.43198029875475
  0
LINE
  8
_0-0_計極細
  6
CONTINUOUS
 62
    2
 10
974.94201121255969
 20
693.43198029875464
 11
974.94201121255969
 21
687.43198029875475
  0
LINE
  8
_0-0_計極細
  6
CONTINUOUS
 62
    2
 10
961.94201121255958
 20
676.03198029875421
 11
961.94201121255958
 21
670.03198029875409
  0
LINE
  8
_0-0_計極細
  6
CONTINUOUS
 62
    2
 10
974.94201121255969
 20
676.03198029875421
 11
974.94201121255969
 21
670.03198029875409
  0
LINE
  8
_0-0_計極細
  6
CONTINUOUS
 62
    2
 10
961.94201121255958
 20
652.63198029875809
 11
961.94201121255958
 21
658.63198029875821
  0
LINE
  8
_0-0_計極細
  6
CONTINUOUS
 62
    2
 10
974.94201121255969
 20
652.63198029875809
 11
974.94201121255969
 21
658.63198029875821
  0
LINE
  8
_0-0_計極細
  6
CENTER1
 62
    2
 10
968.44201121255969
 20
728.65630032190074
 11
968.44201121255969
 21
634.60630032189999
  0
LINE
  8
_0-0_計極細
  6
CONTINUOUS
 62
    2
 10
1058.9420112125595
 20
710.83198029875518
 11
1058.9420112125595
 21
704.8319802987553
  0
LINE
  8
_0-0_計極細
  6
CONTINUOUS
 62
    2
 10
1071.9420112125595
 20
710.83198029875518
 11
1071.9420112125595
 21
704.8319802987553
  0
LINE
  8
_0-0_計極細
  6
CONTINUOUS
 62
    2
 10
1058.9420112125595
 20
693.43198029875464
 11
1058.9420112125595
 21
687.43198029875475
  0
LINE
  8
_0-0_計極細
  6
CONTINUOUS
 62
    2
 10
1071.9420112125595
 20
693.43198029875464
 11
1071.9420112125595
 21
687.43198029875475
  0
LINE
  8
_0-0_計極細
  6
CONTINUOUS
 62
    2
 10
1058.9420112125595
 20
676.03198029875421
 11
1058.9420112125595
 21
670.03198029875409
  0
LINE
  8
_0-0_計極細
  6
CONTINUOUS
 62
    2
 10
1071.9420112125595
 20
676.03198029875421
 11
1071.9420112125595
 21
670.03198029875409
  0
LINE
  8
_0-0_計極細
  6
CONTINUOUS
 62
    2
 10
1058.9420112125595
 20
652.63198029875809
 11
1058.9420112125595
 21
658.63198029875821
  0
LINE
  8
_0-0_計極細
  6
CONTINUOUS
 62
    2
 10
1071.9420112125595
 20
652.63198029875809
 11
1071.9420112125595
 21
658.63198029875821
  0
LINE
  8
_0-0_計極細
  6
CENTER1
 62
    2
 10
1065.4420112125595
 20
728.65630032190074
 11
1065.4420112125595
 21
634.60630032189999
  0
LINE
  8
_0-0_計極細
  6
CONTINUOUS
 62
    2
 10
1155.9420112125595
 20
710.83198029875518
 11
1155.9420112125595
 21
704.8319802987553
  0
LINE
  8
_0-0_計極細
  6
CONTINUOUS
 62
    2
 10
1168.9420112125595
 20
710.83198029875518
 11
1168.9420112125595
 21
704.8319802987553
  0
LINE
  8
_0-0_計極細
  6
CONTINUOUS
 62
    2
 10
1155.9420112125595
 20
693.43198029875464
 11
1155.9420112125595
 21
687.43198029875475
  0
LINE
  8
_0-0_計極細
  6
CONTINUOUS
 62
    2
 10
1168.9420112125595
 20
693.43198029875464
 11
1168.9420112125595
 21
687.43198029875475
  0
LINE
  8
_0-0_計極細
  6
CONTINUOUS
 62
    2
 10
1155.9420112125595
 20
676.03198029875421
 11
1155.9420112125595
 21
670.03198029875409
  0
LINE
  8
_0-0_計極細
  6
CONTINUOUS
 62
    2
 10
1168.9420112125595
 20
676.03198029875421
 11
1168.9420112125595
 21
670.03198029875409
  0
LINE
  8
_0-0_計極細
  6
CONTINUOUS
 62
    2
 10
1155.9420112125595
 20
652.63198029875809
 11
1155.9420112125595
 21
658.63198029875821
  0
LINE
  8
_0-0_計極細
  6
CONTINUOUS
 62
    2
 10
1168.9420112125595
 20
652.63198029875809
 11
1168.9420112125595
 21
658.63198029875821
  0
LINE
  8
_0-0_計極細
  6
CENTER1
 62
    2
 10
1162.4420112125595
 20
728.65630032190074
 11
1162.4420112125595
 21
634.60630032189999
  0
LINE
  8
_0-0_計極細
  6
CENTER1
 62
    2
 10
386.44201121255975
 20
728.65630032190074
 11
386.44201121255975
 21
634.60630032189999
  0
LINE
  8
_0-0_計極細
  6
CENTER1
 62
    2
 10
774.44203103096822
 20
534.37854516034338
 11
774.44203103096822
 21
558.68965627145462
  0
LINE
  8
_0-1_計細線
  6
CONTINUOUS
 62
    3
 10
274.94201121255969
 20
676.03198029875421
 11
1273.9420508469766
 21
676.03198029875421
  0
LINE
  8
_0-1_計細線
  6
CONTINUOUS
 62
    3
 10
1273.9420508469766
 20
687.43198029875475
 11
1273.9420508469766
 21
676.03198029875421
  0
LINE
  8
_0-0_計極細
  6
CONTINUOUS
 62
    2
 10
274.94201121255969
 20
679.23198029875437
 11
1273.9420508469766
 21
679.23198029875437
  0
LINE
  8
_0-0_計極細
  6
CONTINUOUS
 62
    2
 10
274.94201121255969
 20
684.23198029875437
 11
1273.9420508469766
 21
684.23198029875437
  0
LINE
  8
_0-1_計細線
  6
CONTINUOUS
 62
    3
 10
274.94201121255969
 20
687.43198029875475
 11
1273.9420508469766
 21
687.43198029875475
  0
LINE
  8
_0-1_計細線
  6
CONTINUOUS
 62
    3
 10
274.94201121255969
 20
687.43198029875475
 11
274.94201121255969
 21
676.03198029875421
  0
LINE
  8
_0-1_計細線
  6
CONTINUOUS
 62
    3
 10
274.94201121255969
 20
704.8319802987553
 11
1273.9420508469766
 21
704.8319802987553
  0
LINE
  8
_0-1_計細線
  6
CONTINUOUS
 62
    3
 10
1273.9420508469766
 20
704.8319802987553
 11
1273.9420508469766
 21
693.43198029875464
  0
LINE
  8
_0-0_計極細
  6
CONTINUOUS
 62
    2
 10
274.94201121255969
 20
696.63198029875491
 11
1273.9420508469766
 21
696.63198029875491
  0
LINE
  8
_0-0_計極細
  6
CONTINUOUS
 62
    2
 10
274.94201121255969
 20
701.63198029875491
 11
1273.9420508469766
 21
701.63198029875491
  0
LINE
  8
_0-1_計細線
  6
CONTINUOUS
 62
    3
 10
274.94201121255969
 20
704.8319802987553
 11
274.94201121255969
 21
693.43198029875464
  0
LINE
  8
_0-1_計細線
  6
CONTINUOUS
 62
    3
 10
274.94201121255969
 20
693.43198029875464
 11
1273.9420508469766
 21
693.43198029875464
  0
LINE
  8
_0-0_計極細
  6
CONTINUOUS
 62
    2
 10
379.94201121255969
 20
693.43198029875464
 11
379.94201121255969
 21
692.64305103549009
  0
LINE
  8
_0-0_計極細
  6
CONTINUOUS
 62
    2
 10
379.94201121255969
 20
687.94305103549027
 11
379.94201121255969
 21
687.43198029875475
  0
LINE
  8
_0-0_計極細
  6
CONTINUOUS
 62
    2
 10
392.94201121255975
 20
693.43198029875464
 11
392.94201121255975
 21
692.64305103549009
  0
LINE
  8
_0-0_計極細
  6
CONTINUOUS
 62
    2
 10
392.94201121255975
 20
687.94305103549027
 11
392.94201121255975
 21
687.43198029875475
  0
LINE
  8
_0-1_計細線
  6
CONTINUOUS
 62
    3
 10
348.44201121255878
 20
687.94305103549027
 11
401.44201121255884
 21
687.94305103549027
  0
LINE
  8
_0-1_計細線
  6
CONTINUOUS
 62
    3
 10
401.44201121255884
 20
692.64305103549009
 11
348.44201121255878
 21
692.64305103549009
  0
LINE
  8
_0-1_計細線
  6
CONTINUOUS
 62
    3
 10
348.44201121255878
 20
692.64305103549009
 11
348.44201121255878
 21
687.94305103549027
  0
LINE
  8
_0-1_計細線
  6
CONTINUOUS
 62
    3
 10
391.44201121255884
 20
692.64305103549009
 11
391.44201121255884
 21
687.94305103549027
  0
LINE
  8
_0-1_計細線
  6
CONTINUOUS
 62
    3
 10
399.44201121255878
 20
692.64305103549009
 11
399.44201121255878
 21
687.94305103549027
  0
LINE
  8
_0-1_計細線
  6
CONTINUOUS
 62
    3
 10
401.44201121255884
 20
692.64305103549009
 11
401.44201121255884
 21
687.94305103549027
  0
LINE
  8
_0-1_計細線
  6
CONTINUOUS
 62
    3
 10
397.44201121255884
 20
692.64305103549009
 11
397.44201121255884
 21
687.94305103549027
  0
LINE
  8
_0-1_計細線
  6
CONTINUOUS
 62
    3
 10
395.44201121255878
 20
692.64305103549009
 11
395.44201121255878
 21
687.94305103549027
  0
LINE
  8
_0-1_計細線
  6
CONTINUOUS
 62
    3
 10
393.44201121255878
 20
692.64305103549009
 11
393.44201121255878
 21
687.94305103549027
  0
TEXT
  8
_0-5_寸法線
 62
    7
 10
381.54150626665847
 20
581.85218829296844
 40
15
 41
0.8000000000000001
 50
0
  1
(標準付属)
  0
LINE
  8
_0-5_寸法線
  6
CONTINUOUS
 62
    7
 10
362.49039032093719
 20
689.01178996975136
 11
367.49039031825788
 21
680.35153593036
  0
LINE
  8
_0-5_寸法線
  6
CONTINUOUS
 62
    7
 10
362.49039032093719
 20
689.01178996975136
 11
362.49039031784343
 21
679.01178996975136
  0
LINE
  8
_0-5_寸法線
  6
CONTINUOUS
 62
    7
 10
362.49039032093719
 20
689.01178996975136
 11
386.74210139589377
 21
598.50317195552509
  0
LINE
  8
_0-5_寸法線
  6
CONTINUOUS
 62
    7
 10
386.74210139589377
 20
598.50317195552509
 11
446.74210139589371
 21
598.50317195552509
  0
TEXT
  8
_0-5_寸法線
 62
    7
 10
386.74210139589377
 20
598.50317195552509
 40
15
 41
0.8000000000000001
 50
0
  1
取　外　具
  0
TEXT
  8
_0-7_枠細線
 62
    5
 10
389.64440238437646
 20
616.62374716719512
 40
12.5
 41
0.8
 50
0
  1
２
  0
LINE
  8
_0-7_枠細線
  6
CONTINUOUS
 62
    5
 10
402.27925111622858
 20
616.93074941257566
 11
394.77925111622835
 21
631.93074941257566
  0
LINE
  8
_0-7_枠細線
  6
CONTINUOUS
 62
    5
 10
387.27925111622835
 20
616.93074941257566
 11
402.27925111622858
 21
616.93074941257566
  0
LINE
  8
_0-7_枠細線
  6
CONTINUOUS
 62
    5
 10
394.77925111622835
 20
631.93074941257566
 11
387.27925111622835
 21
616.93074941257566
  0
TEXT
  8
_0-7_枠細線
 62
    5
 10
408.43496535123029
 20
616.38230845755947
 40
12.5
 41
0.8
 50
0
  1
３
  0
LINE
  8
_0-7_枠細線
  6
CONTINUOUS
 62
    5
 10
413.56981408308224
 20
631.92999234774084
 11
406.06981408308224
 21
616.92999234774084
  0
LINE
  8
_0-7_枠細線
  6
CONTINUOUS
 62
    5
 10
406.06981408308224
 20
616.92999234774084
 11
421.06981408308224
 21
616.92999234774084
  0
LINE
  8
_0-7_枠細線
  6
CONTINUOUS
 62
    5
 10
421.06981408308224
 20
616.92999234774084
 11
413.56981408308224
 21
631.92999234774084
  0
LINE
  8
_0-7_枠細線
  6
CONTINUOUS
 62
    5
 10
439.78379794657855
 20
616.92999234774084
 11
432.28379794657855
 21
631.92999234774084
  0
LINE
  8
_0-7_枠細線
  6
CONTINUOUS
 62
    5
 10
424.78379794657855
 20
616.92999234774084
 11
439.78379794657855
 21
616.92999234774084
  0
LINE
  8
_0-7_枠細線
  6
CONTINUOUS
 62
    5
 10
432.28379794657855
 20
631.92999234774084
 11
424.78379794657855
 21
616.92999234774084
  0
TEXT
  8
_0-7_枠細線
 62
    5
 10
427.1489492147266
 20
616.38230845755947
 40
12.5
 41
0.8
 50
0
  1
５
  0
LINE
  8
_0-5_寸法線
  6
CONTINUOUS
 62
    7
 10
270.44201121375977
 20
736.73197880231828
 11
270.44201121375977
 21
781.73197880231828
  0
LINE
  8
_0-5_寸法線
  6
CONTINUOUS
 62
    7
 10
270.44201121375977
 20
776.73197880231828
 11
260.78275295086911
 21
774.14378835129298
  0
LINE
  8
_0-5_寸法線
  6
CONTINUOUS
 62
    7
 10
270.44201121375977
 20
776.73197880231828
 11
260.78275295086911
 21
779.32016925334335
  0
LINE
  8
_0-5_寸法線
  6
CONTINUOUS
 62
    7
 10
273.44201121255969
 20
736.73197880231828
 11
273.44201121255969
 21
781.73197880231828
  0
CIRCLE
  8
_0-5_寸法線
  6
CONTINUOUS
 62
    1
 10
273.44201121255969
 20
776.73197880231828
 40
1.5000000000000002
  0
LINE
  8
_0-5_寸法線
  6
CONTINUOUS
 62
    7
 10
245.44201121375977
 20
776.73197880231828
 11
273.44201121255969
 21
776.73197880231828
  0
TEXT
  8
_0-5_寸法線
 62
    7
 10
251.04762582374207
 20
776.73197880231828
 40
15
 41
1
 50
0
  1
3
  0
LINE
  8
_0-5_寸法線
  6
CONTINUOUS
 62
    7
 10
274.94201115195898
 20
736.73197880231828
 11
274.94201115195921
 21
781.73197880231828
  0
LINE
  8
_0-5_寸法線
  6
CONTINUOUS
 62
    7
 10
273.44201121255969
 20
776.73197880231828
 11
274.94201115195921
 21
776.73197880231828
  0
TEXT
  8
_0-5_寸法線
 62
    7
 10
274.91797644220128
 20
776.73197880231828
 40
15
 41
1
 50
0
  1
1.5
  0
LINE
  8
_0-5_寸法線
  6
CONTINUOUS
 62
    7
 10
274.94201115195921
 20
776.73197880231828
 11
284.60126941484987
 21
779.32016925334335
  0
LINE
  8
_0-5_寸法線
  6
CONTINUOUS
 62
    7
 10
274.94201115195921
 20
776.73197880231828
 11
284.60126941484987
 21
774.14378835129298
  0
LINE
  8
_0-5_寸法線
  6
CONTINUOUS
 62
    7
 10
1273.9420112149605
 20
736.73197880231828
 11
1273.9420112149605
 21
781.73197880231828
  0
LINE
  8
_0-5_寸法線
  6
CONTINUOUS
 62
    7
 10
1273.9420112149605
 20
776.73197880231828
 11
1264.2827529520698
 21
774.14378835129298
  0
LINE
  8
_0-5_寸法線
  6
CONTINUOUS
 62
    7
 10
1273.9420112149605
 20
776.73197880231828
 11
1264.2827529520698
 21
779.32016925334335
  0
LINE
  8
_0-5_寸法線
  6
CONTINUOUS
 62
    7
 10
274.94201115195921
 20
776.73197880231828
 11
1273.9420112149605
 21
776.73197880231828
  0
TEXT
  8
_0-5_寸法線
 62
    7
 10
766.94201118345984
 20
776.73197880231828
 40
15
 41
1
 50
0
  1
Ａ
  0
LINE
  8
_0-5_寸法線
  6
CONTINUOUS
 62
    7
 10
1275.4420112149605
 20
736.73197880231828
 11
1275.4420112149605
 21
781.73197880231828
  0
CIRCLE
  8
_0-5_寸法線
  6
CONTINUOUS
 62
    1
 10
1275.4420112149605
 20
776.73197880231828
 40
1.5000000000000002
  0
LINE
  8
_0-5_寸法線
  6
CONTINUOUS
 62
    7
 10
1273.9420112149605
 20
776.73197880231828
 11
1275.4420112149605
 21
776.73197880231828
  0
TEXT
  8
_0-5_寸法線
 62
    7
 10
1253.1124605210812
 20
776.73197880231828
 40
15
 41
1
 50
0
  1
1.5
  0
LINE
  8
_0-5_寸法線
  6
CONTINUOUS
 62
    7
 10
1278.44201121376
 20
736.73197880231828
 11
1278.44201121376
 21
781.73197880231828
  0
LINE
  8
_0-5_寸法線
  6
CONTINUOUS
 62
    7
 10
1278.44201121376
 20
776.73197880231828
 11
1288.1012694766509
 21
779.32016925334335
  0
LINE
  8
_0-5_寸法線
  6
CONTINUOUS
 62
    7
 10
1278.44201121376
 20
776.73197880231828
 11
1288.1012694766509
 21
774.14378835129298
  0
LINE
  8
_0-5_寸法線
  6
CONTINUOUS
 62
    7
 10
1275.4420112149605
 20
776.73197880231828
 11
1303.4420112137602
 21
776.73197880231828
  0
TEXT
  8
_0-5_寸法線
 62
    7
 10
1293.4570078461852
 20
776.73197880231828
 40
15
 41
1
 50
0
  1
3
  0
LINE
  8
_0-5_寸法線
  6
CONTINUOUS
 62
    7
 10
220.44201121375977
 20
726.73197880231828
 11
217.85382076273464
 21
736.39123706520888
  0
LINE
  8
_0-5_寸法線
  6
CONTINUOUS
 62
    7
 10
220.44201121375977
 20
726.73197880231828
 11
223.03020166478504
 21
736.39123706520888
  0
LINE
  8
_0-5_寸法線
  6
CONTINUOUS
 62
    7
 10
260.44201121375977
 20
723.73197880351825
 11
215.44201121375977
 21
723.73197880351825
  0
CIRCLE
  8
_0-5_寸法線
  6
CONTINUOUS
 62
    1
 10
220.44201121375977
 20
723.73197880351825
 40
1.5000000000000002
  0
LINE
  8
_0-5_寸法線
  6
CONTINUOUS
 62
    7
 10
220.44201121375977
 20
751.73197880231828
 11
220.44201121375977
 21
723.73197880351825
  0
TEXT
  8
_0-5_寸法線
 62
    7
 10
220.44201121375977
 20
739.3237794811206
 40
15
 41
1
 50
90
  1
3
  0
LINE
  8
_0-5_寸法線
  6
CONTINUOUS
 62
    7
 10
260.44201121375977
 20
722.23198029875573
 11
215.44201121375977
 21
722.23198029875573
  0
LINE
  8
_0-5_寸法線
  6
CONTINUOUS
 62
    7
 10
220.44201121375977
 20
723.73197880351825
 11
220.44201121375977
 21
722.23198029875573
  0
TEXT
  8
_0-5_寸法線
 62
    7
 10
237.0978911539296
 20
699.73198029875573
 40
15
 41
1
 50
89.999999999999815
  1
1.5
  0
LINE
  8
_0-5_寸法線
  6
CONTINUOUS
 62
    7
 10
220.44201121375977
 20
722.23198029875573
 11
223.0302016647849
 21
712.57272203586513
  0
LINE
  8
_0-5_寸法線
  6
CONTINUOUS
 62
    7
 10
220.44201121375977
 20
722.23198029875573
 11
217.8538207627345
 21
712.57272203586513
  0
LINE
  8
_0-5_寸法線
  6
CONTINUOUS
 62
    7
 10
260.44201121375977
 20
641.23198029875755
 11
215.44201121375977
 21
641.23198029875755
  0
LINE
  8
_0-5_寸法線
  6
CONTINUOUS
 62
    7
 10
220.44201121375977
 20
641.23198029875755
 11
217.85382076273459
 21
650.89123856164838
  0
LINE
  8
_0-5_寸法線
  6
CONTINUOUS
 62
    7
 10
220.44201121375977
 20
641.23198029875755
 11
223.03020166478495
 21
650.89123856164838
  0
LINE
  8
_0-5_寸法線
  6
CONTINUOUS
 62
    7
 10
220.44201121375977
 20
722.23198029875573
 11
220.44201121375977
 21
641.23198029875755
  0
TEXT
  8
_0-5_寸法線
 62
    7
 10
220.44201121375977
 20
674.23198029875664
 40
15
 41
1
 50
90
  1
81
  0
LINE
  8
_0-5_寸法線
  6
CONTINUOUS
 62
    7
 10
260.44201121375977
 20
639.73198179399571
 11
215.44201121375977
 21
639.73198179399571
  0
CIRCLE
  8
_0-5_寸法線
  6
CONTINUOUS
 62
    1
 10
220.44201121375977
 20
639.73198179399571
 40
1.5000000000000002
  0
LINE
  8
_0-5_寸法線
  6
CONTINUOUS
 62
    7
 10
220.44201121375977
 20
641.23198029875755
 11
220.44201121375977
 21
639.73198179399571
  0
TEXT
  8
_0-5_寸法線
 62
    7
 10
237.67830094166541
 20
641.23198029875755
 40
15
 41
1
 50
90
  1
1.5
  0
LINE
  8
_0-5_寸法線
  6
CONTINUOUS
 62
    7
 10
220.44201121375977
 20
636.73198179519557
 11
223.0302016647849
 21
627.07272353230485
  0
LINE
  8
_0-5_寸法線
  6
CONTINUOUS
 62
    7
 10
220.44201121375977
 20
636.73198179519557
 11
217.8538207627345
 21
627.07272353230485
  0
LINE
  8
_0-5_寸法線
  6
CONTINUOUS
 62
    7
 10
220.44201121375977
 20
639.73198179399571
 11
220.44201121375977
 21
611.73198179519557
  0
TEXT
  8
_0-5_寸法線
 62
    7
 10
220.44201121375977
 20
617.44435731130955
 40
15
 41
1
 50
90
  1
3
  0
LINE
  8
_0-5_寸法線
  6
CONTINUOUS
 62
    7
 10
555.08442113045317
 20
638.56460782400382
 11
560.08442112159605
 21
629.90435378104564
  0
LINE
  8
_0-5_寸法線
  6
CONTINUOUS
 62
    7
 10
555.08442113045317
 20
638.56460782400382
 11
555.08442112022578
 21
628.56460782400382
  0
LINE
  8
_0-5_寸法線
  6
CONTINUOUS
 62
    7
 10
555.08442113045317
 20
638.56460782400382
 11
565.81885047512947
 21
598.50317195552509
  0
LINE
  8
_0-5_寸法線
  6
CONTINUOUS
 62
    7
 10
565.81885047512947
 20
598.50317195552509
 11
673.81885047512935
 21
598.50317195552509
  0
TEXT
  8
_0-5_寸法線
 62
    7
 10
565.81885047512947
 20
599.103171955525
 40
15
 41
0.8000000000000001
 50
0
  1
ＳＵＳアングル受枠
  0
TEXT
  8
_0-5_寸法線
 62
    7
 10
568.66906268237278
 20
582.23112692155075
 40
15
 41
0.8000000000000001
 50
0
  1
皿モミ仕様
  0
LINE
  8
_0-5_寸法線
  6
CONTINUOUS
 62
    7
 10
722.27096082857724
 20
663.88696343612253
 11
727.27096082857724
 21
655.22670939827822
  0
LINE
  8
_0-5_寸法線
  6
CONTINUOUS
 62
    7
 10
722.27096082857724
 20
663.88696343612253
 11
722.27096082857724
 21
653.88696343612253
  0
LINE
  8
_0-5_寸法線
  6
CONTINUOUS
 62
    7
 10
722.27096082857724
 20
663.88696343612253
 11
739.7904949538879
 21
598.50317195552509
  0
LINE
  8
_0-5_寸法線
  6
CONTINUOUS
 62
    7
 10
739.7904949538879
 20
598.50317195552509
 11
955.7904949538879
 21
598.50317195552509
  0
TEXT
  8
_0-5_寸法線
 62
    7
 10
739.7904949538879
 20
598.50317195552509
 40
15
 41
0.8000000000000001
 50
0
  1
セーフティグレーチングスリットタイプ
  0
LINE
  8
_0-0_計極細
  6
CENTER1
 62
    2
 10
483.44201121255969
 20
728.65630032190074
 11
483.44201121255969
 21
634.60630032189999
  0
LINE
  8
_0-5_寸法線
  6
CONTINUOUS
 62
    7
 10
260.44201121375977
 20
726.73197880231828
 11
180.44201121376005
 21
726.73197880231839
  0
LINE
  8
_0-5_寸法線
  6
CONTINUOUS
 62
    7
 10
185.44201121376005
 20
726.73197880231839
 11
188.03020166478518
 21
717.07272053942779
  0
LINE
  8
_0-5_寸法線
  6
CONTINUOUS
 62
    7
 10
185.44201121376005
 20
726.73197880231839
 11
182.85382076273478
 21
717.07272053942779
  0
LINE
  8
_0-5_寸法線
  6
CONTINUOUS
 62
    7
 10
260.44201121375977
 20
636.73198179519557
 11
180.44201121376005
 21
636.73198179519579
  0
LINE
  8
_0-5_寸法線
  6
CONTINUOUS
 62
    7
 10
185.44201121376005
 20
636.73198179519579
 11
182.85382076273478
 21
646.39124005808651
  0
LINE
  8
_0-5_寸法線
  6
CONTINUOUS
 62
    7
 10
185.44201121376005
 20
636.73198179519579
 11
188.03020166478518
 21
646.39124005808651
  0
LINE
  8
_0-5_寸法線
  6
CONTINUOUS
 62
    7
 10
185.44201121376005
 20
726.73197880231839
 11
185.44201121376005
 21
636.73198179519579
  0
TEXT
  8
_0-5_寸法線
 62
    7
 10
185.44201121376005
 20
674.23198029875709
 40
15
 41
1
 50
90
  1
90
  0
LINE
  8
_0-5_寸法線
  6
CONTINUOUS
 62
    7
 10
320.44201121375977
 20
545.63546888150347
 11
326.07864713535827
 21
537.37542436059766
  0
LINE
  8
_0-5_寸法線
  6
CONTINUOUS
 62
    7
 10
320.44201121375977
 20
545.63546888150347
 11
321.19345885329517
 21
535.66374252920934
  0
LINE
  8
_0-5_寸法線
  6
CONTINUOUS
 62
    7
 10
320.44201121375977
 20
545.63546888150347
 11
333.00120374040341
 21
509.7911787580461
  0
LINE
  8
_0-5_寸法線
  6
CONTINUOUS
 62
    7
 10
333.00120374040341
 20
509.7911787580461
 11
405.00120374040353
 21
509.7911787580461
  0
TEXT
  8
_0-5_寸法線
 62
    7
 10
333.00120374040341
 20
509.7911787580461
 40
15
 41
0.8000000000000001
 50
0
  1
Ｍ４皿モミ穴
  0
LINE
  8
_0-a_極細1
  6
CONTINUOUS
 62
    7
 10
359.64043739414586
 20
115.39301645030292
 11
175.87381667647378
 21
244.26629586083106
  0
LINE
  8
_0-a_極細1
  6
CONTINUOUS
 62
    7
 10
509.64043739414592
 20
115.39301645030292
 11
693.40705811181874
 21
244.26629586083098
  0
LINE
  8
_0-a_極細1
  6
CONTINUOUS
 62
    7
 10
509.64043739414592
 20
244.26629586083098
 11
693.40705811181874
 21
115.39301645030292
  0
LINE
  8
_0-a_極細1
  6
CONTINUOUS
 62
    7
 10
175.87381667647378
 20
115.39301645030292
 11
359.64043739414586
 21
244.26629586083098
  0
ENDSEC
  0
EOF
