  0
SECTION
  2
HEADER
  9
$ACADVER
  1
AC1009
  9
$INSBASE
 10
0
 20
0
 30
0
  9
$EXTMIN
 10
0
 20
0
  9
$EXTMAX
 10
1485
 20
1050
  9
$LIMMIN
 10
0
 20
0
  9
$LIMMAX
 10
1485
 20
1050
  9
$LTSCALE
 40
5
  0
ENDSEC
  0
SECTION
  2
TABLES
  0
TABLE
  2
LTYPE
 70
     9
  0
LTYPE
  2
CONTINUOUS
 70
    64
  3
実線
 72
    65
 73
     0
 40
0.0
  0
LTYPE
  2
DASHED1
 70
    64
  3
--  --  --  --  --  --  --  --  
 72
    65
 73
     2
 40
2.5
 49
1.25
 49
-1.25
  0
LTYPE
  2
DASHED2
 70
    64
  3
----    ----    ----    ----    
 72
    65
 73
     2
 40
5.0
 49
2.5
 49
-2.5
  0
LTYPE
  2
DASHED3
 70
    64
  3
------  ------  ------  ------  
 72
    65
 73
     2
 40
5.0
 49
3.75
 49
-1.25
  0
LTYPE
  2
CENTER1
 70
    64
  3
----- - ----- - ----- - ----- - 
 72
    65
 73
     4
 40
10.0
 49
6.25
 49
-1.25
 49
1.25
 49
-1.25
  0
LTYPE
  2
CENTER2
 70
    64
  3
----------  --  ----------  --  
 72
    65
 73
     4
 40
20.0
 49
12.5
 49
-2.5
 49
2.5
 49
-2.5
  0
LTYPE
  2
PHANTOM1
 70
    64
  3
--- - - --- - - --- - - --- - - 
 72
    65
 73
     6
 40
10.0
 49
3.25
 49
-1.25
 49
1.25
 49
-1.25
 49
1.25
 49
-1.25
  0
LTYPE
  2
PHANTOM2
 70
    64
  3
--------  -  -  --------  -  -  
 72
    65
 73
     6
 40
20.0
 49
10.0
 49
-2.5
 49
1.25
 49
-2.5
 49
1.25
 49
-2.5
  0
LTYPE
  2
DOT
 70
    64
  3
-   -   -   -   -   -   -   -   
 72
    65
 73
     2
 40
2.5
 49
0.625
 49
-1.875
  0
LTYPE
  2
DUMMY
 70
    64
  3
ダミー
 72
    65
 73
     0
 40
0.0
  0
LTYPE
  2
RAND1
 70
    64
  3
ランダム線1
 72
    65
 73
     4
 40
10.0
 49
1.0
 49
-2.0
 49
3.0
 49
-4.0
  0
LTYPE
  2
RAND2
 70
    64
  3
ランダム線2
 72
    65
 73
     4
 40
14.0
 49
2.0
 49
-3.0
 49
4.0
 49
-5.0
  0
LTYPE
  2
RAND3
 70
    64
  3
ランダム線3
 72
    65
 73
     4
 40
18.0
 49
3.0
 49
-4.0
 49
5.0
 49
-6.0
  0
LTYPE
  2
RAND4
 70
    64
  3
ランダム線4
 72
    65
 73
     4
 40
22.0
 49
4.0
 49
-5.0
 49
6.0
 49
-7.0
  0
LTYPE
  2
RAND5
 70
    64
  3
ランダム線5
 72
    65
 73
     4
 40
26.0
 49
5.0
 49
-6.0
 49
7.0
 49
-8.0
  0
LTYPE
  2
LONG1
 70
    64
  3
----------  --  ----------  --  
 72
    65
 73
     4
 40
40.0
 49
32.5
 49
-2.5
 49
2.5
 49
-2.5
  0
LTYPE
  2
LONG2
 70
    64
  3
--------  -  -  --------  -  -  
 72
    65
 73
     6
 40
40.0
 49
30.0
 49
-2.5
 49
1.25
 49
-2.5
 49
1.25
 49
-2.5
  0
LTYPE
  2
LONG3
 70
    64
  3
+++++++++++++++..+++++++++++++++
 72
    65
 73
     2
 40
40.0
 49
37.5
 49
-2.5
  0
LTYPE
  2
LONG4
 70
    64
  3
+++++++++++++++..+++++++++++++++
 72
    65
 73
     2
 40
80.0
 49
75.0
 49
-5.0
  0
LTYPE
  2
LONG5
 70
    64
  3
----------  --  ----------  --  
 72
    65
 73
     4
 40
60.0
 49
37.5
 49
-7.5
 49
7.5
 49
-7.5
  0
LTYPE
  2
dashed
 70
   64
  3
-------   -------------   ------
 72
   65
 73
    2
 40
7.5
 49
6
 49
-1.5
  0
LTYPE
  2
dashed_spaced
 70
   64
  3
----        --------        ----
 72
   65
 73
    2
 40
12
 49
6
 49
-6
  0
LTYPE
  2
long_dashed_dotted
 70
   64
  3
------------- --- --------------
 72
   65
 73
    4
 40
15.25
 49
12
 49
-1.5
 49
0.25
 49
-1.5
  0
LTYPE
  2
long_dashed_double-dotted
 70
   64
  3
----------- --- --- ------------
 72
   65
 73
    6
 40
17
 49
12
 49
-1.5
 49
0.25
 49
-1.5
 49
0.25
 49
-1.5
  0
LTYPE
  2
long_dashed_triplicate-dotted
 70
   64
  3
--------- --- --- --- ----------
 72
   65
 73
    8
 40
18.75
 49
12
 49
-1.5
 49
0.25
 49
-1.5
 49
0.25
 49
-1.5
 49
0.25
 49
-1.5
  0
LTYPE
  2
dotted
 70
   64
  3
   -       -       -       -    
 72
   65
 73
    2
 40
1.75
 49
0.25
 49
-1.5
  0
LTYPE
  2
chain
 70
   64
  3
-------------- -- --------------
 72
   65
 73
    4
 40
18.5
 49
12
 49
-1.5
 49
3.5
 49
-1.5
  0
LTYPE
  2
chain_double_dash
 70
   64
  3
------------ -- -- -------------
 72
   65
 73
    6
 40
23.5
 49
12
 49
-1.5
 49
3.5
 49
-1.5
 49
3.5
 49
-1.5
  0
LTYPE
  2
dashed_dotted
 70
   64
  3
-----------     -     ----------
 72
   65
 73
    4
 40
9.25
 49
6
 49
-1.5
 49
0.25
 49
-1.5
  0
LTYPE
  2
double-dashed_dotted
 70
   64
  3
------   -----------   -   -----
 72
   65
 73
    6
 40
16.75
 49
6
 49
-1.5
 49
6
 49
-1.5
 49
0.25
 49
-1.5
  0
LTYPE
  2
dashed_double-dotted
 70
   64
  3
---------    -    -    ---------
 72
   65
 73
    6
 40
11
 49
6
 49
-1.5
 49
0.25
 49
-1.5
 49
0.25
 49
-1.5
  0
LTYPE
  2
double-dashed_double-dotted
 70
   64
  3
-----   ---------   -   -   ----
 72
   65
 73
    8
 40
18.5
 49
6
 49
-1.5
 49
6
 49
-1.5
 49
0.25
 49
-1.5
 49
0.25
 49
-1.5
  0
LTYPE
  2
dashed_triplicate-dotted
 70
   64
  3
-------    -    -    -    ------
 72
   65
 73
    8
 40
12.75
 49
6
 49
-1.5
 49
0.25
 49
-1.5
 49
0.25
 49
-1.5
 49
0.25
 49
-1.5
  0
LTYPE
  2
double-dashed_triplicate-dotted
 70
   64
  3
-----  ---------  -  -  -  -----
 72
   65
 73
   10
 40
20.25
 49
6
 49
-1.5
 49
6
 49
-1.5
 49
0.25
 49
-1.5
 49
0.25
 49
-1.5
 49
0.25
 49
-1.5
  0
LTYPE
  2
undefined
 70
   64
  3
--------------------------------
 72
   65
 73
    0
 40
0
  0
ENDTAB
  0
TABLE
  2
STYLE
  5
3
100
AcDbSymbolTable
 70
     1
  0
STYLE
  5
10
100
AcDbSymbolTableRecord
100
AcDbTextStyleTableRecord
  2
STANDARD
 70
     0
 40
0.0
 41
1.0
 50
0.0
 71
     0
 42
0.2
  3
txt
  4
bigfont.shx
  0
STYLE
  5
26
100
AcDbSymbolTableRecord
100
AcDbTextStyleTableRecord
  2
TATEGAKI
 70
    68
 40
0.0
 41
1.0
 50
0.0
 71
     0
 42
1.0
  3
txt
  4
bigfont.shx
  0
ENDTAB
  0
TABLE
  2
LAYER
 70
   10
  0
LAYER
  2
_0-0_計極細
 70
   64
 62
    7
  6
CONTINUOUS
  0
LAYER
  2
_0-1_計細線
 70
   64
 62
    7
  6
CONTINUOUS
  0
LAYER
  2
_0-5_寸法線
 70
   64
 62
    7
  6
CONTINUOUS
  0
LAYER
  2
_0-7_枠細線
 70
   64
 62
    7
  6
CONTINUOUS
  0
LAYER
  2
_0-8_枠中線
 70
   64
 62
    7
  6
CONTINUOUS
  0
LAYER
  2
_0-9_枠極太
 70
   64
 62
    7
  6
CONTINUOUS
  0
LAYER
  2
_0-a_極細3
 70
   64
 62
    7
  6
CONTINUOUS
  0
LAYER
  2
_0-b_細線3
 70
   64
 62
    7
  6
CONTINUOUS
  0
LAYER
  2
_0-d_寸法3
 70
   64
 62
    7
  6
CONTINUOUS
  0
LAYER
  2
ADD_LINE
 70
   64
 62
    7
  6
CONTINUOUS
  0
ENDTAB
  0
ENDSEC
  0
SECTION
  2
BLOCKS
  0
ENDSEC
  0
SECTION
  2
ENTITIES
  0
LINE
  8
_0-7_枠細線
  6
CONTINUOUS
 62
    5
 10
1185
 20
180
 11
1185
 21
100
  0
TEXT
  8
_0-7_枠細線
 62
    5
 10
937.5
 20
97.5
 40
17.5
 41
1
 50
0
  1
備考
  7
TATEGAKI
  0
TEXT
  8
_0-7_枠細線
 62
    5
 10
937.5
 20
137.5
 40
17.5
 41
1
 50
0
  1
品番
  7
TATEGAKI
  0
TEXT
  8
_0-7_枠細線
 62
    5
 10
937.5
 20
177.5
 40
17.5
 41
1
 50
0
  1
品名
  7
TATEGAKI
  0
LINE
  8
_0-7_枠細線
  6
CONTINUOUS
 62
    5
 10
1185
 20
140
 11
925
 21
140
  0
LINE
  8
_0-7_枠細線
  6
CONTINUOUS
 62
    5
 10
950
 20
180
 11
950
 21
60
  0
LINE
  8
_0-8_枠中線
  6
CONTINUOUS
 62
    5
 10
1425
 20
180
 11
925
 21
180
  0
LINE
  8
_0-8_枠中線
  6
CONTINUOUS
 62
    5
 10
925
 20
180
 11
925
 21
60
  0
LINE
  8
_0-7_枠細線
  6
CONTINUOUS
 62
    5
 10
1245
 20
180
 11
1245
 21
60
  0
TEXT
  8
_0-7_枠細線
 62
    5
 10
1192.5
 20
160
 40
15
 41
1
 50
0
  1
縮　尺
  0
LINE
  8
_0-7_枠細線
  6
CONTINUOUS
 62
    5
 10
1185
 20
155
 11
1245
 21
155
  0
LINE
  8
_0-7_枠細線
  6
CONTINUOUS
 62
    5
 10
1245
 20
100
 11
925
 21
100
  0
LINE
  8
_0-7_枠細線
  6
CONTINUOUS
 62
    5
 10
1425
 20
90
 11
1245
 21
90
  0
LINE
  8
_0-7_枠細線
  6
CONTINUOUS
 62
    5
 10
1245
 20
120
 11
1425
 21
120
  0
LINE
  8
_0-7_枠細線
  6
CONTINUOUS
 62
    5
 10
1425
 20
140
 11
1245
 21
140
  0
TEXT
  8
_0-7_枠細線
 62
    5
 10
1255
 20
147.5
 40
25
 41
0.8
 50
0
  1
株式会社シマブン
  0
TEXT
  8
_0-7_枠細線
 62
    5
 10
1252.5
 20
60
 40
15
 41
1
 50
0
  1
年月日
  0
TEXT
  8
_0-7_枠細線
 62
    5
 10
1252.5
 20
75
 40
15
 41
1
 50
0
  1
作　成
  0
TEXT
  8
_0-7_枠細線
 62
    5
 10
1256.25
 20
122.5
 40
15
 41
1
 50
0
  1
承 認
  0
LINE
  8
_0-7_枠細線
  6
CONTINUOUS
 62
    5
 10
1305
 20
140
 11
1305
 21
60
  0
TEXT
  8
_0-7_枠細線
 62
    5
 10
1316.25
 20
122.5
 40
15
 41
1
 50
0
  1
検 図
  0
LINE
  8
_0-7_枠細線
  6
CONTINUOUS
 62
    5
 10
1365
 20
140
 11
1365
 21
90
  0
TEXT
  8
_0-7_枠細線
 62
    5
 10
1375
 20
95
 40
20
 41
1
 50
0
  1
藤戸
  0
TEXT
  8
_0-7_枠細線
 62
    5
 10
1376.25
 20
122.5
 40
15
 41
1
 50
0
  1
設 計
  0
TEXT
  8
_0-7_枠細線
 62
    5
 10
1255
 20
95
 40
20
 41
1
 50
0
  1
隠塚
  0
TEXT
  8
_0-7_枠細線
 62
    5
 10
1315
 20
95
 40
20
 41
1
 50
0
  1
渋田
  0
TEXT
  8
_0-7_枠細線
 62
    5
 10
1193.9999999999998
 20
117.5
 40
20
 41
0.7000000000000001
 50
0
  1
１：５
  0
TEXT
  8
_0-7_枠細線
 62
    5
 10
960.5
 20
69.999999999999858
 40
20
 41
0.5999999999999998
 50
0
  1
品番・色については表参照のこと
  0
TEXT
  8
_0-7_枠細線
 62
    5
 10
1309.9999999999998
 20
67.499999999999929
 40
15.000000000000009
 41
0.6666666666666665
 50
0
  1
２０１０年０３月０１日
  0
TEXT
  8
_0-7_枠細線
 62
    5
 10
960.5
 20
158.74999999999994
 40
20.000000000000007
 41
0.5999999999999998
 50
0
  1
セーフティグレーチングＨ２０タイプ
  0
TEXT
  8
_0-7_枠細線
 62
    5
 10
1128.5
 20
141.25
 40
20.000000000000007
 41
0.5999999999999998
 50
0
  1
集水マス
  0
LINE
  8
_0-7_枠細線
  6
CONTINUOUS
 62
    5
 10
1425
 20
942.5
 11
890
 21
942.5
  0
TEXT
  8
_0-7_枠細線
 62
    5
 10
895
 20
945
 40
12.5
 41
1
 50
0
  1
記号
  0
TEXT
  8
_0-7_枠細線
 62
    5
 10
996.875
 20
945
 40
12.5
 41
1
 50
0
  1
訂　 正　 記　 事
  0
TEXT
  8
_0-7_枠細線
 62
    5
 10
1181.25
 20
945
 40
12.5
 41
1
 50
0
  1
訂 正 年 月 日
  0
TEXT
  8
_0-7_枠細線
 62
    5
 10
1306.25
 20
945
 40
12.5
 41
1
 50
0
  1
備　　　　　考
  0
LINE
  8
_0-7_枠細線
  6
CONTINUOUS
 62
    5
 10
1425
 20
925
 11
890
 21
925
  0
TEXT
  8
_0-7_枠細線
 62
    5
 10
938.85037037037023
 20
927.5
 40
12.5
 41
1
 50
0
  1
品番・色記号変更
  0
TEXT
  8
_0-7_枠細線
 62
    5
 10
1180
 20
927.5
 40
12.5
 41
0.7199999999999999
 50
0
  1
２０１３．０３．１３
  0
LINE
  8
_0-7_枠細線
  6
CONTINUOUS
 62
    5
 10
1425
 20
907.5
 11
890
 21
907.5
  0
LINE
  8
_0-7_枠細線
  6
CONTINUOUS
 62
    5
 10
1425
 20
890
 11
890
 21
890
  0
TEXT
  8
_0-7_枠細線
 62
    5
 10
938.85037037037023
 20
910
 40
12.5
 41
1
 50
0
  1
クロスバーピッチ変更
  0
TEXT
  8
_0-7_枠細線
 62
    5
 10
938.85037037037023
 20
892.5
 40
12.5
 41
1
 50
0
  1
取外具形状変更
  0
TEXT
  8
_0-7_枠細線
 62
    5
 10
1180
 20
910
 40
12.5
 41
0.7199999999999999
 50
0
  1
２０１５．１１．２０
  0
LINE
  8
_0-7_枠細線
  6
CONTINUOUS
 62
    5
 10
915
 20
908.94233397174685
 11
907.5
 21
923.94233397174685
  0
LINE
  8
_0-7_枠細線
  6
CONTINUOUS
 62
    5
 10
900
 20
908.94233397174685
 11
915
 21
908.94233397174685
  0
LINE
  8
_0-7_枠細線
  6
CONTINUOUS
 62
    5
 10
907.5
 20
923.94233397174685
 11
900
 21
908.94233397174685
  0
TEXT
  8
_0-7_枠細線
 62
    5
 10
902.36515126814822
 20
908.63533172636664
 40
12.5
 41
0.8
 50
0
  1
１
  0
TEXT
  8
_0-7_枠細線
 62
    5
 10
902.36515126814822
 20
891.13533172636664
 40
12.5
 41
0.8
 50
0
  1
２
  0
LINE
  8
_0-7_枠細線
  6
CONTINUOUS
 62
    5
 10
1425
 20
872.5
 11
890
 21
872.5
  0
LINE
  8
_0-7_枠細線
  6
CONTINUOUS
 62
    5
 10
907.5
 20
906.44233397174685
 11
900
 21
891.44233397174685
  0
LINE
  8
_0-7_枠細線
  6
CONTINUOUS
 62
    5
 10
900
 20
891.44233397174685
 11
915
 21
891.44233397174685
  0
LINE
  8
_0-7_枠細線
  6
CONTINUOUS
 62
    5
 10
915
 20
891.44233397174685
 11
907.5
 21
906.44233397174685
  0
TEXT
  8
_0-7_枠細線
 62
    5
 10
902.36515126814822
 20
873.39465008156549
 40
12.5
 41
0.8
 50
0
  1
３
  0
TEXT
  8
_0-7_枠細線
 62
    5
 10
1180
 20
875
 40
12.5
 41
0.7199999999999999
 50
0
  1
２０１７．０４．０１
  0
LINE
  8
_0-7_枠細線
  6
CONTINUOUS
 62
    5
 10
915
 20
856.44233397174685
 11
907.5
 21
871.44233397174685
  0
LINE
  8
_0-7_枠細線
  6
CONTINUOUS
 62
    5
 10
900
 20
856.44233397174685
 11
915
 21
856.44233397174685
  0
LINE
  8
_0-7_枠細線
  6
CONTINUOUS
 62
    5
 10
907.5
 20
871.44233397174685
 11
900
 21
856.44233397174685
  0
TEXT
  8
_0-7_枠細線
 62
    5
 10
1180
 20
857.5
 40
12.5
 41
0.7199999999999999
 50
0
  1
２０１７．０４．０１
  0
TEXT
  8
_0-7_枠細線
 62
    5
 10
938.85037037037023
 20
857.5
 40
12.5
 41
1
 50
0
  1
ブラウン色（Ｃ）追加
  0
LINE
  8
_0-7_枠細線
  6
CONTINUOUS
 62
    5
 10
1425
 20
855
 11
890
 21
855
  0
LINE
  8
_0-7_枠細線
  6
CONTINUOUS
 62
    5
 10
907.5
 20
888.94233397174685
 11
900
 21
873.94233397174685
  0
LINE
  8
_0-7_枠細線
  6
CONTINUOUS
 62
    5
 10
900
 20
873.94233397174685
 11
915
 21
873.94233397174685
  0
LINE
  8
_0-7_枠細線
  6
CONTINUOUS
 62
    5
 10
915
 20
873.94233397174685
 11
907.5
 21
888.94233397174685
  0
TEXT
  8
_0-7_枠細線
 62
    5
 10
902.36515126814822
 20
855.49351400689704
 40
12.5
 41
0.8
 50
0
  1
４
  0
TEXT
  8
_0-7_枠細線
 62
    5
 10
938.85037037037023
 20
875
 40
12.5
 41
1
 50
0
  1
取外具形状変更
  0
TEXT
  8
_0-7_枠細線
 62
    5
 10
1180
 20
892.5
 40
12.5
 41
0.7199999999999999
 50
0
  1
２０１５．１１．２０
  0
LINE
  8
_0-9_枠極太
  6
CONTINUOUS
 62
    5
 10
60
 20
60
 11
60
 21
960
  0
LINE
  8
_0-9_枠極太
  6
CONTINUOUS
 62
    5
 10
60
 20
960
 11
1425
 21
960
  0
LINE
  8
_0-9_枠極太
  6
CONTINUOUS
 62
    5
 10
1425
 20
960
 11
1425
 21
60
  0
LINE
  8
_0-9_枠極太
  6
CONTINUOUS
 62
    5
 10
1425
 20
60
 11
60
 21
60
  0
LINE
  8
_0-7_枠細線
  6
CONTINUOUS
 62
    5
 10
915
 20
838.94233397174685
 11
907.5
 21
853.94233397174685
  0
LINE
  8
_0-7_枠細線
  6
CONTINUOUS
 62
    5
 10
900
 20
838.94233397174685
 11
915
 21
838.94233397174685
  0
LINE
  8
_0-7_枠細線
  6
CONTINUOUS
 62
    5
 10
907.5
 20
853.94233397174685
 11
900
 21
838.94233397174685
  0
LINE
  8
_0-7_枠細線
  6
CONTINUOUS
 62
    5
 10
1425
 20
837.5
 11
890
 21
837.5
  0
TEXT
  8
_0-7_枠細線
 62
    5
 10
1180
 20
840
 40
12.5
 41
0.7199999999999999
 50
0
  1
２０１９．０９．０１
  0
TEXT
  8
_0-7_枠細線
 62
    5
 10
902.36515126814822
 20
837.99351400689704
 40
12.5
 41
0.8
 50
0
  1
５
  0
TEXT
  8
_0-7_枠細線
 62
    5
 10
938.85037037037023
 20
840
 40
12.5
 41
1
 50
0
  1
アンカー材質･厚み変更
  0
TEXT
  8
_0-7_枠細線
 62
    5
 10
960.5
 20
109.99999999999993
 40
20.000000000000007
 41
0.5999999999999998
 50
0
  1
ＧＲＳ－２０Ｋ２００
  0
LINE
  8
_0-7_枠細線
  6
CONTINUOUS
 62
    5
 10
925
 20
473.73000000000047
 11
925
 21
223.73000000000002
  0
LINE
  8
_0-7_枠細線
  6
CONTINUOUS
 62
    5
 10
1270.7300000000005
 20
393.73000000000059
 11
1270.7300000000005
 21
473.73000000000059
  0
LINE
  8
_0-7_枠細線
  6
CONTINUOUS
 62
    5
 10
925
 20
323.73000000000059
 11
1225.0000000000005
 21
323.73000000000059
  0
LINE
  8
_0-7_枠細線
  6
CONTINUOUS
 62
    5
 10
925
 20
348.73000000000047
 11
1225.0000000000005
 21
348.73000000000047
  0
LINE
  8
_0-7_枠細線
  6
CONTINUOUS
 62
    5
 10
925
 20
373.73000000000047
 11
1225.0000000000005
 21
373.73000000000047
  0
LINE
  8
_0-7_枠細線
  6
CONTINUOUS
 62
    5
 10
925
 20
398.73000000000076
 11
1225.0000000000005
 21
398.73000000000076
  0
TEXT
  8
_0-7_枠細線
 62
    5
 10
1048.0000000000005
 20
403.73000000000076
 40
15
 41
0.5999999999999999
 50
0
  1
ライトグレー
  0
LINE
  8
_0-7_枠細線
  6
CONTINUOUS
 62
    5
 10
925
 20
423.73000000000047
 11
1225.0000000000005
 21
423.73000000000047
  0
TEXT
  8
_0-7_枠細線
 62
    5
 10
1057.0000000000005
 20
428.73000000000047
 40
15
 41
0.5999999999999999
 50
0
  1
ベージュ
  0
LINE
  8
_0-7_枠細線
  6
CONTINUOUS
 62
    5
 10
925
 20
448.73000000000047
 11
1225.0000000000005
 21
448.73000000000047
  0
TEXT
  8
_0-7_枠細線
 62
    5
 10
1069.0000000000005
 20
453.73000000000047
 40
15
 41
0.8000000000000001
 50
0
  1
色
  0
TEXT
  8
_0-7_枠細線
 62
    5
 10
951.00000000000034
 20
453.73000000000047
 40
15
 41
0.8000000000000001
 50
0
  1
品　　番
  0
TEXT
  8
_0-7_枠細線
 62
    5
 10
1151.0000000000005
 20
453.73000000000047
 40
15
 41
0.8000000000000001
 50
0
  1
備　　考
  0
LINE
  8
_0-7_枠細線
  6
CONTINUOUS
 62
    5
 10
925
 20
473.73000000000047
 11
1225.0000000000005
 21
473.73000000000047
  0
TEXT
  8
_0-7_枠細線
 62
    5
 10
1013.75
 20
478.73000000000047
 40
17.5
 41
1
 50
0
  1
品番表
  0
LINE
  8
_0-7_枠細線
  6
CONTINUOUS
 62
    5
 10
925
 20
248.73000000000033
 11
1225.0000000000005
 21
248.73000000000033
  0
LINE
  8
_0-7_枠細線
  6
CONTINUOUS
 62
    5
 10
925
 20
273.73000000000059
 11
1225.0000000000005
 21
273.73000000000059
  0
LINE
  8
_0-7_枠細線
  6
CONTINUOUS
 62
    5
 10
925
 20
298.7300000000007
 11
1225.0000000000005
 21
298.7300000000007
  0
TEXT
  8
_0-7_枠細線
 62
    5
 10
1057.0000000000009
 20
378.7300000000007
 40
15
 41
0.5999999999999999
 50
0
  1
ホワイト
  0
TEXT
  8
_0-7_枠細線
 62
    5
 10
1061.5000000000005
 20
353.73000000000047
 40
15
 41
0.5999999999999999
 50
0
  1
ピンク
  0
TEXT
  8
_0-7_枠細線
 62
    5
 10
1061.5000000000005
 20
328.73000000000047
 40
15
 41
0.5999999999999999
 50
0
  1
ブルー
  0
TEXT
  8
_0-7_枠細線
 62
    5
 10
1048
 20
303.73000000000059
 40
15
 41
0.5999999999999999
 50
0
  1
ダークグレー
  0
TEXT
  8
_0-7_枠細線
 62
    5
 10
1061.5000000000005
 20
278.7300000000007
 40
15
 41
0.5999999999999999
 50
0
  1
ウッド
  0
LINE
  8
_0-7_枠細線
  6
CONTINUOUS
 62
    5
 10
925
 20
223.73000000000002
 11
1225.0000000000005
 21
223.73000000000002
  0
TEXT
  8
_0-7_枠細線
 62
    5
 10
1057.0000000000009
 20
228.73000000000013
 40
15
 41
0.5999999999999999
 50
0
  1
ブラック
  0
LINE
  8
_0-7_枠細線
  6
CONTINUOUS
 62
    5
 10
1225.0000000000005
 20
473.73000000000047
 11
1225.0000000000005
 21
223.73000000000002
  0
LINE
  8
_0-7_枠細線
  6
CONTINUOUS
 62
    5
 10
1125
 20
473.73000000000047
 11
1125
 21
223.73000000000002
  0
LINE
  8
_0-7_枠細線
  6
CONTINUOUS
 62
    5
 10
1025.0000000000005
 20
473.73000000000047
 11
1025.0000000000005
 21
223.73000000000002
  0
TEXT
  8
_0-7_枠細線
 62
    5
 10
1057.0000000000005
 20
253.73000000000033
 40
15
 41
0.5999999999999999
 50
0
  1
ブラウン
  0
LINE
  8
_0-7_枠細線
  6
CONTINUOUS
 62
    5
 10
918.52762466555532
 20
254.30604122127349
 11
911.02762466555532
 21
269.30604122127352
  0
LINE
  8
_0-7_枠細線
  6
CONTINUOUS
 62
    5
 10
903.52762466555532
 20
254.30604122127349
 11
918.52762466555532
 21
254.30604122127349
  0
LINE
  8
_0-7_枠細線
  6
CONTINUOUS
 62
    5
 10
911.02762466555532
 20
269.30604122127352
 11
903.52762466555532
 21
254.30604122127349
  0
TEXT
  8
_0-7_枠細線
 62
    5
 10
905.89277593370343
 20
253.3572212564236
 40
12.5
 41
0.8
 50
0
  1
４
  0
TEXT
  8
_0-7_枠細線
 62
    5
 10
930.00000000000045
 20
428.73000000000047
 40
15
 41
0.5
 50
0
  1
ＧＲＳ－２０Ｋ２００－Ｂ
  0
TEXT
  8
_0-7_枠細線
 62
    5
 10
930.00000000000045
 20
403.73000000000047
 40
15
 41
0.5
 50
0
  1
ＧＲＳ－２０Ｋ２００－Ｇ
  0
TEXT
  8
_0-7_枠細線
 62
    5
 10
930.00000000000045
 20
378.7300000000007
 40
15
 41
0.5
 50
0
  1
ＧＲＳ－２０Ｋ２００－Ｓ
  0
TEXT
  8
_0-7_枠細線
 62
    5
 10
930.00000000000045
 20
353.73000000000047
 40
15
 41
0.5
 50
0
  1
ＧＲＳ－２０Ｋ２００－Ｐ
  0
TEXT
  8
_0-7_枠細線
 62
    5
 10
930.00000000000045
 20
328.73000000000047
 40
15
 41
0.5
 50
0
  1
ＧＲＳ－２０Ｋ２００－Ａ
  0
TEXT
  8
_0-7_枠細線
 62
    5
 10
930.00000000000045
 20
303.73000000000059
 40
15
 41
0.5
 50
0
  1
ＧＲＳ－２０Ｋ２００－Ｄ
  0
TEXT
  8
_0-7_枠細線
 62
    5
 10
930.00000000000045
 20
278.7300000000007
 40
15
 41
0.5
 50
0
  1
ＧＲＳ－２０Ｋ２００－Ｍ
  0
TEXT
  8
_0-7_枠細線
 62
    5
 10
930.00000000000045
 20
253.73000000000033
 40
15
 41
0.5
 50
0
  1
ＧＲＳ－２０Ｋ２００－Ｃ
  0
TEXT
  8
_0-7_枠細線
 62
    5
 10
930.00000000000045
 20
228.73000000000013
 40
15
 41
0.5
 50
0
  1
ＧＲＳ－２０Ｋ２００－Ｋ
  0
TEXT
  8
_0-7_枠細線
 62
    5
 10
1293.2300000000007
 20
451.23000000000059
 40
15
 41
1
 50
0
  1
耐荷重
  0
TEXT
  8
_0-7_枠細線
 62
    5
 10
1285.7300000000007
 20
421.23000000000059
 40
15
 41
1
 50
0
  1
3.5kN/㎡
  0
TEXT
  8
_0-7_枠細線
 62
    5
 10
1278.2300000000005
 20
401.23000000000059
 40
15
 41
1
 50
0
  1
（歩道用）
  0
LINE
  8
_0-7_枠細線
  6
CONTINUOUS
 62
    5
 10
1360.7300000000007
 20
393.73000000000059
 11
1360.7300000000007
 21
473.73000000000059
  0
LINE
  8
_0-7_枠細線
  6
CONTINUOUS
 62
    5
 10
1270.7300000000005
 20
393.73000000000059
 11
1360.7300000000007
 21
393.73000000000059
  0
LINE
  8
_0-7_枠細線
  6
CONTINUOUS
 62
    5
 10
1270.7300000000005
 20
443.73000000000059
 11
1360.7300000000007
 21
443.73000000000059
  0
LINE
  8
_0-7_枠細線
  6
CONTINUOUS
 62
    5
 10
1270.7300000000005
 20
473.73000000000059
 11
1360.7300000000007
 21
473.73000000000059
  0
LINE
  8
_0-1_計細線
  6
CONTINUOUS
 62
    3
 10
550.51795824097144
 20
656.60583080108029
 11
346.51795824097098
 21
656.60583080108029
  0
LINE
  8
_0-1_計細線
  6
CONTINUOUS
 62
    3
 10
346.51795824097098
 20
656.60583080108029
 11
346.51795824097098
 21
452.6058308010787
  0
LINE
  8
_0-1_計細線
  6
CONTINUOUS
 62
    3
 10
346.51795824097098
 20
452.6058308010787
 11
550.51795824097144
 21
452.6058308010787
  0
LINE
  8
_0-1_計細線
  6
CONTINUOUS
 62
    3
 10
550.51795824097144
 20
452.6058308010787
 11
550.51795824097144
 21
656.60583080108029
  0
LINE
  8
_0-1_計細線
  6
CONTINUOUS
 62
    3
 10
343.51795824097104
 20
449.60583080107875
 11
343.51795824097104
 21
659.6058308010804
  0
LINE
  8
_0-1_計細線
  6
CONTINUOUS
 62
    3
 10
343.51795824097104
 20
659.6058308010804
 11
553.51795824097144
 21
659.6058308010804
  0
LINE
  8
_0-1_計細線
  6
CONTINUOUS
 62
    3
 10
553.51795824097144
 20
659.6058308010804
 11
553.51795824097144
 21
449.60583080107875
  0
LINE
  8
_0-1_計細線
  6
CONTINUOUS
 62
    3
 10
553.51795824097144
 20
449.60583080107875
 11
343.51795824097104
 21
449.60583080107875
  0
LINE
  8
_0-0_計極細
  6
CONTINUOUS
 62
    2
 10
349.01795824097087
 20
500.80583080108198
 11
349.01795824097087
 21
506.40583080108229
  0
LINE
  8
_0-0_計極細
  6
CONTINUOUS
 62
    2
 10
362.01795824097087
 20
500.80583080108198
 11
362.01795824097087
 21
506.40583080108229
  0
LINE
  8
_0-0_計極細
  6
CONTINUOUS
 62
    2
 10
349.01795824097087
 20
517.80583080108283
 11
349.01795824097087
 21
523.4058308010832
  0
LINE
  8
_0-0_計極細
  6
CONTINUOUS
 62
    2
 10
362.01795824097087
 20
517.80583080108283
 11
362.01795824097087
 21
523.4058308010832
  0
LINE
  8
_0-0_計極細
  6
CONTINUOUS
 62
    2
 10
349.01795824097087
 20
540.40583080107865
 11
349.01795824097087
 21
534.8058308010792
  0
LINE
  8
_0-0_計極細
  6
CONTINUOUS
 62
    2
 10
362.01795824097087
 20
540.40583080107865
 11
362.01795824097087
 21
534.8058308010792
  0
LINE
  8
_0-0_計極細
  6
CONTINUOUS
 62
    2
 10
349.01795824097087
 20
557.40583080107956
 11
349.01795824097087
 21
551.8058308010792
  0
LINE
  8
_0-0_計極細
  6
CONTINUOUS
 62
    2
 10
362.01795824097087
 20
557.40583080107956
 11
362.01795824097087
 21
551.8058308010792
  0
LINE
  8
_0-0_計極細
  6
CONTINUOUS
 62
    2
 10
349.01795824097087
 20
625.80583080108056
 11
349.01795824097087
 21
619.80583080108067
  0
LINE
  8
_0-0_計極細
  6
CONTINUOUS
 62
    2
 10
362.01795824097087
 20
625.80583080108056
 11
362.01795824097087
 21
619.80583080108067
  0
LINE
  8
_0-0_計極細
  6
CONTINUOUS
 62
    2
 10
349.01795824097087
 20
643.20583080108065
 11
349.01795824097087
 21
637.2058308010802
  0
LINE
  8
_0-0_計極細
  6
CONTINUOUS
 62
    2
 10
362.01795824097087
 20
643.20583080108065
 11
362.01795824097087
 21
637.2058308010802
  0
LINE
  8
_0-0_計極細
  6
CONTINUOUS
 62
    2
 10
349.01795824097087
 20
574.40583080108047
 11
349.01795824097087
 21
568.80583080108011
  0
LINE
  8
_0-0_計極細
  6
CONTINUOUS
 62
    2
 10
362.01795824097087
 20
574.40583080108047
 11
362.01795824097087
 21
568.80583080108011
  0
LINE
  8
_0-0_計極細
  6
CONTINUOUS
 62
    2
 10
349.01795824097087
 20
591.40583080108092
 11
349.01795824097087
 21
585.80583080108056
  0
LINE
  8
_0-0_計極細
  6
CONTINUOUS
 62
    2
 10
362.01795824097087
 20
591.40583080108092
 11
362.01795824097087
 21
585.80583080108056
  0
LINE
  8
_0-0_計極細
  6
CONTINUOUS
 62
    2
 10
349.01795824097087
 20
608.40583080108138
 11
349.01795824097087
 21
602.80583080108147
  0
LINE
  8
_0-0_計極細
  6
CONTINUOUS
 62
    2
 10
362.01795824097087
 20
608.40583080108138
 11
362.01795824097087
 21
602.80583080108147
  0
LINE
  8
_0-0_計極細
  6
CONTINUOUS
 62
    2
 10
349.01795824097087
 20
483.40583080108138
 11
349.01795824097087
 21
489.40583080108138
  0
LINE
  8
_0-0_計極細
  6
CONTINUOUS
 62
    2
 10
362.01795824097087
 20
483.40583080108138
 11
362.01795824097087
 21
489.40583080108138
  0
LINE
  8
_0-0_計極細
  6
CENTER1
 62
    2
 10
355.51795824097093
 20
663.35655022554351
 11
355.51795824097093
 21
446.84800706006962
  0
LINE
  8
_0-0_計極細
  6
CONTINUOUS
 62
    2
 10
349.01795824097087
 20
466.00583080108089
 11
349.01795824097087
 21
472.00583080108089
  0
LINE
  8
_0-0_計極細
  6
CONTINUOUS
 62
    2
 10
362.01795824097087
 20
466.00583080108089
 11
362.01795824097087
 21
472.00583080108089
  0
LINE
  8
_0-0_計極細
  6
CONTINUOUS
 62
    2
 10
446.01795824097081
 20
500.80583080108198
 11
446.01795824097081
 21
506.40583080108229
  0
LINE
  8
_0-0_計極細
  6
CONTINUOUS
 62
    2
 10
459.01795824097087
 20
500.80583080108198
 11
459.01795824097087
 21
506.40583080108229
  0
LINE
  8
_0-0_計極細
  6
CONTINUOUS
 62
    2
 10
446.01795824097081
 20
517.80583080108283
 11
446.01795824097081
 21
523.4058308010832
  0
LINE
  8
_0-0_計極細
  6
CONTINUOUS
 62
    2
 10
459.01795824097087
 20
517.80583080108283
 11
459.01795824097087
 21
523.4058308010832
  0
LINE
  8
_0-0_計極細
  6
CONTINUOUS
 62
    2
 10
446.01795824097081
 20
540.40583080107865
 11
446.01795824097081
 21
534.8058308010792
  0
LINE
  8
_0-0_計極細
  6
CONTINUOUS
 62
    2
 10
459.01795824097087
 20
540.40583080107865
 11
459.01795824097087
 21
534.8058308010792
  0
LINE
  8
_0-0_計極細
  6
CONTINUOUS
 62
    2
 10
446.01795824097081
 20
625.80583080108056
 11
446.01795824097081
 21
619.80583080108067
  0
LINE
  8
_0-0_計極細
  6
CONTINUOUS
 62
    2
 10
459.01795824097087
 20
625.80583080108056
 11
459.01795824097087
 21
619.80583080108067
  0
LINE
  8
_0-0_計極細
  6
CONTINUOUS
 62
    2
 10
446.01795824097081
 20
643.20583080108065
 11
446.01795824097081
 21
637.2058308010802
  0
LINE
  8
_0-0_計極細
  6
CONTINUOUS
 62
    2
 10
459.01795824097087
 20
643.20583080108065
 11
459.01795824097087
 21
637.2058308010802
  0
LINE
  8
_0-0_計極細
  6
CONTINUOUS
 62
    2
 10
446.01795824097081
 20
574.40583080108047
 11
446.01795824097081
 21
568.80583080108011
  0
LINE
  8
_0-0_計極細
  6
CONTINUOUS
 62
    2
 10
459.01795824097087
 20
574.40583080108047
 11
459.01795824097087
 21
568.80583080108011
  0
LINE
  8
_0-0_計極細
  6
CONTINUOUS
 62
    2
 10
446.01795824097081
 20
591.40583080108092
 11
446.01795824097081
 21
585.80583080108056
  0
LINE
  8
_0-0_計極細
  6
CONTINUOUS
 62
    2
 10
459.01795824097087
 20
591.40583080108092
 11
459.01795824097087
 21
585.80583080108056
  0
LINE
  8
_0-0_計極細
  6
CONTINUOUS
 62
    2
 10
446.01795824097081
 20
608.40583080108138
 11
446.01795824097081
 21
602.80583080108147
  0
LINE
  8
_0-0_計極細
  6
CONTINUOUS
 62
    2
 10
459.01795824097087
 20
608.40583080108138
 11
459.01795824097087
 21
602.80583080108147
  0
LINE
  8
_0-0_計極細
  6
CONTINUOUS
 62
    2
 10
446.01795824097081
 20
483.40583080108138
 11
446.01795824097081
 21
489.40583080108138
  0
LINE
  8
_0-0_計極細
  6
CONTINUOUS
 62
    2
 10
459.01795824097087
 20
483.40583080108138
 11
459.01795824097087
 21
489.40583080108138
  0
LINE
  8
_0-0_計極細
  6
CENTER1
 62
    2
 10
452.51795824097087
 20
663.35655022554351
 11
452.51795824097087
 21
446.84800706006962
  0
LINE
  8
_0-0_計極細
  6
CONTINUOUS
 62
    2
 10
446.01795824097081
 20
466.00583080108089
 11
446.01795824097081
 21
472.00583080108089
  0
LINE
  8
_0-0_計極細
  6
CONTINUOUS
 62
    2
 10
459.01795824097087
 20
466.00583080108089
 11
459.01795824097087
 21
472.00583080108089
  0
LINE
  8
_0-0_計極細
  6
CONTINUOUS
 62
    2
 10
446.01795824097081
 20
557.40583080107956
 11
446.01795824097081
 21
556.95583080108156
  0
LINE
  8
_0-0_計極細
  6
CONTINUOUS
 62
    2
 10
446.01795824097081
 20
552.25583080108186
 11
446.01795824097081
 21
551.8058308010792
  0
LINE
  8
_0-0_計極細
  6
CONTINUOUS
 62
    2
 10
459.01795824097087
 20
557.40583080107956
 11
459.01795824097087
 21
556.95583080108156
  0
LINE
  8
_0-0_計極細
  6
CONTINUOUS
 62
    2
 10
459.01795824097087
 20
552.25583080108186
 11
459.01795824097087
 21
551.8058308010792
  0
LINE
  8
_0-0_計極細
  6
CONTINUOUS
 62
    2
 10
535.01795824097076
 20
500.80583080108198
 11
535.01795824097076
 21
506.40583080108229
  0
LINE
  8
_0-0_計極細
  6
CONTINUOUS
 62
    2
 10
548.01795824097076
 20
500.80583080108198
 11
548.01795824097076
 21
506.40583080108229
  0
LINE
  8
_0-0_計極細
  6
CONTINUOUS
 62
    2
 10
535.01795824097076
 20
517.80583080108283
 11
535.01795824097076
 21
523.4058308010832
  0
LINE
  8
_0-0_計極細
  6
CONTINUOUS
 62
    2
 10
548.01795824097076
 20
517.80583080108283
 11
548.01795824097076
 21
523.4058308010832
  0
LINE
  8
_0-0_計極細
  6
CONTINUOUS
 62
    2
 10
535.01795824097076
 20
540.40583080107865
 11
535.01795824097076
 21
534.8058308010792
  0
LINE
  8
_0-0_計極細
  6
CONTINUOUS
 62
    2
 10
548.01795824097076
 20
540.40583080107865
 11
548.01795824097076
 21
534.8058308010792
  0
LINE
  8
_0-0_計極細
  6
CONTINUOUS
 62
    2
 10
535.01795824097076
 20
557.40583080107956
 11
535.01795824097076
 21
551.8058308010792
  0
LINE
  8
_0-0_計極細
  6
CONTINUOUS
 62
    2
 10
548.01795824097076
 20
557.40583080107956
 11
548.01795824097076
 21
551.8058308010792
  0
LINE
  8
_0-0_計極細
  6
CONTINUOUS
 62
    2
 10
535.01795824097076
 20
625.80583080108056
 11
535.01795824097076
 21
619.80583080108067
  0
LINE
  8
_0-0_計極細
  6
CONTINUOUS
 62
    2
 10
548.01795824097076
 20
625.80583080108056
 11
548.01795824097076
 21
619.80583080108067
  0
LINE
  8
_0-0_計極細
  6
CONTINUOUS
 62
    2
 10
535.01795824097076
 20
643.20583080108065
 11
535.01795824097076
 21
637.2058308010802
  0
LINE
  8
_0-0_計極細
  6
CONTINUOUS
 62
    2
 10
548.01795824097076
 20
643.20583080108065
 11
548.01795824097076
 21
637.2058308010802
  0
LINE
  8
_0-0_計極細
  6
CONTINUOUS
 62
    2
 10
535.01795824097076
 20
574.40583080108047
 11
535.01795824097076
 21
568.80583080108011
  0
LINE
  8
_0-0_計極細
  6
CONTINUOUS
 62
    2
 10
548.01795824097076
 20
574.40583080108047
 11
548.01795824097076
 21
568.80583080108011
  0
LINE
  8
_0-0_計極細
  6
CONTINUOUS
 62
    2
 10
535.01795824097076
 20
591.40583080108092
 11
535.01795824097076
 21
585.80583080108056
  0
LINE
  8
_0-0_計極細
  6
CONTINUOUS
 62
    2
 10
548.01795824097076
 20
591.40583080108092
 11
548.01795824097076
 21
585.80583080108056
  0
LINE
  8
_0-0_計極細
  6
CONTINUOUS
 62
    2
 10
535.01795824097076
 20
608.40583080108138
 11
535.01795824097076
 21
602.80583080108147
  0
LINE
  8
_0-0_計極細
  6
CONTINUOUS
 62
    2
 10
548.01795824097076
 20
608.40583080108138
 11
548.01795824097076
 21
602.80583080108147
  0
LINE
  8
_0-0_計極細
  6
CONTINUOUS
 62
    2
 10
535.01795824097076
 20
483.40583080108138
 11
535.01795824097076
 21
489.40583080108138
  0
LINE
  8
_0-0_計極細
  6
CONTINUOUS
 62
    2
 10
548.01795824097076
 20
483.40583080108138
 11
548.01795824097076
 21
489.40583080108138
  0
LINE
  8
_0-0_計極細
  6
CENTER1
 62
    2
 10
541.51795824097076
 20
663.35655022554351
 11
541.51795824097076
 21
446.84800706006962
  0
LINE
  8
_0-0_計極細
  6
CONTINUOUS
 62
    2
 10
535.01795824097076
 20
466.00583080108089
 11
535.01795824097076
 21
472.00583080108089
  0
LINE
  8
_0-0_計極細
  6
CONTINUOUS
 62
    2
 10
548.01795824097076
 20
466.00583080108089
 11
548.01795824097076
 21
472.00583080108089
  0
LINE
  8
_0-1_計細線
  6
CONTINUOUS
 62
    3
 10
348.51795824097104
 20
489.40583080108138
 11
548.51795824097098
 21
489.40583080108138
  0
LINE
  8
_0-1_計細線
  6
CONTINUOUS
 62
    3
 10
348.51795824097104
 20
500.80583080108198
 11
548.51795824097098
 21
500.80583080108198
  0
LINE
  8
_0-1_計細線
  6
CONTINUOUS
 62
    3
 10
348.51795824097104
 20
489.40583080108138
 11
348.51795824097104
 21
500.80583080108198
  0
LINE
  8
_0-1_計細線
  6
CONTINUOUS
 62
    3
 10
548.51795824097098
 20
489.40583080108138
 11
548.51795824097098
 21
500.80583080108198
  0
LINE
  8
_0-0_計極細
  6
CONTINUOUS
 62
    2
 10
348.51795824097104
 20
497.60583080108211
 11
548.51795824097098
 21
497.60583080108211
  0
LINE
  8
_0-0_計極細
  6
CONTINUOUS
 62
    2
 10
348.51795824097104
 20
492.60583080108211
 11
548.51795824097098
 21
492.60583080108211
  0
LINE
  8
_0-1_計細線
  6
CONTINUOUS
 62
    3
 10
348.51795824097104
 20
506.40583080108229
 11
548.51795824097098
 21
506.40583080108229
  0
LINE
  8
_0-1_計細線
  6
CONTINUOUS
 62
    3
 10
348.51795824097104
 20
517.80583080108283
 11
548.51795824097098
 21
517.80583080108283
  0
LINE
  8
_0-1_計細線
  6
CONTINUOUS
 62
    3
 10
348.51795824097104
 20
506.40583080108229
 11
348.51795824097104
 21
517.80583080108283
  0
LINE
  8
_0-1_計細線
  6
CONTINUOUS
 62
    3
 10
548.51795824097098
 20
506.40583080108229
 11
548.51795824097098
 21
517.80583080108283
  0
LINE
  8
_0-0_計極細
  6
CONTINUOUS
 62
    2
 10
348.51795824097104
 20
514.60583080108211
 11
548.51795824097098
 21
514.60583080108211
  0
LINE
  8
_0-0_計極細
  6
CONTINUOUS
 62
    2
 10
348.51795824097104
 20
509.60583080108216
 11
548.51795824097098
 21
509.60583080108216
  0
LINE
  8
_0-1_計細線
  6
CONTINUOUS
 62
    3
 10
348.51795824097104
 20
523.4058308010832
 11
548.51795824097098
 21
523.4058308010832
  0
LINE
  8
_0-1_計細線
  6
CONTINUOUS
 62
    3
 10
348.51795824097104
 20
534.80583080108374
 11
548.51795824097098
 21
534.80583080108374
  0
LINE
  8
_0-1_計細線
  6
CONTINUOUS
 62
    3
 10
348.51795824097104
 20
523.4058308010832
 11
348.51795824097104
 21
534.80583080108374
  0
LINE
  8
_0-1_計細線
  6
CONTINUOUS
 62
    3
 10
548.51795824097098
 20
523.4058308010832
 11
548.51795824097098
 21
534.80583080108374
  0
LINE
  8
_0-0_計極細
  6
CONTINUOUS
 62
    2
 10
348.51795824097104
 20
531.60583080108302
 11
548.51795824097098
 21
531.60583080108302
  0
LINE
  8
_0-0_計極細
  6
CONTINUOUS
 62
    2
 10
348.51795824097104
 20
526.60583080108302
 11
548.51795824097098
 21
526.60583080108302
  0
LINE
  8
_0-1_計細線
  6
CONTINUOUS
 62
    3
 10
348.51795824097104
 20
619.80583080108067
 11
548.51795824097098
 21
619.80583080108067
  0
LINE
  8
_0-1_計細線
  6
CONTINUOUS
 62
    3
 10
348.51795824097104
 20
608.40583080108001
 11
548.51795824097098
 21
608.40583080108001
  0
LINE
  8
_0-1_計細線
  6
CONTINUOUS
 62
    3
 10
348.51795824097104
 20
619.80583080108067
 11
348.51795824097104
 21
608.40583080108001
  0
LINE
  8
_0-1_計細線
  6
CONTINUOUS
 62
    3
 10
548.51795824097098
 20
619.80583080108067
 11
548.51795824097098
 21
608.40583080108001
  0
LINE
  8
_0-0_計極細
  6
CONTINUOUS
 62
    2
 10
348.51795824097104
 20
611.60583080108029
 11
548.51795824097098
 21
611.60583080108029
  0
LINE
  8
_0-0_計極細
  6
CONTINUOUS
 62
    2
 10
348.51795824097104
 20
616.60583080108029
 11
548.51795824097098
 21
616.60583080108029
  0
LINE
  8
_0-1_計細線
  6
CONTINUOUS
 62
    3
 10
348.51795824097104
 20
637.20583080108111
 11
548.51795824097098
 21
637.20583080108111
  0
LINE
  8
_0-1_計細線
  6
CONTINUOUS
 62
    3
 10
348.51795824097104
 20
625.80583080108056
 11
548.51795824097098
 21
625.80583080108056
  0
LINE
  8
_0-1_計細線
  6
CONTINUOUS
 62
    3
 10
348.51795824097104
 20
637.20583080108111
 11
348.51795824097104
 21
625.80583080108056
  0
LINE
  8
_0-1_計細線
  6
CONTINUOUS
 62
    3
 10
548.51795824097098
 20
637.20583080108111
 11
548.51795824097098
 21
625.80583080108056
  0
LINE
  8
_0-0_計極細
  6
CONTINUOUS
 62
    2
 10
348.51795824097104
 20
629.00583080108083
 11
548.51795824097098
 21
629.00583080108083
  0
LINE
  8
_0-0_計極細
  6
CONTINUOUS
 62
    2
 10
348.51795824097104
 20
634.00583080108083
 11
548.51795824097098
 21
634.00583080108083
  0
LINE
  8
_0-1_計細線
  6
CONTINUOUS
 62
    3
 10
348.51795824097104
 20
654.6058308010812
 11
548.51795824097098
 21
654.6058308010812
  0
LINE
  8
_0-1_計細線
  6
CONTINUOUS
 62
    3
 10
348.51795824097104
 20
643.20583080108065
 11
548.51795824097098
 21
643.20583080108065
  0
LINE
  8
_0-1_計細線
  6
CONTINUOUS
 62
    3
 10
348.51795824097104
 20
654.6058308010812
 11
348.51795824097104
 21
643.20583080108065
  0
LINE
  8
_0-1_計細線
  6
CONTINUOUS
 62
    3
 10
548.51795824097098
 20
654.6058308010812
 11
548.51795824097098
 21
643.20583080108065
  0
LINE
  8
_0-0_計極細
  6
CONTINUOUS
 62
    2
 10
348.51795824097104
 20
646.40583080108104
 11
548.51795824097098
 21
646.40583080108104
  0
LINE
  8
_0-0_計極細
  6
CONTINUOUS
 62
    2
 10
348.51795824097104
 20
651.40583080108104
 11
548.51795824097098
 21
651.40583080108104
  0
LINE
  8
_0-1_計細線
  6
CONTINUOUS
 62
    3
 10
348.51795824097104
 20
585.80583080108056
 11
548.51795824097098
 21
585.80583080108056
  0
LINE
  8
_0-1_計細線
  6
CONTINUOUS
 62
    3
 10
348.51795824097104
 20
574.40583080108047
 11
548.51795824097098
 21
574.40583080108047
  0
LINE
  8
_0-1_計細線
  6
CONTINUOUS
 62
    3
 10
348.51795824097104
 20
585.80583080108056
 11
348.51795824097104
 21
574.40583080108047
  0
LINE
  8
_0-1_計細線
  6
CONTINUOUS
 62
    3
 10
548.51795824097098
 20
585.80583080108056
 11
548.51795824097098
 21
574.40583080108047
  0
LINE
  8
_0-0_計極細
  6
CONTINUOUS
 62
    2
 10
348.51795824097104
 20
577.6058308010804
 11
548.51795824097098
 21
577.6058308010804
  0
LINE
  8
_0-0_計極細
  6
CONTINUOUS
 62
    2
 10
348.51795824097104
 20
582.6058308010804
 11
548.51795824097098
 21
582.6058308010804
  0
LINE
  8
_0-1_計細線
  6
CONTINUOUS
 62
    3
 10
348.51795824097104
 20
602.80583080108147
 11
548.51795824097098
 21
602.80583080108147
  0
LINE
  8
_0-1_計細線
  6
CONTINUOUS
 62
    3
 10
348.51795824097104
 20
591.40583080108092
 11
548.51795824097098
 21
591.40583080108092
  0
LINE
  8
_0-1_計細線
  6
CONTINUOUS
 62
    3
 10
348.51795824097104
 20
602.80583080108147
 11
348.51795824097104
 21
591.40583080108092
  0
LINE
  8
_0-1_計細線
  6
CONTINUOUS
 62
    3
 10
548.51795824097098
 20
602.80583080108147
 11
548.51795824097098
 21
591.40583080108092
  0
LINE
  8
_0-0_計極細
  6
CONTINUOUS
 62
    2
 10
348.51795824097104
 20
594.60583080108086
 11
548.51795824097098
 21
594.60583080108086
  0
LINE
  8
_0-0_計極細
  6
CONTINUOUS
 62
    2
 10
348.51795824097104
 20
599.60583080108086
 11
548.51795824097098
 21
599.60583080108086
  0
LINE
  8
_0-1_計細線
  6
CONTINUOUS
 62
    3
 10
348.51795824097104
 20
472.00583080108089
 11
548.51795824097098
 21
472.00583080108089
  0
LINE
  8
_0-1_計細線
  6
CONTINUOUS
 62
    3
 10
348.51795824097104
 20
483.40583080108138
 11
548.51795824097098
 21
483.40583080108138
  0
LINE
  8
_0-1_計細線
  6
CONTINUOUS
 62
    3
 10
348.51795824097104
 20
472.00583080108089
 11
348.51795824097104
 21
483.40583080108138
  0
LINE
  8
_0-1_計細線
  6
CONTINUOUS
 62
    3
 10
548.51795824097098
 20
472.00583080108089
 11
548.51795824097098
 21
483.40583080108138
  0
LINE
  8
_0-0_計極細
  6
CONTINUOUS
 62
    2
 10
348.51795824097104
 20
480.20583080108162
 11
548.51795824097098
 21
480.20583080108162
  0
LINE
  8
_0-0_計極細
  6
CONTINUOUS
 62
    2
 10
348.51795824097104
 20
475.20583080108162
 11
548.51795824097098
 21
475.20583080108162
  0
LINE
  8
_0-1_計細線
  6
CONTINUOUS
 62
    3
 10
348.51795824097104
 20
454.6058308010812
 11
548.51795824097098
 21
454.6058308010812
  0
LINE
  8
_0-1_計細線
  6
CONTINUOUS
 62
    3
 10
348.51795824097104
 20
466.0058308010818
 11
548.51795824097098
 21
466.0058308010818
  0
LINE
  8
_0-1_計細線
  6
CONTINUOUS
 62
    3
 10
348.51795824097104
 20
454.6058308010812
 11
348.51795824097104
 21
466.0058308010818
  0
LINE
  8
_0-1_計細線
  6
CONTINUOUS
 62
    3
 10
548.51795824097098
 20
454.6058308010812
 11
548.51795824097098
 21
466.0058308010818
  0
LINE
  8
_0-0_計極細
  6
CONTINUOUS
 62
    2
 10
348.51795824097104
 20
462.80583080108192
 11
548.51795824097098
 21
462.80583080108192
  0
LINE
  8
_0-0_計極細
  6
CONTINUOUS
 62
    2
 10
348.51795824097104
 20
457.80583080108192
 11
548.51795824097098
 21
457.80583080108192
  0
LINE
  8
_0-1_計細線
  6
CONTINUOUS
 62
    3
 10
348.51795824097104
 20
568.80583080108011
 11
548.51795824097098
 21
568.80583080108011
  0
LINE
  8
_0-1_計細線
  6
CONTINUOUS
 62
    3
 10
548.51795824097098
 20
568.80583080108011
 11
548.51795824097098
 21
557.40583080107956
  0
LINE
  8
_0-0_計極細
  6
CONTINUOUS
 62
    2
 10
348.51795824097104
 20
560.60583080108029
 11
548.51795824097098
 21
560.60583080108029
  0
LINE
  8
_0-0_計極細
  6
CONTINUOUS
 62
    2
 10
348.51795824097104
 20
565.60583080108029
 11
548.51795824097098
 21
565.60583080108029
  0
LINE
  8
_0-1_計細線
  6
CONTINUOUS
 62
    3
 10
348.51795824097104
 20
557.40583080107956
 11
548.51795824097098
 21
557.40583080107956
  0
LINE
  8
_0-1_計細線
  6
CONTINUOUS
 62
    3
 10
348.51795824097104
 20
568.80583080108011
 11
348.51795824097104
 21
557.40583080107956
  0
LINE
  8
_0-1_計細線
  6
CONTINUOUS
 62
    3
 10
348.51795824097104
 20
540.40583080107865
 11
548.51795824097098
 21
540.40583080107865
  0
LINE
  8
_0-1_計細線
  6
CONTINUOUS
 62
    3
 10
548.51795824097098
 20
551.8058308010792
 11
548.51795824097098
 21
540.40583080107865
  0
LINE
  8
_0-0_計極細
  6
CONTINUOUS
 62
    2
 10
348.51795824097104
 20
543.60583080107949
 11
548.51795824097098
 21
543.60583080107949
  0
LINE
  8
_0-0_計極細
  6
CONTINUOUS
 62
    2
 10
348.51795824097104
 20
548.60583080107949
 11
548.51795824097098
 21
548.60583080107949
  0
LINE
  8
_0-1_計細線
  6
CONTINUOUS
 62
    3
 10
348.51795824097104
 20
551.8058308010792
 11
348.51795824097104
 21
540.40583080107865
  0
LINE
  8
_0-1_計細線
  6
CONTINUOUS
 62
    3
 10
348.51795824097104
 20
551.8058308010792
 11
548.51795824097098
 21
551.8058308010792
  0
LINE
  8
_0-0_計極細
  6
CENTER2
 62
    2
 10
332.62935870395268
 20
554.6058308010812
 11
565.19155644817761
 21
554.6058308010812
  0
LINE
  8
_0-5_寸法線
  6
CONTINUOUS
 62
    7
 10
418.03348787912932
 20
555.88709186681945
 11
410.05414433463875
 21
561.91453548737672
  0
LINE
  8
_0-5_寸法線
  6
CONTINUOUS
 62
    7
 10
418.03348787912932
 20
555.88709186681945
 11
414.13689547435581
 21
565.09668293434572
  0
LINE
  8
_0-5_寸法線
  6
CONTINUOUS
 62
    7
 10
418.03348787912932
 20
555.88709186681945
 11
291.35341261219401
 21
718.41985638976905
  0
LINE
  8
_0-5_寸法線
  6
CONTINUOUS
 62
    7
 10
291.35341261219401
 20
718.41985638976905
 11
231.35341261219401
 21
718.41985638976905
  0
TEXT
  8
_0-5_寸法線
 62
    7
 10
231.35341261219401
 20
718.41985638976905
 40
15
 41
0.8000000000000001
 50
0
  1
取　外　具
  0
TEXT
  8
_0-5_寸法線
 62
    7
 10
227.51483633854107
 20
700.86700644684743
 40
15
 41
0.8000000000000001
 50
0
  1
(標準付属)
  0
TEXT
  8
_0-7_枠細線
 62
    5
 10
230.70798377401204
 20
734.80566020875858
 40
12.5
 41
0.8
 50
0
  1
２
  0
LINE
  8
_0-7_枠細線
  6
CONTINUOUS
 62
    5
 10
243.34283250586395
 20
735.11266245413924
 11
235.84283250586395
 21
750.11266245413924
  0
LINE
  8
_0-7_枠細線
  6
CONTINUOUS
 62
    5
 10
228.34283250586395
 20
735.11266245413924
 11
243.34283250586395
 21
735.11266245413924
  0
LINE
  8
_0-7_枠細線
  6
CONTINUOUS
 62
    5
 10
235.84283250586395
 20
750.11266245413924
 11
228.34283250586395
 21
735.11266245413924
  0
TEXT
  8
_0-7_枠細線
 62
    5
 10
249.59987760188824
 20
734.51251748669267
 40
12.5
 41
0.8
 50
0
  1
３
  0
LINE
  8
_0-7_枠細線
  6
CONTINUOUS
 62
    5
 10
254.73472633374007
 20
750.06020137687403
 11
247.23472633374007
 21
735.06020137687403
  0
LINE
  8
_0-7_枠細線
  6
CONTINUOUS
 62
    5
 10
247.23472633374007
 20
735.06020137687403
 11
262.23472633374007
 21
735.06020137687403
  0
LINE
  8
_0-7_枠細線
  6
CONTINUOUS
 62
    5
 10
262.23472633374007
 20
735.06020137687403
 11
254.73472633374007
 21
750.06020137687403
  0
LINE
  8
_0-d_寸法3
  6
CONTINUOUS
 62
    7
 10
451.63992445384292
 20
268.36412902531367
 11
451.63992445384292
 21
310.03079569198019
  0
LINE
  8
_0-d_寸法3
  6
CONTINUOUS
 62
    7
 10
451.63992445384292
 20
305.03079569198019
 11
461.29918271673364
 21
307.61898614300537
  0
LINE
  8
_0-d_寸法3
  6
CONTINUOUS
 62
    7
 10
451.63992445384292
 20
305.03079569198019
 11
461.29918271673364
 21
302.442605240955
  0
LINE
  8
_0-d_寸法3
  6
CONTINUOUS
 62
    7
 10
480.63992445444597
 20
268.36412902531367
 11
480.63992445444597
 21
310.03079569198019
  0
LINE
  8
_0-d_寸法3
  6
CONTINUOUS
 62
    7
 10
480.63992445444597
 20
305.03079569198019
 11
470.98066619155526
 21
302.442605240955
  0
LINE
  8
_0-d_寸法3
  6
CONTINUOUS
 62
    7
 10
480.63992445444597
 20
305.03079569198019
 11
470.98066619155531
 21
307.61898614300543
  0
LINE
  8
_0-d_寸法3
  6
CONTINUOUS
 62
    7
 10
451.63992445384292
 20
305.03079569198019
 11
480.63992445444597
 21
305.03079569198019
  0
TEXT
  8
_0-d_寸法3
 62
    7
 10
440.09374654420213
 20
290.03079569198019
 40
15
 41
1
 50
0
  1
(17.4)
  0
LINE
  8
_0-d_寸法3
  6
CONTINUOUS
 62
    7
 10
480.63992445444597
 20
305.03079569198019
 11
490.29918271733663
 21
307.61898614300537
  0
LINE
  8
_0-d_寸法3
  6
CONTINUOUS
 62
    7
 10
480.63992445444597
 20
305.03079569198019
 11
490.29918271733663
 21
302.44260524095495
  0
LINE
  8
_0-d_寸法3
  6
CONTINUOUS
 62
    7
 10
509.63992445504891
 20
268.36412902531367
 11
509.63992445504891
 21
310.03079569198019
  0
LINE
  8
_0-d_寸法3
  6
CONTINUOUS
 62
    7
 10
509.63992445504891
 20
305.03079569198019
 11
499.9806661921582
 21
302.442605240955
  0
LINE
  8
_0-d_寸法3
  6
CONTINUOUS
 62
    7
 10
509.63992445504891
 20
305.03079569198019
 11
499.98066619215825
 21
307.61898614300543
  0
LINE
  8
_0-d_寸法3
  6
CONTINUOUS
 62
    7
 10
480.63992445444597
 20
305.03079569198019
 11
509.63992445504891
 21
305.03079569198019
  0
TEXT
  8
_0-d_寸法3
 62
    7
 10
477.16041321086828
 20
305.03079569198019
 40
15
 41
1
 50
0
  1
(17.4)
  0
ARC
  8
_0-a_極細3
  6
CONTINUOUS
 62
    7
 10
540.46932777957909
 20
246.85084653362867
 40
17.558839598481345
 50
150.03871396148165
 51
205.23810402387883
  0
ARC
  8
_0-a_極細3
  6
CONTINUOUS
 62
    7
 10
508.70385258968099
 20
231.87733732099801
 40
17.558839598481345
 50
330.03871396148202
 51
25.238104023878222
  0
ARC
  8
_0-a_極細3
  6
CONTINUOUS
 62
    7
 10
395.54951234124525
 20
246.85084653362867
 40
17.558839598481345
 50
150.03871396148165
 51
205.23810402387883
  0
ARC
  8
_0-a_極細3
  6
CONTINUOUS
 62
    7
 10
363.78403715134709
 20
231.87733732099801
 40
17.558839598481345
 50
330.03871396148202
 51
25.238104023878222
  0
LINE
  8
_0-a_極細3
  6
CENTER1
 62
    7
 10
530.43869144413884
 20
239.69746235864693
 11
367.86014881621304
 21
239.69746235864693
  0
LINE
  8
_0-b_細線3
  6
CONTINUOUS
 62
    7
 10
454.47325778809591
 20
228.86412902531367
 11
477.80659112142939
 21
228.86412902531367
  0
LINE
  8
_0-b_細線3
  6
CONTINUOUS
 62
    7
 10
483.47325778869896
 20
228.86412902531367
 11
506.80659112203244
 21
228.86412902531367
  0
LINE
  8
_0-b_細線3
  6
CONTINUOUS
 62
    7
 10
396.47325778657296
 20
228.86412902531367
 11
419.80659111990644
 21
228.86412902531367
  0
LINE
  8
_0-b_細線3
  6
CONTINUOUS
 62
    7
 10
425.47325778717641
 20
228.86412902531367
 11
448.80659112050949
 21
228.86412902531367
  0
LINE
  8
_0-b_細線3
  6
CONTINUOUS
 62
    7
 10
454.47325778809591
 20
250.53079569198033
 11
477.80659112142939
 21
250.53079569198033
  0
LINE
  8
_0-b_細線3
  6
CONTINUOUS
 62
    7
 10
483.47325778869896
 20
250.53079569198033
 11
506.80659112203244
 21
250.53079569198033
  0
LINE
  8
_0-b_細線3
  6
CONTINUOUS
 62
    7
 10
396.47325778657296
 20
250.53079569198033
 11
419.80659111990644
 21
250.53079569198033
  0
LINE
  8
_0-b_細線3
  6
CONTINUOUS
 62
    7
 10
425.47325778717641
 20
250.53079569198033
 11
448.80659112050949
 21
250.53079569198033
  0
LINE
  8
_0-b_細線3
  6
CONTINUOUS
 62
    7
 10
512.4732577893019
 20
250.53079569198033
 11
523.23235418010199
 21
250.53079569198033
  0
LINE
  8
_0-b_細線3
  6
CONTINUOUS
 62
    7
 10
512.4732577893019
 20
228.86412902531367
 11
525.94082618915809
 21
228.86412902531367
  0
LINE
  8
_0-b_細線3
  6
CONTINUOUS
 62
    7
 10
378.31253874176809
 20
250.53079569198033
 11
390.80659111930345
 21
250.53079569198033
  0
LINE
  8
_0-b_細線3
  6
CONTINUOUS
 62
    7
 10
381.02101075082425
 20
228.86412902531367
 11
390.80659111930345
 21
228.86412902531367
  0
TEXT
  8
_0-7_枠細線
 62
    5
 10
417.22469092493753
 20
170.0670836765407
 40
25.000000000000007
 41
0.8
 50
0
  1
断面詳細
  0
TEXT
  8
_0-7_枠細線
 62
    5
 10
521.18718073399953
 20
173.02652349686042
 40
20.000000000000004
 41
0.5999999999999999
 50
0
  1
Ｓ＝１：３
  0
ARC
  8
_0-b_細線3
  6
CONTINUOUS
 62
    7
 10
443.80659112234895
 20
255.03079569198022
 40
1.666666666666667
 50
89.999999999999915
 51
179.99999999999983
  0
ARC
  8
_0-b_細線3
  6
CONTINUOUS
 62
    7
 10
444.58650644122781
 20
258.36412902531367
 40
1.666666666666667
 50
269.99999999999977
 51
330.00000000000301
  0
ARC
  8
_0-b_細線3
  6
CONTINUOUS
 62
    7
 10
447.47325778717595
 20
256.69746235864716
 40
1.666666666666667
 50
89.999999999999915
 51
150.00000000000134
  0
LINE
  8
_0-b_細線3
  6
CONTINUOUS
 62
    7
 10
443.80659112234895
 20
256.69746235864716
 11
444.58650644122781
 21
256.69746235864716
  0
ARC
  8
_0-b_細線3
  6
CONTINUOUS
 62
    7
 10
459.47325778533695
 20
255.03079569198022
 40
1.666666666666667
 50
0
 51
89.999999999999915
  0
ARC
  8
_0-b_細線3
  6
CONTINUOUS
 62
    7
 10
458.69334246645764
 20
258.36412902531367
 40
1.666666666666667
 50
210.00000000000404
 51
269.99999999999977
  0
ARC
  8
_0-b_細線3
  6
CONTINUOUS
 62
    7
 10
455.80659112050944
 20
256.69746235864716
 40
1.666666666666667
 50
29.999999999990862
 51
89.999999999984354
  0
LINE
  8
_0-b_細線3
  6
CONTINUOUS
 62
    7
 10
459.47325778533695
 20
256.69746235864716
 11
458.69334246645764
 21
256.69746235864716
  0
ARC
  8
_0-b_細線3
  6
CONTINUOUS
 62
    7
 10
442.97325778901546
 20
252.69746235864716
 40
0.8333333333333334
 50
179.99999999999983
 51
269.99999999999977
  0
LINE
  8
_0-b_細線3
  6
CONTINUOUS
 62
    7
 10
442.13992445568192
 20
255.03079569198022
 11
442.13992445568192
 21
252.69746235864716
  0
ARC
  8
_0-b_細線3
  6
CONTINUOUS
 62
    7
 10
460.30659111867004
 20
252.69746235864716
 40
0.8333333333333334
 50
269.99999999999977
 51
359.99999999999966
  0
LINE
  8
_0-b_細線3
  6
CONTINUOUS
 62
    7
 10
461.13992445200353
 20
255.03079569198022
 11
461.13992445200353
 21
252.69746235864716
  0
ARC
  8
_0-b_細線3
  6
CONTINUOUS
 62
    7
 10
447.13992445568192
 20
250.19746235864716
 40
1.666666666666667
 50
0
 51
89.999999999999915
  0
LINE
  8
_0-b_細線3
  6
CONTINUOUS
 62
    7
 10
447.13992445568192
 20
251.8641290253137
 11
442.97325778901546
 21
251.8641290253137
  0
ARC
  8
_0-b_細線3
  6
CONTINUOUS
 62
    7
 10
456.13992445568243
 20
250.19746235864716
 40
1.666666666666667
 50
89.999999999999915
 51
179.99999999999983
  0
LINE
  8
_0-b_細線3
  6
CONTINUOUS
 62
    7
 10
456.13992445200353
 20
251.8641290253137
 11
460.30659111867004
 21
251.8641290253137
  0
LINE
  8
_0-b_細線3
  6
CONTINUOUS
 62
    7
 10
455.80659112050944
 20
258.36412902531367
 11
447.47325778717595
 21
258.36412902531367
  0
LINE
  8
_0-b_細線3
  6
CONTINUOUS
 62
    7
 10
448.80659112050949
 20
225.03079569198033
 11
448.80659112234895
 21
250.19746235864716
  0
LINE
  8
_0-b_細線3
  6
CONTINUOUS
 62
    7
 10
454.47325778717595
 20
225.03079569198033
 11
454.47325778901586
 21
250.19746235864716
  0
LINE
  8
_0-b_細線3
  6
CONTINUOUS
 62
    7
 10
454.47325778717595
 20
225.03079569198033
 11
448.80659112050949
 21
225.03079569198033
  0
ARC
  8
_0-b_細線3
  6
CONTINUOUS
 62
    7
 10
472.80659112295189
 20
255.03079569198022
 40
1.666666666666667
 50
89.999999999999915
 51
179.99999999999983
  0
ARC
  8
_0-b_細線3
  6
CONTINUOUS
 62
    7
 10
473.58650644183086
 20
258.36412902531367
 40
1.666666666666667
 50
269.99999999999977
 51
329.99999999999523
  0
ARC
  8
_0-b_細線3
  6
CONTINUOUS
 62
    7
 10
476.47325778777895
 20
256.69746235864716
 40
1.666666666666667
 50
89.999999999999915
 51
150.00000000000915
  0
LINE
  8
_0-b_細線3
  6
CONTINUOUS
 62
    7
 10
472.80659112295189
 20
256.69746235864716
 11
473.58650644183086
 21
256.69746235864716
  0
ARC
  8
_0-b_細線3
  6
CONTINUOUS
 62
    7
 10
488.47325778593995
 20
255.03079569198022
 40
1.666666666666667
 50
0
 51
89.999999999999915
  0
ARC
  8
_0-b_細線3
  6
CONTINUOUS
 62
    7
 10
487.69334246706057
 20
258.36412902531367
 40
1.666666666666667
 50
209.99999999999622
 51
269.99999999999977
  0
ARC
  8
_0-b_細線3
  6
CONTINUOUS
 62
    7
 10
484.80659112111249
 20
256.69746235864716
 40
1.666666666666667
 50
29.999999999998682
 51
89.999999999999915
  0
LINE
  8
_0-b_細線3
  6
CONTINUOUS
 62
    7
 10
488.47325778593995
 20
256.69746235864716
 11
487.69334246706057
 21
256.69746235864716
  0
ARC
  8
_0-b_細線3
  6
CONTINUOUS
 62
    7
 10
471.97325778961891
 20
252.69746235864716
 40
0.8333333333333334
 50
179.99999999999983
 51
269.99999999999977
  0
LINE
  8
_0-b_細線3
  6
CONTINUOUS
 62
    7
 10
471.13992445628497
 20
255.03079569198022
 11
471.13992445628497
 21
252.69746235864716
  0
ARC
  8
_0-b_細線3
  6
CONTINUOUS
 62
    7
 10
489.30659111927298
 20
252.69746235864716
 40
0.8333333333333334
 50
269.99999999999977
 51
359.99999999999966
  0
LINE
  8
_0-b_細線3
  6
CONTINUOUS
 62
    7
 10
490.13992445260646
 20
255.03079569198022
 11
490.13992445260646
 21
252.69746235864716
  0
ARC
  8
_0-b_細線3
  6
CONTINUOUS
 62
    7
 10
476.13992445628497
 20
250.19746235864716
 40
1.666666666666667
 50
0
 51
89.999999999999915
  0
LINE
  8
_0-b_細線3
  6
CONTINUOUS
 62
    7
 10
476.13992445628497
 20
251.8641290253137
 11
471.97325778961891
 21
251.8641290253137
  0
ARC
  8
_0-b_細線3
  6
CONTINUOUS
 62
    7
 10
485.13992445628537
 20
250.19746235864716
 40
1.666666666666667
 50
89.999999999999915
 51
179.99999999999983
  0
LINE
  8
_0-b_細線3
  6
CONTINUOUS
 62
    7
 10
485.13992445260646
 20
251.8641290253137
 11
489.30659111927298
 21
251.8641290253137
  0
LINE
  8
_0-b_細線3
  6
CONTINUOUS
 62
    7
 10
484.80659112111249
 20
258.36412902531367
 11
476.47325778777895
 21
258.36412902531367
  0
LINE
  8
_0-b_細線3
  6
CONTINUOUS
 62
    7
 10
477.80659112111243
 20
225.03079569198033
 11
477.80659112295189
 21
250.19746235864716
  0
LINE
  8
_0-b_細線3
  6
CONTINUOUS
 62
    7
 10
483.473257787779
 20
225.03079569198033
 11
483.47325778961886
 21
250.19746235864716
  0
LINE
  8
_0-b_細線3
  6
CONTINUOUS
 62
    7
 10
483.473257787779
 20
225.03079569198033
 11
477.80659112111243
 21
225.03079569198033
  0
ARC
  8
_0-b_細線3
  6
CONTINUOUS
 62
    7
 10
501.80659112355494
 20
255.03079569198022
 40
1.666666666666667
 50
89.999999999999915
 51
179.99999999999983
  0
ARC
  8
_0-b_細線3
  6
CONTINUOUS
 62
    7
 10
502.5865064424338
 20
258.36412902531367
 40
1.666666666666667
 50
269.99999999999977
 51
329.99999999999523
  0
ARC
  8
_0-b_細線3
  6
CONTINUOUS
 62
    7
 10
505.473257788382
 20
256.69746235864716
 40
1.666666666666667
 50
89.999999999999915
 51
150.00000000000915
  0
LINE
  8
_0-b_細線3
  6
CONTINUOUS
 62
    7
 10
501.80659112355494
 20
256.69746235864716
 11
502.5865064424338
 21
256.69746235864716
  0
ARC
  8
_0-b_細線3
  6
CONTINUOUS
 62
    7
 10
517.47325778654294
 20
255.03079569198022
 40
1.666666666666667
 50
0
 51
89.999999999999915
  0
ARC
  8
_0-b_細線3
  6
CONTINUOUS
 62
    7
 10
516.69334246766357
 20
258.36412902531367
 40
1.666666666666667
 50
210.00000000000404
 51
269.99999999999977
  0
ARC
  8
_0-b_細線3
  6
CONTINUOUS
 62
    7
 10
513.80659112171543
 20
256.69746235864716
 40
1.666666666666667
 50
29.999999999990862
 51
89.999999999984354
  0
LINE
  8
_0-b_細線3
  6
CONTINUOUS
 62
    7
 10
517.47325778654294
 20
256.69746235864716
 11
516.69334246766357
 21
256.69746235864716
  0
ARC
  8
_0-b_細線3
  6
CONTINUOUS
 62
    7
 10
500.9732577902214
 20
252.69746235864716
 40
0.8333333333333334
 50
179.99999999999983
 51
269.99999999999977
  0
LINE
  8
_0-b_細線3
  6
CONTINUOUS
 62
    7
 10
500.13992445688791
 20
255.03079569198022
 11
500.13992445688791
 21
252.69746235864716
  0
ARC
  8
_0-b_細線3
  6
CONTINUOUS
 62
    7
 10
518.30659111987597
 20
252.69746235864716
 40
0.8333333333333334
 50
269.99999999999977
 51
359.99999999999966
  0
LINE
  8
_0-b_細線3
  6
CONTINUOUS
 62
    7
 10
519.13992445320946
 20
255.03079569198022
 11
519.13992445320946
 21
252.69746235864716
  0
ARC
  8
_0-b_細線3
  6
CONTINUOUS
 62
    7
 10
505.13992445688791
 20
250.19746235864716
 40
1.666666666666667
 50
0
 51
89.999999999999915
  0
LINE
  8
_0-b_細線3
  6
CONTINUOUS
 62
    7
 10
505.13992445688791
 20
251.8641290253137
 11
500.9732577902214
 21
251.8641290253137
  0
ARC
  8
_0-b_細線3
  6
CONTINUOUS
 62
    7
 10
514.13992445688791
 20
250.19746235864716
 40
1.666666666666667
 50
89.999999999999915
 51
179.99999999999983
  0
LINE
  8
_0-b_細線3
  6
CONTINUOUS
 62
    7
 10
514.13992445320901
 20
251.8641290253137
 11
518.30659111987597
 21
251.8641290253137
  0
LINE
  8
_0-b_細線3
  6
CONTINUOUS
 62
    7
 10
513.80659112171543
 20
258.36412902531367
 11
505.473257788382
 21
258.36412902531367
  0
LINE
  8
_0-b_細線3
  6
CONTINUOUS
 62
    7
 10
506.80659112171548
 20
225.03079569198033
 11
506.80659112355494
 21
250.19746235864716
  0
LINE
  8
_0-b_細線3
  6
CONTINUOUS
 62
    7
 10
512.47325778838194
 20
225.03079569198033
 11
512.47325779022185
 21
250.19746235864716
  0
LINE
  8
_0-b_細線3
  6
CONTINUOUS
 62
    7
 10
512.47325778838194
 20
225.03079569198033
 11
506.80659112171548
 21
225.03079569198033
  0
ARC
  8
_0-b_細線3
  6
CONTINUOUS
 62
    7
 10
385.806591120826
 20
255.03079569198022
 40
1.666666666666667
 50
89.999999999999915
 51
179.99999999999983
  0
ARC
  8
_0-b_細線3
  6
CONTINUOUS
 62
    7
 10
386.58650643970486
 20
258.36412902531367
 40
1.666666666666667
 50
269.99999999999977
 51
330.00000000000301
  0
ARC
  8
_0-b_細線3
  6
CONTINUOUS
 62
    7
 10
389.473257785653
 20
256.69746235864716
 40
1.666666666666667
 50
89.999999999999915
 51
150.00000000000134
  0
LINE
  8
_0-b_細線3
  6
CONTINUOUS
 62
    7
 10
385.806591120826
 20
256.69746235864716
 11
386.58650643970486
 21
256.69746235864716
  0
ARC
  8
_0-b_細線3
  6
CONTINUOUS
 62
    7
 10
401.47325778381401
 20
255.03079569198022
 40
1.666666666666667
 50
0
 51
89.999999999999915
  0
ARC
  8
_0-b_細線3
  6
CONTINUOUS
 62
    7
 10
400.69334246493509
 20
258.36412902531367
 40
1.666666666666667
 50
209.99999999999622
 51
269.99999999999977
  0
ARC
  8
_0-b_細線3
  6
CONTINUOUS
 62
    7
 10
397.80659111898649
 20
256.69746235864716
 40
1.666666666666667
 50
29.999999999990862
 51
89.999999999984354
  0
LINE
  8
_0-b_細線3
  6
CONTINUOUS
 62
    7
 10
401.47325778381401
 20
256.69746235864716
 11
400.69334246493509
 21
256.69746235864716
  0
ARC
  8
_0-b_細線3
  6
CONTINUOUS
 62
    7
 10
384.97325778749291
 20
252.69746235864716
 40
0.8333333333333334
 50
179.99999999999983
 51
269.99999999999977
  0
LINE
  8
_0-b_細線3
  6
CONTINUOUS
 62
    7
 10
384.13992445415897
 20
255.03079569198022
 11
384.13992445415897
 21
252.69746235864716
  0
ARC
  8
_0-b_細線3
  6
CONTINUOUS
 62
    7
 10
402.30659111714709
 20
252.69746235864716
 40
0.8333333333333334
 50
269.99999999999977
 51
359.99999999999966
  0
LINE
  8
_0-b_細線3
  6
CONTINUOUS
 62
    7
 10
403.13992445048098
 20
255.03079569198022
 11
403.13992445048098
 21
252.69746235864716
  0
ARC
  8
_0-b_細線3
  6
CONTINUOUS
 62
    7
 10
389.13992445415897
 20
250.19746235864716
 40
1.666666666666667
 50
0
 51
89.999999999999915
  0
LINE
  8
_0-b_細線3
  6
CONTINUOUS
 62
    7
 10
389.13992445415897
 20
251.8641290253137
 11
384.97325778749291
 21
251.8641290253137
  0
ARC
  8
_0-b_細線3
  6
CONTINUOUS
 62
    7
 10
398.13992445415948
 20
250.19746235864716
 40
1.666666666666667
 50
89.999999999999915
 51
179.99999999999983
  0
LINE
  8
_0-b_細線3
  6
CONTINUOUS
 62
    7
 10
398.13992445048058
 20
251.8641290253137
 11
402.30659111714709
 21
251.8641290253137
  0
LINE
  8
_0-b_細線3
  6
CONTINUOUS
 62
    7
 10
397.80659111898649
 20
258.36412902531367
 11
389.473257785653
 21
258.36412902531367
  0
LINE
  8
_0-b_細線3
  6
CONTINUOUS
 62
    7
 10
390.80659111898694
 20
225.03079569198033
 11
390.806591120826
 21
250.19746235864716
  0
LINE
  8
_0-b_細線3
  6
CONTINUOUS
 62
    7
 10
396.473257785653
 20
225.03079569198033
 11
396.47325778749291
 21
250.19746235864716
  0
LINE
  8
_0-b_細線3
  6
CONTINUOUS
 62
    7
 10
396.473257785653
 20
225.03079569198033
 11
390.80659111898694
 21
225.03079569198033
  0
ARC
  8
_0-b_細線3
  6
CONTINUOUS
 62
    7
 10
414.80659112142894
 20
255.03079569198022
 40
1.666666666666667
 50
89.999999999999915
 51
179.99999999999983
  0
ARC
  8
_0-b_細線3
  6
CONTINUOUS
 62
    7
 10
415.58650644030831
 20
258.36412902531367
 40
1.666666666666667
 50
269.99999999999977
 51
329.99999999998744
  0
ARC
  8
_0-b_細線3
  6
CONTINUOUS
 62
    7
 10
418.473257786256
 20
256.69746235864716
 40
1.666666666666667
 50
89.999999999999915
 51
150.00000000000915
  0
LINE
  8
_0-b_細線3
  6
CONTINUOUS
 62
    7
 10
414.80659112142894
 20
256.69746235864716
 11
415.58650644030831
 21
256.69746235864716
  0
ARC
  8
_0-b_細線3
  6
CONTINUOUS
 62
    7
 10
430.473257784417
 20
255.03079569198022
 40
1.666666666666667
 50
0
 51
89.999999999999915
  0
ARC
  8
_0-b_細線3
  6
CONTINUOUS
 62
    7
 10
429.69334246553763
 20
258.36412902531367
 40
1.666666666666667
 50
210.00000000000404
 51
269.99999999999977
  0
ARC
  8
_0-b_細線3
  6
CONTINUOUS
 62
    7
 10
426.80659111958994
 20
256.69746235864716
 40
1.666666666666667
 50
29.999999999998682
 51
89.999999999999915
  0
LINE
  8
_0-b_細線3
  6
CONTINUOUS
 62
    7
 10
430.473257784417
 20
256.69746235864716
 11
429.69334246553763
 21
256.69746235864716
  0
ARC
  8
_0-b_細線3
  6
CONTINUOUS
 62
    7
 10
413.97325778809596
 20
252.69746235864716
 40
0.8333333333333334
 50
179.99999999999983
 51
269.99999999999977
  0
LINE
  8
_0-b_細線3
  6
CONTINUOUS
 62
    7
 10
413.13992445476242
 20
255.03079569198022
 11
413.13992445476242
 21
252.69746235864716
  0
ARC
  8
_0-b_細線3
  6
CONTINUOUS
 62
    7
 10
431.30659111775003
 20
252.69746235864716
 40
0.8333333333333334
 50
269.99999999999977
 51
359.99999999999966
  0
LINE
  8
_0-b_細線3
  6
CONTINUOUS
 62
    7
 10
432.13992445108352
 20
255.03079569198022
 11
432.13992445108352
 21
252.69746235864716
  0
ARC
  8
_0-b_細線3
  6
CONTINUOUS
 62
    7
 10
418.13992445476242
 20
250.19746235864716
 40
1.666666666666667
 50
0
 51
89.999999999999915
  0
LINE
  8
_0-b_細線3
  6
CONTINUOUS
 62
    7
 10
418.13992445476242
 20
251.8641290253137
 11
413.97325778809596
 21
251.8641290253137
  0
ARC
  8
_0-b_細線3
  6
CONTINUOUS
 62
    7
 10
427.13992445476242
 20
250.19746235864716
 40
1.666666666666667
 50
89.999999999999915
 51
179.99999999999983
  0
LINE
  8
_0-b_細線3
  6
CONTINUOUS
 62
    7
 10
427.13992445108352
 20
251.8641290253137
 11
431.30659111775003
 21
251.8641290253137
  0
LINE
  8
_0-b_細線3
  6
CONTINUOUS
 62
    7
 10
426.80659111958994
 20
258.36412902531367
 11
418.473257786256
 21
258.36412902531367
  0
LINE
  8
_0-b_細線3
  6
CONTINUOUS
 62
    7
 10
419.80659111958948
 20
225.03079569198033
 11
419.80659112142894
 21
250.19746235864716
  0
LINE
  8
_0-b_細線3
  6
CONTINUOUS
 62
    7
 10
425.47325778625645
 20
225.03079569198033
 11
425.47325778809591
 21
250.19746235864716
  0
LINE
  8
_0-b_細線3
  6
CONTINUOUS
 62
    7
 10
425.47325778625645
 20
225.03079569198033
 11
419.80659111958948
 21
225.03079569198033
  0
LINE
  8
_0-d_寸法3
  6
CONTINUOUS
 62
    7
 10
517.83144489825486
 20
230.76656005549083
 11
553.18378662394036
 21
255.52053622518162
  0
LINE
  8
_0-d_寸法3
  6
CONTINUOUS
 62
    7
 10
549.08802640249542
 20
252.65265404342639
 11
546.49983595147023
 21
262.31191230631703
  0
LINE
  8
_0-d_寸法3
  6
CONTINUOUS
 62
    7
 10
549.08802640249542
 20
252.65265404342639
 11
551.6762168535206
 21
262.31191230631703
  0
LINE
  8
_0-d_寸法3
  6
CONTINUOUS
 62
    7
 10
517.83144489825486
 20
264.09989338882417
 11
553.18378662394036
 21
288.85386955851493
  0
LINE
  8
_0-d_寸法3
  6
CONTINUOUS
 62
    7
 10
549.08802640249542
 20
285.98598737675968
 11
551.6762168535206
 21
276.32672911386896
  0
LINE
  8
_0-d_寸法3
  6
CONTINUOUS
 62
    7
 10
549.08802640249542
 20
285.98598737675968
 11
546.49983595147012
 21
276.32672911386908
  0
LINE
  8
_0-d_寸法3
  6
CONTINUOUS
 62
    7
 10
549.08802640249542
 20
252.65265404342639
 11
549.08802640249542
 21
285.98598737675968
  0
TEXT
  8
_0-d_寸法3
 62
    7
 10
549.08802640249542
 20
261.81932071009402
 40
15
 41
1
 50
90
  1
20
  0
LINE
  8
_0-7_枠細線
  6
CONTINUOUS
 62
    5
 10
564.6230220632151
 20
728.92835803928153
 11
557.1230220632151
 21
713.92835803928153
  0
LINE
  8
_0-7_枠細線
  6
CONTINUOUS
 62
    5
 10
557.1230220632151
 20
713.92835803928153
 11
572.1230220632151
 21
713.92835803928153
  0
LINE
  8
_0-7_枠細線
  6
CONTINUOUS
 62
    5
 10
572.1230220632151
 20
713.92835803928153
 11
564.6230220632151
 21
728.92835803928153
  0
TEXT
  8
_0-7_枠細線
 62
    5
 10
561.98817333136321
 20
713.38067414910017
 40
12.5
 41
0.8
 50
0
  1
1
  0
LINE
  8
_0-5_寸法線
  6
CONTINUOUS
 62
    7
 10
343.51795824097104
 20
669.6058308010804
 11
343.51795824097121
 21
819.6058308010804
  0
LINE
  8
_0-5_寸法線
  6
CONTINUOUS
 62
    7
 10
343.51795824097121
 20
814.6058308010804
 11
353.17721650386193
 21
817.19402125210547
  0
LINE
  8
_0-5_寸法線
  6
CONTINUOUS
 62
    7
 10
343.51795824097121
 20
814.6058308010804
 11
353.17721650386193
 21
812.0176403500551
  0
LINE
  8
_0-5_寸法線
  6
CONTINUOUS
 62
    7
 10
553.51795824097144
 20
669.6058308010804
 11
553.51795824097167
 21
819.6058308010804
  0
LINE
  8
_0-5_寸法線
  6
CONTINUOUS
 62
    7
 10
553.51795824097167
 20
814.6058308010804
 11
543.85869997808095
 21
812.0176403500551
  0
LINE
  8
_0-5_寸法線
  6
CONTINUOUS
 62
    7
 10
553.51795824097167
 20
814.6058308010804
 11
543.85869997808095
 21
817.19402125210547
  0
LINE
  8
_0-5_寸法線
  6
CONTINUOUS
 62
    7
 10
343.51795824097121
 20
814.6058308010804
 11
553.51795824097167
 21
814.6058308010804
  0
TEXT
  8
_0-5_寸法線
 62
    7
 10
437.26795824097138
 20
814.60583080108017
 40
15
 41
1
 50
0
  1
210
  0
LINE
  8
_0-5_寸法線
  6
CONTINUOUS
 62
    7
 10
343.51795824097115
 20
779.6058308010804
 11
333.85869997808044
 21
777.0176403500551
  0
LINE
  8
_0-5_寸法線
  6
CONTINUOUS
 62
    7
 10
343.51795824097115
 20
779.6058308010804
 11
333.85869997808049
 21
782.19402125210547
  0
LINE
  8
_0-5_寸法線
  6
CONTINUOUS
 62
    7
 10
346.51795824097098
 20
669.6058308010804
 11
346.51795824097115
 21
784.6058308010804
  0
LINE
  8
_0-5_寸法線
  6
CONTINUOUS
 62
    7
 10
318.51795824097115
 20
779.6058308010804
 11
346.51795824097115
 21
779.6058308010804
  0
TEXT
  8
_0-5_寸法線
 62
    7
 10
322.41188198170425
 20
779.60583080108017
 40
15
 41
1
 50
0
  1
3
  0
LINE
  8
_0-5_寸法線
  6
CONTINUOUS
 62
    7
 10
346.51795824097115
 20
779.6058308010804
 11
356.17721650386187
 21
782.19402125210547
  0
LINE
  8
_0-5_寸法線
  6
CONTINUOUS
 62
    7
 10
346.51795824097115
 20
779.6058308010804
 11
356.17721650386181
 21
777.0176403500551
  0
LINE
  8
_0-5_寸法線
  6
CONTINUOUS
 62
    7
 10
550.51795824097144
 20
669.6058308010804
 11
550.51795824097189
 21
784.6058308010804
  0
LINE
  8
_0-5_寸法線
  6
CONTINUOUS
 62
    7
 10
550.51795824097189
 20
779.6058308010804
 11
540.85869997808106
 21
777.0176403500551
  0
LINE
  8
_0-5_寸法線
  6
CONTINUOUS
 62
    7
 10
550.51795824097189
 20
779.6058308010804
 11
540.85869997808106
 21
782.19402125210547
  0
LINE
  8
_0-5_寸法線
  6
CONTINUOUS
 62
    7
 10
346.51795824097115
 20
779.6058308010804
 11
550.51795824097189
 21
779.6058308010804
  0
TEXT
  8
_0-5_寸法線
 62
    7
 10
437.26795824097138
 20
779.60583080108017
 40
15
 41
1
 50
0
  1
204
  0
LINE
  8
_0-5_寸法線
  6
CONTINUOUS
 62
    7
 10
553.51795824097178
 20
779.6058308010804
 11
563.1772165038625
 21
782.19402125210547
  0
LINE
  8
_0-5_寸法線
  6
CONTINUOUS
 62
    7
 10
553.51795824097178
 20
779.6058308010804
 11
563.1772165038625
 21
777.0176403500551
  0
LINE
  8
_0-5_寸法線
  6
CONTINUOUS
 62
    7
 10
550.51795824097189
 20
779.6058308010804
 11
578.51795824097178
 21
779.6058308010804
  0
TEXT
  8
_0-5_寸法線
 62
    7
 10
567.6856046094415
 20
779.6058308010804
 40
15
 41
1
 50
0
  1
3
  0
LINE
  8
_0-5_寸法線
  6
CONTINUOUS
 62
    7
 10
348.51795824097104
 20
669.6058308010804
 11
348.5179582409711
 21
749.6058308010804
  0
LINE
  8
_0-5_寸法線
  6
CONTINUOUS
 62
    7
 10
348.5179582409711
 20
744.6058308010804
 11
358.17721650386176
 21
747.19402125210547
  0
LINE
  8
_0-5_寸法線
  6
CONTINUOUS
 62
    7
 10
348.5179582409711
 20
744.6058308010804
 11
358.17721650386176
 21
742.0176403500551
  0
LINE
  8
_0-5_寸法線
  6
CONTINUOUS
 62
    7
 10
548.51795824097098
 20
669.6058308010804
 11
548.5179582409711
 21
749.6058308010804
  0
LINE
  8
_0-5_寸法線
  6
CONTINUOUS
 62
    7
 10
548.5179582409711
 20
744.6058308010804
 11
538.85869997808049
 21
742.0176403500551
  0
LINE
  8
_0-5_寸法線
  6
CONTINUOUS
 62
    7
 10
548.5179582409711
 20
744.6058308010804
 11
538.85869997808049
 21
747.19402125210547
  0
LINE
  8
_0-5_寸法線
  6
CONTINUOUS
 62
    7
 10
348.5179582409711
 20
744.6058308010804
 11
548.5179582409711
 21
744.6058308010804
  0
TEXT
  8
_0-5_寸法線
 62
    7
 10
437.2679582409711
 20
744.6058308010804
 40
15
 41
1
 50
0
  1
200
  0
TEXT
  8
_0-7_枠細線
 62
    5
 10
938.85037037037023
 20
822.5
 40
12.5
 41
1
 50
0
  1
取外具形状変更
  0
LINE
  8
_0-7_枠細線
  6
CONTINUOUS
 62
    5
 10
907.5
 20
836.44233397174673
 11
900
 21
821.44233397174673
  0
LINE
  8
_0-7_枠細線
  6
CONTINUOUS
 62
    5
 10
900
 20
821.44233397174673
 11
915
 21
821.44233397174673
  0
LINE
  8
_0-7_枠細線
  6
CONTINUOUS
 62
    5
 10
915
 20
821.44233397174673
 11
907.5
 21
836.44233397174673
  0
TEXT
  8
_0-7_枠細線
 62
    5
 10
902.36515126814822
 20
821.13533172636653
 40
12.5
 41
0.8
 50
0
  1
６
  0
TEXT
  8
_0-7_枠細線
 62
    5
 10
1180
 20
822.5
 40
12.5
 41
0.7199999999999999
 50
0
  1
２０２１．０５．０６
  0
LINE
  8
_0-7_枠細線
  6
CONTINUOUS
 62
    5
 10
1425
 20
820
 11
890
 21
820
  0
LINE
  8
_0-7_枠細線
  6
CONTINUOUS
 62
    5
 10
890
 20
820
 11
890
 21
959.99999999999909
  0
LINE
  8
_0-7_枠細線
  6
CONTINUOUS
 62
    5
 10
925
 20
820
 11
925
 21
959.99999999999909
  0
LINE
  8
_0-7_枠細線
  6
CONTINUOUS
 62
    5
 10
1175
 20
820
 11
1175
 21
959.99999999999909
  0
LINE
  8
_0-7_枠細線
  6
CONTINUOUS
 62
    5
 10
1275
 20
820
 11
1275
 21
959.99999999999909
  0
LINE
  8
_0-7_枠細線
  6
CONTINUOUS
 62
    5
 10
280.94871019723644
 20
735.06020137687403
 11
273.44871019723644
 21
750.06020137687403
  0
LINE
  8
_0-7_枠細線
  6
CONTINUOUS
 62
    5
 10
265.94871019723644
 20
735.06020137687403
 11
280.94871019723644
 21
735.06020137687403
  0
LINE
  8
_0-7_枠細線
  6
CONTINUOUS
 62
    5
 10
273.44871019723644
 20
750.06020137687403
 11
265.94871019723644
 21
735.06020137687403
  0
TEXT
  8
_0-7_枠細線
 62
    5
 10
268.31386146538449
 20
734.51251748669267
 40
12.5
 41
0.8
 50
0
  1
６
  0
LINE
  8
_0-d_寸法3
  6
CONTINUOUS
 62
    7
 10
403.13992445048098
 20
268.36412902531367
 11
403.13992445048109
 21
310.03079569198019
  0
LINE
  8
_0-d_寸法3
  6
CONTINUOUS
 62
    7
 10
403.13992445048109
 20
305.03079569198019
 11
393.48066618759037
 21
302.442605240955
  0
LINE
  8
_0-d_寸法3
  6
CONTINUOUS
 62
    7
 10
403.13992445048109
 20
305.03079569198019
 11
393.48066618759043
 21
307.61898614300543
  0
LINE
  8
_0-d_寸法3
  6
CONTINUOUS
 62
    7
 10
413.13992445476288
 20
268.36412902531367
 11
413.13992445476288
 21
310.03079569198019
  0
LINE
  8
_0-d_寸法3
  6
CONTINUOUS
 62
    7
 10
378.76596876731406
 20
305.03079569198019
 11
413.13992445476288
 21
305.03079569198019
  0
TEXT
  8
_0-d_寸法3
 62
    7
 10
378.76596876731406
 20
290.03079569198019
 40
15
 41
1
 50
0
  1
(6)
  0
LINE
  8
_0-d_寸法3
  6
CONTINUOUS
 62
    7
 10
413.13992445476288
 20
305.03079569198019
 11
422.79918271765354
 21
307.61898614300537
  0
LINE
  8
_0-d_寸法3
  6
CONTINUOUS
 62
    7
 10
413.13992445476288
 20
305.03079569198019
 11
422.79918271765354
 21
302.442605240955
  0
LINE
  8
_0-d_寸法3
  6
CONTINUOUS
 62
    7
 10
432.13992445108352
 20
268.36412902531367
 11
432.13992445108363
 21
310.03079569198019
  0
LINE
  8
_0-d_寸法3
  6
CONTINUOUS
 62
    7
 10
432.13992445108363
 20
305.03079569198019
 11
422.48066618819286
 21
302.442605240955
  0
LINE
  8
_0-d_寸法3
  6
CONTINUOUS
 62
    7
 10
432.13992445108363
 20
305.03079569198019
 11
422.48066618819291
 21
307.61898614300543
  0
LINE
  8
_0-d_寸法3
  6
CONTINUOUS
 62
    7
 10
413.13992445476288
 20
305.03079569198019
 11
432.13992445108363
 21
305.03079569198019
  0
TEXT
  8
_0-d_寸法3
 62
    7
 10
403.87522802657327
 20
305.03079569198019
 40
15
 41
1
 50
0
  1
11.4
  0
LINE
  8
_0-1_計細線
  6
CONTINUOUS
 62
    3
 10
1078.2000000001535
 20
640.95999999999992
 11
1082.6499999999996
 21
640.95999999999992
  0
LINE
  8
_0-1_計細線
  6
CONTINUOUS
 62
    3
 10
1087.3500000000004
 20
640.95999999999992
 11
1091.8000000005513
 21
640.95999999999992
  0
LINE
  8
_0-1_計細線
  6
CONTINUOUS
 62
    3
 10
1078.2000000011185
 20
653.9599999999997
 11
1082.6499999999996
 21
653.9599999999997
  0
LINE
  8
_0-1_計細線
  6
CONTINUOUS
 62
    3
 10
1087.3500000000004
 20
653.9599999999997
 11
1091.8000000005513
 21
653.9599999999997
  0
ARC
  8
_0-1_計細線
  6
CONTINUOUS
 62
    3
 10
1071.8000000011034
 20
656.65999999999985
 40
0.9999999999999997
 50
89.999999999999915
 51
179.99999999999983
  0
ARC
  8
_0-1_計細線
  6
CONTINUOUS
 62
    3
 10
1072.2679491924309
 20
658.65999999999985
 40
0.9999999999999997
 50
269.99999999999977
 51
329.99999999998369
  0
ARC
  8
_0-1_計細線
  6
CONTINUOUS
 62
    3
 10
1073.9999999999998
 20
657.66000000000008
 40
0.9999999999999997
 50
89.999999999999915
 51
150.00000000002052
  0
LINE
  8
_0-1_計細線
  6
CONTINUOUS
 62
    3
 10
1071.8000000011034
 20
657.66000000000008
 11
1072.2679491924309
 21
657.66000000000008
  0
ARC
  8
_0-1_計細線
  6
CONTINUOUS
 62
    3
 10
1081.1999999988964
 20
656.65999999999985
 40
0.9999999999999997
 50
0
 51
89.999999999999915
  0
ARC
  8
_0-1_計細線
  6
CONTINUOUS
 62
    3
 10
1080.7320508075691
 20
658.65999999999985
 40
0.9999999999999997
 50
210.00000000000256
 51
269.99999999999977
  0
ARC
  8
_0-1_計細線
  6
CONTINUOUS
 62
    3
 10
1079
 20
657.66000000000008
 40
0.9999999999999997
 50
29.999999999986002
 51
89.999999999999901
  0
LINE
  8
_0-1_計細線
  6
CONTINUOUS
 62
    3
 10
1081.1999999988964
 20
657.66000000000008
 11
1080.7320508075691
 21
657.66000000000008
  0
ARC
  8
_0-1_計細線
  6
CONTINUOUS
 62
    3
 10
1071.3000000011034
 20
655.25999999999999
 40
0.4999999999999998
 50
179.99999999999983
 51
269.99999999999977
  0
LINE
  8
_0-1_計細線
  6
CONTINUOUS
 62
    3
 10
1070.8000000011041
 20
656.65999999999985
 11
1070.8000000011041
 21
655.25999999999999
  0
ARC
  8
_0-1_計細線
  6
CONTINUOUS
 62
    3
 10
1081.6999999988966
 20
655.25999999999999
 40
0.4999999999999998
 50
269.99999999999977
 51
359.99999999999966
  0
LINE
  8
_0-1_計細線
  6
CONTINUOUS
 62
    3
 10
1082.1999999988966
 20
656.65999999999985
 11
1082.1999999988966
 21
655.25999999999999
  0
ARC
  8
_0-1_計細線
  6
CONTINUOUS
 62
    3
 10
1073.8000000011041
 20
653.75999999999988
 40
0.9999999999999997
 50
0
 51
89.999999999999915
  0
LINE
  8
_0-1_計細線
  6
CONTINUOUS
 62
    3
 10
1073.8000000011041
 20
654.75999999999988
 11
1071.3000000011034
 21
654.75999999999988
  0
ARC
  8
_0-1_計細線
  6
CONTINUOUS
 62
    3
 10
1079.2000000011039
 20
653.75999999999988
 40
0.9999999999999997
 50
89.999999999999915
 51
179.99999999999983
  0
LINE
  8
_0-1_計細線
  6
CONTINUOUS
 62
    3
 10
1079.1999999988957
 20
654.75999999999988
 11
1081.6999999988966
 21
654.75999999999988
  0
LINE
  8
_0-1_計細線
  6
CONTINUOUS
 62
    3
 10
1079
 20
658.65999999999985
 11
1073.9999999999998
 21
658.65999999999985
  0
LINE
  8
_0-1_計細線
  6
CONTINUOUS
 62
    3
 10
1074.8000000000002
 20
638.65999999999985
 11
1074.8000000011034
 21
653.75999999999988
  0
LINE
  8
_0-1_計細線
  6
CONTINUOUS
 62
    3
 10
1078.1999999999998
 20
638.65999999999985
 11
1078.2000000011039
 21
653.75999999999988
  0
LINE
  8
_0-1_計細線
  6
CONTINUOUS
 62
    3
 10
1078.1999999999998
 20
638.65999999999985
 11
1074.8000000000002
 21
638.65999999999985
  0
LINE
  8
_0-1_計細線
  6
CONTINUOUS
 62
    3
 10
1163.6000000019812
 20
653.9599999999997
 11
1177.600000001981
 21
653.9599999999997
  0
LINE
  8
_0-1_計細線
  6
CONTINUOUS
 62
    3
 10
1146.2000000018086
 20
653.9599999999997
 11
1160.2000000018088
 21
653.9599999999997
  0
LINE
  8
_0-1_計細線
  6
CONTINUOUS
 62
    3
 10
992.39999999910481
 20
653.9599999999997
 11
1006.3999999994666
 21
653.9599999999997
  0
LINE
  8
_0-1_計細線
  6
CONTINUOUS
 62
    3
 10
1009.7999999994661
 20
653.9599999999997
 11
1023.7999999994663
 21
653.9599999999997
  0
LINE
  8
_0-1_計細線
  6
CONTINUOUS
 62
    3
 10
1129.2000000014468
 20
653.9599999999997
 11
1142.8000000014472
 21
653.9599999999997
  0
LINE
  8
_0-1_計細線
  6
CONTINUOUS
 62
    3
 10
1027.1999999994659
 20
653.9599999999997
 11
1040.799999999467
 21
653.9599999999997
  0
LINE
  8
_0-1_計細線
  6
CONTINUOUS
 62
    3
 10
1044.1999999998288
 20
653.9599999999997
 11
1057.7999999998283
 21
653.9599999999997
  0
LINE
  8
_0-1_計細線
  6
CONTINUOUS
 62
    3
 10
1061.2000000001906
 20
653.9599999999997
 11
1074.80000000019
 21
653.9599999999997
  0
LINE
  8
_0-1_計細線
  6
CONTINUOUS
 62
    3
 10
1095.2000000009136
 20
653.9599999999997
 11
1108.8000000009133
 21
653.9599999999997
  0
LINE
  8
_0-1_計細線
  6
CONTINUOUS
 62
    3
 10
1112.2000000012749
 20
653.9599999999997
 11
1125.8000000012753
 21
653.9599999999997
  0
LINE
  8
_0-1_計細線
  6
CONTINUOUS
 62
    3
 10
1163.6000000019803
 20
640.95999999999992
 11
1177.600000001981
 21
640.95999999999992
  0
LINE
  8
_0-1_計細線
  6
CONTINUOUS
 62
    3
 10
1146.2000000018086
 20
640.95999999999992
 11
1160.2000000018088
 21
640.95999999999992
  0
LINE
  8
_0-1_計細線
  6
CONTINUOUS
 62
    3
 10
992.39999999910481
 20
640.95999999999992
 11
1006.3999999994666
 21
640.95999999999992
  0
LINE
  8
_0-1_計細線
  6
CONTINUOUS
 62
    3
 10
1009.7999999994661
 20
640.95999999999992
 11
1023.7999999994663
 21
640.95999999999992
  0
LINE
  8
_0-1_計細線
  6
CONTINUOUS
 62
    3
 10
1129.2000000014468
 20
640.95999999999992
 11
1142.8000000014472
 21
640.95999999999992
  0
LINE
  8
_0-1_計細線
  6
CONTINUOUS
 62
    3
 10
1027.1999999994659
 20
640.95999999999992
 11
1040.7999999994663
 21
640.95999999999992
  0
LINE
  8
_0-1_計細線
  6
CONTINUOUS
 62
    3
 10
1044.1999999998282
 20
640.95999999999992
 11
1057.7999999998283
 21
640.95999999999992
  0
LINE
  8
_0-1_計細線
  6
CONTINUOUS
 62
    3
 10
1061.2000000001899
 20
640.95999999999992
 11
1074.80000000019
 21
640.95999999999992
  0
LINE
  8
_0-1_計細線
  6
CONTINUOUS
 62
    3
 10
1095.2000000009136
 20
640.95999999999992
 11
1108.8000000009133
 21
640.95999999999992
  0
LINE
  8
_0-1_計細線
  6
CONTINUOUS
 62
    3
 10
1112.2000000012749
 20
640.95999999999992
 11
1125.8000000012753
 21
640.95999999999992
  0
ARC
  8
_0-1_計細線
  6
CONTINUOUS
 62
    3
 10
1174.6000000025506
 20
656.65999999999985
 40
0.9999999999999997
 50
89.999999999999915
 51
179.99999999999983
  0
ARC
  8
_0-1_計細線
  6
CONTINUOUS
 62
    3
 10
1175.0679491938781
 20
658.65999999999985
 40
0.9999999999999997
 50
269.99999999999977
 51
330.00000000000324
  0
ARC
  8
_0-1_計細線
  6
CONTINUOUS
 62
    3
 10
1176.8000000014472
 20
657.66000000000008
 40
0.9999999999999997
 50
89.999999999999915
 51
150.00000000000747
  0
LINE
  8
_0-1_計細線
  6
CONTINUOUS
 62
    3
 10
1174.6000000025506
 20
657.66000000000008
 11
1175.0679491938781
 21
657.66000000000008
  0
ARC
  8
_0-1_計細線
  6
CONTINUOUS
 62
    3
 10
1184.0000000003438
 20
656.65999999999985
 40
0.9999999999999997
 50
0
 51
89.999999999999915
  0
ARC
  8
_0-1_計細線
  6
CONTINUOUS
 62
    3
 10
1183.532050809016
 20
658.65999999999985
 40
0.9999999999999997
 50
209.99999999998954
 51
269.99999999999977
  0
ARC
  8
_0-1_計細線
  6
CONTINUOUS
 62
    3
 10
1181.8000000014472
 20
657.66000000000008
 40
0.9999999999999997
 50
30.000000000005546
 51
89.999999999999901
  0
LINE
  8
_0-1_計細線
  6
CONTINUOUS
 62
    3
 10
1184.0000000003438
 20
657.66000000000008
 11
1183.532050809016
 21
657.66000000000008
  0
ARC
  8
_0-1_計細線
  6
CONTINUOUS
 62
    3
 10
1174.1000000025506
 20
655.25999999999999
 40
0.4999999999999998
 50
179.99999999999983
 51
269.99999999999977
  0
LINE
  8
_0-1_計細線
  6
CONTINUOUS
 62
    3
 10
1173.6000000025504
 20
656.65999999999985
 11
1173.6000000025504
 21
655.25999999999999
  0
ARC
  8
_0-1_計細線
  6
CONTINUOUS
 62
    3
 10
1184.5000000003429
 20
655.25999999999999
 40
0.4999999999999998
 50
269.99999999999977
 51
359.99999999999966
  0
LINE
  8
_0-1_計細線
  6
CONTINUOUS
 62
    3
 10
1185.0000000003436
 20
656.65999999999985
 11
1185.0000000003436
 21
655.25999999999999
  0
ARC
  8
_0-1_計細線
  6
CONTINUOUS
 62
    3
 10
1176.6000000025504
 20
653.75999999999988
 40
0.9999999999999997
 50
0
 51
89.999999999999915
  0
LINE
  8
_0-1_計細線
  6
CONTINUOUS
 62
    3
 10
1176.6000000025504
 20
654.75999999999988
 11
1174.1000000025506
 21
654.75999999999988
  0
ARC
  8
_0-1_計細線
  6
CONTINUOUS
 62
    3
 10
1182.0000000025502
 20
653.75999999999988
 40
0.9999999999999997
 50
89.999999999999915
 51
179.99999999999983
  0
LINE
  8
_0-1_計細線
  6
CONTINUOUS
 62
    3
 10
1182.0000000003436
 20
654.75999999999988
 11
1184.5000000003429
 21
654.75999999999988
  0
LINE
  8
_0-1_計細線
  6
CONTINUOUS
 62
    3
 10
1181.8000000014472
 20
658.65999999999985
 11
1176.8000000014472
 21
658.65999999999985
  0
LINE
  8
_0-1_計細線
  6
CONTINUOUS
 62
    3
 10
1177.6000000014471
 20
638.65999999999985
 11
1177.6000000025506
 21
653.75999999999988
  0
LINE
  8
_0-1_計細線
  6
CONTINUOUS
 62
    3
 10
1181.000000001447
 20
638.65999999999985
 11
1181.0000000025509
 21
653.75999999999988
  0
LINE
  8
_0-1_計細線
  6
CONTINUOUS
 62
    3
 10
1181.000000001447
 20
638.65999999999985
 11
1177.6000000014471
 21
638.65999999999985
  0
ARC
  8
_0-1_計細線
  6
CONTINUOUS
 62
    3
 10
1157.2000000027226
 20
656.65999999999985
 40
0.9999999999999997
 50
89.999999999999915
 51
179.99999999999983
  0
ARC
  8
_0-1_計細線
  6
CONTINUOUS
 62
    3
 10
1157.6679491940495
 20
658.65999999999985
 40
0.9999999999999997
 50
269.99999999999977
 51
330.00000000000324
  0
ARC
  8
_0-1_計細線
  6
CONTINUOUS
 62
    3
 10
1159.4000000016185
 20
657.66000000000008
 40
0.9999999999999997
 50
89.999999999999915
 51
150.00000000000747
  0
LINE
  8
_0-1_計細線
  6
CONTINUOUS
 62
    3
 10
1157.2000000027226
 20
657.66000000000008
 11
1157.6679491940495
 21
657.66000000000008
  0
ARC
  8
_0-1_計細線
  6
CONTINUOUS
 62
    3
 10
1166.6000000005151
 20
656.65999999999985
 40
0.9999999999999997
 50
0
 51
89.999999999999915
  0
ARC
  8
_0-1_計細線
  6
CONTINUOUS
 62
    3
 10
1166.1320508091876
 20
658.65999999999985
 40
0.9999999999999997
 50
210.0000000000156
 51
269.99999999999977
  0
ARC
  8
_0-1_計細線
  6
CONTINUOUS
 62
    3
 10
1164.4000000016192
 20
657.66000000000008
 40
0.9999999999999997
 50
29.999999999992518
 51
89.999999999999901
  0
LINE
  8
_0-1_計細線
  6
CONTINUOUS
 62
    3
 10
1166.6000000005151
 20
657.66000000000008
 11
1166.1320508091876
 21
657.66000000000008
  0
ARC
  8
_0-1_計細線
  6
CONTINUOUS
 62
    3
 10
1156.7000000027219
 20
655.25999999999999
 40
0.4999999999999998
 50
179.99999999999983
 51
269.99999999999977
  0
LINE
  8
_0-1_計細線
  6
CONTINUOUS
 62
    3
 10
1156.2000000027228
 20
656.65999999999985
 11
1156.2000000027228
 21
655.25999999999999
  0
ARC
  8
_0-1_計細線
  6
CONTINUOUS
 62
    3
 10
1167.100000000516
 20
655.25999999999999
 40
0.4999999999999998
 50
269.99999999999977
 51
359.99999999999966
  0
LINE
  8
_0-1_計細線
  6
CONTINUOUS
 62
    3
 10
1167.6000000005149
 20
656.65999999999985
 11
1167.6000000005149
 21
655.25999999999999
  0
ARC
  8
_0-1_計細線
  6
CONTINUOUS
 62
    3
 10
1159.2000000027228
 20
653.75999999999988
 40
0.9999999999999997
 50
0
 51
89.999999999999915
  0
LINE
  8
_0-1_計細線
  6
CONTINUOUS
 62
    3
 10
1159.2000000027228
 20
654.75999999999988
 11
1156.7000000027219
 21
654.75999999999988
  0
ARC
  8
_0-1_計細線
  6
CONTINUOUS
 62
    3
 10
1164.6000000027225
 20
653.75999999999988
 40
0.9999999999999997
 50
89.999999999999915
 51
179.99999999999983
  0
LINE
  8
_0-1_計細線
  6
CONTINUOUS
 62
    3
 10
1164.6000000005149
 20
654.75999999999988
 11
1167.100000000516
 21
654.75999999999988
  0
LINE
  8
_0-1_計細線
  6
CONTINUOUS
 62
    3
 10
1164.4000000016192
 20
658.65999999999985
 11
1159.4000000016185
 21
658.65999999999985
  0
LINE
  8
_0-1_計細線
  6
CONTINUOUS
 62
    3
 10
1160.2000000016187
 20
638.65999999999985
 11
1160.2000000027226
 21
653.75999999999988
  0
LINE
  8
_0-1_計細線
  6
CONTINUOUS
 62
    3
 10
1163.6000000016184
 20
638.65999999999985
 11
1163.6000000027225
 21
653.75999999999988
  0
LINE
  8
_0-1_計細線
  6
CONTINUOUS
 62
    3
 10
1163.6000000016184
 20
638.65999999999985
 11
1160.2000000016187
 21
638.65999999999985
  0
ARC
  8
_0-1_計細線
  6
CONTINUOUS
 62
    3
 10
985.99999999965632
 20
656.65999999999985
 40
0.9999999999999997
 50
89.999999999999915
 51
179.99999999999983
  0
ARC
  8
_0-1_計細線
  6
CONTINUOUS
 62
    3
 10
986.46794919098386
 20
658.65999999999985
 40
0.9999999999999997
 50
269.99999999999977
 51
329.99999999999022
  0
ARC
  8
_0-1_計細線
  6
CONTINUOUS
 62
    3
 10
988.1999999985527
 20
657.66000000000008
 40
0.9999999999999997
 50
89.999999999999915
 51
150.00000000001401
  0
LINE
  8
_0-1_計細線
  6
CONTINUOUS
 62
    3
 10
985.99999999965632
 20
657.66000000000008
 11
986.46794919098386
 21
657.66000000000008
  0
ARC
  8
_0-1_計細線
  6
CONTINUOUS
 62
    3
 10
995.39999999744919
 20
656.65999999999985
 40
0.9999999999999997
 50
0
 51
89.999999999999915
  0
ARC
  8
_0-1_計細線
  6
CONTINUOUS
 62
    3
 10
994.93205080612199
 20
658.65999999999985
 40
0.9999999999999997
 50
210.00000000000907
 51
269.99999999999977
  0
ARC
  8
_0-1_計細線
  6
CONTINUOUS
 62
    3
 10
993.19999999855281
 20
657.66000000000008
 40
0.9999999999999997
 50
29.99999999997949
 51
89.999999999999901
  0
LINE
  8
_0-1_計細線
  6
CONTINUOUS
 62
    3
 10
995.39999999744919
 20
657.66000000000008
 11
994.93205080612199
 21
657.66000000000008
  0
ARC
  8
_0-1_計細線
  6
CONTINUOUS
 62
    3
 10
985.49999999965644
 20
655.25999999999999
 40
0.4999999999999998
 50
179.99999999999983
 51
269.99999999999977
  0
LINE
  8
_0-1_計細線
  6
CONTINUOUS
 62
    3
 10
984.99999999965689
 20
656.65999999999985
 11
984.99999999965689
 21
655.25999999999999
  0
ARC
  8
_0-1_計細線
  6
CONTINUOUS
 62
    3
 10
995.89999999744941
 20
655.25999999999999
 40
0.4999999999999998
 50
269.99999999999977
 51
359.99999999999966
  0
LINE
  8
_0-1_計細線
  6
CONTINUOUS
 62
    3
 10
996.39999999744941
 20
656.65999999999985
 11
996.39999999744941
 21
655.25999999999999
  0
ARC
  8
_0-1_計細線
  6
CONTINUOUS
 62
    3
 10
987.99999999965689
 20
653.75999999999988
 40
0.9999999999999997
 50
0
 51
89.999999999999915
  0
LINE
  8
_0-1_計細線
  6
CONTINUOUS
 62
    3
 10
987.99999999965689
 20
654.75999999999988
 11
985.49999999965644
 21
654.75999999999988
  0
ARC
  8
_0-1_計細線
  6
CONTINUOUS
 62
    3
 10
993.39999999965687
 20
653.75999999999988
 40
0.9999999999999997
 50
89.999999999999915
 51
179.99999999999983
  0
LINE
  8
_0-1_計細線
  6
CONTINUOUS
 62
    3
 10
993.39999999744941
 20
654.75999999999988
 11
995.89999999744941
 21
654.75999999999988
  0
LINE
  8
_0-1_計細線
  6
CONTINUOUS
 62
    3
 10
993.19999999855281
 20
658.65999999999985
 11
988.1999999985527
 21
658.65999999999985
  0
LINE
  8
_0-1_計細線
  6
CONTINUOUS
 62
    3
 10
988.99999999855311
 20
638.65999999999985
 11
988.99999999965632
 21
653.75999999999988
  0
LINE
  8
_0-1_計細線
  6
CONTINUOUS
 62
    3
 10
992.39999999855274
 20
638.65999999999985
 11
992.39999999965664
 21
653.75999999999988
  0
LINE
  8
_0-1_計細線
  6
CONTINUOUS
 62
    3
 10
992.39999999855274
 20
638.65999999999985
 11
988.99999999855311
 21
638.65999999999985
  0
ARC
  8
_0-1_計細線
  6
CONTINUOUS
 62
    3
 10
1003.4000000000181
 20
656.65999999999985
 40
0.9999999999999997
 50
89.999999999999915
 51
179.99999999999983
  0
ARC
  8
_0-1_計細線
  6
CONTINUOUS
 62
    3
 10
1003.8679491913462
 20
658.65999999999985
 40
0.9999999999999997
 50
269.99999999999977
 51
329.99999999999022
  0
ARC
  8
_0-1_計細線
  6
CONTINUOUS
 62
    3
 10
1005.5999999989151
 20
657.66000000000008
 40
0.9999999999999997
 50
89.999999999999915
 51
150.00000000002052
  0
LINE
  8
_0-1_計細線
  6
CONTINUOUS
 62
    3
 10
1003.4000000000181
 20
657.66000000000008
 11
1003.8679491913462
 21
657.66000000000008
  0
ARC
  8
_0-1_計細線
  6
CONTINUOUS
 62
    3
 10
1012.7999999978111
 20
656.65999999999985
 40
0.9999999999999997
 50
0
 51
89.999999999999915
  0
ARC
  8
_0-1_計細線
  6
CONTINUOUS
 62
    3
 10
1012.3320508064836
 20
658.65999999999985
 40
0.9999999999999997
 50
209.99999999998954
 51
269.99999999999977
  0
ARC
  8
_0-1_計細線
  6
CONTINUOUS
 62
    3
 10
1010.5999999989143
 20
657.66000000000008
 40
0.9999999999999997
 50
29.999999999992518
 51
89.999999999986969
  0
LINE
  8
_0-1_計細線
  6
CONTINUOUS
 62
    3
 10
1012.7999999978111
 20
657.66000000000008
 11
1012.3320508064836
 21
657.66000000000008
  0
ARC
  8
_0-1_計細線
  6
CONTINUOUS
 62
    3
 10
1002.9000000000185
 20
655.25999999999999
 40
0.4999999999999998
 50
179.99999999999983
 51
269.99999999999977
  0
LINE
  8
_0-1_計細線
  6
CONTINUOUS
 62
    3
 10
1002.4000000000178
 20
656.65999999999985
 11
1002.4000000000178
 21
655.25999999999999
  0
ARC
  8
_0-1_計細線
  6
CONTINUOUS
 62
    3
 10
1013.2999999978108
 20
655.25999999999999
 40
0.4999999999999998
 50
269.99999999999977
 51
359.99999999999966
  0
LINE
  8
_0-1_計細線
  6
CONTINUOUS
 62
    3
 10
1013.799999997811
 20
656.65999999999985
 11
1013.799999997811
 21
655.25999999999999
  0
ARC
  8
_0-1_計細線
  6
CONTINUOUS
 62
    3
 10
1005.4000000000178
 20
653.75999999999988
 40
0.9999999999999997
 50
0
 51
89.999999999999915
  0
LINE
  8
_0-1_計細線
  6
CONTINUOUS
 62
    3
 10
1005.4000000000178
 20
654.75999999999988
 11
1002.9000000000185
 21
654.75999999999988
  0
ARC
  8
_0-1_計細線
  6
CONTINUOUS
 62
    3
 10
1010.8000000000181
 20
653.75999999999988
 40
0.9999999999999997
 50
89.999999999999915
 51
179.99999999999983
  0
LINE
  8
_0-1_計細線
  6
CONTINUOUS
 62
    3
 10
1010.799999997811
 20
654.75999999999988
 11
1013.2999999978108
 21
654.75999999999988
  0
LINE
  8
_0-1_計細線
  6
CONTINUOUS
 62
    3
 10
1010.5999999989143
 20
658.65999999999985
 11
1005.5999999989151
 21
658.65999999999985
  0
LINE
  8
_0-1_計細線
  6
CONTINUOUS
 62
    3
 10
1006.3999999989147
 20
638.65999999999985
 11
1006.4000000000179
 21
653.75999999999988
  0
LINE
  8
_0-1_計細線
  6
CONTINUOUS
 62
    3
 10
1009.799999998915
 20
638.65999999999985
 11
1009.8000000000184
 21
653.75999999999988
  0
LINE
  8
_0-1_計細線
  6
CONTINUOUS
 62
    3
 10
1009.799999998915
 20
638.65999999999985
 11
1006.3999999989147
 21
638.65999999999985
  0
ARC
  8
_0-1_計細線
  6
CONTINUOUS
 62
    3
 10
1139.8000000023603
 20
656.65999999999985
 40
0.9999999999999997
 50
89.999999999999915
 51
179.99999999999983
  0
ARC
  8
_0-1_計細線
  6
CONTINUOUS
 62
    3
 10
1140.2679491936879
 20
658.65999999999985
 40
0.9999999999999997
 50
269.99999999999977
 51
330.00000000000324
  0
ARC
  8
_0-1_計細線
  6
CONTINUOUS
 62
    3
 10
1142.0000000012569
 20
657.66000000000008
 40
0.9999999999999997
 50
89.999999999999915
 51
150.00000000000747
  0
LINE
  8
_0-1_計細線
  6
CONTINUOUS
 62
    3
 10
1139.8000000023603
 20
657.66000000000008
 11
1140.2679491936879
 21
657.66000000000008
  0
ARC
  8
_0-1_計細線
  6
CONTINUOUS
 62
    3
 10
1149.2000000001535
 20
656.65999999999985
 40
0.9999999999999997
 50
0
 51
89.999999999999915
  0
ARC
  8
_0-1_計細線
  6
CONTINUOUS
 62
    3
 10
1148.7320508088258
 20
658.65999999999985
 40
0.9999999999999997
 50
209.99999999999605
 51
269.99999999999977
  0
ARC
  8
_0-1_計細線
  6
CONTINUOUS
 62
    3
 10
1147.0000000012567
 20
657.66000000000008
 40
0.9999999999999997
 50
29.999999999992518
 51
89.999999999999901
  0
LINE
  8
_0-1_計細線
  6
CONTINUOUS
 62
    3
 10
1149.2000000001535
 20
657.66000000000008
 11
1148.7320508088258
 21
657.66000000000008
  0
ARC
  8
_0-1_計細線
  6
CONTINUOUS
 62
    3
 10
1139.300000002361
 20
655.25999999999999
 40
0.4999999999999998
 50
179.99999999999983
 51
269.99999999999977
  0
LINE
  8
_0-1_計細線
  6
CONTINUOUS
 62
    3
 10
1138.8000000023603
 20
656.65999999999985
 11
1138.8000000023603
 21
655.25999999999999
  0
ARC
  8
_0-1_計細線
  6
CONTINUOUS
 62
    3
 10
1149.7000000001533
 20
655.25999999999999
 40
0.4999999999999998
 50
269.99999999999977
 51
359.99999999999966
  0
LINE
  8
_0-1_計細線
  6
CONTINUOUS
 62
    3
 10
1150.2000000001535
 20
656.65999999999985
 11
1150.2000000001535
 21
655.25999999999999
  0
ARC
  8
_0-1_計細線
  6
CONTINUOUS
 62
    3
 10
1141.8000000023603
 20
653.75999999999988
 40
0.9999999999999997
 50
0
 51
89.999999999999915
  0
LINE
  8
_0-1_計細線
  6
CONTINUOUS
 62
    3
 10
1141.8000000023603
 20
654.75999999999988
 11
1139.300000002361
 21
654.75999999999988
  0
ARC
  8
_0-1_計細線
  6
CONTINUOUS
 62
    3
 10
1147.2000000023606
 20
653.75999999999988
 40
0.9999999999999997
 50
89.999999999999915
 51
179.99999999999983
  0
LINE
  8
_0-1_計細線
  6
CONTINUOUS
 62
    3
 10
1147.2000000001535
 20
654.75999999999988
 11
1149.7000000001533
 21
654.75999999999988
  0
LINE
  8
_0-1_計細線
  6
CONTINUOUS
 62
    3
 10
1147.0000000012567
 20
658.65999999999985
 11
1142.0000000012569
 21
658.65999999999985
  0
LINE
  8
_0-1_計細線
  6
CONTINUOUS
 62
    3
 10
1142.8000000012571
 20
638.65999999999985
 11
1142.8000000023603
 21
653.75999999999988
  0
LINE
  8
_0-1_計細線
  6
CONTINUOUS
 62
    3
 10
1146.2000000012574
 20
638.65999999999985
 11
1146.2000000023609
 21
653.75999999999988
  0
LINE
  8
_0-1_計細線
  6
CONTINUOUS
 62
    3
 10
1146.2000000012574
 20
638.65999999999985
 11
1142.8000000012571
 21
638.65999999999985
  0
ARC
  8
_0-1_計細線
  6
CONTINUOUS
 62
    3
 10
1020.8000000000181
 20
656.65999999999985
 40
0.9999999999999997
 50
89.999999999999915
 51
179.99999999999983
  0
ARC
  8
_0-1_計細線
  6
CONTINUOUS
 62
    3
 10
1021.2679491913459
 20
658.65999999999985
 40
0.9999999999999997
 50
269.99999999999977
 51
330.00000000000324
  0
ARC
  8
_0-1_計細線
  6
CONTINUOUS
 62
    3
 10
1022.999999998915
 20
657.66000000000008
 40
0.9999999999999997
 50
89.999999999999915
 51
150.00000000000747
  0
LINE
  8
_0-1_計細線
  6
CONTINUOUS
 62
    3
 10
1020.8000000000181
 20
657.66000000000008
 11
1021.2679491913459
 21
657.66000000000008
  0
ARC
  8
_0-1_計細線
  6
CONTINUOUS
 62
    3
 10
1030.1999999978109
 20
656.65999999999985
 40
0.9999999999999997
 50
0
 51
89.999999999999915
  0
ARC
  8
_0-1_計細線
  6
CONTINUOUS
 62
    3
 10
1029.7320508064838
 20
658.65999999999985
 40
0.9999999999999997
 50
209.99999999998954
 51
269.99999999999977
  0
ARC
  8
_0-1_計細線
  6
CONTINUOUS
 62
    3
 10
1027.9999999989141
 20
657.66000000000008
 40
0.9999999999999997
 50
29.99999999997949
 51
89.99999999996092
  0
LINE
  8
_0-1_計細線
  6
CONTINUOUS
 62
    3
 10
1030.1999999978109
 20
657.66000000000008
 11
1029.7320508064838
 21
657.66000000000008
  0
ARC
  8
_0-1_計細線
  6
CONTINUOUS
 62
    3
 10
1020.3000000000185
 20
655.25999999999999
 40
0.4999999999999998
 50
179.99999999999983
 51
269.99999999999977
  0
LINE
  8
_0-1_計細線
  6
CONTINUOUS
 62
    3
 10
1019.8000000000183
 20
656.65999999999985
 11
1019.8000000000183
 21
655.25999999999999
  0
ARC
  8
_0-1_計細線
  6
CONTINUOUS
 62
    3
 10
1030.6999999978107
 20
655.25999999999999
 40
0.4999999999999998
 50
269.99999999999977
 51
359.99999999999966
  0
LINE
  8
_0-1_計細線
  6
CONTINUOUS
 62
    3
 10
1031.1999999978113
 20
656.65999999999985
 11
1031.1999999978113
 21
655.25999999999999
  0
ARC
  8
_0-1_計細線
  6
CONTINUOUS
 62
    3
 10
1022.8000000000181
 20
653.75999999999988
 40
0.9999999999999997
 50
0
 51
89.999999999999915
  0
LINE
  8
_0-1_計細線
  6
CONTINUOUS
 62
    3
 10
1022.8000000000181
 20
654.75999999999988
 11
1020.3000000000185
 21
654.75999999999988
  0
ARC
  8
_0-1_計細線
  6
CONTINUOUS
 62
    3
 10
1028.200000000018
 20
653.75999999999988
 40
0.9999999999999997
 50
89.999999999999915
 51
179.99999999999983
  0
LINE
  8
_0-1_計細線
  6
CONTINUOUS
 62
    3
 10
1028.1999999978116
 20
654.75999999999988
 11
1030.6999999978107
 21
654.75999999999988
  0
LINE
  8
_0-1_計細線
  6
CONTINUOUS
 62
    3
 10
1027.9999999989141
 20
658.65999999999985
 11
1022.999999998915
 21
658.65999999999985
  0
LINE
  8
_0-1_計細線
  6
CONTINUOUS
 62
    3
 10
1023.7999999989149
 20
638.65999999999985
 11
1023.8000000000181
 21
653.75999999999988
  0
LINE
  8
_0-1_計細線
  6
CONTINUOUS
 62
    3
 10
1027.1999999989148
 20
638.65999999999985
 11
1027.2000000000182
 21
653.75999999999988
  0
LINE
  8
_0-1_計細線
  6
CONTINUOUS
 62
    3
 10
1027.1999999989148
 20
638.65999999999985
 11
1023.7999999989149
 21
638.65999999999985
  0
ARC
  8
_0-1_計細線
  6
CONTINUOUS
 62
    3
 10
1037.8000000003804
 20
656.65999999999985
 40
0.9999999999999997
 50
89.999999999999915
 51
179.99999999999983
  0
ARC
  8
_0-1_計細線
  6
CONTINUOUS
 62
    3
 10
1038.2679491917077
 20
658.65999999999985
 40
0.9999999999999997
 50
269.99999999999977
 51
329.99999999999022
  0
ARC
  8
_0-1_計細線
  6
CONTINUOUS
 62
    3
 10
1039.9999999992767
 20
657.66000000000008
 40
0.9999999999999997
 50
89.999999999999915
 51
150.00000000002052
  0
LINE
  8
_0-1_計細線
  6
CONTINUOUS
 62
    3
 10
1037.8000000003804
 20
657.66000000000008
 11
1038.2679491917077
 21
657.66000000000008
  0
ARC
  8
_0-1_計細線
  6
CONTINUOUS
 62
    3
 10
1047.1999999981733
 20
656.65999999999985
 40
0.9999999999999997
 50
0
 51
89.999999999999915
  0
ARC
  8
_0-1_計細線
  6
CONTINUOUS
 62
    3
 10
1046.7320508068451
 20
658.65999999999985
 40
0.9999999999999997
 50
210.00000000000907
 51
269.99999999999977
  0
ARC
  8
_0-1_計細線
  6
CONTINUOUS
 62
    3
 10
1044.999999999277
 20
657.66000000000008
 40
0.9999999999999997
 50
30.000000000005546
 51
89.999999999999901
  0
LINE
  8
_0-1_計細線
  6
CONTINUOUS
 62
    3
 10
1047.1999999981733
 20
657.66000000000008
 11
1046.7320508068451
 21
657.66000000000008
  0
ARC
  8
_0-1_計細線
  6
CONTINUOUS
 62
    3
 10
1037.3000000003801
 20
655.25999999999999
 40
0.4999999999999998
 50
179.99999999999983
 51
269.99999999999977
  0
LINE
  8
_0-1_計細線
  6
CONTINUOUS
 62
    3
 10
1036.8000000003801
 20
656.65999999999985
 11
1036.8000000003801
 21
655.25999999999999
  0
ARC
  8
_0-1_計細線
  6
CONTINUOUS
 62
    3
 10
1047.6999999981729
 20
655.25999999999999
 40
0.4999999999999998
 50
269.99999999999977
 51
359.99999999999966
  0
LINE
  8
_0-1_計細線
  6
CONTINUOUS
 62
    3
 10
1048.1999999981726
 20
656.65999999999985
 11
1048.1999999981726
 21
655.25999999999999
  0
ARC
  8
_0-1_計細線
  6
CONTINUOUS
 62
    3
 10
1039.8000000003801
 20
653.75999999999988
 40
0.9999999999999997
 50
0
 51
89.999999999999915
  0
LINE
  8
_0-1_計細線
  6
CONTINUOUS
 62
    3
 10
1039.8000000003801
 20
654.75999999999988
 11
1037.3000000003801
 21
654.75999999999988
  0
ARC
  8
_0-1_計細線
  6
CONTINUOUS
 62
    3
 10
1045.20000000038
 20
653.75999999999988
 40
0.9999999999999997
 50
89.999999999999915
 51
179.99999999999983
  0
LINE
  8
_0-1_計細線
  6
CONTINUOUS
 62
    3
 10
1045.1999999981726
 20
654.75999999999988
 11
1047.6999999981729
 21
654.75999999999988
  0
LINE
  8
_0-1_計細線
  6
CONTINUOUS
 62
    3
 10
1044.999999999277
 20
658.65999999999985
 11
1039.9999999992767
 21
658.65999999999985
  0
LINE
  8
_0-1_計細線
  6
CONTINUOUS
 62
    3
 10
1040.7999999992762
 20
638.65999999999985
 11
1040.8000000003804
 21
653.75999999999988
  0
LINE
  8
_0-1_計細線
  6
CONTINUOUS
 62
    3
 10
1044.1999999992765
 20
638.65999999999985
 11
1044.20000000038
 21
653.75999999999988
  0
LINE
  8
_0-1_計細線
  6
CONTINUOUS
 62
    3
 10
1044.1999999992765
 20
638.65999999999985
 11
1040.7999999992762
 21
638.65999999999985
  0
ARC
  8
_0-1_計細線
  6
CONTINUOUS
 62
    3
 10
1054.8000000007421
 20
656.65999999999985
 40
0.9999999999999997
 50
89.999999999999915
 51
179.99999999999983
  0
ARC
  8
_0-1_計細線
  6
CONTINUOUS
 62
    3
 10
1055.2679491920692
 20
658.65999999999985
 40
0.9999999999999997
 50
269.99999999999977
 51
329.9999999999967
  0
ARC
  8
_0-1_計細線
  6
CONTINUOUS
 62
    3
 10
1056.999999999638
 20
657.66000000000008
 40
0.9999999999999997
 50
89.999999999999915
 51
150.00000000000747
  0
LINE
  8
_0-1_計細線
  6
CONTINUOUS
 62
    3
 10
1054.8000000007421
 20
657.66000000000008
 11
1055.2679491920692
 21
657.66000000000008
  0
ARC
  8
_0-1_計細線
  6
CONTINUOUS
 62
    3
 10
1064.1999999985346
 20
656.65999999999985
 40
0.9999999999999997
 50
0
 51
89.999999999999915
  0
ARC
  8
_0-1_計細線
  6
CONTINUOUS
 62
    3
 10
1063.7320508072071
 20
658.65999999999985
 40
0.9999999999999997
 50
210.0000000000156
 51
269.99999999999977
  0
ARC
  8
_0-1_計細線
  6
CONTINUOUS
 62
    3
 10
1061.9999999996387
 20
657.66000000000008
 40
0.9999999999999997
 50
29.999999999992518
 51
89.999999999999901
  0
LINE
  8
_0-1_計細線
  6
CONTINUOUS
 62
    3
 10
1064.1999999985346
 20
657.66000000000008
 11
1063.7320508072071
 21
657.66000000000008
  0
ARC
  8
_0-1_計細線
  6
CONTINUOUS
 62
    3
 10
1054.3000000007414
 20
655.25999999999999
 40
0.4999999999999998
 50
179.99999999999983
 51
269.99999999999977
  0
LINE
  8
_0-1_計細線
  6
CONTINUOUS
 62
    3
 10
1053.8000000007423
 20
656.65999999999985
 11
1053.8000000007423
 21
655.25999999999999
  0
ARC
  8
_0-1_計細線
  6
CONTINUOUS
 62
    3
 10
1064.6999999985355
 20
655.25999999999999
 40
0.4999999999999998
 50
269.99999999999977
 51
359.99999999999966
  0
LINE
  8
_0-1_計細線
  6
CONTINUOUS
 62
    3
 10
1065.1999999985346
 20
656.65999999999985
 11
1065.1999999985346
 21
655.25999999999999
  0
ARC
  8
_0-1_計細線
  6
CONTINUOUS
 62
    3
 10
1056.8000000007423
 20
653.75999999999988
 40
0.9999999999999997
 50
0
 51
89.999999999999915
  0
LINE
  8
_0-1_計細線
  6
CONTINUOUS
 62
    3
 10
1056.8000000007423
 20
654.75999999999988
 11
1054.3000000007414
 21
654.75999999999988
  0
ARC
  8
_0-1_計細線
  6
CONTINUOUS
 62
    3
 10
1062.200000000742
 20
653.75999999999988
 40
0.9999999999999997
 50
89.999999999999915
 51
179.99999999999983
  0
LINE
  8
_0-1_計細線
  6
CONTINUOUS
 62
    3
 10
1062.1999999985344
 20
654.75999999999988
 11
1064.6999999985355
 21
654.75999999999988
  0
LINE
  8
_0-1_計細線
  6
CONTINUOUS
 62
    3
 10
1061.9999999996387
 20
658.65999999999985
 11
1056.999999999638
 21
658.65999999999985
  0
LINE
  8
_0-1_計細線
  6
CONTINUOUS
 62
    3
 10
1057.7999999996382
 20
638.65999999999985
 11
1057.8000000007421
 21
653.75999999999988
  0
LINE
  8
_0-1_計細線
  6
CONTINUOUS
 62
    3
 10
1061.1999999996378
 20
638.65999999999985
 11
1061.200000000742
 21
653.75999999999988
  0
LINE
  8
_0-1_計細線
  6
CONTINUOUS
 62
    3
 10
1061.1999999996378
 20
638.65999999999985
 11
1057.7999999996382
 21
638.65999999999985
  0
ARC
  8
_0-1_計細線
  6
CONTINUOUS
 62
    3
 10
1088.8000000014652
 20
656.65999999999985
 40
0.9999999999999997
 50
89.999999999999915
 51
179.99999999999983
  0
ARC
  8
_0-1_計細線
  6
CONTINUOUS
 62
    3
 10
1089.2679491927929
 20
658.65999999999985
 40
0.9999999999999997
 50
269.99999999999977
 51
329.9999999999967
  0
ARC
  8
_0-1_計細線
  6
CONTINUOUS
 62
    3
 10
1091.000000000362
 20
657.66000000000008
 40
0.9999999999999997
 50
89.999999999999915
 51
150.00000000001401
  0
LINE
  8
_0-1_計細線
  6
CONTINUOUS
 62
    3
 10
1088.8000000014652
 20
657.66000000000008
 11
1089.2679491927929
 21
657.66000000000008
  0
ARC
  8
_0-1_計細線
  6
CONTINUOUS
 62
    3
 10
1098.1999999992577
 20
656.65999999999985
 40
0.9999999999999997
 50
0
 51
89.999999999999915
  0
ARC
  8
_0-1_計細線
  6
CONTINUOUS
 62
    3
 10
1097.7320508079306
 20
658.65999999999985
 40
0.9999999999999997
 50
210.00000000000256
 51
269.99999999999977
  0
ARC
  8
_0-1_計細線
  6
CONTINUOUS
 62
    3
 10
1096.0000000003618
 20
657.66000000000008
 40
0.9999999999999997
 50
29.999999999992518
 51
89.999999999999901
  0
LINE
  8
_0-1_計細線
  6
CONTINUOUS
 62
    3
 10
1098.1999999992577
 20
657.66000000000008
 11
1097.7320508079306
 21
657.66000000000008
  0
ARC
  8
_0-1_計細線
  6
CONTINUOUS
 62
    3
 10
1088.3000000014654
 20
655.25999999999999
 40
0.4999999999999998
 50
179.99999999999983
 51
269.99999999999977
  0
LINE
  8
_0-1_計細線
  6
CONTINUOUS
 62
    3
 10
1087.8000000014654
 20
656.65999999999985
 11
1087.8000000014654
 21
655.25999999999999
  0
ARC
  8
_0-1_計細線
  6
CONTINUOUS
 62
    3
 10
1098.6999999992584
 20
655.25999999999999
 40
0.4999999999999998
 50
269.99999999999977
 51
359.99999999999966
  0
LINE
  8
_0-1_計細線
  6
CONTINUOUS
 62
    3
 10
1099.1999999992581
 20
656.65999999999985
 11
1099.1999999992581
 21
655.25999999999999
  0
ARC
  8
_0-1_計細線
  6
CONTINUOUS
 62
    3
 10
1090.8000000014654
 20
653.75999999999988
 40
0.9999999999999997
 50
0
 51
89.999999999999915
  0
LINE
  8
_0-1_計細線
  6
CONTINUOUS
 62
    3
 10
1090.8000000014654
 20
654.75999999999988
 11
1088.3000000014654
 21
654.75999999999988
  0
ARC
  8
_0-1_計細線
  6
CONTINUOUS
 62
    3
 10
1096.2000000014655
 20
653.75999999999988
 40
0.9999999999999997
 50
89.999999999999915
 51
179.99999999999983
  0
LINE
  8
_0-1_計細線
  6
CONTINUOUS
 62
    3
 10
1096.1999999992581
 20
654.75999999999988
 11
1098.6999999992584
 21
654.75999999999988
  0
LINE
  8
_0-1_計細線
  6
CONTINUOUS
 62
    3
 10
1096.0000000003618
 20
658.65999999999985
 11
1091.000000000362
 21
658.65999999999985
  0
LINE
  8
_0-1_計細線
  6
CONTINUOUS
 62
    3
 10
1091.8000000003617
 20
638.65999999999985
 11
1091.8000000014652
 21
653.75999999999988
  0
LINE
  8
_0-1_計細線
  6
CONTINUOUS
 62
    3
 10
1095.2000000003618
 20
638.65999999999985
 11
1095.2000000014659
 21
653.75999999999988
  0
LINE
  8
_0-1_計細線
  6
CONTINUOUS
 62
    3
 10
1095.2000000003618
 20
638.65999999999985
 11
1091.8000000003617
 21
638.65999999999985
  0
ARC
  8
_0-1_計細線
  6
CONTINUOUS
 62
    3
 10
1105.8000000018274
 20
656.65999999999985
 40
0.9999999999999997
 50
89.999999999999915
 51
179.99999999999983
  0
ARC
  8
_0-1_計細線
  6
CONTINUOUS
 62
    3
 10
1106.2679491931547
 20
658.65999999999985
 40
0.9999999999999997
 50
269.99999999999977
 51
329.99999999999022
  0
ARC
  8
_0-1_計細線
  6
CONTINUOUS
 62
    3
 10
1108.0000000007235
 20
657.66000000000008
 40
0.9999999999999997
 50
89.999999999999915
 51
150.00000000001401
  0
LINE
  8
_0-1_計細線
  6
CONTINUOUS
 62
    3
 10
1105.8000000018274
 20
657.66000000000008
 11
1106.2679491931547
 21
657.66000000000008
  0
ARC
  8
_0-1_計細線
  6
CONTINUOUS
 62
    3
 10
1115.1999999996196
 20
656.65999999999985
 40
0.9999999999999997
 50
0
 51
89.999999999999915
  0
ARC
  8
_0-1_計細線
  6
CONTINUOUS
 62
    3
 10
1114.7320508082921
 20
658.65999999999985
 40
0.9999999999999997
 50
210.00000000000907
 51
269.99999999999977
  0
ARC
  8
_0-1_計細線
  6
CONTINUOUS
 62
    3
 10
1113.000000000723
 20
657.66000000000008
 40
0.9999999999999997
 50
29.99999999997949
 51
89.999999999999901
  0
LINE
  8
_0-1_計細線
  6
CONTINUOUS
 62
    3
 10
1115.1999999996196
 20
657.66000000000008
 11
1114.7320508082921
 21
657.66000000000008
  0
ARC
  8
_0-1_計細線
  6
CONTINUOUS
 62
    3
 10
1105.3000000018274
 20
655.25999999999999
 40
0.4999999999999998
 50
179.99999999999983
 51
269.99999999999977
  0
LINE
  8
_0-1_計細線
  6
CONTINUOUS
 62
    3
 10
1104.8000000018271
 20
656.65999999999985
 11
1104.8000000018271
 21
655.25999999999999
  0
ARC
  8
_0-1_計細線
  6
CONTINUOUS
 62
    3
 10
1115.6999999996196
 20
655.25999999999999
 40
0.4999999999999998
 50
269.99999999999977
 51
359.99999999999966
  0
LINE
  8
_0-1_計細線
  6
CONTINUOUS
 62
    3
 10
1116.1999999996203
 20
656.65999999999985
 11
1116.1999999996203
 21
655.25999999999999
  0
ARC
  8
_0-1_計細線
  6
CONTINUOUS
 62
    3
 10
1107.8000000018274
 20
653.75999999999988
 40
0.9999999999999997
 50
0
 51
89.999999999999915
  0
LINE
  8
_0-1_計細線
  6
CONTINUOUS
 62
    3
 10
1107.8000000018274
 20
654.75999999999988
 11
1105.3000000018274
 21
654.75999999999988
  0
ARC
  8
_0-1_計細線
  6
CONTINUOUS
 62
    3
 10
1113.200000001827
 20
653.75999999999988
 40
0.9999999999999997
 50
89.999999999999915
 51
179.99999999999983
  0
LINE
  8
_0-1_計細線
  6
CONTINUOUS
 62
    3
 10
1113.1999999996203
 20
654.75999999999988
 11
1115.6999999996196
 21
654.75999999999988
  0
LINE
  8
_0-1_計細線
  6
CONTINUOUS
 62
    3
 10
1113.000000000723
 20
658.65999999999985
 11
1108.0000000007235
 21
658.65999999999985
  0
LINE
  8
_0-1_計細線
  6
CONTINUOUS
 62
    3
 10
1108.8000000007232
 20
638.65999999999985
 11
1108.8000000018274
 21
653.75999999999988
  0
LINE
  8
_0-1_計細線
  6
CONTINUOUS
 62
    3
 10
1112.2000000007235
 20
638.65999999999985
 11
1112.2000000018279
 21
653.75999999999988
  0
LINE
  8
_0-1_計細線
  6
CONTINUOUS
 62
    3
 10
1112.2000000007235
 20
638.65999999999985
 11
1108.8000000007232
 21
638.65999999999985
  0
ARC
  8
_0-1_計細線
  6
CONTINUOUS
 62
    3
 10
1122.8000000021891
 20
656.65999999999985
 40
0.9999999999999997
 50
89.999999999999915
 51
179.99999999999983
  0
ARC
  8
_0-1_計細線
  6
CONTINUOUS
 62
    3
 10
1123.2679491935169
 20
658.65999999999985
 40
0.9999999999999997
 50
269.99999999999977
 51
329.99999999998369
  0
ARC
  8
_0-1_計細線
  6
CONTINUOUS
 62
    3
 10
1125.000000001085
 20
657.66000000000008
 40
0.9999999999999997
 50
89.999999999999915
 51
150.00000000000097
  0
LINE
  8
_0-1_計細線
  6
CONTINUOUS
 62
    3
 10
1122.8000000021891
 20
657.66000000000008
 11
1123.2679491935169
 21
657.66000000000008
  0
ARC
  8
_0-1_計細線
  6
CONTINUOUS
 62
    3
 10
1132.1999999999816
 20
656.65999999999985
 40
0.9999999999999997
 50
0
 51
89.999999999999915
  0
ARC
  8
_0-1_計細線
  6
CONTINUOUS
 62
    3
 10
1131.7320508086541
 20
658.65999999999985
 40
0.9999999999999997
 50
210.0000000000156
 51
269.99999999999977
  0
ARC
  8
_0-1_計細線
  6
CONTINUOUS
 62
    3
 10
1130.0000000010857
 20
657.66000000000008
 40
0.9999999999999997
 50
29.999999999992518
 51
89.999999999999901
  0
LINE
  8
_0-1_計細線
  6
CONTINUOUS
 62
    3
 10
1132.1999999999816
 20
657.66000000000008
 11
1131.7320508086541
 21
657.66000000000008
  0
ARC
  8
_0-1_計細線
  6
CONTINUOUS
 62
    3
 10
1122.3000000021893
 20
655.25999999999999
 40
0.4999999999999998
 50
179.99999999999983
 51
269.99999999999977
  0
LINE
  8
_0-1_計細線
  6
CONTINUOUS
 62
    3
 10
1121.8000000021884
 20
656.65999999999985
 11
1121.8000000021884
 21
655.25999999999999
  0
ARC
  8
_0-1_計細線
  6
CONTINUOUS
 62
    3
 10
1132.6999999999816
 20
655.25999999999999
 40
0.4999999999999998
 50
269.99999999999977
 51
359.99999999999966
  0
LINE
  8
_0-1_計細線
  6
CONTINUOUS
 62
    3
 10
1133.1999999999816
 20
656.65999999999985
 11
1133.1999999999816
 21
655.25999999999999
  0
ARC
  8
_0-1_計細線
  6
CONTINUOUS
 62
    3
 10
1124.8000000021884
 20
653.75999999999988
 40
0.9999999999999997
 50
0
 51
89.999999999999915
  0
LINE
  8
_0-1_計細線
  6
CONTINUOUS
 62
    3
 10
1124.8000000021884
 20
654.75999999999988
 11
1122.3000000021893
 21
654.75999999999988
  0
ARC
  8
_0-1_計細線
  6
CONTINUOUS
 62
    3
 10
1130.200000002189
 20
653.75999999999988
 40
0.9999999999999997
 50
89.999999999999915
 51
179.99999999999983
  0
LINE
  8
_0-1_計細線
  6
CONTINUOUS
 62
    3
 10
1130.1999999999816
 20
654.75999999999988
 11
1132.6999999999816
 21
654.75999999999988
  0
LINE
  8
_0-1_計細線
  6
CONTINUOUS
 62
    3
 10
1130.0000000010857
 20
658.65999999999985
 11
1125.000000001085
 21
658.65999999999985
  0
LINE
  8
_0-1_計細線
  6
CONTINUOUS
 62
    3
 10
1125.8000000010852
 20
638.65999999999985
 11
1125.8000000021891
 21
653.75999999999988
  0
LINE
  8
_0-1_計細線
  6
CONTINUOUS
 62
    3
 10
1129.2000000010858
 20
638.65999999999985
 11
1129.200000002189
 21
653.75999999999988
  0
LINE
  8
_0-1_計細線
  6
CONTINUOUS
 62
    3
 10
1129.2000000010858
 20
638.65999999999985
 11
1125.8000000010852
 21
638.65999999999985
  0
ARC
  8
_0-1_計細線
  6
CONTINUOUS
 62
    3
 10
1187
 20
638.66021900100679
 40
3.0000000000000004
 50
269.99999999999977
 51
359.99999999999966
  0
LINE
  8
_0-1_計細線
  6
CONTINUOUS
 62
    3
 10
1190
 20
638.66021900100679
 11
1190
 21
658.16021900100679
  0
LINE
  8
_0-1_計細線
  6
CONTINUOUS
 62
    3
 10
1187
 20
635.66021900100691
 11
1160.4999999999991
 21
635.66021900100691
  0
LINE
  8
_0-1_計細線
  6
CONTINUOUS
 62
    3
 10
1160
 20
636.16021900100702
 11
1160.4999999999991
 21
635.66021900100691
  0
LINE
  8
_0-1_計細線
  6
CONTINUOUS
 62
    3
 10
1160
 20
638.16021900100679
 11
1160
 21
636.16021900100702
  0
LINE
  8
_0-1_計細線
  6
CONTINUOUS
 62
    3
 10
1160.4999999999991
 20
638.66021900100679
 11
1160
 21
638.16021900100679
  0
LINE
  8
_0-1_計細線
  6
CONTINUOUS
 62
    3
 10
1187
 20
638.66021900100679
 11
1160.4999999999991
 21
638.66021900100679
  0
LINE
  8
_0-1_計細線
  6
CONTINUOUS
 62
    3
 10
1189.5
 20
658.66021900100679
 11
1190
 21
658.16021900100679
  0
LINE
  8
_0-1_計細線
  6
CONTINUOUS
 62
    3
 10
1187.5
 20
658.66021900100679
 11
1189.5
 21
658.66021900100679
  0
LINE
  8
_0-1_計細線
  6
CONTINUOUS
 62
    3
 10
1187
 20
658.16021900100679
 11
1187.5
 21
658.66021900100679
  0
LINE
  8
_0-1_計細線
  6
CONTINUOUS
 62
    3
 10
1187
 20
638.66021900100679
 11
1187
 21
658.16021900100679
  0
ARC
  8
_0-1_計細線
  6
CONTINUOUS
 62
    3
 10
983.00000000000011
 20
638.66021900100679
 40
3.0000000000000004
 50
179.99999999999983
 51
269.99999999999977
  0
LINE
  8
_0-1_計細線
  6
CONTINUOUS
 62
    3
 10
980
 20
638.66021900100679
 11
980
 21
658.16021900100679
  0
LINE
  8
_0-1_計細線
  6
CONTINUOUS
 62
    3
 10
983.00000000000011
 20
635.66021900100691
 11
1009.4999999999999
 21
635.66021900100691
  0
LINE
  8
_0-1_計細線
  6
CONTINUOUS
 62
    3
 10
1010
 20
636.16021900100702
 11
1009.4999999999999
 21
635.66021900100691
  0
LINE
  8
_0-1_計細線
  6
CONTINUOUS
 62
    3
 10
1010
 20
638.16021900100679
 11
1010
 21
636.16021900100702
  0
LINE
  8
_0-1_計細線
  6
CONTINUOUS
 62
    3
 10
1009.4999999999999
 20
638.66021900100679
 11
1010
 21
638.16021900100679
  0
LINE
  8
_0-1_計細線
  6
CONTINUOUS
 62
    3
 10
983.00000000000011
 20
638.66021900100679
 11
1009.4999999999999
 21
638.66021900100679
  0
LINE
  8
_0-1_計細線
  6
CONTINUOUS
 62
    3
 10
980.49999999999943
 20
658.66021900100679
 11
980
 21
658.16021900100679
  0
LINE
  8
_0-1_計細線
  6
CONTINUOUS
 62
    3
 10
982.49999999999989
 20
658.66021900100679
 11
980.49999999999943
 21
658.66021900100679
  0
LINE
  8
_0-1_計細線
  6
CONTINUOUS
 62
    3
 10
983.00000000000011
 20
658.16021900100679
 11
982.49999999999989
 21
658.66021900100679
  0
LINE
  8
_0-1_計細線
  6
CONTINUOUS
 62
    3
 10
983.00000000000011
 20
638.66021900100679
 11
983.00000000000011
 21
658.16021900100679
  0
CIRCLE
  8
_0-0_計極細
  6
CONTINUOUS
 62
    2
 10
1207.0956306465387
 20
624.976579379947
 40
0.3318518518518431
  0
CIRCLE
  8
_0-0_計極細
  6
CONTINUOUS
 62
    2
 10
1218.8556306465387
 20
621.6165793799471
 40
0.3318518518518431
  0
LINE
  8
_0-0_計極細
  6
CONTINUOUS
 62
    2
 10
1205
 20
617.11155580999673
 11
1214
 21
617.11155580999673
  0
LINE
  8
_0-0_計極細
  6
CENTER1
 62
    2
 10
1209.5
 20
585.6941748303351
 11
1209.5
 21
619.67698790876216
  0
LINE
  8
_0-0_計極細
  6
CONTINUOUS
 62
    2
 10
1214
 20
617.11155580999673
 11
1214
 21
590.66021900100691
  0
LINE
  8
_0-0_計極細
  6
CONTINUOUS
 62
    2
 10
1205
 20
590.66021900100691
 11
1205
 21
617.11155580999673
  0
LINE
  8
_0-0_計極細
  6
CENTER1
 62
    2
 10
1220.6963916124523
 20
608.73567846802769
 11
1182.2777793229131
 21
622.71890975904876
  0
LINE
  8
_0-0_計極細
  6
CONTINUOUS
 62
    2
 10
1216.1840409322913
 20
605.58923969850889
 11
1183.1094340380823
 21
617.6274121180569
  0
LINE
  8
_0-0_計極細
  6
CONTINUOUS
 62
    2
 10
1219.2622222222219
 20
614.04647328558224
 11
1186.1876153280136
 21
626.08464570513001
  0
LINE
  8
_0-0_計極細
  6
CONTINUOUS
 62
    2
 10
1186.1876153280136
 20
626.08464570513001
 11
1183.1094340380823
 21
617.6274121180569
  0
LINE
  8
_0-0_計極細
  6
CONTINUOUS
 62
    2
 10
1216.1840409322913
 20
605.58923969850889
 11
1219.2622222222219
 21
614.04647328558224
  0
LINE
  8
_0-0_計極細
  6
CENTER1
 62
    2
 10
960.49999999999977
 20
585.6941748303351
 11
960.49999999999977
 21
619.67698790876216
  0
LINE
  8
_0-0_計極細
  6
CONTINUOUS
 62
    2
 10
955.99999999999977
 20
617.11155580999673
 11
955.99999999999977
 21
590.66021900100691
  0
LINE
  8
_0-0_計極細
  6
CONTINUOUS
 62
    2
 10
964.99999999999989
 20
617.11155580999673
 11
955.99999999999977
 21
617.11155580999673
  0
LINE
  8
_0-0_計極細
  6
CONTINUOUS
 62
    2
 10
964.99999999999989
 20
590.66021900100691
 11
964.99999999999989
 21
617.11155580999673
  0
LINE
  8
_0-0_計極細
  6
CENTER1
 62
    2
 10
949.30360838754746
 20
608.73567846802769
 11
987.72222067708663
 21
622.71890975904876
  0
LINE
  8
_0-0_計極細
  6
CONTINUOUS
 62
    2
 10
953.81595906770883
 20
605.58923969850889
 11
986.89056596191745
 21
617.6274121180569
  0
LINE
  8
_0-0_計極細
  6
CONTINUOUS
 62
    2
 10
950.73777777777752
 20
614.04647328558224
 11
983.81238467198671
 21
626.08464570513001
  0
LINE
  8
_0-0_計極細
  6
CONTINUOUS
 62
    2
 10
983.81238467198671
 20
626.08464570513001
 11
986.89056596191745
 21
617.6274121180569
  0
LINE
  8
_0-0_計極細
  6
CONTINUOUS
 62
    2
 10
953.81595906770883
 20
605.58923969850889
 11
950.73777777777752
 21
614.04647328558224
  0
LINE
  8
_0-0_計極細
  6
CONTINUOUS
 62
    2
 10
1236.0734832401813
 20
651.66021900100668
 11
1243.073482864108
 21
658.66021862493335
  0
LINE
  8
_0-0_計極細
  6
CONTINUOUS
 62
    2
 10
1223.3455611788238
 20
651.66021900100668
 11
1230.3455609023197
 21
658.66021872450256
  0
LINE
  8
_0-0_計極細
  6
CONTINUOUS
 62
    2
 10
1210.6176391174658
 20
651.66021900100668
 11
1217.6176389405309
 21
658.66021882407142
  0
LINE
  8
_0-0_計極細
  6
CONTINUOUS
 62
    2
 10
1197.8897170561083
 20
651.66021900100668
 11
1204.8897169787422
 21
658.66021892364063
  0
LINE
  8
_0-0_計極細
  6
DASHED2
 62
    2
 10
1242.4374442708611
 20
651.66021900100668
 11
1248.5066482870689
 21
657.72942301721491
  0
LINE
  8
_0-0_計極細
  6
DASHED2
 62
    2
 10
1229.7095222095024
 20
651.66021900100668
 11
1236.7095218832137
 21
658.66021867471784
  0
LINE
  8
_0-0_計極細
  6
DASHED2
 62
    2
 10
1216.9816001481449
 20
651.66021900100668
 11
1223.9815999214252
 21
658.66021877428705
  0
LINE
  8
_0-0_計極細
  6
DASHED2
 62
    2
 10
1204.2536780867867
 20
651.66021900100668
 11
1211.2536779596367
 21
658.66021887385602
  0
LINE
  8
_0-0_計極細
  6
DASHED2
 62
    2
 10
1195
 20
655.13446297557732
 11
1198.5257559978479
 21
658.66021897342523
  0
LINE
  8
_0-0_計極細
  6
CONTINUOUS
 62
    2
 10
1195
 20
653.86167076944162
 11
1192.7985482315653
 21
651.66021900100668
  0
LINE
  8
_0-0_計極細
  6
CONTINUOUS
 62
    2
 10
1195
 20
656.40725518171325
 11
1190.2529638192937
 21
651.66021900100668
  0
LINE
  8
_0-0_計極細
  6
CONTINUOUS
 62
    2
 10
1190
 20
653.95283959398489
 11
1194.707379407022
 21
658.66021900100679
  0
LINE
  8
_0-0_計極細
  6
CONTINUOUS
 62
    2
 10
1190
 20
656.49842400625619
 11
1192.1617949947504
 21
658.66021900100668
  0
LINE
  8
_0-0_計極細
  6
CONTINUOUS
 62
    2
 10
1195
 20
657.75462567530349
 11
1194.0944066742966
 21
658.66021900100679
  0
LINE
  8
_0-0_計極細
  6
CONTINUOUS
 62
    2
 10
1195
 20
655.20904126303185
 11
1191.5488222620252
 21
658.66021900100679
  0
LINE
  8
_0-0_計極細
  6
CONTINUOUS
 62
    2
 10
1195
 20
652.66345685076033
 11
1190
 21
657.66345685076033
  0
LINE
  8
_0-0_計極細
  6
CONTINUOUS
 62
    2
 10
1193.4576534374819
 20
651.66021900100668
 11
1190
 21
655.11787243848869
  0
LINE
  8
_0-0_計極細
  6
CONTINUOUS
 62
    2
 10
1190.9120690252103
 20
651.66021900100668
 11
1190
 21
652.57228802621728
  0
LINE
  8
_0-0_計極細
  6
CONTINUOUS
 62
    2
 10
1190
 20
658.16021900100679
 11
1190
 21
658.66021900100679
  0
LINE
  8
_0-0_計極細
  6
CONTINUOUS
 62
    2
 10
1190
 20
658.66021900100679
 11
1195
 21
658.66021900100679
  0
LINE
  8
_0-0_計極細
  6
CONTINUOUS
 62
    2
 10
1190
 20
651.66021900100668
 11
1248.5066482870689
 21
651.66021900100668
  0
LINE
  8
_0-0_計極細
  6
CONTINUOUS
 62
    2
 10
1195
 20
658.66021900100679
 11
1248.5066482870689
 21
658.66021900100679
  0
LINE
  8
_0-0_計極細
  6
CONTINUOUS
 62
    2
 10
1195
 20
658.66021900100679
 11
1195
 21
651.66021900100668
  0
CIRCLE
  8
_0-0_計極細
  6
CONTINUOUS
 62
    2
 10
1165.7601436780888
 20
584.07152451026252
 40
1.0953188836088352
  0
CIRCLE
  8
_0-0_計極細
  6
CONTINUOUS
 62
    2
 10
1163.9912547892
 20
627.64485784359556
 40
1.0953188836088352
  0
CIRCLE
  8
_0-0_計極細
  6
CONTINUOUS
 62
    2
 10
1164.3745881225341
 20
588.07282080655887
 40
0.3318518518518431
  0
CIRCLE
  8
_0-0_計極細
  6
CONTINUOUS
 62
    2
 10
1163.5906375052498
 20
611.62615413989158
 40
0.3318518518518431
  0
LINE
  8
_0-0_計極細
  6
CONTINUOUS
 62
    2
 10
1160
 20
635.66021900100691
 11
1160
 21
574.9152588241393
  0
LINE
  8
_0-0_計極細
  6
CONTINUOUS
 62
    2
 10
1160.4999999999991
 20
635.66021900100691
 11
1160
 21
635.66021900100691
  0
CIRCLE
  8
_0-0_計極細
  6
CONTINUOUS
 62
    2
 10
1201.9968103447554
 20
650.37948747322491
 40
0.3318518518518431
  0
CIRCLE
  8
_0-0_計極細
  6
CONTINUOUS
 62
    2
 10
1214.7968103447554
 20
642.98819117692869
 40
1.0953188836088352
  0
CIRCLE
  8
_0-0_計極細
  6
CONTINUOUS
 62
    2
 10
1214.7168103447555
 20
646.77948747322489
 40
0.3318518518518431
  0
CIRCLE
  8
_0-0_計極細
  6
CONTINUOUS
 62
    2
 10
1233.196810344755
 20
649.81948747322485
 40
0.3318518518518431
  0
CIRCLE
  8
_0-0_計極細
  6
CONTINUOUS
 62
    2
 10
1168.5738473817937
 20
606.55093459937405
 40
0.3318518518518431
  0
CIRCLE
  8
_0-0_計極細
  6
CONTINUOUS
 62
    2
 10
1168.4538473817929
 20
620.92426793270693
 40
0.3318518518518431
  0
CIRCLE
  8
_0-0_計極細
  6
CONTINUOUS
 62
    2
 10
1196.9334770114219
 20
624.17819117692864
 40
1.0953188836088352
  0
CIRCLE
  8
_0-0_計極細
  6
CONTINUOUS
 62
    2
 10
1227.3325925925919
 20
592.14595974174745
 40
1.0953188836088352
  0
CIRCLE
  8
_0-0_計極細
  6
CONTINUOUS
 62
    2
 10
1199.573477011422
 20
598.25819117692936
 40
1.0953188836088352
  0
CIRCLE
  8
_0-0_計極細
  6
CONTINUOUS
 62
    2
 10
1178.4534770114221
 20
611.69819117692907
 40
1.0953188836088352
  0
CIRCLE
  8
_0-0_計極細
  6
CONTINUOUS
 62
    2
 10
1172.3201436780898
 20
593.778191176929
 40
1.0953188836088352
  0
CIRCLE
  8
_0-0_計極細
  6
CONTINUOUS
 62
    2
 10
1214.5568103447549
 20
620.50819117692913
 40
1.0953188836088352
  0
CIRCLE
  8
_0-0_計極細
  6
CONTINUOUS
 62
    2
 10
1195.3568103447558
 20
639.70819117692872
 40
1.0953188836088352
  0
CIRCLE
  8
_0-0_計極細
  6
CONTINUOUS
 62
    2
 10
1228.6101436780882
 20
635.76152451026235
 40
1.0953188836088352
  0
CIRCLE
  8
_0-0_計極細
  6
CONTINUOUS
 62
    2
 10
1237.9968103447547
 20
645.04152451026187
 40
1.0953188836088352
  0
CIRCLE
  8
_0-0_計極細
  6
CONTINUOUS
 62
    2
 10
1240.8768103447549
 20
636.77948747322512
 40
0.3318518518518431
  0
CIRCLE
  8
_0-0_計極細
  6
CONTINUOUS
 62
    2
 10
1223.1168103447546
 20
624.05948747322532
 40
0.3318518518518431
  0
CIRCLE
  8
_0-0_計極細
  6
CONTINUOUS
 62
    2
 10
1224.7968103447547
 20
640.13948747322502
 40
0.3318518518518431
  0
CIRCLE
  8
_0-0_計極細
  6
CONTINUOUS
 62
    2
 10
1214.7168103447555
 20
628.37948747322514
 40
0.3318518518518431
  0
CIRCLE
  8
_0-0_計極細
  6
CONTINUOUS
 62
    2
 10
1225.516810344755
 20
615.65948747322523
 40
0.3318518518518431
  0
CIRCLE
  8
_0-0_計極細
  6
CONTINUOUS
 62
    2
 10
1226.476810344755
 20
603.17948747322509
 40
0.3318518518518431
  0
CIRCLE
  8
_0-0_計極細
  6
CONTINUOUS
 62
    2
 10
1222.1568103447553
 20
594.77948747322569
 40
0.3318518518518431
  0
CIRCLE
  8
_0-0_計極細
  6
CONTINUOUS
 62
    2
 10
1198.6368103447555
 20
626.69948747322542
 40
0.3318518518518431
  0
CIRCLE
  8
_0-0_計極細
  6
CONTINUOUS
 62
    2
 10
1193.2768103447552
 20
635.52615413989145
 40
0.3318518518518431
  0
CIRCLE
  8
_0-0_計極細
  6
CONTINUOUS
 62
    2
 10
1194.7701436780887
 20
647.36615413989159
 40
0.3318518518518431
  0
CIRCLE
  8
_0-0_計極細
  6
CONTINUOUS
 62
    2
 10
1200.4634770114224
 20
602.95282080655841
 40
0.3318518518518431
  0
CIRCLE
  8
_0-0_計極細
  6
CONTINUOUS
 62
    2
 10
1193.7434770114223
 20
599.59282080655873
 40
0.3318518518518431
  0
CIRCLE
  8
_0-0_計極細
  6
CONTINUOUS
 62
    2
 10
1200.9434770114221
 20
594.15282080655879
 40
0.3318518518518431
  0
CIRCLE
  8
_0-0_計極細
  6
CONTINUOUS
 62
    2
 10
1184.7834770114223
 20
593.99282080655894
 40
0.3318518518518431
  0
CIRCLE
  8
_0-0_計極細
  6
CONTINUOUS
 62
    2
 10
1176.4634770114226
 20
596.87282080655848
 40
0.3318518518518431
  0
CIRCLE
  8
_0-0_計極細
  6
CONTINUOUS
 62
    2
 10
1169.5834770114225
 20
578.95282080655898
 40
0.3318518518518431
  0
CIRCLE
  8
_0-0_計極細
  6
CONTINUOUS
 62
    2
 10
1175.1834770114228
 20
589.67282080655878
 40
0.3318518518518431
  0
CIRCLE
  8
_0-0_計極細
  6
CONTINUOUS
 62
    2
 10
1185.8834770114227
 20
603.65282080655879
 40
0.3318518518518431
  0
CIRCLE
  8
_0-0_計極細
  6
CONTINUOUS
 62
    2
 10
1175.3634770114222
 20
613.86615413989205
 40
0.3318518518518431
  0
CIRCLE
  8
_0-0_計極細
  6
CONTINUOUS
 62
    2
 10
1177.816810344756
 20
628.85282080655861
 40
0.3318518518518431
  0
CIRCLE
  8
_0-0_計極細
  6
CONTINUOUS
 62
    2
 10
1171.8434770114227
 20
625.9728208065585
 40
0.3318518518518431
  0
LINE
  8
_0-0_計極細
  6
CONTINUOUS
 62
    2
 10
1234.9740014487561
 20
574.9152588241393
 11
1248.5066483119933
 21
588.44790568737699
  0
LINE
  8
_0-0_計極細
  6
CONTINUOUS
 62
    2
 10
1192.5475945775631
 20
574.9152588241393
 11
1208.2925547544301
 21
590.66021900100691
  0
LINE
  8
_0-0_計極細
  6
CONTINUOUS
 62
    2
 10
1229.9999999999998
 20
612.36766424657651
 11
1248.5066482875218
 21
630.87431253409864
  0
LINE
  8
_0-0_計極細
  6
CONTINUOUS
 62
    2
 10
1230.7313607616363
 20
574.9152588241393
 11
1248.5066483095461
 21
592.69054637204908
  0
LINE
  8
_0-0_計極細
  6
CONTINUOUS
 62
    2
 10
1188.3049538904434
 20
574.9152588241393
 11
1204.049914067311
 21
590.66021900100691
  0
LINE
  8
_0-0_計極細
  6
CONTINUOUS
 62
    2
 10
1229.9999999999998
 20
616.61030493369594
 11
1245.0499139595804
 21
631.66021889327658
  0
LINE
  8
_0-0_計極細
  6
CONTINUOUS
 62
    2
 10
1226.488720074517
 20
574.9152588241393
 11
1248.5066483070987
 21
596.93318705672118
  0
LINE
  8
_0-0_計極細
  6
CONTINUOUS
 62
    2
 10
1184.0623132033243
 20
574.9152588241393
 11
1199.8072733801919
 21
590.66021900100691
  0
LINE
  8
_0-0_計極細
  6
CONTINUOUS
 62
    2
 10
1229.9999999999998
 20
620.85294562081515
 11
1240.8072733028312
 21
631.66021892364631
  0
LINE
  8
_0-0_計極細
  6
CONTINUOUS
 62
    2
 10
1180
 20
590.66021900100691
 11
1180
 21
574.9152588241393
  0
LINE
  8
_0-0_計極細
  6
CONTINUOUS
 62
    2
 10
1229.9999999999998
 20
631.66021900100702
 11
1248.5066482870689
 21
631.66021900100702
  0
LINE
  8
_0-0_計極細
  6
CONTINUOUS
 62
    2
 10
1180
 20
590.66021900100691
 11
1229.9999999999998
 21
590.66021900100691
  0
LINE
  8
_0-0_計極細
  6
CONTINUOUS
 62
    2
 10
1229.9999999999998
 20
631.66021900100702
 11
1229.9999999999998
 21
590.66021900100691
  0
CIRCLE
  8
_0-0_計極細
  6
CONTINUOUS
 62
    2
 10
962.10792145586834
 20
646.89485784359454
 40
1.0953188836088352
  0
LINE
  8
_0-0_計極細
  6
CONTINUOUS
 62
    2
 10
969.69880819342154
 20
651.66021899733028
 11
974.99999999999989
 21
656.96141080390873
  0
LINE
  8
_0-0_計極細
  6
CONTINUOUS
 62
    2
 10
956.97088612323682
 20
651.66021898850363
 11
963.9708861357401
 21
658.66021900100668
  0
LINE
  8
_0-0_計極細
  6
CONTINUOUS
 62
    2
 10
944.24296405305222
 20
651.66021897967676
 11
951.24296407438192
 21
658.66021900100679
  0
LINE
  8
_0-0_計極細
  6
CONTINUOUS
 62
    2
 10
931.51504198286773
 20
651.66021897085011
 11
938.51504201302419
 21
658.66021900100679
  0
LINE
  8
_0-0_計極細
  6
CONTINUOUS
 62
    2
 10
921.49335171293103
 20
654.36645076227126
 11
925.78711995166623
 21
658.66021900100668
  0
LINE
  8
_0-0_計極細
  6
DASHED2
 62
    2
 10
963.33484715832913
 20
651.66021899291695
 11
970.33484716641919
 21
658.66021900100679
  0
LINE
  8
_0-0_計極細
  6
DASHED2
 62
    2
 10
950.60692508814441
 20
651.66021898409008
 11
957.60692510506135
 21
658.66021900100679
  0
LINE
  8
_0-0_計極細
  6
DASHED2
 62
    2
 10
937.8790030179598
 20
651.66021897526343
 11
944.87900304370316
 21
658.66021900100679
  0
LINE
  8
_0-0_計極細
  6
DASHED2
 62
    2
 10
925.15108094777531
 20
651.66021896643679
 11
932.15108098234532
 21
658.66021900100679
  0
LINE
  8
_0-0_計極細
  6
CONTINUOUS
 62
    2
 10
979.88114584618415
 20
651.66021900100668
 11
979.99999999999989
 21
651.77907315482241
  0
LINE
  8
_0-0_計極細
  6
CONTINUOUS
 62
    2
 10
977.33556143391252
 20
651.66021900100668
 11
980
 21
654.32465756709394
  0
LINE
  8
_0-0_計極細
  6
CONTINUOUS
 62
    2
 10
974.99999999999989
 20
651.87024197936557
 11
980
 21
656.87024197936535
  0
LINE
  8
_0-0_計極細
  6
CONTINUOUS
 62
    2
 10
974.99999999999989
 20
654.41582639163698
 11
979.24439260936936
 21
658.66021900100679
  0
LINE
  8
_0-0_計極細
  6
CONTINUOUS
 62
    2
 10
974.99999999999989
 20
656.96141080390873
 11
976.69880819709783
 21
658.66021900100679
  0
LINE
  8
_0-0_計極細
  6
CONTINUOUS
 62
    2
 10
980
 20
657.29163887765151
 11
978.63141987664505
 21
658.66021900100679
  0
LINE
  8
_0-0_計極細
  6
CONTINUOUS
 62
    2
 10
980
 20
654.7460544653801
 11
976.08583546437319
 21
658.66021900100679
  0
LINE
  8
_0-0_計極細
  6
CONTINUOUS
 62
    2
 10
974.99999999999989
 20
657.20047005310846
 11
980
 21
652.20047005310857
  0
LINE
  8
_0-0_計極細
  6
CONTINUOUS
 62
    2
 10
974.99999999999989
 20
654.65488564083694
 11
977.9946666398298
 21
651.66021900100668
  0
LINE
  8
_0-0_計極細
  6
CONTINUOUS
 62
    2
 10
974.99999999999989
 20
652.1093012285653
 11
975.44908222755851
 21
651.66021900100668
  0
LINE
  8
_0-0_計極細
  6
CONTINUOUS
 62
    2
 10
980
 20
658.16021900100679
 11
980
 21
658.66021900100679
  0
LINE
  8
_0-0_計極細
  6
CONTINUOUS
 62
    2
 10
980
 20
658.66021900100679
 11
974.99999999999989
 21
658.66021900100679
  0
LINE
  8
_0-0_計極細
  6
CONTINUOUS
 62
    2
 10
980
 20
651.66021900100668
 11
921.49335171293103
 21
651.66021900100668
  0
LINE
  8
_0-0_計極細
  6
CONTINUOUS
 62
    2
 10
974.99999999999989
 20
658.66021900100679
 11
921.49335171293103
 21
658.66021900100679
  0
LINE
  8
_0-0_計極細
  6
CONTINUOUS
 62
    2
 10
974.99999999999989
 20
658.66021900100679
 11
974.99999999999989
 21
651.66021900100668
  0
CIRCLE
  8
_0-0_計極細
  6
CONTINUOUS
 62
    2
 10
998.65014367808749
 20
614.60152451026272
 40
1.0953188836088352
  0
CIRCLE
  8
_0-0_計極細
  6
CONTINUOUS
 62
    2
 10
1006.0723659003124
 20
579.64862263110126
 40
0.3318518518518431
  0
CIRCLE
  8
_0-0_計極細
  6
CONTINUOUS
 62
    2
 10
1005.2723659003124
 20
593.24226525100312
 40
0.3318518518518431
  0
CIRCLE
  8
_0-0_計極細
  6
CONTINUOUS
 62
    2
 10
1005.8675395114224
 20
626.06819117692896
 40
1.0953188836088352
  0
LINE
  8
_0-0_計極細
  6
CONTINUOUS
 62
    2
 10
1010
 20
635.66021900100691
 11
1010
 21
574.9152588241393
  0
LINE
  8
_0-0_計極細
  6
CONTINUOUS
 62
    2
 10
1009.4999999999999
 20
635.66021900100691
 11
1010
 21
635.66021900100691
  0
CIRCLE
  8
_0-0_計極細
  6
CONTINUOUS
 62
    2
 10
926.31462413258191
 20
644.68152451026197
 40
1.0953188836088352
  0
CIRCLE
  8
_0-0_計極細
  6
CONTINUOUS
 62
    2
 10
998.98347701142313
 20
582.46819117692928
 40
1.0953188836088352
  0
CIRCLE
  8
_0-0_計極細
  6
CONTINUOUS
 62
    2
 10
996.10347701142359
 20
593.66819117692921
 40
1.0953188836088352
  0
CIRCLE
  8
_0-0_計極細
  6
CONTINUOUS
 62
    2
 10
974.51681034475678
 20
595.82819117692918
 40
1.0953188836088352
  0
CIRCLE
  8
_0-0_計極細
  6
CONTINUOUS
 62
    2
 10
942.59681034475716
 20
603.50819117692924
 40
1.0953188836088352
  0
CIRCLE
  8
_0-0_計極細
  6
CONTINUOUS
 62
    2
 10
954.35681034475692
 20
626.30819117692886
 40
1.0953188836088352
  0
CIRCLE
  8
_0-0_計極細
  6
CONTINUOUS
 62
    2
 10
967.79681034475698
 20
620.22819117692882
 40
1.0953188836088352
  0
CIRCLE
  8
_0-0_計極細
  6
CONTINUOUS
 62
    2
 10
938.43287185722932
 20
644.14595974174756
 40
1.0953188836088352
  0
CIRCLE
  8
_0-0_計極細
  6
CONTINUOUS
 62
    2
 10
969.49014367809036
 20
639.98819117692869
 40
1.0953188836088352
  0
CIRCLE
  8
_0-0_計極細
  6
CONTINUOUS
 62
    2
 10
981.66347701142354
 20
626.79782080655855
 40
0.3318518518518431
  0
CIRCLE
  8
_0-0_計極細
  6
CONTINUOUS
 62
    2
 10
1002.81014367809
 20
608.95782080655863
 40
0.3318518518518431
  0
CIRCLE
  8
_0-0_計極細
  6
CONTINUOUS
 62
    2
 10
1002.4901436780902
 20
619.73115413989183
 40
0.3318518518518431
  0
CIRCLE
  8
_0-0_計極細
  6
CONTINUOUS
 62
    2
 10
993.4234770114233
 20
625.7044874732253
 40
0.3318518518518431
  0
CIRCLE
  8
_0-0_計極細
  6
CONTINUOUS
 62
    2
 10
984.57014367809006
 20
605.22448747322539
 40
0.3318518518518431
  0
CIRCLE
  8
_0-0_計極細
  6
CONTINUOUS
 62
    2
 10
994.57014367809006
 20
579.05559858433662
 40
0.3318518518518431
  0
CIRCLE
  8
_0-0_計極細
  6
CONTINUOUS
 62
    2
 10
998.73014367809014
 20
588.01559858433666
 40
0.3318518518518431
  0
CIRCLE
  8
_0-0_計極細
  6
CONTINUOUS
 62
    2
 10
990.51681034475678
 20
596.97559858433647
 40
0.3318518518518431
  0
CIRCLE
  8
_0-0_計極細
  6
CONTINUOUS
 62
    2
 10
982.73014367809071
 20
595.05559858433662
 40
0.3318518518518431
  0
CIRCLE
  8
_0-0_計極細
  6
CONTINUOUS
 62
    2
 10
970.78347701142388
 20
594.41559858433664
 40
0.3318518518518431
  0
CIRCLE
  8
_0-0_計極細
  6
CONTINUOUS
 62
    2
 10
972.9168103447571
 20
599.96226525100326
 40
0.3318518518518431
  0
CIRCLE
  8
_0-0_計極細
  6
CONTINUOUS
 62
    2
 10
969.18347701142375
 20
601.45559858433614
 40
0.3318518518518431
  0
CIRCLE
  8
_0-0_計極細
  6
CONTINUOUS
 62
    2
 10
975.903477011424
 20
604.76226525100333
 40
0.3318518518518431
  0
CIRCLE
  8
_0-0_計極細
  6
CONTINUOUS
 62
    2
 10
952.32347701142385
 20
594.02893191766998
 40
0.3318518518518431
  0
CIRCLE
  8
_0-0_計極細
  6
CONTINUOUS
 62
    2
 10
948.5901436780905
 20
599.14893191766976
 40
0.3318518518518431
  0
CIRCLE
  8
_0-0_計極細
  6
CONTINUOUS
 62
    2
 10
943.36347701142381
 20
595.09559858433647
 40
0.3318518518518431
  0
CIRCLE
  8
_0-0_計極細
  6
CONTINUOUS
 62
    2
 10
946.77681034475711
 20
605.86893191766967
 40
0.3318518518518431
  0
CIRCLE
  8
_0-0_計極細
  6
CONTINUOUS
 62
    2
 10
971.44347701142351
 20
622.13559858433632
 40
0.3318518518518431
  0
CIRCLE
  8
_0-0_計極細
  6
CONTINUOUS
 62
    2
 10
955.01681034475746
 20
617.76226525100299
 40
0.3318518518518431
  0
CIRCLE
  8
_0-0_計極細
  6
CONTINUOUS
 62
    2
 10
963.87014367809024
 20
625.86893191766967
 40
0.3318518518518431
  0
CIRCLE
  8
_0-0_計極細
  6
CONTINUOUS
 62
    2
 10
971.44347701142351
 20
629.28226525100285
 40
0.3318518518518431
  0
CIRCLE
  8
_0-0_計極細
  6
CONTINUOUS
 62
    2
 10
956.40347701142355
 20
631.52226525100309
 40
0.3318518518518431
  0
CIRCLE
  8
_0-0_計極細
  6
CONTINUOUS
 62
    2
 10
944.13681034475746
 20
632.26893191766953
 40
0.3318518518518431
  0
CIRCLE
  8
_0-0_計極細
  6
CONTINUOUS
 62
    2
 10
953.41014367809055
 20
648.56893191766915
 40
0.3318518518518431
  0
CIRCLE
  8
_0-0_計極細
  6
CONTINUOUS
 62
    2
 10
960.4501436780904
 20
639.60893191766945
 40
0.3318518518518431
  0
CIRCLE
  8
_0-0_計極細
  6
CONTINUOUS
 62
    2
 10
975.38347701142379
 20
639.92893191766939
 40
0.3318518518518431
  0
CIRCLE
  8
_0-0_計極細
  6
CONTINUOUS
 62
    2
 10
971.97014367809015
 20
649.63559858433587
 40
0.3318518518518431
  0
CIRCLE
  8
_0-0_計極細
  6
CONTINUOUS
 62
    2
 10
957.0368103447571
 20
643.66226525100274
 40
0.3318518518518431
  0
CIRCLE
  8
_0-0_計極細
  6
CONTINUOUS
 62
    2
 10
939.97014367809072
 20
636.622265251003
 40
0.3318518518518431
  0
CIRCLE
  8
_0-0_計極細
  6
CONTINUOUS
 62
    2
 10
932.39681034475768
 20
635.44893191766937
 40
0.3318518518518431
  0
CIRCLE
  8
_0-0_計極細
  6
CONTINUOUS
 62
    2
 10
926.03236590031304
 20
634.80893191766972
 40
0.3318518518518431
  0
CIRCLE
  8
_0-0_計極細
  6
CONTINUOUS
 62
    2
 10
932.23088441883135
 20
640.78226525100263
 40
0.3318518518518431
  0
LINE
  8
_0-0_計極細
  6
CONTINUOUS
 62
    2
 10
967.5468152610058
 20
574.91525889400134
 11
983.29177536801126
 21
590.66021900100691
  0
LINE
  8
_0-0_計極細
  6
CONTINUOUS
 62
    2
 10
925.1204085218211
 20
574.91525902600961
 11
940.86536849681863
 21
590.66021900100691
  0
LINE
  8
_0-0_計極細
  6
CONTINUOUS
 62
    2
 10
921.49335171293103
 20
613.71460908831227
 11
939.43896162562578
 21
631.66021900100702
  0
LINE
  8
_0-0_計極細
  6
CONTINUOUS
 62
    2
 10
963.30417458708769
 20
574.91525890720197
 11
979.04913468089217
 21
590.66021900100691
  0
LINE
  8
_0-0_計極細
  6
CONTINUOUS
 62
    2
 10
921.49335171293103
 20
575.53084290423851
 11
939.99999999999955
 21
594.03749119130748
  0
LINE
  8
_0-0_計極細
  6
CONTINUOUS
 62
    2
 10
921.49335171293103
 20
617.95724977543148
 11
935.19632093850646
 21
631.66021900100702
  0
LINE
  8
_0-0_計極細
  6
CONTINUOUS
 62
    2
 10
959.06153391316923
 20
574.91525892040295
 11
974.80649399377285
 21
590.66021900100691
  0
LINE
  8
_0-0_計極細
  6
CONTINUOUS
 62
    2
 10
921.49335171293103
 20
579.77348359135772
 11
939.99999999999955
 21
598.28013187842669
  0
LINE
  8
_0-0_計極細
  6
CONTINUOUS
 62
    2
 10
921.49335171293103
 20
622.19989046255057
 11
930.95368025138725
 21
631.66021900100702
  0
LINE
  8
_0-0_計極細
  6
CONTINUOUS
 62
    2
 10
989.99999999999989
 20
590.66021900100691
 11
989.99999999999989
 21
574.9152588241393
  0
LINE
  8
_0-0_計極細
  6
CONTINUOUS
 62
    2
 10
939.99999999999955
 20
631.66021900100702
 11
921.49335171293103
 21
631.66021900100702
  0
LINE
  8
_0-0_計極細
  6
CONTINUOUS
 62
    2
 10
989.99999999999989
 20
590.66021900100691
 11
939.99999999999955
 21
590.66021900100691
  0
LINE
  8
_0-0_計極細
  6
CONTINUOUS
 62
    2
 10
939.99999999999955
 20
631.66021900100702
 11
939.99999999999955
 21
590.66021900100691
  0
LINE
  8
_0-0_計極細
  6
CENTER1
 62
    2
 10
1085
 20
628.94872130973715
 11
1085
 21
667.01872130974084
  0
LINE
  8
_0-1_計細線
  6
CONTINUOUS
 62
    3
 10
1190.0000000000002
 20
647.66021900100679
 11
1190.0000000000002
 21
612.66021900100679
  0
LINE
  8
_0-1_計細線
  6
CONTINUOUS
 62
    3
 10
1190.0000000000002
 20
612.66021900100679
 11
1192.3000000000002
 21
612.66021900100679
  0
LINE
  8
_0-1_計細線
  6
CONTINUOUS
 62
    3
 10
1192.3000000000002
 20
612.66021900100679
 11
1192.3000000000002
 21
647.66021900100679
  0
LINE
  8
_0-1_計細線
  6
CONTINUOUS
 62
    3
 10
1192.3000000000002
 20
647.66021900100679
 11
1190.0000000000002
 21
647.66021900100679
  0
LINE
  8
_0-0_計極細
  6
CONTINUOUS
 62
    2
 10
1192.3000000000002
 20
631.66021900100679
 11
1190.0000000000002
 21
631.66021900100679
  0
LINE
  8
_0-0_計極細
  6
CONTINUOUS
 62
    2
 10
1192.3000000000002
 20
633.66021900100679
 11
1190.0000000000002
 21
633.66021900100679
  0
LINE
  8
_0-0_計極細
  6
CONTINUOUS
 62
    2
 10
1192.3000000000002
 20
629.66021900100691
 11
1190.0000000000002
 21
629.66021900100691
  0
LINE
  8
_0-0_計極細
  6
CONTINUOUS
 62
    2
 10
1192.3000000000002
 20
635.66021900100679
 11
1190.0000000000002
 21
635.66021900100679
  0
LINE
  8
_0-0_計極細
  6
CONTINUOUS
 62
    2
 10
1190.0000000000002
 20
615.66021900100679
 11
1192.3000000000002
 21
615.66021900100679
  0
LINE
  8
_0-0_計極細
  6
CONTINUOUS
 62
    2
 10
1192.3000000000002
 20
645.66021900100679
 11
1190.0000000000002
 21
645.66021900100679
  0
LINE
  8
_0-7_枠細線
  6
CONTINUOUS
 62
    5
 10
1208.9140288208207
 20
632.80830283207126
 11
1201.4140288208207
 21
647.80830283207126
  0
LINE
  8
_0-7_枠細線
  6
CONTINUOUS
 62
    5
 10
1193.9140288208207
 20
632.80830283207126
 11
1208.9140288208207
 21
632.80830283207126
  0
LINE
  8
_0-7_枠細線
  6
CONTINUOUS
 62
    5
 10
1201.4140288208207
 20
647.80830283207126
 11
1193.9140288208207
 21
632.80830283207126
  0
TEXT
  8
_0-7_枠細線
 62
    5
 10
1196.2791800889688
 20
631.85948286722135
 40
12.5
 41
0.8
 50
0
  1
５
  0
LINE
  8
_0-1_計細線
  6
CONTINUOUS
 62
    3
 10
980
 20
647.66021900100679
 11
980
 21
612.66021900100679
  0
LINE
  8
_0-1_計細線
  6
CONTINUOUS
 62
    3
 10
980
 20
612.66021900100679
 11
977.70000000000005
 21
612.66021900100679
  0
LINE
  8
_0-1_計細線
  6
CONTINUOUS
 62
    3
 10
977.70000000000005
 20
612.66021900100679
 11
977.70000000000005
 21
647.66021900100679
  0
LINE
  8
_0-1_計細線
  6
CONTINUOUS
 62
    3
 10
977.70000000000005
 20
647.66021900100679
 11
980
 21
647.66021900100679
  0
LINE
  8
_0-0_計極細
  6
CONTINUOUS
 62
    2
 10
977.70000000000005
 20
631.66021900100679
 11
980
 21
631.66021900100679
  0
LINE
  8
_0-0_計極細
  6
CONTINUOUS
 62
    2
 10
977.70000000000005
 20
633.66021900100679
 11
980
 21
633.66021900100679
  0
LINE
  8
_0-0_計極細
  6
CONTINUOUS
 62
    2
 10
977.70000000000005
 20
629.66021900100691
 11
980
 21
629.66021900100691
  0
LINE
  8
_0-0_計極細
  6
CONTINUOUS
 62
    2
 10
977.70000000000005
 20
635.66021900100679
 11
980
 21
635.66021900100679
  0
LINE
  8
_0-0_計極細
  6
CONTINUOUS
 62
    2
 10
980
 20
615.66021900100679
 11
977.70000000000005
 21
615.66021900100679
  0
LINE
  8
_0-0_計極細
  6
CONTINUOUS
 62
    2
 10
977.70000000000005
 20
645.66021900100679
 11
980
 21
645.66021900100679
  0
LINE
  8
_0-1_計細線
  6
CONTINUOUS
 62
    3
 10
1087.3500000000004
 20
658.45999999999822
 11
1087.3500000000004
 21
639.45999999999776
  0
LINE
  8
_0-1_計細線
  6
CONTINUOUS
 62
    3
 10
1082.6500000000001
 20
639.45999999999776
 11
1082.6500000000001
 21
658.45999999999822
  0
LINE
  8
_0-1_計細線
  6
CONTINUOUS
 62
    3
 10
1087.3500000000004
 20
639.45999999999776
 11
1082.6500000000001
 21
639.45999999999776
  0
LINE
  8
_0-1_計細線
  6
CONTINUOUS
 62
    3
 10
1082.6500000000001
 20
658.45999999999822
 11
1087.3500000000004
 21
658.45999999999822
  0
LINE
  8
_0-1_計細線
  6
DASHED2
 62
    3
 10
1082.6500000000001
 20
642.45999999999765
 11
1087.3500000000004
 21
642.45999999999765
  0
LINE
  8
_0-1_計細線
  6
DASHED2
 62
    3
 10
1082.6500000000001
 20
655.95999999999799
 11
1087.3500000000004
 21
655.95999999999799
  0
LINE
  8
_0-5_寸法線
  6
CONTINUOUS
 62
    7
 10
1076.8084795571094
 20
644.39576436351058
 11
1057.2353786102756
 21
658.10099719262303
  0
LINE
  8
_0-5_寸法線
  6
CONTINUOUS
 62
    7
 10
1061.3311388317206
 20
655.23311501086766
 11
1058.7429483806955
 21
664.89237327375849
  0
LINE
  8
_0-5_寸法線
  6
CONTINUOUS
 62
    7
 10
1061.3311388317206
 20
655.23311501086766
 11
1063.9193292827458
 21
664.89237327375849
  0
LINE
  8
_0-5_寸法線
  6
CONTINUOUS
 62
    7
 10
1076.8084795571094
 20
664.39576436351081
 11
1057.2353786102756
 21
678.10099719262314
  0
LINE
  8
_0-5_寸法線
  6
CONTINUOUS
 62
    7
 10
1061.3311388317206
 20
675.233115010868
 11
1063.9193292827458
 21
665.57385674797717
  0
LINE
  8
_0-5_寸法線
  6
CONTINUOUS
 62
    7
 10
1061.3311388317206
 20
675.233115010868
 11
1058.7429483806955
 21
665.57385674797717
  0
LINE
  8
_0-5_寸法線
  6
CONTINUOUS
 62
    7
 10
1061.3311388317206
 20
655.23311501086766
 11
1061.3311388317206
 21
675.233115010868
  0
TEXT
  8
_0-5_寸法線
 62
    7
 10
1061.3311388317206
 20
657.733115010868
 40
15
 41
1
 50
90
  1
20
  0
LINE
  8
_0-5_寸法線
  6
CONTINUOUS
 62
    7
 10
970
 20
658.66021900100736
 11
922.70000000000005
 21
658.66021900100736
  0
LINE
  8
_0-5_寸法線
  6
CONTINUOUS
 62
    7
 10
927.70000000000005
 20
658.66021900100736
 11
930.28819045102523
 21
649.00096073811653
  0
LINE
  8
_0-5_寸法線
  6
CONTINUOUS
 62
    7
 10
927.70000000000005
 20
658.66021900100736
 11
925.11180954897497
 21
649.00096073811653
  0
LINE
  8
_0-5_寸法線
  6
CONTINUOUS
 62
    7
 10
967.70000000000005
 20
635.66021900100679
 11
922.70000000000005
 21
635.66021900100679
  0
LINE
  8
_0-5_寸法線
  6
CONTINUOUS
 62
    7
 10
927.70000000000005
 20
635.66021900100679
 11
925.11180954897497
 21
645.31947726389762
  0
LINE
  8
_0-5_寸法線
  6
CONTINUOUS
 62
    7
 10
927.70000000000005
 20
635.66021900100679
 11
930.28819045102523
 21
645.31947726389762
  0
LINE
  8
_0-5_寸法線
  6
CONTINUOUS
 62
    7
 10
927.70000000000005
 20
658.66021900100736
 11
927.70000000000005
 21
635.66021900100679
  0
TEXT
  8
_0-5_寸法線
 62
    7
 10
927.70000000000005
 20
639.66021900100691
 40
15
 41
1
 50
90
  1
23
  0
LINE
  8
_0-5_寸法線
  6
CONTINUOUS
 62
    7
 10
967.70000000000005
 20
635.66021900100679
 11
922.70000000000005
 21
635.66021900100679
  0
LINE
  8
_0-5_寸法線
  6
CONTINUOUS
 62
    7
 10
927.70000000000005
 20
635.66021900100679
 11
930.28819045102523
 21
626.00096073811619
  0
LINE
  8
_0-5_寸法線
  6
CONTINUOUS
 62
    7
 10
927.70000000000005
 20
635.66021900100679
 11
925.11180954897497
 21
626.00096073811619
  0
LINE
  8
_0-5_寸法線
  6
CONTINUOUS
 62
    7
 10
967.70000000000005
 20
612.66021900100679
 11
922.70000000000005
 21
612.66021900100679
  0
LINE
  8
_0-5_寸法線
  6
CONTINUOUS
 62
    7
 10
927.70000000000005
 20
612.66021900100679
 11
925.11180954897497
 21
622.31947726389751
  0
LINE
  8
_0-5_寸法線
  6
CONTINUOUS
 62
    7
 10
927.70000000000005
 20
612.66021900100679
 11
930.28819045102523
 21
622.31947726389751
  0
LINE
  8
_0-5_寸法線
  6
CONTINUOUS
 62
    7
 10
927.70000000000005
 20
635.66021900100679
 11
927.70000000000005
 21
612.66021900100679
  0
TEXT
  8
_0-5_寸法線
 62
    7
 10
927.70000000000005
 20
616.66021900100714
 40
15
 41
1
 50
90
  1
23
  0
LINE
  8
_0-5_寸法線
  6
CONTINUOUS
 62
    7
 10
1190
 20
602.66021900100702
 11
1190
 21
557.66021900100679
  0
LINE
  8
_0-5_寸法線
  6
CONTINUOUS
 62
    7
 10
1190
 20
562.66021900100679
 11
1180.3407417371093
 21
560.07202854998161
  0
LINE
  8
_0-5_寸法線
  6
CONTINUOUS
 62
    7
 10
1190
 20
562.66021900100679
 11
1180.3407417371093
 21
565.24840945203198
  0
LINE
  8
_0-5_寸法線
  6
CONTINUOUS
 62
    7
 10
1160
 20
625.66021900100691
 11
1160
 21
557.66021900100679
  0
LINE
  8
_0-5_寸法線
  6
CONTINUOUS
 62
    7
 10
1160
 20
562.66021900100679
 11
1169.6592582628907
 21
565.24840945203198
  0
LINE
  8
_0-5_寸法線
  6
CONTINUOUS
 62
    7
 10
1160
 20
562.66021900100679
 11
1169.6592582628907
 21
560.07202854998161
  0
LINE
  8
_0-5_寸法線
  6
CONTINUOUS
 62
    7
 10
1190
 20
562.66021900100679
 11
1160
 21
562.66021900100679
  0
TEXT
  8
_0-5_寸法線
 62
    7
 10
1167.5
 20
562.66021900100679
 40
15
 41
1
 50
0
  1
30
  0
LINE
  8
_0-5_寸法線
  6
CONTINUOUS
 62
    7
 10
979.99999999999989
 20
602.66021900100702
 11
979.99999999999898
 21
557.66021900100679
  0
LINE
  8
_0-5_寸法線
  6
CONTINUOUS
 62
    7
 10
979.99999999999909
 20
562.66021900100679
 11
989.65925826288981
 21
565.24840945203198
  0
LINE
  8
_0-5_寸法線
  6
CONTINUOUS
 62
    7
 10
979.99999999999909
 20
562.66021900100679
 11
989.65925826288981
 21
560.07202854998161
  0
LINE
  8
_0-5_寸法線
  6
CONTINUOUS
 62
    7
 10
1010
 20
625.66021900100691
 11
1009.9999999999994
 21
557.66021900100679
  0
LINE
  8
_0-5_寸法線
  6
CONTINUOUS
 62
    7
 10
1009.9999999999994
 20
562.66021900100679
 11
1000.3407417371088
 21
560.07202854998161
  0
LINE
  8
_0-5_寸法線
  6
CONTINUOUS
 62
    7
 10
1009.9999999999994
 20
562.66021900100679
 11
1000.3407417371088
 21
565.24840945203198
  0
LINE
  8
_0-5_寸法線
  6
CONTINUOUS
 62
    7
 10
979.99999999999909
 20
562.66021900100679
 11
1009.9999999999994
 21
562.66021900100679
  0
TEXT
  8
_0-5_寸法線
 62
    7
 10
987.49999999999943
 20
562.66021900100679
 40
15
 41
1
 50
0
  1
30
  0
LINE
  8
_0-5_寸法線
  6
CONTINUOUS
 62
    7
 10
1010
 20
630.66021900100691
 11
1010
 21
557.66021900100679
  0
LINE
  8
_0-5_寸法線
  6
CONTINUOUS
 62
    7
 10
1010
 20
562.66021900100679
 11
1019.6592582628908
 21
565.24840945203198
  0
LINE
  8
_0-5_寸法線
  6
CONTINUOUS
 62
    7
 10
1010
 20
562.66021900100679
 11
1019.6592582628908
 21
560.07202854998161
  0
LINE
  8
_0-5_寸法線
  6
CONTINUOUS
 62
    7
 10
1160
 20
630.66021900100691
 11
1160
 21
557.66021900100679
  0
LINE
  8
_0-5_寸法線
  6
CONTINUOUS
 62
    7
 10
1160
 20
562.66021900100679
 11
1150.3407417371093
 21
560.07202854998161
  0
LINE
  8
_0-5_寸法線
  6
CONTINUOUS
 62
    7
 10
1160
 20
562.66021900100679
 11
1150.3407417371093
 21
565.24840945203198
  0
LINE
  8
_0-5_寸法線
  6
CONTINUOUS
 62
    7
 10
1010
 20
562.66021900100679
 11
1160
 21
562.66021900100679
  0
TEXT
  8
_0-5_寸法線
 62
    7
 10
1073.75
 20
562.66021900100679
 40
15
 41
1
 50
0
  1
150
  0
TEXT
  8
_0-7_枠細線
 62
    5
 10
1035.6825687070714
 20
519.94207792640873
 40
25
 41
0.8
 50
0
  1
断面詳細図
  0
TEXT
  8
_0-7_枠細線
 62
    5
 10
1150.6315384562395
 20
522.45718700659756
 40
20
 41
0.6
 50
0
  1
Ｓ＝１：５
  0
LINE
  8
_0-1_計細線
  6
CONTINUOUS
 62
    3
 10
413.4643684024831
 20
552.25583080108186
 11
466.46436840248299
 21
552.25583080108186
  0
LINE
  8
_0-1_計細線
  6
CONTINUOUS
 62
    3
 10
466.46436840248299
 20
556.95583080108156
 11
413.4643684024831
 21
556.95583080108156
  0
LINE
  8
_0-1_計細線
  6
CONTINUOUS
 62
    3
 10
413.4643684024831
 20
556.95583080108156
 11
413.4643684024831
 21
552.25583080108186
  0
LINE
  8
_0-1_計細線
  6
CONTINUOUS
 62
    3
 10
456.46436840248299
 20
556.95583080108156
 11
456.46436840248299
 21
552.25583080108186
  0
LINE
  8
_0-1_計細線
  6
CONTINUOUS
 62
    3
 10
464.46436840248305
 20
556.95583080108156
 11
464.46436840248305
 21
552.25583080108186
  0
LINE
  8
_0-1_計細線
  6
CONTINUOUS
 62
    3
 10
466.46436840248299
 20
556.95583080108156
 11
466.46436840248299
 21
552.25583080108186
  0
LINE
  8
_0-1_計細線
  6
CONTINUOUS
 62
    3
 10
462.46436840248299
 20
556.95583080108156
 11
462.46436840248299
 21
552.25583080108186
  0
LINE
  8
_0-1_計細線
  6
CONTINUOUS
 62
    3
 10
460.46436840248305
 20
556.95583080108156
 11
460.46436840248305
 21
552.25583080108186
  0
LINE
  8
_0-1_計細線
  6
CONTINUOUS
 62
    3
 10
458.46436840248305
 20
556.95583080108156
 11
458.46436840248305
 21
552.25583080108186
  0
LINE
  8
_0-5_寸法線
  6
CONTINUOUS
 62
    7
 10
1190
 20
668.66021900100679
 11
1190.0000000000002
 21
783.66021900100691
  0
LINE
  8
_0-5_寸法線
  6
CONTINUOUS
 62
    7
 10
1190.0000000000002
 20
778.66021900100691
 11
1180.3407417371095
 21
776.07202854998161
  0
LINE
  8
_0-5_寸法線
  6
CONTINUOUS
 62
    7
 10
1190.0000000000002
 20
778.66021900100691
 11
1180.3407417371095
 21
781.24840945203209
  0
LINE
  8
_0-5_寸法線
  6
CONTINUOUS
 62
    7
 10
980
 20
668.66021900100679
 11
980.00000000000023
 21
783.66021900100691
  0
LINE
  8
_0-5_寸法線
  6
CONTINUOUS
 62
    7
 10
980.00000000000023
 20
778.66021900100691
 11
989.65925826289094
 21
781.24840945203209
  0
LINE
  8
_0-5_寸法線
  6
CONTINUOUS
 62
    7
 10
980.00000000000023
 20
778.66021900100691
 11
989.65925826289094
 21
776.07202854998161
  0
LINE
  8
_0-5_寸法線
  6
CONTINUOUS
 62
    7
 10
1190.0000000000002
 20
778.66021900100691
 11
980.00000000000023
 21
778.66021900100691
  0
TEXT
  8
_0-5_寸法線
 62
    7
 10
1073.7500000000002
 20
778.66021900100691
 40
15
 41
1
 50
0
  1
210
  0
LINE
  8
_0-5_寸法線
  6
CONTINUOUS
 62
    7
 10
980.00000051907011
 20
668.66021900100679
 11
980.00000051907023
 21
748.66021900100679
  0
LINE
  8
_0-5_寸法線
  6
CONTINUOUS
 62
    7
 10
980.00000051907023
 20
743.66021900100679
 11
970.3407422561794
 21
741.07202854998161
  0
LINE
  8
_0-5_寸法線
  6
CONTINUOUS
 62
    7
 10
980.00000051907023
 20
743.66021900100679
 11
970.3407422561794
 21
746.24840945203209
  0
LINE
  8
_0-5_寸法線
  6
CONTINUOUS
 62
    7
 10
983.00000000000011
 20
668.66021900100679
 11
983.00000000000011
 21
748.66021900100679
  0
CIRCLE
  8
_0-5_寸法線
  6
CONTINUOUS
 62
    1
 10
983.00000000000011
 20
743.66021900100679
 40
1.5000000000000002
  0
LINE
  8
_0-5_寸法線
  6
CONTINUOUS
 62
    7
 10
955.00000051907023
 20
743.66021900100679
 11
983.00000000000011
 21
743.66021900100679
  0
TEXT
  8
_0-5_寸法線
 62
    7
 10
959.94596866275754
 20
743.66021900100679
 40
15
 41
1
 50
0
  1
3
  0
LINE
  8
_0-5_寸法線
  6
CONTINUOUS
 62
    7
 10
984.99999999965678
 20
668.66021900100679
 11
984.99999999965689
 21
748.66021900100679
  0
LINE
  8
_0-5_寸法線
  6
CONTINUOUS
 62
    7
 10
983.00000000000011
 20
743.66021900100679
 11
984.99999999965689
 21
743.66021900100679
  0
TEXT
  8
_0-5_寸法線
 62
    7
 10
985.6360132566092
 20
743.66021900100679
 40
15
 41
1
 50
0
  1
2
  0
LINE
  8
_0-5_寸法線
  6
CONTINUOUS
 62
    7
 10
984.99999999965689
 20
743.66021900100679
 11
994.65925826254761
 21
746.24840945203209
  0
LINE
  8
_0-5_寸法線
  6
CONTINUOUS
 62
    7
 10
984.99999999965689
 20
743.66021900100679
 11
994.65925826254761
 21
741.0720285499815
  0
LINE
  8
_0-5_寸法線
  6
CONTINUOUS
 62
    7
 10
1185.0000000003436
 20
668.65999999999974
 11
1185.0000000003438
 21
748.66021900100679
  0
LINE
  8
_0-5_寸法線
  6
CONTINUOUS
 62
    7
 10
1185.0000000003438
 20
743.66021900100679
 11
1175.3407417374531
 21
741.07202854998161
  0
LINE
  8
_0-5_寸法線
  6
CONTINUOUS
 62
    7
 10
1185.0000000003438
 20
743.66021900100679
 11
1175.3407417374531
 21
746.24840945203209
  0
LINE
  8
_0-5_寸法線
  6
CONTINUOUS
 62
    7
 10
984.99999999965689
 20
743.66021900100679
 11
1185.0000000003438
 21
743.66021900100679
  0
TEXT
  8
_0-5_寸法線
 62
    7
 10
1073.7500000000005
 20
743.66021900100679
 40
15
 41
1
 50
0
  1
200
  0
LINE
  8
_0-5_寸法線
  6
CONTINUOUS
 62
    7
 10
1187
 20
668.65999999999974
 11
1187.0000000000002
 21
748.66021900100679
  0
CIRCLE
  8
_0-5_寸法線
  6
CONTINUOUS
 62
    1
 10
1187.0000000000002
 20
743.66021900100679
 40
1.5000000000000002
  0
LINE
  8
_0-5_寸法線
  6
CONTINUOUS
 62
    7
 10
1185.0000000003438
 20
743.66021900100679
 11
1187.0000000000002
 21
743.66021900100679
  0
TEXT
  8
_0-5_寸法線
 62
    7
 10
1175.2959158156179
 20
743.66021900100679
 40
15
 41
1
 50
0
  1
2
  0
LINE
  8
_0-5_寸法線
  6
CONTINUOUS
 62
    7
 10
1190
 20
668.66021900100679
 11
1190.0000000000002
 21
748.66021900100679
  0
LINE
  8
_0-5_寸法線
  6
CONTINUOUS
 62
    7
 10
1190.0000000000002
 20
743.66021900100679
 11
1199.6592582628909
 21
746.24840945203209
  0
LINE
  8
_0-5_寸法線
  6
CONTINUOUS
 62
    7
 10
1190.0000000000002
 20
743.66021900100679
 11
1199.6592582628909
 21
741.0720285499815
  0
LINE
  8
_0-5_寸法線
  6
CONTINUOUS
 62
    7
 10
1187.0000000000002
 20
743.66021900100679
 11
1215.0000000000002
 21
743.66021900100679
  0
TEXT
  8
_0-5_寸法線
 62
    7
 10
1204.2559587294518
 20
743.66021900100679
 40
15
 41
1
 50
0
  1
3
  0
LINE
  8
_0-5_寸法線
  6
CONTINUOUS
 62
    7
 10
1110.5000000005334
 20
668.65999999999985
 11
1110.5000000005334
 21
713.65999999999985
  0
LINE
  8
_0-5_寸法線
  6
CONTINUOUS
 62
    7
 10
1110.5000000005334
 20
708.65999999999985
 11
1120.1592582634244
 21
711.24819045102515
  0
LINE
  8
_0-5_寸法線
  6
CONTINUOUS
 62
    7
 10
1110.5000000005334
 20
708.65999999999985
 11
1120.1592582634244
 21
706.07180954897467
  0
LINE
  8
_0-5_寸法線
  6
CONTINUOUS
 62
    7
 10
1127.5000000008949
 20
668.65999999999985
 11
1127.5000000008949
 21
713.65999999999985
  0
LINE
  8
_0-5_寸法線
  6
CONTINUOUS
 62
    7
 10
1127.5000000008949
 20
708.65999999999985
 11
1117.8407417380045
 21
706.07180954897467
  0
LINE
  8
_0-5_寸法線
  6
CONTINUOUS
 62
    7
 10
1127.5000000008949
 20
708.65999999999985
 11
1117.8407417380045
 21
711.24819045102515
  0
LINE
  8
_0-5_寸法線
  6
CONTINUOUS
 62
    7
 10
1110.5000000005334
 20
708.65999999999985
 11
1127.5000000008949
 21
708.65999999999985
  0
TEXT
  8
_0-5_寸法線
 62
    7
 10
1102.8440227081092
 20
693.65999999999985
 40
15
 41
1
 50
0
  1
(17)
  0
LINE
  8
_0-5_寸法線
  6
CONTINUOUS
 62
    7
 10
1127.5000000008949
 20
708.65999999999985
 11
1137.1592582637857
 21
711.24819045102515
  0
LINE
  8
_0-5_寸法線
  6
CONTINUOUS
 62
    7
 10
1127.5000000008949
 20
708.65999999999985
 11
1137.1592582637857
 21
706.07180954897456
  0
LINE
  8
_0-5_寸法線
  6
CONTINUOUS
 62
    7
 10
1144.5000000012569
 20
668.65999999999985
 11
1144.5000000012569
 21
713.65999999999985
  0
LINE
  8
_0-5_寸法線
  6
CONTINUOUS
 62
    7
 10
1144.5000000012569
 20
708.65999999999985
 11
1134.8407417383664
 21
706.07180954897467
  0
LINE
  8
_0-5_寸法線
  6
CONTINUOUS
 62
    7
 10
1144.5000000012569
 20
708.65999999999985
 11
1134.8407417383664
 21
711.24819045102515
  0
LINE
  8
_0-5_寸法線
  6
CONTINUOUS
 62
    7
 10
1127.5000000008949
 20
708.65999999999985
 11
1144.5000000012569
 21
708.65999999999985
  0
TEXT
  8
_0-5_寸法線
 62
    7
 10
1121.9106893745347
 20
708.65999999999985
 40
15
 41
1
 50
0
  1
(17)
  0
LINE
  8
_0-5_寸法線
  6
CONTINUOUS
 62
    7
 10
1031.1999999978113
 20
668.65999999999985
 11
1031.1999999978116
 21
713.65999999999985
  0
LINE
  8
_0-5_寸法線
  6
CONTINUOUS
 62
    7
 10
1031.1999999978116
 20
708.65999999999985
 11
1021.5407417349209
 21
706.07180954897467
  0
LINE
  8
_0-5_寸法線
  6
CONTINUOUS
 62
    7
 10
1031.1999999978116
 20
708.65999999999985
 11
1021.5407417349209
 21
711.24819045102515
  0
LINE
  8
_0-5_寸法線
  6
CONTINUOUS
 62
    7
 10
1036.8000000003799
 20
668.65999999999985
 11
1036.8000000003799
 21
713.65999999999985
  0
LINE
  8
_0-5_寸法線
  6
CONTINUOUS
 62
    7
 10
991.82604431445372
 20
708.65999999999985
 11
1036.8000000003799
 21
708.65999999999985
  0
TEXT
  8
_0-5_寸法線
 62
    7
 10
991.82604431445372
 20
693.65999999999985
 40
15
 41
1
 50
0
  1
(5.6)
  0
LINE
  8
_0-5_寸法線
  6
CONTINUOUS
 62
    7
 10
1036.8000000003799
 20
708.65999999999985
 11
1046.4592582632708
 21
711.24819045102515
  0
LINE
  8
_0-5_寸法線
  6
CONTINUOUS
 62
    7
 10
1036.8000000003799
 20
708.65999999999985
 11
1046.4592582632708
 21
706.07180954897467
  0
LINE
  8
_0-5_寸法線
  6
CONTINUOUS
 62
    7
 10
1048.1999999981726
 20
668.65999999999985
 11
1048.1999999981726
 21
713.65999999999985
  0
LINE
  8
_0-5_寸法線
  6
CONTINUOUS
 62
    7
 10
1048.1999999981726
 20
708.65999999999985
 11
1038.5407417352822
 21
706.07180954897467
  0
LINE
  8
_0-5_寸法線
  6
CONTINUOUS
 62
    7
 10
1048.1999999981726
 20
708.65999999999985
 11
1038.5407417352822
 21
711.24819045102515
  0
LINE
  8
_0-5_寸法線
  6
CONTINUOUS
 62
    7
 10
1036.8000000003799
 20
708.65999999999985
 11
1048.1999999981726
 21
708.65999999999985
  0
TEXT
  8
_0-5_寸法線
 62
    7
 10
1023.7353035728569
 20
708.65999999999985
 40
15
 41
1
 50
0
  1
11.4
  0
LINE
  8
_0-5_寸法線
  6
CONTINUOUS
 62
    7
 10
537.16915488615859
 20
580.03479103360155
 11
541.59776829856742
 21
589.00069217310966
  0
LINE
  8
_0-5_寸法線
  6
CONTINUOUS
 62
    7
 10
537.16915488615859
 20
580.03479103360155
 11
545.48739717459921
 21
585.58518248203097
  0
LINE
  8
_0-5_寸法線
  6
CONTINUOUS
 62
    7
 10
537.16915488615859
 20
580.03479103360155
 11
581.01982498168945
 21
629.97253036499023
  0
LINE
  8
_0-5_寸法線
  6
CONTINUOUS
 62
    7
 10
581.01982498168945
 20
629.97253036499023
 11
713.01982498168968
 21
629.97253036499023
  0
TEXT
  8
_0-5_寸法線
 62
    7
 10
581.01982498168968
 20
629.97253036499023
 40
15
 41
0.8000000000000001
 50
0
  1
セーフティグレーチング
  0
TEXT
  8
_0-5_寸法線
 62
    7
 10
580.99224833355811
 20
521.08554661289463
 40
15
 41
0.8000000000000001
 50
0
  1
ＧＳＬ－２０
  0
LINE
  8
_0-5_寸法線
  6
CONTINUOUS
 62
    7
 10
552.10724588699031
 20
503.26924286845605
 11
556.53585929939914
 21
512.2351440079641
  0
LINE
  8
_0-5_寸法線
  6
CONTINUOUS
 62
    7
 10
552.10724588699031
 20
503.26924286845605
 11
560.42548817543093
 21
508.81963431688547
  0
LINE
  8
_0-5_寸法線
  6
CONTINUOUS
 62
    7
 10
552.10724588699031
 20
503.26924286845605
 11
581.01982498168945
 21
536.195281058609
  0
LINE
  8
_0-5_寸法線
  6
CONTINUOUS
 62
    7
 10
581.01982498168945
 20
536.195281058609
 11
689.01982498168968
 21
536.195281058609
  0
TEXT
  8
_0-5_寸法線
 62
    7
 10
581.01982498168945
 20
536.195281058609
 40
15
 41
0.8000000000000001
 50
0
  1
ＳＵＳアングル受枠
  0
LINE
  8
_0-5_寸法線
  6
CONTINUOUS
 62
    7
 10
348.51795824097104
 20
669.6058308010804
 11
348.51795824097104
 21
714.6058308010804
  0
LINE
  8
_0-5_寸法線
  6
CONTINUOUS
 62
    7
 10
348.51795824097104
 20
709.6058308010804
 11
358.1772165038617
 21
712.19402125210547
  0
LINE
  8
_0-5_寸法線
  6
CONTINUOUS
 62
    7
 10
348.51795824097104
 20
709.6058308010804
 11
358.1772165038617
 21
707.0176403500551
  0
LINE
  8
_0-5_寸法線
  6
CONTINUOUS
 62
    7
 10
355.51795824097098
 20
669.6058308010804
 11
355.51795824097098
 21
714.6058308010804
  0
LINE
  8
_0-5_寸法線
  6
CONTINUOUS
 62
    7
 10
355.51795824097098
 20
709.6058308010804
 11
345.85869997808027
 21
707.0176403500551
  0
LINE
  8
_0-5_寸法線
  6
CONTINUOUS
 62
    7
 10
355.51795824097098
 20
709.6058308010804
 11
345.85869997808032
 21
712.19402125210547
  0
LINE
  8
_0-5_寸法線
  6
CONTINUOUS
 62
    7
 10
348.51795824097104
 20
709.6058308010804
 11
355.51795824097098
 21
709.6058308010804
  0
TEXT
  8
_0-5_寸法線
 62
    7
 10
349.58729868112295
 20
709.6058308010804
 40
15
 41
1
 50
0
  1
7
  0
LINE
  8
_0-5_寸法線
  6
CONTINUOUS
 62
    7
 10
355.51795824097098
 20
709.6058308010804
 11
365.1772165038617
 21
712.19402125210547
  0
LINE
  8
_0-5_寸法線
  6
CONTINUOUS
 62
    7
 10
355.51795824097098
 20
709.6058308010804
 11
365.17721650386164
 21
707.01764035005499
  0
LINE
  8
_0-5_寸法線
  6
CONTINUOUS
 62
    7
 10
452.5179582409711
 20
669.6058308010804
 11
452.5179582409711
 21
714.6058308010804
  0
LINE
  8
_0-5_寸法線
  6
CONTINUOUS
 62
    7
 10
452.5179582409711
 20
709.6058308010804
 11
442.85869997808038
 21
707.0176403500551
  0
LINE
  8
_0-5_寸法線
  6
CONTINUOUS
 62
    7
 10
452.5179582409711
 20
709.6058308010804
 11
442.85869997808044
 21
712.19402125210547
  0
LINE
  8
_0-5_寸法線
  6
CONTINUOUS
 62
    7
 10
355.51795824097098
 20
709.6058308010804
 11
452.5179582409711
 21
709.6058308010804
  0
TEXT
  8
_0-5_寸法線
 62
    7
 10
396.51795824097098
 20
709.60583080108017
 40
15
 41
1
 50
0
  1
97
  0
LINE
  8
_0-5_寸法線
  6
CONTINUOUS
 62
    7
 10
452.5179582409711
 20
709.6058308010804
 11
462.17721650386181
 21
712.19402125210547
  0
LINE
  8
_0-5_寸法線
  6
CONTINUOUS
 62
    7
 10
452.5179582409711
 20
709.6058308010804
 11
462.17721650386176
 21
707.01764035005499
  0
LINE
  8
_0-5_寸法線
  6
CONTINUOUS
 62
    7
 10
541.51795824097098
 20
669.6058308010804
 11
541.51795824097098
 21
714.6058308010804
  0
LINE
  8
_0-5_寸法線
  6
CONTINUOUS
 62
    7
 10
541.51795824097098
 20
709.6058308010804
 11
531.85869997808027
 21
707.0176403500551
  0
LINE
  8
_0-5_寸法線
  6
CONTINUOUS
 62
    7
 10
541.51795824097098
 20
709.6058308010804
 11
531.85869997808027
 21
712.19402125210547
  0
LINE
  8
_0-5_寸法線
  6
CONTINUOUS
 62
    7
 10
452.5179582409711
 20
709.6058308010804
 11
541.51795824097098
 21
709.6058308010804
  0
TEXT
  8
_0-5_寸法線
 62
    7
 10
489.51795824097104
 20
709.60583080108017
 40
15
 41
1
 50
0
  1
89
  0
LINE
  8
_0-5_寸法線
  6
CONTINUOUS
 62
    7
 10
541.51795824097098
 20
709.6058308010804
 11
551.1772165038617
 21
712.19402125210547
  0
LINE
  8
_0-5_寸法線
  6
CONTINUOUS
 62
    7
 10
541.51795824097098
 20
709.6058308010804
 11
551.1772165038617
 21
707.01764035005499
  0
LINE
  8
_0-5_寸法線
  6
CONTINUOUS
 62
    7
 10
548.51795824097098
 20
669.6058308010804
 11
548.51795824097121
 21
714.6058308010804
  0
LINE
  8
_0-5_寸法線
  6
CONTINUOUS
 62
    7
 10
548.51795824097121
 20
709.6058308010804
 11
538.85869997808049
 21
707.0176403500551
  0
LINE
  8
_0-5_寸法線
  6
CONTINUOUS
 62
    7
 10
548.51795824097121
 20
709.6058308010804
 11
538.85869997808049
 21
712.19402125210547
  0
LINE
  8
_0-5_寸法線
  6
CONTINUOUS
 62
    7
 10
541.51795824097098
 20
709.6058308010804
 11
548.51795824097121
 21
709.6058308010804
  0
TEXT
  8
_0-5_寸法線
 62
    7
 10
540.30218673163495
 20
709.6058308010804
 40
15
 41
1
 50
0
  1
7
  0
LINE
  8
_0-5_寸法線
  6
CONTINUOUS
 62
    7
 10
333.51795824097104
 20
449.60583080107881
 11
253.51795824097096
 21
449.60583080107909
  0
LINE
  8
_0-5_寸法線
  6
CONTINUOUS
 62
    7
 10
258.51795824097098
 20
449.60583080107909
 11
255.92976778994583
 21
459.26508906396975
  0
LINE
  8
_0-5_寸法線
  6
CONTINUOUS
 62
    7
 10
258.51795824097098
 20
449.60583080107909
 11
261.10614869199622
 21
459.26508906396975
  0
LINE
  8
_0-5_寸法線
  6
CONTINUOUS
 62
    7
 10
333.51795824097155
 20
659.60583080108086
 11
253.51795824097096
 21
659.60583080108108
  0
LINE
  8
_0-5_寸法線
  6
CONTINUOUS
 62
    7
 10
258.51795824097098
 20
659.60583080108108
 11
261.10614869199622
 21
649.94657253819037
  0
LINE
  8
_0-5_寸法線
  6
CONTINUOUS
 62
    7
 10
258.51795824097098
 20
659.60583080108108
 11
255.92976778994583
 21
649.94657253819037
  0
LINE
  8
_0-5_寸法線
  6
CONTINUOUS
 62
    7
 10
258.51795824097098
 20
449.60583080107909
 11
258.51795824097098
 21
659.60583080108108
  0
TEXT
  8
_0-5_寸法線
 62
    7
 10
258.51795824097087
 20
543.35583080108006
 40
15
 41
1
 50
90
  1
210
  0
LINE
  8
_0-5_寸法線
  6
CONTINUOUS
 62
    7
 10
293.51795824097098
 20
449.60583080107881
 11
296.10614869199622
 21
439.94657253818815
  0
LINE
  8
_0-5_寸法線
  6
CONTINUOUS
 62
    7
 10
293.51795824097098
 20
449.60583080107881
 11
290.92976778994574
 21
439.94657253818815
  0
LINE
  8
_0-5_寸法線
  6
CONTINUOUS
 62
    7
 10
333.51795824097104
 20
452.6058308010787
 11
288.51795824097098
 21
452.60583080107887
  0
CIRCLE
  8
_0-5_寸法線
  6
CONTINUOUS
 62
    1
 10
293.51795824097098
 20
452.60583080107887
 40
1.5000000000000002
  0
LINE
  8
_0-5_寸法線
  6
CONTINUOUS
 62
    7
 10
293.51795824097098
 20
424.60583080107881
 11
293.51795824097098
 21
452.60583080107887
  0
TEXT
  8
_0-5_寸法線
 62
    7
 10
293.51795824097098
 20
427.95918897220872
 40
15
 41
1
 50
90
  1
3
  0
LINE
  8
_0-5_寸法線
  6
CONTINUOUS
 62
    7
 10
333.51795824097104
 20
454.60583080108131
 11
288.51795824097098
 21
454.6058308010812
  0
LINE
  8
_0-5_寸法線
  6
CONTINUOUS
 62
    7
 10
293.51795824097098
 20
452.60583080107887
 11
293.51795824097098
 21
454.6058308010812
  0
TEXT
  8
_0-5_寸法線
 62
    7
 10
312.65857539987462
 20
456.60711508986907
 40
15
 41
1
 50
90
  1
2
  0
LINE
  8
_0-5_寸法線
  6
CONTINUOUS
 62
    7
 10
293.51795824097098
 20
454.6058308010812
 11
290.9297677899458
 21
464.26508906397191
  0
LINE
  8
_0-5_寸法線
  6
CONTINUOUS
 62
    7
 10
293.51795824097098
 20
454.6058308010812
 11
296.10614869199622
 21
464.26508906397191
  0
LINE
  8
_0-5_寸法線
  6
CONTINUOUS
 62
    7
 10
333.51795824097104
 20
654.6058308010812
 11
288.51795824097098
 21
654.6058308010812
  0
LINE
  8
_0-5_寸法線
  6
CONTINUOUS
 62
    7
 10
293.51795824097098
 20
654.6058308010812
 11
296.10614869199622
 21
644.94657253819059
  0
LINE
  8
_0-5_寸法線
  6
CONTINUOUS
 62
    7
 10
293.51795824097098
 20
654.6058308010812
 11
290.92976778994574
 21
644.94657253819059
  0
LINE
  8
_0-5_寸法線
  6
CONTINUOUS
 62
    7
 10
293.51795824097098
 20
454.6058308010812
 11
293.51795824097098
 21
654.6058308010812
  0
TEXT
  8
_0-5_寸法線
 62
    7
 10
293.51795824097098
 20
543.3558308010812
 40
15
 41
1
 50
90
  1
200
  0
LINE
  8
_0-5_寸法線
  6
CONTINUOUS
 62
    7
 10
333.51795824097155
 20
656.60583080108086
 11
288.51795824097098
 21
656.60583080108086
  0
CIRCLE
  8
_0-5_寸法線
  6
CONTINUOUS
 62
    1
 10
293.51795824097098
 20
656.60583080108086
 40
1.5000000000000002
  0
LINE
  8
_0-5_寸法線
  6
CONTINUOUS
 62
    7
 10
293.51795824097098
 20
654.6058308010812
 11
293.51795824097098
 21
656.60583080108086
  0
TEXT
  8
_0-5_寸法線
 62
    7
 10
312.76133372696904
 20
645.16864530815633
 40
15
 41
1
 50
90
  1
2
  0
LINE
  8
_0-5_寸法線
  6
CONTINUOUS
 62
    7
 10
293.51795824097098
 20
659.60583080108097
 11
290.9297677899458
 21
669.26508906397157
  0
LINE
  8
_0-5_寸法線
  6
CONTINUOUS
 62
    7
 10
293.51795824097098
 20
659.60583080108097
 11
296.10614869199622
 21
669.26508906397157
  0
LINE
  8
_0-5_寸法線
  6
CONTINUOUS
 62
    7
 10
293.51795824097098
 20
656.60583080108086
 11
293.51795824097098
 21
684.60583080108097
  0
TEXT
  8
_0-5_寸法線
 62
    7
 10
293.51795824097098
 20
673.8715977313326
 40
15
 41
1
 50
90
  1
3
  0
LINE
  8
_0-0_計極細
  6
CENTER1
 62
    2
 10
1188.8721647772363
 20
647.45999999999992
 11
981.37285124997948
 21
647.45999999999992
  0
LINE
  8
_0-1_計細線
  6
CONTINUOUS
 62
    3
 10
987.49999999910472
 20
647.4599999999997
 11
984.49548399910395
 21
647.4599999999997
  0
LINE
  8
_0-1_計細線
  6
CONTINUOUS
 62
    3
 10
987.49999999910472
 20
643.96000000000015
 11
984.49547199910512
 21
643.96000000000015
  0
ARC
  8
_0-1_計細線
  6
CONTINUOUS
 62
    3
 10
984.49547199910512
 20
644.15999999999997
 40
0.2000000000000001
 50
179.99999999999983
 51
269.99999999999977
  0
ARC
  8
_0-1_計細線
  6
CONTINUOUS
 62
    3
 10
992.05345199910482
 20
645.70985400000029
 40
7.7579560000000001
 50
166.96197800000581
 51
193.03566999999887
  0
ARC
  8
_0-1_計細線
  6
CONTINUOUS
 62
    3
 10
984.49547199910512
 20
650.76000000000022
 40
0.2000000000000001
 50
89.999999999999915
 51
179.99999999999983
  0
ARC
  8
_0-1_計細線
  6
CONTINUOUS
 62
    3
 10
992.05345199910482
 20
649.21014399999979
 40
7.7579560000000001
 50
166.96433000000079
 51
193.03802199999794
  0
LINE
  8
_0-1_計細線
  6
CONTINUOUS
 62
    3
 10
987.49999999910472
 20
650.96000000000004
 11
984.49547199910512
 21
650.96000000000004
  0
LINE
  8
_0-1_計細線
  6
CONTINUOUS
 62
    3
 10
984.29547199910473
 20
644.15999999999997
 11
984.29547199910473
 21
650.76000000000022
  0
ARC
  8
_0-1_計細線
  6
CONTINUOUS
 62
    3
 10
987.69999999910453
 20
641.15999999999997
 40
0.2000000000000001
 50
179.99999999999983
 51
269.99999999999977
  0
ARC
  8
_0-1_計細線
  6
CONTINUOUS
 62
    3
 10
987.69999999910453
 20
653.75999999999965
 40
0.2000000000000001
 50
89.999999999999915
 51
179.99999999999983
  0
LINE
  8
_0-1_計細線
  6
CONTINUOUS
 62
    3
 10
987.49999999910472
 20
646.95999999999981
 11
987.49999999910472
 21
641.15999999999997
  0
LINE
  8
_0-1_計細線
  6
CONTINUOUS
 62
    3
 10
987.49999999910472
 20
653.75999999999965
 11
987.49999999910472
 21
646.95999999999981
  0
LINE
  8
_0-1_計細線
  6
CONTINUOUS
 62
    3
 10
988.99999999872102
 20
640.95999999999992
 11
987.69999999910453
 21
640.95999999999992
  0
LINE
  8
_0-1_計細線
  6
CONTINUOUS
 62
    3
 10
988.99999999967076
 20
653.96000000000004
 11
987.69999999910453
 21
653.96000000000004
  0
LINE
  8
_0-1_計細線
  6
CONTINUOUS
 62
    3
 10
1182.5000000008954
 20
647.4599999999997
 11
1185.5045160008963
 21
647.4599999999997
  0
LINE
  8
_0-1_計細線
  6
CONTINUOUS
 62
    3
 10
1182.5000000008954
 20
643.96000000000015
 11
1185.5045280008949
 21
643.96000000000015
  0
ARC
  8
_0-1_計細線
  6
CONTINUOUS
 62
    3
 10
1185.5045280008949
 20
644.15999999999997
 40
0.2000000000000001
 50
269.99999999999977
 51
359.99999999999966
  0
ARC
  8
_0-1_計細線
  6
CONTINUOUS
 62
    3
 10
1177.9465480008953
 20
645.70985400000029
 40
7.7579560000000001
 50
346.96433000000042
 51
13.038021999993861
  0
ARC
  8
_0-1_計細線
  6
CONTINUOUS
 62
    3
 10
1185.5045280008949
 20
650.76000000000022
 40
0.2000000000000001
 50
0
 51
89.999999999999915
  0
ARC
  8
_0-1_計細線
  6
CONTINUOUS
 62
    3
 10
1177.9465480008953
 20
649.21014399999979
 40
7.7579560000000001
 50
346.96197800000135
 51
13.035669999998861
  0
LINE
  8
_0-1_計細線
  6
CONTINUOUS
 62
    3
 10
1182.5000000008954
 20
650.96000000000004
 11
1185.5045280008949
 21
650.96000000000004
  0
LINE
  8
_0-1_計細線
  6
CONTINUOUS
 62
    3
 10
1185.7045280008954
 20
644.15999999999997
 11
1185.7045280008954
 21
650.76000000000022
  0
ARC
  8
_0-1_計細線
  6
CONTINUOUS
 62
    3
 10
1182.3000000008956
 20
641.15999999999997
 40
0.2000000000000001
 50
269.99999999999977
 51
359.99999999999966
  0
ARC
  8
_0-1_計細線
  6
CONTINUOUS
 62
    3
 10
1182.3000000008956
 20
653.75999999999965
 40
0.2000000000000001
 50
0
 51
89.999999999999915
  0
LINE
  8
_0-1_計細線
  6
CONTINUOUS
 62
    3
 10
1182.5000000008954
 20
646.95999999999981
 11
1182.5000000008954
 21
641.15999999999997
  0
LINE
  8
_0-1_計細線
  6
CONTINUOUS
 62
    3
 10
1182.5000000008954
 20
653.75999999999965
 11
1182.5000000008954
 21
646.95999999999981
  0
LINE
  8
_0-1_計細線
  6
CONTINUOUS
 62
    3
 10
1181.000000001279
 20
640.95999999999992
 11
1182.3000000008956
 21
640.95999999999992
  0
LINE
  8
_0-1_計細線
  6
CONTINUOUS
 62
    3
 10
1181.0000000003292
 20
653.96000000000004
 11
1182.3000000008956
 21
653.96000000000004
  0
TEXT
  8
_0-5_寸法線
 62
    7
 10
580.99224833355811
 20
614.28734928754716
 40
15
 41
0.8000000000000001
 50
0
  1
ＧＲＳ－２０Ｋ２００
  0
ENDSEC
  0
EOF
