  0
SECTION
  2
HEADER
  9
$ACADVER
  1
AC1009
  9
$INSBASE
 10
0
 20
0
 30
0
  9
$EXTMIN
 10
0
 20
0
  9
$EXTMAX
 10
1485
 20
1050
  9
$LIMMIN
 10
0
 20
0
  9
$LIMMAX
 10
1485
 20
1050
  9
$LTSCALE
 40
5
  0
ENDSEC
  0
SECTION
  2
TABLES
  0
TABLE
  2
LTYPE
 70
     9
  0
LTYPE
  2
CONTINUOUS
 70
    64
  3
実線
 72
    65
 73
     0
 40
0.0
  0
LTYPE
  2
DASHED1
 70
    64
  3
--  --  --  --  --  --  --  --  
 72
    65
 73
     2
 40
2.5
 49
1.25
 49
-1.25
  0
LTYPE
  2
DASHED2
 70
    64
  3
----    ----    ----    ----    
 72
    65
 73
     2
 40
5.0
 49
2.5
 49
-2.5
  0
LTYPE
  2
DASHED3
 70
    64
  3
------  ------  ------  ------  
 72
    65
 73
     2
 40
5.0
 49
3.75
 49
-1.25
  0
LTYPE
  2
CENTER1
 70
    64
  3
----- - ----- - ----- - ----- - 
 72
    65
 73
     4
 40
10.0
 49
6.25
 49
-1.25
 49
1.25
 49
-1.25
  0
LTYPE
  2
CENTER2
 70
    64
  3
----------  --  ----------  --  
 72
    65
 73
     4
 40
20.0
 49
12.5
 49
-2.5
 49
2.5
 49
-2.5
  0
LTYPE
  2
PHANTOM1
 70
    64
  3
--- - - --- - - --- - - --- - - 
 72
    65
 73
     6
 40
10.0
 49
3.25
 49
-1.25
 49
1.25
 49
-1.25
 49
1.25
 49
-1.25
  0
LTYPE
  2
PHANTOM2
 70
    64
  3
--------  -  -  --------  -  -  
 72
    65
 73
     6
 40
20.0
 49
10.0
 49
-2.5
 49
1.25
 49
-2.5
 49
1.25
 49
-2.5
  0
LTYPE
  2
DOT
 70
    64
  3
-   -   -   -   -   -   -   -   
 72
    65
 73
     2
 40
2.5
 49
0.625
 49
-1.875
  0
LTYPE
  2
DUMMY
 70
    64
  3
ダミー
 72
    65
 73
     0
 40
0.0
  0
LTYPE
  2
RAND1
 70
    64
  3
ランダム線1
 72
    65
 73
     4
 40
10.0
 49
1.0
 49
-2.0
 49
3.0
 49
-4.0
  0
LTYPE
  2
RAND2
 70
    64
  3
ランダム線2
 72
    65
 73
     4
 40
14.0
 49
2.0
 49
-3.0
 49
4.0
 49
-5.0
  0
LTYPE
  2
RAND3
 70
    64
  3
ランダム線3
 72
    65
 73
     4
 40
18.0
 49
3.0
 49
-4.0
 49
5.0
 49
-6.0
  0
LTYPE
  2
RAND4
 70
    64
  3
ランダム線4
 72
    65
 73
     4
 40
22.0
 49
4.0
 49
-5.0
 49
6.0
 49
-7.0
  0
LTYPE
  2
RAND5
 70
    64
  3
ランダム線5
 72
    65
 73
     4
 40
26.0
 49
5.0
 49
-6.0
 49
7.0
 49
-8.0
  0
LTYPE
  2
LONG1
 70
    64
  3
----------  --  ----------  --  
 72
    65
 73
     4
 40
40.0
 49
32.5
 49
-2.5
 49
2.5
 49
-2.5
  0
LTYPE
  2
LONG2
 70
    64
  3
--------  -  -  --------  -  -  
 72
    65
 73
     6
 40
40.0
 49
30.0
 49
-2.5
 49
1.25
 49
-2.5
 49
1.25
 49
-2.5
  0
LTYPE
  2
LONG3
 70
    64
  3
+++++++++++++++..+++++++++++++++
 72
    65
 73
     2
 40
40.0
 49
37.5
 49
-2.5
  0
LTYPE
  2
LONG4
 70
    64
  3
+++++++++++++++..+++++++++++++++
 72
    65
 73
     2
 40
80.0
 49
75.0
 49
-5.0
  0
LTYPE
  2
LONG5
 70
    64
  3
----------  --  ----------  --  
 72
    65
 73
     4
 40
60.0
 49
37.5
 49
-7.5
 49
7.5
 49
-7.5
  0
LTYPE
  2
dashed
 70
   64
  3
-------   -------------   ------
 72
   65
 73
    2
 40
7.5
 49
6
 49
-1.5
  0
LTYPE
  2
dashed_spaced
 70
   64
  3
----        --------        ----
 72
   65
 73
    2
 40
12
 49
6
 49
-6
  0
LTYPE
  2
long_dashed_dotted
 70
   64
  3
------------- --- --------------
 72
   65
 73
    4
 40
15.25
 49
12
 49
-1.5
 49
0.25
 49
-1.5
  0
LTYPE
  2
long_dashed_double-dotted
 70
   64
  3
----------- --- --- ------------
 72
   65
 73
    6
 40
17
 49
12
 49
-1.5
 49
0.25
 49
-1.5
 49
0.25
 49
-1.5
  0
LTYPE
  2
long_dashed_triplicate-dotted
 70
   64
  3
--------- --- --- --- ----------
 72
   65
 73
    8
 40
18.75
 49
12
 49
-1.5
 49
0.25
 49
-1.5
 49
0.25
 49
-1.5
 49
0.25
 49
-1.5
  0
LTYPE
  2
dotted
 70
   64
  3
   -       -       -       -    
 72
   65
 73
    2
 40
1.75
 49
0.25
 49
-1.5
  0
LTYPE
  2
chain
 70
   64
  3
-------------- -- --------------
 72
   65
 73
    4
 40
18.5
 49
12
 49
-1.5
 49
3.5
 49
-1.5
  0
LTYPE
  2
chain_double_dash
 70
   64
  3
------------ -- -- -------------
 72
   65
 73
    6
 40
23.5
 49
12
 49
-1.5
 49
3.5
 49
-1.5
 49
3.5
 49
-1.5
  0
LTYPE
  2
dashed_dotted
 70
   64
  3
-----------     -     ----------
 72
   65
 73
    4
 40
9.25
 49
6
 49
-1.5
 49
0.25
 49
-1.5
  0
LTYPE
  2
double-dashed_dotted
 70
   64
  3
------   -----------   -   -----
 72
   65
 73
    6
 40
16.75
 49
6
 49
-1.5
 49
6
 49
-1.5
 49
0.25
 49
-1.5
  0
LTYPE
  2
dashed_double-dotted
 70
   64
  3
---------    -    -    ---------
 72
   65
 73
    6
 40
11
 49
6
 49
-1.5
 49
0.25
 49
-1.5
 49
0.25
 49
-1.5
  0
LTYPE
  2
double-dashed_double-dotted
 70
   64
  3
-----   ---------   -   -   ----
 72
   65
 73
    8
 40
18.5
 49
6
 49
-1.5
 49
6
 49
-1.5
 49
0.25
 49
-1.5
 49
0.25
 49
-1.5
  0
LTYPE
  2
dashed_triplicate-dotted
 70
   64
  3
-------    -    -    -    ------
 72
   65
 73
    8
 40
12.75
 49
6
 49
-1.5
 49
0.25
 49
-1.5
 49
0.25
 49
-1.5
 49
0.25
 49
-1.5
  0
LTYPE
  2
double-dashed_triplicate-dotted
 70
   64
  3
-----  ---------  -  -  -  -----
 72
   65
 73
   10
 40
20.25
 49
6
 49
-1.5
 49
6
 49
-1.5
 49
0.25
 49
-1.5
 49
0.25
 49
-1.5
 49
0.25
 49
-1.5
  0
LTYPE
  2
undefined
 70
   64
  3
--------------------------------
 72
   65
 73
    0
 40
0
  0
ENDTAB
  0
TABLE
  2
STYLE
  5
3
100
AcDbSymbolTable
 70
     1
  0
STYLE
  5
10
100
AcDbSymbolTableRecord
100
AcDbTextStyleTableRecord
  2
STANDARD
 70
     0
 40
0.0
 41
1.0
 50
0.0
 71
     0
 42
0.2
  3
txt
  4
bigfont.shx
  0
STYLE
  5
26
100
AcDbSymbolTableRecord
100
AcDbTextStyleTableRecord
  2
TATEGAKI
 70
    68
 40
0.0
 41
1.0
 50
0.0
 71
     0
 42
1.0
  3
txt
  4
bigfont.shx
  0
ENDTAB
  0
TABLE
  2
LAYER
 70
   10
  0
LAYER
  2
_0-0_計極細
 70
   64
 62
    7
  6
CONTINUOUS
  0
LAYER
  2
_0-1_計細線
 70
   64
 62
    7
  6
CONTINUOUS
  0
LAYER
  2
_0-5_寸法線
 70
   64
 62
    7
  6
CONTINUOUS
  0
LAYER
  2
_0-7_枠細線
 70
   64
 62
    7
  6
CONTINUOUS
  0
LAYER
  2
_0-8_枠中線
 70
   64
 62
    7
  6
CONTINUOUS
  0
LAYER
  2
_0-9_枠極太
 70
   64
 62
    7
  6
CONTINUOUS
  0
LAYER
  2
_0-a_極細3
 70
   64
 62
    7
  6
CONTINUOUS
  0
LAYER
  2
_0-b_細線3
 70
   64
 62
    7
  6
CONTINUOUS
  0
LAYER
  2
_0-d_寸法3
 70
   64
 62
    7
  6
CONTINUOUS
  0
LAYER
  2
ADD_LINE
 70
   64
 62
    7
  6
CONTINUOUS
  0
ENDTAB
  0
ENDSEC
  0
SECTION
  2
BLOCKS
  0
ENDSEC
  0
SECTION
  2
ENTITIES
  0
LINE
  8
_0-7_枠細線
  6
CONTINUOUS
 62
    5
 10
1185
 20
180
 11
1185
 21
100
  0
TEXT
  8
_0-7_枠細線
 62
    5
 10
937.5
 20
97.5
 40
17.5
 41
1
 50
0
  1
備考
  7
TATEGAKI
  0
TEXT
  8
_0-7_枠細線
 62
    5
 10
937.5
 20
137.5
 40
17.5
 41
1
 50
0
  1
品番
  7
TATEGAKI
  0
TEXT
  8
_0-7_枠細線
 62
    5
 10
937.5
 20
177.5
 40
17.5
 41
1
 50
0
  1
品名
  7
TATEGAKI
  0
LINE
  8
_0-7_枠細線
  6
CONTINUOUS
 62
    5
 10
1185
 20
140
 11
925
 21
140
  0
LINE
  8
_0-7_枠細線
  6
CONTINUOUS
 62
    5
 10
950
 20
180
 11
950
 21
60
  0
LINE
  8
_0-8_枠中線
  6
CONTINUOUS
 62
    5
 10
1425
 20
180
 11
925
 21
180
  0
LINE
  8
_0-8_枠中線
  6
CONTINUOUS
 62
    5
 10
925
 20
180
 11
925
 21
60
  0
LINE
  8
_0-7_枠細線
  6
CONTINUOUS
 62
    5
 10
1245
 20
180
 11
1245
 21
60
  0
TEXT
  8
_0-7_枠細線
 62
    5
 10
1192.5
 20
160
 40
15
 41
1
 50
0
  1
縮　尺
  0
LINE
  8
_0-7_枠細線
  6
CONTINUOUS
 62
    5
 10
1185
 20
155
 11
1245
 21
155
  0
LINE
  8
_0-7_枠細線
  6
CONTINUOUS
 62
    5
 10
1245
 20
100
 11
925
 21
100
  0
LINE
  8
_0-7_枠細線
  6
CONTINUOUS
 62
    5
 10
1425
 20
90
 11
1245
 21
90
  0
LINE
  8
_0-7_枠細線
  6
CONTINUOUS
 62
    5
 10
1245
 20
120
 11
1425
 21
120
  0
LINE
  8
_0-7_枠細線
  6
CONTINUOUS
 62
    5
 10
1425
 20
140
 11
1245
 21
140
  0
TEXT
  8
_0-7_枠細線
 62
    5
 10
1255
 20
147.5
 40
25
 41
0.8
 50
0
  1
株式会社シマブン
  0
TEXT
  8
_0-7_枠細線
 62
    5
 10
1252.5
 20
60
 40
15
 41
1
 50
0
  1
年月日
  0
TEXT
  8
_0-7_枠細線
 62
    5
 10
1252.5
 20
75
 40
15
 41
1
 50
0
  1
作　成
  0
TEXT
  8
_0-7_枠細線
 62
    5
 10
1256.25
 20
122.5
 40
15
 41
1
 50
0
  1
承 認
  0
LINE
  8
_0-7_枠細線
  6
CONTINUOUS
 62
    5
 10
1305
 20
140
 11
1305
 21
60
  0
TEXT
  8
_0-7_枠細線
 62
    5
 10
1316.25
 20
122.5
 40
15
 41
1
 50
0
  1
検 図
  0
LINE
  8
_0-7_枠細線
  6
CONTINUOUS
 62
    5
 10
1365
 20
140
 11
1365
 21
90
  0
TEXT
  8
_0-7_枠細線
 62
    5
 10
1375
 20
95
 40
20
 41
1
 50
0
  1
藤戸
  0
TEXT
  8
_0-7_枠細線
 62
    5
 10
1376.25
 20
122.5
 40
15
 41
1
 50
0
  1
設 計
  0
TEXT
  8
_0-7_枠細線
 62
    5
 10
1255
 20
95
 40
20
 41
1
 50
0
  1
隠塚
  0
TEXT
  8
_0-7_枠細線
 62
    5
 10
1315
 20
95
 40
20
 41
1
 50
0
  1
渋田
  0
TEXT
  8
_0-7_枠細線
 62
    5
 10
1193.9999999999998
 20
117.5
 40
20
 41
0.7000000000000001
 50
0
  1
１：５
  0
TEXT
  8
_0-7_枠細線
 62
    5
 10
960.5
 20
69.999999999999858
 40
20
 41
0.5999999999999998
 50
0
  1
品番・色については表参照のこと
  0
TEXT
  8
_0-7_枠細線
 62
    5
 10
1309.9999999999998
 20
67.499999999999929
 40
15.000000000000009
 41
0.6666666666666665
 50
0
  1
２０１０年０３月０１日
  0
TEXT
  8
_0-7_枠細線
 62
    5
 10
960.5
 20
158.74999999999994
 40
20.000000000000007
 41
0.5999999999999998
 50
0
  1
セーフティグレーチングＨ２０タイプ
  0
TEXT
  8
_0-7_枠細線
 62
    5
 10
1128.5
 20
141.25
 40
20.000000000000007
 41
0.5999999999999998
 50
0
  1
集水マス
  0
LINE
  8
_0-7_枠細線
  6
CONTINUOUS
 62
    5
 10
1425
 20
942.5
 11
890
 21
942.5
  0
TEXT
  8
_0-7_枠細線
 62
    5
 10
895
 20
945
 40
12.5
 41
1
 50
0
  1
記号
  0
TEXT
  8
_0-7_枠細線
 62
    5
 10
996.875
 20
945
 40
12.5
 41
1
 50
0
  1
訂　 正　 記　 事
  0
TEXT
  8
_0-7_枠細線
 62
    5
 10
1181.25
 20
945
 40
12.5
 41
1
 50
0
  1
訂 正 年 月 日
  0
TEXT
  8
_0-7_枠細線
 62
    5
 10
1306.25
 20
945
 40
12.5
 41
1
 50
0
  1
備　　　　　考
  0
LINE
  8
_0-7_枠細線
  6
CONTINUOUS
 62
    5
 10
1425
 20
925
 11
890
 21
925
  0
TEXT
  8
_0-7_枠細線
 62
    5
 10
938.85037037037023
 20
927.5
 40
12.5
 41
1
 50
0
  1
品番・色記号変更
  0
TEXT
  8
_0-7_枠細線
 62
    5
 10
1180
 20
927.5
 40
12.5
 41
0.7199999999999999
 50
0
  1
２０１３．０３．１３
  0
LINE
  8
_0-7_枠細線
  6
CONTINUOUS
 62
    5
 10
1425
 20
907.5
 11
890
 21
907.5
  0
LINE
  8
_0-7_枠細線
  6
CONTINUOUS
 62
    5
 10
1425
 20
890
 11
890
 21
890
  0
TEXT
  8
_0-7_枠細線
 62
    5
 10
938.85037037037023
 20
910
 40
12.5
 41
1
 50
0
  1
クロスバーピッチ変更
  0
TEXT
  8
_0-7_枠細線
 62
    5
 10
938.85037037037023
 20
892.5
 40
12.5
 41
1
 50
0
  1
取外具形状変更
  0
TEXT
  8
_0-7_枠細線
 62
    5
 10
1180
 20
910
 40
12.5
 41
0.7199999999999999
 50
0
  1
２０１５．１１．２０
  0
LINE
  8
_0-7_枠細線
  6
CONTINUOUS
 62
    5
 10
915
 20
908.94233397174685
 11
907.5
 21
923.94233397174685
  0
LINE
  8
_0-7_枠細線
  6
CONTINUOUS
 62
    5
 10
900
 20
908.94233397174685
 11
915
 21
908.94233397174685
  0
LINE
  8
_0-7_枠細線
  6
CONTINUOUS
 62
    5
 10
907.5
 20
923.94233397174685
 11
900
 21
908.94233397174685
  0
TEXT
  8
_0-7_枠細線
 62
    5
 10
902.36515126814822
 20
908.63533172636664
 40
12.5
 41
0.8
 50
0
  1
１
  0
TEXT
  8
_0-7_枠細線
 62
    5
 10
902.36515126814822
 20
891.13533172636664
 40
12.5
 41
0.8
 50
0
  1
２
  0
LINE
  8
_0-7_枠細線
  6
CONTINUOUS
 62
    5
 10
1425
 20
872.5
 11
890
 21
872.5
  0
LINE
  8
_0-7_枠細線
  6
CONTINUOUS
 62
    5
 10
907.5
 20
906.44233397174685
 11
900
 21
891.44233397174685
  0
LINE
  8
_0-7_枠細線
  6
CONTINUOUS
 62
    5
 10
900
 20
891.44233397174685
 11
915
 21
891.44233397174685
  0
LINE
  8
_0-7_枠細線
  6
CONTINUOUS
 62
    5
 10
915
 20
891.44233397174685
 11
907.5
 21
906.44233397174685
  0
TEXT
  8
_0-7_枠細線
 62
    5
 10
902.36515126814822
 20
873.39465008156549
 40
12.5
 41
0.8
 50
0
  1
３
  0
TEXT
  8
_0-7_枠細線
 62
    5
 10
1180
 20
875
 40
12.5
 41
0.7199999999999999
 50
0
  1
２０１７．０４．０１
  0
LINE
  8
_0-7_枠細線
  6
CONTINUOUS
 62
    5
 10
915
 20
856.44233397174685
 11
907.5
 21
871.44233397174685
  0
LINE
  8
_0-7_枠細線
  6
CONTINUOUS
 62
    5
 10
900
 20
856.44233397174685
 11
915
 21
856.44233397174685
  0
LINE
  8
_0-7_枠細線
  6
CONTINUOUS
 62
    5
 10
907.5
 20
871.44233397174685
 11
900
 21
856.44233397174685
  0
TEXT
  8
_0-7_枠細線
 62
    5
 10
1180
 20
857.5
 40
12.5
 41
0.7199999999999999
 50
0
  1
２０１７．０４．０１
  0
TEXT
  8
_0-7_枠細線
 62
    5
 10
938.85037037037023
 20
857.5
 40
12.5
 41
1
 50
0
  1
ブラウン色（Ｃ）追加
  0
LINE
  8
_0-7_枠細線
  6
CONTINUOUS
 62
    5
 10
1425
 20
855
 11
890
 21
855
  0
LINE
  8
_0-7_枠細線
  6
CONTINUOUS
 62
    5
 10
907.5
 20
888.94233397174685
 11
900
 21
873.94233397174685
  0
LINE
  8
_0-7_枠細線
  6
CONTINUOUS
 62
    5
 10
900
 20
873.94233397174685
 11
915
 21
873.94233397174685
  0
LINE
  8
_0-7_枠細線
  6
CONTINUOUS
 62
    5
 10
915
 20
873.94233397174685
 11
907.5
 21
888.94233397174685
  0
TEXT
  8
_0-7_枠細線
 62
    5
 10
902.36515126814822
 20
855.49351400689704
 40
12.5
 41
0.8
 50
0
  1
４
  0
TEXT
  8
_0-7_枠細線
 62
    5
 10
938.85037037037023
 20
875
 40
12.5
 41
1
 50
0
  1
取外具形状変更
  0
TEXT
  8
_0-7_枠細線
 62
    5
 10
1180
 20
892.5
 40
12.5
 41
0.7199999999999999
 50
0
  1
２０１５．１１．２０
  0
LINE
  8
_0-9_枠極太
  6
CONTINUOUS
 62
    5
 10
60
 20
60
 11
60
 21
960
  0
LINE
  8
_0-9_枠極太
  6
CONTINUOUS
 62
    5
 10
60
 20
960
 11
1425
 21
960
  0
LINE
  8
_0-9_枠極太
  6
CONTINUOUS
 62
    5
 10
1425
 20
960
 11
1425
 21
60
  0
LINE
  8
_0-9_枠極太
  6
CONTINUOUS
 62
    5
 10
1425
 20
60
 11
60
 21
60
  0
LINE
  8
_0-7_枠細線
  6
CONTINUOUS
 62
    5
 10
915
 20
838.94233397174685
 11
907.5
 21
853.94233397174685
  0
LINE
  8
_0-7_枠細線
  6
CONTINUOUS
 62
    5
 10
900
 20
838.94233397174685
 11
915
 21
838.94233397174685
  0
LINE
  8
_0-7_枠細線
  6
CONTINUOUS
 62
    5
 10
907.5
 20
853.94233397174685
 11
900
 21
838.94233397174685
  0
LINE
  8
_0-7_枠細線
  6
CONTINUOUS
 62
    5
 10
1425
 20
837.5
 11
890
 21
837.5
  0
TEXT
  8
_0-7_枠細線
 62
    5
 10
1180
 20
840
 40
12.5
 41
0.7199999999999999
 50
0
  1
２０１９．０９．０１
  0
TEXT
  8
_0-7_枠細線
 62
    5
 10
902.36515126814822
 20
837.99351400689704
 40
12.5
 41
0.8
 50
0
  1
５
  0
TEXT
  8
_0-7_枠細線
 62
    5
 10
938.85037037037023
 20
840
 40
12.5
 41
1
 50
0
  1
アンカー材質･厚み変更
  0
TEXT
  8
_0-7_枠細線
 62
    5
 10
960.5
 20
109.99999999999993
 40
20.000000000000007
 41
0.5999999999999998
 50
0
  1
ＧＲＳ－２０Ｋ２５０
  0
LINE
  8
_0-7_枠細線
  6
CONTINUOUS
 62
    5
 10
925
 20
473.73000000000047
 11
925
 21
223.73000000000002
  0
LINE
  8
_0-7_枠細線
  6
CONTINUOUS
 62
    5
 10
1270.7300000000005
 20
393.73000000000059
 11
1270.7300000000005
 21
473.73000000000059
  0
TEXT
  8
_0-7_枠細線
 62
    5
 10
1293.2300000000007
 20
451.23000000000059
 40
15
 41
1
 50
0
  1
耐荷重
  0
TEXT
  8
_0-7_枠細線
 62
    5
 10
1285.7300000000007
 20
421.23000000000059
 40
15
 41
1
 50
0
  1
3.5kN/㎡
  0
TEXT
  8
_0-7_枠細線
 62
    5
 10
1278.2300000000005
 20
401.23000000000059
 40
15
 41
1
 50
0
  1
（歩道用）
  0
LINE
  8
_0-7_枠細線
  6
CONTINUOUS
 62
    5
 10
1360.7300000000007
 20
393.73000000000059
 11
1360.7300000000007
 21
473.73000000000059
  0
LINE
  8
_0-7_枠細線
  6
CONTINUOUS
 62
    5
 10
1270.7300000000005
 20
393.73000000000059
 11
1360.7300000000005
 21
393.73000000000059
  0
LINE
  8
_0-7_枠細線
  6
CONTINUOUS
 62
    5
 10
1270.7300000000005
 20
443.73000000000059
 11
1360.7300000000005
 21
443.73000000000059
  0
LINE
  8
_0-7_枠細線
  6
CONTINUOUS
 62
    5
 10
1270.7300000000005
 20
473.73000000000059
 11
1360.7300000000005
 21
473.73000000000059
  0
LINE
  8
_0-7_枠細線
  6
CONTINUOUS
 62
    5
 10
925
 20
323.73000000000059
 11
1225.0000000000005
 21
323.73000000000059
  0
LINE
  8
_0-7_枠細線
  6
CONTINUOUS
 62
    5
 10
925
 20
348.73000000000047
 11
1225.0000000000005
 21
348.73000000000047
  0
LINE
  8
_0-7_枠細線
  6
CONTINUOUS
 62
    5
 10
925
 20
373.73000000000047
 11
1225.0000000000005
 21
373.73000000000047
  0
LINE
  8
_0-7_枠細線
  6
CONTINUOUS
 62
    5
 10
925
 20
398.73000000000076
 11
1225.0000000000005
 21
398.73000000000076
  0
TEXT
  8
_0-7_枠細線
 62
    5
 10
1048.0000000000005
 20
403.73000000000076
 40
15
 41
0.5999999999999999
 50
0
  1
ライトグレー
  0
LINE
  8
_0-7_枠細線
  6
CONTINUOUS
 62
    5
 10
925
 20
423.73000000000047
 11
1225.0000000000005
 21
423.73000000000047
  0
TEXT
  8
_0-7_枠細線
 62
    5
 10
1057.0000000000005
 20
428.73000000000047
 40
15
 41
0.5999999999999999
 50
0
  1
ベージュ
  0
LINE
  8
_0-7_枠細線
  6
CONTINUOUS
 62
    5
 10
925
 20
448.73000000000047
 11
1225.0000000000005
 21
448.73000000000047
  0
TEXT
  8
_0-7_枠細線
 62
    5
 10
1069.0000000000005
 20
453.73000000000047
 40
15
 41
0.8000000000000001
 50
0
  1
色
  0
TEXT
  8
_0-7_枠細線
 62
    5
 10
951.00000000000034
 20
453.73000000000047
 40
15
 41
0.8000000000000001
 50
0
  1
品　　番
  0
TEXT
  8
_0-7_枠細線
 62
    5
 10
1151.0000000000005
 20
453.73000000000047
 40
15
 41
0.8000000000000001
 50
0
  1
備　　考
  0
LINE
  8
_0-7_枠細線
  6
CONTINUOUS
 62
    5
 10
925
 20
473.73000000000047
 11
1225.0000000000005
 21
473.73000000000047
  0
TEXT
  8
_0-7_枠細線
 62
    5
 10
1013.75
 20
478.73000000000047
 40
17.5
 41
1
 50
0
  1
品番表
  0
LINE
  8
_0-7_枠細線
  6
CONTINUOUS
 62
    5
 10
925
 20
248.73000000000033
 11
1225.0000000000005
 21
248.73000000000033
  0
LINE
  8
_0-7_枠細線
  6
CONTINUOUS
 62
    5
 10
925
 20
273.73000000000059
 11
1225.0000000000005
 21
273.73000000000059
  0
LINE
  8
_0-7_枠細線
  6
CONTINUOUS
 62
    5
 10
925
 20
298.7300000000007
 11
1225.0000000000005
 21
298.7300000000007
  0
TEXT
  8
_0-7_枠細線
 62
    5
 10
1057.0000000000009
 20
378.7300000000007
 40
15
 41
0.5999999999999999
 50
0
  1
ホワイト
  0
TEXT
  8
_0-7_枠細線
 62
    5
 10
1061.5000000000005
 20
353.73000000000047
 40
15
 41
0.5999999999999999
 50
0
  1
ピンク
  0
TEXT
  8
_0-7_枠細線
 62
    5
 10
1061.5000000000005
 20
328.73000000000047
 40
15
 41
0.5999999999999999
 50
0
  1
ブルー
  0
TEXT
  8
_0-7_枠細線
 62
    5
 10
1048
 20
303.73000000000059
 40
15
 41
0.5999999999999999
 50
0
  1
ダークグレー
  0
TEXT
  8
_0-7_枠細線
 62
    5
 10
1061.5000000000005
 20
278.7300000000007
 40
15
 41
0.5999999999999999
 50
0
  1
ウッド
  0
LINE
  8
_0-7_枠細線
  6
CONTINUOUS
 62
    5
 10
925
 20
223.73000000000002
 11
1225.0000000000005
 21
223.73000000000002
  0
TEXT
  8
_0-7_枠細線
 62
    5
 10
1057.0000000000009
 20
228.73000000000013
 40
15
 41
0.5999999999999999
 50
0
  1
ブラック
  0
LINE
  8
_0-7_枠細線
  6
CONTINUOUS
 62
    5
 10
1225.0000000000005
 20
473.73000000000047
 11
1225.0000000000005
 21
223.73000000000002
  0
LINE
  8
_0-7_枠細線
  6
CONTINUOUS
 62
    5
 10
1125
 20
473.73000000000047
 11
1125
 21
223.73000000000002
  0
LINE
  8
_0-7_枠細線
  6
CONTINUOUS
 62
    5
 10
1025.0000000000005
 20
473.73000000000047
 11
1025.0000000000005
 21
223.73000000000002
  0
TEXT
  8
_0-7_枠細線
 62
    5
 10
1057.0000000000005
 20
253.73000000000033
 40
15
 41
0.5999999999999999
 50
0
  1
ブラウン
  0
LINE
  8
_0-7_枠細線
  6
CONTINUOUS
 62
    5
 10
918.52762466555532
 20
254.30604122127349
 11
911.02762466555532
 21
269.30604122127352
  0
LINE
  8
_0-7_枠細線
  6
CONTINUOUS
 62
    5
 10
903.52762466555532
 20
254.30604122127349
 11
918.52762466555532
 21
254.30604122127349
  0
LINE
  8
_0-7_枠細線
  6
CONTINUOUS
 62
    5
 10
911.02762466555532
 20
269.30604122127352
 11
903.52762466555532
 21
254.30604122127349
  0
TEXT
  8
_0-7_枠細線
 62
    5
 10
905.89277593370343
 20
253.3572212564236
 40
12.5
 41
0.8
 50
0
  1
４
  0
TEXT
  8
_0-7_枠細線
 62
    5
 10
930.00000000000045
 20
428.73000000000047
 40
15
 41
0.5
 50
0
  1
ＧＲＳ－２０Ｋ２５０－Ｂ
  0
TEXT
  8
_0-7_枠細線
 62
    5
 10
930.00000000000045
 20
403.73000000000047
 40
15
 41
0.5
 50
0
  1
ＧＲＳ－２０Ｋ２５０－Ｇ
  0
TEXT
  8
_0-7_枠細線
 62
    5
 10
930.00000000000045
 20
378.7300000000007
 40
15
 41
0.5
 50
0
  1
ＧＲＳ－２０Ｋ２５０－Ｓ
  0
TEXT
  8
_0-7_枠細線
 62
    5
 10
930.00000000000045
 20
353.73000000000047
 40
15
 41
0.5
 50
0
  1
ＧＲＳ－２０Ｋ２５０－Ｐ
  0
TEXT
  8
_0-7_枠細線
 62
    5
 10
930.00000000000045
 20
328.73000000000047
 40
15
 41
0.5
 50
0
  1
ＧＲＳ－２０Ｋ２５０－Ａ
  0
TEXT
  8
_0-7_枠細線
 62
    5
 10
930.00000000000045
 20
303.73000000000059
 40
15
 41
0.5
 50
0
  1
ＧＲＳ－２０Ｋ２５０－Ｄ
  0
TEXT
  8
_0-7_枠細線
 62
    5
 10
930.00000000000045
 20
278.7300000000007
 40
15
 41
0.5
 50
0
  1
ＧＲＳ－２０Ｋ２５０－Ｍ
  0
TEXT
  8
_0-7_枠細線
 62
    5
 10
930.00000000000045
 20
253.73000000000033
 40
15
 41
0.5
 50
0
  1
ＧＲＳ－２０Ｋ２５０－Ｃ
  0
TEXT
  8
_0-7_枠細線
 62
    5
 10
930.00000000000045
 20
228.73000000000013
 40
15
 41
0.5
 50
0
  1
ＧＲＳ－２０Ｋ２５０－Ｋ
  0
LINE
  8
_0-d_寸法3
  6
CONTINUOUS
 62
    7
 10
451.63992445384292
 20
268.36412902531367
 11
451.63992445384292
 21
310.03079569198019
  0
LINE
  8
_0-d_寸法3
  6
CONTINUOUS
 62
    7
 10
451.63992445384292
 20
305.03079569198019
 11
461.29918271673364
 21
307.61898614300537
  0
LINE
  8
_0-d_寸法3
  6
CONTINUOUS
 62
    7
 10
451.63992445384292
 20
305.03079569198019
 11
461.29918271673364
 21
302.442605240955
  0
LINE
  8
_0-d_寸法3
  6
CONTINUOUS
 62
    7
 10
480.63992445444597
 20
268.36412902531367
 11
480.63992445444597
 21
310.03079569198019
  0
LINE
  8
_0-d_寸法3
  6
CONTINUOUS
 62
    7
 10
480.63992445444597
 20
305.03079569198019
 11
470.98066619155526
 21
302.442605240955
  0
LINE
  8
_0-d_寸法3
  6
CONTINUOUS
 62
    7
 10
480.63992445444597
 20
305.03079569198019
 11
470.98066619155531
 21
307.61898614300543
  0
LINE
  8
_0-d_寸法3
  6
CONTINUOUS
 62
    7
 10
451.63992445384292
 20
305.03079569198019
 11
480.63992445444597
 21
305.03079569198019
  0
TEXT
  8
_0-d_寸法3
 62
    7
 10
440.09374654420213
 20
290.03079569198019
 40
15
 41
1
 50
0
  1
(17.4)
  0
LINE
  8
_0-d_寸法3
  6
CONTINUOUS
 62
    7
 10
480.63992445444597
 20
305.03079569198019
 11
490.29918271733663
 21
307.61898614300537
  0
LINE
  8
_0-d_寸法3
  6
CONTINUOUS
 62
    7
 10
480.63992445444597
 20
305.03079569198019
 11
490.29918271733663
 21
302.44260524095495
  0
LINE
  8
_0-d_寸法3
  6
CONTINUOUS
 62
    7
 10
509.63992445504891
 20
268.36412902531367
 11
509.63992445504891
 21
310.03079569198019
  0
LINE
  8
_0-d_寸法3
  6
CONTINUOUS
 62
    7
 10
509.63992445504891
 20
305.03079569198019
 11
499.9806661921582
 21
302.442605240955
  0
LINE
  8
_0-d_寸法3
  6
CONTINUOUS
 62
    7
 10
509.63992445504891
 20
305.03079569198019
 11
499.98066619215825
 21
307.61898614300543
  0
LINE
  8
_0-d_寸法3
  6
CONTINUOUS
 62
    7
 10
480.63992445444597
 20
305.03079569198019
 11
509.63992445504891
 21
305.03079569198019
  0
TEXT
  8
_0-d_寸法3
 62
    7
 10
477.16041321086828
 20
305.03079569198019
 40
15
 41
1
 50
0
  1
(17.4)
  0
ARC
  8
_0-a_極細3
  6
CONTINUOUS
 62
    7
 10
540.46932777957909
 20
246.85084653362867
 40
17.558839598481345
 50
150.03871396148165
 51
205.23810402387883
  0
ARC
  8
_0-a_極細3
  6
CONTINUOUS
 62
    7
 10
508.70385258968099
 20
231.87733732099801
 40
17.558839598481345
 50
330.03871396148202
 51
25.238104023878222
  0
ARC
  8
_0-a_極細3
  6
CONTINUOUS
 62
    7
 10
395.54951234124525
 20
246.85084653362867
 40
17.558839598481345
 50
150.03871396148165
 51
205.23810402387883
  0
ARC
  8
_0-a_極細3
  6
CONTINUOUS
 62
    7
 10
363.78403715134709
 20
231.87733732099801
 40
17.558839598481345
 50
330.03871396148202
 51
25.238104023878222
  0
LINE
  8
_0-a_極細3
  6
CENTER1
 62
    7
 10
530.43869144413884
 20
239.69746235864693
 11
367.86014881621304
 21
239.69746235864693
  0
LINE
  8
_0-b_細線3
  6
CONTINUOUS
 62
    7
 10
454.47325778809591
 20
228.86412902531367
 11
477.80659112142939
 21
228.86412902531367
  0
LINE
  8
_0-b_細線3
  6
CONTINUOUS
 62
    7
 10
483.47325778869896
 20
228.86412902531367
 11
506.80659112203244
 21
228.86412902531367
  0
LINE
  8
_0-b_細線3
  6
CONTINUOUS
 62
    7
 10
396.47325778657296
 20
228.86412902531367
 11
419.80659111990644
 21
228.86412902531367
  0
LINE
  8
_0-b_細線3
  6
CONTINUOUS
 62
    7
 10
425.47325778717641
 20
228.86412902531367
 11
448.80659112050949
 21
228.86412902531367
  0
LINE
  8
_0-b_細線3
  6
CONTINUOUS
 62
    7
 10
454.47325778809591
 20
250.53079569198033
 11
477.80659112142939
 21
250.53079569198033
  0
LINE
  8
_0-b_細線3
  6
CONTINUOUS
 62
    7
 10
483.47325778869896
 20
250.53079569198033
 11
506.80659112203244
 21
250.53079569198033
  0
LINE
  8
_0-b_細線3
  6
CONTINUOUS
 62
    7
 10
396.47325778657296
 20
250.53079569198033
 11
419.80659111990644
 21
250.53079569198033
  0
LINE
  8
_0-b_細線3
  6
CONTINUOUS
 62
    7
 10
425.47325778717641
 20
250.53079569198033
 11
448.80659112050949
 21
250.53079569198033
  0
LINE
  8
_0-b_細線3
  6
CONTINUOUS
 62
    7
 10
512.4732577893019
 20
250.53079569198033
 11
523.23235418010199
 21
250.53079569198033
  0
LINE
  8
_0-b_細線3
  6
CONTINUOUS
 62
    7
 10
512.4732577893019
 20
228.86412902531367
 11
525.94082618915809
 21
228.86412902531367
  0
LINE
  8
_0-b_細線3
  6
CONTINUOUS
 62
    7
 10
378.31253874176809
 20
250.53079569198033
 11
390.80659111930345
 21
250.53079569198033
  0
LINE
  8
_0-b_細線3
  6
CONTINUOUS
 62
    7
 10
381.02101075082425
 20
228.86412902531367
 11
390.80659111930345
 21
228.86412902531367
  0
TEXT
  8
_0-7_枠細線
 62
    5
 10
417.22469092493753
 20
170.0670836765407
 40
25.000000000000007
 41
0.8
 50
0
  1
断面詳細
  0
TEXT
  8
_0-7_枠細線
 62
    5
 10
521.18718073399953
 20
173.02652349686042
 40
20.000000000000004
 41
0.5999999999999999
 50
0
  1
Ｓ＝１：３
  0
ARC
  8
_0-b_細線3
  6
CONTINUOUS
 62
    7
 10
443.80659112234895
 20
255.03079569198022
 40
1.666666666666667
 50
89.999999999999915
 51
179.99999999999983
  0
ARC
  8
_0-b_細線3
  6
CONTINUOUS
 62
    7
 10
444.58650644122781
 20
258.36412902531367
 40
1.666666666666667
 50
269.99999999999977
 51
330.00000000000301
  0
ARC
  8
_0-b_細線3
  6
CONTINUOUS
 62
    7
 10
447.47325778717595
 20
256.69746235864716
 40
1.666666666666667
 50
89.999999999999915
 51
150.00000000000134
  0
LINE
  8
_0-b_細線3
  6
CONTINUOUS
 62
    7
 10
443.80659112234895
 20
256.69746235864716
 11
444.58650644122781
 21
256.69746235864716
  0
ARC
  8
_0-b_細線3
  6
CONTINUOUS
 62
    7
 10
459.47325778533695
 20
255.03079569198022
 40
1.666666666666667
 50
0
 51
89.999999999999915
  0
ARC
  8
_0-b_細線3
  6
CONTINUOUS
 62
    7
 10
458.69334246645764
 20
258.36412902531367
 40
1.666666666666667
 50
210.00000000000404
 51
269.99999999999977
  0
ARC
  8
_0-b_細線3
  6
CONTINUOUS
 62
    7
 10
455.80659112050944
 20
256.69746235864716
 40
1.666666666666667
 50
29.999999999990862
 51
89.999999999984354
  0
LINE
  8
_0-b_細線3
  6
CONTINUOUS
 62
    7
 10
459.47325778533695
 20
256.69746235864716
 11
458.69334246645764
 21
256.69746235864716
  0
ARC
  8
_0-b_細線3
  6
CONTINUOUS
 62
    7
 10
442.97325778901546
 20
252.69746235864716
 40
0.8333333333333334
 50
179.99999999999983
 51
269.99999999999977
  0
LINE
  8
_0-b_細線3
  6
CONTINUOUS
 62
    7
 10
442.13992445568192
 20
255.03079569198022
 11
442.13992445568192
 21
252.69746235864716
  0
ARC
  8
_0-b_細線3
  6
CONTINUOUS
 62
    7
 10
460.30659111867004
 20
252.69746235864716
 40
0.8333333333333334
 50
269.99999999999977
 51
359.99999999999966
  0
LINE
  8
_0-b_細線3
  6
CONTINUOUS
 62
    7
 10
461.13992445200353
 20
255.03079569198022
 11
461.13992445200353
 21
252.69746235864716
  0
ARC
  8
_0-b_細線3
  6
CONTINUOUS
 62
    7
 10
447.13992445568192
 20
250.19746235864716
 40
1.666666666666667
 50
0
 51
89.999999999999915
  0
LINE
  8
_0-b_細線3
  6
CONTINUOUS
 62
    7
 10
447.13992445568192
 20
251.8641290253137
 11
442.97325778901546
 21
251.8641290253137
  0
ARC
  8
_0-b_細線3
  6
CONTINUOUS
 62
    7
 10
456.13992445568243
 20
250.19746235864716
 40
1.666666666666667
 50
89.999999999999915
 51
179.99999999999983
  0
LINE
  8
_0-b_細線3
  6
CONTINUOUS
 62
    7
 10
456.13992445200353
 20
251.8641290253137
 11
460.30659111867004
 21
251.8641290253137
  0
LINE
  8
_0-b_細線3
  6
CONTINUOUS
 62
    7
 10
455.80659112050944
 20
258.36412902531367
 11
447.47325778717595
 21
258.36412902531367
  0
LINE
  8
_0-b_細線3
  6
CONTINUOUS
 62
    7
 10
448.80659112050949
 20
225.03079569198033
 11
448.80659112234895
 21
250.19746235864716
  0
LINE
  8
_0-b_細線3
  6
CONTINUOUS
 62
    7
 10
454.47325778717595
 20
225.03079569198033
 11
454.47325778901586
 21
250.19746235864716
  0
LINE
  8
_0-b_細線3
  6
CONTINUOUS
 62
    7
 10
454.47325778717595
 20
225.03079569198033
 11
448.80659112050949
 21
225.03079569198033
  0
ARC
  8
_0-b_細線3
  6
CONTINUOUS
 62
    7
 10
472.80659112295189
 20
255.03079569198022
 40
1.666666666666667
 50
89.999999999999915
 51
179.99999999999983
  0
ARC
  8
_0-b_細線3
  6
CONTINUOUS
 62
    7
 10
473.58650644183086
 20
258.36412902531367
 40
1.666666666666667
 50
269.99999999999977
 51
329.99999999999523
  0
ARC
  8
_0-b_細線3
  6
CONTINUOUS
 62
    7
 10
476.47325778777895
 20
256.69746235864716
 40
1.666666666666667
 50
89.999999999999915
 51
150.00000000000915
  0
LINE
  8
_0-b_細線3
  6
CONTINUOUS
 62
    7
 10
472.80659112295189
 20
256.69746235864716
 11
473.58650644183086
 21
256.69746235864716
  0
ARC
  8
_0-b_細線3
  6
CONTINUOUS
 62
    7
 10
488.47325778593995
 20
255.03079569198022
 40
1.666666666666667
 50
0
 51
89.999999999999915
  0
ARC
  8
_0-b_細線3
  6
CONTINUOUS
 62
    7
 10
487.69334246706057
 20
258.36412902531367
 40
1.666666666666667
 50
209.99999999999622
 51
269.99999999999977
  0
ARC
  8
_0-b_細線3
  6
CONTINUOUS
 62
    7
 10
484.80659112111249
 20
256.69746235864716
 40
1.666666666666667
 50
29.999999999998682
 51
89.999999999999915
  0
LINE
  8
_0-b_細線3
  6
CONTINUOUS
 62
    7
 10
488.47325778593995
 20
256.69746235864716
 11
487.69334246706057
 21
256.69746235864716
  0
ARC
  8
_0-b_細線3
  6
CONTINUOUS
 62
    7
 10
471.97325778961891
 20
252.69746235864716
 40
0.8333333333333334
 50
179.99999999999983
 51
269.99999999999977
  0
LINE
  8
_0-b_細線3
  6
CONTINUOUS
 62
    7
 10
471.13992445628497
 20
255.03079569198022
 11
471.13992445628497
 21
252.69746235864716
  0
ARC
  8
_0-b_細線3
  6
CONTINUOUS
 62
    7
 10
489.30659111927298
 20
252.69746235864716
 40
0.8333333333333334
 50
269.99999999999977
 51
359.99999999999966
  0
LINE
  8
_0-b_細線3
  6
CONTINUOUS
 62
    7
 10
490.13992445260646
 20
255.03079569198022
 11
490.13992445260646
 21
252.69746235864716
  0
ARC
  8
_0-b_細線3
  6
CONTINUOUS
 62
    7
 10
476.13992445628497
 20
250.19746235864716
 40
1.666666666666667
 50
0
 51
89.999999999999915
  0
LINE
  8
_0-b_細線3
  6
CONTINUOUS
 62
    7
 10
476.13992445628497
 20
251.8641290253137
 11
471.97325778961891
 21
251.8641290253137
  0
ARC
  8
_0-b_細線3
  6
CONTINUOUS
 62
    7
 10
485.13992445628537
 20
250.19746235864716
 40
1.666666666666667
 50
89.999999999999915
 51
179.99999999999983
  0
LINE
  8
_0-b_細線3
  6
CONTINUOUS
 62
    7
 10
485.13992445260646
 20
251.8641290253137
 11
489.30659111927298
 21
251.8641290253137
  0
LINE
  8
_0-b_細線3
  6
CONTINUOUS
 62
    7
 10
484.80659112111249
 20
258.36412902531367
 11
476.47325778777895
 21
258.36412902531367
  0
LINE
  8
_0-b_細線3
  6
CONTINUOUS
 62
    7
 10
477.80659112111243
 20
225.03079569198033
 11
477.80659112295189
 21
250.19746235864716
  0
LINE
  8
_0-b_細線3
  6
CONTINUOUS
 62
    7
 10
483.473257787779
 20
225.03079569198033
 11
483.47325778961886
 21
250.19746235864716
  0
LINE
  8
_0-b_細線3
  6
CONTINUOUS
 62
    7
 10
483.473257787779
 20
225.03079569198033
 11
477.80659112111243
 21
225.03079569198033
  0
ARC
  8
_0-b_細線3
  6
CONTINUOUS
 62
    7
 10
501.80659112355494
 20
255.03079569198022
 40
1.666666666666667
 50
89.999999999999915
 51
179.99999999999983
  0
ARC
  8
_0-b_細線3
  6
CONTINUOUS
 62
    7
 10
502.5865064424338
 20
258.36412902531367
 40
1.666666666666667
 50
269.99999999999977
 51
329.99999999999523
  0
ARC
  8
_0-b_細線3
  6
CONTINUOUS
 62
    7
 10
505.473257788382
 20
256.69746235864716
 40
1.666666666666667
 50
89.999999999999915
 51
150.00000000000915
  0
LINE
  8
_0-b_細線3
  6
CONTINUOUS
 62
    7
 10
501.80659112355494
 20
256.69746235864716
 11
502.5865064424338
 21
256.69746235864716
  0
ARC
  8
_0-b_細線3
  6
CONTINUOUS
 62
    7
 10
517.47325778654294
 20
255.03079569198022
 40
1.666666666666667
 50
0
 51
89.999999999999915
  0
ARC
  8
_0-b_細線3
  6
CONTINUOUS
 62
    7
 10
516.69334246766357
 20
258.36412902531367
 40
1.666666666666667
 50
210.00000000000404
 51
269.99999999999977
  0
ARC
  8
_0-b_細線3
  6
CONTINUOUS
 62
    7
 10
513.80659112171543
 20
256.69746235864716
 40
1.666666666666667
 50
29.999999999990862
 51
89.999999999984354
  0
LINE
  8
_0-b_細線3
  6
CONTINUOUS
 62
    7
 10
517.47325778654294
 20
256.69746235864716
 11
516.69334246766357
 21
256.69746235864716
  0
ARC
  8
_0-b_細線3
  6
CONTINUOUS
 62
    7
 10
500.9732577902214
 20
252.69746235864716
 40
0.8333333333333334
 50
179.99999999999983
 51
269.99999999999977
  0
LINE
  8
_0-b_細線3
  6
CONTINUOUS
 62
    7
 10
500.13992445688791
 20
255.03079569198022
 11
500.13992445688791
 21
252.69746235864716
  0
ARC
  8
_0-b_細線3
  6
CONTINUOUS
 62
    7
 10
518.30659111987597
 20
252.69746235864716
 40
0.8333333333333334
 50
269.99999999999977
 51
359.99999999999966
  0
LINE
  8
_0-b_細線3
  6
CONTINUOUS
 62
    7
 10
519.13992445320946
 20
255.03079569198022
 11
519.13992445320946
 21
252.69746235864716
  0
ARC
  8
_0-b_細線3
  6
CONTINUOUS
 62
    7
 10
505.13992445688791
 20
250.19746235864716
 40
1.666666666666667
 50
0
 51
89.999999999999915
  0
LINE
  8
_0-b_細線3
  6
CONTINUOUS
 62
    7
 10
505.13992445688791
 20
251.8641290253137
 11
500.9732577902214
 21
251.8641290253137
  0
ARC
  8
_0-b_細線3
  6
CONTINUOUS
 62
    7
 10
514.13992445688791
 20
250.19746235864716
 40
1.666666666666667
 50
89.999999999999915
 51
179.99999999999983
  0
LINE
  8
_0-b_細線3
  6
CONTINUOUS
 62
    7
 10
514.13992445320901
 20
251.8641290253137
 11
518.30659111987597
 21
251.8641290253137
  0
LINE
  8
_0-b_細線3
  6
CONTINUOUS
 62
    7
 10
513.80659112171543
 20
258.36412902531367
 11
505.473257788382
 21
258.36412902531367
  0
LINE
  8
_0-b_細線3
  6
CONTINUOUS
 62
    7
 10
506.80659112171548
 20
225.03079569198033
 11
506.80659112355494
 21
250.19746235864716
  0
LINE
  8
_0-b_細線3
  6
CONTINUOUS
 62
    7
 10
512.47325778838194
 20
225.03079569198033
 11
512.47325779022185
 21
250.19746235864716
  0
LINE
  8
_0-b_細線3
  6
CONTINUOUS
 62
    7
 10
512.47325778838194
 20
225.03079569198033
 11
506.80659112171548
 21
225.03079569198033
  0
ARC
  8
_0-b_細線3
  6
CONTINUOUS
 62
    7
 10
385.806591120826
 20
255.03079569198022
 40
1.666666666666667
 50
89.999999999999915
 51
179.99999999999983
  0
ARC
  8
_0-b_細線3
  6
CONTINUOUS
 62
    7
 10
386.58650643970486
 20
258.36412902531367
 40
1.666666666666667
 50
269.99999999999977
 51
330.00000000000301
  0
ARC
  8
_0-b_細線3
  6
CONTINUOUS
 62
    7
 10
389.473257785653
 20
256.69746235864716
 40
1.666666666666667
 50
89.999999999999915
 51
150.00000000000134
  0
LINE
  8
_0-b_細線3
  6
CONTINUOUS
 62
    7
 10
385.806591120826
 20
256.69746235864716
 11
386.58650643970486
 21
256.69746235864716
  0
ARC
  8
_0-b_細線3
  6
CONTINUOUS
 62
    7
 10
401.47325778381401
 20
255.03079569198022
 40
1.666666666666667
 50
0
 51
89.999999999999915
  0
ARC
  8
_0-b_細線3
  6
CONTINUOUS
 62
    7
 10
400.69334246493509
 20
258.36412902531367
 40
1.666666666666667
 50
209.99999999999622
 51
269.99999999999977
  0
ARC
  8
_0-b_細線3
  6
CONTINUOUS
 62
    7
 10
397.80659111898649
 20
256.69746235864716
 40
1.666666666666667
 50
29.999999999990862
 51
89.999999999984354
  0
LINE
  8
_0-b_細線3
  6
CONTINUOUS
 62
    7
 10
401.47325778381401
 20
256.69746235864716
 11
400.69334246493509
 21
256.69746235864716
  0
ARC
  8
_0-b_細線3
  6
CONTINUOUS
 62
    7
 10
384.97325778749291
 20
252.69746235864716
 40
0.8333333333333334
 50
179.99999999999983
 51
269.99999999999977
  0
LINE
  8
_0-b_細線3
  6
CONTINUOUS
 62
    7
 10
384.13992445415897
 20
255.03079569198022
 11
384.13992445415897
 21
252.69746235864716
  0
ARC
  8
_0-b_細線3
  6
CONTINUOUS
 62
    7
 10
402.30659111714709
 20
252.69746235864716
 40
0.8333333333333334
 50
269.99999999999977
 51
359.99999999999966
  0
LINE
  8
_0-b_細線3
  6
CONTINUOUS
 62
    7
 10
403.13992445048098
 20
255.03079569198022
 11
403.13992445048098
 21
252.69746235864716
  0
ARC
  8
_0-b_細線3
  6
CONTINUOUS
 62
    7
 10
389.13992445415897
 20
250.19746235864716
 40
1.666666666666667
 50
0
 51
89.999999999999915
  0
LINE
  8
_0-b_細線3
  6
CONTINUOUS
 62
    7
 10
389.13992445415897
 20
251.8641290253137
 11
384.97325778749291
 21
251.8641290253137
  0
ARC
  8
_0-b_細線3
  6
CONTINUOUS
 62
    7
 10
398.13992445415948
 20
250.19746235864716
 40
1.666666666666667
 50
89.999999999999915
 51
179.99999999999983
  0
LINE
  8
_0-b_細線3
  6
CONTINUOUS
 62
    7
 10
398.13992445048058
 20
251.8641290253137
 11
402.30659111714709
 21
251.8641290253137
  0
LINE
  8
_0-b_細線3
  6
CONTINUOUS
 62
    7
 10
397.80659111898649
 20
258.36412902531367
 11
389.473257785653
 21
258.36412902531367
  0
LINE
  8
_0-b_細線3
  6
CONTINUOUS
 62
    7
 10
390.80659111898694
 20
225.03079569198033
 11
390.806591120826
 21
250.19746235864716
  0
LINE
  8
_0-b_細線3
  6
CONTINUOUS
 62
    7
 10
396.473257785653
 20
225.03079569198033
 11
396.47325778749291
 21
250.19746235864716
  0
LINE
  8
_0-b_細線3
  6
CONTINUOUS
 62
    7
 10
396.473257785653
 20
225.03079569198033
 11
390.80659111898694
 21
225.03079569198033
  0
ARC
  8
_0-b_細線3
  6
CONTINUOUS
 62
    7
 10
414.80659112142894
 20
255.03079569198022
 40
1.666666666666667
 50
89.999999999999915
 51
179.99999999999983
  0
ARC
  8
_0-b_細線3
  6
CONTINUOUS
 62
    7
 10
415.58650644030831
 20
258.36412902531367
 40
1.666666666666667
 50
269.99999999999977
 51
329.99999999998744
  0
ARC
  8
_0-b_細線3
  6
CONTINUOUS
 62
    7
 10
418.473257786256
 20
256.69746235864716
 40
1.666666666666667
 50
89.999999999999915
 51
150.00000000000915
  0
LINE
  8
_0-b_細線3
  6
CONTINUOUS
 62
    7
 10
414.80659112142894
 20
256.69746235864716
 11
415.58650644030831
 21
256.69746235864716
  0
ARC
  8
_0-b_細線3
  6
CONTINUOUS
 62
    7
 10
430.473257784417
 20
255.03079569198022
 40
1.666666666666667
 50
0
 51
89.999999999999915
  0
ARC
  8
_0-b_細線3
  6
CONTINUOUS
 62
    7
 10
429.69334246553763
 20
258.36412902531367
 40
1.666666666666667
 50
210.00000000000404
 51
269.99999999999977
  0
ARC
  8
_0-b_細線3
  6
CONTINUOUS
 62
    7
 10
426.80659111958994
 20
256.69746235864716
 40
1.666666666666667
 50
29.999999999998682
 51
89.999999999999915
  0
LINE
  8
_0-b_細線3
  6
CONTINUOUS
 62
    7
 10
430.473257784417
 20
256.69746235864716
 11
429.69334246553763
 21
256.69746235864716
  0
ARC
  8
_0-b_細線3
  6
CONTINUOUS
 62
    7
 10
413.97325778809596
 20
252.69746235864716
 40
0.8333333333333334
 50
179.99999999999983
 51
269.99999999999977
  0
LINE
  8
_0-b_細線3
  6
CONTINUOUS
 62
    7
 10
413.13992445476242
 20
255.03079569198022
 11
413.13992445476242
 21
252.69746235864716
  0
ARC
  8
_0-b_細線3
  6
CONTINUOUS
 62
    7
 10
431.30659111775003
 20
252.69746235864716
 40
0.8333333333333334
 50
269.99999999999977
 51
359.99999999999966
  0
LINE
  8
_0-b_細線3
  6
CONTINUOUS
 62
    7
 10
432.13992445108352
 20
255.03079569198022
 11
432.13992445108352
 21
252.69746235864716
  0
ARC
  8
_0-b_細線3
  6
CONTINUOUS
 62
    7
 10
418.13992445476242
 20
250.19746235864716
 40
1.666666666666667
 50
0
 51
89.999999999999915
  0
LINE
  8
_0-b_細線3
  6
CONTINUOUS
 62
    7
 10
418.13992445476242
 20
251.8641290253137
 11
413.97325778809596
 21
251.8641290253137
  0
ARC
  8
_0-b_細線3
  6
CONTINUOUS
 62
    7
 10
427.13992445476242
 20
250.19746235864716
 40
1.666666666666667
 50
89.999999999999915
 51
179.99999999999983
  0
LINE
  8
_0-b_細線3
  6
CONTINUOUS
 62
    7
 10
427.13992445108352
 20
251.8641290253137
 11
431.30659111775003
 21
251.8641290253137
  0
LINE
  8
_0-b_細線3
  6
CONTINUOUS
 62
    7
 10
426.80659111958994
 20
258.36412902531367
 11
418.473257786256
 21
258.36412902531367
  0
LINE
  8
_0-b_細線3
  6
CONTINUOUS
 62
    7
 10
419.80659111958948
 20
225.03079569198033
 11
419.80659112142894
 21
250.19746235864716
  0
LINE
  8
_0-b_細線3
  6
CONTINUOUS
 62
    7
 10
425.47325778625645
 20
225.03079569198033
 11
425.47325778809591
 21
250.19746235864716
  0
LINE
  8
_0-b_細線3
  6
CONTINUOUS
 62
    7
 10
425.47325778625645
 20
225.03079569198033
 11
419.80659111958948
 21
225.03079569198033
  0
LINE
  8
_0-d_寸法3
  6
CONTINUOUS
 62
    7
 10
517.83144489825486
 20
230.76656005549083
 11
553.18378662394036
 21
255.52053622518162
  0
LINE
  8
_0-d_寸法3
  6
CONTINUOUS
 62
    7
 10
549.08802640249542
 20
252.65265404342639
 11
546.49983595147023
 21
262.31191230631703
  0
LINE
  8
_0-d_寸法3
  6
CONTINUOUS
 62
    7
 10
549.08802640249542
 20
252.65265404342639
 11
551.6762168535206
 21
262.31191230631703
  0
LINE
  8
_0-d_寸法3
  6
CONTINUOUS
 62
    7
 10
517.83144489825486
 20
264.09989338882417
 11
553.18378662394036
 21
288.85386955851493
  0
LINE
  8
_0-d_寸法3
  6
CONTINUOUS
 62
    7
 10
549.08802640249542
 20
285.98598737675968
 11
551.6762168535206
 21
276.32672911386896
  0
LINE
  8
_0-d_寸法3
  6
CONTINUOUS
 62
    7
 10
549.08802640249542
 20
285.98598737675968
 11
546.49983595147012
 21
276.32672911386908
  0
LINE
  8
_0-d_寸法3
  6
CONTINUOUS
 62
    7
 10
549.08802640249542
 20
252.65265404342639
 11
549.08802640249542
 21
285.98598737675968
  0
TEXT
  8
_0-d_寸法3
 62
    7
 10
549.08802640249542
 20
261.81932071009402
 40
15
 41
1
 50
90
  1
20
  0
LINE
  8
_0-1_計細線
  6
CONTINUOUS
 62
    3
 10
575.51795824097314
 20
681.60583080108199
 11
321.51795824097269
 21
681.60583080108199
  0
LINE
  8
_0-1_計細線
  6
CONTINUOUS
 62
    3
 10
321.51795824097269
 20
427.6058308010804
 11
575.51795824097314
 21
427.6058308010804
  0
LINE
  8
_0-1_計細線
  6
CONTINUOUS
 62
    3
 10
575.51795824097314
 20
427.6058308010804
 11
575.51795824097314
 21
681.60583080108199
  0
LINE
  8
_0-1_計細線
  6
CONTINUOUS
 62
    3
 10
321.51795824097269
 20
681.60583080108199
 11
321.51795824097269
 21
427.6058308010804
  0
LINE
  8
_0-1_計細線
  6
CONTINUOUS
 62
    3
 10
318.51795824097269
 20
424.60583080108046
 11
318.51795824097269
 21
684.60583080108211
  0
LINE
  8
_0-1_計細線
  6
CONTINUOUS
 62
    3
 10
318.51795824097269
 20
684.60583080108211
 11
578.51795824097314
 21
684.60583080108211
  0
LINE
  8
_0-1_計細線
  6
CONTINUOUS
 62
    3
 10
578.51795824097314
 20
684.60583080108211
 11
578.51795824097314
 21
424.60583080108046
  0
LINE
  8
_0-1_計細線
  6
CONTINUOUS
 62
    3
 10
578.51795824097314
 20
424.60583080108046
 11
318.51795824097269
 21
424.60583080108046
  0
LINE
  8
_0-0_計極細
  6
CONTINUOUS
 62
    2
 10
324.01795824097343
 20
526.3058308010834
 11
324.01795824097343
 21
531.90583080108331
  0
LINE
  8
_0-0_計極細
  6
CONTINUOUS
 62
    2
 10
337.01795824097337
 20
526.3058308010834
 11
337.01795824097337
 21
531.90583080108331
  0
LINE
  8
_0-0_計極細
  6
CONTINUOUS
 62
    2
 10
324.01795824097343
 20
548.90583080107967
 11
324.01795824097343
 21
543.30583080107931
  0
LINE
  8
_0-0_計極細
  6
CONTINUOUS
 62
    2
 10
337.01795824097337
 20
548.90583080107967
 11
337.01795824097337
 21
543.30583080107931
  0
LINE
  8
_0-0_計極細
  6
CONTINUOUS
 62
    2
 10
324.01795824097343
 20
565.90583080108058
 11
324.01795824097343
 21
560.30583080108022
  0
LINE
  8
_0-0_計極細
  6
CONTINUOUS
 62
    2
 10
337.01795824097337
 20
565.90583080108058
 11
337.01795824097337
 21
560.30583080108022
  0
LINE
  8
_0-0_計極細
  6
CONTINUOUS
 62
    2
 10
324.01795824097343
 20
582.90583080108104
 11
324.01795824097343
 21
577.30583080108113
  0
LINE
  8
_0-0_計極細
  6
CONTINUOUS
 62
    2
 10
337.01795824097337
 20
582.90583080108104
 11
337.01795824097337
 21
577.30583080108113
  0
LINE
  8
_0-0_計極細
  6
CONTINUOUS
 62
    2
 10
324.01795824097343
 20
668.20583080108145
 11
324.01795824097343
 21
662.30583080108192
  0
LINE
  8
_0-0_計極細
  6
CONTINUOUS
 62
    2
 10
337.01795824097337
 20
668.20583080108145
 11
337.01795824097337
 21
662.30583080108192
  0
LINE
  8
_0-0_計極細
  6
CONTINUOUS
 62
    2
 10
324.01795824097343
 20
441.00583080108277
 11
324.01795824097343
 21
446.90583080108291
  0
LINE
  8
_0-0_計極細
  6
CONTINUOUS
 62
    2
 10
337.01795824097337
 20
441.00583080108277
 11
337.01795824097337
 21
446.90583080108291
  0
LINE
  8
_0-0_計極細
  6
CENTER1
 62
    2
 10
330.51795824097337
 20
688.35655022554465
 11
330.51795824097337
 21
421.84800706007019
  0
LINE
  8
_0-0_計極細
  6
CONTINUOUS
 62
    2
 10
324.01795824097343
 20
599.90583080108149
 11
324.01795824097343
 21
594.30583080108158
  0
LINE
  8
_0-0_計極細
  6
CONTINUOUS
 62
    2
 10
337.01795824097337
 20
599.90583080108149
 11
337.01795824097337
 21
594.30583080108158
  0
LINE
  8
_0-0_計極細
  6
CONTINUOUS
 62
    2
 10
324.01795824097343
 20
616.9058308010824
 11
324.01795824097343
 21
611.30583080108204
  0
LINE
  8
_0-0_計極細
  6
CONTINUOUS
 62
    2
 10
337.01795824097337
 20
616.9058308010824
 11
337.01795824097337
 21
611.30583080108204
  0
LINE
  8
_0-0_計極細
  6
CONTINUOUS
 62
    2
 10
324.01795824097343
 20
633.90583080108331
 11
324.01795824097343
 21
628.30583080108295
  0
LINE
  8
_0-0_計極細
  6
CONTINUOUS
 62
    2
 10
337.01795824097337
 20
633.90583080108331
 11
337.01795824097337
 21
628.30583080108295
  0
LINE
  8
_0-0_計極細
  6
CONTINUOUS
 62
    2
 10
324.01795824097343
 20
650.90583080108377
 11
324.01795824097343
 21
645.30583080108386
  0
LINE
  8
_0-0_計極細
  6
CONTINUOUS
 62
    2
 10
337.01795824097337
 20
650.90583080108377
 11
337.01795824097337
 21
645.30583080108386
  0
LINE
  8
_0-0_計極細
  6
CONTINUOUS
 62
    2
 10
324.01795824097343
 20
509.305830801083
 11
324.01795824097343
 21
514.90583080108286
  0
LINE
  8
_0-0_計極細
  6
CONTINUOUS
 62
    2
 10
337.01795824097337
 20
509.305830801083
 11
337.01795824097337
 21
514.90583080108286
  0
LINE
  8
_0-0_計極細
  6
CONTINUOUS
 62
    2
 10
324.01795824097343
 20
492.30583080108204
 11
324.01795824097343
 21
497.9058308010824
  0
LINE
  8
_0-0_計極細
  6
CONTINUOUS
 62
    2
 10
337.01795824097337
 20
492.30583080108204
 11
337.01795824097337
 21
497.9058308010824
  0
LINE
  8
_0-0_計極細
  6
CONTINUOUS
 62
    2
 10
324.01795824097343
 20
475.30583080108113
 11
324.01795824097343
 21
480.90583080108155
  0
LINE
  8
_0-0_計極細
  6
CONTINUOUS
 62
    2
 10
337.01795824097337
 20
475.30583080108113
 11
337.01795824097337
 21
480.90583080108155
  0
LINE
  8
_0-0_計極細
  6
CONTINUOUS
 62
    2
 10
324.01795824097343
 20
458.30583080108067
 11
324.01795824097343
 21
463.90583080108058
  0
LINE
  8
_0-0_計極細
  6
CONTINUOUS
 62
    2
 10
337.01795824097337
 20
458.30583080108067
 11
337.01795824097337
 21
463.90583080108058
  0
LINE
  8
_0-0_計極細
  6
CONTINUOUS
 62
    2
 10
421.01795824097348
 20
526.3058308010834
 11
421.01795824097348
 21
531.90583080108331
  0
LINE
  8
_0-0_計極細
  6
CONTINUOUS
 62
    2
 10
434.01795824097348
 20
526.3058308010834
 11
434.01795824097348
 21
531.90583080108331
  0
LINE
  8
_0-0_計極細
  6
CONTINUOUS
 62
    2
 10
421.01795824097348
 20
548.90583080107967
 11
421.01795824097348
 21
543.30583080107931
  0
LINE
  8
_0-0_計極細
  6
CONTINUOUS
 62
    2
 10
434.01795824097348
 20
548.90583080107967
 11
434.01795824097348
 21
543.30583080107931
  0
LINE
  8
_0-0_計極細
  6
CONTINUOUS
 62
    2
 10
421.01795824097348
 20
582.90583080108104
 11
421.01795824097348
 21
577.30583080108113
  0
LINE
  8
_0-0_計極細
  6
CONTINUOUS
 62
    2
 10
434.01795824097348
 20
582.90583080108104
 11
434.01795824097348
 21
577.30583080108113
  0
LINE
  8
_0-0_計極細
  6
CONTINUOUS
 62
    2
 10
421.01795824097348
 20
668.20583080108145
 11
421.01795824097348
 21
662.30583080108192
  0
LINE
  8
_0-0_計極細
  6
CONTINUOUS
 62
    2
 10
434.01795824097348
 20
668.20583080108145
 11
434.01795824097348
 21
662.30583080108192
  0
LINE
  8
_0-0_計極細
  6
CONTINUOUS
 62
    2
 10
421.01795824097348
 20
441.00583080108277
 11
421.01795824097348
 21
446.90583080108291
  0
LINE
  8
_0-0_計極細
  6
CONTINUOUS
 62
    2
 10
434.01795824097348
 20
441.00583080108277
 11
434.01795824097348
 21
446.90583080108291
  0
LINE
  8
_0-0_計極細
  6
CENTER1
 62
    2
 10
427.51795824097348
 20
688.35655022554465
 11
427.51795824097348
 21
421.84800706007019
  0
LINE
  8
_0-0_計極細
  6
CONTINUOUS
 62
    2
 10
421.01795824097348
 20
599.90583080108149
 11
421.01795824097348
 21
594.30583080108158
  0
LINE
  8
_0-0_計極細
  6
CONTINUOUS
 62
    2
 10
434.01795824097348
 20
599.90583080108149
 11
434.01795824097348
 21
594.30583080108158
  0
LINE
  8
_0-0_計極細
  6
CONTINUOUS
 62
    2
 10
421.01795824097348
 20
616.9058308010824
 11
421.01795824097348
 21
611.30583080108204
  0
LINE
  8
_0-0_計極細
  6
CONTINUOUS
 62
    2
 10
434.01795824097348
 20
616.9058308010824
 11
434.01795824097348
 21
611.30583080108204
  0
LINE
  8
_0-0_計極細
  6
CONTINUOUS
 62
    2
 10
421.01795824097348
 20
633.90583080108331
 11
421.01795824097348
 21
628.30583080108295
  0
LINE
  8
_0-0_計極細
  6
CONTINUOUS
 62
    2
 10
434.01795824097348
 20
633.90583080108331
 11
434.01795824097348
 21
628.30583080108295
  0
LINE
  8
_0-0_計極細
  6
CONTINUOUS
 62
    2
 10
421.01795824097348
 20
650.90583080108377
 11
421.01795824097348
 21
645.30583080108386
  0
LINE
  8
_0-0_計極細
  6
CONTINUOUS
 62
    2
 10
434.01795824097348
 20
650.90583080108377
 11
434.01795824097348
 21
645.30583080108386
  0
LINE
  8
_0-0_計極細
  6
CONTINUOUS
 62
    2
 10
421.01795824097348
 20
509.305830801083
 11
421.01795824097348
 21
514.90583080108286
  0
LINE
  8
_0-0_計極細
  6
CONTINUOUS
 62
    2
 10
434.01795824097348
 20
509.305830801083
 11
434.01795824097348
 21
514.90583080108286
  0
LINE
  8
_0-0_計極細
  6
CONTINUOUS
 62
    2
 10
421.01795824097348
 20
492.30583080108204
 11
421.01795824097348
 21
497.9058308010824
  0
LINE
  8
_0-0_計極細
  6
CONTINUOUS
 62
    2
 10
434.01795824097348
 20
492.30583080108204
 11
434.01795824097348
 21
497.9058308010824
  0
LINE
  8
_0-0_計極細
  6
CONTINUOUS
 62
    2
 10
421.01795824097348
 20
475.30583080108113
 11
421.01795824097348
 21
480.90583080108155
  0
LINE
  8
_0-0_計極細
  6
CONTINUOUS
 62
    2
 10
434.01795824097348
 20
475.30583080108113
 11
434.01795824097348
 21
480.90583080108155
  0
LINE
  8
_0-0_計極細
  6
CONTINUOUS
 62
    2
 10
421.01795824097348
 20
458.30583080108067
 11
421.01795824097348
 21
463.90583080108058
  0
LINE
  8
_0-0_計極細
  6
CONTINUOUS
 62
    2
 10
434.01795824097348
 20
458.30583080108067
 11
434.01795824097348
 21
463.90583080108058
  0
LINE
  8
_0-0_計極細
  6
CONTINUOUS
 62
    2
 10
421.01795824097348
 20
565.90583080108058
 11
421.01795824097348
 21
565.45583080108031
  0
LINE
  8
_0-0_計極細
  6
CONTINUOUS
 62
    2
 10
421.01795824097348
 20
560.75583080108049
 11
421.01795824097348
 21
560.30583080108022
  0
LINE
  8
_0-0_計極細
  6
CONTINUOUS
 62
    2
 10
434.01795824097348
 20
565.90583080108058
 11
434.01795824097348
 21
565.45583080108031
  0
LINE
  8
_0-0_計極細
  6
CONTINUOUS
 62
    2
 10
434.01795824097348
 20
560.75583080108049
 11
434.01795824097348
 21
560.30583080108022
  0
LINE
  8
_0-0_計極細
  6
CONTINUOUS
 62
    2
 10
463.01795824097354
 20
526.3058308010834
 11
463.01795824097354
 21
531.90583080108331
  0
LINE
  8
_0-0_計極細
  6
CONTINUOUS
 62
    2
 10
476.01795824097348
 20
526.3058308010834
 11
476.01795824097348
 21
531.90583080108331
  0
LINE
  8
_0-0_計極細
  6
CONTINUOUS
 62
    2
 10
463.01795824097354
 20
548.90583080107967
 11
463.01795824097354
 21
543.30583080107931
  0
LINE
  8
_0-0_計極細
  6
CONTINUOUS
 62
    2
 10
476.01795824097348
 20
548.90583080107967
 11
476.01795824097348
 21
543.30583080107931
  0
LINE
  8
_0-0_計極細
  6
CONTINUOUS
 62
    2
 10
463.01795824097354
 20
565.90583080108058
 11
463.01795824097354
 21
560.30583080108022
  0
LINE
  8
_0-0_計極細
  6
CONTINUOUS
 62
    2
 10
476.01795824097348
 20
565.90583080108058
 11
476.01795824097348
 21
560.30583080108022
  0
LINE
  8
_0-0_計極細
  6
CONTINUOUS
 62
    2
 10
463.01795824097354
 20
582.90583080108104
 11
463.01795824097354
 21
577.30583080108113
  0
LINE
  8
_0-0_計極細
  6
CONTINUOUS
 62
    2
 10
476.01795824097348
 20
582.90583080108104
 11
476.01795824097348
 21
577.30583080108113
  0
LINE
  8
_0-0_計極細
  6
CONTINUOUS
 62
    2
 10
463.01795824097354
 20
668.20583080108145
 11
463.01795824097354
 21
662.30583080108192
  0
LINE
  8
_0-0_計極細
  6
CONTINUOUS
 62
    2
 10
476.01795824097348
 20
668.20583080108145
 11
476.01795824097348
 21
662.30583080108192
  0
LINE
  8
_0-0_計極細
  6
CONTINUOUS
 62
    2
 10
463.01795824097354
 20
441.00583080108277
 11
463.01795824097354
 21
446.90583080108291
  0
LINE
  8
_0-0_計極細
  6
CONTINUOUS
 62
    2
 10
476.01795824097348
 20
441.00583080108277
 11
476.01795824097348
 21
446.90583080108291
  0
LINE
  8
_0-0_計極細
  6
CENTER1
 62
    2
 10
469.51795824097354
 20
688.35655022554465
 11
469.51795824097354
 21
421.84800706007019
  0
LINE
  8
_0-0_計極細
  6
CONTINUOUS
 62
    2
 10
463.01795824097354
 20
599.90583080108149
 11
463.01795824097354
 21
594.30583080108158
  0
LINE
  8
_0-0_計極細
  6
CONTINUOUS
 62
    2
 10
476.01795824097348
 20
599.90583080108149
 11
476.01795824097348
 21
594.30583080108158
  0
LINE
  8
_0-0_計極細
  6
CONTINUOUS
 62
    2
 10
463.01795824097354
 20
616.9058308010824
 11
463.01795824097354
 21
611.30583080108204
  0
LINE
  8
_0-0_計極細
  6
CONTINUOUS
 62
    2
 10
476.01795824097348
 20
616.9058308010824
 11
476.01795824097348
 21
611.30583080108204
  0
LINE
  8
_0-0_計極細
  6
CONTINUOUS
 62
    2
 10
463.01795824097354
 20
633.90583080108331
 11
463.01795824097354
 21
628.30583080108295
  0
LINE
  8
_0-0_計極細
  6
CONTINUOUS
 62
    2
 10
476.01795824097348
 20
633.90583080108331
 11
476.01795824097348
 21
628.30583080108295
  0
LINE
  8
_0-0_計極細
  6
CONTINUOUS
 62
    2
 10
463.01795824097354
 20
650.90583080108377
 11
463.01795824097354
 21
645.30583080108386
  0
LINE
  8
_0-0_計極細
  6
CONTINUOUS
 62
    2
 10
476.01795824097348
 20
650.90583080108377
 11
476.01795824097348
 21
645.30583080108386
  0
LINE
  8
_0-0_計極細
  6
CONTINUOUS
 62
    2
 10
463.01795824097354
 20
509.305830801083
 11
463.01795824097354
 21
514.90583080108286
  0
LINE
  8
_0-0_計極細
  6
CONTINUOUS
 62
    2
 10
476.01795824097348
 20
509.305830801083
 11
476.01795824097348
 21
514.90583080108286
  0
LINE
  8
_0-0_計極細
  6
CONTINUOUS
 62
    2
 10
463.01795824097354
 20
492.30583080108204
 11
463.01795824097354
 21
497.9058308010824
  0
LINE
  8
_0-0_計極細
  6
CONTINUOUS
 62
    2
 10
476.01795824097348
 20
492.30583080108204
 11
476.01795824097348
 21
497.9058308010824
  0
LINE
  8
_0-0_計極細
  6
CONTINUOUS
 62
    2
 10
463.01795824097354
 20
475.30583080108113
 11
463.01795824097354
 21
480.90583080108155
  0
LINE
  8
_0-0_計極細
  6
CONTINUOUS
 62
    2
 10
476.01795824097348
 20
475.30583080108113
 11
476.01795824097348
 21
480.90583080108155
  0
LINE
  8
_0-0_計極細
  6
CONTINUOUS
 62
    2
 10
463.01795824097354
 20
458.30583080108067
 11
463.01795824097354
 21
463.90583080108058
  0
LINE
  8
_0-0_計極細
  6
CONTINUOUS
 62
    2
 10
476.01795824097348
 20
458.30583080108067
 11
476.01795824097348
 21
463.90583080108058
  0
LINE
  8
_0-0_計極細
  6
CONTINUOUS
 62
    2
 10
560.01795824097348
 20
526.3058308010834
 11
560.01795824097348
 21
531.90583080108331
  0
LINE
  8
_0-0_計極細
  6
CONTINUOUS
 62
    2
 10
573.01795824097337
 20
526.3058308010834
 11
573.01795824097337
 21
531.90583080108331
  0
LINE
  8
_0-0_計極細
  6
CONTINUOUS
 62
    2
 10
560.01795824097348
 20
548.90583080107967
 11
560.01795824097348
 21
543.30583080107931
  0
LINE
  8
_0-0_計極細
  6
CONTINUOUS
 62
    2
 10
573.01795824097337
 20
548.90583080107967
 11
573.01795824097337
 21
543.30583080107931
  0
LINE
  8
_0-0_計極細
  6
CONTINUOUS
 62
    2
 10
560.01795824097348
 20
565.90583080108058
 11
560.01795824097348
 21
560.30583080108022
  0
LINE
  8
_0-0_計極細
  6
CONTINUOUS
 62
    2
 10
573.01795824097337
 20
565.90583080108058
 11
573.01795824097337
 21
560.30583080108022
  0
LINE
  8
_0-0_計極細
  6
CONTINUOUS
 62
    2
 10
560.01795824097348
 20
582.90583080108104
 11
560.01795824097348
 21
577.30583080108113
  0
LINE
  8
_0-0_計極細
  6
CONTINUOUS
 62
    2
 10
573.01795824097337
 20
582.90583080108104
 11
573.01795824097337
 21
577.30583080108113
  0
LINE
  8
_0-0_計極細
  6
CONTINUOUS
 62
    2
 10
560.01795824097348
 20
668.20583080108145
 11
560.01795824097348
 21
662.30583080108192
  0
LINE
  8
_0-0_計極細
  6
CONTINUOUS
 62
    2
 10
573.01795824097337
 20
668.20583080108145
 11
573.01795824097337
 21
662.30583080108192
  0
LINE
  8
_0-0_計極細
  6
CONTINUOUS
 62
    2
 10
560.01795824097348
 20
441.00583080108277
 11
560.01795824097348
 21
446.90583080108291
  0
LINE
  8
_0-0_計極細
  6
CONTINUOUS
 62
    2
 10
573.01795824097337
 20
441.00583080108277
 11
573.01795824097337
 21
446.90583080108291
  0
LINE
  8
_0-0_計極細
  6
CENTER1
 62
    2
 10
566.51795824097337
 20
688.35655022554465
 11
566.51795824097337
 21
421.84800706007019
  0
LINE
  8
_0-0_計極細
  6
CONTINUOUS
 62
    2
 10
560.01795824097348
 20
599.90583080108149
 11
560.01795824097348
 21
594.30583080108158
  0
LINE
  8
_0-0_計極細
  6
CONTINUOUS
 62
    2
 10
573.01795824097337
 20
599.90583080108149
 11
573.01795824097337
 21
594.30583080108158
  0
LINE
  8
_0-0_計極細
  6
CONTINUOUS
 62
    2
 10
560.01795824097348
 20
616.9058308010824
 11
560.01795824097348
 21
611.30583080108204
  0
LINE
  8
_0-0_計極細
  6
CONTINUOUS
 62
    2
 10
573.01795824097337
 20
616.9058308010824
 11
573.01795824097337
 21
611.30583080108204
  0
LINE
  8
_0-0_計極細
  6
CONTINUOUS
 62
    2
 10
560.01795824097348
 20
633.90583080108331
 11
560.01795824097348
 21
628.30583080108295
  0
LINE
  8
_0-0_計極細
  6
CONTINUOUS
 62
    2
 10
573.01795824097337
 20
633.90583080108331
 11
573.01795824097337
 21
628.30583080108295
  0
LINE
  8
_0-0_計極細
  6
CONTINUOUS
 62
    2
 10
560.01795824097348
 20
650.90583080108377
 11
560.01795824097348
 21
645.30583080108386
  0
LINE
  8
_0-0_計極細
  6
CONTINUOUS
 62
    2
 10
573.01795824097337
 20
650.90583080108377
 11
573.01795824097337
 21
645.30583080108386
  0
LINE
  8
_0-0_計極細
  6
CONTINUOUS
 62
    2
 10
560.01795824097348
 20
509.305830801083
 11
560.01795824097348
 21
514.90583080108286
  0
LINE
  8
_0-0_計極細
  6
CONTINUOUS
 62
    2
 10
573.01795824097337
 20
509.305830801083
 11
573.01795824097337
 21
514.90583080108286
  0
LINE
  8
_0-0_計極細
  6
CONTINUOUS
 62
    2
 10
560.01795824097348
 20
492.30583080108204
 11
560.01795824097348
 21
497.9058308010824
  0
LINE
  8
_0-0_計極細
  6
CONTINUOUS
 62
    2
 10
573.01795824097337
 20
492.30583080108204
 11
573.01795824097337
 21
497.9058308010824
  0
LINE
  8
_0-0_計極細
  6
CONTINUOUS
 62
    2
 10
560.01795824097348
 20
475.30583080108113
 11
560.01795824097348
 21
480.90583080108155
  0
LINE
  8
_0-0_計極細
  6
CONTINUOUS
 62
    2
 10
573.01795824097337
 20
475.30583080108113
 11
573.01795824097337
 21
480.90583080108155
  0
LINE
  8
_0-0_計極細
  6
CONTINUOUS
 62
    2
 10
560.01795824097348
 20
458.30583080108067
 11
560.01795824097348
 21
463.90583080108058
  0
LINE
  8
_0-0_計極細
  6
CONTINUOUS
 62
    2
 10
573.01795824097337
 20
458.30583080108067
 11
573.01795824097337
 21
463.90583080108058
  0
LINE
  8
_0-1_計細線
  6
CONTINUOUS
 62
    3
 10
323.51795824097337
 20
514.90583080108286
 11
573.51795824097337
 21
514.90583080108286
  0
LINE
  8
_0-1_計細線
  6
CONTINUOUS
 62
    3
 10
323.51795824097337
 20
526.3058308010834
 11
573.51795824097337
 21
526.3058308010834
  0
LINE
  8
_0-1_計細線
  6
CONTINUOUS
 62
    3
 10
323.51795824097337
 20
514.90583080108286
 11
323.51795824097337
 21
526.3058308010834
  0
LINE
  8
_0-1_計細線
  6
CONTINUOUS
 62
    3
 10
573.51795824097337
 20
514.90583080108286
 11
573.51795824097337
 21
526.3058308010834
  0
LINE
  8
_0-0_計極細
  6
CONTINUOUS
 62
    2
 10
323.51795824097337
 20
523.10583080108313
 11
573.51795824097337
 21
523.10583080108313
  0
LINE
  8
_0-0_計極細
  6
CONTINUOUS
 62
    2
 10
323.51795824097337
 20
518.10583080108313
 11
573.51795824097337
 21
518.10583080108313
  0
LINE
  8
_0-1_計細線
  6
CONTINUOUS
 62
    3
 10
323.51795824097337
 20
531.90583080108331
 11
573.51795824097337
 21
531.90583080108331
  0
LINE
  8
_0-1_計細線
  6
CONTINUOUS
 62
    3
 10
323.51795824097337
 20
543.30583080108386
 11
573.51795824097337
 21
543.30583080108386
  0
LINE
  8
_0-1_計細線
  6
CONTINUOUS
 62
    3
 10
323.51795824097337
 20
531.90583080108331
 11
323.51795824097337
 21
543.30583080108386
  0
LINE
  8
_0-1_計細線
  6
CONTINUOUS
 62
    3
 10
573.51795824097337
 20
531.90583080108331
 11
573.51795824097337
 21
543.30583080108386
  0
LINE
  8
_0-0_計極細
  6
CONTINUOUS
 62
    2
 10
323.51795824097337
 20
540.10583080108404
 11
573.51795824097337
 21
540.10583080108404
  0
LINE
  8
_0-0_計極細
  6
CONTINUOUS
 62
    2
 10
323.51795824097337
 20
535.10583080108404
 11
573.51795824097337
 21
535.10583080108404
  0
LINE
  8
_0-1_計細線
  6
CONTINUOUS
 62
    3
 10
323.51795824097337
 20
594.30583080108158
 11
573.51795824097337
 21
594.30583080108158
  0
LINE
  8
_0-1_計細線
  6
CONTINUOUS
 62
    3
 10
323.51795824097337
 20
582.90583080108104
 11
573.51795824097337
 21
582.90583080108104
  0
LINE
  8
_0-1_計細線
  6
CONTINUOUS
 62
    3
 10
323.51795824097337
 20
594.30583080108158
 11
323.51795824097337
 21
582.90583080108104
  0
LINE
  8
_0-1_計細線
  6
CONTINUOUS
 62
    3
 10
573.51795824097337
 20
594.30583080108158
 11
573.51795824097337
 21
582.90583080108104
  0
LINE
  8
_0-0_計極細
  6
CONTINUOUS
 62
    2
 10
323.51795824097337
 20
586.10583080108131
 11
573.51795824097337
 21
586.10583080108131
  0
LINE
  8
_0-0_計極細
  6
CONTINUOUS
 62
    2
 10
323.51795824097337
 20
591.10583080108131
 11
573.51795824097337
 21
591.10583080108131
  0
LINE
  8
_0-1_計細線
  6
CONTINUOUS
 62
    3
 10
323.51795824097337
 20
662.30583080108192
 11
573.51795824097337
 21
662.30583080108192
  0
LINE
  8
_0-1_計細線
  6
CONTINUOUS
 62
    3
 10
323.51795824097337
 20
650.90583080108149
 11
573.51795824097337
 21
650.90583080108149
  0
LINE
  8
_0-1_計細線
  6
CONTINUOUS
 62
    3
 10
323.51795824097337
 20
662.30583080108192
 11
323.51795824097337
 21
650.90583080108149
  0
LINE
  8
_0-1_計細線
  6
CONTINUOUS
 62
    3
 10
573.51795824097337
 20
662.30583080108192
 11
573.51795824097337
 21
650.90583080108149
  0
LINE
  8
_0-0_計極細
  6
CONTINUOUS
 62
    2
 10
323.51795824097337
 20
654.10583080108177
 11
573.51795824097337
 21
654.10583080108177
  0
LINE
  8
_0-0_計極細
  6
CONTINUOUS
 62
    2
 10
323.51795824097337
 20
659.10583080108199
 11
573.51795824097337
 21
659.10583080108199
  0
LINE
  8
_0-1_計細線
  6
CONTINUOUS
 62
    3
 10
323.51795824097337
 20
679.60583080108211
 11
573.51795824097337
 21
679.60583080108211
  0
LINE
  8
_0-1_計細線
  6
CONTINUOUS
 62
    3
 10
323.51795824097337
 20
668.20583080108145
 11
573.51795824097337
 21
668.20583080108145
  0
LINE
  8
_0-1_計細線
  6
CONTINUOUS
 62
    3
 10
323.51795824097337
 20
679.60583080108211
 11
323.51795824097337
 21
668.20583080108145
  0
LINE
  8
_0-1_計細線
  6
CONTINUOUS
 62
    3
 10
573.51795824097337
 20
679.60583080108211
 11
573.51795824097337
 21
668.20583080108145
  0
LINE
  8
_0-0_計極細
  6
CONTINUOUS
 62
    2
 10
323.51795824097337
 20
671.40583080108217
 11
573.51795824097337
 21
671.40583080108217
  0
LINE
  8
_0-0_計極細
  6
CONTINUOUS
 62
    2
 10
323.51795824097337
 20
676.40583080108217
 11
573.51795824097337
 21
676.40583080108217
  0
LINE
  8
_0-1_計細線
  6
CONTINUOUS
 62
    3
 10
323.51795824097337
 20
446.9058308010824
 11
573.51795824097337
 21
446.9058308010824
  0
LINE
  8
_0-1_計細線
  6
CONTINUOUS
 62
    3
 10
323.51795824097337
 20
458.30583080108295
 11
573.51795824097337
 21
458.30583080108295
  0
LINE
  8
_0-1_計細線
  6
CONTINUOUS
 62
    3
 10
323.51795824097337
 20
446.9058308010824
 11
323.51795824097337
 21
458.30583080108295
  0
LINE
  8
_0-1_計細線
  6
CONTINUOUS
 62
    3
 10
573.51795824097337
 20
446.9058308010824
 11
573.51795824097337
 21
458.30583080108295
  0
LINE
  8
_0-0_計極細
  6
CONTINUOUS
 62
    2
 10
323.51795824097337
 20
455.10583080108267
 11
573.51795824097337
 21
455.10583080108267
  0
LINE
  8
_0-0_計極細
  6
CONTINUOUS
 62
    2
 10
323.51795824097337
 20
450.10583080108267
 11
573.51795824097337
 21
450.10583080108267
  0
LINE
  8
_0-1_計細線
  6
CONTINUOUS
 62
    3
 10
323.51795824097337
 20
429.60583080108222
 11
573.51795824097337
 21
429.60583080108222
  0
LINE
  8
_0-1_計細線
  6
CONTINUOUS
 62
    3
 10
323.51795824097337
 20
441.00583080108277
 11
573.51795824097337
 21
441.00583080108277
  0
LINE
  8
_0-1_計細線
  6
CONTINUOUS
 62
    3
 10
323.51795824097337
 20
429.60583080108222
 11
323.51795824097337
 21
441.00583080108277
  0
LINE
  8
_0-1_計細線
  6
CONTINUOUS
 62
    3
 10
573.51795824097337
 20
429.60583080108222
 11
573.51795824097337
 21
441.00583080108277
  0
LINE
  8
_0-0_計極細
  6
CONTINUOUS
 62
    2
 10
323.51795824097337
 20
437.80583080108249
 11
573.51795824097337
 21
437.80583080108249
  0
LINE
  8
_0-0_計極細
  6
CONTINUOUS
 62
    2
 10
323.51795824097337
 20
432.80583080108249
 11
573.51795824097337
 21
432.80583080108249
  0
LINE
  8
_0-1_計細線
  6
CONTINUOUS
 62
    3
 10
323.51795824097337
 20
611.30583080108204
 11
573.51795824097337
 21
611.30583080108204
  0
LINE
  8
_0-1_計細線
  6
CONTINUOUS
 62
    3
 10
323.51795824097337
 20
599.90583080108149
 11
573.51795824097337
 21
599.90583080108149
  0
LINE
  8
_0-1_計細線
  6
CONTINUOUS
 62
    3
 10
323.51795824097337
 20
611.30583080108204
 11
323.51795824097337
 21
599.90583080108149
  0
LINE
  8
_0-1_計細線
  6
CONTINUOUS
 62
    3
 10
573.51795824097337
 20
611.30583080108204
 11
573.51795824097337
 21
599.90583080108149
  0
LINE
  8
_0-0_計極細
  6
CONTINUOUS
 62
    2
 10
323.51795824097337
 20
603.10583080108222
 11
573.51795824097337
 21
603.10583080108222
  0
LINE
  8
_0-0_計極細
  6
CONTINUOUS
 62
    2
 10
323.51795824097337
 20
608.10583080108222
 11
573.51795824097337
 21
608.10583080108222
  0
LINE
  8
_0-1_計細線
  6
CONTINUOUS
 62
    3
 10
323.51795824097337
 20
628.30583080108295
 11
573.51795824097337
 21
628.30583080108295
  0
LINE
  8
_0-1_計細線
  6
CONTINUOUS
 62
    3
 10
323.51795824097337
 20
616.9058308010824
 11
573.51795824097337
 21
616.9058308010824
  0
LINE
  8
_0-1_計細線
  6
CONTINUOUS
 62
    3
 10
323.51795824097337
 20
628.30583080108295
 11
323.51795824097337
 21
616.9058308010824
  0
LINE
  8
_0-1_計細線
  6
CONTINUOUS
 62
    3
 10
573.51795824097337
 20
628.30583080108295
 11
573.51795824097337
 21
616.9058308010824
  0
LINE
  8
_0-0_計極細
  6
CONTINUOUS
 62
    2
 10
323.51795824097337
 20
620.10583080108267
 11
573.51795824097337
 21
620.10583080108267
  0
LINE
  8
_0-0_計極細
  6
CONTINUOUS
 62
    2
 10
323.51795824097337
 20
625.10583080108267
 11
573.51795824097337
 21
625.10583080108267
  0
LINE
  8
_0-1_計細線
  6
CONTINUOUS
 62
    3
 10
323.51795824097337
 20
645.30583080108386
 11
573.51795824097337
 21
645.30583080108386
  0
LINE
  8
_0-1_計細線
  6
CONTINUOUS
 62
    3
 10
323.51795824097337
 20
633.90583080108331
 11
573.51795824097337
 21
633.90583080108331
  0
LINE
  8
_0-1_計細線
  6
CONTINUOUS
 62
    3
 10
323.51795824097337
 20
645.30583080108386
 11
323.51795824097337
 21
633.90583080108331
  0
LINE
  8
_0-1_計細線
  6
CONTINUOUS
 62
    3
 10
573.51795824097337
 20
645.30583080108386
 11
573.51795824097337
 21
633.90583080108331
  0
LINE
  8
_0-0_計極細
  6
CONTINUOUS
 62
    2
 10
323.51795824097337
 20
637.10583080108313
 11
573.51795824097337
 21
637.10583080108313
  0
LINE
  8
_0-0_計極細
  6
CONTINUOUS
 62
    2
 10
323.51795824097337
 20
642.10583080108324
 11
573.51795824097337
 21
642.10583080108324
  0
LINE
  8
_0-1_計細線
  6
CONTINUOUS
 62
    3
 10
323.51795824097337
 20
497.9058308010824
 11
573.51795824097337
 21
497.9058308010824
  0
LINE
  8
_0-1_計細線
  6
CONTINUOUS
 62
    3
 10
323.51795824097337
 20
509.305830801083
 11
573.51795824097337
 21
509.305830801083
  0
LINE
  8
_0-1_計細線
  6
CONTINUOUS
 62
    3
 10
323.51795824097337
 20
497.9058308010824
 11
323.51795824097337
 21
509.305830801083
  0
LINE
  8
_0-1_計細線
  6
CONTINUOUS
 62
    3
 10
573.51795824097337
 20
497.9058308010824
 11
573.51795824097337
 21
509.305830801083
  0
LINE
  8
_0-0_計極細
  6
CONTINUOUS
 62
    2
 10
323.51795824097337
 20
506.10583080108228
 11
573.51795824097337
 21
506.10583080108228
  0
LINE
  8
_0-0_計極細
  6
CONTINUOUS
 62
    2
 10
323.51795824097337
 20
501.10583080108228
 11
573.51795824097337
 21
501.10583080108228
  0
LINE
  8
_0-1_計細線
  6
CONTINUOUS
 62
    3
 10
323.51795824097337
 20
480.90583080108155
 11
573.51795824097337
 21
480.90583080108155
  0
LINE
  8
_0-1_計細線
  6
CONTINUOUS
 62
    3
 10
323.51795824097337
 20
492.30583080108204
 11
573.51795824097337
 21
492.30583080108204
  0
LINE
  8
_0-1_計細線
  6
CONTINUOUS
 62
    3
 10
323.51795824097337
 20
480.90583080108155
 11
323.51795824097337
 21
492.30583080108204
  0
LINE
  8
_0-1_計細線
  6
CONTINUOUS
 62
    3
 10
573.51795824097337
 20
480.90583080108155
 11
573.51795824097337
 21
492.30583080108204
  0
LINE
  8
_0-0_計極細
  6
CONTINUOUS
 62
    2
 10
323.51795824097337
 20
489.10583080108182
 11
573.51795824097337
 21
489.10583080108182
  0
LINE
  8
_0-0_計極細
  6
CONTINUOUS
 62
    2
 10
323.51795824097337
 20
484.10583080108182
 11
573.51795824097337
 21
484.10583080108182
  0
LINE
  8
_0-1_計細線
  6
CONTINUOUS
 62
    3
 10
323.51795824097337
 20
463.90583080108058
 11
573.51795824097337
 21
463.90583080108058
  0
LINE
  8
_0-1_計細線
  6
CONTINUOUS
 62
    3
 10
323.51795824097337
 20
475.30583080108113
 11
573.51795824097337
 21
475.30583080108113
  0
LINE
  8
_0-1_計細線
  6
CONTINUOUS
 62
    3
 10
323.51795824097337
 20
463.90583080108058
 11
323.51795824097337
 21
475.30583080108113
  0
LINE
  8
_0-1_計細線
  6
CONTINUOUS
 62
    3
 10
573.51795824097337
 20
463.90583080108058
 11
573.51795824097337
 21
475.30583080108113
  0
LINE
  8
_0-0_計極細
  6
CONTINUOUS
 62
    2
 10
323.51795824097337
 20
472.10583080108137
 11
573.51795824097337
 21
472.10583080108137
  0
LINE
  8
_0-0_計極細
  6
CONTINUOUS
 62
    2
 10
323.51795824097337
 20
467.10583080108137
 11
573.51795824097337
 21
467.10583080108137
  0
LINE
  8
_0-1_計細線
  6
CONTINUOUS
 62
    3
 10
323.51795824097337
 20
577.30583080108113
 11
573.51795824097337
 21
577.30583080108113
  0
LINE
  8
_0-1_計細線
  6
CONTINUOUS
 62
    3
 10
573.51795824097337
 20
577.30583080108113
 11
573.51795824097337
 21
565.90583080108058
  0
LINE
  8
_0-0_計極細
  6
CONTINUOUS
 62
    2
 10
323.51795824097337
 20
569.1058308010804
 11
573.51795824097337
 21
569.1058308010804
  0
LINE
  8
_0-0_計極細
  6
CONTINUOUS
 62
    2
 10
323.51795824097337
 20
574.1058308010804
 11
573.51795824097337
 21
574.1058308010804
  0
LINE
  8
_0-1_計細線
  6
CONTINUOUS
 62
    3
 10
323.51795824097337
 20
565.90583080108058
 11
573.51795824097337
 21
565.90583080108058
  0
LINE
  8
_0-1_計細線
  6
CONTINUOUS
 62
    3
 10
323.51795824097337
 20
577.30583080108113
 11
323.51795824097337
 21
565.90583080108058
  0
LINE
  8
_0-1_計細線
  6
CONTINUOUS
 62
    3
 10
323.51795824097337
 20
548.90583080107967
 11
573.51795824097337
 21
548.90583080107967
  0
LINE
  8
_0-1_計細線
  6
CONTINUOUS
 62
    3
 10
573.51795824097337
 20
560.30583080108022
 11
573.51795824097337
 21
548.90583080107967
  0
LINE
  8
_0-0_計極細
  6
CONTINUOUS
 62
    2
 10
323.51795824097337
 20
552.10583080107995
 11
573.51795824097337
 21
552.10583080107995
  0
LINE
  8
_0-0_計極細
  6
CONTINUOUS
 62
    2
 10
323.51795824097337
 20
557.10583080107995
 11
573.51795824097337
 21
557.10583080107995
  0
LINE
  8
_0-1_計細線
  6
CONTINUOUS
 62
    3
 10
323.51795824097337
 20
560.30583080108022
 11
323.51795824097337
 21
548.90583080107967
  0
LINE
  8
_0-1_計細線
  6
CONTINUOUS
 62
    3
 10
323.51795824097337
 20
560.30583080108022
 11
573.51795824097337
 21
560.30583080108022
  0
LINE
  8
_0-0_計極細
  6
CENTER2
 62
    2
 10
307.62935870395467
 20
554.60583080108199
 11
591.21663524827466
 21
554.60583080108199
  0
LINE
  8
_0-5_寸法線
  6
CONTINUOUS
 62
    7
 10
406.92164252521081
 20
563.06834520130815
 11
398.94229898072035
 21
569.09578882186554
  0
LINE
  8
_0-5_寸法線
  6
CONTINUOUS
 62
    7
 10
406.92164252521081
 20
563.06834520130815
 11
403.02505012043741
 21
572.27793626883454
  0
LINE
  8
_0-5_寸法線
  6
CONTINUOUS
 62
    7
 10
406.92164252521081
 20
563.06834520130815
 11
263.66284941912159
 21
746.87189628612032
  0
LINE
  8
_0-5_寸法線
  6
CONTINUOUS
 62
    7
 10
263.66284941912159
 20
746.87189628612032
 11
203.66284941912156
 21
746.87189628612032
  0
TEXT
  8
_0-5_寸法線
 62
    7
 10
203.66284941912156
 20
746.87189628612032
 40
15
 41
0.8000000000000001
 50
0
  1
取　外　具
  0
TEXT
  8
_0-5_寸法線
 62
    7
 10
199.55539651822306
 20
729.44299622973529
 40
15
 41
0.8000000000000001
 50
0
  1
(標準付属)
  0
TEXT
  8
_0-7_枠細線
 62
    5
 10
202.74854395369388
 20
763.38164999164655
 40
12.5
 41
0.8
 50
0
  1
２
  0
LINE
  8
_0-7_枠細線
  6
CONTINUOUS
 62
    5
 10
215.3833926855458
 20
763.6886522370271
 11
207.8833926855458
 21
778.6886522370271
  0
LINE
  8
_0-7_枠細線
  6
CONTINUOUS
 62
    5
 10
200.3833926855458
 20
763.6886522370271
 11
215.3833926855458
 21
763.6886522370271
  0
LINE
  8
_0-7_枠細線
  6
CONTINUOUS
 62
    5
 10
207.8833926855458
 20
778.6886522370271
 11
200.3833926855458
 21
763.6886522370271
  0
TEXT
  8
_0-7_枠細線
 62
    5
 10
221.64043778157009
 20
763.08850726958053
 40
12.5
 41
0.8
 50
0
  1
３
  0
LINE
  8
_0-7_枠細線
  6
CONTINUOUS
 62
    5
 10
226.775286513422
 20
778.63619115976189
 11
219.275286513422
 21
763.63619115976189
  0
LINE
  8
_0-7_枠細線
  6
CONTINUOUS
 62
    5
 10
219.275286513422
 20
763.63619115976189
 11
234.275286513422
 21
763.63619115976189
  0
LINE
  8
_0-7_枠細線
  6
CONTINUOUS
 62
    5
 10
234.275286513422
 20
763.63619115976189
 11
226.775286513422
 21
778.63619115976189
  0
LINE
  8
_0-7_枠細線
  6
CONTINUOUS
 62
    5
 10
589.62302206321681
 20
753.92835803928324
 11
582.12302206321681
 21
738.92835803928324
  0
LINE
  8
_0-7_枠細線
  6
CONTINUOUS
 62
    5
 10
582.12302206321681
 20
738.92835803928324
 11
597.12302206321681
 21
738.92835803928324
  0
LINE
  8
_0-7_枠細線
  6
CONTINUOUS
 62
    5
 10
597.12302206321681
 20
738.92835803928324
 11
589.62302206321681
 21
753.92835803928324
  0
TEXT
  8
_0-7_枠細線
 62
    5
 10
586.98817333136492
 20
738.38067414910188
 40
12.5
 41
0.8
 50
0
  1
1
  0
LINE
  8
_0-5_寸法線
  6
CONTINUOUS
 62
    7
 10
318.51795824097269
 20
694.60583080108211
 11
318.51795824097286
 21
844.60583080108211
  0
LINE
  8
_0-5_寸法線
  6
CONTINUOUS
 62
    7
 10
318.51795824097286
 20
839.60583080108211
 11
328.17721650386352
 21
842.19402125210718
  0
LINE
  8
_0-5_寸法線
  6
CONTINUOUS
 62
    7
 10
318.51795824097286
 20
839.60583080108211
 11
328.17721650386352
 21
837.01764035005681
  0
LINE
  8
_0-5_寸法線
  6
CONTINUOUS
 62
    7
 10
578.51795824097314
 20
694.60583080108211
 11
578.51795824097371
 21
844.60583080108211
  0
LINE
  8
_0-5_寸法線
  6
CONTINUOUS
 62
    7
 10
578.51795824097371
 20
839.60583080108211
 11
568.85869997808288
 21
837.01764035005681
  0
LINE
  8
_0-5_寸法線
  6
CONTINUOUS
 62
    7
 10
578.51795824097371
 20
839.60583080108211
 11
568.85869997808288
 21
842.19402125210718
  0
LINE
  8
_0-5_寸法線
  6
CONTINUOUS
 62
    7
 10
318.51795824097286
 20
839.60583080108211
 11
578.51795824097371
 21
839.60583080108211
  0
TEXT
  8
_0-5_寸法線
 62
    7
 10
437.26795824097303
 20
839.60583080108199
 40
15
 41
1
 50
0
  1
260
  0
LINE
  8
_0-5_寸法線
  6
CONTINUOUS
 62
    7
 10
318.51795824097269
 20
804.60583080108211
 11
308.85869997808197
 21
802.01764035005681
  0
LINE
  8
_0-5_寸法線
  6
CONTINUOUS
 62
    7
 10
318.51795824097269
 20
804.60583080108211
 11
308.85869997808197
 21
807.19402125210718
  0
LINE
  8
_0-5_寸法線
  6
CONTINUOUS
 62
    7
 10
321.51795824097269
 20
694.60583080108211
 11
321.51795824097269
 21
809.60583080108211
  0
LINE
  8
_0-5_寸法線
  6
CONTINUOUS
 62
    7
 10
293.51795824097269
 20
804.60583080108211
 11
321.51795824097269
 21
804.60583080108211
  0
TEXT
  8
_0-5_寸法線
 62
    7
 10
297.41188198170573
 20
804.60583080108199
 40
15
 41
1
 50
0
  1
3
  0
LINE
  8
_0-5_寸法線
  6
CONTINUOUS
 62
    7
 10
321.51795824097269
 20
804.60583080108211
 11
331.17721650386341
 21
807.19402125210718
  0
LINE
  8
_0-5_寸法線
  6
CONTINUOUS
 62
    7
 10
321.51795824097269
 20
804.60583080108211
 11
331.17721650386335
 21
802.01764035005681
  0
LINE
  8
_0-5_寸法線
  6
CONTINUOUS
 62
    7
 10
575.51795824097314
 20
694.60583080108211
 11
575.51795824097326
 21
809.60583080108211
  0
LINE
  8
_0-5_寸法線
  6
CONTINUOUS
 62
    7
 10
575.51795824097326
 20
804.60583080108211
 11
565.85869997808254
 21
802.01764035005681
  0
LINE
  8
_0-5_寸法線
  6
CONTINUOUS
 62
    7
 10
575.51795824097326
 20
804.60583080108211
 11
565.85869997808254
 21
807.19402125210718
  0
LINE
  8
_0-5_寸法線
  6
CONTINUOUS
 62
    7
 10
321.51795824097269
 20
804.60583080108211
 11
575.51795824097326
 21
804.60583080108211
  0
TEXT
  8
_0-5_寸法線
 62
    7
 10
437.26795824097286
 20
804.60583080108199
 40
15
 41
1
 50
0
  1
254
  0
LINE
  8
_0-5_寸法線
  6
CONTINUOUS
 62
    7
 10
578.51795824097326
 20
804.60583080108211
 11
588.17721650386397
 21
807.19402125210718
  0
LINE
  8
_0-5_寸法線
  6
CONTINUOUS
 62
    7
 10
578.51795824097326
 20
804.60583080108211
 11
588.17721650386397
 21
802.01764035005681
  0
LINE
  8
_0-5_寸法線
  6
CONTINUOUS
 62
    7
 10
575.51795824097326
 20
804.60583080108211
 11
603.51795824097326
 21
804.60583080108211
  0
TEXT
  8
_0-5_寸法線
 62
    7
 10
592.68560460944286
 20
804.60583080108211
 40
15
 41
1
 50
0
  1
3
  0
LINE
  8
_0-5_寸法線
  6
CONTINUOUS
 62
    7
 10
323.51795824097337
 20
694.60583080108211
 11
323.51795824097348
 21
774.60583080108211
  0
LINE
  8
_0-5_寸法線
  6
CONTINUOUS
 62
    7
 10
323.51795824097348
 20
769.60583080108211
 11
333.1772165038642
 21
772.19402125210718
  0
LINE
  8
_0-5_寸法線
  6
CONTINUOUS
 62
    7
 10
323.51795824097348
 20
769.60583080108211
 11
333.1772165038642
 21
767.01764035005681
  0
LINE
  8
_0-5_寸法線
  6
CONTINUOUS
 62
    7
 10
573.51795824097337
 20
694.60583080108211
 11
573.51795824097348
 21
774.60583080108211
  0
LINE
  8
_0-5_寸法線
  6
CONTINUOUS
 62
    7
 10
573.51795824097348
 20
769.60583080108211
 11
563.85869997808277
 21
767.01764035005681
  0
LINE
  8
_0-5_寸法線
  6
CONTINUOUS
 62
    7
 10
573.51795824097348
 20
769.60583080108211
 11
563.85869997808277
 21
772.19402125210718
  0
LINE
  8
_0-5_寸法線
  6
CONTINUOUS
 62
    7
 10
323.51795824097348
 20
769.60583080108211
 11
573.51795824097348
 21
769.60583080108211
  0
TEXT
  8
_0-5_寸法線
 62
    7
 10
437.26795824097348
 20
769.60583080108211
 40
15
 41
1
 50
0
  1
250
  0
LINE
  8
_0-7_枠細線
  6
CONTINUOUS
 62
    5
 10
252.98927037691826
 20
763.63619115976189
 11
245.48927037691826
 21
778.63619115976189
  0
LINE
  8
_0-7_枠細線
  6
CONTINUOUS
 62
    5
 10
237.98927037691826
 20
763.63619115976189
 11
252.98927037691826
 21
763.63619115976189
  0
LINE
  8
_0-7_枠細線
  6
CONTINUOUS
 62
    5
 10
245.48927037691826
 20
778.63619115976189
 11
237.98927037691826
 21
763.63619115976189
  0
TEXT
  8
_0-7_枠細線
 62
    5
 10
240.3544216450664
 20
763.08850726958053
 40
12.5
 41
0.8
 50
0
  1
６
  0
TEXT
  8
_0-7_枠細線
 62
    5
 10
938.85037037037023
 20
822.5
 40
12.5
 41
1
 50
0
  1
取外具形状変更
  0
LINE
  8
_0-7_枠細線
  6
CONTINUOUS
 62
    5
 10
907.5
 20
836.44233397174673
 11
900
 21
821.44233397174673
  0
LINE
  8
_0-7_枠細線
  6
CONTINUOUS
 62
    5
 10
900
 20
821.44233397174673
 11
915
 21
821.44233397174673
  0
LINE
  8
_0-7_枠細線
  6
CONTINUOUS
 62
    5
 10
915
 20
821.44233397174673
 11
907.5
 21
836.44233397174673
  0
TEXT
  8
_0-7_枠細線
 62
    5
 10
902.36515126814822
 20
821.13533172636653
 40
12.5
 41
0.8
 50
0
  1
６
  0
TEXT
  8
_0-7_枠細線
 62
    5
 10
1180
 20
822.5
 40
12.5
 41
0.7199999999999999
 50
0
  1
２０２１．０５．０６
  0
LINE
  8
_0-7_枠細線
  6
CONTINUOUS
 62
    5
 10
1425
 20
820
 11
890
 21
820
  0
LINE
  8
_0-7_枠細線
  6
CONTINUOUS
 62
    5
 10
890
 20
820
 11
890
 21
959.99999999999909
  0
LINE
  8
_0-7_枠細線
  6
CONTINUOUS
 62
    5
 10
925
 20
820
 11
925
 21
959.99999999999909
  0
LINE
  8
_0-7_枠細線
  6
CONTINUOUS
 62
    5
 10
1175
 20
820
 11
1175
 21
959.99999999999909
  0
LINE
  8
_0-7_枠細線
  6
CONTINUOUS
 62
    5
 10
1275
 20
820
 11
1275
 21
959.99999999999909
  0
LINE
  8
_0-1_計細線
  6
CONTINUOUS
 62
    3
 10
1095.8500000007334
 20
653.96000000000004
 11
1100.3000000005522
 21
653.96000000000004
  0
LINE
  8
_0-1_計細線
  6
CONTINUOUS
 62
    3
 10
1095.8500000007334
 20
640.95999999999913
 11
1100.3000000005522
 21
640.95999999999913
  0
LINE
  8
_0-1_計細線
  6
CONTINUOUS
 62
    3
 10
1086.7000000011212
 20
653.96000000000004
 11
1091.1500000007363
 21
653.96000000000004
  0
LINE
  8
_0-1_計細線
  6
CONTINUOUS
 62
    3
 10
1086.7000000001572
 20
640.95999999999913
 11
1091.1500000007363
 21
640.95999999999913
  0
ARC
  8
_0-1_計細線
  6
CONTINUOUS
 62
    3
 10
1080.3000000011052
 20
656.65999999999985
 40
1
 50
89.999999999999915
 51
179.99999999999983
  0
ARC
  8
_0-1_計細線
  6
CONTINUOUS
 62
    3
 10
1080.7679491924318
 20
658.66000000000088
 40
1
 50
269.99999999999977
 51
329.99999999999631
  0
ARC
  8
_0-1_計細線
  6
CONTINUOUS
 62
    3
 10
1082.5
 20
657.65999999999985
 40
1
 50
89.999999999999915
 51
149.99999999993759
  0
LINE
  8
_0-1_計細線
  6
CONTINUOUS
 62
    3
 10
1080.3000000011052
 20
657.65999999999985
 11
1080.7679491924318
 21
657.65999999999985
  0
ARC
  8
_0-1_計細線
  6
CONTINUOUS
 62
    3
 10
1089.6999999988984
 20
656.65999999999985
 40
1
 50
0
 51
89.999999999999915
  0
ARC
  8
_0-1_計細線
  6
CONTINUOUS
 62
    3
 10
1089.2320508075718
 20
658.66000000000088
 40
1
 50
210.00000000000296
 51
269.99999999999977
  0
ARC
  8
_0-1_計細線
  6
CONTINUOUS
 62
    3
 10
1087.5000000000036
 20
657.65999999999985
 40
1
 50
30.000000000062425
 51
89.999999999999929
  0
LINE
  8
_0-1_計細線
  6
CONTINUOUS
 62
    3
 10
1089.6999999988984
 20
657.65999999999985
 11
1089.2320508075718
 21
657.65999999999985
  0
ARC
  8
_0-1_計細線
  6
CONTINUOUS
 62
    3
 10
1079.8000000011052
 20
655.25999999999942
 40
0.5
 50
179.99999999999983
 51
269.99999999999977
  0
LINE
  8
_0-1_計細線
  6
CONTINUOUS
 62
    3
 10
1079.3000000011052
 20
656.65999999999985
 11
1079.3000000011052
 21
655.25999999999942
  0
ARC
  8
_0-1_計細線
  6
CONTINUOUS
 62
    3
 10
1090.1999999988984
 20
655.25999999999942
 40
0.5
 50
269.99999999999977
 51
359.99999999999966
  0
LINE
  8
_0-1_計細線
  6
CONTINUOUS
 62
    3
 10
1090.6999999988984
 20
656.65999999999985
 11
1090.6999999988984
 21
655.25999999999942
  0
ARC
  8
_0-1_計細線
  6
CONTINUOUS
 62
    3
 10
1082.3000000011052
 20
653.75999999999931
 40
1
 50
0
 51
89.999999999999915
  0
LINE
  8
_0-1_計細線
  6
CONTINUOUS
 62
    3
 10
1082.3000000011052
 20
654.76000000000022
 11
1079.8000000011052
 21
654.76000000000022
  0
ARC
  8
_0-1_計細線
  6
CONTINUOUS
 62
    3
 10
1087.7000000011067
 20
653.75999999999931
 40
1
 50
89.999999999999915
 51
179.99999999999983
  0
LINE
  8
_0-1_計細線
  6
CONTINUOUS
 62
    3
 10
1087.6999999988984
 20
654.76000000000022
 11
1090.1999999988984
 21
654.76000000000022
  0
LINE
  8
_0-1_計細線
  6
CONTINUOUS
 62
    3
 10
1087.5000000000036
 20
658.66000000000088
 11
1082.5
 21
658.66000000000088
  0
LINE
  8
_0-1_計細線
  6
CONTINUOUS
 62
    3
 10
1083.3000000000029
 20
638.65999999999985
 11
1083.3000000011052
 21
653.75999999999931
  0
LINE
  8
_0-1_計細線
  6
CONTINUOUS
 62
    3
 10
1086.7000000000007
 20
638.65999999999985
 11
1086.7000000011067
 21
653.75999999999931
  0
LINE
  8
_0-1_計細線
  6
CONTINUOUS
 62
    3
 10
1086.7000000000007
 20
638.65999999999985
 11
1083.3000000000029
 21
638.65999999999985
  0
LINE
  8
_0-1_計細線
  6
CONTINUOUS
 62
    3
 10
1188.7000000027256
 20
653.96000000000004
 11
1202.600000002727
 21
653.96000000000004
  0
LINE
  8
_0-1_計細線
  6
CONTINUOUS
 62
    3
 10
967.39999999707288
 20
653.96000000000004
 11
981.29999999707081
 21
653.96000000000004
  0
LINE
  8
_0-1_計細線
  6
CONTINUOUS
 62
    3
 10
984.6999999978143
 20
653.96000000000004
 11
998.29999999781296
 21
653.96000000000004
  0
LINE
  8
_0-1_計細線
  6
CONTINUOUS
 62
    3
 10
1001.6999999983636
 20
653.96000000000004
 11
1015.2999999983659
 21
653.96000000000004
  0
LINE
  8
_0-1_計細線
  6
CONTINUOUS
 62
    3
 10
1018.6999999989166
 20
653.96000000000004
 11
1032.2999999989188
 21
653.96000000000004
  0
LINE
  8
_0-1_計細線
  6
CONTINUOUS
 62
    3
 10
1171.7000000023618
 20
653.96000000000004
 11
1185.3000000023603
 21
653.96000000000004
  0
LINE
  8
_0-1_計細線
  6
CONTINUOUS
 62
    3
 10
1154.7000000020016
 20
653.96000000000004
 11
1168.3000000020002
 21
653.96000000000004
  0
LINE
  8
_0-1_計細線
  6
CONTINUOUS
 62
    3
 10
1137.7000000016415
 20
653.96000000000004
 11
1151.30000000164
 21
653.96000000000004
  0
LINE
  8
_0-1_計細線
  6
CONTINUOUS
 62
    3
 10
1035.6999999994696
 20
653.96000000000004
 11
1049.2999999994681
 21
653.96000000000004
  0
LINE
  8
_0-1_計細線
  6
CONTINUOUS
 62
    3
 10
1052.6999999998297
 20
653.96000000000004
 11
1066.2999999998319
 21
653.96000000000004
  0
LINE
  8
_0-1_計細線
  6
CONTINUOUS
 62
    3
 10
1069.7000000001899
 20
653.96000000000004
 11
1083.3000000001921
 21
653.96000000000004
  0
LINE
  8
_0-1_計細線
  6
CONTINUOUS
 62
    3
 10
1103.7000000009139
 20
653.96000000000004
 11
1117.300000000916
 21
653.96000000000004
  0
LINE
  8
_0-1_計細線
  6
CONTINUOUS
 62
    3
 10
1120.7000000012777
 20
653.96000000000004
 11
1134.3000000012762
 21
653.96000000000004
  0
LINE
  8
_0-1_計細線
  6
CONTINUOUS
 62
    3
 10
1188.7000000027256
 20
640.95999999999913
 11
1202.600000002727
 21
640.95999999999913
  0
LINE
  8
_0-1_計細線
  6
CONTINUOUS
 62
    3
 10
967.39999999707288
 20
640.95999999999913
 11
981.29999999707081
 21
640.95999999999913
  0
LINE
  8
_0-1_計細線
  6
CONTINUOUS
 62
    3
 10
984.6999999978143
 20
640.95999999999913
 11
998.29999999781296
 21
640.95999999999913
  0
LINE
  8
_0-1_計細線
  6
CONTINUOUS
 62
    3
 10
1001.6999999983636
 20
640.95999999999913
 11
1015.2999999983659
 21
640.95999999999913
  0
LINE
  8
_0-1_計細線
  6
CONTINUOUS
 62
    3
 10
1018.6999999989166
 20
640.95999999999913
 11
1032.2999999989188
 21
640.95999999999913
  0
LINE
  8
_0-1_計細線
  6
CONTINUOUS
 62
    3
 10
1171.7000000023618
 20
640.95999999999913
 11
1185.3000000023603
 21
640.95999999999913
  0
LINE
  8
_0-1_計細線
  6
CONTINUOUS
 62
    3
 10
1154.7000000020016
 20
640.95999999999913
 11
1168.3000000020002
 21
640.95999999999913
  0
LINE
  8
_0-1_計細線
  6
CONTINUOUS
 62
    3
 10
1137.7000000016415
 20
640.95999999999913
 11
1151.30000000164
 21
640.95999999999913
  0
LINE
  8
_0-1_計細線
  6
CONTINUOUS
 62
    3
 10
1035.6999999994696
 20
640.95999999999913
 11
1049.2999999994681
 21
640.95999999999913
  0
LINE
  8
_0-1_計細線
  6
CONTINUOUS
 62
    3
 10
1052.6999999998297
 20
640.95999999999913
 11
1066.2999999998319
 21
640.95999999999913
  0
LINE
  8
_0-1_計細線
  6
CONTINUOUS
 62
    3
 10
1069.7000000001899
 20
640.95999999999913
 11
1083.3000000001921
 21
640.95999999999913
  0
LINE
  8
_0-1_計細線
  6
CONTINUOUS
 62
    3
 10
1103.7000000009139
 20
640.95999999999913
 11
1117.300000000916
 21
640.95999999999913
  0
LINE
  8
_0-1_計細線
  6
CONTINUOUS
 62
    3
 10
1120.7000000012777
 20
640.95999999999913
 11
1134.3000000012762
 21
640.95999999999913
  0
ARC
  8
_0-1_計細線
  6
CONTINUOUS
 62
    3
 10
1199.6000000025524
 20
656.65999999999985
 40
1
 50
89.999999999999915
 51
179.99999999999983
  0
ARC
  8
_0-1_計細線
  6
CONTINUOUS
 62
    3
 10
1200.067949193879
 20
658.66000000000088
 40
1
 50
269.99999999999977
 51
329.99999999999631
  0
ARC
  8
_0-1_計細線
  6
CONTINUOUS
 62
    3
 10
1201.8000000014508
 20
657.65999999999985
 40
1
 50
89.999999999999915
 51
150.00000000004181
  0
LINE
  8
_0-1_計細線
  6
CONTINUOUS
 62
    3
 10
1199.6000000025524
 20
657.65999999999985
 11
1200.067949193879
 21
657.65999999999985
  0
ARC
  8
_0-1_計細線
  6
CONTINUOUS
 62
    3
 10
1209.0000000003456
 20
656.65999999999985
 40
1
 50
0
 51
89.999999999999915
  0
ARC
  8
_0-1_計細線
  6
CONTINUOUS
 62
    3
 10
1208.532050809019
 20
658.66000000000088
 40
1
 50
210.00000000000296
 51
269.99999999999977
  0
ARC
  8
_0-1_計細線
  6
CONTINUOUS
 62
    3
 10
1206.8000000014472
 20
657.65999999999985
 40
1
 50
29.999999999958206
 51
89.999999999999929
  0
LINE
  8
_0-1_計細線
  6
CONTINUOUS
 62
    3
 10
1209.0000000003456
 20
657.65999999999985
 11
1208.532050809019
 21
657.65999999999985
  0
ARC
  8
_0-1_計細線
  6
CONTINUOUS
 62
    3
 10
1199.1000000025524
 20
655.25999999999942
 40
0.5
 50
179.99999999999983
 51
269.99999999999977
  0
LINE
  8
_0-1_計細線
  6
CONTINUOUS
 62
    3
 10
1198.6000000025524
 20
656.65999999999985
 11
1198.6000000025524
 21
655.25999999999942
  0
ARC
  8
_0-1_計細線
  6
CONTINUOUS
 62
    3
 10
1209.5000000003456
 20
655.25999999999942
 40
0.5
 50
269.99999999999977
 51
359.99999999999966
  0
LINE
  8
_0-1_計細線
  6
CONTINUOUS
 62
    3
 10
1210.0000000003456
 20
656.65999999999985
 11
1210.0000000003456
 21
655.25999999999942
  0
ARC
  8
_0-1_計細線
  6
CONTINUOUS
 62
    3
 10
1201.6000000025524
 20
653.75999999999931
 40
1
 50
0
 51
89.999999999999915
  0
LINE
  8
_0-1_計細線
  6
CONTINUOUS
 62
    3
 10
1201.6000000025524
 20
654.76000000000022
 11
1199.1000000025524
 21
654.76000000000022
  0
ARC
  8
_0-1_計細線
  6
CONTINUOUS
 62
    3
 10
1207.0000000025539
 20
653.75999999999931
 40
1
 50
89.999999999999915
 51
179.99999999999983
  0
LINE
  8
_0-1_計細線
  6
CONTINUOUS
 62
    3
 10
1207.0000000003456
 20
654.76000000000022
 11
1209.5000000003456
 21
654.76000000000022
  0
LINE
  8
_0-1_計細線
  6
CONTINUOUS
 62
    3
 10
1206.8000000014472
 20
658.66000000000088
 11
1201.8000000014508
 21
658.66000000000088
  0
LINE
  8
_0-1_計細線
  6
CONTINUOUS
 62
    3
 10
1202.6000000014501
 20
638.65999999999985
 11
1202.6000000025524
 21
653.75999999999931
  0
LINE
  8
_0-1_計細線
  6
CONTINUOUS
 62
    3
 10
1206.0000000014479
 20
638.65999999999985
 11
1206.0000000025539
 21
653.75999999999931
  0
LINE
  8
_0-1_計細線
  6
CONTINUOUS
 62
    3
 10
1206.0000000014479
 20
638.65999999999985
 11
1202.6000000014501
 21
638.65999999999985
  0
ARC
  8
_0-1_計細線
  6
CONTINUOUS
 62
    3
 10
960.99999999965803
 20
656.65999999999985
 40
1
 50
89.999999999999915
 51
179.99999999999983
  0
ARC
  8
_0-1_計細線
  6
CONTINUOUS
 62
    3
 10
961.46794919098465
 20
658.66000000000088
 40
1
 50
269.99999999999977
 51
329.99999999999631
  0
ARC
  8
_0-1_計細線
  6
CONTINUOUS
 62
    3
 10
963.19999999855281
 20
657.65999999999985
 40
1
 50
89.999999999999915
 51
149.99999999993759
  0
LINE
  8
_0-1_計細線
  6
CONTINUOUS
 62
    3
 10
960.99999999965803
 20
657.65999999999985
 11
961.46794919098465
 21
657.65999999999985
  0
ARC
  8
_0-1_計細線
  6
CONTINUOUS
 62
    3
 10
970.39999999745135
 20
656.65999999999985
 40
1
 50
0
 51
89.999999999999915
  0
ARC
  8
_0-1_計細線
  6
CONTINUOUS
 62
    3
 10
969.93205080612097
 20
658.66000000000088
 40
1
 50
210.00000000010718
 51
269.99999999999977
  0
ARC
  8
_0-1_計細線
  6
CONTINUOUS
 62
    3
 10
968.19999999855281
 20
657.65999999999985
 40
1
 50
29.999999999958206
 51
89.999999999999929
  0
LINE
  8
_0-1_計細線
  6
CONTINUOUS
 62
    3
 10
970.39999999745135
 20
657.65999999999985
 11
969.93205080612097
 21
657.65999999999985
  0
ARC
  8
_0-1_計細線
  6
CONTINUOUS
 62
    3
 10
960.49999999965803
 20
655.25999999999942
 40
0.5
 50
179.99999999999983
 51
269.99999999999977
  0
LINE
  8
_0-1_計細線
  6
CONTINUOUS
 62
    3
 10
959.99999999965803
 20
656.65999999999985
 11
959.99999999965803
 21
655.25999999999942
  0
ARC
  8
_0-1_計細線
  6
CONTINUOUS
 62
    3
 10
970.89999999745135
 20
655.25999999999942
 40
0.5
 50
269.99999999999977
 51
359.99999999999966
  0
LINE
  8
_0-1_計細線
  6
CONTINUOUS
 62
    3
 10
971.39999999745123
 20
656.65999999999985
 11
971.39999999745123
 21
655.25999999999942
  0
ARC
  8
_0-1_計細線
  6
CONTINUOUS
 62
    3
 10
962.99999999965803
 20
653.75999999999931
 40
1
 50
0
 51
89.999999999999915
  0
LINE
  8
_0-1_計細線
  6
CONTINUOUS
 62
    3
 10
962.99999999965803
 20
654.76000000000022
 11
960.49999999965803
 21
654.76000000000022
  0
ARC
  8
_0-1_計細線
  6
CONTINUOUS
 62
    3
 10
968.39999999965949
 20
653.75999999999931
 40
1
 50
89.999999999999915
 51
179.99999999999983
  0
LINE
  8
_0-1_計細線
  6
CONTINUOUS
 62
    3
 10
968.39999999745135
 20
654.76000000000022
 11
970.89999999745135
 21
654.76000000000022
  0
LINE
  8
_0-1_計細線
  6
CONTINUOUS
 62
    3
 10
968.19999999855281
 20
658.66000000000088
 11
963.19999999855281
 21
658.66000000000088
  0
LINE
  8
_0-1_計細線
  6
CONTINUOUS
 62
    3
 10
963.99999999855208
 20
638.65999999999985
 11
963.99999999965814
 21
653.75999999999931
  0
LINE
  8
_0-1_計細線
  6
CONTINUOUS
 62
    3
 10
967.39999999855354
 20
638.65999999999985
 11
967.3999999996596
 21
653.75999999999931
  0
LINE
  8
_0-1_計細線
  6
CONTINUOUS
 62
    3
 10
967.39999999855354
 20
638.65999999999985
 11
963.99999999855208
 21
638.65999999999985
  0
ARC
  8
_0-1_計細線
  6
CONTINUOUS
 62
    3
 10
978.29999999836582
 20
656.65999999999985
 40
1
 50
89.999999999999915
 51
179.99999999999983
  0
ARC
  8
_0-1_計細線
  6
CONTINUOUS
 62
    3
 10
978.76794918969256
 20
658.66000000000088
 40
1
 50
269.99999999999977
 51
329.99999999999631
  0
ARC
  8
_0-1_計細線
  6
CONTINUOUS
 62
    3
 10
980.49999999726072
 20
657.65999999999985
 40
1
 50
89.999999999999915
 51
149.99999999993759
  0
LINE
  8
_0-1_計細線
  6
CONTINUOUS
 62
    3
 10
978.29999999836582
 20
657.65999999999985
 11
978.76794918969256
 21
657.65999999999985
  0
ARC
  8
_0-1_計細線
  6
CONTINUOUS
 62
    3
 10
987.6999999961555
 20
656.65999999999985
 40
1
 50
0
 51
89.999999999999915
  0
ARC
  8
_0-1_計細線
  6
CONTINUOUS
 62
    3
 10
987.2320508048324
 20
658.66000000000088
 40
1
 50
210.00000000000296
 51
269.99999999999977
  0
ARC
  8
_0-1_計細線
  6
CONTINUOUS
 62
    3
 10
985.49999999726072
 20
657.65999999999985
 40
1
 50
29.999999999958206
 51
89.999999999791555
  0
LINE
  8
_0-1_計細線
  6
CONTINUOUS
 62
    3
 10
987.6999999961555
 20
657.65999999999985
 11
987.2320508048324
 21
657.65999999999985
  0
ARC
  8
_0-1_計細線
  6
CONTINUOUS
 62
    3
 10
977.79999999836593
 20
655.25999999999942
 40
0.5
 50
179.99999999999983
 51
269.99999999999977
  0
LINE
  8
_0-1_計細線
  6
CONTINUOUS
 62
    3
 10
977.29999999836593
 20
656.65999999999985
 11
977.29999999836593
 21
655.25999999999942
  0
ARC
  8
_0-1_計細線
  6
CONTINUOUS
 62
    3
 10
988.19999999615902
 20
655.25999999999942
 40
0.5
 50
269.99999999999977
 51
359.99999999999966
  0
LINE
  8
_0-1_計細線
  6
CONTINUOUS
 62
    3
 10
988.69999999615914
 20
656.65999999999985
 11
988.69999999615914
 21
655.25999999999942
  0
ARC
  8
_0-1_計細線
  6
CONTINUOUS
 62
    3
 10
980.29999999836593
 20
653.75999999999931
 40
1
 50
0
 51
89.999999999999915
  0
LINE
  8
_0-1_計細線
  6
CONTINUOUS
 62
    3
 10
980.29999999836593
 20
654.76000000000022
 11
977.79999999836593
 21
654.76000000000022
  0
ARC
  8
_0-1_計細線
  6
CONTINUOUS
 62
    3
 10
985.69999999836364
 20
653.75999999999931
 40
1
 50
89.999999999999915
 51
179.99999999999983
  0
LINE
  8
_0-1_計細線
  6
CONTINUOUS
 62
    3
 10
985.69999999615902
 20
654.76000000000022
 11
988.19999999615902
 21
654.76000000000022
  0
LINE
  8
_0-1_計細線
  6
CONTINUOUS
 62
    3
 10
985.49999999726072
 20
658.66000000000088
 11
980.49999999726072
 21
658.66000000000088
  0
LINE
  8
_0-1_計細線
  6
CONTINUOUS
 62
    3
 10
981.29999999726351
 20
638.65999999999985
 11
981.29999999836582
 21
653.75999999999931
  0
LINE
  8
_0-1_計細線
  6
CONTINUOUS
 62
    3
 10
984.69999999726144
 20
638.65999999999985
 11
984.69999999836728
 21
653.75999999999931
  0
LINE
  8
_0-1_計細線
  6
CONTINUOUS
 62
    3
 10
984.69999999726144
 20
638.65999999999985
 11
981.29999999726351
 21
638.65999999999985
  0
ARC
  8
_0-1_計細線
  6
CONTINUOUS
 62
    3
 10
995.29999999891515
 20
656.65999999999985
 40
1
 50
89.999999999999915
 51
179.99999999999983
  0
ARC
  8
_0-1_計細線
  6
CONTINUOUS
 62
    3
 10
995.76794919024553
 20
658.66000000000088
 40
1
 50
269.99999999999977
 51
329.99999999989211
  0
ARC
  8
_0-1_計細線
  6
CONTINUOUS
 62
    3
 10
997.49999999781369
 20
657.65999999999985
 40
1
 50
89.999999999999915
 51
150.00000000004181
  0
LINE
  8
_0-1_計細線
  6
CONTINUOUS
 62
    3
 10
995.29999999891515
 20
657.65999999999985
 11
995.76794919024553
 21
657.65999999999985
  0
ARC
  8
_0-1_計細線
  6
CONTINUOUS
 62
    3
 10
1004.6999999967085
 20
656.65999999999985
 40
1
 50
0
 51
89.999999999999915
  0
ARC
  8
_0-1_計細線
  6
CONTINUOUS
 62
    3
 10
1004.2320508053818
 20
658.66000000000088
 40
1
 50
210.00000000000296
 51
269.99999999999977
  0
ARC
  8
_0-1_計細線
  6
CONTINUOUS
 62
    3
 10
1002.4999999978137
 20
657.65999999999985
 40
1
 50
30.000000000062425
 51
89.999999999999929
  0
LINE
  8
_0-1_計細線
  6
CONTINUOUS
 62
    3
 10
1004.6999999967085
 20
657.65999999999985
 11
1004.2320508053818
 21
657.65999999999985
  0
ARC
  8
_0-1_計細線
  6
CONTINUOUS
 62
    3
 10
994.79999999891891
 20
655.25999999999942
 40
0.5
 50
179.99999999999983
 51
269.99999999999977
  0
LINE
  8
_0-1_計細線
  6
CONTINUOUS
 62
    3
 10
994.29999999891515
 20
656.65999999999985
 11
994.29999999891515
 21
655.25999999999942
  0
ARC
  8
_0-1_計細線
  6
CONTINUOUS
 62
    3
 10
1005.1999999967085
 20
655.25999999999942
 40
0.5
 50
269.99999999999977
 51
359.99999999999966
  0
LINE
  8
_0-1_計細線
  6
CONTINUOUS
 62
    3
 10
1005.6999999967084
 20
656.65999999999985
 11
1005.6999999967084
 21
655.25999999999942
  0
ARC
  8
_0-1_計細線
  6
CONTINUOUS
 62
    3
 10
997.29999999891515
 20
653.75999999999931
 40
1
 50
0
 51
89.999999999999915
  0
LINE
  8
_0-1_計細線
  6
CONTINUOUS
 62
    3
 10
997.29999999891515
 20
654.76000000000022
 11
994.79999999891891
 21
654.76000000000022
  0
ARC
  8
_0-1_計細線
  6
CONTINUOUS
 62
    3
 10
1002.6999999989166
 20
653.75999999999931
 40
1
 50
89.999999999999915
 51
179.99999999999983
  0
LINE
  8
_0-1_計細線
  6
CONTINUOUS
 62
    3
 10
1002.6999999967085
 20
654.76000000000022
 11
1005.1999999967085
 21
654.76000000000022
  0
LINE
  8
_0-1_計細線
  6
CONTINUOUS
 62
    3
 10
1002.4999999978137
 20
658.66000000000088
 11
997.49999999781369
 21
658.66000000000088
  0
LINE
  8
_0-1_計細線
  6
CONTINUOUS
 62
    3
 10
998.29999999781296
 20
638.65999999999985
 11
998.29999999891527
 21
653.75999999999931
  0
LINE
  8
_0-1_計細線
  6
CONTINUOUS
 62
    3
 10
1001.6999999978144
 20
638.65999999999985
 11
1001.6999999989167
 21
653.75999999999931
  0
LINE
  8
_0-1_計細線
  6
CONTINUOUS
 62
    3
 10
1001.6999999978144
 20
638.65999999999985
 11
998.29999999781296
 21
638.65999999999985
  0
ARC
  8
_0-1_計細線
  6
CONTINUOUS
 62
    3
 10
1012.2999999994681
 20
656.65999999999985
 40
1
 50
89.999999999999915
 51
179.99999999999983
  0
ARC
  8
_0-1_計細線
  6
CONTINUOUS
 62
    3
 10
1012.7679491907948
 20
658.66000000000088
 40
1
 50
269.99999999999977
 51
329.99999999999631
  0
ARC
  8
_0-1_計細線
  6
CONTINUOUS
 62
    3
 10
1014.4999999983629
 20
657.65999999999985
 40
1
 50
89.999999999999915
 51
149.99999999993759
  0
LINE
  8
_0-1_計細線
  6
CONTINUOUS
 62
    3
 10
1012.2999999994681
 20
657.65999999999985
 11
1012.7679491907948
 21
657.65999999999985
  0
ARC
  8
_0-1_計細線
  6
CONTINUOUS
 62
    3
 10
1021.6999999972614
 20
656.65999999999985
 40
1
 50
0
 51
89.999999999999915
  0
ARC
  8
_0-1_計細線
  6
CONTINUOUS
 62
    3
 10
1021.2320508059348
 20
658.66000000000088
 40
1
 50
210.00000000000296
 51
269.99999999999977
  0
ARC
  8
_0-1_計細線
  6
CONTINUOUS
 62
    3
 10
1019.4999999983667
 20
657.65999999999985
 40
1
 50
30.000000000062425
 51
89.999999999999929
  0
LINE
  8
_0-1_計細線
  6
CONTINUOUS
 62
    3
 10
1021.6999999972614
 20
657.65999999999985
 11
1021.2320508059348
 21
657.65999999999985
  0
ARC
  8
_0-1_計細線
  6
CONTINUOUS
 62
    3
 10
1011.7999999994681
 20
655.25999999999942
 40
0.5
 50
179.99999999999983
 51
269.99999999999977
  0
LINE
  8
_0-1_計細線
  6
CONTINUOUS
 62
    3
 10
1011.2999999994681
 20
656.65999999999985
 11
1011.2999999994681
 21
655.25999999999942
  0
ARC
  8
_0-1_計細線
  6
CONTINUOUS
 62
    3
 10
1022.1999999972614
 20
655.25999999999942
 40
0.5
 50
269.99999999999977
 51
359.99999999999966
  0
LINE
  8
_0-1_計細線
  6
CONTINUOUS
 62
    3
 10
1022.6999999972613
 20
656.65999999999985
 11
1022.6999999972613
 21
655.25999999999942
  0
ARC
  8
_0-1_計細線
  6
CONTINUOUS
 62
    3
 10
1014.2999999994681
 20
653.75999999999931
 40
1
 50
0
 51
89.999999999999915
  0
LINE
  8
_0-1_計細線
  6
CONTINUOUS
 62
    3
 10
1014.2999999994681
 20
654.76000000000022
 11
1011.7999999994681
 21
654.76000000000022
  0
ARC
  8
_0-1_計細線
  6
CONTINUOUS
 62
    3
 10
1019.6999999994659
 20
653.75999999999931
 40
1
 50
89.999999999999915
 51
179.99999999999983
  0
LINE
  8
_0-1_計細線
  6
CONTINUOUS
 62
    3
 10
1019.6999999972614
 20
654.76000000000022
 11
1022.1999999972614
 21
654.76000000000022
  0
LINE
  8
_0-1_計細線
  6
CONTINUOUS
 62
    3
 10
1019.4999999983667
 20
658.66000000000088
 11
1014.4999999983629
 21
658.66000000000088
  0
LINE
  8
_0-1_計細線
  6
CONTINUOUS
 62
    3
 10
1015.2999999983659
 20
638.65999999999985
 11
1015.2999999994682
 21
653.75999999999931
  0
LINE
  8
_0-1_計細線
  6
CONTINUOUS
 62
    3
 10
1018.6999999983636
 20
638.65999999999985
 11
1018.6999999994697
 21
653.75999999999931
  0
LINE
  8
_0-1_計細線
  6
CONTINUOUS
 62
    3
 10
1018.6999999983636
 20
638.65999999999985
 11
1015.2999999983659
 21
638.65999999999985
  0
ARC
  8
_0-1_計細線
  6
CONTINUOUS
 62
    3
 10
1182.3000000032771
 20
656.65999999999985
 40
1
 50
89.999999999999915
 51
179.99999999999983
  0
ARC
  8
_0-1_計細線
  6
CONTINUOUS
 62
    3
 10
1182.7679491946037
 20
658.66000000000088
 40
1
 50
269.99999999999977
 51
329.99999999999631
  0
ARC
  8
_0-1_計細線
  6
CONTINUOUS
 62
    3
 10
1184.5000000021719
 20
657.65999999999985
 40
1
 50
89.999999999999915
 51
149.99999999993759
  0
LINE
  8
_0-1_計細線
  6
CONTINUOUS
 62
    3
 10
1182.3000000032771
 20
657.65999999999985
 11
1182.7679491946037
 21
657.65999999999985
  0
ARC
  8
_0-1_計細線
  6
CONTINUOUS
 62
    3
 10
1191.7000000010667
 20
656.65999999999985
 40
1
 50
0
 51
89.999999999999915
  0
ARC
  8
_0-1_計細線
  6
CONTINUOUS
 62
    3
 10
1191.23205080974
 20
658.66000000000088
 40
1
 50
210.00000000010718
 51
269.99999999999977
  0
ARC
  8
_0-1_計細線
  6
CONTINUOUS
 62
    3
 10
1189.5000000021719
 20
657.65999999999985
 40
1
 50
29.999999999958206
 51
89.999999999791555
  0
LINE
  8
_0-1_計細線
  6
CONTINUOUS
 62
    3
 10
1191.7000000010667
 20
657.65999999999985
 11
1191.23205080974
 21
657.65999999999985
  0
ARC
  8
_0-1_計細線
  6
CONTINUOUS
 62
    3
 10
1181.8000000032771
 20
655.25999999999942
 40
0.5
 50
179.99999999999983
 51
269.99999999999977
  0
LINE
  8
_0-1_計細線
  6
CONTINUOUS
 62
    3
 10
1181.3000000032771
 20
656.65999999999985
 11
1181.3000000032771
 21
655.25999999999942
  0
ARC
  8
_0-1_計細線
  6
CONTINUOUS
 62
    3
 10
1192.2000000010703
 20
655.25999999999942
 40
0.5
 50
269.99999999999977
 51
359.99999999999966
  0
LINE
  8
_0-1_計細線
  6
CONTINUOUS
 62
    3
 10
1192.7000000010703
 20
656.65999999999985
 11
1192.7000000010703
 21
655.25999999999942
  0
ARC
  8
_0-1_計細線
  6
CONTINUOUS
 62
    3
 10
1184.3000000032771
 20
653.75999999999931
 40
1
 50
0
 51
89.999999999999915
  0
LINE
  8
_0-1_計細線
  6
CONTINUOUS
 62
    3
 10
1184.3000000032771
 20
654.76000000000022
 11
1181.8000000032771
 21
654.76000000000022
  0
ARC
  8
_0-1_計細線
  6
CONTINUOUS
 62
    3
 10
1189.7000000032749
 20
653.75999999999931
 40
1
 50
89.999999999999915
 51
179.99999999999983
  0
LINE
  8
_0-1_計細線
  6
CONTINUOUS
 62
    3
 10
1189.7000000010703
 20
654.76000000000022
 11
1192.2000000010703
 21
654.76000000000022
  0
LINE
  8
_0-1_計細線
  6
CONTINUOUS
 62
    3
 10
1189.5000000021719
 20
658.66000000000088
 11
1184.5000000021719
 21
658.66000000000088
  0
LINE
  8
_0-1_計細線
  6
CONTINUOUS
 62
    3
 10
1185.3000000021711
 20
638.65999999999985
 11
1185.3000000032771
 21
653.75999999999931
  0
LINE
  8
_0-1_計細線
  6
CONTINUOUS
 62
    3
 10
1188.7000000021726
 20
638.65999999999985
 11
1188.7000000032785
 21
653.75999999999931
  0
LINE
  8
_0-1_計細線
  6
CONTINUOUS
 62
    3
 10
1188.7000000021726
 20
638.65999999999985
 11
1185.3000000021711
 21
638.65999999999985
  0
ARC
  8
_0-1_計細線
  6
CONTINUOUS
 62
    3
 10
1165.3000000029133
 20
656.65999999999985
 40
1
 50
89.999999999999915
 51
179.99999999999983
  0
ARC
  8
_0-1_計細線
  6
CONTINUOUS
 62
    3
 10
1165.7679491942436
 20
658.66000000000088
 40
1
 50
269.99999999999977
 51
329.99999999989211
  0
ARC
  8
_0-1_計細線
  6
CONTINUOUS
 62
    3
 10
1167.5000000018117
 20
657.65999999999985
 40
1
 50
89.999999999999915
 51
150.00000000004181
  0
LINE
  8
_0-1_計細線
  6
CONTINUOUS
 62
    3
 10
1165.3000000029133
 20
657.65999999999985
 11
1165.7679491942436
 21
657.65999999999985
  0
ARC
  8
_0-1_計細線
  6
CONTINUOUS
 62
    3
 10
1174.7000000007065
 20
656.65999999999985
 40
1
 50
0
 51
89.999999999999915
  0
ARC
  8
_0-1_計細線
  6
CONTINUOUS
 62
    3
 10
1174.2320508093799
 20
658.66000000000088
 40
1
 50
210.00000000000296
 51
269.99999999999977
  0
ARC
  8
_0-1_計細線
  6
CONTINUOUS
 62
    3
 10
1172.5000000018117
 20
657.65999999999985
 40
1
 50
30.000000000062425
 51
89.999999999999929
  0
LINE
  8
_0-1_計細線
  6
CONTINUOUS
 62
    3
 10
1174.7000000007065
 20
657.65999999999985
 11
1174.2320508093799
 21
657.65999999999985
  0
ARC
  8
_0-1_計細線
  6
CONTINUOUS
 62
    3
 10
1164.8000000029133
 20
655.25999999999942
 40
0.5
 50
179.99999999999983
 51
269.99999999999977
  0
LINE
  8
_0-1_計細線
  6
CONTINUOUS
 62
    3
 10
1164.3000000029133
 20
656.65999999999985
 11
1164.3000000029133
 21
655.25999999999942
  0
ARC
  8
_0-1_計細線
  6
CONTINUOUS
 62
    3
 10
1175.2000000007065
 20
655.25999999999942
 40
0.5
 50
269.99999999999977
 51
359.99999999999966
  0
LINE
  8
_0-1_計細線
  6
CONTINUOUS
 62
    3
 10
1175.7000000007065
 20
656.65999999999985
 11
1175.7000000007065
 21
655.25999999999942
  0
ARC
  8
_0-1_計細線
  6
CONTINUOUS
 62
    3
 10
1167.3000000029133
 20
653.75999999999931
 40
1
 50
0
 51
89.999999999999915
  0
LINE
  8
_0-1_計細線
  6
CONTINUOUS
 62
    3
 10
1167.3000000029133
 20
654.76000000000022
 11
1164.8000000029133
 21
654.76000000000022
  0
ARC
  8
_0-1_計細線
  6
CONTINUOUS
 62
    3
 10
1172.7000000029147
 20
653.75999999999931
 40
1
 50
89.999999999999915
 51
179.99999999999983
  0
LINE
  8
_0-1_計細線
  6
CONTINUOUS
 62
    3
 10
1172.7000000007065
 20
654.76000000000022
 11
1175.2000000007065
 21
654.76000000000022
  0
LINE
  8
_0-1_計細線
  6
CONTINUOUS
 62
    3
 10
1172.5000000018117
 20
658.66000000000088
 11
1167.5000000018117
 21
658.66000000000088
  0
LINE
  8
_0-1_計細線
  6
CONTINUOUS
 62
    3
 10
1168.300000001811
 20
638.65999999999985
 11
1168.3000000029133
 21
653.75999999999931
  0
LINE
  8
_0-1_計細線
  6
CONTINUOUS
 62
    3
 10
1171.7000000018124
 20
638.65999999999985
 11
1171.7000000029147
 21
653.75999999999931
  0
LINE
  8
_0-1_計細線
  6
CONTINUOUS
 62
    3
 10
1171.7000000018124
 20
638.65999999999985
 11
1168.300000001811
 21
638.65999999999985
  0
ARC
  8
_0-1_計細線
  6
CONTINUOUS
 62
    3
 10
1148.3000000025531
 20
656.65999999999985
 40
1
 50
89.999999999999915
 51
179.99999999999983
  0
ARC
  8
_0-1_計細線
  6
CONTINUOUS
 62
    3
 10
1148.7679491938798
 20
658.66000000000088
 40
1
 50
269.99999999999977
 51
329.99999999999631
  0
ARC
  8
_0-1_計細線
  6
CONTINUOUS
 62
    3
 10
1150.5000000014479
 20
657.65999999999985
 40
1
 50
89.999999999999915
 51
149.99999999993759
  0
LINE
  8
_0-1_計細線
  6
CONTINUOUS
 62
    3
 10
1148.3000000025531
 20
657.65999999999985
 11
1148.7679491938798
 21
657.65999999999985
  0
ARC
  8
_0-1_計細線
  6
CONTINUOUS
 62
    3
 10
1157.7000000003463
 20
656.65999999999985
 40
1
 50
0
 51
89.999999999999915
  0
ARC
  8
_0-1_計細線
  6
CONTINUOUS
 62
    3
 10
1157.2320508090161
 20
658.66000000000088
 40
1
 50
210.00000000010718
 51
269.99999999999977
  0
ARC
  8
_0-1_計細線
  6
CONTINUOUS
 62
    3
 10
1155.5000000014479
 20
657.65999999999985
 40
1
 50
29.999999999958206
 51
89.999999999999929
  0
LINE
  8
_0-1_計細線
  6
CONTINUOUS
 62
    3
 10
1157.7000000003463
 20
657.65999999999985
 11
1157.2320508090161
 21
657.65999999999985
  0
ARC
  8
_0-1_計細線
  6
CONTINUOUS
 62
    3
 10
1147.8000000025531
 20
655.25999999999942
 40
0.5
 50
179.99999999999983
 51
269.99999999999977
  0
LINE
  8
_0-1_計細線
  6
CONTINUOUS
 62
    3
 10
1147.3000000025531
 20
656.65999999999985
 11
1147.3000000025531
 21
655.25999999999942
  0
ARC
  8
_0-1_計細線
  6
CONTINUOUS
 62
    3
 10
1158.2000000003463
 20
655.25999999999942
 40
0.5
 50
269.99999999999977
 51
359.99999999999966
  0
LINE
  8
_0-1_計細線
  6
CONTINUOUS
 62
    3
 10
1158.7000000003463
 20
656.65999999999985
 11
1158.7000000003463
 21
655.25999999999942
  0
ARC
  8
_0-1_計細線
  6
CONTINUOUS
 62
    3
 10
1150.3000000025531
 20
653.75999999999931
 40
1
 50
0
 51
89.999999999999915
  0
LINE
  8
_0-1_計細線
  6
CONTINUOUS
 62
    3
 10
1150.3000000025531
 20
654.76000000000022
 11
1147.8000000025531
 21
654.76000000000022
  0
ARC
  8
_0-1_計細線
  6
CONTINUOUS
 62
    3
 10
1155.700000002551
 20
653.75999999999931
 40
1
 50
89.999999999999915
 51
179.99999999999983
  0
LINE
  8
_0-1_計細線
  6
CONTINUOUS
 62
    3
 10
1155.7000000003463
 20
654.76000000000022
 11
1158.2000000003463
 21
654.76000000000022
  0
LINE
  8
_0-1_計細線
  6
CONTINUOUS
 62
    3
 10
1155.5000000014479
 20
658.66000000000088
 11
1150.5000000014479
 21
658.66000000000088
  0
LINE
  8
_0-1_計細線
  6
CONTINUOUS
 62
    3
 10
1151.3000000014472
 20
638.65999999999985
 11
1151.3000000025531
 21
653.75999999999931
  0
LINE
  8
_0-1_計細線
  6
CONTINUOUS
 62
    3
 10
1154.7000000014486
 20
638.65999999999985
 11
1154.7000000025546
 21
653.75999999999931
  0
LINE
  8
_0-1_計細線
  6
CONTINUOUS
 62
    3
 10
1154.7000000014486
 20
638.65999999999985
 11
1151.3000000014472
 21
638.65999999999985
  0
ARC
  8
_0-1_計細線
  6
CONTINUOUS
 62
    3
 10
1029.3000000000211
 20
656.65999999999985
 40
1
 50
89.999999999999915
 51
179.99999999999983
  0
ARC
  8
_0-1_計細線
  6
CONTINUOUS
 62
    3
 10
1029.7679491913477
 20
658.66000000000088
 40
1
 50
269.99999999999977
 51
329.99999999989211
  0
ARC
  8
_0-1_計細線
  6
CONTINUOUS
 62
    3
 10
1031.4999999989159
 20
657.65999999999985
 40
1
 50
89.999999999999915
 51
150.00000000004181
  0
LINE
  8
_0-1_計細線
  6
CONTINUOUS
 62
    3
 10
1029.3000000000211
 20
657.65999999999985
 11
1029.7679491913477
 21
657.65999999999985
  0
ARC
  8
_0-1_計細線
  6
CONTINUOUS
 62
    3
 10
1038.6999999978107
 20
656.65999999999985
 40
1
 50
0
 51
89.999999999999915
  0
ARC
  8
_0-1_計細線
  6
CONTINUOUS
 62
    3
 10
1038.2320508064877
 20
658.66000000000088
 40
1
 50
209.99999999989876
 51
269.99999999999977
  0
ARC
  8
_0-1_計細線
  6
CONTINUOUS
 62
    3
 10
1036.4999999989159
 20
657.65999999999985
 40
1
 50
30.000000000062425
 51
89.999999999999929
  0
LINE
  8
_0-1_計細線
  6
CONTINUOUS
 62
    3
 10
1038.6999999978107
 20
657.65999999999985
 11
1038.2320508064877
 21
657.65999999999985
  0
ARC
  8
_0-1_計細線
  6
CONTINUOUS
 62
    3
 10
1028.8000000000211
 20
655.25999999999942
 40
0.5
 50
179.99999999999983
 51
269.99999999999977
  0
LINE
  8
_0-1_計細線
  6
CONTINUOUS
 62
    3
 10
1028.3000000000175
 20
656.65999999999985
 11
1028.3000000000175
 21
655.25999999999942
  0
ARC
  8
_0-1_計細線
  6
CONTINUOUS
 62
    3
 10
1039.1999999978143
 20
655.25999999999942
 40
0.5
 50
269.99999999999977
 51
359.99999999999966
  0
LINE
  8
_0-1_計細線
  6
CONTINUOUS
 62
    3
 10
1039.6999999978107
 20
656.65999999999985
 11
1039.6999999978107
 21
655.25999999999942
  0
ARC
  8
_0-1_計細線
  6
CONTINUOUS
 62
    3
 10
1031.3000000000175
 20
653.75999999999931
 40
1
 50
0
 51
89.999999999999915
  0
LINE
  8
_0-1_計細線
  6
CONTINUOUS
 62
    3
 10
1031.3000000000175
 20
654.76000000000022
 11
1028.8000000000211
 21
654.76000000000022
  0
ARC
  8
_0-1_計細線
  6
CONTINUOUS
 62
    3
 10
1036.7000000000189
 20
653.75999999999931
 40
1
 50
89.999999999999915
 51
179.99999999999983
  0
LINE
  8
_0-1_計細線
  6
CONTINUOUS
 62
    3
 10
1036.6999999978107
 20
654.76000000000022
 11
1039.1999999978143
 21
654.76000000000022
  0
LINE
  8
_0-1_計細線
  6
CONTINUOUS
 62
    3
 10
1036.4999999989159
 20
658.66000000000088
 11
1031.4999999989159
 21
658.66000000000088
  0
LINE
  8
_0-1_計細線
  6
CONTINUOUS
 62
    3
 10
1032.2999999989188
 20
638.65999999999985
 11
1032.3000000000211
 21
653.75999999999931
  0
LINE
  8
_0-1_計細線
  6
CONTINUOUS
 62
    3
 10
1035.6999999989166
 20
638.65999999999985
 11
1035.7000000000189
 21
653.75999999999931
  0
LINE
  8
_0-1_計細線
  6
CONTINUOUS
 62
    3
 10
1035.6999999989166
 20
638.65999999999985
 11
1032.2999999989188
 21
638.65999999999985
  0
ARC
  8
_0-1_計細線
  6
CONTINUOUS
 62
    3
 10
1046.3000000003813
 20
656.65999999999985
 40
1
 50
89.999999999999915
 51
179.99999999999983
  0
ARC
  8
_0-1_計細線
  6
CONTINUOUS
 62
    3
 10
1046.7679491917079
 20
658.66000000000088
 40
1
 50
269.99999999999977
 51
329.99999999999631
  0
ARC
  8
_0-1_計細線
  6
CONTINUOUS
 62
    3
 10
1048.499999999276
 20
657.65999999999985
 40
1
 50
89.999999999999915
 51
149.99999999993759
  0
LINE
  8
_0-1_計細線
  6
CONTINUOUS
 62
    3
 10
1046.3000000003813
 20
657.65999999999985
 11
1046.7679491917079
 21
657.65999999999985
  0
ARC
  8
_0-1_計細線
  6
CONTINUOUS
 62
    3
 10
1055.6999999981745
 20
656.65999999999985
 40
1
 50
0
 51
89.999999999999915
  0
ARC
  8
_0-1_計細線
  6
CONTINUOUS
 62
    3
 10
1055.2320508068442
 20
658.66000000000088
 40
1
 50
210.00000000010718
 51
269.99999999999977
  0
ARC
  8
_0-1_計細線
  6
CONTINUOUS
 62
    3
 10
1053.4999999992797
 20
657.65999999999985
 40
1
 50
30.000000000062425
 51
89.999999999999929
  0
LINE
  8
_0-1_計細線
  6
CONTINUOUS
 62
    3
 10
1055.6999999981745
 20
657.65999999999985
 11
1055.2320508068442
 21
657.65999999999985
  0
ARC
  8
_0-1_計細線
  6
CONTINUOUS
 62
    3
 10
1045.8000000003813
 20
655.25999999999942
 40
0.5
 50
179.99999999999983
 51
269.99999999999977
  0
LINE
  8
_0-1_計細線
  6
CONTINUOUS
 62
    3
 10
1045.3000000003813
 20
656.65999999999985
 11
1045.3000000003813
 21
655.25999999999942
  0
ARC
  8
_0-1_計細線
  6
CONTINUOUS
 62
    3
 10
1056.1999999981745
 20
655.25999999999942
 40
0.5
 50
269.99999999999977
 51
359.99999999999966
  0
LINE
  8
_0-1_計細線
  6
CONTINUOUS
 62
    3
 10
1056.6999999981745
 20
656.65999999999985
 11
1056.6999999981745
 21
655.25999999999942
  0
ARC
  8
_0-1_計細線
  6
CONTINUOUS
 62
    3
 10
1048.3000000003813
 20
653.75999999999931
 40
1
 50
0
 51
89.999999999999915
  0
LINE
  8
_0-1_計細線
  6
CONTINUOUS
 62
    3
 10
1048.3000000003813
 20
654.76000000000022
 11
1045.8000000003813
 21
654.76000000000022
  0
ARC
  8
_0-1_計細線
  6
CONTINUOUS
 62
    3
 10
1053.7000000003827
 20
653.75999999999931
 40
1
 50
89.999999999999915
 51
179.99999999999983
  0
LINE
  8
_0-1_計細線
  6
CONTINUOUS
 62
    3
 10
1053.6999999981745
 20
654.76000000000022
 11
1056.1999999981745
 21
654.76000000000022
  0
LINE
  8
_0-1_計細線
  6
CONTINUOUS
 62
    3
 10
1053.4999999992797
 20
658.66000000000088
 11
1048.499999999276
 21
658.66000000000088
  0
LINE
  8
_0-1_計細線
  6
CONTINUOUS
 62
    3
 10
1049.2999999992753
 20
638.65999999999985
 11
1049.3000000003813
 21
653.75999999999931
  0
LINE
  8
_0-1_計細線
  6
CONTINUOUS
 62
    3
 10
1052.6999999992768
 20
638.65999999999985
 11
1052.7000000003827
 21
653.75999999999931
  0
LINE
  8
_0-1_計細線
  6
CONTINUOUS
 62
    3
 10
1052.6999999992768
 20
638.65999999999985
 11
1049.2999999992753
 21
638.65999999999985
  0
ARC
  8
_0-1_計細線
  6
CONTINUOUS
 62
    3
 10
1063.3000000007414
 20
656.65999999999985
 40
1
 50
89.999999999999915
 51
179.99999999999983
  0
ARC
  8
_0-1_計細線
  6
CONTINUOUS
 62
    3
 10
1063.7679491920717
 20
658.66000000000088
 40
1
 50
269.99999999999977
 51
329.99999999989211
  0
ARC
  8
_0-1_計細線
  6
CONTINUOUS
 62
    3
 10
1065.4999999996398
 20
657.65999999999985
 40
1
 50
89.999999999999915
 51
150.00000000004181
  0
LINE
  8
_0-1_計細線
  6
CONTINUOUS
 62
    3
 10
1063.3000000007414
 20
657.65999999999985
 11
1063.7679491920717
 21
657.65999999999985
  0
ARC
  8
_0-1_計細線
  6
CONTINUOUS
 62
    3
 10
1072.6999999985383
 20
656.65999999999985
 40
1
 50
0
 51
89.999999999999915
  0
ARC
  8
_0-1_計細線
  6
CONTINUOUS
 62
    3
 10
1072.232050807208
 20
658.66000000000088
 40
1
 50
210.00000000010718
 51
269.99999999999977
  0
ARC
  8
_0-1_計細線
  6
CONTINUOUS
 62
    3
 10
1070.4999999996398
 20
657.65999999999985
 40
1
 50
29.999999999958206
 51
89.999999999999929
  0
LINE
  8
_0-1_計細線
  6
CONTINUOUS
 62
    3
 10
1072.6999999985383
 20
657.65999999999985
 11
1072.232050807208
 21
657.65999999999985
  0
ARC
  8
_0-1_計細線
  6
CONTINUOUS
 62
    3
 10
1062.8000000007451
 20
655.25999999999942
 40
0.5
 50
179.99999999999983
 51
269.99999999999977
  0
LINE
  8
_0-1_計細線
  6
CONTINUOUS
 62
    3
 10
1062.3000000007451
 20
656.65999999999985
 11
1062.3000000007451
 21
655.25999999999942
  0
ARC
  8
_0-1_計細線
  6
CONTINUOUS
 62
    3
 10
1073.1999999985346
 20
655.25999999999942
 40
0.5
 50
269.99999999999977
 51
359.99999999999966
  0
LINE
  8
_0-1_計細線
  6
CONTINUOUS
 62
    3
 10
1073.6999999985383
 20
656.65999999999985
 11
1073.6999999985383
 21
655.25999999999942
  0
ARC
  8
_0-1_計細線
  6
CONTINUOUS
 62
    3
 10
1065.3000000007451
 20
653.75999999999931
 40
1
 50
0
 51
89.999999999999915
  0
LINE
  8
_0-1_計細線
  6
CONTINUOUS
 62
    3
 10
1065.3000000007451
 20
654.76000000000022
 11
1062.8000000007451
 21
654.76000000000022
  0
ARC
  8
_0-1_計細線
  6
CONTINUOUS
 62
    3
 10
1070.7000000007429
 20
653.75999999999931
 40
1
 50
89.999999999999915
 51
179.99999999999983
  0
LINE
  8
_0-1_計細線
  6
CONTINUOUS
 62
    3
 10
1070.6999999985346
 20
654.76000000000022
 11
1073.1999999985346
 21
654.76000000000022
  0
LINE
  8
_0-1_計細線
  6
CONTINUOUS
 62
    3
 10
1070.4999999996398
 20
658.66000000000088
 11
1065.4999999996398
 21
658.66000000000088
  0
LINE
  8
_0-1_計細線
  6
CONTINUOUS
 62
    3
 10
1066.2999999996391
 20
638.65999999999985
 11
1066.3000000007414
 21
653.75999999999931
  0
LINE
  8
_0-1_計細線
  6
CONTINUOUS
 62
    3
 10
1069.6999999996406
 20
638.65999999999985
 11
1069.7000000007429
 21
653.75999999999931
  0
LINE
  8
_0-1_計細線
  6
CONTINUOUS
 62
    3
 10
1069.6999999996406
 20
638.65999999999985
 11
1066.2999999996391
 21
638.65999999999985
  0
ARC
  8
_0-1_計細線
  6
CONTINUOUS
 62
    3
 10
1097.300000001469
 20
656.65999999999985
 40
1
 50
89.999999999999915
 51
179.99999999999983
  0
ARC
  8
_0-1_計細線
  6
CONTINUOUS
 62
    3
 10
1097.767949192792
 20
658.66000000000088
 40
1
 50
269.99999999999977
 51
330.00000000010056
  0
ARC
  8
_0-1_計細線
  6
CONTINUOUS
 62
    3
 10
1099.5000000003638
 20
657.65999999999985
 40
1
 50
89.999999999999915
 51
149.99999999993759
  0
LINE
  8
_0-1_計細線
  6
CONTINUOUS
 62
    3
 10
1097.300000001469
 20
657.65999999999985
 11
1097.767949192792
 21
657.65999999999985
  0
ARC
  8
_0-1_計細線
  6
CONTINUOUS
 62
    3
 10
1106.6999999992586
 20
656.65999999999985
 40
1
 50
0
 51
89.999999999999915
  0
ARC
  8
_0-1_計細線
  6
CONTINUOUS
 62
    3
 10
1106.232050807932
 20
658.66000000000088
 40
1
 50
210.00000000010718
 51
269.99999999999977
  0
ARC
  8
_0-1_計細線
  6
CONTINUOUS
 62
    3
 10
1104.5000000003638
 20
657.65999999999985
 40
1
 50
29.999999999958206
 51
89.999999999999929
  0
LINE
  8
_0-1_計細線
  6
CONTINUOUS
 62
    3
 10
1106.6999999992586
 20
657.65999999999985
 11
1106.232050807932
 21
657.65999999999985
  0
ARC
  8
_0-1_計細線
  6
CONTINUOUS
 62
    3
 10
1096.8000000014654
 20
655.25999999999942
 40
0.5
 50
179.99999999999983
 51
269.99999999999977
  0
LINE
  8
_0-1_計細線
  6
CONTINUOUS
 62
    3
 10
1096.300000001469
 20
656.65999999999985
 11
1096.300000001469
 21
655.25999999999942
  0
ARC
  8
_0-1_計細線
  6
CONTINUOUS
 62
    3
 10
1107.1999999992586
 20
655.25999999999942
 40
0.5
 50
269.99999999999977
 51
359.99999999999966
  0
LINE
  8
_0-1_計細線
  6
CONTINUOUS
 62
    3
 10
1107.6999999992622
 20
656.65999999999985
 11
1107.6999999992622
 21
655.25999999999942
  0
ARC
  8
_0-1_計細線
  6
CONTINUOUS
 62
    3
 10
1099.300000001469
 20
653.75999999999931
 40
1
 50
0
 51
89.999999999999915
  0
LINE
  8
_0-1_計細線
  6
CONTINUOUS
 62
    3
 10
1099.300000001469
 20
654.76000000000022
 11
1096.8000000014654
 21
654.76000000000022
  0
ARC
  8
_0-1_計細線
  6
CONTINUOUS
 62
    3
 10
1104.7000000014668
 20
653.75999999999931
 40
1
 50
89.999999999999915
 51
179.99999999999983
  0
LINE
  8
_0-1_計細線
  6
CONTINUOUS
 62
    3
 10
1104.6999999992622
 20
654.76000000000022
 11
1107.1999999992586
 21
654.76000000000022
  0
LINE
  8
_0-1_計細線
  6
CONTINUOUS
 62
    3
 10
1104.5000000003638
 20
658.66000000000088
 11
1099.5000000003638
 21
658.66000000000088
  0
LINE
  8
_0-1_計細線
  6
CONTINUOUS
 62
    3
 10
1100.3000000003631
 20
638.65999999999985
 11
1100.300000001469
 21
653.75999999999931
  0
LINE
  8
_0-1_計細線
  6
CONTINUOUS
 62
    3
 10
1103.7000000003609
 20
638.65999999999985
 11
1103.7000000014668
 21
653.75999999999931
  0
LINE
  8
_0-1_計細線
  6
CONTINUOUS
 62
    3
 10
1103.7000000003609
 20
638.65999999999985
 11
1100.3000000003631
 21
638.65999999999985
  0
ARC
  8
_0-1_計細線
  6
CONTINUOUS
 62
    3
 10
1114.3000000018292
 20
656.65999999999985
 40
1
 50
89.999999999999915
 51
179.99999999999983
  0
ARC
  8
_0-1_計細線
  6
CONTINUOUS
 62
    3
 10
1114.7679491931558
 20
658.66000000000088
 40
1
 50
269.99999999999977
 51
329.99999999999631
  0
ARC
  8
_0-1_計細線
  6
CONTINUOUS
 62
    3
 10
1116.5000000007276
 20
657.65999999999985
 40
1
 50
89.999999999999915
 51
150.00000000004181
  0
LINE
  8
_0-1_計細線
  6
CONTINUOUS
 62
    3
 10
1114.3000000018292
 20
657.65999999999985
 11
1114.7679491931558
 21
657.65999999999985
  0
ARC
  8
_0-1_計細線
  6
CONTINUOUS
 62
    3
 10
1123.6999999996224
 20
656.65999999999985
 40
1
 50
0
 51
89.999999999999915
  0
ARC
  8
_0-1_計細線
  6
CONTINUOUS
 62
    3
 10
1123.2320508082958
 20
658.66000000000088
 40
1
 50
210.00000000000296
 51
269.99999999999977
  0
ARC
  8
_0-1_計細線
  6
CONTINUOUS
 62
    3
 10
1121.500000000724
 20
657.65999999999985
 40
1
 50
29.999999999958206
 51
89.999999999999929
  0
LINE
  8
_0-1_計細線
  6
CONTINUOUS
 62
    3
 10
1123.6999999996224
 20
657.65999999999985
 11
1123.2320508082958
 21
657.65999999999985
  0
ARC
  8
_0-1_計細線
  6
CONTINUOUS
 62
    3
 10
1113.8000000018292
 20
655.25999999999942
 40
0.5
 50
179.99999999999983
 51
269.99999999999977
  0
LINE
  8
_0-1_計細線
  6
CONTINUOUS
 62
    3
 10
1113.3000000018292
 20
656.65999999999985
 11
1113.3000000018292
 21
655.25999999999942
  0
ARC
  8
_0-1_計細線
  6
CONTINUOUS
 62
    3
 10
1124.1999999996224
 20
655.25999999999942
 40
0.5
 50
269.99999999999977
 51
359.99999999999966
  0
LINE
  8
_0-1_計細線
  6
CONTINUOUS
 62
    3
 10
1124.6999999996224
 20
656.65999999999985
 11
1124.6999999996224
 21
655.25999999999942
  0
ARC
  8
_0-1_計細線
  6
CONTINUOUS
 62
    3
 10
1116.3000000018292
 20
653.75999999999931
 40
1
 50
0
 51
89.999999999999915
  0
LINE
  8
_0-1_計細線
  6
CONTINUOUS
 62
    3
 10
1116.3000000018292
 20
654.76000000000022
 11
1113.8000000018292
 21
654.76000000000022
  0
ARC
  8
_0-1_計細線
  6
CONTINUOUS
 62
    3
 10
1121.7000000018306
 20
653.75999999999931
 40
1
 50
89.999999999999915
 51
179.99999999999983
  0
LINE
  8
_0-1_計細線
  6
CONTINUOUS
 62
    3
 10
1121.6999999996224
 20
654.76000000000022
 11
1124.1999999996224
 21
654.76000000000022
  0
LINE
  8
_0-1_計細線
  6
CONTINUOUS
 62
    3
 10
1121.500000000724
 20
658.66000000000088
 11
1116.5000000007276
 21
658.66000000000088
  0
LINE
  8
_0-1_計細線
  6
CONTINUOUS
 62
    3
 10
1117.3000000007269
 20
638.65999999999985
 11
1117.3000000018292
 21
653.75999999999931
  0
LINE
  8
_0-1_計細線
  6
CONTINUOUS
 62
    3
 10
1120.7000000007247
 20
638.65999999999985
 11
1120.700000001827
 21
653.75999999999931
  0
LINE
  8
_0-1_計細線
  6
CONTINUOUS
 62
    3
 10
1120.7000000007247
 20
638.65999999999985
 11
1117.3000000007269
 21
638.65999999999985
  0
ARC
  8
_0-1_計細線
  6
CONTINUOUS
 62
    3
 10
1131.300000002193
 20
656.65999999999985
 40
1
 50
89.999999999999915
 51
179.99999999999983
  0
ARC
  8
_0-1_計細線
  6
CONTINUOUS
 62
    3
 10
1131.7679491935196
 20
658.66000000000088
 40
1
 50
269.99999999999977
 51
329.99999999989211
  0
ARC
  8
_0-1_計細線
  6
CONTINUOUS
 62
    3
 10
1133.5000000010878
 20
657.65999999999985
 40
1
 50
89.999999999999915
 51
150.00000000004181
  0
LINE
  8
_0-1_計細線
  6
CONTINUOUS
 62
    3
 10
1131.300000002193
 20
657.65999999999985
 11
1131.7679491935196
 21
657.65999999999985
  0
ARC
  8
_0-1_計細線
  6
CONTINUOUS
 62
    3
 10
1140.6999999999825
 20
656.65999999999985
 40
1
 50
0
 51
89.999999999999915
  0
ARC
  8
_0-1_計細線
  6
CONTINUOUS
 62
    3
 10
1140.2320508086559
 20
658.66000000000088
 40
1
 50
210.00000000000296
 51
269.99999999999977
  0
ARC
  8
_0-1_計細線
  6
CONTINUOUS
 62
    3
 10
1138.5000000010878
 20
657.65999999999985
 40
1
 50
30.000000000062425
 51
89.999999999999929
  0
LINE
  8
_0-1_計細線
  6
CONTINUOUS
 62
    3
 10
1140.6999999999825
 20
657.65999999999985
 11
1140.2320508086559
 21
657.65999999999985
  0
ARC
  8
_0-1_計細線
  6
CONTINUOUS
 62
    3
 10
1130.8000000021893
 20
655.25999999999942
 40
0.5
 50
179.99999999999983
 51
269.99999999999977
  0
LINE
  8
_0-1_計細線
  6
CONTINUOUS
 62
    3
 10
1130.3000000021893
 20
656.65999999999985
 11
1130.3000000021893
 21
655.25999999999942
  0
ARC
  8
_0-1_計細線
  6
CONTINUOUS
 62
    3
 10
1141.1999999999825
 20
655.25999999999942
 40
0.5
 50
269.99999999999977
 51
359.99999999999966
  0
LINE
  8
_0-1_計細線
  6
CONTINUOUS
 62
    3
 10
1141.6999999999825
 20
656.65999999999985
 11
1141.6999999999825
 21
655.25999999999942
  0
ARC
  8
_0-1_計細線
  6
CONTINUOUS
 62
    3
 10
1133.3000000021893
 20
653.75999999999931
 40
1
 50
0
 51
89.999999999999915
  0
LINE
  8
_0-1_計細線
  6
CONTINUOUS
 62
    3
 10
1133.3000000021893
 20
654.76000000000022
 11
1130.8000000021893
 21
654.76000000000022
  0
ARC
  8
_0-1_計細線
  6
CONTINUOUS
 62
    3
 10
1138.7000000021908
 20
653.75999999999931
 40
1
 50
89.999999999999915
 51
179.99999999999983
  0
LINE
  8
_0-1_計細線
  6
CONTINUOUS
 62
    3
 10
1138.6999999999825
 20
654.76000000000022
 11
1141.1999999999825
 21
654.76000000000022
  0
LINE
  8
_0-1_計細線
  6
CONTINUOUS
 62
    3
 10
1138.5000000010878
 20
658.66000000000088
 11
1133.5000000010878
 21
658.66000000000088
  0
LINE
  8
_0-1_計細線
  6
CONTINUOUS
 62
    3
 10
1134.300000001087
 20
638.65999999999985
 11
1134.300000002193
 21
653.75999999999931
  0
LINE
  8
_0-1_計細線
  6
CONTINUOUS
 62
    3
 10
1137.7000000010885
 20
638.65999999999985
 11
1137.7000000021908
 21
653.75999999999931
  0
LINE
  8
_0-1_計細線
  6
CONTINUOUS
 62
    3
 10
1137.7000000010885
 20
638.65999999999985
 11
1134.300000001087
 21
638.65999999999985
  0
ARC
  8
_0-1_計細線
  6
CONTINUOUS
 62
    3
 10
1212.0000000000036
 20
638.65999999999985
 40
3.0000000000000004
 50
269.99999999999977
 51
359.99999999999966
  0
LINE
  8
_0-1_計細線
  6
CONTINUOUS
 62
    3
 10
1215.0000000000036
 20
638.65999999999985
 11
1215.0000000000036
 21
658.15999999999985
  0
LINE
  8
_0-1_計細線
  6
CONTINUOUS
 62
    3
 10
1212.0000000000036
 20
635.65999999999985
 11
1185.5
 21
635.65999999999985
  0
LINE
  8
_0-1_計細線
  6
CONTINUOUS
 62
    3
 10
1185.0000000000036
 20
636.16000000000076
 11
1185.5
 21
635.65999999999985
  0
LINE
  8
_0-1_計細線
  6
CONTINUOUS
 62
    3
 10
1185.0000000000036
 20
638.15999999999985
 11
1185.0000000000036
 21
636.16000000000076
  0
LINE
  8
_0-1_計細線
  6
CONTINUOUS
 62
    3
 10
1185.5
 20
638.65999999999985
 11
1185.0000000000036
 21
638.15999999999985
  0
LINE
  8
_0-1_計細線
  6
CONTINUOUS
 62
    3
 10
1212.0000000000036
 20
638.65999999999985
 11
1185.5
 21
638.65999999999985
  0
LINE
  8
_0-1_計細線
  6
CONTINUOUS
 62
    3
 10
1214.5000000000036
 20
658.66000000000088
 11
1215.0000000000036
 21
658.15999999999985
  0
LINE
  8
_0-1_計細線
  6
CONTINUOUS
 62
    3
 10
1212.5
 20
658.66000000000088
 11
1214.5000000000036
 21
658.66000000000088
  0
LINE
  8
_0-1_計細線
  6
CONTINUOUS
 62
    3
 10
1212.0000000000036
 20
658.15999999999985
 11
1212.5
 21
658.66000000000088
  0
LINE
  8
_0-1_計細線
  6
CONTINUOUS
 62
    3
 10
1212.0000000000036
 20
638.65999999999985
 11
1212.0000000000036
 21
658.15999999999985
  0
ARC
  8
_0-1_計細線
  6
CONTINUOUS
 62
    3
 10
958.00000000000364
 20
638.65999999999985
 40
3.0000000000000004
 50
179.99999999999983
 51
269.99999999999977
  0
LINE
  8
_0-1_計細線
  6
CONTINUOUS
 62
    3
 10
955.00000000000364
 20
638.65999999999985
 11
955.00000000000364
 21
658.15999999999985
  0
LINE
  8
_0-1_計細線
  6
CONTINUOUS
 62
    3
 10
958.00000000000364
 20
635.65999999999985
 11
984.5
 21
635.65999999999985
  0
LINE
  8
_0-1_計細線
  6
CONTINUOUS
 62
    3
 10
985.00000000000364
 20
636.16000000000076
 11
984.5
 21
635.65999999999985
  0
LINE
  8
_0-1_計細線
  6
CONTINUOUS
 62
    3
 10
985.00000000000364
 20
638.15999999999985
 11
985.00000000000364
 21
636.16000000000076
  0
LINE
  8
_0-1_計細線
  6
CONTINUOUS
 62
    3
 10
984.5
 20
638.65999999999985
 11
985.00000000000364
 21
638.15999999999985
  0
LINE
  8
_0-1_計細線
  6
CONTINUOUS
 62
    3
 10
958.00000000000364
 20
638.65999999999985
 11
984.5
 21
638.65999999999985
  0
LINE
  8
_0-1_計細線
  6
CONTINUOUS
 62
    3
 10
955.50000000000364
 20
658.66000000000088
 11
955.00000000000364
 21
658.15999999999985
  0
LINE
  8
_0-1_計細線
  6
CONTINUOUS
 62
    3
 10
957.5
 20
658.66000000000088
 11
955.50000000000364
 21
658.66000000000088
  0
LINE
  8
_0-1_計細線
  6
CONTINUOUS
 62
    3
 10
958.00000000000364
 20
658.15999999999985
 11
957.5
 21
658.66000000000088
  0
LINE
  8
_0-1_計細線
  6
CONTINUOUS
 62
    3
 10
958.00000000000364
 20
638.65999999999985
 11
958.00000000000364
 21
658.15999999999985
  0
CIRCLE
  8
_0-0_計極細
  6
CONTINUOUS
 62
    2
 10
1231.9367280402294
 20
623.68231373970775
 40
0.3318518518518431
  0
CIRCLE
  8
_0-0_計極細
  6
CONTINUOUS
 62
    2
 10
1243.6967280402314
 20
620.32231373970808
 40
0.3318518518518431
  0
LINE
  8
_0-0_計極細
  6
CONTINUOUS
 62
    2
 10
1230.0000000000036
 20
617.11133680899002
 11
1239.0000000000036
 21
617.11133680899002
  0
LINE
  8
_0-0_計極細
  6
CENTER1
 62
    2
 10
1234.5000000000036
 20
585.69395582932793
 11
1234.5000000000036
 21
619.6767689077551
  0
LINE
  8
_0-0_計極細
  6
CONTINUOUS
 62
    2
 10
1239.0000000000036
 20
617.11133680899002
 11
1239.0000000000036
 21
590.65999999999985
  0
LINE
  8
_0-0_計極細
  6
CONTINUOUS
 62
    2
 10
1230.0000000000036
 20
590.65999999999985
 11
1230.0000000000036
 21
617.11133680899002
  0
LINE
  8
_0-0_計極細
  6
CENTER1
 62
    2
 10
1245.696391612455
 20
608.73545946702052
 11
1207.2777793229143
 21
622.7186907580417
  0
LINE
  8
_0-0_計極細
  6
CONTINUOUS
 62
    2
 10
1241.184040932294
 20
605.58902069750184
 11
1208.1094340380841
 21
617.6271931170495
  0
LINE
  8
_0-0_計極細
  6
CONTINUOUS
 62
    2
 10
1244.2622222222235
 20
614.0462542845753
 11
1211.1876153280136
 21
626.08442670412296
  0
LINE
  8
_0-0_計極細
  6
CONTINUOUS
 62
    2
 10
1211.1876153280136
 20
626.08442670412296
 11
1208.1094340380841
 21
617.6271931170495
  0
LINE
  8
_0-0_計極細
  6
CONTINUOUS
 62
    2
 10
1241.184040932294
 20
605.58902069750184
 11
1244.2622222222235
 21
614.0462542845753
  0
LINE
  8
_0-0_計極細
  6
CENTER1
 62
    2
 10
935.50000000000364
 20
585.69395582932793
 11
935.50000000000364
 21
619.6767689077551
  0
LINE
  8
_0-0_計極細
  6
CONTINUOUS
 62
    2
 10
931.00000000000364
 20
617.11133680899002
 11
931.00000000000364
 21
590.65999999999985
  0
LINE
  8
_0-0_計極細
  6
CONTINUOUS
 62
    2
 10
940.00000000000364
 20
617.11133680899002
 11
931.00000000000364
 21
617.11133680899002
  0
LINE
  8
_0-0_計極細
  6
CONTINUOUS
 62
    2
 10
940.00000000000364
 20
590.65999999999985
 11
940.00000000000364
 21
617.11133680899002
  0
LINE
  8
_0-0_計極細
  6
CENTER1
 62
    2
 10
924.30360838754859
 20
608.73545946702052
 11
962.72222067708935
 21
622.7186907580417
  0
LINE
  8
_0-0_計極細
  6
CONTINUOUS
 62
    2
 10
928.81595906770963
 20
605.58902069750184
 11
961.89056596191961
 21
617.6271931170495
  0
LINE
  8
_0-0_計極細
  6
CONTINUOUS
 62
    2
 10
925.73777777778014
 20
614.0462542845753
 11
958.81238467198636
 21
626.08442670412296
  0
LINE
  8
_0-0_計極細
  6
CONTINUOUS
 62
    2
 10
958.81238467198636
 20
626.08442670412296
 11
961.89056596191961
 21
617.6271931170495
  0
LINE
  8
_0-0_計極細
  6
CONTINUOUS
 62
    2
 10
928.81595906770963
 20
605.58902069750184
 11
925.73777777778014
 21
614.0462542845753
  0
LINE
  8
_0-0_計極細
  6
CONTINUOUS
 62
    2
 10
1261.0734832401831
 20
651.65999999999985
 11
1268.0734828641107
 21
658.65999962392652
  0
LINE
  8
_0-0_計極細
  6
CONTINUOUS
 62
    2
 10
1248.3455611788268
 20
651.65999999999985
 11
1255.3455609023222
 21
658.6599997234963
  0
LINE
  8
_0-0_計極細
  6
CONTINUOUS
 62
    2
 10
1235.6176391174668
 20
651.65999999999985
 11
1242.61763894053
 21
658.65999982306494
  0
LINE
  8
_0-0_計極細
  6
CONTINUOUS
 62
    2
 10
1222.8897170561104
 20
651.65999999999985
 11
1229.8897169787451
 21
658.65999992263369
  0
LINE
  8
_0-0_計極細
  6
DASHED2
 62
    2
 10
1267.4374442708613
 20
651.65999999999985
 11
1273.5066482870679
 21
657.72920401620831
  0
LINE
  8
_0-0_計極細
  6
DASHED2
 62
    2
 10
1254.7095222095049
 20
651.65999999999985
 11
1261.7095218832146
 21
658.65999967371056
  0
LINE
  8
_0-0_計極細
  6
DASHED2
 62
    2
 10
1241.9816001481449
 20
651.65999999999985
 11
1248.9815999214261
 21
658.65999977328011
  0
LINE
  8
_0-0_計極細
  6
DASHED2
 62
    2
 10
1229.2536780867886
 20
651.65999999999985
 11
1236.2536779596376
 21
658.65999987284897
  0
LINE
  8
_0-0_計極細
  6
DASHED2
 62
    2
 10
1220
 20
655.13424397457038
 11
1223.525755997849
 21
658.65999997241852
  0
LINE
  8
_0-0_計極細
  6
CONTINUOUS
 62
    2
 10
1220
 20
653.86145176843456
 11
1217.7985482315671
 21
651.65999999999985
  0
LINE
  8
_0-0_計極細
  6
CONTINUOUS
 62
    2
 10
1220
 20
656.4070361807062
 11
1215.2529638192973
 21
651.65999999999985
  0
LINE
  8
_0-0_計極細
  6
CONTINUOUS
 62
    2
 10
1215.0000000000036
 20
653.95262059297795
 11
1219.7073794070238
 21
658.66000000000088
  0
LINE
  8
_0-0_計極細
  6
CONTINUOUS
 62
    2
 10
1215.0000000000036
 20
656.49820500524856
 11
1217.161794994754
 21
658.65999999999894
  0
LINE
  8
_0-0_計極細
  6
CONTINUOUS
 62
    2
 10
1220
 20
657.75440667429666
 11
1219.0944066742995
 21
658.66000000000088
  0
LINE
  8
_0-0_計極細
  6
CONTINUOUS
 62
    2
 10
1220
 20
655.20882226202502
 11
1216.5488222620261
 21
658.66000000000088
  0
LINE
  8
_0-0_計極細
  6
CONTINUOUS
 62
    2
 10
1220
 20
652.66323784975339
 11
1215.0000000000036
 21
657.66323784975339
  0
LINE
  8
_0-0_計極細
  6
CONTINUOUS
 62
    2
 10
1218.4576534374864
 20
651.65999999999985
 11
1215.0000000000036
 21
655.11765343748175
  0
LINE
  8
_0-0_計極細
  6
CONTINUOUS
 62
    2
 10
1215.912069025213
 20
651.65999999999985
 11
1215.0000000000036
 21
652.57206902521023
  0
LINE
  8
_0-0_計極細
  6
CONTINUOUS
 62
    2
 10
1215.0000000000036
 20
658.15999999999985
 11
1215.0000000000036
 21
658.66000000000088
  0
LINE
  8
_0-0_計極細
  6
CONTINUOUS
 62
    2
 10
1215.0000000000036
 20
658.66000000000088
 11
1220
 21
658.66000000000088
  0
LINE
  8
_0-0_計極細
  6
CONTINUOUS
 62
    2
 10
1215.0000000000036
 20
651.65999999999985
 11
1273.5066482870679
 21
651.65999999999985
  0
LINE
  8
_0-0_計極細
  6
CONTINUOUS
 62
    2
 10
1220
 20
658.66000000000088
 11
1273.5066482870679
 21
658.66000000000088
  0
LINE
  8
_0-0_計極細
  6
CONTINUOUS
 62
    2
 10
1220
 20
658.66000000000088
 11
1220
 21
651.65999999999985
  0
CIRCLE
  8
_0-0_計極細
  6
CONTINUOUS
 62
    2
 10
1190.7601436780897
 20
584.07130550925467
 40
1.0953188836088352
  0
CIRCLE
  8
_0-0_計極細
  6
CONTINUOUS
 62
    2
 10
1188.9912547892018
 20
627.6446388425893
 40
1.0953188836088352
  0
CIRCLE
  8
_0-0_計極細
  6
CONTINUOUS
 62
    2
 10
1189.3745881225368
 20
588.07260180555113
 40
0.3318518518518431
  0
CIRCLE
  8
_0-0_計極細
  6
CONTINUOUS
 62
    2
 10
1188.5906375052509
 20
611.62593513888442
 40
0.3318518518518431
  0
LINE
  8
_0-0_計極細
  6
CONTINUOUS
 62
    2
 10
1185.0000000000036
 20
635.65999999999985
 11
1185.0000000000036
 21
574.91503982313225
  0
LINE
  8
_0-0_計極細
  6
CONTINUOUS
 62
    2
 10
1185.5
 20
635.65999999999985
 11
1185.0000000000036
 21
635.65999999999985
  0
CIRCLE
  8
_0-0_計極細
  6
CONTINUOUS
 62
    2
 10
1226.9968103447573
 20
650.37926847221752
 40
0.3318518518518431
  0
CIRCLE
  8
_0-0_計極細
  6
CONTINUOUS
 62
    2
 10
1239.7968103447565
 20
642.98797217592164
 40
1.0953188836088352
  0
CIRCLE
  8
_0-0_計極細
  6
CONTINUOUS
 62
    2
 10
1239.7168103447584
 20
646.77926847221806
 40
0.3318518518518431
  0
CIRCLE
  8
_0-0_計極細
  6
CONTINUOUS
 62
    2
 10
1258.196810344758
 20
649.81926847221803
 40
0.3318518518518431
  0
CIRCLE
  8
_0-0_計極細
  6
CONTINUOUS
 62
    2
 10
1193.5738473817946
 20
606.55071559836597
 40
0.3318518518518431
  0
CIRCLE
  8
_0-0_計極細
  6
CONTINUOUS
 62
    2
 10
1193.4538473817956
 20
620.92404893169987
 40
0.3318518518518431
  0
CIRCLE
  8
_0-0_計極細
  6
CONTINUOUS
 62
    2
 10
1221.9334770114256
 20
624.17797217592215
 40
1.0953188836088352
  0
CIRCLE
  8
_0-0_計極細
  6
CONTINUOUS
 62
    2
 10
1252.3325925925928
 20
592.14574074074062
 40
1.0953188836088352
  0
CIRCLE
  8
_0-0_計極細
  6
CONTINUOUS
 62
    2
 10
1224.573477011425
 20
598.25797217592208
 40
1.0953188836088352
  0
CIRCLE
  8
_0-0_計極細
  6
CONTINUOUS
 62
    2
 10
1203.4534770114224
 20
611.69797217592259
 40
1.0953188836088352
  0
CIRCLE
  8
_0-0_計極細
  6
CONTINUOUS
 62
    2
 10
1197.320143678091
 20
593.77797217592251
 40
1.0953188836088352
  0
CIRCLE
  8
_0-0_計極細
  6
CONTINUOUS
 62
    2
 10
1239.5568103447586
 20
620.50797217592208
 40
1.0953188836088352
  0
CIRCLE
  8
_0-0_計極細
  6
CONTINUOUS
 62
    2
 10
1220.3568103447578
 20
639.7079721759219
 40
1.0953188836088352
  0
CIRCLE
  8
_0-0_計極細
  6
CONTINUOUS
 62
    2
 10
1253.6101436780918
 20
635.76130550925609
 40
1.0953188836088352
  0
CIRCLE
  8
_0-0_計極細
  6
CONTINUOUS
 62
    2
 10
1262.9968103447573
 20
645.04130550925493
 40
1.0953188836088352
  0
CIRCLE
  8
_0-0_計極細
  6
CONTINUOUS
 62
    2
 10
1265.8768103447546
 20
636.77926847221806
 40
0.3318518518518431
  0
CIRCLE
  8
_0-0_計極細
  6
CONTINUOUS
 62
    2
 10
1248.1168103447562
 20
624.05926847221872
 40
0.3318518518518431
  0
CIRCLE
  8
_0-0_計極細
  6
CONTINUOUS
 62
    2
 10
1249.7968103447565
 20
640.13926847221785
 40
0.3318518518518431
  0
CIRCLE
  8
_0-0_計極細
  6
CONTINUOUS
 62
    2
 10
1239.7168103447584
 20
628.37926847221752
 40
0.3318518518518431
  0
CIRCLE
  8
_0-0_計極細
  6
CONTINUOUS
 62
    2
 10
1250.5168103447577
 20
615.65926847221817
 40
0.3318518518518431
  0
CIRCLE
  8
_0-0_計極細
  6
CONTINUOUS
 62
    2
 10
1251.4768103447568
 20
603.17926847221861
 40
0.3318518518518431
  0
CIRCLE
  8
_0-0_計極細
  6
CONTINUOUS
 62
    2
 10
1247.1568103447571
 20
594.77926847221897
 40
0.3318518518518431
  0
CIRCLE
  8
_0-0_計極細
  6
CONTINUOUS
 62
    2
 10
1223.6368103447567
 20
626.69926847221814
 40
0.3318518518518431
  0
CIRCLE
  8
_0-0_計極細
  6
CONTINUOUS
 62
    2
 10
1218.2768103447561
 20
635.52593513888496
 40
0.3318518518518431
  0
CIRCLE
  8
_0-0_計極細
  6
CONTINUOUS
 62
    2
 10
1219.7701436780917
 20
647.3659351388842
 40
0.3318518518518431
  0
CIRCLE
  8
_0-0_計極細
  6
CONTINUOUS
 62
    2
 10
1225.4634770114244
 20
602.95260180555215
 40
0.3318518518518431
  0
CIRCLE
  8
_0-0_計極細
  6
CONTINUOUS
 62
    2
 10
1218.7434770114269
 20
599.59260180555157
 40
0.3318518518518431
  0
CIRCLE
  8
_0-0_計極細
  6
CONTINUOUS
 62
    2
 10
1225.943477011424
 20
594.15260180555106
 40
0.3318518518518431
  0
CIRCLE
  8
_0-0_計極細
  6
CONTINUOUS
 62
    2
 10
1209.7834770114241
 20
593.9926018055512
 40
0.3318518518518431
  0
CIRCLE
  8
_0-0_計極細
  6
CONTINUOUS
 62
    2
 10
1201.4634770114244
 20
596.87260180555222
 40
0.3318518518518431
  0
CIRCLE
  8
_0-0_計極細
  6
CONTINUOUS
 62
    2
 10
1194.5834770114234
 20
578.95260180555215
 40
0.3318518518518431
  0
CIRCLE
  8
_0-0_計極細
  6
CONTINUOUS
 62
    2
 10
1200.1834770114256
 20
589.6726018055524
 40
0.3318518518518431
  0
CIRCLE
  8
_0-0_計極細
  6
CONTINUOUS
 62
    2
 10
1210.8834770114227
 20
603.65260180555197
 40
0.3318518518518431
  0
CIRCLE
  8
_0-0_計極細
  6
CONTINUOUS
 62
    2
 10
1200.3634770114259
 20
613.86593513888511
 40
0.3318518518518431
  0
CIRCLE
  8
_0-0_計極細
  6
CONTINUOUS
 62
    2
 10
1202.816810344757
 20
628.85260180555179
 40
0.3318518518518431
  0
CIRCLE
  8
_0-0_計極細
  6
CONTINUOUS
 62
    2
 10
1196.8434770114254
 20
625.97260180555077
 40
0.3318518518518431
  0
LINE
  8
_0-0_計極細
  6
CONTINUOUS
 62
    2
 10
1259.9740014487579
 20
574.91503982313225
 11
1273.5066483119954
 21
588.44768668636971
  0
LINE
  8
_0-0_計極細
  6
CONTINUOUS
 62
    2
 10
1217.5475945775652
 20
574.91503982313225
 11
1233.2925547544328
 21
590.65999999999985
  0
LINE
  8
_0-0_計極細
  6
CONTINUOUS
 62
    2
 10
1255.0000000000036
 20
612.36744524556889
 11
1273.5066482875227
 21
630.87409353309158
  0
LINE
  8
_0-0_計極細
  6
CONTINUOUS
 62
    2
 10
1255.7313607616379
 20
574.91503982313225
 11
1273.506648309547
 21
592.69032737104135
  0
LINE
  8
_0-0_計極細
  6
CONTINUOUS
 62
    2
 10
1213.3049538904452
 20
574.91503982313225
 11
1229.0499140673128
 21
590.65999999999985
  0
LINE
  8
_0-0_計極細
  6
CONTINUOUS
 62
    2
 10
1255.0000000000036
 20
616.61008593268889
 11
1270.0499139595813
 21
631.65999989227021
  0
LINE
  8
_0-0_計極細
  6
CONTINUOUS
 62
    2
 10
1251.4887200745179
 20
574.91503982313225
 11
1273.5066483071023
 21
596.9329680557139
  0
LINE
  8
_0-0_計極細
  6
CONTINUOUS
 62
    2
 10
1209.0623132033288
 20
574.91503982313225
 11
1224.8072733801964
 21
590.65999999999985
  0
LINE
  8
_0-0_計極細
  6
CONTINUOUS
 62
    2
 10
1255.0000000000036
 20
620.85272661980798
 11
1265.8072733028348
 21
631.65999992263914
  0
LINE
  8
_0-0_計極細
  6
CONTINUOUS
 62
    2
 10
1205
 20
590.65999999999985
 11
1205
 21
574.91503982313225
  0
LINE
  8
_0-0_計極細
  6
CONTINUOUS
 62
    2
 10
1255.0000000000036
 20
631.66000000000076
 11
1273.5066482870679
 21
631.66000000000076
  0
LINE
  8
_0-0_計極細
  6
CONTINUOUS
 62
    2
 10
1205
 20
590.65999999999985
 11
1255.0000000000036
 21
590.65999999999985
  0
LINE
  8
_0-0_計極細
  6
CONTINUOUS
 62
    2
 10
1255.0000000000036
 20
631.66000000000076
 11
1255.0000000000036
 21
590.65999999999985
  0
CIRCLE
  8
_0-0_計極細
  6
CONTINUOUS
 62
    2
 10
937.1079214558705
 20
646.8946388425876
 40
1.0953188836088352
  0
LINE
  8
_0-0_計極細
  6
CONTINUOUS
 62
    2
 10
944.69880819342507
 20
651.65999999632379
 11
950
 21
656.96119180290134
  0
LINE
  8
_0-0_計極細
  6
CONTINUOUS
 62
    2
 10
931.97088612323932
 20
651.65999998749714
 11
938.97088613574306
 21
658.65999999999894
  0
LINE
  8
_0-0_計極細
  6
CONTINUOUS
 62
    2
 10
919.2429640530537
 20
651.65999997866948
 11
926.24296407438305
 21
658.66000000000088
  0
LINE
  8
_0-0_計極細
  6
CONTINUOUS
 62
    2
 10
906.51504198286784
 20
651.65999996984385
 11
913.51504201302669
 21
658.66000000000088
  0
LINE
  8
_0-0_計極細
  6
CONTINUOUS
 62
    2
 10
896.49335171293217
 20
654.36623176126432
 11
900.78711995167043
 21
658.65999999999894
  0
LINE
  8
_0-0_計極細
  6
DASHED2
 62
    2
 10
938.33484715833038
 20
651.6599999919099
 11
945.33484716642135
 21
658.66000000000088
  0
LINE
  8
_0-0_計極細
  6
DASHED2
 62
    2
 10
925.60692508814464
 20
651.65999998308325
 11
932.60692510506487
 21
658.66000000000088
  0
LINE
  8
_0-0_計極細
  6
DASHED2
 62
    2
 10
912.87900301796253
 20
651.65999997425661
 11
919.87900304370498
 21
658.66000000000088
  0
LINE
  8
_0-0_計極細
  6
DASHED2
 62
    2
 10
900.1510809477769
 20
651.65999996542996
 11
907.1510809823485
 21
658.66000000000088
  0
LINE
  8
_0-0_計極細
  6
CONTINUOUS
 62
    2
 10
954.88114584618597
 20
651.65999999999985
 11
955.00000000000364
 21
651.77885415381479
  0
LINE
  8
_0-0_計極細
  6
CONTINUOUS
 62
    2
 10
952.33556143391627
 20
651.65999999999985
 11
955.00000000000364
 21
654.32443856608745
  0
LINE
  8
_0-0_計極細
  6
CONTINUOUS
 62
    2
 10
950
 20
651.87002297835897
 11
955.00000000000364
 21
656.87002297835807
  0
LINE
  8
_0-0_計極細
  6
CONTINUOUS
 62
    2
 10
950
 20
654.41560739062982
 11
954.24439260937288
 21
658.66000000000088
  0
LINE
  8
_0-0_計極細
  6
CONTINUOUS
 62
    2
 10
950
 20
656.96119180290134
 11
951.69880819709942
 21
658.66000000000088
  0
LINE
  8
_0-0_計極細
  6
CONTINUOUS
 62
    2
 10
955.00000000000364
 20
657.29141987664389
 11
953.63141987664505
 21
658.66000000000088
  0
LINE
  8
_0-0_計極細
  6
CONTINUOUS
 62
    2
 10
955.00000000000364
 20
654.74583546437316
 11
951.08583546437512
 21
658.66000000000088
  0
LINE
  8
_0-0_計極細
  6
CONTINUOUS
 62
    2
 10
950
 20
657.20025105210152
 11
955.00000000000364
 21
652.20025105210152
  0
LINE
  8
_0-0_計極細
  6
CONTINUOUS
 62
    2
 10
950
 20
654.65466663982988
 11
952.99466663983196
 21
651.65999999999985
  0
LINE
  8
_0-0_計極細
  6
CONTINUOUS
 62
    2
 10
950
 20
652.10908222755916
 11
950.44908222756203
 21
651.65999999999985
  0
LINE
  8
_0-0_計極細
  6
CONTINUOUS
 62
    2
 10
955.00000000000364
 20
658.15999999999985
 11
955.00000000000364
 21
658.66000000000088
  0
LINE
  8
_0-0_計極細
  6
CONTINUOUS
 62
    2
 10
955.00000000000364
 20
658.66000000000088
 11
950
 21
658.66000000000088
  0
LINE
  8
_0-0_計極細
  6
CONTINUOUS
 62
    2
 10
955.00000000000364
 20
651.65999999999985
 11
896.49335171293217
 21
651.65999999999985
  0
LINE
  8
_0-0_計極細
  6
CONTINUOUS
 62
    2
 10
950
 20
658.66000000000088
 11
896.49335171293217
 21
658.66000000000088
  0
LINE
  8
_0-0_計極細
  6
CONTINUOUS
 62
    2
 10
950
 20
658.66000000000088
 11
950
 21
651.65999999999985
  0
CIRCLE
  8
_0-0_計極細
  6
CONTINUOUS
 62
    2
 10
973.65014367808908
 20
614.60130550925624
 40
1.0953188836088352
  0
CIRCLE
  8
_0-0_計極細
  6
CONTINUOUS
 62
    2
 10
981.07236590031619
 20
579.64840363009444
 40
0.3318518518518431
  0
CIRCLE
  8
_0-0_計極細
  6
CONTINUOUS
 62
    2
 10
980.27236590031316
 20
593.24204624999584
 40
0.3318518518518431
  0
CIRCLE
  8
_0-0_計極細
  6
CONTINUOUS
 62
    2
 10
980.86753951142612
 20
626.06797217592157
 40
1.0953188836088352
  0
LINE
  8
_0-0_計極細
  6
CONTINUOUS
 62
    2
 10
985.00000000000364
 20
635.65999999999985
 11
985.00000000000364
 21
574.91503982313225
  0
LINE
  8
_0-0_計極細
  6
CONTINUOUS
 62
    2
 10
984.5
 20
635.65999999999985
 11
985.00000000000364
 21
635.65999999999985
  0
CIRCLE
  8
_0-0_計極細
  6
CONTINUOUS
 62
    2
 10
901.31462413258487
 20
644.68130550925434
 40
1.0953188836088352
  0
CIRCLE
  8
_0-0_計極細
  6
CONTINUOUS
 62
    2
 10
973.98347701142484
 20
582.46797217592302
 40
1.0953188836088352
  0
CIRCLE
  8
_0-0_計極細
  6
CONTINUOUS
 62
    2
 10
971.10347701142382
 20
593.66797217592284
 40
1.0953188836088352
  0
CIRCLE
  8
_0-0_計極細
  6
CONTINUOUS
 62
    2
 10
949.51681034475769
 20
595.82797217592179
 40
1.0953188836088352
  0
CIRCLE
  8
_0-0_計極細
  6
CONTINUOUS
 62
    2
 10
917.59681034475943
 20
603.50797217592208
 40
1.0953188836088352
  0
CIRCLE
  8
_0-0_計極細
  6
CONTINUOUS
 62
    2
 10
929.35681034475795
 20
626.30797217592226
 40
1.0953188836088352
  0
CIRCLE
  8
_0-0_計極細
  6
CONTINUOUS
 62
    2
 10
942.79681034475652
 20
620.22797217592142
 40
1.0953188836088352
  0
CIRCLE
  8
_0-0_計極細
  6
CONTINUOUS
 62
    2
 10
913.43287185722886
 20
644.14574074074062
 40
1.0953188836088352
  0
CIRCLE
  8
_0-0_計極細
  6
CONTINUOUS
 62
    2
 10
944.49014367809298
 20
639.98797217592164
 40
1.0953188836088352
  0
CIRCLE
  8
_0-0_計極細
  6
CONTINUOUS
 62
    2
 10
956.66347701142513
 20
626.79760180555149
 40
0.3318518518518431
  0
CIRCLE
  8
_0-0_計極細
  6
CONTINUOUS
 62
    2
 10
977.81014367809257
 20
608.95760180555226
 40
0.3318518518518431
  0
CIRCLE
  8
_0-0_計極細
  6
CONTINUOUS
 62
    2
 10
977.49014367809298
 20
619.73093513888489
 40
0.3318518518518431
  0
CIRCLE
  8
_0-0_計極細
  6
CONTINUOUS
 62
    2
 10
968.42347701142353
 20
625.70426847221825
 40
0.3318518518518431
  0
CIRCLE
  8
_0-0_計極細
  6
CONTINUOUS
 62
    2
 10
959.57014367809109
 20
605.22426847221868
 40
0.3318518518518431
  0
CIRCLE
  8
_0-0_計極細
  6
CONTINUOUS
 62
    2
 10
969.57014367809109
 20
579.05537958332934
 40
0.3318518518518431
  0
CIRCLE
  8
_0-0_計極細
  6
CONTINUOUS
 62
    2
 10
973.73014367809446
 20
588.01537958332938
 40
0.3318518518518431
  0
CIRCLE
  8
_0-0_計極細
  6
CONTINUOUS
 62
    2
 10
965.5168103447578
 20
596.97537958332941
 40
0.3318518518518431
  0
CIRCLE
  8
_0-0_計極細
  6
CONTINUOUS
 62
    2
 10
957.73014367809083
 20
595.05537958332934
 40
0.3318518518518431
  0
CIRCLE
  8
_0-0_計極細
  6
CONTINUOUS
 62
    2
 10
945.78347701142422
 20
594.41537958332992
 40
0.3318518518518431
  0
CIRCLE
  8
_0-0_計極細
  6
CONTINUOUS
 62
    2
 10
947.91681034475914
 20
599.96204624999609
 40
0.3318518518518431
  0
CIRCLE
  8
_0-0_計極細
  6
CONTINUOUS
 62
    2
 10
944.18347701142568
 20
601.45537958332989
 40
0.3318518518518431
  0
CIRCLE
  8
_0-0_計極細
  6
CONTINUOUS
 62
    2
 10
950.90347701142321
 20
604.76204624999627
 40
0.3318518518518431
  0
CIRCLE
  8
_0-0_計極細
  6
CONTINUOUS
 62
    2
 10
927.32347701142874
 20
594.02871291666361
 40
0.3318518518518431
  0
CIRCLE
  8
_0-0_計極細
  6
CONTINUOUS
 62
    2
 10
923.59014367809152
 20
599.14871291666259
 40
0.3318518518518431
  0
CIRCLE
  8
_0-0_計極細
  6
CONTINUOUS
 62
    2
 10
918.36347701142586
 20
595.0953795833293
 40
0.3318518518518431
  0
CIRCLE
  8
_0-0_計極細
  6
CONTINUOUS
 62
    2
 10
921.77681034475984
 20
605.86871291666193
 40
0.3318518518518431
  0
CIRCLE
  8
_0-0_計極細
  6
CONTINUOUS
 62
    2
 10
946.4434770114276
 20
622.13537958332927
 40
0.3318518518518431
  0
CIRCLE
  8
_0-0_計極細
  6
CONTINUOUS
 62
    2
 10
930.01681034476132
 20
617.76204624999627
 40
0.3318518518518431
  0
CIRCLE
  8
_0-0_計極細
  6
CONTINUOUS
 62
    2
 10
938.87014367809024
 20
625.86871291666284
 40
0.3318518518518431
  0
CIRCLE
  8
_0-0_計極細
  6
CONTINUOUS
 62
    2
 10
946.4434770114276
 20
629.2820462499958
 40
0.3318518518518431
  0
CIRCLE
  8
_0-0_計極細
  6
CONTINUOUS
 62
    2
 10
931.40347701142321
 20
631.52204624999558
 40
0.3318518518518431
  0
CIRCLE
  8
_0-0_計極細
  6
CONTINUOUS
 62
    2
 10
919.13681034476042
 20
632.26871291666248
 40
0.3318518518518431
  0
CIRCLE
  8
_0-0_計極細
  6
CONTINUOUS
 62
    2
 10
928.41014367809476
 20
648.56871291666175
 40
0.3318518518518431
  0
CIRCLE
  8
_0-0_計極細
  6
CONTINUOUS
 62
    2
 10
935.45014367809199
 20
639.60871291666263
 40
0.3318518518518431
  0
CIRCLE
  8
_0-0_計極細
  6
CONTINUOUS
 62
    2
 10
950.38347701142641
 20
639.92871291666233
 40
0.3318518518518431
  0
CIRCLE
  8
_0-0_計極細
  6
CONTINUOUS
 62
    2
 10
946.97014367809243
 20
649.63537958332938
 40
0.3318518518518431
  0
CIRCLE
  8
_0-0_計極細
  6
CONTINUOUS
 62
    2
 10
932.03681034475824
 20
643.66204624999591
 40
0.3318518518518431
  0
CIRCLE
  8
_0-0_計極細
  6
CONTINUOUS
 62
    2
 10
914.97014367809243
 20
636.62204624999595
 40
0.3318518518518431
  0
CIRCLE
  8
_0-0_計極細
  6
CONTINUOUS
 62
    2
 10
907.39681034475882
 20
635.44871291666277
 40
0.3318518518518431
  0
CIRCLE
  8
_0-0_計極細
  6
CONTINUOUS
 62
    2
 10
901.03236590031531
 20
634.80871291666244
 40
0.3318518518518431
  0
CIRCLE
  8
_0-0_計極細
  6
CONTINUOUS
 62
    2
 10
907.23088441883374
 20
640.7820462499958
 40
0.3318518518518431
  0
LINE
  8
_0-0_計極細
  6
CONTINUOUS
 62
    2
 10
942.54681526100842
 20
574.91503989299508
 11
958.29177536801228
 21
590.65999999999985
  0
LINE
  8
_0-0_計極細
  6
CONTINUOUS
 62
    2
 10
900.12040852182338
 20
574.91504002500187
 11
915.86536849682318
 21
590.65999999999985
  0
LINE
  8
_0-0_計極細
  6
CONTINUOUS
 62
    2
 10
896.49335171293217
 20
613.71439008730522
 11
914.4389616256268
 21
631.66000000000076
  0
LINE
  8
_0-0_計極細
  6
CONTINUOUS
 62
    2
 10
938.30417458709064
 20
574.91503990619549
 11
954.04913468089592
 21
590.65999999999985
  0
LINE
  8
_0-0_計極細
  6
CONTINUOUS
 62
    2
 10
896.49335171293217
 20
575.53062390323157
 11
915.00000000000364
 21
594.03727219030043
  0
LINE
  8
_0-0_計極細
  6
CONTINUOUS
 62
    2
 10
896.49335171293217
 20
617.95703077442431
 11
910.19632093851044
 21
631.66000000000076
  0
LINE
  8
_0-0_計極細
  6
CONTINUOUS
 62
    2
 10
934.06153391316923
 20
574.9150399193968
 11
949.8064939937758
 21
590.65999999999985
  0
LINE
  8
_0-0_計極細
  6
CONTINUOUS
 62
    2
 10
896.49335171293217
 20
579.77326459035066
 11
915.00000000000364
 21
598.27991287741952
  0
LINE
  8
_0-0_計極細
  6
CONTINUOUS
 62
    2
 10
896.49335171293217
 20
622.19967146154431
 11
905.95368025139032
 21
631.66000000000076
  0
LINE
  8
_0-0_計極細
  6
CONTINUOUS
 62
    2
 10
965
 20
590.65999999999985
 11
965
 21
574.91503982313225
  0
LINE
  8
_0-0_計極細
  6
CONTINUOUS
 62
    2
 10
915.00000000000364
 20
631.66000000000076
 11
896.49335171293217
 21
631.66000000000076
  0
LINE
  8
_0-0_計極細
  6
CONTINUOUS
 62
    2
 10
965
 20
590.65999999999985
 11
915.00000000000364
 21
590.65999999999985
  0
LINE
  8
_0-0_計極細
  6
CONTINUOUS
 62
    2
 10
915.00000000000364
 20
631.66000000000076
 11
915.00000000000364
 21
590.65999999999985
  0
LINE
  8
_0-5_寸法線
  6
CONTINUOUS
 62
    7
 10
1215.0000000000036
 20
602.65999999999985
 11
1215.0000000000036
 21
557.65999999999985
  0
LINE
  8
_0-5_寸法線
  6
CONTINUOUS
 62
    7
 10
1215.0000000000036
 20
562.65999999999985
 11
1205.3407417371131
 21
560.07180954897467
  0
LINE
  8
_0-5_寸法線
  6
CONTINUOUS
 62
    7
 10
1215.0000000000036
 20
562.65999999999985
 11
1205.3407417371131
 21
565.24819045102504
  0
LINE
  8
_0-5_寸法線
  6
CONTINUOUS
 62
    7
 10
1185.0000000000036
 20
625.65999999999985
 11
1185.0000000000036
 21
557.65999999999985
  0
LINE
  8
_0-5_寸法線
  6
CONTINUOUS
 62
    7
 10
1185.0000000000036
 20
562.65999999999985
 11
1194.6592582628944
 21
565.24819045102504
  0
LINE
  8
_0-5_寸法線
  6
CONTINUOUS
 62
    7
 10
1185.0000000000036
 20
562.65999999999985
 11
1194.6592582628944
 21
560.07180954897467
  0
LINE
  8
_0-5_寸法線
  6
CONTINUOUS
 62
    7
 10
1215.0000000000036
 20
562.65999999999985
 11
1185.0000000000036
 21
562.65999999999985
  0
TEXT
  8
_0-5_寸法線
 62
    7
 10
1192.5000000000036
 20
562.65999999999985
 40
15
 41
1
 50
0
  1
30
  0
LINE
  8
_0-5_寸法線
  6
CONTINUOUS
 62
    7
 10
955.00000000000102
 20
602.65999999999985
 11
954.99999999998863
 21
557.65999999999985
  0
LINE
  8
_0-5_寸法線
  6
CONTINUOUS
 62
    7
 10
954.99999999999
 20
562.65999999999985
 11
964.65925826288071
 21
565.24819045102504
  0
LINE
  8
_0-5_寸法線
  6
CONTINUOUS
 62
    7
 10
954.99999999999
 20
562.65999999999985
 11
964.65925826288071
 21
560.07180954897467
  0
LINE
  8
_0-5_寸法線
  6
CONTINUOUS
 62
    7
 10
985.00000000000273
 20
625.65999999999985
 11
984.99999999999602
 21
557.65999999999985
  0
LINE
  8
_0-5_寸法線
  6
CONTINUOUS
 62
    7
 10
984.99999999999648
 20
562.65999999999985
 11
975.34074173710565
 21
560.07180954897467
  0
LINE
  8
_0-5_寸法線
  6
CONTINUOUS
 62
    7
 10
984.99999999999648
 20
562.65999999999985
 11
975.34074173710565
 21
565.24819045102504
  0
LINE
  8
_0-5_寸法線
  6
CONTINUOUS
 62
    7
 10
954.99999999999
 20
562.65999999999985
 11
984.99999999999648
 21
562.65999999999985
  0
TEXT
  8
_0-5_寸法線
 62
    7
 10
962.49999999999318
 20
562.65999999999985
 40
15
 41
1
 50
0
  1
30
  0
LINE
  8
_0-5_寸法線
  6
CONTINUOUS
 62
    7
 10
985.00000000000364
 20
630.65999999999985
 11
985.00000000000364
 21
557.65999999999985
  0
LINE
  8
_0-5_寸法線
  6
CONTINUOUS
 62
    7
 10
985.00000000000364
 20
562.65999999999985
 11
994.65925826289435
 21
565.24819045102504
  0
LINE
  8
_0-5_寸法線
  6
CONTINUOUS
 62
    7
 10
985.00000000000364
 20
562.65999999999985
 11
994.65925826289435
 21
560.07180954897467
  0
LINE
  8
_0-5_寸法線
  6
CONTINUOUS
 62
    7
 10
1185.0000000000036
 20
630.65999999999985
 11
1185.0000000000036
 21
557.65999999999985
  0
LINE
  8
_0-5_寸法線
  6
CONTINUOUS
 62
    7
 10
1185.0000000000036
 20
562.65999999999985
 11
1175.3407417371131
 21
560.07180954897467
  0
LINE
  8
_0-5_寸法線
  6
CONTINUOUS
 62
    7
 10
1185.0000000000036
 20
562.65999999999985
 11
1175.3407417371131
 21
565.24819045102504
  0
LINE
  8
_0-5_寸法線
  6
CONTINUOUS
 62
    7
 10
985.00000000000364
 20
562.65999999999985
 11
1185.0000000000036
 21
562.65999999999985
  0
TEXT
  8
_0-5_寸法線
 62
    7
 10
1073.75
 20
562.65999999999985
 40
15
 41
1
 50
0
  1
200
  0
LINE
  8
_0-1_計細線
  6
CONTINUOUS
 62
    3
 10
955.00000000000364
 20
647.65999999999985
 11
955.00000000000364
 21
612.65999999999997
  0
LINE
  8
_0-1_計細線
  6
CONTINUOUS
 62
    3
 10
955.00000000000364
 20
612.65999999999997
 11
952.70000000000346
 21
612.65999999999997
  0
LINE
  8
_0-1_計細線
  6
CONTINUOUS
 62
    3
 10
952.70000000000346
 20
612.65999999999997
 11
952.70000000000346
 21
647.65999999999985
  0
LINE
  8
_0-1_計細線
  6
CONTINUOUS
 62
    3
 10
952.70000000000346
 20
647.65999999999985
 11
955.00000000000364
 21
647.65999999999985
  0
LINE
  8
_0-0_計極細
  6
CONTINUOUS
 62
    2
 10
952.70000000000346
 20
631.65999999999985
 11
955.00000000000364
 21
631.65999999999985
  0
LINE
  8
_0-0_計極細
  6
CONTINUOUS
 62
    2
 10
952.70000000000346
 20
633.65999999999997
 11
955.00000000000364
 21
633.65999999999997
  0
LINE
  8
_0-0_計極細
  6
CONTINUOUS
 62
    2
 10
952.70000000000346
 20
629.65999999999985
 11
955.00000000000364
 21
629.65999999999985
  0
LINE
  8
_0-0_計極細
  6
CONTINUOUS
 62
    2
 10
952.70000000000346
 20
635.65999999999985
 11
955.00000000000364
 21
635.65999999999985
  0
LINE
  8
_0-0_計極細
  6
CONTINUOUS
 62
    2
 10
955.00000000000364
 20
615.66000000000008
 11
952.70000000000346
 21
615.66000000000008
  0
LINE
  8
_0-0_計極細
  6
CONTINUOUS
 62
    2
 10
952.70000000000346
 20
645.66000000000008
 11
955.00000000000364
 21
645.66000000000008
  0
LINE
  8
_0-1_計細線
  6
CONTINUOUS
 62
    3
 10
1215.0000000000041
 20
647.65999999999985
 11
1215.0000000000041
 21
612.65999999999997
  0
LINE
  8
_0-1_計細線
  6
CONTINUOUS
 62
    3
 10
1215.0000000000041
 20
612.65999999999997
 11
1217.3000000000038
 21
612.65999999999997
  0
LINE
  8
_0-1_計細線
  6
CONTINUOUS
 62
    3
 10
1217.3000000000038
 20
612.65999999999997
 11
1217.3000000000038
 21
647.65999999999985
  0
LINE
  8
_0-1_計細線
  6
CONTINUOUS
 62
    3
 10
1217.3000000000038
 20
647.65999999999985
 11
1215.0000000000041
 21
647.65999999999985
  0
LINE
  8
_0-0_計極細
  6
CONTINUOUS
 62
    2
 10
1217.3000000000038
 20
631.65999999999985
 11
1215.0000000000041
 21
631.65999999999985
  0
LINE
  8
_0-0_計極細
  6
CONTINUOUS
 62
    2
 10
1217.3000000000038
 20
633.65999999999997
 11
1215.0000000000041
 21
633.65999999999997
  0
LINE
  8
_0-0_計極細
  6
CONTINUOUS
 62
    2
 10
1217.3000000000038
 20
629.65999999999985
 11
1215.0000000000041
 21
629.65999999999985
  0
LINE
  8
_0-0_計極細
  6
CONTINUOUS
 62
    2
 10
1217.3000000000038
 20
635.65999999999985
 11
1215.0000000000041
 21
635.65999999999985
  0
LINE
  8
_0-0_計極細
  6
CONTINUOUS
 62
    2
 10
1215.0000000000041
 20
615.66000000000008
 11
1217.3000000000038
 21
615.66000000000008
  0
LINE
  8
_0-0_計極細
  6
CONTINUOUS
 62
    2
 10
1217.3000000000038
 20
645.66000000000008
 11
1215.0000000000041
 21
645.66000000000008
  0
LINE
  8
_0-7_枠細線
  6
CONTINUOUS
 62
    5
 10
1233.9140288208246
 20
632.80808383106432
 11
1226.4140288208246
 21
647.80808383106432
  0
LINE
  8
_0-7_枠細線
  6
CONTINUOUS
 62
    5
 10
1218.9140288208246
 20
632.80808383106432
 11
1233.9140288208246
 21
632.80808383106432
  0
LINE
  8
_0-7_枠細線
  6
CONTINUOUS
 62
    5
 10
1226.4140288208246
 20
647.80808383106432
 11
1218.9140288208246
 21
632.80808383106432
  0
TEXT
  8
_0-7_枠細線
 62
    5
 10
1221.2791800889725
 20
631.85926386621441
 40
12.5
 41
0.8
 50
0
  1
５
  0
LINE
  8
_0-0_計極細
  6
CENTER1
 62
    2
 10
1085
 20
628.94872130973715
 11
1085
 21
667.01872130974084
  0
TEXT
  8
_0-7_枠細線
 62
    5
 10
1035.6825687070714
 20
519.94207792640884
 40
25
 41
0.8
 50
0
  1
断面詳細図
  0
TEXT
  8
_0-7_枠細線
 62
    5
 10
1150.6315384562395
 20
522.45718700659768
 40
20
 41
0.6
 50
0
  1
Ｓ＝１：５
  0
LINE
  8
_0-1_計細線
  6
CONTINUOUS
 62
    3
 10
388.51795824097309
 20
560.75583080108049
 11
441.51795824097303
 21
560.75583080108049
  0
LINE
  8
_0-1_計細線
  6
CONTINUOUS
 62
    3
 10
441.51795824097303
 20
565.45583080108031
 11
388.51795824097309
 21
565.45583080108031
  0
LINE
  8
_0-1_計細線
  6
CONTINUOUS
 62
    3
 10
388.51795824097309
 20
565.45583080108031
 11
388.51795824097309
 21
560.75583080108049
  0
LINE
  8
_0-1_計細線
  6
CONTINUOUS
 62
    3
 10
431.51795824097303
 20
565.45583080108031
 11
431.51795824097303
 21
560.75583080108049
  0
LINE
  8
_0-1_計細線
  6
CONTINUOUS
 62
    3
 10
439.51795824097303
 20
565.45583080108031
 11
439.51795824097303
 21
560.75583080108049
  0
LINE
  8
_0-1_計細線
  6
CONTINUOUS
 62
    3
 10
441.51795824097303
 20
565.45583080108031
 11
441.51795824097303
 21
560.75583080108049
  0
LINE
  8
_0-1_計細線
  6
CONTINUOUS
 62
    3
 10
437.51795824097309
 20
565.45583080108031
 11
437.51795824097309
 21
560.75583080108049
  0
LINE
  8
_0-1_計細線
  6
CONTINUOUS
 62
    3
 10
435.51795824097303
 20
565.45583080108031
 11
435.51795824097303
 21
560.75583080108049
  0
LINE
  8
_0-1_計細線
  6
CONTINUOUS
 62
    3
 10
433.51795824097309
 20
565.45583080108031
 11
433.51795824097309
 21
560.75583080108049
  0
LINE
  8
_0-d_寸法3
  6
CONTINUOUS
 62
    7
 10
403.13992445048098
 20
268.36412902531367
 11
403.13992445048109
 21
310.03079569198019
  0
LINE
  8
_0-d_寸法3
  6
CONTINUOUS
 62
    7
 10
403.13992445048109
 20
305.03079569198019
 11
393.48066618759037
 21
302.442605240955
  0
LINE
  8
_0-d_寸法3
  6
CONTINUOUS
 62
    7
 10
403.13992445048109
 20
305.03079569198019
 11
393.48066618759043
 21
307.61898614300543
  0
LINE
  8
_0-d_寸法3
  6
CONTINUOUS
 62
    7
 10
413.13992445476237
 20
268.36412902531367
 11
413.13992445476242
 21
310.03079569198019
  0
LINE
  8
_0-d_寸法3
  6
CONTINUOUS
 62
    7
 10
378.76596876731406
 20
305.03079569198019
 11
413.13992445476242
 21
305.03079569198019
  0
TEXT
  8
_0-d_寸法3
 62
    7
 10
378.76596876731406
 20
290.03079569198019
 40
15
 41
1
 50
0
  1
(6)
  0
LINE
  8
_0-d_寸法3
  6
CONTINUOUS
 62
    7
 10
413.13992445476242
 20
305.03079569198019
 11
422.79918271765314
 21
307.61898614300537
  0
LINE
  8
_0-d_寸法3
  6
CONTINUOUS
 62
    7
 10
413.13992445476242
 20
305.03079569198019
 11
422.79918271765314
 21
302.442605240955
  0
LINE
  8
_0-d_寸法3
  6
CONTINUOUS
 62
    7
 10
432.13992445108352
 20
268.36412902531367
 11
432.13992445108363
 21
310.03079569198019
  0
LINE
  8
_0-d_寸法3
  6
CONTINUOUS
 62
    7
 10
432.13992445108363
 20
305.03079569198019
 11
422.48066618819286
 21
302.442605240955
  0
LINE
  8
_0-d_寸法3
  6
CONTINUOUS
 62
    7
 10
432.13992445108363
 20
305.03079569198019
 11
422.48066618819291
 21
307.61898614300543
  0
LINE
  8
_0-d_寸法3
  6
CONTINUOUS
 62
    7
 10
413.13992445476242
 20
305.03079569198019
 11
432.13992445108363
 21
305.03079569198019
  0
TEXT
  8
_0-d_寸法3
 62
    7
 10
403.87522802657327
 20
305.03079569198019
 40
15
 41
1
 50
0
  1
11.4
  0
LINE
  8
_0-1_計細線
  6
CONTINUOUS
 62
    3
 10
1095.8500000007334
 20
658.45999999999822
 11
1095.8500000007334
 21
639.45999999999776
  0
LINE
  8
_0-1_計細線
  6
CONTINUOUS
 62
    3
 10
1091.1500000007331
 20
639.45999999999776
 11
1091.1500000007331
 21
658.45999999999822
  0
LINE
  8
_0-1_計細線
  6
CONTINUOUS
 62
    3
 10
1095.8500000007334
 20
639.45999999999776
 11
1091.1500000007331
 21
639.45999999999776
  0
LINE
  8
_0-1_計細線
  6
CONTINUOUS
 62
    3
 10
1091.1500000007331
 20
658.45999999999822
 11
1095.8500000007334
 21
658.45999999999822
  0
LINE
  8
_0-1_計細線
  6
DASHED2
 62
    3
 10
1091.1500000007331
 20
642.45999999999776
 11
1095.8500000007334
 21
642.45999999999776
  0
LINE
  8
_0-1_計細線
  6
DASHED2
 62
    3
 10
1091.1500000007331
 20
655.95999999999822
 11
1095.8500000007334
 21
655.95999999999822
  0
LINE
  8
_0-5_寸法線
  6
CONTINUOUS
 62
    7
 10
945.00000000000364
 20
658.66000000000031
 11
897.7000000000038
 21
658.66000000000031
  0
LINE
  8
_0-5_寸法線
  6
CONTINUOUS
 62
    7
 10
902.7000000000038
 20
658.66000000000031
 11
905.28819045102887
 21
649.00074173710959
  0
LINE
  8
_0-5_寸法線
  6
CONTINUOUS
 62
    7
 10
902.7000000000038
 20
658.66000000000031
 11
900.1118095489785
 21
649.00074173710959
  0
LINE
  8
_0-5_寸法線
  6
CONTINUOUS
 62
    7
 10
942.7000000000038
 20
635.65999999999985
 11
897.7000000000038
 21
635.65999999999985
  0
LINE
  8
_0-5_寸法線
  6
CONTINUOUS
 62
    7
 10
902.7000000000038
 20
635.65999999999985
 11
900.1118095489785
 21
645.31925826289057
  0
LINE
  8
_0-5_寸法線
  6
CONTINUOUS
 62
    7
 10
902.7000000000038
 20
635.65999999999985
 11
905.28819045102887
 21
645.31925826289057
  0
LINE
  8
_0-5_寸法線
  6
CONTINUOUS
 62
    7
 10
902.7000000000038
 20
658.66000000000031
 11
902.7000000000038
 21
635.65999999999985
  0
TEXT
  8
_0-5_寸法線
 62
    7
 10
902.7000000000038
 20
639.65999999999997
 40
15
 41
1
 50
90
  1
23
  0
LINE
  8
_0-5_寸法線
  6
CONTINUOUS
 62
    7
 10
942.7000000000038
 20
635.65999999999985
 11
897.7000000000038
 21
635.65999999999985
  0
LINE
  8
_0-5_寸法線
  6
CONTINUOUS
 62
    7
 10
902.7000000000038
 20
635.65999999999985
 11
905.28819045102887
 21
626.00074173710914
  0
LINE
  8
_0-5_寸法線
  6
CONTINUOUS
 62
    7
 10
902.7000000000038
 20
635.65999999999985
 11
900.1118095489785
 21
626.00074173710914
  0
LINE
  8
_0-5_寸法線
  6
CONTINUOUS
 62
    7
 10
942.7000000000038
 20
612.65999999999985
 11
897.7000000000038
 21
612.65999999999985
  0
LINE
  8
_0-5_寸法線
  6
CONTINUOUS
 62
    7
 10
902.7000000000038
 20
612.65999999999985
 11
900.1118095489785
 21
622.31925826289057
  0
LINE
  8
_0-5_寸法線
  6
CONTINUOUS
 62
    7
 10
902.7000000000038
 20
612.65999999999985
 11
905.28819045102887
 21
622.31925826289057
  0
LINE
  8
_0-5_寸法線
  6
CONTINUOUS
 62
    7
 10
902.7000000000038
 20
635.65999999999985
 11
902.7000000000038
 21
612.65999999999985
  0
TEXT
  8
_0-5_寸法線
 62
    7
 10
902.7000000000038
 20
616.66000000000031
 40
15
 41
1
 50
90
  1
23
  0
LINE
  8
_0-5_寸法線
  6
CONTINUOUS
 62
    7
 10
1215.0000000000036
 20
668.66000000000088
 11
1215.0000000000041
 21
783.66000000000076
  0
LINE
  8
_0-5_寸法線
  6
CONTINUOUS
 62
    7
 10
1215.0000000000041
 20
778.66000000000076
 11
1205.3407417371131
 21
776.07180954897558
  0
LINE
  8
_0-5_寸法線
  6
CONTINUOUS
 62
    7
 10
1215.0000000000041
 20
778.66000000000076
 11
1205.3407417371131
 21
781.24819045102583
  0
LINE
  8
_0-5_寸法線
  6
CONTINUOUS
 62
    7
 10
955.00000000000364
 20
668.66000000000088
 11
955.00000000000398
 21
783.66000000000088
  0
LINE
  8
_0-5_寸法線
  6
CONTINUOUS
 62
    7
 10
955.00000000000398
 20
778.66000000000088
 11
964.65925826289458
 21
781.24819045102595
  0
LINE
  8
_0-5_寸法線
  6
CONTINUOUS
 62
    7
 10
955.00000000000398
 20
778.66000000000088
 11
964.65925826289458
 21
776.07180954897558
  0
LINE
  8
_0-5_寸法線
  6
CONTINUOUS
 62
    7
 10
1215.0000000000041
 20
778.66000000000076
 11
955.00000000000398
 21
778.66000000000088
  0
TEXT
  8
_0-5_寸法線
 62
    7
 10
1073.7500000000041
 20
778.66000000000088
 40
15
 41
1
 50
0
  1
260
  0
LINE
  8
_0-5_寸法線
  6
CONTINUOUS
 62
    7
 10
955.00000051907364
 20
668.66000000000088
 11
955.00000051907375
 21
748.66000000000088
  0
LINE
  8
_0-5_寸法線
  6
CONTINUOUS
 62
    7
 10
955.00000051907375
 20
743.66000000000088
 11
945.34074225618315
 21
741.07180954897558
  0
LINE
  8
_0-5_寸法線
  6
CONTINUOUS
 62
    7
 10
955.00000051907375
 20
743.66000000000088
 11
945.34074225618315
 21
746.24819045102595
  0
LINE
  8
_0-5_寸法線
  6
CONTINUOUS
 62
    7
 10
958.00000000000364
 20
668.66000000000088
 11
958.00000000000387
 21
748.66000000000088
  0
CIRCLE
  8
_0-5_寸法線
  6
CONTINUOUS
 62
    1
 10
958.00000000000387
 20
743.66000000000088
 40
1.5000000000000002
  0
LINE
  8
_0-5_寸法線
  6
CONTINUOUS
 62
    7
 10
930.00000051907375
 20
743.66000000000088
 11
958.00000000000387
 21
743.66000000000088
  0
TEXT
  8
_0-5_寸法線
 62
    7
 10
934.94596866276129
 20
743.66000000000088
 40
15
 41
1
 50
0
  1
3
  0
LINE
  8
_0-5_寸法線
  6
CONTINUOUS
 62
    7
 10
959.99999999966053
 20
668.66000000000088
 11
959.99999999966064
 21
748.66000000000088
  0
LINE
  8
_0-5_寸法線
  6
CONTINUOUS
 62
    7
 10
958.00000000000387
 20
743.66000000000088
 11
959.99999999966064
 21
743.66000000000088
  0
TEXT
  8
_0-5_寸法線
 62
    7
 10
960.63601325661296
 20
743.66000000000088
 40
15
 41
1
 50
0
  1
2
  0
LINE
  8
_0-5_寸法線
  6
CONTINUOUS
 62
    7
 10
959.99999999966064
 20
743.66000000000088
 11
969.65925826255125
 21
746.24819045102595
  0
LINE
  8
_0-5_寸法線
  6
CONTINUOUS
 62
    7
 10
959.99999999966064
 20
743.66000000000088
 11
969.65925826255125
 21
741.07180954897547
  0
LINE
  8
_0-5_寸法線
  6
CONTINUOUS
 62
    7
 10
1210.0000000003456
 20
668.66000000000088
 11
1210.0000000003458
 21
748.66000000000088
  0
LINE
  8
_0-5_寸法線
  6
CONTINUOUS
 62
    7
 10
1210.0000000003458
 20
743.66000000000088
 11
1200.3407417374551
 21
741.07180954897558
  0
LINE
  8
_0-5_寸法線
  6
CONTINUOUS
 62
    7
 10
1210.0000000003458
 20
743.66000000000088
 11
1200.3407417374551
 21
746.24819045102595
  0
LINE
  8
_0-5_寸法線
  6
CONTINUOUS
 62
    7
 10
959.99999999966064
 20
743.66000000000088
 11
1210.0000000003458
 21
743.66000000000088
  0
TEXT
  8
_0-5_寸法線
 62
    7
 10
1073.7500000000032
 20
743.66000000000088
 40
15
 41
1
 50
0
  1
250
  0
LINE
  8
_0-5_寸法線
  6
CONTINUOUS
 62
    7
 10
1212.0000000000036
 20
668.66000000000088
 11
1212.0000000000039
 21
748.66000000000088
  0
CIRCLE
  8
_0-5_寸法線
  6
CONTINUOUS
 62
    1
 10
1212.0000000000039
 20
743.66000000000088
 40
1.5000000000000002
  0
LINE
  8
_0-5_寸法線
  6
CONTINUOUS
 62
    7
 10
1210.0000000003458
 20
743.66000000000088
 11
1212.0000000000039
 21
743.66000000000088
  0
TEXT
  8
_0-5_寸法線
 62
    7
 10
1200.29591581562
 20
743.66000000000088
 40
15
 41
1
 50
0
  1
2
  0
LINE
  8
_0-5_寸法線
  6
CONTINUOUS
 62
    7
 10
1215.0000000000036
 20
668.66000000000088
 11
1215.0000000000041
 21
748.66000000000088
  0
LINE
  8
_0-5_寸法線
  6
CONTINUOUS
 62
    7
 10
1215.0000000000041
 20
743.66000000000088
 11
1224.6592582628946
 21
746.24819045102595
  0
LINE
  8
_0-5_寸法線
  6
CONTINUOUS
 62
    7
 10
1215.0000000000041
 20
743.66000000000088
 11
1224.6592582628946
 21
741.07180954897547
  0
LINE
  8
_0-5_寸法線
  6
CONTINUOUS
 62
    7
 10
1212.0000000000039
 20
743.66000000000088
 11
1240.0000000000041
 21
743.66000000000088
  0
TEXT
  8
_0-5_寸法線
 62
    7
 10
1229.2559587294554
 20
743.66000000000088
 40
15
 41
1
 50
0
  1
3
  0
LINE
  8
_0-5_寸法線
  6
CONTINUOUS
 62
    7
 10
1136.0000000010878
 20
668.66000000000088
 11
1136.0000000010878
 21
713.65978099899382
  0
LINE
  8
_0-5_寸法線
  6
CONTINUOUS
 62
    7
 10
1136.0000000010878
 20
708.65978099899382
 11
1145.6592582639787
 21
711.24797145001912
  0
LINE
  8
_0-5_寸法線
  6
CONTINUOUS
 62
    7
 10
1136.0000000010878
 20
708.65978099899382
 11
1145.6592582639787
 21
706.07159054796864
  0
LINE
  8
_0-5_寸法線
  6
CONTINUOUS
 62
    7
 10
1153.0000000014479
 20
668.66000000000088
 11
1153.0000000014479
 21
713.65978099899382
  0
LINE
  8
_0-5_寸法線
  6
CONTINUOUS
 62
    7
 10
1153.0000000014479
 20
708.65978099899382
 11
1143.3407417385572
 21
706.07159054796864
  0
LINE
  8
_0-5_寸法線
  6
CONTINUOUS
 62
    7
 10
1153.0000000014479
 20
708.65978099899382
 11
1143.3407417385572
 21
711.24797145001912
  0
LINE
  8
_0-5_寸法線
  6
CONTINUOUS
 62
    7
 10
1136.0000000010878
 20
708.65978099899382
 11
1153.0000000014479
 21
708.65978099899382
  0
TEXT
  8
_0-5_寸法線
 62
    7
 10
1128.344022708663
 20
693.65978099899382
 40
15
 41
1
 50
0
  1
(17)
  0
LINE
  8
_0-5_寸法線
  6
CONTINUOUS
 62
    7
 10
1153.0000000014479
 20
708.65978099899382
 11
1162.6592582643386
 21
711.24797145001912
  0
LINE
  8
_0-5_寸法線
  6
CONTINUOUS
 62
    7
 10
1153.0000000014479
 20
708.65978099899382
 11
1162.6592582643386
 21
706.07159054796853
  0
LINE
  8
_0-5_寸法線
  6
CONTINUOUS
 62
    7
 10
1170.0000000018117
 20
668.66000000000088
 11
1170.0000000018117
 21
713.65978099899382
  0
LINE
  8
_0-5_寸法線
  6
CONTINUOUS
 62
    7
 10
1170.0000000018117
 20
708.65978099899382
 11
1160.340741738921
 21
706.07159054796864
  0
LINE
  8
_0-5_寸法線
  6
CONTINUOUS
 62
    7
 10
1170.0000000018117
 20
708.65978099899382
 11
1160.340741738921
 21
711.24797145001912
  0
LINE
  8
_0-5_寸法線
  6
CONTINUOUS
 62
    7
 10
1153.0000000014479
 20
708.65978099899382
 11
1170.0000000018117
 21
708.65978099899382
  0
TEXT
  8
_0-5_寸法線
 62
    7
 10
1147.4106893750886
 20
708.65978099899382
 40
15
 41
1
 50
0
  1
(17)
  0
LINE
  8
_0-5_寸法線
  6
CONTINUOUS
 62
    7
 10
1022.6999999972613
 20
668.66000000000088
 11
1022.6999999972613
 21
713.65978099899382
  0
LINE
  8
_0-5_寸法線
  6
CONTINUOUS
 62
    7
 10
1022.6999999972613
 20
708.65978099899382
 11
1013.0407417343707
 21
706.07159054796864
  0
LINE
  8
_0-5_寸法線
  6
CONTINUOUS
 62
    7
 10
1022.6999999972613
 20
708.65978099899382
 11
1013.0407417343707
 21
711.24797145001912
  0
LINE
  8
_0-5_寸法線
  6
CONTINUOUS
 62
    7
 10
1028.3000000000177
 20
668.66000000000088
 11
1028.3000000000177
 21
713.65978099899382
  0
LINE
  8
_0-5_寸法線
  6
CONTINUOUS
 62
    7
 10
983.32604431390348
 20
708.65978099899382
 11
1028.3000000000177
 21
708.65978099899382
  0
TEXT
  8
_0-5_寸法線
 62
    7
 10
983.32604431390337
 20
693.65978099899382
 40
15
 41
1
 50
0
  1
(5.6)
  0
LINE
  8
_0-5_寸法線
  6
CONTINUOUS
 62
    7
 10
1028.3000000000177
 20
708.65978099899382
 11
1037.9592582629084
 21
711.24797145001912
  0
LINE
  8
_0-5_寸法線
  6
CONTINUOUS
 62
    7
 10
1028.3000000000177
 20
708.65978099899382
 11
1037.9592582629084
 21
706.07159054796864
  0
LINE
  8
_0-5_寸法線
  6
CONTINUOUS
 62
    7
 10
1039.6999999978107
 20
668.66000000000088
 11
1039.6999999978107
 21
713.65978099899382
  0
LINE
  8
_0-5_寸法線
  6
CONTINUOUS
 62
    7
 10
1039.6999999978107
 20
708.65978099899382
 11
1030.0407417349199
 21
706.07159054796864
  0
LINE
  8
_0-5_寸法線
  6
CONTINUOUS
 62
    7
 10
1039.6999999978107
 20
708.65978099899382
 11
1030.0407417349199
 21
711.24797145001912
  0
LINE
  8
_0-5_寸法線
  6
CONTINUOUS
 62
    7
 10
1028.3000000000177
 20
708.65978099899382
 11
1039.6999999978107
 21
708.65978099899382
  0
TEXT
  8
_0-5_寸法線
 62
    7
 10
1015.2353035724946
 20
708.65978099899382
 40
15
 41
1
 50
0
  1
11.4
  0
LINE
  8
_0-5_寸法線
  6
CONTINUOUS
 62
    7
 10
1076.8084795571103
 20
644.39576436351058
 11
1053.1396183888337
 21
660.96887937437828
  0
LINE
  8
_0-5_寸法線
  6
CONTINUOUS
 62
    7
 10
1057.2353786102785
 20
658.10099719262303
 11
1054.6471881592533
 21
667.76025545551363
  0
LINE
  8
_0-5_寸法線
  6
CONTINUOUS
 62
    7
 10
1057.2353786102785
 20
658.10099719262303
 11
1059.8235690613037
 21
667.76025545551363
  0
LINE
  8
_0-5_寸法線
  6
CONTINUOUS
 62
    7
 10
1076.8084795571101
 20
664.39576436351149
 11
1053.1396183888337
 21
680.96887937437816
  0
LINE
  8
_0-5_寸法線
  6
CONTINUOUS
 62
    7
 10
1057.2353786102785
 20
678.1009971926228
 11
1059.8235690613037
 21
668.4417389297322
  0
LINE
  8
_0-5_寸法線
  6
CONTINUOUS
 62
    7
 10
1057.2353786102785
 20
678.1009971926228
 11
1054.6471881592533
 21
668.4417389297322
  0
LINE
  8
_0-5_寸法線
  6
CONTINUOUS
 62
    7
 10
1057.2353786102785
 20
658.10099719262303
 11
1057.2353786102785
 21
678.1009971926228
  0
TEXT
  8
_0-5_寸法線
 62
    7
 10
1057.2353786102785
 20
660.600997192622
 40
15
 41
1
 50
90
  1
20
  0
TEXT
  8
_0-5_寸法線
 62
    7
 10
605.9922483335597
 20
516.27645690487589
 40
15
 41
0.8000000000000001
 50
0
  1
ＧＳＬ－２０
  0
LINE
  8
_0-5_寸法線
  6
CONTINUOUS
 62
    7
 10
577.10724588699213
 20
498.46015316043719
 11
581.53585929940084
 21
507.42605429994535
  0
LINE
  8
_0-5_寸法線
  6
CONTINUOUS
 62
    7
 10
577.10724588699213
 20
498.46015316043719
 11
585.42548817543263
 21
504.01054460886661
  0
LINE
  8
_0-5_寸法線
  6
CONTINUOUS
 62
    7
 10
577.10724588699213
 20
498.46015316043719
 11
606.01982498169127
 21
531.38619135059014
  0
LINE
  8
_0-5_寸法線
  6
CONTINUOUS
 62
    7
 10
606.01982498169127
 20
531.38619135059014
 11
714.01982498169116
 21
531.38619135059014
  0
TEXT
  8
_0-5_寸法線
 62
    7
 10
606.01982498169127
 20
531.38619135059014
 40
15
 41
0.8000000000000001
 50
0
  1
ＳＵＳアングル受枠
  0
LINE
  8
_0-5_寸法線
  6
CONTINUOUS
 62
    7
 10
554.96760606765918
 20
588.11048901527056
 11
559.39621953222013
 21
597.07639012901871
  0
LINE
  8
_0-5_寸法線
  6
CONTINUOUS
 62
    7
 10
554.96760606765918
 20
588.11048901527056
 11
563.28584838838481
 21
593.66088041531509
  0
LINE
  8
_0-5_寸法線
  6
CONTINUOUS
 62
    7
 10
554.96760606765918
 20
588.11048901527056
 11
606.01982498169127
 21
646.24944937674957
  0
LINE
  8
_0-5_寸法線
  6
CONTINUOUS
 62
    7
 10
606.01982498169127
 20
646.24944937674957
 11
738.01982498169139
 21
646.24944937674957
  0
TEXT
  8
_0-5_寸法線
 62
    7
 10
606.01982498169139
 20
646.24944937674957
 40
15
 41
0.8000000000000001
 50
0
  1
セーフティグレーチング
  0
LINE
  8
_0-5_寸法線
  6
CONTINUOUS
 62
    7
 10
323.51795824097275
 20
694.60583080108211
 11
323.51795824097275
 21
739.60583080108211
  0
LINE
  8
_0-5_寸法線
  6
CONTINUOUS
 62
    7
 10
323.51795824097275
 20
734.60583080108211
 11
333.17721650386341
 21
737.19402125210718
  0
LINE
  8
_0-5_寸法線
  6
CONTINUOUS
 62
    7
 10
323.51795824097275
 20
734.60583080108211
 11
333.17721650386341
 21
732.01764035005681
  0
LINE
  8
_0-5_寸法線
  6
CONTINUOUS
 62
    7
 10
330.51795824097269
 20
694.60583080108211
 11
330.51795824097269
 21
739.60583080108211
  0
LINE
  8
_0-5_寸法線
  6
CONTINUOUS
 62
    7
 10
330.51795824097269
 20
734.60583080108211
 11
320.85869997808197
 21
732.01764035005681
  0
LINE
  8
_0-5_寸法線
  6
CONTINUOUS
 62
    7
 10
330.51795824097269
 20
734.60583080108211
 11
320.85869997808203
 21
737.19402125210718
  0
LINE
  8
_0-5_寸法線
  6
CONTINUOUS
 62
    7
 10
323.51795824097275
 20
734.60583080108211
 11
330.51795824097269
 21
734.60583080108211
  0
TEXT
  8
_0-5_寸法線
 62
    7
 10
324.68616505923285
 20
734.60583080108211
 40
15
 41
1
 50
0
  1
7
  0
LINE
  8
_0-5_寸法線
  6
CONTINUOUS
 62
    7
 10
330.51795824097269
 20
734.60583080108211
 11
340.17721650386341
 21
737.19402125210718
  0
LINE
  8
_0-5_寸法線
  6
CONTINUOUS
 62
    7
 10
330.51795824097269
 20
734.60583080108211
 11
340.17721650386335
 21
732.01764035005669
  0
LINE
  8
_0-5_寸法線
  6
CONTINUOUS
 62
    7
 10
427.51795824097348
 20
694.60583080108211
 11
427.51795824097348
 21
739.60583080108211
  0
LINE
  8
_0-5_寸法線
  6
CONTINUOUS
 62
    7
 10
427.51795824097348
 20
734.60583080108211
 11
417.85869997808277
 21
732.01764035005681
  0
LINE
  8
_0-5_寸法線
  6
CONTINUOUS
 62
    7
 10
427.51795824097348
 20
734.60583080108211
 11
417.85869997808283
 21
737.19402125210718
  0
LINE
  8
_0-5_寸法線
  6
CONTINUOUS
 62
    7
 10
330.51795824097269
 20
734.60583080108211
 11
427.51795824097348
 21
734.60583080108211
  0
TEXT
  8
_0-5_寸法線
 62
    7
 10
371.51795824097303
 20
734.60583080108199
 40
15
 41
1
 50
0
  1
97
  0
LINE
  8
_0-5_寸法線
  6
CONTINUOUS
 62
    7
 10
427.51795824097348
 20
734.60583080108211
 11
437.1772165038642
 21
737.19402125210718
  0
LINE
  8
_0-5_寸法線
  6
CONTINUOUS
 62
    7
 10
427.51795824097348
 20
734.60583080108211
 11
437.17721650386414
 21
732.01764035005669
  0
LINE
  8
_0-5_寸法線
  6
CONTINUOUS
 62
    7
 10
469.51795824097354
 20
694.60583080108211
 11
469.51795824097354
 21
739.60583080108211
  0
LINE
  8
_0-5_寸法線
  6
CONTINUOUS
 62
    7
 10
469.51795824097354
 20
734.60583080108211
 11
459.85869997808277
 21
732.01764035005681
  0
LINE
  8
_0-5_寸法線
  6
CONTINUOUS
 62
    7
 10
469.51795824097354
 20
734.60583080108211
 11
459.85869997808288
 21
737.19402125210718
  0
LINE
  8
_0-5_寸法線
  6
CONTINUOUS
 62
    7
 10
427.51795824097348
 20
734.60583080108211
 11
469.51795824097354
 21
734.60583080108211
  0
TEXT
  8
_0-5_寸法線
 62
    7
 10
441.01795824097348
 20
734.60583080108199
 40
15
 41
1
 50
0
  1
42
  0
LINE
  8
_0-5_寸法線
  6
CONTINUOUS
 62
    7
 10
469.51795824097354
 20
734.60583080108211
 11
479.17721650386426
 21
737.19402125210718
  0
LINE
  8
_0-5_寸法線
  6
CONTINUOUS
 62
    7
 10
469.51795824097354
 20
734.60583080108211
 11
479.1772165038642
 21
732.01764035005669
  0
LINE
  8
_0-5_寸法線
  6
CONTINUOUS
 62
    7
 10
566.51795824097269
 20
694.60583080108211
 11
566.51795824097269
 21
739.60583080108211
  0
LINE
  8
_0-5_寸法線
  6
CONTINUOUS
 62
    7
 10
566.51795824097269
 20
734.60583080108211
 11
556.85869997808197
 21
732.01764035005681
  0
LINE
  8
_0-5_寸法線
  6
CONTINUOUS
 62
    7
 10
566.51795824097269
 20
734.60583080108211
 11
556.85869997808197
 21
737.19402125210718
  0
LINE
  8
_0-5_寸法線
  6
CONTINUOUS
 62
    7
 10
469.51795824097354
 20
734.60583080108211
 11
566.51795824097269
 21
734.60583080108211
  0
TEXT
  8
_0-5_寸法線
 62
    7
 10
510.51795824097303
 20
734.60583080108199
 40
15
 41
1
 50
0
  1
97
  0
LINE
  8
_0-5_寸法線
  6
CONTINUOUS
 62
    7
 10
566.51795824097269
 20
734.60583080108211
 11
576.17721650386341
 21
737.19402125210718
  0
LINE
  8
_0-5_寸法線
  6
CONTINUOUS
 62
    7
 10
566.51795824097269
 20
734.60583080108211
 11
576.17721650386341
 21
732.01764035005669
  0
LINE
  8
_0-5_寸法線
  6
CONTINUOUS
 62
    7
 10
573.51795824097269
 20
694.60583080108211
 11
573.51795824097292
 21
739.60583080108211
  0
LINE
  8
_0-5_寸法線
  6
CONTINUOUS
 62
    7
 10
573.51795824097292
 20
734.60583080108211
 11
563.8586999780822
 21
732.01764035005681
  0
LINE
  8
_0-5_寸法線
  6
CONTINUOUS
 62
    7
 10
573.51795824097292
 20
734.60583080108211
 11
563.8586999780822
 21
737.19402125210718
  0
LINE
  8
_0-5_寸法線
  6
CONTINUOUS
 62
    7
 10
566.51795824097269
 20
734.60583080108211
 11
573.51795824097292
 21
734.60583080108211
  0
TEXT
  8
_0-5_寸法線
 62
    7
 10
564.79051097529634
 20
734.60583080108211
 40
15
 41
1
 50
0
  1
7
  0
LINE
  8
_0-5_寸法線
  6
CONTINUOUS
 62
    7
 10
308.51795824097269
 20
424.60583080108051
 11
228.51795824097266
 21
424.6058308010808
  0
LINE
  8
_0-5_寸法線
  6
CONTINUOUS
 62
    7
 10
233.51795824097266
 20
424.6058308010808
 11
230.92976778994753
 21
434.26508906397146
  0
LINE
  8
_0-5_寸法線
  6
CONTINUOUS
 62
    7
 10
233.51795824097266
 20
424.6058308010808
 11
236.10614869199793
 21
434.26508906397146
  0
LINE
  8
_0-5_寸法線
  6
CONTINUOUS
 62
    7
 10
308.51795824097314
 20
684.60583080108245
 11
228.51795824097266
 21
684.60583080108279
  0
LINE
  8
_0-5_寸法線
  6
CONTINUOUS
 62
    7
 10
233.51795824097266
 20
684.60583080108279
 11
236.10614869199793
 21
674.94657253819219
  0
LINE
  8
_0-5_寸法線
  6
CONTINUOUS
 62
    7
 10
233.51795824097266
 20
684.60583080108279
 11
230.92976778994753
 21
674.94657253819219
  0
LINE
  8
_0-5_寸法線
  6
CONTINUOUS
 62
    7
 10
233.51795824097266
 20
424.6058308010808
 11
233.51795824097266
 21
684.60583080108279
  0
TEXT
  8
_0-5_寸法線
 62
    7
 10
233.51795824097252
 20
543.35583080108177
 40
15
 41
1
 50
89.999999999999645
  1
260
  0
LINE
  8
_0-5_寸法線
  6
CONTINUOUS
 62
    7
 10
268.51795824097252
 20
424.60583080108051
 11
271.10614869199765
 21
414.9465725381898
  0
LINE
  8
_0-5_寸法線
  6
CONTINUOUS
 62
    7
 10
268.51795824097252
 20
424.60583080108051
 11
265.92976778994728
 21
414.94657253818986
  0
LINE
  8
_0-5_寸法線
  6
CONTINUOUS
 62
    7
 10
308.51795824097269
 20
427.6058308010804
 11
263.51795824097252
 21
427.60583080108051
  0
CIRCLE
  8
_0-5_寸法線
  6
CONTINUOUS
 62
    1
 10
268.51795824097252
 20
427.60583080108051
 40
1.5000000000000002
  0
LINE
  8
_0-5_寸法線
  6
CONTINUOUS
 62
    7
 10
268.51795824097252
 20
399.60583080108051
 11
268.51795824097252
 21
427.60583080108051
  0
TEXT
  8
_0-5_寸法線
 62
    7
 10
268.51795824097252
 20
402.95918897221043
 40
15
 41
1
 50
90
  1
3
  0
LINE
  8
_0-5_寸法線
  6
CONTINUOUS
 62
    7
 10
308.51795824097269
 20
429.60583080108228
 11
263.51795824097252
 21
429.60583080108222
  0
LINE
  8
_0-5_寸法線
  6
CONTINUOUS
 62
    7
 10
268.51795824097252
 20
427.60583080108051
 11
268.51795824097252
 21
429.60583080108222
  0
TEXT
  8
_0-5_寸法線
 62
    7
 10
288.01006392764009
 20
432.09297440230262
 40
15
 41
1
 50
90
  1
2
  0
LINE
  8
_0-5_寸法線
  6
CONTINUOUS
 62
    7
 10
268.51795824097252
 20
429.60583080108222
 11
265.92976778994728
 21
439.26508906397288
  0
LINE
  8
_0-5_寸法線
  6
CONTINUOUS
 62
    7
 10
268.51795824097252
 20
429.60583080108222
 11
271.1061486919977
 21
439.26508906397288
  0
LINE
  8
_0-5_寸法線
  6
CONTINUOUS
 62
    7
 10
308.51795824097269
 20
679.60583080108211
 11
263.51795824097252
 21
679.60583080108211
  0
LINE
  8
_0-5_寸法線
  6
CONTINUOUS
 62
    7
 10
268.51795824097252
 20
679.60583080108211
 11
271.10614869199765
 21
669.94657253819128
  0
LINE
  8
_0-5_寸法線
  6
CONTINUOUS
 62
    7
 10
268.51795824097252
 20
679.60583080108211
 11
265.92976778994728
 21
669.94657253819128
  0
LINE
  8
_0-5_寸法線
  6
CONTINUOUS
 62
    7
 10
268.51795824097252
 20
429.60583080108222
 11
268.51795824097252
 21
679.60583080108211
  0
TEXT
  8
_0-5_寸法線
 62
    7
 10
268.51795824097252
 20
543.35583080108211
 40
15
 41
1
 50
90
  1
250
  0
LINE
  8
_0-5_寸法線
  6
CONTINUOUS
 62
    7
 10
308.51795824097314
 20
681.60583080108256
 11
263.51795824097252
 21
681.60583080108256
  0
CIRCLE
  8
_0-5_寸法線
  6
CONTINUOUS
 62
    1
 10
268.51795824097252
 20
681.60583080108256
 40
1.5000000000000002
  0
LINE
  8
_0-5_寸法線
  6
CONTINUOUS
 62
    7
 10
268.51795824097252
 20
679.60583080108211
 11
268.51795824097252
 21
681.60583080108256
  0
TEXT
  8
_0-5_寸法線
 62
    7
 10
287.76344394261343
 20
669.09478001290768
 40
15
 41
1
 50
90
  1
2
  0
LINE
  8
_0-5_寸法線
  6
CONTINUOUS
 62
    7
 10
268.51795824097252
 20
684.60583080108267
 11
265.92976778994728
 21
694.26508906397328
  0
LINE
  8
_0-5_寸法線
  6
CONTINUOUS
 62
    7
 10
268.51795824097252
 20
684.60583080108267
 11
271.1061486919977
 21
694.26508906397328
  0
LINE
  8
_0-5_寸法線
  6
CONTINUOUS
 62
    7
 10
268.51795824097252
 20
681.60583080108256
 11
268.51795824097252
 21
709.60583080108267
  0
TEXT
  8
_0-5_寸法線
 62
    7
 10
268.51795824097252
 20
698.8715977313343
 40
15
 41
1
 50
90
  1
3
  0
LINE
  8
_0-1_計細線
  6
CONTINUOUS
 62
    3
 10
962.49999999919669
 20
647.46000000000004
 11
959.49548399919934
 21
647.46000000000004
  0
LINE
  8
_0-1_計細線
  6
CONTINUOUS
 62
    3
 10
962.49999999919669
 20
643.96000000000004
 11
959.49547199919891
 21
643.96000000000004
  0
ARC
  8
_0-1_計細線
  6
CONTINUOUS
 62
    3
 10
959.49547199919891
 20
644.15999999999985
 40
0.2000000000000001
 50
179.99999999999983
 51
269.99999999999977
  0
ARC
  8
_0-1_計細線
  6
CONTINUOUS
 62
    3
 10
967.0534519991968
 20
645.70985400000063
 40
7.7579560000000001
 50
166.96197800000124
 51
193.03567000000189
  0
ARC
  8
_0-1_計細線
  6
CONTINUOUS
 62
    3
 10
959.49547199919891
 20
650.76000000000124
 40
0.2000000000000001
 50
89.999999999999915
 51
179.99999999999983
  0
ARC
  8
_0-1_計細線
  6
CONTINUOUS
 62
    3
 10
967.0534519991968
 20
649.21014399999979
 40
7.7579560000000001
 50
166.96432999999774
 51
193.03802199999839
  0
LINE
  8
_0-1_計細線
  6
CONTINUOUS
 62
    3
 10
962.49999999919669
 20
650.96000000000004
 11
959.49547199919891
 21
650.96000000000004
  0
LINE
  8
_0-1_計細線
  6
CONTINUOUS
 62
    3
 10
959.2954719991983
 20
644.15999999999985
 11
959.2954719991983
 21
650.76000000000124
  0
ARC
  8
_0-1_計細線
  6
CONTINUOUS
 62
    3
 10
962.6999999991973
 20
641.15999999999985
 40
0.2000000000000001
 50
179.99999999999983
 51
269.99999999999977
  0
ARC
  8
_0-1_計細線
  6
CONTINUOUS
 62
    3
 10
962.6999999991973
 20
653.75999999999931
 40
0.2000000000000001
 50
89.999999999999915
 51
179.99999999999983
  0
LINE
  8
_0-1_計細線
  6
CONTINUOUS
 62
    3
 10
962.49999999919669
 20
646.96000000000015
 11
962.49999999919669
 21
641.15999999999985
  0
LINE
  8
_0-1_計細線
  6
CONTINUOUS
 62
    3
 10
962.49999999919669
 20
653.75999999999931
 11
962.49999999919669
 21
646.96000000000015
  0
LINE
  8
_0-1_計細線
  6
CONTINUOUS
 62
    3
 10
963.99999999872068
 20
640.96000000000004
 11
962.6999999991973
 21
640.96000000000004
  0
LINE
  8
_0-1_計細線
  6
CONTINUOUS
 62
    3
 10
963.99999999967258
 20
653.96000000000004
 11
962.6999999991973
 21
653.96000000000004
  0
LINE
  8
_0-0_計極細
  6
CENTER1
 62
    2
 10
1213.87216477724
 20
647.46000000000004
 11
956.60246147459202
 21
647.46000000000004
  0
LINE
  8
_0-1_計細線
  6
CONTINUOUS
 62
    3
 10
1207.5000000008035
 20
647.46000000000004
 11
1210.5045160008008
 21
647.46000000000004
  0
LINE
  8
_0-1_計細線
  6
CONTINUOUS
 62
    3
 10
1207.5000000008035
 20
643.96000000000004
 11
1210.5045280008012
 21
643.96000000000004
  0
ARC
  8
_0-1_計細線
  6
CONTINUOUS
 62
    3
 10
1210.5045280008012
 20
644.15999999999985
 40
0.2000000000000001
 50
269.99999999999977
 51
359.99999999999966
  0
ARC
  8
_0-1_計細線
  6
CONTINUOUS
 62
    3
 10
1202.9465480008034
 20
645.70985400000063
 40
7.7579560000000001
 50
346.96432999999735
 51
13.03802199999839
  0
ARC
  8
_0-1_計細線
  6
CONTINUOUS
 62
    3
 10
1210.5045280008012
 20
650.76000000000124
 40
0.2000000000000001
 50
0
 51
89.999999999999915
  0
ARC
  8
_0-1_計細線
  6
CONTINUOUS
 62
    3
 10
1202.9465480008034
 20
649.21014399999979
 40
7.7579560000000001
 50
346.9619780000009
 51
13.035670000001915
  0
LINE
  8
_0-1_計細線
  6
CONTINUOUS
 62
    3
 10
1207.5000000008035
 20
650.96000000000004
 11
1210.5045280008012
 21
650.96000000000004
  0
LINE
  8
_0-1_計細線
  6
CONTINUOUS
 62
    3
 10
1210.7045280008019
 20
644.15999999999985
 11
1210.7045280008019
 21
650.76000000000124
  0
ARC
  8
_0-1_計細線
  6
CONTINUOUS
 62
    3
 10
1207.3000000008028
 20
641.15999999999985
 40
0.2000000000000001
 50
269.99999999999977
 51
359.99999999999966
  0
ARC
  8
_0-1_計細線
  6
CONTINUOUS
 62
    3
 10
1207.3000000008028
 20
653.75999999999931
 40
0.2000000000000001
 50
0
 51
89.999999999999915
  0
LINE
  8
_0-1_計細線
  6
CONTINUOUS
 62
    3
 10
1207.5000000008035
 20
646.96000000000015
 11
1207.5000000008035
 21
641.15999999999985
  0
LINE
  8
_0-1_計細線
  6
CONTINUOUS
 62
    3
 10
1207.5000000008035
 20
653.75999999999931
 11
1207.5000000008035
 21
646.96000000000015
  0
LINE
  8
_0-1_計細線
  6
CONTINUOUS
 62
    3
 10
1206.0000000012794
 20
640.96000000000004
 11
1207.3000000008028
 21
640.96000000000004
  0
LINE
  8
_0-1_計細線
  6
CONTINUOUS
 62
    3
 10
1206.0000000003274
 20
653.96000000000004
 11
1207.3000000008028
 21
653.96000000000004
  0
TEXT
  8
_0-5_寸法線
 62
    7
 10
605.9922483335597
 20
630.56426829930649
 40
15
 41
0.8000000000000001
 50
0
  1
ＧＲＳ－２０Ｋ２５０
  0
ENDSEC
  0
EOF
