  0
SECTION
  2
HEADER
  9
$ACADVER
  1
AC1009
  9
$INSBASE
 10
0
 20
0
 30
0
  9
$EXTMIN
 10
0
 20
0
  9
$EXTMAX
 10
1485
 20
1050
  9
$LIMMIN
 10
0
 20
0
  9
$LIMMAX
 10
1485
 20
1050
  9
$LTSCALE
 40
5
  0
ENDSEC
  0
SECTION
  2
TABLES
  0
TABLE
  2
LTYPE
 70
     9
  0
LTYPE
  2
CONTINUOUS
 70
    64
  3
実線
 72
    65
 73
     0
 40
0.0
  0
LTYPE
  2
DASHED1
 70
    64
  3
--  --  --  --  --  --  --  --  
 72
    65
 73
     2
 40
2.5
 49
1.25
 49
-1.25
  0
LTYPE
  2
DASHED2
 70
    64
  3
----    ----    ----    ----    
 72
    65
 73
     2
 40
5.0
 49
2.5
 49
-2.5
  0
LTYPE
  2
DASHED3
 70
    64
  3
------  ------  ------  ------  
 72
    65
 73
     2
 40
5.0
 49
3.75
 49
-1.25
  0
LTYPE
  2
CENTER1
 70
    64
  3
----- - ----- - ----- - ----- - 
 72
    65
 73
     4
 40
10.0
 49
6.25
 49
-1.25
 49
1.25
 49
-1.25
  0
LTYPE
  2
CENTER2
 70
    64
  3
----------  --  ----------  --  
 72
    65
 73
     4
 40
20.0
 49
12.5
 49
-2.5
 49
2.5
 49
-2.5
  0
LTYPE
  2
PHANTOM1
 70
    64
  3
--- - - --- - - --- - - --- - - 
 72
    65
 73
     6
 40
10.0
 49
3.25
 49
-1.25
 49
1.25
 49
-1.25
 49
1.25
 49
-1.25
  0
LTYPE
  2
PHANTOM2
 70
    64
  3
--------  -  -  --------  -  -  
 72
    65
 73
     6
 40
20.0
 49
10.0
 49
-2.5
 49
1.25
 49
-2.5
 49
1.25
 49
-2.5
  0
LTYPE
  2
DOT
 70
    64
  3
-   -   -   -   -   -   -   -   
 72
    65
 73
     2
 40
2.5
 49
0.625
 49
-1.875
  0
LTYPE
  2
DUMMY
 70
    64
  3
ダミー
 72
    65
 73
     0
 40
0.0
  0
LTYPE
  2
RAND1
 70
    64
  3
ランダム線1
 72
    65
 73
     4
 40
10.0
 49
1.0
 49
-2.0
 49
3.0
 49
-4.0
  0
LTYPE
  2
RAND2
 70
    64
  3
ランダム線2
 72
    65
 73
     4
 40
14.0
 49
2.0
 49
-3.0
 49
4.0
 49
-5.0
  0
LTYPE
  2
RAND3
 70
    64
  3
ランダム線3
 72
    65
 73
     4
 40
18.0
 49
3.0
 49
-4.0
 49
5.0
 49
-6.0
  0
LTYPE
  2
RAND4
 70
    64
  3
ランダム線4
 72
    65
 73
     4
 40
22.0
 49
4.0
 49
-5.0
 49
6.0
 49
-7.0
  0
LTYPE
  2
RAND5
 70
    64
  3
ランダム線5
 72
    65
 73
     4
 40
26.0
 49
5.0
 49
-6.0
 49
7.0
 49
-8.0
  0
LTYPE
  2
LONG1
 70
    64
  3
----------  --  ----------  --  
 72
    65
 73
     4
 40
40.0
 49
32.5
 49
-2.5
 49
2.5
 49
-2.5
  0
LTYPE
  2
LONG2
 70
    64
  3
--------  -  -  --------  -  -  
 72
    65
 73
     6
 40
40.0
 49
30.0
 49
-2.5
 49
1.25
 49
-2.5
 49
1.25
 49
-2.5
  0
LTYPE
  2
LONG3
 70
    64
  3
+++++++++++++++..+++++++++++++++
 72
    65
 73
     2
 40
40.0
 49
37.5
 49
-2.5
  0
LTYPE
  2
LONG4
 70
    64
  3
+++++++++++++++..+++++++++++++++
 72
    65
 73
     2
 40
80.0
 49
75.0
 49
-5.0
  0
LTYPE
  2
LONG5
 70
    64
  3
----------  --  ----------  --  
 72
    65
 73
     4
 40
60.0
 49
37.5
 49
-7.5
 49
7.5
 49
-7.5
  0
LTYPE
  2
dashed
 70
   64
  3
-------   -------------   ------
 72
   65
 73
    2
 40
7.5
 49
6
 49
-1.5
  0
LTYPE
  2
dashed_spaced
 70
   64
  3
----        --------        ----
 72
   65
 73
    2
 40
12
 49
6
 49
-6
  0
LTYPE
  2
long_dashed_dotted
 70
   64
  3
------------- --- --------------
 72
   65
 73
    4
 40
15.25
 49
12
 49
-1.5
 49
0.25
 49
-1.5
  0
LTYPE
  2
long_dashed_double-dotted
 70
   64
  3
----------- --- --- ------------
 72
   65
 73
    6
 40
17
 49
12
 49
-1.5
 49
0.25
 49
-1.5
 49
0.25
 49
-1.5
  0
LTYPE
  2
long_dashed_triplicate-dotted
 70
   64
  3
--------- --- --- --- ----------
 72
   65
 73
    8
 40
18.75
 49
12
 49
-1.5
 49
0.25
 49
-1.5
 49
0.25
 49
-1.5
 49
0.25
 49
-1.5
  0
LTYPE
  2
dotted
 70
   64
  3
   -       -       -       -    
 72
   65
 73
    2
 40
1.75
 49
0.25
 49
-1.5
  0
LTYPE
  2
chain
 70
   64
  3
-------------- -- --------------
 72
   65
 73
    4
 40
18.5
 49
12
 49
-1.5
 49
3.5
 49
-1.5
  0
LTYPE
  2
chain_double_dash
 70
   64
  3
------------ -- -- -------------
 72
   65
 73
    6
 40
23.5
 49
12
 49
-1.5
 49
3.5
 49
-1.5
 49
3.5
 49
-1.5
  0
LTYPE
  2
dashed_dotted
 70
   64
  3
-----------     -     ----------
 72
   65
 73
    4
 40
9.25
 49
6
 49
-1.5
 49
0.25
 49
-1.5
  0
LTYPE
  2
double-dashed_dotted
 70
   64
  3
------   -----------   -   -----
 72
   65
 73
    6
 40
16.75
 49
6
 49
-1.5
 49
6
 49
-1.5
 49
0.25
 49
-1.5
  0
LTYPE
  2
dashed_double-dotted
 70
   64
  3
---------    -    -    ---------
 72
   65
 73
    6
 40
11
 49
6
 49
-1.5
 49
0.25
 49
-1.5
 49
0.25
 49
-1.5
  0
LTYPE
  2
double-dashed_double-dotted
 70
   64
  3
-----   ---------   -   -   ----
 72
   65
 73
    8
 40
18.5
 49
6
 49
-1.5
 49
6
 49
-1.5
 49
0.25
 49
-1.5
 49
0.25
 49
-1.5
  0
LTYPE
  2
dashed_triplicate-dotted
 70
   64
  3
-------    -    -    -    ------
 72
   65
 73
    8
 40
12.75
 49
6
 49
-1.5
 49
0.25
 49
-1.5
 49
0.25
 49
-1.5
 49
0.25
 49
-1.5
  0
LTYPE
  2
double-dashed_triplicate-dotted
 70
   64
  3
-----  ---------  -  -  -  -----
 72
   65
 73
   10
 40
20.25
 49
6
 49
-1.5
 49
6
 49
-1.5
 49
0.25
 49
-1.5
 49
0.25
 49
-1.5
 49
0.25
 49
-1.5
  0
LTYPE
  2
undefined
 70
   64
  3
--------------------------------
 72
   65
 73
    0
 40
0
  0
ENDTAB
  0
TABLE
  2
STYLE
  5
3
100
AcDbSymbolTable
 70
     1
  0
STYLE
  5
10
100
AcDbSymbolTableRecord
100
AcDbTextStyleTableRecord
  2
STANDARD
 70
     0
 40
0.0
 41
1.0
 50
0.0
 71
     0
 42
0.2
  3
txt
  4
bigfont.shx
  0
STYLE
  5
26
100
AcDbSymbolTableRecord
100
AcDbTextStyleTableRecord
  2
TATEGAKI
 70
    68
 40
0.0
 41
1.0
 50
0.0
 71
     0
 42
1.0
  3
txt
  4
bigfont.shx
  0
ENDTAB
  0
TABLE
  2
LAYER
 70
   10
  0
LAYER
  2
_0-0_計極細
 70
   64
 62
    7
  6
CONTINUOUS
  0
LAYER
  2
_0-1_計細線
 70
   64
 62
    7
  6
CONTINUOUS
  0
LAYER
  2
_0-5_寸法線
 70
   64
 62
    7
  6
CONTINUOUS
  0
LAYER
  2
_0-7_枠細線
 70
   64
 62
    7
  6
CONTINUOUS
  0
LAYER
  2
_0-8_枠中線
 70
   64
 62
    7
  6
CONTINUOUS
  0
LAYER
  2
_0-9_枠極太
 70
   64
 62
    7
  6
CONTINUOUS
  0
LAYER
  2
_0-a_極細3
 70
   64
 62
    7
  6
CONTINUOUS
  0
LAYER
  2
_0-b_細線3
 70
   64
 62
    7
  6
CONTINUOUS
  0
LAYER
  2
_0-d_寸法3
 70
   64
 62
    7
  6
CONTINUOUS
  0
LAYER
  2
ADD_LINE
 70
   64
 62
    7
  6
CONTINUOUS
  0
ENDTAB
  0
ENDSEC
  0
SECTION
  2
BLOCKS
  0
ENDSEC
  0
SECTION
  2
ENTITIES
  0
LINE
  8
_0-7_枠細線
  6
CONTINUOUS
 62
    5
 10
1185
 20
180
 11
1185
 21
100
  0
TEXT
  8
_0-7_枠細線
 62
    5
 10
937.5
 20
97.5
 40
17.5
 41
1
 50
0
  1
備考
  7
TATEGAKI
  0
TEXT
  8
_0-7_枠細線
 62
    5
 10
937.5
 20
137.5
 40
17.5
 41
1
 50
0
  1
品番
  7
TATEGAKI
  0
TEXT
  8
_0-7_枠細線
 62
    5
 10
937.5
 20
177.5
 40
17.5
 41
1
 50
0
  1
品名
  7
TATEGAKI
  0
LINE
  8
_0-7_枠細線
  6
CONTINUOUS
 62
    5
 10
1185
 20
140
 11
925
 21
140
  0
LINE
  8
_0-7_枠細線
  6
CONTINUOUS
 62
    5
 10
950
 20
180
 11
950
 21
60
  0
LINE
  8
_0-8_枠中線
  6
CONTINUOUS
 62
    5
 10
1425
 20
180
 11
925
 21
180
  0
LINE
  8
_0-8_枠中線
  6
CONTINUOUS
 62
    5
 10
925
 20
180
 11
925
 21
60
  0
LINE
  8
_0-7_枠細線
  6
CONTINUOUS
 62
    5
 10
1245
 20
180
 11
1245
 21
60
  0
TEXT
  8
_0-7_枠細線
 62
    5
 10
1192.5
 20
160
 40
15
 41
1
 50
0
  1
縮　尺
  0
LINE
  8
_0-7_枠細線
  6
CONTINUOUS
 62
    5
 10
1185
 20
155
 11
1245
 21
155
  0
LINE
  8
_0-7_枠細線
  6
CONTINUOUS
 62
    5
 10
1245
 20
100
 11
925
 21
100
  0
LINE
  8
_0-7_枠細線
  6
CONTINUOUS
 62
    5
 10
1425
 20
90
 11
1245
 21
90
  0
LINE
  8
_0-7_枠細線
  6
CONTINUOUS
 62
    5
 10
1245
 20
120
 11
1425
 21
120
  0
LINE
  8
_0-7_枠細線
  6
CONTINUOUS
 62
    5
 10
1425
 20
140
 11
1245
 21
140
  0
TEXT
  8
_0-7_枠細線
 62
    5
 10
1255
 20
147.5
 40
25
 41
0.8
 50
0
  1
株式会社シマブン
  0
TEXT
  8
_0-7_枠細線
 62
    5
 10
1252.5
 20
60
 40
15
 41
1
 50
0
  1
年月日
  0
TEXT
  8
_0-7_枠細線
 62
    5
 10
1252.5
 20
75
 40
15
 41
1
 50
0
  1
作　成
  0
TEXT
  8
_0-7_枠細線
 62
    5
 10
1256.25
 20
122.5
 40
15
 41
1
 50
0
  1
承 認
  0
LINE
  8
_0-7_枠細線
  6
CONTINUOUS
 62
    5
 10
1305
 20
140
 11
1305
 21
60
  0
TEXT
  8
_0-7_枠細線
 62
    5
 10
1316.25
 20
122.5
 40
15
 41
1
 50
0
  1
検 図
  0
LINE
  8
_0-7_枠細線
  6
CONTINUOUS
 62
    5
 10
1365
 20
140
 11
1365
 21
90
  0
TEXT
  8
_0-7_枠細線
 62
    5
 10
1375
 20
95
 40
20
 41
1
 50
0
  1
藤戸
  0
TEXT
  8
_0-7_枠細線
 62
    5
 10
1376.25
 20
122.5
 40
15
 41
1
 50
0
  1
設 計
  0
TEXT
  8
_0-7_枠細線
 62
    5
 10
1255
 20
95
 40
20
 41
1
 50
0
  1
隠塚
  0
TEXT
  8
_0-7_枠細線
 62
    5
 10
1315
 20
95
 40
20
 41
1
 50
0
  1
渋田
  0
TEXT
  8
_0-7_枠細線
 62
    5
 10
1193.9999999999998
 20
117.5
 40
20
 41
0.7000000000000001
 50
0
  1
１：５
  0
TEXT
  8
_0-7_枠細線
 62
    5
 10
960.5
 20
69.999999999999858
 40
20
 41
0.5999999999999998
 50
0
  1
品番・色については表参照のこと
  0
TEXT
  8
_0-7_枠細線
 62
    5
 10
1309.9999999999998
 20
67.499999999999929
 40
15.000000000000009
 41
0.6666666666666665
 50
0
  1
２０１０年０３月０１日
  0
TEXT
  8
_0-7_枠細線
 62
    5
 10
960.5
 20
158.74999999999994
 40
20.000000000000007
 41
0.5999999999999998
 50
0
  1
セーフティグレーチングＨ２０タイプ
  0
TEXT
  8
_0-7_枠細線
 62
    5
 10
1128.5
 20
141.25
 40
20.000000000000007
 41
0.5999999999999998
 50
0
  1
集水マス
  0
LINE
  8
_0-7_枠細線
  6
CONTINUOUS
 62
    5
 10
1425
 20
942.5
 11
890
 21
942.5
  0
TEXT
  8
_0-7_枠細線
 62
    5
 10
895
 20
945
 40
12.5
 41
1
 50
0
  1
記号
  0
TEXT
  8
_0-7_枠細線
 62
    5
 10
996.875
 20
945
 40
12.5
 41
1
 50
0
  1
訂　 正　 記　 事
  0
TEXT
  8
_0-7_枠細線
 62
    5
 10
1181.25
 20
945
 40
12.5
 41
1
 50
0
  1
訂 正 年 月 日
  0
TEXT
  8
_0-7_枠細線
 62
    5
 10
1306.25
 20
945
 40
12.5
 41
1
 50
0
  1
備　　　　　考
  0
LINE
  8
_0-7_枠細線
  6
CONTINUOUS
 62
    5
 10
1425
 20
925
 11
890
 21
925
  0
TEXT
  8
_0-7_枠細線
 62
    5
 10
938.85037037037023
 20
927.5
 40
12.5
 41
1
 50
0
  1
品番・色記号変更
  0
TEXT
  8
_0-7_枠細線
 62
    5
 10
1180
 20
927.5
 40
12.5
 41
0.7199999999999999
 50
0
  1
２０１３．０３．１３
  0
LINE
  8
_0-7_枠細線
  6
CONTINUOUS
 62
    5
 10
1425
 20
907.5
 11
890
 21
907.5
  0
LINE
  8
_0-7_枠細線
  6
CONTINUOUS
 62
    5
 10
1425
 20
890
 11
890
 21
890
  0
TEXT
  8
_0-7_枠細線
 62
    5
 10
938.85037037037023
 20
910
 40
12.5
 41
1
 50
0
  1
クロスバーピッチ変更
  0
TEXT
  8
_0-7_枠細線
 62
    5
 10
938.85037037037023
 20
892.5
 40
12.5
 41
1
 50
0
  1
取外具形状変更
  0
TEXT
  8
_0-7_枠細線
 62
    5
 10
1180
 20
910
 40
12.5
 41
0.7199999999999999
 50
0
  1
２０１５．１１．２０
  0
LINE
  8
_0-7_枠細線
  6
CONTINUOUS
 62
    5
 10
915
 20
908.94233397174685
 11
907.5
 21
923.94233397174685
  0
LINE
  8
_0-7_枠細線
  6
CONTINUOUS
 62
    5
 10
900
 20
908.94233397174685
 11
915
 21
908.94233397174685
  0
LINE
  8
_0-7_枠細線
  6
CONTINUOUS
 62
    5
 10
907.5
 20
923.94233397174685
 11
900
 21
908.94233397174685
  0
TEXT
  8
_0-7_枠細線
 62
    5
 10
902.36515126814822
 20
908.63533172636664
 40
12.5
 41
0.8
 50
0
  1
１
  0
TEXT
  8
_0-7_枠細線
 62
    5
 10
902.36515126814822
 20
891.13533172636664
 40
12.5
 41
0.8
 50
0
  1
２
  0
LINE
  8
_0-7_枠細線
  6
CONTINUOUS
 62
    5
 10
1425
 20
872.5
 11
890
 21
872.5
  0
LINE
  8
_0-7_枠細線
  6
CONTINUOUS
 62
    5
 10
907.5
 20
906.44233397174685
 11
900
 21
891.44233397174685
  0
LINE
  8
_0-7_枠細線
  6
CONTINUOUS
 62
    5
 10
900
 20
891.44233397174685
 11
915
 21
891.44233397174685
  0
LINE
  8
_0-7_枠細線
  6
CONTINUOUS
 62
    5
 10
915
 20
891.44233397174685
 11
907.5
 21
906.44233397174685
  0
TEXT
  8
_0-7_枠細線
 62
    5
 10
902.36515126814822
 20
873.39465008156549
 40
12.5
 41
0.8
 50
0
  1
３
  0
TEXT
  8
_0-7_枠細線
 62
    5
 10
1180
 20
875
 40
12.5
 41
0.7199999999999999
 50
0
  1
２０１７．０４．０１
  0
LINE
  8
_0-7_枠細線
  6
CONTINUOUS
 62
    5
 10
915
 20
856.44233397174685
 11
907.5
 21
871.44233397174685
  0
LINE
  8
_0-7_枠細線
  6
CONTINUOUS
 62
    5
 10
900
 20
856.44233397174685
 11
915
 21
856.44233397174685
  0
LINE
  8
_0-7_枠細線
  6
CONTINUOUS
 62
    5
 10
907.5
 20
871.44233397174685
 11
900
 21
856.44233397174685
  0
TEXT
  8
_0-7_枠細線
 62
    5
 10
1180
 20
857.5
 40
12.5
 41
0.7199999999999999
 50
0
  1
２０１７．０４．０１
  0
TEXT
  8
_0-7_枠細線
 62
    5
 10
938.85037037037023
 20
857.5
 40
12.5
 41
1
 50
0
  1
ブラウン色（Ｃ）追加
  0
LINE
  8
_0-7_枠細線
  6
CONTINUOUS
 62
    5
 10
1425
 20
855
 11
890
 21
855
  0
LINE
  8
_0-7_枠細線
  6
CONTINUOUS
 62
    5
 10
907.5
 20
888.94233397174685
 11
900
 21
873.94233397174685
  0
LINE
  8
_0-7_枠細線
  6
CONTINUOUS
 62
    5
 10
900
 20
873.94233397174685
 11
915
 21
873.94233397174685
  0
LINE
  8
_0-7_枠細線
  6
CONTINUOUS
 62
    5
 10
915
 20
873.94233397174685
 11
907.5
 21
888.94233397174685
  0
TEXT
  8
_0-7_枠細線
 62
    5
 10
902.36515126814822
 20
855.49351400689704
 40
12.5
 41
0.8
 50
0
  1
４
  0
TEXT
  8
_0-7_枠細線
 62
    5
 10
938.85037037037023
 20
875
 40
12.5
 41
1
 50
0
  1
取外具形状変更
  0
TEXT
  8
_0-7_枠細線
 62
    5
 10
1180
 20
892.5
 40
12.5
 41
0.7199999999999999
 50
0
  1
２０１５．１１．２０
  0
LINE
  8
_0-9_枠極太
  6
CONTINUOUS
 62
    5
 10
60
 20
60
 11
60
 21
960
  0
LINE
  8
_0-9_枠極太
  6
CONTINUOUS
 62
    5
 10
60
 20
960
 11
1425
 21
960
  0
LINE
  8
_0-9_枠極太
  6
CONTINUOUS
 62
    5
 10
1425
 20
960
 11
1425
 21
60
  0
LINE
  8
_0-9_枠極太
  6
CONTINUOUS
 62
    5
 10
1425
 20
60
 11
60
 21
60
  0
LINE
  8
_0-7_枠細線
  6
CONTINUOUS
 62
    5
 10
915
 20
838.94233397174685
 11
907.5
 21
853.94233397174685
  0
LINE
  8
_0-7_枠細線
  6
CONTINUOUS
 62
    5
 10
900
 20
838.94233397174685
 11
915
 21
838.94233397174685
  0
LINE
  8
_0-7_枠細線
  6
CONTINUOUS
 62
    5
 10
907.5
 20
853.94233397174685
 11
900
 21
838.94233397174685
  0
LINE
  8
_0-7_枠細線
  6
CONTINUOUS
 62
    5
 10
1425
 20
837.5
 11
890
 21
837.5
  0
TEXT
  8
_0-7_枠細線
 62
    5
 10
1180
 20
840
 40
12.5
 41
0.7199999999999999
 50
0
  1
２０１９．０９．０１
  0
TEXT
  8
_0-7_枠細線
 62
    5
 10
902.36515126814822
 20
837.99351400689704
 40
12.5
 41
0.8
 50
0
  1
５
  0
TEXT
  8
_0-7_枠細線
 62
    5
 10
938.85037037037023
 20
840
 40
12.5
 41
1
 50
0
  1
アンカー材質･厚み変更
  0
TEXT
  8
_0-7_枠細線
 62
    5
 10
960.5
 20
109.99999999999993
 40
20.000000000000007
 41
0.5999999999999998
 50
0
  1
ＧＲＳ－２０Ｋ３００
  0
LINE
  8
_0-7_枠細線
  6
CONTINUOUS
 62
    5
 10
925
 20
473.73000000000047
 11
925
 21
223.73000000000002
  0
LINE
  8
_0-7_枠細線
  6
CONTINUOUS
 62
    5
 10
1270.7300000000005
 20
393.73000000000059
 11
1270.7300000000005
 21
473.73000000000059
  0
LINE
  8
_0-7_枠細線
  6
CONTINUOUS
 62
    5
 10
925
 20
323.73000000000059
 11
1225.0000000000005
 21
323.73000000000059
  0
LINE
  8
_0-7_枠細線
  6
CONTINUOUS
 62
    5
 10
925
 20
348.73000000000047
 11
1225.0000000000005
 21
348.73000000000047
  0
LINE
  8
_0-7_枠細線
  6
CONTINUOUS
 62
    5
 10
925
 20
373.73000000000047
 11
1225.0000000000005
 21
373.73000000000047
  0
LINE
  8
_0-7_枠細線
  6
CONTINUOUS
 62
    5
 10
925
 20
398.73000000000076
 11
1225.0000000000005
 21
398.73000000000076
  0
TEXT
  8
_0-7_枠細線
 62
    5
 10
1048.0000000000005
 20
403.73000000000076
 40
15
 41
0.5999999999999999
 50
0
  1
ライトグレー
  0
LINE
  8
_0-7_枠細線
  6
CONTINUOUS
 62
    5
 10
925
 20
423.73000000000047
 11
1225.0000000000005
 21
423.73000000000047
  0
TEXT
  8
_0-7_枠細線
 62
    5
 10
1057.0000000000005
 20
428.73000000000047
 40
15
 41
0.5999999999999999
 50
0
  1
ベージュ
  0
LINE
  8
_0-7_枠細線
  6
CONTINUOUS
 62
    5
 10
925
 20
448.73000000000047
 11
1225.0000000000005
 21
448.73000000000047
  0
TEXT
  8
_0-7_枠細線
 62
    5
 10
1069.0000000000005
 20
453.73000000000047
 40
15
 41
0.8000000000000001
 50
0
  1
色
  0
TEXT
  8
_0-7_枠細線
 62
    5
 10
951.00000000000034
 20
453.73000000000047
 40
15
 41
0.8000000000000001
 50
0
  1
品　　番
  0
TEXT
  8
_0-7_枠細線
 62
    5
 10
1151.0000000000005
 20
453.73000000000047
 40
15
 41
0.8000000000000001
 50
0
  1
備　　考
  0
LINE
  8
_0-7_枠細線
  6
CONTINUOUS
 62
    5
 10
925
 20
473.73000000000047
 11
1225.0000000000005
 21
473.73000000000047
  0
TEXT
  8
_0-7_枠細線
 62
    5
 10
1013.75
 20
478.73000000000047
 40
17.5
 41
1
 50
0
  1
品番表
  0
LINE
  8
_0-7_枠細線
  6
CONTINUOUS
 62
    5
 10
925
 20
248.73000000000036
 11
1225.0000000000005
 21
248.73000000000036
  0
LINE
  8
_0-7_枠細線
  6
CONTINUOUS
 62
    5
 10
925
 20
273.73000000000059
 11
1225.0000000000005
 21
273.73000000000059
  0
LINE
  8
_0-7_枠細線
  6
CONTINUOUS
 62
    5
 10
925
 20
298.7300000000007
 11
1225.0000000000005
 21
298.7300000000007
  0
TEXT
  8
_0-7_枠細線
 62
    5
 10
1057.0000000000009
 20
378.7300000000007
 40
15
 41
0.5999999999999999
 50
0
  1
ホワイト
  0
TEXT
  8
_0-7_枠細線
 62
    5
 10
1061.5000000000005
 20
353.73000000000047
 40
15
 41
0.5999999999999999
 50
0
  1
ピンク
  0
TEXT
  8
_0-7_枠細線
 62
    5
 10
1061.5000000000005
 20
328.73000000000047
 40
15
 41
0.5999999999999999
 50
0
  1
ブルー
  0
TEXT
  8
_0-7_枠細線
 62
    5
 10
1048
 20
303.73000000000059
 40
15
 41
0.5999999999999999
 50
0
  1
ダークグレー
  0
TEXT
  8
_0-7_枠細線
 62
    5
 10
1061.5000000000005
 20
278.7300000000007
 40
15
 41
0.5999999999999999
 50
0
  1
ウッド
  0
LINE
  8
_0-7_枠細線
  6
CONTINUOUS
 62
    5
 10
925
 20
223.73000000000005
 11
1225.0000000000005
 21
223.73000000000005
  0
TEXT
  8
_0-7_枠細線
 62
    5
 10
1057.0000000000009
 20
228.73000000000016
 40
15
 41
0.5999999999999999
 50
0
  1
ブラック
  0
LINE
  8
_0-7_枠細線
  6
CONTINUOUS
 62
    5
 10
1225.0000000000005
 20
473.73000000000047
 11
1225.0000000000005
 21
223.73000000000005
  0
LINE
  8
_0-7_枠細線
  6
CONTINUOUS
 62
    5
 10
1125
 20
473.73000000000047
 11
1125
 21
223.73000000000005
  0
LINE
  8
_0-7_枠細線
  6
CONTINUOUS
 62
    5
 10
1025.0000000000005
 20
473.73000000000047
 11
1025.0000000000005
 21
223.73000000000005
  0
TEXT
  8
_0-7_枠細線
 62
    5
 10
1057.0000000000005
 20
253.73000000000036
 40
15
 41
0.5999999999999999
 50
0
  1
ブラウン
  0
LINE
  8
_0-7_枠細線
  6
CONTINUOUS
 62
    5
 10
918.52762466555532
 20
254.30604122127352
 11
911.02762466555532
 21
269.30604122127352
  0
LINE
  8
_0-7_枠細線
  6
CONTINUOUS
 62
    5
 10
903.52762466555532
 20
254.30604122127352
 11
918.52762466555532
 21
254.30604122127352
  0
LINE
  8
_0-7_枠細線
  6
CONTINUOUS
 62
    5
 10
911.02762466555532
 20
269.30604122127352
 11
903.52762466555532
 21
254.30604122127352
  0
TEXT
  8
_0-7_枠細線
 62
    5
 10
905.89277593370343
 20
253.35722125642363
 40
12.5
 41
0.8
 50
0
  1
４
  0
TEXT
  8
_0-7_枠細線
 62
    5
 10
930.00000000000045
 20
428.73000000000047
 40
15
 41
0.5
 50
0
  1
ＧＲＳ－２０Ｋ３００－Ｂ
  0
TEXT
  8
_0-7_枠細線
 62
    5
 10
930.00000000000045
 20
403.73000000000047
 40
15
 41
0.5
 50
0
  1
ＧＲＳ－２０Ｋ３００－Ｇ
  0
TEXT
  8
_0-7_枠細線
 62
    5
 10
930.00000000000045
 20
378.7300000000007
 40
15
 41
0.5
 50
0
  1
ＧＲＳ－２０Ｋ３００－Ｓ
  0
TEXT
  8
_0-7_枠細線
 62
    5
 10
930.00000000000045
 20
353.73000000000047
 40
15
 41
0.5
 50
0
  1
ＧＲＳ－２０Ｋ３００－Ｐ
  0
TEXT
  8
_0-7_枠細線
 62
    5
 10
930.00000000000045
 20
328.73000000000047
 40
15
 41
0.5
 50
0
  1
ＧＲＳ－２０Ｋ３００－Ａ
  0
TEXT
  8
_0-7_枠細線
 62
    5
 10
930.00000000000045
 20
303.73000000000059
 40
15
 41
0.5
 50
0
  1
ＧＲＳ－２０Ｋ３００－Ｄ
  0
TEXT
  8
_0-7_枠細線
 62
    5
 10
930.00000000000045
 20
278.7300000000007
 40
15
 41
0.5
 50
0
  1
ＧＲＳ－２０Ｋ３００－Ｍ
  0
TEXT
  8
_0-7_枠細線
 62
    5
 10
930.00000000000045
 20
253.73000000000036
 40
15
 41
0.5
 50
0
  1
ＧＲＳ－２０Ｋ３００－Ｃ
  0
TEXT
  8
_0-7_枠細線
 62
    5
 10
930.00000000000045
 20
228.73000000000016
 40
15
 41
0.5
 50
0
  1
ＧＲＳ－２０Ｋ３００－Ｋ
  0
TEXT
  8
_0-7_枠細線
 62
    5
 10
1293.2300000000007
 20
451.23000000000059
 40
15
 41
1
 50
0
  1
耐荷重
  0
TEXT
  8
_0-7_枠細線
 62
    5
 10
1285.7300000000007
 20
421.23000000000059
 40
15
 41
1
 50
0
  1
3.5kN/㎡
  0
TEXT
  8
_0-7_枠細線
 62
    5
 10
1278.2300000000005
 20
401.23000000000059
 40
15
 41
1
 50
0
  1
（歩道用）
  0
LINE
  8
_0-7_枠細線
  6
CONTINUOUS
 62
    5
 10
1360.7300000000007
 20
393.73000000000059
 11
1360.7300000000007
 21
473.73000000000059
  0
LINE
  8
_0-7_枠細線
  6
CONTINUOUS
 62
    5
 10
1270.7300000000005
 20
393.73000000000059
 11
1360.7300000000007
 21
393.73000000000059
  0
LINE
  8
_0-7_枠細線
  6
CONTINUOUS
 62
    5
 10
1270.7300000000005
 20
443.73000000000059
 11
1360.7300000000007
 21
443.73000000000059
  0
LINE
  8
_0-7_枠細線
  6
CONTINUOUS
 62
    5
 10
1270.7300000000005
 20
473.73000000000059
 11
1360.7300000000007
 21
473.73000000000059
  0
LINE
  8
_0-1_計細線
  6
CONTINUOUS
 62
    3
 10
296.51795824097348
 20
402.6058308010812
 11
600.51795824097394
 21
402.6058308010812
  0
LINE
  8
_0-1_計細線
  6
CONTINUOUS
 62
    3
 10
296.51795824097348
 20
706.60583080108279
 11
296.51795824097348
 21
402.6058308010812
  0
LINE
  8
_0-1_計細線
  6
CONTINUOUS
 62
    3
 10
600.51795824097394
 20
402.6058308010812
 11
600.51795824097394
 21
706.60583080108279
  0
LINE
  8
_0-1_計細線
  6
CONTINUOUS
 62
    3
 10
600.51795824097394
 20
706.60583080108279
 11
296.51795824097348
 21
706.60583080108279
  0
LINE
  8
_0-1_計細線
  6
CONTINUOUS
 62
    3
 10
293.51795824097348
 20
399.6058308010812
 11
293.51795824097348
 21
709.60583080108279
  0
LINE
  8
_0-1_計細線
  6
CONTINUOUS
 62
    3
 10
293.51795824097348
 20
709.60583080108279
 11
603.51795824097394
 21
709.60583080108279
  0
LINE
  8
_0-1_計細線
  6
CONTINUOUS
 62
    3
 10
603.51795824097394
 20
709.60583080108279
 11
603.51795824097394
 21
399.6058308010812
  0
LINE
  8
_0-1_計細線
  6
CONTINUOUS
 62
    3
 10
603.51795824097394
 20
399.6058308010812
 11
293.51795824097348
 21
399.6058308010812
  0
LINE
  8
_0-1_計細線
  6
CONTINUOUS
 62
    3
 10
298.51795824097337
 20
568.8058308010817
 11
298.51795824097337
 21
557.40583080108024
  0
LINE
  8
_0-1_計細線
  6
CONTINUOUS
 62
    3
 10
298.51795824097337
 20
551.80583080107999
 11
298.51795824097337
 21
540.40583080108024
  0
LINE
  8
_0-0_計極細
  6
CONTINUOUS
 62
    2
 10
299.01795824097337
 20
500.80583080108352
 11
299.01795824097337
 21
506.40583080108394
  0
LINE
  8
_0-0_計極細
  6
CONTINUOUS
 62
    2
 10
312.01795824097337
 20
500.80583080108352
 11
312.01795824097337
 21
506.40583080108394
  0
LINE
  8
_0-0_計極細
  6
CONTINUOUS
 62
    2
 10
299.01795824097337
 20
517.80583080108363
 11
299.01795824097337
 21
523.40583080108388
  0
LINE
  8
_0-0_計極細
  6
CONTINUOUS
 62
    2
 10
312.01795824097337
 20
517.80583080108363
 11
312.01795824097337
 21
523.40583080108388
  0
LINE
  8
_0-0_計極細
  6
CONTINUOUS
 62
    2
 10
299.01795824097337
 20
540.40583080108024
 11
299.01795824097337
 21
534.80583080107988
  0
LINE
  8
_0-0_計極細
  6
CONTINUOUS
 62
    2
 10
312.01795824097337
 20
540.40583080108024
 11
312.01795824097337
 21
534.80583080107988
  0
LINE
  8
_0-0_計極細
  6
CONTINUOUS
 62
    2
 10
299.01795824097337
 20
557.40583080108024
 11
299.01795824097337
 21
551.80583080107999
  0
LINE
  8
_0-0_計極細
  6
CONTINUOUS
 62
    2
 10
312.01795824097337
 20
557.40583080108024
 11
312.01795824097337
 21
551.80583080107999
  0
LINE
  8
_0-0_計極細
  6
CONTINUOUS
 62
    2
 10
299.01795824097337
 20
574.40583080108115
 11
299.01795824097337
 21
568.8058308010817
  0
LINE
  8
_0-0_計極細
  6
CONTINUOUS
 62
    2
 10
312.01795824097337
 20
574.40583080108115
 11
312.01795824097337
 21
568.8058308010817
  0
LINE
  8
_0-0_計極細
  6
CONTINUOUS
 62
    2
 10
299.01795824097337
 20
591.40583080108206
 11
299.01795824097337
 21
585.8058308010817
  0
LINE
  8
_0-0_計極細
  6
CONTINUOUS
 62
    2
 10
312.01795824097337
 20
591.40583080108206
 11
312.01795824097337
 21
585.8058308010817
  0
LINE
  8
_0-0_計極細
  6
CONTINUOUS
 62
    2
 10
299.01795824097337
 20
608.40583080108206
 11
299.01795824097337
 21
602.80583080108261
  0
LINE
  8
_0-0_計極細
  6
CONTINUOUS
 62
    2
 10
312.01795824097337
 20
608.40583080108206
 11
312.01795824097337
 21
602.80583080108261
  0
LINE
  8
_0-0_計極細
  6
CONTINUOUS
 62
    2
 10
299.01795824097337
 20
693.20583080108133
 11
299.01795824097337
 21
687.8058308010817
  0
LINE
  8
_0-0_計極細
  6
CONTINUOUS
 62
    2
 10
312.01795824097337
 20
693.20583080108133
 11
312.01795824097337
 21
687.8058308010817
  0
LINE
  8
_0-0_計極細
  6
CONTINUOUS
 62
    2
 10
299.01795824097337
 20
416.00583080108242
 11
299.01795824097337
 21
421.40583080108206
  0
LINE
  8
_0-0_計極細
  6
CONTINUOUS
 62
    2
 10
312.01795824097337
 20
416.00583080108242
 11
312.01795824097337
 21
421.40583080108206
  0
LINE
  8
_0-0_計極細
  6
CENTER1
 62
    2
 10
305.51795824097337
 20
713.35655022554363
 11
305.51795824097337
 21
396.84800706007024
  0
LINE
  8
_0-0_計極細
  6
CONTINUOUS
 62
    2
 10
299.01795824097337
 20
625.40583080108206
 11
299.01795824097337
 21
619.80583080108181
  0
LINE
  8
_0-0_計極細
  6
CONTINUOUS
 62
    2
 10
312.01795824097337
 20
625.40583080108206
 11
312.01795824097337
 21
619.80583080108181
  0
LINE
  8
_0-0_計極細
  6
CONTINUOUS
 62
    2
 10
299.01795824097337
 20
642.40583080108024
 11
299.01795824097337
 21
636.80583080108079
  0
LINE
  8
_0-0_計極細
  6
CONTINUOUS
 62
    2
 10
312.01795824097337
 20
642.40583080108024
 11
312.01795824097337
 21
636.80583080108079
  0
LINE
  8
_0-0_計極細
  6
CONTINUOUS
 62
    2
 10
299.01795824097337
 20
659.40583080108024
 11
299.01795824097337
 21
653.80583080107999
  0
LINE
  8
_0-0_計極細
  6
CONTINUOUS
 62
    2
 10
312.01795824097337
 20
659.40583080108024
 11
312.01795824097337
 21
653.80583080107999
  0
LINE
  8
_0-0_計極細
  6
CONTINUOUS
 62
    2
 10
299.01795824097337
 20
676.40583080107842
 11
299.01795824097337
 21
670.80583080107897
  0
LINE
  8
_0-0_計極細
  6
CONTINUOUS
 62
    2
 10
312.01795824097337
 20
676.40583080107842
 11
312.01795824097337
 21
670.80583080107897
  0
LINE
  8
_0-0_計極細
  6
CONTINUOUS
 62
    2
 10
299.01795824097337
 20
483.80583080108352
 11
299.01795824097337
 21
489.40583080108297
  0
LINE
  8
_0-0_計極細
  6
CONTINUOUS
 62
    2
 10
312.01795824097337
 20
483.80583080108352
 11
312.01795824097337
 21
489.40583080108297
  0
LINE
  8
_0-0_計極細
  6
CONTINUOUS
 62
    2
 10
299.01795824097337
 20
466.80583080108357
 11
299.01795824097337
 21
472.40583080108394
  0
LINE
  8
_0-0_計極細
  6
CONTINUOUS
 62
    2
 10
312.01795824097337
 20
466.80583080108357
 11
312.01795824097337
 21
472.40583080108394
  0
LINE
  8
_0-0_計極細
  6
CONTINUOUS
 62
    2
 10
299.01795824097337
 20
449.80583080108539
 11
299.01795824097337
 21
455.40583080108485
  0
LINE
  8
_0-0_計極細
  6
CONTINUOUS
 62
    2
 10
312.01795824097337
 20
449.80583080108539
 11
312.01795824097337
 21
455.40583080108485
  0
LINE
  8
_0-0_計極細
  6
CONTINUOUS
 62
    2
 10
299.01795824097337
 20
432.80583080108534
 11
299.01795824097337
 21
438.4058308010857
  0
LINE
  8
_0-0_計極細
  6
CONTINUOUS
 62
    2
 10
312.01795824097337
 20
432.80583080108534
 11
312.01795824097337
 21
438.4058308010857
  0
LINE
  8
_0-0_計極細
  6
CONTINUOUS
 62
    2
 10
396.01795824097337
 20
500.80583080108352
 11
396.01795824097337
 21
506.40583080108394
  0
LINE
  8
_0-0_計極細
  6
CONTINUOUS
 62
    2
 10
409.01795824097343
 20
500.80583080108352
 11
409.01795824097343
 21
506.40583080108394
  0
LINE
  8
_0-0_計極細
  6
CONTINUOUS
 62
    2
 10
396.01795824097337
 20
517.80583080108363
 11
396.01795824097337
 21
523.40583080108388
  0
LINE
  8
_0-0_計極細
  6
CONTINUOUS
 62
    2
 10
409.01795824097343
 20
517.80583080108363
 11
409.01795824097343
 21
523.40583080108388
  0
LINE
  8
_0-0_計極細
  6
CONTINUOUS
 62
    2
 10
396.01795824097337
 20
540.40583080108024
 11
396.01795824097337
 21
534.80583080107988
  0
LINE
  8
_0-0_計極細
  6
CONTINUOUS
 62
    2
 10
409.01795824097343
 20
540.40583080108024
 11
409.01795824097343
 21
534.80583080107988
  0
LINE
  8
_0-0_計極細
  6
CONTINUOUS
 62
    2
 10
396.01795824097337
 20
574.40583080108115
 11
396.01795824097337
 21
568.8058308010817
  0
LINE
  8
_0-0_計極細
  6
CONTINUOUS
 62
    2
 10
409.01795824097343
 20
574.40583080108115
 11
409.01795824097343
 21
568.8058308010817
  0
LINE
  8
_0-0_計極細
  6
CONTINUOUS
 62
    2
 10
396.01795824097337
 20
591.40583080108206
 11
396.01795824097337
 21
585.8058308010817
  0
LINE
  8
_0-0_計極細
  6
CONTINUOUS
 62
    2
 10
409.01795824097343
 20
591.40583080108206
 11
409.01795824097343
 21
585.8058308010817
  0
LINE
  8
_0-0_計極細
  6
CONTINUOUS
 62
    2
 10
396.01795824097337
 20
608.40583080108206
 11
396.01795824097337
 21
602.80583080108261
  0
LINE
  8
_0-0_計極細
  6
CONTINUOUS
 62
    2
 10
409.01795824097343
 20
608.40583080108206
 11
409.01795824097343
 21
602.80583080108261
  0
LINE
  8
_0-0_計極細
  6
CONTINUOUS
 62
    2
 10
396.01795824097337
 20
693.20583080108133
 11
396.01795824097337
 21
687.8058308010817
  0
LINE
  8
_0-0_計極細
  6
CONTINUOUS
 62
    2
 10
409.01795824097343
 20
693.20583080108133
 11
409.01795824097343
 21
687.8058308010817
  0
LINE
  8
_0-0_計極細
  6
CONTINUOUS
 62
    2
 10
396.01795824097337
 20
416.00583080108242
 11
396.01795824097337
 21
421.40583080108206
  0
LINE
  8
_0-0_計極細
  6
CONTINUOUS
 62
    2
 10
409.01795824097343
 20
416.00583080108242
 11
409.01795824097343
 21
421.40583080108206
  0
LINE
  8
_0-0_計極細
  6
CENTER1
 62
    2
 10
402.51795824097343
 20
713.35655022554363
 11
402.51795824097343
 21
396.84800706007024
  0
LINE
  8
_0-0_計極細
  6
CONTINUOUS
 62
    2
 10
396.01795824097337
 20
625.40583080108206
 11
396.01795824097337
 21
619.80583080108181
  0
LINE
  8
_0-0_計極細
  6
CONTINUOUS
 62
    2
 10
409.01795824097343
 20
625.40583080108206
 11
409.01795824097343
 21
619.80583080108181
  0
LINE
  8
_0-0_計極細
  6
CONTINUOUS
 62
    2
 10
396.01795824097337
 20
642.40583080108024
 11
396.01795824097337
 21
636.80583080108079
  0
LINE
  8
_0-0_計極細
  6
CONTINUOUS
 62
    2
 10
409.01795824097343
 20
642.40583080108024
 11
409.01795824097343
 21
636.80583080108079
  0
LINE
  8
_0-0_計極細
  6
CONTINUOUS
 62
    2
 10
396.01795824097337
 20
659.40583080108024
 11
396.01795824097337
 21
653.80583080107999
  0
LINE
  8
_0-0_計極細
  6
CONTINUOUS
 62
    2
 10
409.01795824097343
 20
659.40583080108024
 11
409.01795824097343
 21
653.80583080107999
  0
LINE
  8
_0-0_計極細
  6
CONTINUOUS
 62
    2
 10
396.01795824097337
 20
676.40583080107842
 11
396.01795824097337
 21
670.80583080107897
  0
LINE
  8
_0-0_計極細
  6
CONTINUOUS
 62
    2
 10
409.01795824097343
 20
676.40583080107842
 11
409.01795824097343
 21
670.80583080107897
  0
LINE
  8
_0-0_計極細
  6
CONTINUOUS
 62
    2
 10
396.01795824097337
 20
483.80583080108352
 11
396.01795824097337
 21
489.40583080108297
  0
LINE
  8
_0-0_計極細
  6
CONTINUOUS
 62
    2
 10
409.01795824097343
 20
483.80583080108352
 11
409.01795824097343
 21
489.40583080108297
  0
LINE
  8
_0-0_計極細
  6
CONTINUOUS
 62
    2
 10
396.01795824097337
 20
466.80583080108357
 11
396.01795824097337
 21
472.40583080108394
  0
LINE
  8
_0-0_計極細
  6
CONTINUOUS
 62
    2
 10
409.01795824097343
 20
466.80583080108357
 11
409.01795824097343
 21
472.40583080108394
  0
LINE
  8
_0-0_計極細
  6
CONTINUOUS
 62
    2
 10
396.01795824097337
 20
449.80583080108539
 11
396.01795824097337
 21
455.40583080108485
  0
LINE
  8
_0-0_計極細
  6
CONTINUOUS
 62
    2
 10
409.01795824097343
 20
449.80583080108539
 11
409.01795824097343
 21
455.40583080108485
  0
LINE
  8
_0-0_計極細
  6
CONTINUOUS
 62
    2
 10
396.01795824097337
 20
432.80583080108534
 11
396.01795824097337
 21
438.4058308010857
  0
LINE
  8
_0-0_計極細
  6
CONTINUOUS
 62
    2
 10
409.01795824097343
 20
432.80583080108534
 11
409.01795824097343
 21
438.4058308010857
  0
LINE
  8
_0-0_計極細
  6
CONTINUOUS
 62
    2
 10
396.01795824097337
 20
557.40583080108024
 11
396.01795824097337
 21
556.95583080108327
  0
LINE
  8
_0-0_計極細
  6
CONTINUOUS
 62
    2
 10
396.01795824097337
 20
552.25583080108242
 11
396.01795824097337
 21
551.80583080107999
  0
LINE
  8
_0-0_計極細
  6
CONTINUOUS
 62
    2
 10
409.01795824097343
 20
557.40583080108024
 11
409.01795824097343
 21
556.95583080108327
  0
LINE
  8
_0-0_計極細
  6
CONTINUOUS
 62
    2
 10
409.01795824097343
 20
552.25583080108242
 11
409.01795824097343
 21
551.80583080107999
  0
LINE
  8
_0-0_計極細
  6
CONTINUOUS
 62
    2
 10
488.01795824097337
 20
500.80583080108352
 11
488.01795824097337
 21
506.40583080108394
  0
LINE
  8
_0-0_計極細
  6
CONTINUOUS
 62
    2
 10
501.01795824097337
 20
500.80583080108352
 11
501.01795824097337
 21
506.40583080108394
  0
LINE
  8
_0-0_計極細
  6
CONTINUOUS
 62
    2
 10
488.01795824097337
 20
517.80583080108363
 11
488.01795824097337
 21
523.40583080108388
  0
LINE
  8
_0-0_計極細
  6
CONTINUOUS
 62
    2
 10
501.01795824097337
 20
517.80583080108363
 11
501.01795824097337
 21
523.40583080108388
  0
LINE
  8
_0-0_計極細
  6
CONTINUOUS
 62
    2
 10
488.01795824097337
 20
540.40583080108024
 11
488.01795824097337
 21
534.80583080107988
  0
LINE
  8
_0-0_計極細
  6
CONTINUOUS
 62
    2
 10
501.01795824097337
 20
540.40583080108024
 11
501.01795824097337
 21
534.80583080107988
  0
LINE
  8
_0-0_計極細
  6
CONTINUOUS
 62
    2
 10
488.01795824097337
 20
557.40583080108024
 11
488.01795824097337
 21
551.80583080107999
  0
LINE
  8
_0-0_計極細
  6
CONTINUOUS
 62
    2
 10
501.01795824097337
 20
557.40583080108024
 11
501.01795824097337
 21
551.80583080107999
  0
LINE
  8
_0-0_計極細
  6
CONTINUOUS
 62
    2
 10
488.01795824097337
 20
574.40583080108115
 11
488.01795824097337
 21
568.8058308010817
  0
LINE
  8
_0-0_計極細
  6
CONTINUOUS
 62
    2
 10
501.01795824097337
 20
574.40583080108115
 11
501.01795824097337
 21
568.8058308010817
  0
LINE
  8
_0-0_計極細
  6
CONTINUOUS
 62
    2
 10
488.01795824097337
 20
591.40583080108206
 11
488.01795824097337
 21
585.8058308010817
  0
LINE
  8
_0-0_計極細
  6
CONTINUOUS
 62
    2
 10
501.01795824097337
 20
591.40583080108206
 11
501.01795824097337
 21
585.8058308010817
  0
LINE
  8
_0-0_計極細
  6
CONTINUOUS
 62
    2
 10
488.01795824097337
 20
608.40583080108206
 11
488.01795824097337
 21
602.80583080108261
  0
LINE
  8
_0-0_計極細
  6
CONTINUOUS
 62
    2
 10
501.01795824097337
 20
608.40583080108206
 11
501.01795824097337
 21
602.80583080108261
  0
LINE
  8
_0-0_計極細
  6
CONTINUOUS
 62
    2
 10
488.01795824097337
 20
693.20583080108133
 11
488.01795824097337
 21
687.8058308010817
  0
LINE
  8
_0-0_計極細
  6
CONTINUOUS
 62
    2
 10
501.01795824097337
 20
693.20583080108133
 11
501.01795824097337
 21
687.8058308010817
  0
LINE
  8
_0-0_計極細
  6
CONTINUOUS
 62
    2
 10
488.01795824097337
 20
416.00583080108242
 11
488.01795824097337
 21
421.40583080108206
  0
LINE
  8
_0-0_計極細
  6
CONTINUOUS
 62
    2
 10
501.01795824097337
 20
416.00583080108242
 11
501.01795824097337
 21
421.40583080108206
  0
LINE
  8
_0-0_計極細
  6
CENTER1
 62
    2
 10
494.51795824097337
 20
713.35655022554363
 11
494.51795824097337
 21
396.84800706007024
  0
LINE
  8
_0-0_計極細
  6
CONTINUOUS
 62
    2
 10
488.01795824097337
 20
625.40583080108206
 11
488.01795824097337
 21
619.80583080108181
  0
LINE
  8
_0-0_計極細
  6
CONTINUOUS
 62
    2
 10
501.01795824097337
 20
625.40583080108206
 11
501.01795824097337
 21
619.80583080108181
  0
LINE
  8
_0-0_計極細
  6
CONTINUOUS
 62
    2
 10
488.01795824097337
 20
642.40583080108024
 11
488.01795824097337
 21
636.80583080108079
  0
LINE
  8
_0-0_計極細
  6
CONTINUOUS
 62
    2
 10
501.01795824097337
 20
642.40583080108024
 11
501.01795824097337
 21
636.80583080108079
  0
LINE
  8
_0-0_計極細
  6
CONTINUOUS
 62
    2
 10
488.01795824097337
 20
659.40583080108024
 11
488.01795824097337
 21
653.80583080107999
  0
LINE
  8
_0-0_計極細
  6
CONTINUOUS
 62
    2
 10
501.01795824097337
 20
659.40583080108024
 11
501.01795824097337
 21
653.80583080107999
  0
LINE
  8
_0-0_計極細
  6
CONTINUOUS
 62
    2
 10
488.01795824097337
 20
676.40583080107842
 11
488.01795824097337
 21
670.80583080107897
  0
LINE
  8
_0-0_計極細
  6
CONTINUOUS
 62
    2
 10
501.01795824097337
 20
676.40583080107842
 11
501.01795824097337
 21
670.80583080107897
  0
LINE
  8
_0-0_計極細
  6
CONTINUOUS
 62
    2
 10
488.01795824097337
 20
483.80583080108352
 11
488.01795824097337
 21
489.40583080108297
  0
LINE
  8
_0-0_計極細
  6
CONTINUOUS
 62
    2
 10
501.01795824097337
 20
483.80583080108352
 11
501.01795824097337
 21
489.40583080108297
  0
LINE
  8
_0-0_計極細
  6
CONTINUOUS
 62
    2
 10
488.01795824097337
 20
466.80583080108357
 11
488.01795824097337
 21
472.40583080108394
  0
LINE
  8
_0-0_計極細
  6
CONTINUOUS
 62
    2
 10
501.01795824097337
 20
466.80583080108357
 11
501.01795824097337
 21
472.40583080108394
  0
LINE
  8
_0-0_計極細
  6
CONTINUOUS
 62
    2
 10
488.01795824097337
 20
449.80583080108539
 11
488.01795824097337
 21
455.40583080108485
  0
LINE
  8
_0-0_計極細
  6
CONTINUOUS
 62
    2
 10
501.01795824097337
 20
449.80583080108539
 11
501.01795824097337
 21
455.40583080108485
  0
LINE
  8
_0-0_計極細
  6
CONTINUOUS
 62
    2
 10
488.01795824097337
 20
432.80583080108534
 11
488.01795824097337
 21
438.4058308010857
  0
LINE
  8
_0-0_計極細
  6
CONTINUOUS
 62
    2
 10
501.01795824097337
 20
432.80583080108534
 11
501.01795824097337
 21
438.4058308010857
  0
LINE
  8
_0-0_計極細
  6
CONTINUOUS
 62
    2
 10
585.01795824097348
 20
500.80583080108352
 11
585.01795824097348
 21
506.40583080108394
  0
LINE
  8
_0-0_計極細
  6
CONTINUOUS
 62
    2
 10
598.01795824097337
 20
500.80583080108352
 11
598.01795824097337
 21
506.40583080108394
  0
LINE
  8
_0-0_計極細
  6
CONTINUOUS
 62
    2
 10
585.01795824097348
 20
517.80583080108363
 11
585.01795824097348
 21
523.40583080108388
  0
LINE
  8
_0-0_計極細
  6
CONTINUOUS
 62
    2
 10
598.01795824097337
 20
517.80583080108363
 11
598.01795824097337
 21
523.40583080108388
  0
LINE
  8
_0-0_計極細
  6
CONTINUOUS
 62
    2
 10
585.01795824097348
 20
540.40583080108024
 11
585.01795824097348
 21
534.80583080107988
  0
LINE
  8
_0-0_計極細
  6
CONTINUOUS
 62
    2
 10
598.01795824097337
 20
540.40583080108024
 11
598.01795824097337
 21
534.80583080107988
  0
LINE
  8
_0-0_計極細
  6
CONTINUOUS
 62
    2
 10
585.01795824097348
 20
557.40583080108024
 11
585.01795824097348
 21
551.80583080107999
  0
LINE
  8
_0-0_計極細
  6
CONTINUOUS
 62
    2
 10
598.01795824097337
 20
557.40583080108024
 11
598.01795824097337
 21
551.80583080107999
  0
LINE
  8
_0-0_計極細
  6
CONTINUOUS
 62
    2
 10
585.01795824097348
 20
574.40583080108115
 11
585.01795824097348
 21
568.8058308010817
  0
LINE
  8
_0-0_計極細
  6
CONTINUOUS
 62
    2
 10
598.01795824097337
 20
574.40583080108115
 11
598.01795824097337
 21
568.8058308010817
  0
LINE
  8
_0-0_計極細
  6
CONTINUOUS
 62
    2
 10
585.01795824097348
 20
591.40583080108206
 11
585.01795824097348
 21
585.8058308010817
  0
LINE
  8
_0-0_計極細
  6
CONTINUOUS
 62
    2
 10
598.01795824097337
 20
591.40583080108206
 11
598.01795824097337
 21
585.8058308010817
  0
LINE
  8
_0-0_計極細
  6
CONTINUOUS
 62
    2
 10
585.01795824097348
 20
608.40583080108206
 11
585.01795824097348
 21
602.80583080108261
  0
LINE
  8
_0-0_計極細
  6
CONTINUOUS
 62
    2
 10
598.01795824097337
 20
608.40583080108206
 11
598.01795824097337
 21
602.80583080108261
  0
LINE
  8
_0-0_計極細
  6
CONTINUOUS
 62
    2
 10
585.01795824097348
 20
693.20583080108133
 11
585.01795824097348
 21
687.8058308010817
  0
LINE
  8
_0-0_計極細
  6
CONTINUOUS
 62
    2
 10
598.01795824097337
 20
693.20583080108133
 11
598.01795824097337
 21
687.8058308010817
  0
LINE
  8
_0-0_計極細
  6
CONTINUOUS
 62
    2
 10
585.01795824097348
 20
416.00583080108242
 11
585.01795824097348
 21
421.40583080108206
  0
LINE
  8
_0-0_計極細
  6
CONTINUOUS
 62
    2
 10
598.01795824097337
 20
416.00583080108242
 11
598.01795824097337
 21
421.40583080108206
  0
LINE
  8
_0-0_計極細
  6
CENTER1
 62
    2
 10
591.51795824097337
 20
713.35655022554363
 11
591.51795824097337
 21
396.84800706007024
  0
LINE
  8
_0-0_計極細
  6
CONTINUOUS
 62
    2
 10
585.01795824097348
 20
625.40583080108206
 11
585.01795824097348
 21
619.80583080108181
  0
LINE
  8
_0-0_計極細
  6
CONTINUOUS
 62
    2
 10
598.01795824097337
 20
625.40583080108206
 11
598.01795824097337
 21
619.80583080108181
  0
LINE
  8
_0-0_計極細
  6
CONTINUOUS
 62
    2
 10
585.01795824097348
 20
642.40583080108024
 11
585.01795824097348
 21
636.80583080108079
  0
LINE
  8
_0-0_計極細
  6
CONTINUOUS
 62
    2
 10
598.01795824097337
 20
642.40583080108024
 11
598.01795824097337
 21
636.80583080108079
  0
LINE
  8
_0-0_計極細
  6
CONTINUOUS
 62
    2
 10
585.01795824097348
 20
659.40583080108024
 11
585.01795824097348
 21
653.80583080107999
  0
LINE
  8
_0-0_計極細
  6
CONTINUOUS
 62
    2
 10
598.01795824097337
 20
659.40583080108024
 11
598.01795824097337
 21
653.80583080107999
  0
LINE
  8
_0-0_計極細
  6
CONTINUOUS
 62
    2
 10
585.01795824097348
 20
676.40583080107842
 11
585.01795824097348
 21
670.80583080107897
  0
LINE
  8
_0-0_計極細
  6
CONTINUOUS
 62
    2
 10
598.01795824097337
 20
676.40583080107842
 11
598.01795824097337
 21
670.80583080107897
  0
LINE
  8
_0-0_計極細
  6
CONTINUOUS
 62
    2
 10
585.01795824097348
 20
483.80583080108352
 11
585.01795824097348
 21
489.40583080108297
  0
LINE
  8
_0-0_計極細
  6
CONTINUOUS
 62
    2
 10
598.01795824097337
 20
483.80583080108352
 11
598.01795824097337
 21
489.40583080108297
  0
LINE
  8
_0-0_計極細
  6
CONTINUOUS
 62
    2
 10
585.01795824097348
 20
466.80583080108357
 11
585.01795824097348
 21
472.40583080108394
  0
LINE
  8
_0-0_計極細
  6
CONTINUOUS
 62
    2
 10
598.01795824097337
 20
466.80583080108357
 11
598.01795824097337
 21
472.40583080108394
  0
LINE
  8
_0-0_計極細
  6
CONTINUOUS
 62
    2
 10
585.01795824097348
 20
449.80583080108539
 11
585.01795824097348
 21
455.40583080108485
  0
LINE
  8
_0-0_計極細
  6
CONTINUOUS
 62
    2
 10
598.01795824097337
 20
449.80583080108539
 11
598.01795824097337
 21
455.40583080108485
  0
LINE
  8
_0-0_計極細
  6
CONTINUOUS
 62
    2
 10
585.01795824097348
 20
432.80583080108534
 11
585.01795824097348
 21
438.4058308010857
  0
LINE
  8
_0-0_計極細
  6
CONTINUOUS
 62
    2
 10
598.01795824097337
 20
432.80583080108534
 11
598.01795824097337
 21
438.4058308010857
  0
LINE
  8
_0-1_計細線
  6
CONTINUOUS
 62
    3
 10
598.51795824097337
 20
568.8058308010817
 11
598.51795824097337
 21
557.40583080108024
  0
LINE
  8
_0-1_計細線
  6
CONTINUOUS
 62
    3
 10
598.51795824097337
 20
551.80583080107999
 11
598.51795824097337
 21
540.40583080108024
  0
LINE
  8
_0-1_計細線
  6
CONTINUOUS
 62
    3
 10
298.51795824097337
 20
489.40583080108212
 11
598.51795824097337
 21
489.40583080108212
  0
LINE
  8
_0-1_計細線
  6
CONTINUOUS
 62
    3
 10
298.51795824097337
 20
500.80583080108352
 11
598.51795824097337
 21
500.80583080108352
  0
LINE
  8
_0-1_計細線
  6
CONTINUOUS
 62
    3
 10
298.51795824097337
 20
489.40583080108212
 11
298.51795824097337
 21
500.80583080108352
  0
LINE
  8
_0-1_計細線
  6
CONTINUOUS
 62
    3
 10
598.51795824097337
 20
489.40583080108212
 11
598.51795824097337
 21
500.80583080108352
  0
LINE
  8
_0-0_計極細
  6
CONTINUOUS
 62
    2
 10
298.51795824097337
 20
497.60583080108285
 11
598.51795824097337
 21
497.60583080108285
  0
LINE
  8
_0-0_計極細
  6
CONTINUOUS
 62
    2
 10
298.51795824097337
 20
492.60583080108285
 11
598.51795824097337
 21
492.60583080108285
  0
LINE
  8
_0-1_計細線
  6
CONTINUOUS
 62
    3
 10
298.51795824097337
 20
506.40583080108394
 11
598.51795824097337
 21
506.40583080108394
  0
LINE
  8
_0-1_計細線
  6
CONTINUOUS
 62
    3
 10
298.51795824097337
 20
517.80583080108363
 11
598.51795824097337
 21
517.80583080108363
  0
LINE
  8
_0-1_計細線
  6
CONTINUOUS
 62
    3
 10
298.51795824097337
 20
506.40583080108394
 11
298.51795824097337
 21
517.80583080108363
  0
LINE
  8
_0-1_計細線
  6
CONTINUOUS
 62
    3
 10
598.51795824097337
 20
506.40583080108394
 11
598.51795824097337
 21
517.80583080108363
  0
LINE
  8
_0-0_計極細
  6
CONTINUOUS
 62
    2
 10
298.51795824097337
 20
514.60583080108279
 11
598.51795824097337
 21
514.60583080108279
  0
LINE
  8
_0-0_計極細
  6
CONTINUOUS
 62
    2
 10
298.51795824097337
 20
509.60583080108279
 11
598.51795824097337
 21
509.60583080108279
  0
LINE
  8
_0-1_計細線
  6
CONTINUOUS
 62
    3
 10
298.51795824097337
 20
523.40583080108388
 11
598.51795824097337
 21
523.40583080108388
  0
LINE
  8
_0-1_計細線
  6
CONTINUOUS
 62
    3
 10
298.51795824097337
 20
534.80583080108443
 11
598.51795824097337
 21
534.80583080108443
  0
LINE
  8
_0-1_計細線
  6
CONTINUOUS
 62
    3
 10
298.51795824097337
 20
523.40583080108388
 11
298.51795824097337
 21
534.80583080108443
  0
LINE
  8
_0-1_計細線
  6
CONTINUOUS
 62
    3
 10
598.51795824097337
 20
523.40583080108388
 11
598.51795824097337
 21
534.80583080108443
  0
LINE
  8
_0-0_計極細
  6
CONTINUOUS
 62
    2
 10
298.51795824097337
 20
531.60583080108472
 11
598.51795824097337
 21
531.60583080108472
  0
LINE
  8
_0-0_計極細
  6
CONTINUOUS
 62
    2
 10
298.51795824097337
 20
526.60583080108472
 11
598.51795824097337
 21
526.60583080108472
  0
LINE
  8
_0-1_計細線
  6
CONTINUOUS
 62
    3
 10
298.51795824097337
 20
619.80583080108181
 11
598.51795824097337
 21
619.80583080108181
  0
LINE
  8
_0-1_計細線
  6
CONTINUOUS
 62
    3
 10
298.51795824097337
 20
608.40583080108115
 11
598.51795824097337
 21
608.40583080108115
  0
LINE
  8
_0-1_計細線
  6
CONTINUOUS
 62
    3
 10
298.51795824097337
 20
619.80583080108181
 11
298.51795824097337
 21
608.40583080108115
  0
LINE
  8
_0-1_計細線
  6
CONTINUOUS
 62
    3
 10
598.51795824097337
 20
619.80583080108181
 11
598.51795824097337
 21
608.40583080108115
  0
LINE
  8
_0-0_計極細
  6
CONTINUOUS
 62
    2
 10
298.51795824097337
 20
611.60583080108097
 11
598.51795824097337
 21
611.60583080108097
  0
LINE
  8
_0-0_計極細
  6
CONTINUOUS
 62
    2
 10
298.51795824097337
 20
616.60583080108097
 11
598.51795824097337
 21
616.60583080108097
  0
LINE
  8
_0-1_計細線
  6
CONTINUOUS
 62
    3
 10
298.51795824097337
 20
585.8058308010817
 11
598.51795824097337
 21
585.8058308010817
  0
LINE
  8
_0-1_計細線
  6
CONTINUOUS
 62
    3
 10
298.51795824097337
 20
574.40583080108115
 11
598.51795824097337
 21
574.40583080108115
  0
LINE
  8
_0-1_計細線
  6
CONTINUOUS
 62
    3
 10
298.51795824097337
 20
585.8058308010817
 11
298.51795824097337
 21
574.40583080108115
  0
LINE
  8
_0-1_計細線
  6
CONTINUOUS
 62
    3
 10
598.51795824097337
 20
585.8058308010817
 11
598.51795824097337
 21
574.40583080108115
  0
LINE
  8
_0-0_計極細
  6
CONTINUOUS
 62
    2
 10
298.51795824097337
 20
577.60583080108097
 11
598.51795824097337
 21
577.60583080108097
  0
LINE
  8
_0-0_計極細
  6
CONTINUOUS
 62
    2
 10
298.51795824097337
 20
582.60583080108097
 11
598.51795824097337
 21
582.60583080108097
  0
LINE
  8
_0-1_計細線
  6
CONTINUOUS
 62
    3
 10
298.51795824097337
 20
602.80583080108261
 11
598.51795824097337
 21
602.80583080108261
  0
LINE
  8
_0-1_計細線
  6
CONTINUOUS
 62
    3
 10
298.51795824097337
 20
591.40583080108206
 11
598.51795824097337
 21
591.40583080108206
  0
LINE
  8
_0-1_計細線
  6
CONTINUOUS
 62
    3
 10
298.51795824097337
 20
602.80583080108261
 11
298.51795824097337
 21
591.40583080108206
  0
LINE
  8
_0-1_計細線
  6
CONTINUOUS
 62
    3
 10
598.51795824097337
 20
602.80583080108261
 11
598.51795824097337
 21
591.40583080108206
  0
LINE
  8
_0-0_計極細
  6
CONTINUOUS
 62
    2
 10
298.51795824097337
 20
594.60583080108279
 11
598.51795824097337
 21
594.60583080108279
  0
LINE
  8
_0-0_計極細
  6
CONTINUOUS
 62
    2
 10
298.51795824097337
 20
599.60583080108279
 11
598.51795824097337
 21
599.60583080108279
  0
LINE
  8
_0-1_計細線
  6
CONTINUOUS
 62
    3
 10
298.51795824097337
 20
687.8058308010817
 11
598.51795824097337
 21
687.8058308010817
  0
LINE
  8
_0-1_計細線
  6
CONTINUOUS
 62
    3
 10
298.51795824097337
 20
676.40583080108217
 11
598.51795824097337
 21
676.40583080108217
  0
LINE
  8
_0-1_計細線
  6
CONTINUOUS
 62
    3
 10
298.51795824097337
 20
687.8058308010817
 11
298.51795824097337
 21
676.40583080108217
  0
LINE
  8
_0-1_計細線
  6
CONTINUOUS
 62
    3
 10
598.51795824097337
 20
687.8058308010817
 11
598.51795824097337
 21
676.40583080108217
  0
LINE
  8
_0-0_計極細
  6
CONTINUOUS
 62
    2
 10
298.51795824097337
 20
679.60583080108279
 11
598.51795824097337
 21
679.60583080108279
  0
LINE
  8
_0-0_計極細
  6
CONTINUOUS
 62
    2
 10
298.51795824097337
 20
684.60583080108279
 11
598.51795824097337
 21
684.60583080108279
  0
LINE
  8
_0-1_計細線
  6
CONTINUOUS
 62
    3
 10
298.51795824097337
 20
421.40583080108206
 11
598.51795824097337
 21
421.40583080108206
  0
LINE
  8
_0-1_計細線
  6
CONTINUOUS
 62
    3
 10
298.51795824097337
 20
432.8058308010817
 11
598.51795824097337
 21
432.8058308010817
  0
LINE
  8
_0-1_計細線
  6
CONTINUOUS
 62
    3
 10
298.51795824097337
 20
421.40583080108206
 11
298.51795824097337
 21
432.8058308010817
  0
LINE
  8
_0-1_計細線
  6
CONTINUOUS
 62
    3
 10
598.51795824097337
 20
421.40583080108206
 11
598.51795824097337
 21
432.8058308010817
  0
LINE
  8
_0-0_計極細
  6
CONTINUOUS
 62
    2
 10
298.51795824097337
 20
429.60583080108279
 11
598.51795824097337
 21
429.60583080108279
  0
LINE
  8
_0-0_計極細
  6
CONTINUOUS
 62
    2
 10
298.51795824097337
 20
424.60583080108279
 11
598.51795824097337
 21
424.60583080108279
  0
LINE
  8
_0-1_計細線
  6
CONTINUOUS
 62
    3
 10
298.51795824097337
 20
704.60583080108279
 11
598.51795824097337
 21
704.60583080108279
  0
LINE
  8
_0-1_計細線
  6
CONTINUOUS
 62
    3
 10
298.51795824097337
 20
693.20583080108133
 11
598.51795824097337
 21
693.20583080108133
  0
LINE
  8
_0-1_計細線
  6
CONTINUOUS
 62
    3
 10
298.51795824097337
 20
704.60583080108279
 11
298.51795824097337
 21
693.20583080108133
  0
LINE
  8
_0-1_計細線
  6
CONTINUOUS
 62
    3
 10
598.51795824097337
 20
704.60583080108279
 11
598.51795824097337
 21
693.20583080108133
  0
LINE
  8
_0-0_計極細
  6
CONTINUOUS
 62
    2
 10
298.51795824097337
 20
696.40583080108217
 11
598.51795824097337
 21
696.40583080108217
  0
LINE
  8
_0-0_計極細
  6
CONTINUOUS
 62
    2
 10
298.51795824097337
 20
701.40583080108217
 11
598.51795824097337
 21
701.40583080108217
  0
LINE
  8
_0-1_計細線
  6
CONTINUOUS
 62
    3
 10
298.51795824097337
 20
404.60583080108279
 11
598.51795824097337
 21
404.60583080108279
  0
LINE
  8
_0-1_計細線
  6
CONTINUOUS
 62
    3
 10
298.51795824097337
 20
416.00583080108333
 11
598.51795824097337
 21
416.00583080108333
  0
LINE
  8
_0-1_計細線
  6
CONTINUOUS
 62
    3
 10
298.51795824097337
 20
404.60583080108279
 11
298.51795824097337
 21
416.00583080108333
  0
LINE
  8
_0-1_計細線
  6
CONTINUOUS
 62
    3
 10
598.51795824097337
 20
404.60583080108279
 11
598.51795824097337
 21
416.00583080108333
  0
LINE
  8
_0-0_計極細
  6
CONTINUOUS
 62
    2
 10
298.51795824097337
 20
412.80583080108357
 11
598.51795824097337
 21
412.80583080108357
  0
LINE
  8
_0-0_計極細
  6
CONTINUOUS
 62
    2
 10
298.51795824097337
 20
407.80583080108357
 11
598.51795824097337
 21
407.80583080108357
  0
LINE
  8
_0-1_計細線
  6
CONTINUOUS
 62
    3
 10
298.51795824097337
 20
636.80583080108079
 11
598.51795824097337
 21
636.80583080108079
  0
LINE
  8
_0-1_計細線
  6
CONTINUOUS
 62
    3
 10
298.51795824097337
 20
625.40583080108024
 11
598.51795824097337
 21
625.40583080108024
  0
LINE
  8
_0-1_計細線
  6
CONTINUOUS
 62
    3
 10
298.51795824097337
 20
636.80583080108079
 11
298.51795824097337
 21
625.40583080108024
  0
LINE
  8
_0-1_計細線
  6
CONTINUOUS
 62
    3
 10
598.51795824097337
 20
636.80583080108079
 11
598.51795824097337
 21
625.40583080108024
  0
LINE
  8
_0-0_計極細
  6
CONTINUOUS
 62
    2
 10
298.51795824097337
 20
628.60583080108097
 11
598.51795824097337
 21
628.60583080108097
  0
LINE
  8
_0-0_計極細
  6
CONTINUOUS
 62
    2
 10
298.51795824097337
 20
633.60583080108097
 11
598.51795824097337
 21
633.60583080108097
  0
LINE
  8
_0-1_計細線
  6
CONTINUOUS
 62
    3
 10
298.51795824097337
 20
653.80583080107999
 11
598.51795824097337
 21
653.80583080107999
  0
LINE
  8
_0-1_計細線
  6
CONTINUOUS
 62
    3
 10
298.51795824097337
 20
642.40583080107945
 11
598.51795824097337
 21
642.40583080107945
  0
LINE
  8
_0-1_計細線
  6
CONTINUOUS
 62
    3
 10
298.51795824097337
 20
653.80583080107999
 11
298.51795824097337
 21
642.40583080107945
  0
LINE
  8
_0-1_計細線
  6
CONTINUOUS
 62
    3
 10
598.51795824097337
 20
653.80583080107999
 11
598.51795824097337
 21
642.40583080107945
  0
LINE
  8
_0-0_計極細
  6
CONTINUOUS
 62
    2
 10
298.51795824097337
 20
645.60583080107915
 11
598.51795824097337
 21
645.60583080107915
  0
LINE
  8
_0-0_計極細
  6
CONTINUOUS
 62
    2
 10
298.51795824097337
 20
650.60583080107915
 11
598.51795824097337
 21
650.60583080107915
  0
LINE
  8
_0-1_計細線
  6
CONTINUOUS
 62
    3
 10
298.51795824097337
 20
670.80583080107897
 11
598.51795824097337
 21
670.80583080107897
  0
LINE
  8
_0-1_計細線
  6
CONTINUOUS
 62
    3
 10
298.51795824097337
 20
659.40583080107842
 11
598.51795824097337
 21
659.40583080107842
  0
LINE
  8
_0-1_計細線
  6
CONTINUOUS
 62
    3
 10
298.51795824097337
 20
670.80583080107897
 11
298.51795824097337
 21
659.40583080107842
  0
LINE
  8
_0-1_計細線
  6
CONTINUOUS
 62
    3
 10
598.51795824097337
 20
670.80583080107897
 11
598.51795824097337
 21
659.40583080107842
  0
LINE
  8
_0-0_計極細
  6
CONTINUOUS
 62
    2
 10
298.51795824097337
 20
662.60583080107926
 11
598.51795824097337
 21
662.60583080107926
  0
LINE
  8
_0-0_計極細
  6
CONTINUOUS
 62
    2
 10
298.51795824097337
 20
667.60583080107926
 11
598.51795824097337
 21
667.60583080107926
  0
LINE
  8
_0-1_計細線
  6
CONTINUOUS
 62
    3
 10
298.51795824097337
 20
472.40583080108394
 11
598.51795824097337
 21
472.40583080108394
  0
LINE
  8
_0-1_計細線
  6
CONTINUOUS
 62
    3
 10
298.51795824097337
 20
483.80583080108443
 11
598.51795824097337
 21
483.80583080108443
  0
LINE
  8
_0-1_計細線
  6
CONTINUOUS
 62
    3
 10
298.51795824097337
 20
472.40583080108394
 11
298.51795824097337
 21
483.80583080108443
  0
LINE
  8
_0-1_計細線
  6
CONTINUOUS
 62
    3
 10
598.51795824097337
 20
472.40583080108394
 11
598.51795824097337
 21
483.80583080108443
  0
LINE
  8
_0-0_計極細
  6
CONTINUOUS
 62
    2
 10
298.51795824097337
 20
480.60583080108466
 11
598.51795824097337
 21
480.60583080108466
  0
LINE
  8
_0-0_計極細
  6
CONTINUOUS
 62
    2
 10
298.51795824097337
 20
475.60583080108466
 11
598.51795824097337
 21
475.60583080108466
  0
LINE
  8
_0-1_計細線
  6
CONTINUOUS
 62
    3
 10
298.51795824097337
 20
455.40583080108485
 11
598.51795824097337
 21
455.40583080108485
  0
LINE
  8
_0-1_計細線
  6
CONTINUOUS
 62
    3
 10
298.51795824097337
 20
466.80583080108534
 11
598.51795824097337
 21
466.80583080108534
  0
LINE
  8
_0-1_計細線
  6
CONTINUOUS
 62
    3
 10
298.51795824097337
 20
455.40583080108485
 11
298.51795824097337
 21
466.80583080108534
  0
LINE
  8
_0-1_計細線
  6
CONTINUOUS
 62
    3
 10
598.51795824097337
 20
455.40583080108485
 11
598.51795824097337
 21
466.80583080108534
  0
LINE
  8
_0-0_計極細
  6
CONTINUOUS
 62
    2
 10
298.51795824097337
 20
463.60583080108461
 11
598.51795824097337
 21
463.60583080108461
  0
LINE
  8
_0-0_計極細
  6
CONTINUOUS
 62
    2
 10
298.51795824097337
 20
458.60583080108461
 11
598.51795824097337
 21
458.60583080108461
  0
LINE
  8
_0-1_計細線
  6
CONTINUOUS
 62
    3
 10
298.51795824097337
 20
438.4058308010857
 11
598.51795824097337
 21
438.4058308010857
  0
LINE
  8
_0-1_計細線
  6
CONTINUOUS
 62
    3
 10
298.51795824097337
 20
449.8058308010863
 11
598.51795824097337
 21
449.8058308010863
  0
LINE
  8
_0-1_計細線
  6
CONTINUOUS
 62
    3
 10
298.51795824097337
 20
438.4058308010857
 11
298.51795824097337
 21
449.8058308010863
  0
LINE
  8
_0-1_計細線
  6
CONTINUOUS
 62
    3
 10
598.51795824097337
 20
438.4058308010857
 11
598.51795824097337
 21
449.8058308010863
  0
LINE
  8
_0-0_計極細
  6
CONTINUOUS
 62
    2
 10
298.51795824097337
 20
446.60583080108643
 11
598.51795824097337
 21
446.60583080108643
  0
LINE
  8
_0-0_計極細
  6
CONTINUOUS
 62
    2
 10
298.51795824097337
 20
441.60583080108643
 11
598.51795824097337
 21
441.60583080108643
  0
LINE
  8
_0-1_計細線
  6
CONTINUOUS
 62
    3
 10
298.51795824097337
 20
568.8058308010817
 11
598.51795824097337
 21
568.8058308010817
  0
LINE
  8
_0-0_計極細
  6
CONTINUOUS
 62
    2
 10
298.51795824097337
 20
560.60583080108108
 11
598.51795824097337
 21
560.60583080108108
  0
LINE
  8
_0-0_計極細
  6
CONTINUOUS
 62
    2
 10
298.51795824097337
 20
565.60583080108108
 11
598.51795824097337
 21
565.60583080108108
  0
LINE
  8
_0-1_計細線
  6
CONTINUOUS
 62
    3
 10
298.51795824097337
 20
540.40583080108024
 11
598.51795824097337
 21
540.40583080108024
  0
LINE
  8
_0-0_計極細
  6
CONTINUOUS
 62
    2
 10
298.51795824097337
 20
543.60583080108006
 11
598.51795824097337
 21
543.60583080108006
  0
LINE
  8
_0-0_計極細
  6
CONTINUOUS
 62
    2
 10
298.51795824097337
 20
548.60583080108006
 11
598.51795824097337
 21
548.60583080108006
  0
LINE
  8
_0-1_計細線
  6
CONTINUOUS
 62
    3
 10
298.51795824097337
 20
557.40583080108024
 11
598.51795824097337
 21
557.40583080108024
  0
LINE
  8
_0-1_計細線
  6
CONTINUOUS
 62
    3
 10
298.51795824097337
 20
551.80583080107999
 11
598.51795824097337
 21
551.80583080107999
  0
LINE
  8
_0-0_計極細
  6
CENTER2
 62
    2
 10
276.7200100230699
 20
554.60583080108279
 11
629.09453861186171
 21
554.60583080108279
  0
TEXT
  8
_0-5_寸法線
 62
    7
 10
170.07513345690654
 20
760.77290917875348
 40
15
 41
0.8000000000000001
 50
0
  1
(標準付属)
  0
TEXT
  8
_0-7_枠細線
 62
    5
 10
173.26828089237736
 20
794.71156294066475
 40
12.5
 41
0.8
 50
0
  1
２
  0
LINE
  8
_0-7_枠細線
  6
CONTINUOUS
 62
    5
 10
185.90312962422928
 20
795.01856518604518
 11
178.40312962422928
 21
810.01856518604518
  0
LINE
  8
_0-7_枠細線
  6
CONTINUOUS
 62
    5
 10
170.90312962422928
 20
795.01856518604518
 11
185.90312962422928
 21
795.01856518604518
  0
LINE
  8
_0-7_枠細線
  6
CONTINUOUS
 62
    5
 10
178.40312962422928
 20
810.01856518604518
 11
170.90312962422928
 21
795.01856518604518
  0
TEXT
  8
_0-7_枠細線
 62
    5
 10
192.16017472025356
 20
794.41842021859884
 40
12.5
 41
0.8
 50
0
  1
３
  0
LINE
  8
_0-7_枠細線
  6
CONTINUOUS
 62
    5
 10
197.29502345210548
 20
809.9661041087802
 11
189.79502345210548
 21
794.9661041087802
  0
LINE
  8
_0-7_枠細線
  6
CONTINUOUS
 62
    5
 10
189.79502345210548
 20
794.9661041087802
 11
204.79502345210548
 21
794.9661041087802
  0
LINE
  8
_0-7_枠細線
  6
CONTINUOUS
 62
    5
 10
204.79502345210548
 20
794.9661041087802
 11
197.29502345210548
 21
809.9661041087802
  0
LINE
  8
_0-5_寸法線
  6
CONTINUOUS
 62
    7
 10
408.00274603586581
 20
554.60583080108279
 11
400.02340249007807
 21
560.63327441992283
  0
LINE
  8
_0-5_寸法線
  6
CONTINUOUS
 62
    7
 10
408.00274603586581
 20
554.60583080108279
 11
404.10615362911022
 21
563.81542186777051
  0
LINE
  8
_0-5_寸法線
  6
CONTINUOUS
 62
    7
 10
408.00274603586581
 20
554.60583080108279
 11
233.98321839807272
 21
777.87594518801723
  0
LINE
  8
_0-5_寸法線
  6
CONTINUOUS
 62
    7
 10
233.98321839807272
 20
777.87594518801723
 11
173.98321839807272
 21
777.87594518801723
  0
TEXT
  8
_0-5_寸法線
 62
    7
 10
173.98321839807272
 20
777.87594518801723
 40
15
 41
0.8000000000000001
 50
0
  1
取　外　具
  0
LINE
  8
_0-d_寸法3
  6
CONTINUOUS
 62
    7
 10
451.63992445384292
 20
268.36412902531367
 11
451.63992445384292
 21
310.03079569198019
  0
LINE
  8
_0-d_寸法3
  6
CONTINUOUS
 62
    7
 10
451.63992445384292
 20
305.03079569198019
 11
461.29918271673364
 21
307.61898614300537
  0
LINE
  8
_0-d_寸法3
  6
CONTINUOUS
 62
    7
 10
451.63992445384292
 20
305.03079569198019
 11
461.29918271673364
 21
302.442605240955
  0
LINE
  8
_0-d_寸法3
  6
CONTINUOUS
 62
    7
 10
480.63992445444597
 20
268.36412902531367
 11
480.63992445444597
 21
310.03079569198019
  0
LINE
  8
_0-d_寸法3
  6
CONTINUOUS
 62
    7
 10
480.63992445444597
 20
305.03079569198019
 11
470.98066619155526
 21
302.442605240955
  0
LINE
  8
_0-d_寸法3
  6
CONTINUOUS
 62
    7
 10
480.63992445444597
 20
305.03079569198019
 11
470.98066619155531
 21
307.61898614300543
  0
LINE
  8
_0-d_寸法3
  6
CONTINUOUS
 62
    7
 10
451.63992445384292
 20
305.03079569198019
 11
480.63992445444597
 21
305.03079569198019
  0
TEXT
  8
_0-d_寸法3
 62
    7
 10
440.09374654420213
 20
290.03079569198019
 40
15
 41
1
 50
0
  1
(17.4)
  0
LINE
  8
_0-d_寸法3
  6
CONTINUOUS
 62
    7
 10
480.63992445444597
 20
305.03079569198019
 11
490.29918271733663
 21
307.61898614300537
  0
LINE
  8
_0-d_寸法3
  6
CONTINUOUS
 62
    7
 10
480.63992445444597
 20
305.03079569198019
 11
490.29918271733663
 21
302.44260524095495
  0
LINE
  8
_0-d_寸法3
  6
CONTINUOUS
 62
    7
 10
509.63992445504891
 20
268.36412902531367
 11
509.63992445504891
 21
310.03079569198019
  0
LINE
  8
_0-d_寸法3
  6
CONTINUOUS
 62
    7
 10
509.63992445504891
 20
305.03079569198019
 11
499.9806661921582
 21
302.442605240955
  0
LINE
  8
_0-d_寸法3
  6
CONTINUOUS
 62
    7
 10
509.63992445504891
 20
305.03079569198019
 11
499.98066619215825
 21
307.61898614300543
  0
LINE
  8
_0-d_寸法3
  6
CONTINUOUS
 62
    7
 10
480.63992445444597
 20
305.03079569198019
 11
509.63992445504891
 21
305.03079569198019
  0
TEXT
  8
_0-d_寸法3
 62
    7
 10
477.16041321086828
 20
305.03079569198019
 40
15
 41
1
 50
0
  1
(17.4)
  0
ARC
  8
_0-a_極細3
  6
CONTINUOUS
 62
    7
 10
540.46932777957909
 20
246.85084653362867
 40
17.558839598481345
 50
150.03871396148165
 51
205.23810402387883
  0
ARC
  8
_0-a_極細3
  6
CONTINUOUS
 62
    7
 10
508.70385258968099
 20
231.87733732099801
 40
17.558839598481345
 50
330.03871396148202
 51
25.238104023878222
  0
ARC
  8
_0-a_極細3
  6
CONTINUOUS
 62
    7
 10
395.54951234124525
 20
246.85084653362867
 40
17.558839598481345
 50
150.03871396148165
 51
205.23810402387883
  0
ARC
  8
_0-a_極細3
  6
CONTINUOUS
 62
    7
 10
363.78403715134709
 20
231.87733732099801
 40
17.558839598481345
 50
330.03871396148202
 51
25.238104023878222
  0
LINE
  8
_0-a_極細3
  6
CENTER1
 62
    7
 10
530.43869144413884
 20
239.69746235864693
 11
367.86014881621304
 21
239.69746235864693
  0
LINE
  8
_0-b_細線3
  6
CONTINUOUS
 62
    7
 10
454.47325778809591
 20
228.86412902531367
 11
477.80659112142939
 21
228.86412902531367
  0
LINE
  8
_0-b_細線3
  6
CONTINUOUS
 62
    7
 10
483.47325778869896
 20
228.86412902531367
 11
506.80659112203244
 21
228.86412902531367
  0
LINE
  8
_0-b_細線3
  6
CONTINUOUS
 62
    7
 10
396.47325778657296
 20
228.86412902531367
 11
419.80659111990644
 21
228.86412902531367
  0
LINE
  8
_0-b_細線3
  6
CONTINUOUS
 62
    7
 10
425.47325778717641
 20
228.86412902531367
 11
448.80659112050949
 21
228.86412902531367
  0
LINE
  8
_0-b_細線3
  6
CONTINUOUS
 62
    7
 10
454.47325778809591
 20
250.53079569198033
 11
477.80659112142939
 21
250.53079569198033
  0
LINE
  8
_0-b_細線3
  6
CONTINUOUS
 62
    7
 10
483.47325778869896
 20
250.53079569198033
 11
506.80659112203244
 21
250.53079569198033
  0
LINE
  8
_0-b_細線3
  6
CONTINUOUS
 62
    7
 10
396.47325778657296
 20
250.53079569198033
 11
419.80659111990644
 21
250.53079569198033
  0
LINE
  8
_0-b_細線3
  6
CONTINUOUS
 62
    7
 10
425.47325778717641
 20
250.53079569198033
 11
448.80659112050949
 21
250.53079569198033
  0
LINE
  8
_0-b_細線3
  6
CONTINUOUS
 62
    7
 10
512.4732577893019
 20
250.53079569198033
 11
523.23235418010199
 21
250.53079569198033
  0
LINE
  8
_0-b_細線3
  6
CONTINUOUS
 62
    7
 10
512.4732577893019
 20
228.86412902531367
 11
525.94082618915809
 21
228.86412902531367
  0
LINE
  8
_0-b_細線3
  6
CONTINUOUS
 62
    7
 10
378.31253874176809
 20
250.53079569198033
 11
390.80659111930345
 21
250.53079569198033
  0
LINE
  8
_0-b_細線3
  6
CONTINUOUS
 62
    7
 10
381.02101075082425
 20
228.86412902531367
 11
390.80659111930345
 21
228.86412902531367
  0
TEXT
  8
_0-7_枠細線
 62
    5
 10
417.22469092493753
 20
170.0670836765407
 40
25.000000000000007
 41
0.8
 50
0
  1
断面詳細
  0
TEXT
  8
_0-7_枠細線
 62
    5
 10
521.18718073399953
 20
173.02652349686042
 40
20.000000000000004
 41
0.5999999999999999
 50
0
  1
Ｓ＝１：３
  0
ARC
  8
_0-b_細線3
  6
CONTINUOUS
 62
    7
 10
443.80659112234895
 20
255.03079569198022
 40
1.666666666666667
 50
89.999999999999915
 51
179.99999999999983
  0
ARC
  8
_0-b_細線3
  6
CONTINUOUS
 62
    7
 10
444.58650644122781
 20
258.36412902531367
 40
1.666666666666667
 50
269.99999999999977
 51
330.00000000000301
  0
ARC
  8
_0-b_細線3
  6
CONTINUOUS
 62
    7
 10
447.47325778717595
 20
256.69746235864716
 40
1.666666666666667
 50
89.999999999999915
 51
150.00000000000134
  0
LINE
  8
_0-b_細線3
  6
CONTINUOUS
 62
    7
 10
443.80659112234895
 20
256.69746235864716
 11
444.58650644122781
 21
256.69746235864716
  0
ARC
  8
_0-b_細線3
  6
CONTINUOUS
 62
    7
 10
459.47325778533695
 20
255.03079569198022
 40
1.666666666666667
 50
0
 51
89.999999999999915
  0
ARC
  8
_0-b_細線3
  6
CONTINUOUS
 62
    7
 10
458.69334246645764
 20
258.36412902531367
 40
1.666666666666667
 50
210.00000000000404
 51
269.99999999999977
  0
ARC
  8
_0-b_細線3
  6
CONTINUOUS
 62
    7
 10
455.80659112050944
 20
256.69746235864716
 40
1.666666666666667
 50
29.999999999990862
 51
89.999999999984354
  0
LINE
  8
_0-b_細線3
  6
CONTINUOUS
 62
    7
 10
459.47325778533695
 20
256.69746235864716
 11
458.69334246645764
 21
256.69746235864716
  0
ARC
  8
_0-b_細線3
  6
CONTINUOUS
 62
    7
 10
442.97325778901546
 20
252.69746235864716
 40
0.8333333333333334
 50
179.99999999999983
 51
269.99999999999977
  0
LINE
  8
_0-b_細線3
  6
CONTINUOUS
 62
    7
 10
442.13992445568192
 20
255.03079569198022
 11
442.13992445568192
 21
252.69746235864716
  0
ARC
  8
_0-b_細線3
  6
CONTINUOUS
 62
    7
 10
460.30659111867004
 20
252.69746235864716
 40
0.8333333333333334
 50
269.99999999999977
 51
359.99999999999966
  0
LINE
  8
_0-b_細線3
  6
CONTINUOUS
 62
    7
 10
461.13992445200353
 20
255.03079569198022
 11
461.13992445200353
 21
252.69746235864716
  0
ARC
  8
_0-b_細線3
  6
CONTINUOUS
 62
    7
 10
447.13992445568192
 20
250.19746235864716
 40
1.666666666666667
 50
0
 51
89.999999999999915
  0
LINE
  8
_0-b_細線3
  6
CONTINUOUS
 62
    7
 10
447.13992445568192
 20
251.8641290253137
 11
442.97325778901546
 21
251.8641290253137
  0
ARC
  8
_0-b_細線3
  6
CONTINUOUS
 62
    7
 10
456.13992445568243
 20
250.19746235864716
 40
1.666666666666667
 50
89.999999999999915
 51
179.99999999999983
  0
LINE
  8
_0-b_細線3
  6
CONTINUOUS
 62
    7
 10
456.13992445200353
 20
251.8641290253137
 11
460.30659111867004
 21
251.8641290253137
  0
LINE
  8
_0-b_細線3
  6
CONTINUOUS
 62
    7
 10
455.80659112050944
 20
258.36412902531367
 11
447.47325778717595
 21
258.36412902531367
  0
LINE
  8
_0-b_細線3
  6
CONTINUOUS
 62
    7
 10
448.80659112050949
 20
225.03079569198033
 11
448.80659112234895
 21
250.19746235864716
  0
LINE
  8
_0-b_細線3
  6
CONTINUOUS
 62
    7
 10
454.47325778717595
 20
225.03079569198033
 11
454.47325778901586
 21
250.19746235864716
  0
LINE
  8
_0-b_細線3
  6
CONTINUOUS
 62
    7
 10
454.47325778717595
 20
225.03079569198033
 11
448.80659112050949
 21
225.03079569198033
  0
ARC
  8
_0-b_細線3
  6
CONTINUOUS
 62
    7
 10
472.80659112295189
 20
255.03079569198022
 40
1.666666666666667
 50
89.999999999999915
 51
179.99999999999983
  0
ARC
  8
_0-b_細線3
  6
CONTINUOUS
 62
    7
 10
473.58650644183086
 20
258.36412902531367
 40
1.666666666666667
 50
269.99999999999977
 51
329.99999999999523
  0
ARC
  8
_0-b_細線3
  6
CONTINUOUS
 62
    7
 10
476.47325778777895
 20
256.69746235864716
 40
1.666666666666667
 50
89.999999999999915
 51
150.00000000000915
  0
LINE
  8
_0-b_細線3
  6
CONTINUOUS
 62
    7
 10
472.80659112295189
 20
256.69746235864716
 11
473.58650644183086
 21
256.69746235864716
  0
ARC
  8
_0-b_細線3
  6
CONTINUOUS
 62
    7
 10
488.47325778593995
 20
255.03079569198022
 40
1.666666666666667
 50
0
 51
89.999999999999915
  0
ARC
  8
_0-b_細線3
  6
CONTINUOUS
 62
    7
 10
487.69334246706057
 20
258.36412902531367
 40
1.666666666666667
 50
209.99999999999622
 51
269.99999999999977
  0
ARC
  8
_0-b_細線3
  6
CONTINUOUS
 62
    7
 10
484.80659112111249
 20
256.69746235864716
 40
1.666666666666667
 50
29.999999999998682
 51
89.999999999999915
  0
LINE
  8
_0-b_細線3
  6
CONTINUOUS
 62
    7
 10
488.47325778593995
 20
256.69746235864716
 11
487.69334246706057
 21
256.69746235864716
  0
ARC
  8
_0-b_細線3
  6
CONTINUOUS
 62
    7
 10
471.97325778961891
 20
252.69746235864716
 40
0.8333333333333334
 50
179.99999999999983
 51
269.99999999999977
  0
LINE
  8
_0-b_細線3
  6
CONTINUOUS
 62
    7
 10
471.13992445628497
 20
255.03079569198022
 11
471.13992445628497
 21
252.69746235864716
  0
ARC
  8
_0-b_細線3
  6
CONTINUOUS
 62
    7
 10
489.30659111927298
 20
252.69746235864716
 40
0.8333333333333334
 50
269.99999999999977
 51
359.99999999999966
  0
LINE
  8
_0-b_細線3
  6
CONTINUOUS
 62
    7
 10
490.13992445260646
 20
255.03079569198022
 11
490.13992445260646
 21
252.69746235864716
  0
ARC
  8
_0-b_細線3
  6
CONTINUOUS
 62
    7
 10
476.13992445628497
 20
250.19746235864716
 40
1.666666666666667
 50
0
 51
89.999999999999915
  0
LINE
  8
_0-b_細線3
  6
CONTINUOUS
 62
    7
 10
476.13992445628497
 20
251.8641290253137
 11
471.97325778961891
 21
251.8641290253137
  0
ARC
  8
_0-b_細線3
  6
CONTINUOUS
 62
    7
 10
485.13992445628537
 20
250.19746235864716
 40
1.666666666666667
 50
89.999999999999915
 51
179.99999999999983
  0
LINE
  8
_0-b_細線3
  6
CONTINUOUS
 62
    7
 10
485.13992445260646
 20
251.8641290253137
 11
489.30659111927298
 21
251.8641290253137
  0
LINE
  8
_0-b_細線3
  6
CONTINUOUS
 62
    7
 10
484.80659112111249
 20
258.36412902531367
 11
476.47325778777895
 21
258.36412902531367
  0
LINE
  8
_0-b_細線3
  6
CONTINUOUS
 62
    7
 10
477.80659112111243
 20
225.03079569198033
 11
477.80659112295189
 21
250.19746235864716
  0
LINE
  8
_0-b_細線3
  6
CONTINUOUS
 62
    7
 10
483.473257787779
 20
225.03079569198033
 11
483.47325778961886
 21
250.19746235864716
  0
LINE
  8
_0-b_細線3
  6
CONTINUOUS
 62
    7
 10
483.473257787779
 20
225.03079569198033
 11
477.80659112111243
 21
225.03079569198033
  0
ARC
  8
_0-b_細線3
  6
CONTINUOUS
 62
    7
 10
501.80659112355494
 20
255.03079569198022
 40
1.666666666666667
 50
89.999999999999915
 51
179.99999999999983
  0
ARC
  8
_0-b_細線3
  6
CONTINUOUS
 62
    7
 10
502.5865064424338
 20
258.36412902531367
 40
1.666666666666667
 50
269.99999999999977
 51
329.99999999999523
  0
ARC
  8
_0-b_細線3
  6
CONTINUOUS
 62
    7
 10
505.473257788382
 20
256.69746235864716
 40
1.666666666666667
 50
89.999999999999915
 51
150.00000000000915
  0
LINE
  8
_0-b_細線3
  6
CONTINUOUS
 62
    7
 10
501.80659112355494
 20
256.69746235864716
 11
502.5865064424338
 21
256.69746235864716
  0
ARC
  8
_0-b_細線3
  6
CONTINUOUS
 62
    7
 10
517.47325778654294
 20
255.03079569198022
 40
1.666666666666667
 50
0
 51
89.999999999999915
  0
ARC
  8
_0-b_細線3
  6
CONTINUOUS
 62
    7
 10
516.69334246766357
 20
258.36412902531367
 40
1.666666666666667
 50
210.00000000000404
 51
269.99999999999977
  0
ARC
  8
_0-b_細線3
  6
CONTINUOUS
 62
    7
 10
513.80659112171543
 20
256.69746235864716
 40
1.666666666666667
 50
29.999999999990862
 51
89.999999999984354
  0
LINE
  8
_0-b_細線3
  6
CONTINUOUS
 62
    7
 10
517.47325778654294
 20
256.69746235864716
 11
516.69334246766357
 21
256.69746235864716
  0
ARC
  8
_0-b_細線3
  6
CONTINUOUS
 62
    7
 10
500.9732577902214
 20
252.69746235864716
 40
0.8333333333333334
 50
179.99999999999983
 51
269.99999999999977
  0
LINE
  8
_0-b_細線3
  6
CONTINUOUS
 62
    7
 10
500.13992445688791
 20
255.03079569198022
 11
500.13992445688791
 21
252.69746235864716
  0
ARC
  8
_0-b_細線3
  6
CONTINUOUS
 62
    7
 10
518.30659111987597
 20
252.69746235864716
 40
0.8333333333333334
 50
269.99999999999977
 51
359.99999999999966
  0
LINE
  8
_0-b_細線3
  6
CONTINUOUS
 62
    7
 10
519.13992445320946
 20
255.03079569198022
 11
519.13992445320946
 21
252.69746235864716
  0
ARC
  8
_0-b_細線3
  6
CONTINUOUS
 62
    7
 10
505.13992445688791
 20
250.19746235864716
 40
1.666666666666667
 50
0
 51
89.999999999999915
  0
LINE
  8
_0-b_細線3
  6
CONTINUOUS
 62
    7
 10
505.13992445688791
 20
251.8641290253137
 11
500.9732577902214
 21
251.8641290253137
  0
ARC
  8
_0-b_細線3
  6
CONTINUOUS
 62
    7
 10
514.13992445688791
 20
250.19746235864716
 40
1.666666666666667
 50
89.999999999999915
 51
179.99999999999983
  0
LINE
  8
_0-b_細線3
  6
CONTINUOUS
 62
    7
 10
514.13992445320901
 20
251.8641290253137
 11
518.30659111987597
 21
251.8641290253137
  0
LINE
  8
_0-b_細線3
  6
CONTINUOUS
 62
    7
 10
513.80659112171543
 20
258.36412902531367
 11
505.473257788382
 21
258.36412902531367
  0
LINE
  8
_0-b_細線3
  6
CONTINUOUS
 62
    7
 10
506.80659112171548
 20
225.03079569198033
 11
506.80659112355494
 21
250.19746235864716
  0
LINE
  8
_0-b_細線3
  6
CONTINUOUS
 62
    7
 10
512.47325778838194
 20
225.03079569198033
 11
512.47325779022185
 21
250.19746235864716
  0
LINE
  8
_0-b_細線3
  6
CONTINUOUS
 62
    7
 10
512.47325778838194
 20
225.03079569198033
 11
506.80659112171548
 21
225.03079569198033
  0
ARC
  8
_0-b_細線3
  6
CONTINUOUS
 62
    7
 10
385.806591120826
 20
255.03079569198022
 40
1.666666666666667
 50
89.999999999999915
 51
179.99999999999983
  0
ARC
  8
_0-b_細線3
  6
CONTINUOUS
 62
    7
 10
386.58650643970486
 20
258.36412902531367
 40
1.666666666666667
 50
269.99999999999977
 51
330.00000000000301
  0
ARC
  8
_0-b_細線3
  6
CONTINUOUS
 62
    7
 10
389.473257785653
 20
256.69746235864716
 40
1.666666666666667
 50
89.999999999999915
 51
150.00000000000134
  0
LINE
  8
_0-b_細線3
  6
CONTINUOUS
 62
    7
 10
385.806591120826
 20
256.69746235864716
 11
386.58650643970486
 21
256.69746235864716
  0
ARC
  8
_0-b_細線3
  6
CONTINUOUS
 62
    7
 10
401.47325778381401
 20
255.03079569198022
 40
1.666666666666667
 50
0
 51
89.999999999999915
  0
ARC
  8
_0-b_細線3
  6
CONTINUOUS
 62
    7
 10
400.69334246493509
 20
258.36412902531367
 40
1.666666666666667
 50
209.99999999999622
 51
269.99999999999977
  0
ARC
  8
_0-b_細線3
  6
CONTINUOUS
 62
    7
 10
397.80659111898649
 20
256.69746235864716
 40
1.666666666666667
 50
29.999999999990862
 51
89.999999999984354
  0
LINE
  8
_0-b_細線3
  6
CONTINUOUS
 62
    7
 10
401.47325778381401
 20
256.69746235864716
 11
400.69334246493509
 21
256.69746235864716
  0
ARC
  8
_0-b_細線3
  6
CONTINUOUS
 62
    7
 10
384.97325778749291
 20
252.69746235864716
 40
0.8333333333333334
 50
179.99999999999983
 51
269.99999999999977
  0
LINE
  8
_0-b_細線3
  6
CONTINUOUS
 62
    7
 10
384.13992445415897
 20
255.03079569198022
 11
384.13992445415897
 21
252.69746235864716
  0
ARC
  8
_0-b_細線3
  6
CONTINUOUS
 62
    7
 10
402.30659111714709
 20
252.69746235864716
 40
0.8333333333333334
 50
269.99999999999977
 51
359.99999999999966
  0
LINE
  8
_0-b_細線3
  6
CONTINUOUS
 62
    7
 10
403.13992445048098
 20
255.03079569198022
 11
403.13992445048098
 21
252.69746235864716
  0
ARC
  8
_0-b_細線3
  6
CONTINUOUS
 62
    7
 10
389.13992445415897
 20
250.19746235864716
 40
1.666666666666667
 50
0
 51
89.999999999999915
  0
LINE
  8
_0-b_細線3
  6
CONTINUOUS
 62
    7
 10
389.13992445415897
 20
251.8641290253137
 11
384.97325778749291
 21
251.8641290253137
  0
ARC
  8
_0-b_細線3
  6
CONTINUOUS
 62
    7
 10
398.13992445415948
 20
250.19746235864716
 40
1.666666666666667
 50
89.999999999999915
 51
179.99999999999983
  0
LINE
  8
_0-b_細線3
  6
CONTINUOUS
 62
    7
 10
398.13992445048058
 20
251.8641290253137
 11
402.30659111714709
 21
251.8641290253137
  0
LINE
  8
_0-b_細線3
  6
CONTINUOUS
 62
    7
 10
397.80659111898649
 20
258.36412902531367
 11
389.473257785653
 21
258.36412902531367
  0
LINE
  8
_0-b_細線3
  6
CONTINUOUS
 62
    7
 10
390.80659111898694
 20
225.03079569198033
 11
390.806591120826
 21
250.19746235864716
  0
LINE
  8
_0-b_細線3
  6
CONTINUOUS
 62
    7
 10
396.473257785653
 20
225.03079569198033
 11
396.47325778749291
 21
250.19746235864716
  0
LINE
  8
_0-b_細線3
  6
CONTINUOUS
 62
    7
 10
396.473257785653
 20
225.03079569198033
 11
390.80659111898694
 21
225.03079569198033
  0
ARC
  8
_0-b_細線3
  6
CONTINUOUS
 62
    7
 10
414.80659112142894
 20
255.03079569198022
 40
1.666666666666667
 50
89.999999999999915
 51
179.99999999999983
  0
ARC
  8
_0-b_細線3
  6
CONTINUOUS
 62
    7
 10
415.58650644030831
 20
258.36412902531367
 40
1.666666666666667
 50
269.99999999999977
 51
329.99999999998744
  0
ARC
  8
_0-b_細線3
  6
CONTINUOUS
 62
    7
 10
418.473257786256
 20
256.69746235864716
 40
1.666666666666667
 50
89.999999999999915
 51
150.00000000000915
  0
LINE
  8
_0-b_細線3
  6
CONTINUOUS
 62
    7
 10
414.80659112142894
 20
256.69746235864716
 11
415.58650644030831
 21
256.69746235864716
  0
ARC
  8
_0-b_細線3
  6
CONTINUOUS
 62
    7
 10
430.473257784417
 20
255.03079569198022
 40
1.666666666666667
 50
0
 51
89.999999999999915
  0
ARC
  8
_0-b_細線3
  6
CONTINUOUS
 62
    7
 10
429.69334246553763
 20
258.36412902531367
 40
1.666666666666667
 50
210.00000000000404
 51
269.99999999999977
  0
ARC
  8
_0-b_細線3
  6
CONTINUOUS
 62
    7
 10
426.80659111958994
 20
256.69746235864716
 40
1.666666666666667
 50
29.999999999998682
 51
89.999999999999915
  0
LINE
  8
_0-b_細線3
  6
CONTINUOUS
 62
    7
 10
430.473257784417
 20
256.69746235864716
 11
429.69334246553763
 21
256.69746235864716
  0
ARC
  8
_0-b_細線3
  6
CONTINUOUS
 62
    7
 10
413.97325778809596
 20
252.69746235864716
 40
0.8333333333333334
 50
179.99999999999983
 51
269.99999999999977
  0
LINE
  8
_0-b_細線3
  6
CONTINUOUS
 62
    7
 10
413.13992445476242
 20
255.03079569198022
 11
413.13992445476242
 21
252.69746235864716
  0
ARC
  8
_0-b_細線3
  6
CONTINUOUS
 62
    7
 10
431.30659111775003
 20
252.69746235864716
 40
0.8333333333333334
 50
269.99999999999977
 51
359.99999999999966
  0
LINE
  8
_0-b_細線3
  6
CONTINUOUS
 62
    7
 10
432.13992445108352
 20
255.03079569198022
 11
432.13992445108352
 21
252.69746235864716
  0
ARC
  8
_0-b_細線3
  6
CONTINUOUS
 62
    7
 10
418.13992445476242
 20
250.19746235864716
 40
1.666666666666667
 50
0
 51
89.999999999999915
  0
LINE
  8
_0-b_細線3
  6
CONTINUOUS
 62
    7
 10
418.13992445476242
 20
251.8641290253137
 11
413.97325778809596
 21
251.8641290253137
  0
ARC
  8
_0-b_細線3
  6
CONTINUOUS
 62
    7
 10
427.13992445476242
 20
250.19746235864716
 40
1.666666666666667
 50
89.999999999999915
 51
179.99999999999983
  0
LINE
  8
_0-b_細線3
  6
CONTINUOUS
 62
    7
 10
427.13992445108352
 20
251.8641290253137
 11
431.30659111775003
 21
251.8641290253137
  0
LINE
  8
_0-b_細線3
  6
CONTINUOUS
 62
    7
 10
426.80659111958994
 20
258.36412902531367
 11
418.473257786256
 21
258.36412902531367
  0
LINE
  8
_0-b_細線3
  6
CONTINUOUS
 62
    7
 10
419.80659111958948
 20
225.03079569198033
 11
419.80659112142894
 21
250.19746235864716
  0
LINE
  8
_0-b_細線3
  6
CONTINUOUS
 62
    7
 10
425.47325778625645
 20
225.03079569198033
 11
425.47325778809591
 21
250.19746235864716
  0
LINE
  8
_0-b_細線3
  6
CONTINUOUS
 62
    7
 10
425.47325778625645
 20
225.03079569198033
 11
419.80659111958948
 21
225.03079569198033
  0
LINE
  8
_0-d_寸法3
  6
CONTINUOUS
 62
    7
 10
517.83144489825486
 20
230.76656005549083
 11
553.18378662394036
 21
255.52053622518162
  0
LINE
  8
_0-d_寸法3
  6
CONTINUOUS
 62
    7
 10
549.08802640249542
 20
252.65265404342639
 11
546.49983595147023
 21
262.31191230631703
  0
LINE
  8
_0-d_寸法3
  6
CONTINUOUS
 62
    7
 10
549.08802640249542
 20
252.65265404342639
 11
551.6762168535206
 21
262.31191230631703
  0
LINE
  8
_0-d_寸法3
  6
CONTINUOUS
 62
    7
 10
517.83144489825486
 20
264.09989338882417
 11
553.18378662394036
 21
288.85386955851493
  0
LINE
  8
_0-d_寸法3
  6
CONTINUOUS
 62
    7
 10
549.08802640249542
 20
285.98598737675968
 11
551.6762168535206
 21
276.32672911386896
  0
LINE
  8
_0-d_寸法3
  6
CONTINUOUS
 62
    7
 10
549.08802640249542
 20
285.98598737675968
 11
546.49983595147012
 21
276.32672911386908
  0
LINE
  8
_0-d_寸法3
  6
CONTINUOUS
 62
    7
 10
549.08802640249542
 20
252.65265404342639
 11
549.08802640249542
 21
285.98598737675968
  0
TEXT
  8
_0-d_寸法3
 62
    7
 10
549.08802640249542
 20
261.81932071009402
 40
15
 41
1
 50
90
  1
20
  0
LINE
  8
_0-7_枠細線
  6
CONTINUOUS
 62
    5
 10
614.6230220632176
 20
778.92835803928392
 11
607.1230220632176
 21
763.92835803928392
  0
LINE
  8
_0-7_枠細線
  6
CONTINUOUS
 62
    5
 10
607.1230220632176
 20
763.92835803928392
 11
622.1230220632176
 21
763.92835803928392
  0
LINE
  8
_0-7_枠細線
  6
CONTINUOUS
 62
    5
 10
622.1230220632176
 20
763.92835803928392
 11
614.6230220632176
 21
778.92835803928392
  0
TEXT
  8
_0-7_枠細線
 62
    5
 10
611.98817333136572
 20
763.38067414910256
 40
12.5
 41
0.8
 50
0
  1
1
  0
LINE
  8
_0-5_寸法線
  6
CONTINUOUS
 62
    7
 10
293.51795824097348
 20
719.60583080108279
 11
293.51795824097366
 21
869.60583080108279
  0
LINE
  8
_0-5_寸法線
  6
CONTINUOUS
 62
    7
 10
293.51795824097366
 20
864.60583080108279
 11
303.17721650386432
 21
867.19402125210809
  0
LINE
  8
_0-5_寸法線
  6
CONTINUOUS
 62
    7
 10
293.51795824097366
 20
864.60583080108279
 11
303.17721650386432
 21
862.01764035005772
  0
LINE
  8
_0-5_寸法線
  6
CONTINUOUS
 62
    7
 10
603.51795824097394
 20
719.60583080108279
 11
603.51795824097428
 21
869.60583080108279
  0
LINE
  8
_0-5_寸法線
  6
CONTINUOUS
 62
    7
 10
603.51795824097428
 20
864.60583080108279
 11
593.85869997808356
 21
862.01764035005772
  0
LINE
  8
_0-5_寸法線
  6
CONTINUOUS
 62
    7
 10
603.51795824097428
 20
864.60583080108279
 11
593.85869997808356
 21
867.19402125210809
  0
LINE
  8
_0-5_寸法線
  6
CONTINUOUS
 62
    7
 10
293.51795824097366
 20
864.60583080108279
 11
603.51795824097428
 21
864.60583080108279
  0
TEXT
  8
_0-5_寸法線
 62
    7
 10
437.26795824097383
 20
864.60583080108279
 40
15
 41
1
 50
0
  1
310
  0
LINE
  8
_0-5_寸法線
  6
CONTINUOUS
 62
    7
 10
293.51795824097348
 20
829.60583080108279
 11
283.85869997808277
 21
827.01764035005772
  0
LINE
  8
_0-5_寸法線
  6
CONTINUOUS
 62
    7
 10
293.51795824097348
 20
829.60583080108279
 11
283.85869997808288
 21
832.19402125210809
  0
LINE
  8
_0-5_寸法線
  6
CONTINUOUS
 62
    7
 10
296.51795824097348
 20
719.60583080108279
 11
296.51795824097348
 21
834.60583080108279
  0
LINE
  8
_0-5_寸法線
  6
CONTINUOUS
 62
    7
 10
268.51795824097348
 20
829.60583080108279
 11
296.51795824097348
 21
829.60583080108279
  0
TEXT
  8
_0-5_寸法線
 62
    7
 10
272.41188198170664
 20
829.60583080108279
 40
15
 41
1
 50
0
  1
3
  0
LINE
  8
_0-5_寸法線
  6
CONTINUOUS
 62
    7
 10
296.51795824097348
 20
829.60583080108279
 11
306.1772165038642
 21
832.19402125210809
  0
LINE
  8
_0-5_寸法線
  6
CONTINUOUS
 62
    7
 10
296.51795824097348
 20
829.60583080108279
 11
306.17721650386414
 21
827.01764035005749
  0
LINE
  8
_0-5_寸法線
  6
CONTINUOUS
 62
    7
 10
600.51795824097394
 20
719.60583080108279
 11
600.51795824097428
 21
834.60583080108279
  0
LINE
  8
_0-5_寸法線
  6
CONTINUOUS
 62
    7
 10
600.51795824097428
 20
829.60583080108279
 11
590.85869997808356
 21
827.01764035005772
  0
LINE
  8
_0-5_寸法線
  6
CONTINUOUS
 62
    7
 10
600.51795824097428
 20
829.60583080108279
 11
590.85869997808356
 21
832.19402125210809
  0
LINE
  8
_0-5_寸法線
  6
CONTINUOUS
 62
    7
 10
296.51795824097348
 20
829.60583080108279
 11
600.51795824097428
 21
829.60583080108279
  0
TEXT
  8
_0-5_寸法線
 62
    7
 10
437.26795824097371
 20
829.60583080108279
 40
15
 41
1
 50
0
  1
304
  0
LINE
  8
_0-5_寸法線
  6
CONTINUOUS
 62
    7
 10
603.51795824097428
 20
829.60583080108279
 11
613.177216503865
 21
832.19402125210809
  0
LINE
  8
_0-5_寸法線
  6
CONTINUOUS
 62
    7
 10
603.51795824097428
 20
829.60583080108279
 11
613.177216503865
 21
827.01764035005749
  0
LINE
  8
_0-5_寸法線
  6
CONTINUOUS
 62
    7
 10
600.51795824097428
 20
829.60583080108279
 11
628.51795824097428
 21
829.60583080108279
  0
TEXT
  8
_0-5_寸法線
 62
    7
 10
617.68560460944389
 20
829.60583080108279
 40
15
 41
1
 50
0
  1
3
  0
LINE
  8
_0-5_寸法線
  6
CONTINUOUS
 62
    7
 10
298.51795824097337
 20
719.60583080108279
 11
298.51795824097348
 21
799.60583080108279
  0
LINE
  8
_0-5_寸法線
  6
CONTINUOUS
 62
    7
 10
298.51795824097348
 20
794.60583080108279
 11
308.1772165038642
 21
797.19402125210809
  0
LINE
  8
_0-5_寸法線
  6
CONTINUOUS
 62
    7
 10
298.51795824097348
 20
794.60583080108279
 11
308.1772165038642
 21
792.01764035005772
  0
LINE
  8
_0-5_寸法線
  6
CONTINUOUS
 62
    7
 10
598.51795824097337
 20
719.60583080108279
 11
598.51795824097348
 21
799.60583080108279
  0
LINE
  8
_0-5_寸法線
  6
CONTINUOUS
 62
    7
 10
598.51795824097348
 20
794.60583080108279
 11
588.85869997808277
 21
792.01764035005772
  0
LINE
  8
_0-5_寸法線
  6
CONTINUOUS
 62
    7
 10
598.51795824097348
 20
794.60583080108279
 11
588.85869997808277
 21
797.19402125210809
  0
LINE
  8
_0-5_寸法線
  6
CONTINUOUS
 62
    7
 10
298.51795824097348
 20
794.60583080108279
 11
598.51795824097348
 21
794.60583080108279
  0
TEXT
  8
_0-5_寸法線
 62
    7
 10
437.26795824097348
 20
794.60583080108279
 40
15
 41
1
 50
0
  1
300
  0
TEXT
  8
_0-7_枠細線
 62
    5
 10
938.85037037037023
 20
822.5
 40
12.5
 41
1
 50
0
  1
取外具形状変更
  0
LINE
  8
_0-7_枠細線
  6
CONTINUOUS
 62
    5
 10
907.5
 20
836.44233397174673
 11
900
 21
821.44233397174673
  0
LINE
  8
_0-7_枠細線
  6
CONTINUOUS
 62
    5
 10
900
 20
821.44233397174673
 11
915
 21
821.44233397174673
  0
LINE
  8
_0-7_枠細線
  6
CONTINUOUS
 62
    5
 10
915
 20
821.44233397174673
 11
907.5
 21
836.44233397174673
  0
TEXT
  8
_0-7_枠細線
 62
    5
 10
902.36515126814822
 20
821.13533172636653
 40
12.5
 41
0.8
 50
0
  1
６
  0
TEXT
  8
_0-7_枠細線
 62
    5
 10
1180
 20
822.5
 40
12.5
 41
0.7199999999999999
 50
0
  1
２０２１．０５．０６
  0
LINE
  8
_0-7_枠細線
  6
CONTINUOUS
 62
    5
 10
1425
 20
820
 11
890
 21
820
  0
LINE
  8
_0-7_枠細線
  6
CONTINUOUS
 62
    5
 10
890
 20
820
 11
890
 21
959.99999999999909
  0
LINE
  8
_0-7_枠細線
  6
CONTINUOUS
 62
    5
 10
925
 20
820
 11
925
 21
959.99999999999909
  0
LINE
  8
_0-7_枠細線
  6
CONTINUOUS
 62
    5
 10
1175
 20
820
 11
1175
 21
959.99999999999909
  0
LINE
  8
_0-7_枠細線
  6
CONTINUOUS
 62
    5
 10
1275
 20
820
 11
1275
 21
959.99999999999909
  0
LINE
  8
_0-7_枠細線
  6
CONTINUOUS
 62
    5
 10
223.50900736680174
 20
794.9661041087802
 11
216.00900736680174
 21
809.9661041087802
  0
LINE
  8
_0-7_枠細線
  6
CONTINUOUS
 62
    5
 10
208.50900736680174
 20
794.9661041087802
 11
223.50900736680174
 21
794.9661041087802
  0
LINE
  8
_0-7_枠細線
  6
CONTINUOUS
 62
    5
 10
216.00900736680174
 20
809.9661041087802
 11
208.50900736680174
 21
794.9661041087802
  0
TEXT
  8
_0-7_枠細線
 62
    5
 10
210.87415863494988
 20
794.41842021859884
 40
12.5
 41
0.8
 50
0
  1
６
  0
LINE
  8
_0-d_寸法3
  6
CONTINUOUS
 62
    7
 10
403.13992445048098
 20
268.36412902531367
 11
403.13992445048109
 21
310.03079569198019
  0
LINE
  8
_0-d_寸法3
  6
CONTINUOUS
 62
    7
 10
403.13992445048109
 20
305.03079569198019
 11
393.48066618759037
 21
302.442605240955
  0
LINE
  8
_0-d_寸法3
  6
CONTINUOUS
 62
    7
 10
403.13992445048109
 20
305.03079569198019
 11
393.48066618759043
 21
307.61898614300543
  0
LINE
  8
_0-d_寸法3
  6
CONTINUOUS
 62
    7
 10
413.13992445476242
 20
268.36412902531367
 11
413.13992445476254
 21
310.03079569198019
  0
LINE
  8
_0-d_寸法3
  6
CONTINUOUS
 62
    7
 10
378.76596876731406
 20
305.03079569198019
 11
413.13992445476254
 21
305.03079569198019
  0
TEXT
  8
_0-d_寸法3
 62
    7
 10
378.76596876731406
 20
290.03079569198019
 40
15
 41
1
 50
0
  1
(6)
  0
LINE
  8
_0-d_寸法3
  6
CONTINUOUS
 62
    7
 10
413.13992445476254
 20
305.03079569198019
 11
422.7991827176532
 21
307.61898614300537
  0
LINE
  8
_0-d_寸法3
  6
CONTINUOUS
 62
    7
 10
413.13992445476254
 20
305.03079569198019
 11
422.7991827176532
 21
302.442605240955
  0
LINE
  8
_0-d_寸法3
  6
CONTINUOUS
 62
    7
 10
432.13992445108352
 20
268.36412902531367
 11
432.13992445108363
 21
310.03079569198019
  0
LINE
  8
_0-d_寸法3
  6
CONTINUOUS
 62
    7
 10
432.13992445108363
 20
305.03079569198019
 11
422.48066618819286
 21
302.442605240955
  0
LINE
  8
_0-d_寸法3
  6
CONTINUOUS
 62
    7
 10
432.13992445108363
 20
305.03079569198019
 11
422.48066618819291
 21
307.61898614300543
  0
LINE
  8
_0-d_寸法3
  6
CONTINUOUS
 62
    7
 10
413.13992445476254
 20
305.03079569198019
 11
432.13992445108363
 21
305.03079569198019
  0
TEXT
  8
_0-d_寸法3
 62
    7
 10
403.87522802657327
 20
305.03079569198019
 40
15
 41
1
 50
0
  1
11.4
  0
CIRCLE
  8
_0-0_計極細
  6
CONTINUOUS
 62
    2
 10
1256.3968103447551
 20
623.77208006581782
 40
0.331851851851843
  0
CIRCLE
  8
_0-0_計極細
  6
CONTINUOUS
 62
    2
 10
1268.1568103447553
 20
620.41208006581746
 40
0.331851851851843
  0
LINE
  8
_0-0_計極細
  6
CONTINUOUS
 62
    2
 10
1255
 20
617.11155580999616
 11
1264
 21
617.11155580999616
  0
LINE
  8
_0-0_計極細
  6
CENTER1
 62
    2
 10
1259.5
 20
585.69417483033499
 11
1259.5
 21
619.67698790876193
  0
LINE
  8
_0-0_計極細
  6
CONTINUOUS
 62
    2
 10
1264
 20
617.11155580999616
 11
1264
 21
590.66021900100668
  0
LINE
  8
_0-0_計極細
  6
CONTINUOUS
 62
    2
 10
1255
 20
590.66021900100668
 11
1255
 21
617.11155580999616
  0
LINE
  8
_0-0_計極細
  6
CENTER1
 62
    2
 10
1270.6963916124514
 20
608.73567846802757
 11
1232.2777793229125
 21
622.71890975904853
  0
LINE
  8
_0-0_計極細
  6
CONTINUOUS
 62
    2
 10
1266.1840409322913
 20
605.58923969850866
 11
1233.1094340380823
 21
617.62741211805633
  0
LINE
  8
_0-0_計極細
  6
CONTINUOUS
 62
    2
 10
1269.2622222222217
 20
614.04647328558212
 11
1236.1876153280127
 21
626.08464570512979
  0
LINE
  8
_0-0_計極細
  6
CONTINUOUS
 62
    2
 10
1236.1876153280127
 20
626.08464570512979
 11
1233.1094340380823
 21
617.62741211805633
  0
LINE
  8
_0-0_計極細
  6
CONTINUOUS
 62
    2
 10
1266.1840409322913
 20
605.58923969850866
 11
1269.2622222222217
 21
614.04647328558212
  0
LINE
  8
_0-0_計極細
  6
CENTER1
 62
    2
 10
910.49999999999909
 20
585.69417483033499
 11
910.49999999999909
 21
619.67698790876193
  0
LINE
  8
_0-0_計極細
  6
CONTINUOUS
 62
    2
 10
905.99999999999909
 20
617.11155580999616
 11
905.99999999999909
 21
590.66021900100668
  0
LINE
  8
_0-0_計極細
  6
CONTINUOUS
 62
    2
 10
914.99999999999909
 20
617.11155580999616
 11
905.99999999999909
 21
617.11155580999616
  0
LINE
  8
_0-0_計極細
  6
CONTINUOUS
 62
    2
 10
914.99999999999909
 20
590.66021900100668
 11
914.99999999999909
 21
617.11155580999616
  0
LINE
  8
_0-0_計極細
  6
CENTER1
 62
    2
 10
899.3036083875478
 20
608.73567846802757
 11
937.72222067708663
 21
622.71890975904853
  0
LINE
  8
_0-0_計極細
  6
CONTINUOUS
 62
    2
 10
903.81595906770781
 20
605.58923969850866
 11
936.89056596191676
 21
617.62741211805633
  0
LINE
  8
_0-0_計極細
  6
CONTINUOUS
 62
    2
 10
900.73777777777752
 20
614.04647328558212
 11
933.81238467198557
 21
626.08464570512979
  0
LINE
  8
_0-0_計極細
  6
CONTINUOUS
 62
    2
 10
933.81238467198557
 20
626.08464570512979
 11
936.89056596191676
 21
617.62741211805633
  0
LINE
  8
_0-0_計極細
  6
CONTINUOUS
 62
    2
 10
903.81595906770781
 20
605.58923969850866
 11
900.73777777777752
 21
614.04647328558212
  0
LINE
  8
_0-0_計極細
  6
CONTINUOUS
 62
    2
 10
1286.0734832401815
 20
651.66021900100691
 11
1293.0734828641082
 21
658.66021862493358
  0
LINE
  8
_0-0_計極細
  6
CONTINUOUS
 62
    2
 10
1273.345561178824
 20
651.66021900100691
 11
1280.3455609023194
 21
658.66021872450256
  0
LINE
  8
_0-0_計極細
  6
CONTINUOUS
 62
    2
 10
1260.6176391174658
 20
651.66021900100691
 11
1267.6176389405309
 21
658.66021882407176
  0
LINE
  8
_0-0_計極細
  6
CONTINUOUS
 62
    2
 10
1247.8897170561086
 20
651.66021900100691
 11
1254.8897169787424
 21
658.66021892364097
  0
LINE
  8
_0-0_計極細
  6
DASHED2
 62
    2
 10
1292.4374442708606
 20
651.66021900100691
 11
1298.5066482870689
 21
657.72942301721469
  0
LINE
  8
_0-0_計極細
  6
DASHED2
 62
    2
 10
1279.7095222095031
 20
651.66021900100691
 11
1286.7095218832137
 21
658.66021867471795
  0
LINE
  8
_0-0_計極細
  6
DASHED2
 62
    2
 10
1266.9816001481449
 20
651.66021900100691
 11
1273.9815999214252
 21
658.66021877428693
  0
LINE
  8
_0-0_計極細
  6
DASHED2
 62
    2
 10
1254.2536780867867
 20
651.66021900100691
 11
1261.2536779596358
 21
658.66021887385614
  0
LINE
  8
_0-0_計極細
  6
DASHED2
 62
    2
 10
1244.9999999999991
 20
655.13446297557766
 11
1248.5257559978472
 21
658.66021897342534
  0
LINE
  8
_0-0_計極細
  6
CONTINUOUS
 62
    2
 10
1244.9999999999991
 20
653.86167076944162
 11
1242.7985482315644
 21
651.66021900100691
  0
LINE
  8
_0-0_計極細
  6
CONTINUOUS
 62
    2
 10
1244.9999999999991
 20
656.40725518171303
 11
1240.2529638192937
 21
651.66021900100691
  0
LINE
  8
_0-0_計極細
  6
CONTINUOUS
 62
    2
 10
1240
 20
653.952839593985
 11
1244.707379407022
 21
658.66021900100714
  0
LINE
  8
_0-0_計極細
  6
CONTINUOUS
 62
    2
 10
1240
 20
656.4984240062563
 11
1242.1617949947504
 21
658.66021900100679
  0
LINE
  8
_0-0_計極細
  6
CONTINUOUS
 62
    2
 10
1245
 20
657.75462567530371
 11
1244.0944066742968
 21
658.66021900100714
  0
LINE
  8
_0-0_計極細
  6
CONTINUOUS
 62
    2
 10
1245
 20
655.20904126303196
 11
1241.5488222620243
 21
658.66021900100714
  0
LINE
  8
_0-0_計極細
  6
CONTINUOUS
 62
    2
 10
1245
 20
652.66345685076044
 11
1240
 21
657.66345685076078
  0
LINE
  8
_0-0_計極細
  6
CONTINUOUS
 62
    2
 10
1243.457653437481
 20
651.66021900100691
 11
1240
 21
655.1178724384888
  0
LINE
  8
_0-0_計極細
  6
CONTINUOUS
 62
    2
 10
1240.9120690252103
 20
651.66021900100691
 11
1240
 21
652.57228802621728
  0
LINE
  8
_0-0_計極細
  6
CONTINUOUS
 62
    2
 10
1240
 20
658.16021900100668
 11
1240
 21
658.66021900100714
  0
LINE
  8
_0-0_計極細
  6
CONTINUOUS
 62
    2
 10
1240
 20
658.66021900100714
 11
1245
 21
658.66021900100714
  0
LINE
  8
_0-0_計極細
  6
CONTINUOUS
 62
    2
 10
1240
 20
651.66021900100691
 11
1298.5066482870689
 21
651.66021900100691
  0
LINE
  8
_0-0_計極細
  6
CONTINUOUS
 62
    2
 10
1245
 20
658.66021900100714
 11
1298.5066482870689
 21
658.66021900100714
  0
LINE
  8
_0-0_計極細
  6
CONTINUOUS
 62
    2
 10
1245
 20
658.66021900100714
 11
1245
 21
651.66021900100691
  0
CIRCLE
  8
_0-0_計極細
  6
CONTINUOUS
 62
    2
 10
1215.7601436780878
 20
584.07152451026263
 40
1.0953188836088352
  0
CIRCLE
  8
_0-0_計極細
  6
CONTINUOUS
 62
    2
 10
1213.9912547892
 20
627.6448578435959
 40
1.0953188836088352
  0
CIRCLE
  8
_0-0_計極細
  6
CONTINUOUS
 62
    2
 10
1214.3745881225332
 20
588.07282080655909
 40
0.331851851851843
  0
CIRCLE
  8
_0-0_計極細
  6
CONTINUOUS
 62
    2
 10
1213.59063750525
 20
611.62615413989192
 40
0.331851851851843
  0
LINE
  8
_0-0_計極細
  6
CONTINUOUS
 62
    2
 10
1209.9999999999991
 20
635.66021900100668
 11
1209.9999999999991
 21
574.91525882413976
  0
LINE
  8
_0-0_計極細
  6
CONTINUOUS
 62
    2
 10
1210.4999999999991
 20
635.66021900100668
 11
1209.9999999999991
 21
635.66021900100668
  0
CIRCLE
  8
_0-0_計極細
  6
CONTINUOUS
 62
    2
 10
1251.9968103447554
 20
650.37948747322503
 40
0.331851851851843
  0
CIRCLE
  8
_0-0_計極細
  6
CONTINUOUS
 62
    2
 10
1264.7968103447547
 20
642.98819117692869
 40
1.0953188836088352
  0
CIRCLE
  8
_0-0_計極細
  6
CONTINUOUS
 62
    2
 10
1264.7168103447548
 20
646.77948747322512
 40
0.331851851851843
  0
CIRCLE
  8
_0-0_計極細
  6
CONTINUOUS
 62
    2
 10
1283.1968103447552
 20
649.81948747322508
 40
0.331851851851843
  0
CIRCLE
  8
_0-0_計極細
  6
CONTINUOUS
 62
    2
 10
1218.5738473817937
 20
606.55093459937416
 40
0.331851851851843
  0
CIRCLE
  8
_0-0_計極細
  6
CONTINUOUS
 62
    2
 10
1218.4538473817929
 20
620.92426793270715
 40
0.331851851851843
  0
CIRCLE
  8
_0-0_計極細
  6
CONTINUOUS
 62
    2
 10
1246.9334770114219
 20
624.17819117692898
 40
1.0953188836088352
  0
CIRCLE
  8
_0-0_計極細
  6
CONTINUOUS
 62
    2
 10
1277.3325925925919
 20
592.14595974174767
 40
1.0953188836088352
  0
CIRCLE
  8
_0-0_計極細
  6
CONTINUOUS
 62
    2
 10
1249.5734770114223
 20
598.25819117692936
 40
1.0953188836088352
  0
CIRCLE
  8
_0-0_計極細
  6
CONTINUOUS
 62
    2
 10
1228.4534770114224
 20
611.69819117692919
 40
1.0953188836088352
  0
CIRCLE
  8
_0-0_計極細
  6
CONTINUOUS
 62
    2
 10
1222.3201436780882
 20
593.77819117692934
 40
1.0953188836088352
  0
CIRCLE
  8
_0-0_計極細
  6
CONTINUOUS
 62
    2
 10
1264.5568103447549
 20
620.5081911769289
 40
1.0953188836088352
  0
CIRCLE
  8
_0-0_計極細
  6
CONTINUOUS
 62
    2
 10
1245.3568103447551
 20
639.70819117692895
 40
1.0953188836088352
  0
CIRCLE
  8
_0-0_計極細
  6
CONTINUOUS
 62
    2
 10
1278.6101436780882
 20
635.76152451026246
 40
1.0953188836088352
  0
CIRCLE
  8
_0-0_計極細
  6
CONTINUOUS
 62
    2
 10
1287.9968103447547
 20
645.04152451026232
 40
1.0953188836088352
  0
CIRCLE
  8
_0-0_計極細
  6
CONTINUOUS
 62
    2
 10
1290.8768103447549
 20
636.77948747322489
 40
0.331851851851843
  0
CIRCLE
  8
_0-0_計極細
  6
CONTINUOUS
 62
    2
 10
1273.1168103447553
 20
624.05948747322532
 40
0.331851851851843
  0
CIRCLE
  8
_0-0_計極細
  6
CONTINUOUS
 62
    2
 10
1274.7968103447547
 20
640.13948747322502
 40
0.331851851851843
  0
CIRCLE
  8
_0-0_計極細
  6
CONTINUOUS
 62
    2
 10
1264.7168103447548
 20
628.37948747322525
 40
0.331851851851843
  0
CIRCLE
  8
_0-0_計極細
  6
CONTINUOUS
 62
    2
 10
1275.516810344755
 20
615.65948747322523
 40
0.331851851851843
  0
CIRCLE
  8
_0-0_計極細
  6
CONTINUOUS
 62
    2
 10
1276.476810344755
 20
603.17948747322544
 40
0.331851851851843
  0
CIRCLE
  8
_0-0_計極細
  6
CONTINUOUS
 62
    2
 10
1272.1568103447544
 20
594.77948747322557
 40
0.331851851851843
  0
CIRCLE
  8
_0-0_計極細
  6
CONTINUOUS
 62
    2
 10
1248.6368103447548
 20
626.69948747322542
 40
0.331851851851843
  0
CIRCLE
  8
_0-0_計極細
  6
CONTINUOUS
 62
    2
 10
1243.2768103447552
 20
635.52615413989179
 40
0.331851851851843
  0
CIRCLE
  8
_0-0_計極細
  6
CONTINUOUS
 62
    2
 10
1244.770143678089
 20
647.36615413989171
 40
0.331851851851843
  0
CIRCLE
  8
_0-0_計極細
  6
CONTINUOUS
 62
    2
 10
1250.4634770114226
 20
602.95282080655875
 40
0.331851851851843
  0
CIRCLE
  8
_0-0_計極細
  6
CONTINUOUS
 62
    2
 10
1243.7434770114214
 20
599.59282080655885
 40
0.331851851851843
  0
CIRCLE
  8
_0-0_計極細
  6
CONTINUOUS
 62
    2
 10
1250.9434770114221
 20
594.15282080655902
 40
0.331851851851843
  0
CIRCLE
  8
_0-0_計極細
  6
CONTINUOUS
 62
    2
 10
1234.7834770114223
 20
593.99282080655871
 40
0.331851851851843
  0
CIRCLE
  8
_0-0_計極細
  6
CONTINUOUS
 62
    2
 10
1226.4634770114226
 20
596.87282080655882
 40
0.331851851851843
  0
CIRCLE
  8
_0-0_計極細
  6
CONTINUOUS
 62
    2
 10
1219.5834770114225
 20
578.9528208065592
 40
0.331851851851843
  0
CIRCLE
  8
_0-0_計極細
  6
CONTINUOUS
 62
    2
 10
1225.1834770114219
 20
589.672820806559
 40
0.331851851851843
  0
CIRCLE
  8
_0-0_計極細
  6
CONTINUOUS
 62
    2
 10
1235.8834770114217
 20
603.65282080655879
 40
0.331851851851843
  0
CIRCLE
  8
_0-0_計極細
  6
CONTINUOUS
 62
    2
 10
1225.3634770114222
 20
613.86615413989216
 40
0.331851851851843
  0
CIRCLE
  8
_0-0_計極細
  6
CONTINUOUS
 62
    2
 10
1227.816810344756
 20
628.85282080655838
 40
0.331851851851843
  0
CIRCLE
  8
_0-0_計極細
  6
CONTINUOUS
 62
    2
 10
1221.8434770114227
 20
625.9728208065585
 40
0.331851851851843
  0
LINE
  8
_0-0_計極細
  6
CONTINUOUS
 62
    2
 10
1284.9740014487552
 20
574.91525882413976
 11
1298.5066483119936
 21
588.44790568737676
  0
LINE
  8
_0-0_計極細
  6
CONTINUOUS
 62
    2
 10
1242.5475945775624
 20
574.91525882413976
 11
1258.2925547544301
 21
590.66021900100668
  0
LINE
  8
_0-0_計極細
  6
CONTINUOUS
 62
    2
 10
1280
 20
612.36766424657662
 11
1298.5066482875218
 21
630.87431253409841
  0
LINE
  8
_0-0_計極細
  6
CONTINUOUS
 62
    2
 10
1280.7313607616361
 20
574.91525882413976
 11
1298.5066483095463
 21
592.69054637204908
  0
LINE
  8
_0-0_計極細
  6
CONTINUOUS
 62
    2
 10
1238.3049538904434
 20
574.91525882413976
 11
1254.049914067311
 21
590.66021900100668
  0
LINE
  8
_0-0_計極細
  6
CONTINUOUS
 62
    2
 10
1280
 20
616.61030493369572
 11
1295.0499139595806
 21
631.66021889327658
  0
LINE
  8
_0-0_計極細
  6
CONTINUOUS
 62
    2
 10
1276.488720074517
 20
574.91525882413976
 11
1298.5066483070987
 21
596.93318705672141
  0
LINE
  8
_0-0_計極細
  6
CONTINUOUS
 62
    2
 10
1234.0623132033234
 20
574.91525882413976
 11
1249.807273380191
 21
590.66021900100668
  0
LINE
  8
_0-0_計極細
  6
CONTINUOUS
 62
    2
 10
1280
 20
620.85294562081526
 11
1290.8072733028312
 21
631.66021892364643
  0
LINE
  8
_0-0_計極細
  6
CONTINUOUS
 62
    2
 10
1230.0000000000009
 20
590.66021900100668
 11
1230.0000000000009
 21
574.91525882413976
  0
LINE
  8
_0-0_計極細
  6
CONTINUOUS
 62
    2
 10
1280
 20
631.66021900100714
 11
1298.5066482870689
 21
631.66021900100714
  0
LINE
  8
_0-0_計極細
  6
CONTINUOUS
 62
    2
 10
1230.0000000000009
 20
590.66021900100668
 11
1280
 21
590.66021900100668
  0
LINE
  8
_0-0_計極細
  6
CONTINUOUS
 62
    2
 10
1280
 20
631.66021900100714
 11
1280
 21
590.66021900100668
  0
CIRCLE
  8
_0-0_計極細
  6
CONTINUOUS
 62
    2
 10
912.10792145586765
 20
646.89485784359476
 40
1.0953188836088352
  0
LINE
  8
_0-0_計極細
  6
CONTINUOUS
 62
    2
 10
919.69880819342154
 20
651.6602189973305
 11
924.99999999999909
 21
656.96141080390885
  0
LINE
  8
_0-0_計極細
  6
CONTINUOUS
 62
    2
 10
906.97088612323671
 20
651.66021898850386
 11
913.97088613574044
 21
658.66021900100679
  0
LINE
  8
_0-0_計極細
  6
CONTINUOUS
 62
    2
 10
894.24296405305086
 20
651.66021897967698
 11
901.24296407438226
 21
658.66021900100714
  0
LINE
  8
_0-0_計極細
  6
CONTINUOUS
 62
    2
 10
881.51504198286705
 20
651.66021897085011
 11
888.51504201302407
 21
658.66021900100714
  0
LINE
  8
_0-0_計極細
  6
CONTINUOUS
 62
    2
 10
871.49335171293114
 20
654.36645076227137
 11
875.78711995166668
 21
658.66021900100679
  0
LINE
  8
_0-0_計極細
  6
DASHED2
 62
    2
 10
913.33484715832867
 20
651.66021899291695
 11
920.33484716641851
 21
658.66021900100714
  0
LINE
  8
_0-0_計極細
  6
DASHED2
 62
    2
 10
900.60692508814384
 20
651.66021898409031
 11
907.60692510506135
 21
658.66021900100714
  0
LINE
  8
_0-0_計極細
  6
DASHED2
 62
    2
 10
887.8790030179598
 20
651.66021897526366
 11
894.87900304370316
 21
658.66021900100714
  0
LINE
  8
_0-0_計極細
  6
DASHED2
 62
    2
 10
875.15108094777497
 20
651.66021896643701
 11
882.15108098234577
 21
658.66021900100714
  0
LINE
  8
_0-0_計極細
  6
CONTINUOUS
 62
    2
 10
929.88114584618415
 20
651.66021900100691
 11
929.99999999999909
 21
651.7790731548223
  0
LINE
  8
_0-0_計極細
  6
CONTINUOUS
 62
    2
 10
927.33556143391172
 20
651.66021900100691
 11
929.99999999999909
 21
654.32465756709371
  0
LINE
  8
_0-0_計極細
  6
CONTINUOUS
 62
    2
 10
924.99999999999909
 20
651.87024197936535
 11
929.99999999999909
 21
656.87024197936569
  0
LINE
  8
_0-0_計極細
  6
CONTINUOUS
 62
    2
 10
924.99999999999909
 20
654.41582639163721
 11
929.24439260936833
 21
658.66021900100714
  0
LINE
  8
_0-0_計極細
  6
CONTINUOUS
 62
    2
 10
924.99999999999909
 20
656.96141080390885
 11
926.69880819709761
 21
658.66021900100714
  0
LINE
  8
_0-0_計極細
  6
CONTINUOUS
 62
    2
 10
929.99999999999909
 20
657.29163887765162
 11
928.63141987664403
 21
658.66021900100714
  0
LINE
  8
_0-0_計極細
  6
CONTINUOUS
 62
    2
 10
929.99999999999909
 20
654.7460544653801
 11
926.08583546437239
 21
658.66021900100714
  0
LINE
  8
_0-0_計極細
  6
CONTINUOUS
 62
    2
 10
924.99999999999909
 20
657.20047005310857
 11
929.99999999999909
 21
652.20047005310857
  0
LINE
  8
_0-0_計極細
  6
CONTINUOUS
 62
    2
 10
924.99999999999909
 20
654.65488564083694
 11
927.99466663982912
 21
651.66021900100691
  0
LINE
  8
_0-0_計極細
  6
CONTINUOUS
 62
    2
 10
924.99999999999909
 20
652.10930122856553
 11
925.44908222755851
 21
651.66021900100691
  0
LINE
  8
_0-0_計極細
  6
CONTINUOUS
 62
    2
 10
929.99999999999909
 20
658.16021900100668
 11
929.99999999999909
 21
658.66021900100714
  0
LINE
  8
_0-0_計極細
  6
CONTINUOUS
 62
    2
 10
929.99999999999909
 20
658.66021900100714
 11
924.99999999999909
 21
658.66021900100714
  0
LINE
  8
_0-0_計極細
  6
CONTINUOUS
 62
    2
 10
929.99999999999909
 20
651.66021900100691
 11
871.49335171293114
 21
651.66021900100691
  0
LINE
  8
_0-0_計極細
  6
CONTINUOUS
 62
    2
 10
924.99999999999909
 20
658.66021900100714
 11
871.49335171293114
 21
658.66021900100714
  0
LINE
  8
_0-0_計極細
  6
CONTINUOUS
 62
    2
 10
924.99999999999909
 20
658.66021900100714
 11
924.99999999999909
 21
651.66021900100691
  0
CIRCLE
  8
_0-0_計極細
  6
CONTINUOUS
 62
    2
 10
948.65014367808726
 20
614.60152451026261
 40
1.0953188836088352
  0
CIRCLE
  8
_0-0_計極細
  6
CONTINUOUS
 62
    2
 10
956.07236590031164
 20
579.64862263110149
 40
0.331851851851843
  0
CIRCLE
  8
_0-0_計極細
  6
CONTINUOUS
 62
    2
 10
955.27236590031134
 20
593.24226525100335
 40
0.331851851851843
  0
CIRCLE
  8
_0-0_計極細
  6
CONTINUOUS
 62
    2
 10
955.86753951142157
 20
626.0681911769293
 40
1.0953188836088352
  0
LINE
  8
_0-0_計極細
  6
CONTINUOUS
 62
    2
 10
959.99999999999909
 20
635.66021900100668
 11
959.99999999999909
 21
574.91525882413976
  0
LINE
  8
_0-0_計極細
  6
CONTINUOUS
 62
    2
 10
959.4999999999992
 20
635.66021900100668
 11
959.99999999999909
 21
635.66021900100668
  0
CIRCLE
  8
_0-0_計極細
  6
CONTINUOUS
 62
    2
 10
876.31462413258134
 20
644.68152451026208
 40
1.0953188836088352
  0
CIRCLE
  8
_0-0_計極細
  6
CONTINUOUS
 62
    2
 10
948.98347701142211
 20
582.46819117692962
 40
1.0953188836088352
  0
CIRCLE
  8
_0-0_計極細
  6
CONTINUOUS
 62
    2
 10
946.10347701142302
 20
593.66819117692944
 40
1.0953188836088352
  0
CIRCLE
  8
_0-0_計極細
  6
CONTINUOUS
 62
    2
 10
924.51681034475598
 20
595.82819117692929
 40
1.0953188836088352
  0
CIRCLE
  8
_0-0_計極細
  6
CONTINUOUS
 62
    2
 10
892.5968103447567
 20
603.50819117692913
 40
1.0953188836088352
  0
CIRCLE
  8
_0-0_計極細
  6
CONTINUOUS
 62
    2
 10
904.35681034475692
 20
626.30819117692909
 40
1.0953188836088352
  0
CIRCLE
  8
_0-0_計極細
  6
CONTINUOUS
 62
    2
 10
917.79681034475652
 20
620.22819117692916
 40
1.0953188836088352
  0
CIRCLE
  8
_0-0_計極細
  6
CONTINUOUS
 62
    2
 10
888.43287185722886
 20
644.14595974174745
 40
1.0953188836088352
  0
CIRCLE
  8
_0-0_計極細
  6
CONTINUOUS
 62
    2
 10
919.49014367809013
 20
639.98819117692869
 40
1.0953188836088352
  0
CIRCLE
  8
_0-0_計極細
  6
CONTINUOUS
 62
    2
 10
931.66347701142342
 20
626.79782080655855
 40
0.331851851851843
  0
CIRCLE
  8
_0-0_計極細
  6
CONTINUOUS
 62
    2
 10
952.81014367808996
 20
608.95782080655863
 40
0.331851851851843
  0
CIRCLE
  8
_0-0_計極細
  6
CONTINUOUS
 62
    2
 10
952.49014367808923
 20
619.73115413989194
 40
0.331851851851843
  0
CIRCLE
  8
_0-0_計極細
  6
CONTINUOUS
 62
    2
 10
943.42347701142273
 20
625.70448747322507
 40
0.331851851851843
  0
CIRCLE
  8
_0-0_計極細
  6
CONTINUOUS
 62
    2
 10
934.57014367808927
 20
605.22448747322551
 40
0.331851851851843
  0
CIRCLE
  8
_0-0_計極細
  6
CONTINUOUS
 62
    2
 10
944.57014367809006
 20
579.05559858433685
 40
0.331851851851843
  0
CIRCLE
  8
_0-0_計極細
  6
CONTINUOUS
 62
    2
 10
948.73014367808992
 20
588.01559858433689
 40
0.331851851851843
  0
CIRCLE
  8
_0-0_計極細
  6
CONTINUOUS
 62
    2
 10
940.51681034475678
 20
596.97559858433647
 40
0.331851851851843
  0
CIRCLE
  8
_0-0_計極細
  6
CONTINUOUS
 62
    2
 10
932.73014367808992
 20
595.05559858433662
 40
0.331851851851843
  0
CIRCLE
  8
_0-0_計極細
  6
CONTINUOUS
 62
    2
 10
920.7834770114232
 20
594.41559858433652
 40
0.331851851851843
  0
CIRCLE
  8
_0-0_計極細
  6
CONTINUOUS
 62
    2
 10
922.91681034475641
 20
599.96226525100315
 40
0.331851851851843
  0
CIRCLE
  8
_0-0_計極細
  6
CONTINUOUS
 62
    2
 10
919.18347701142375
 20
601.45559858433649
 40
0.331851851851843
  0
CIRCLE
  8
_0-0_計極細
  6
CONTINUOUS
 62
    2
 10
925.90347701142321
 20
604.7622652510031
 40
0.331851851851843
  0
CIRCLE
  8
_0-0_計極細
  6
CONTINUOUS
 62
    2
 10
902.32347701142419
 20
594.02893191766998
 40
0.331851851851843
  0
CIRCLE
  8
_0-0_計極細
  6
CONTINUOUS
 62
    2
 10
898.5901436780905
 20
599.14893191766987
 40
0.331851851851843
  0
CIRCLE
  8
_0-0_計極細
  6
CONTINUOUS
 62
    2
 10
893.36347701142313
 20
595.09559858433659
 40
0.331851851851843
  0
CIRCLE
  8
_0-0_計極細
  6
CONTINUOUS
 62
    2
 10
896.77681034475711
 20
605.86893191766967
 40
0.331851851851843
  0
CIRCLE
  8
_0-0_計極細
  6
CONTINUOUS
 62
    2
 10
921.44347701142408
 20
622.13559858433632
 40
0.331851851851843
  0
CIRCLE
  8
_0-0_計極細
  6
CONTINUOUS
 62
    2
 10
905.01681034475678
 20
617.7622652510031
 40
0.331851851851843
  0
CIRCLE
  8
_0-0_計極細
  6
CONTINUOUS
 62
    2
 10
913.87014367808945
 20
625.86893191766967
 40
0.331851851851843
  0
CIRCLE
  8
_0-0_計極細
  6
CONTINUOUS
 62
    2
 10
921.44347701142408
 20
629.28226525100285
 40
0.331851851851843
  0
CIRCLE
  8
_0-0_計極細
  6
CONTINUOUS
 62
    2
 10
906.40347701142321
 20
631.52226525100286
 40
0.331851851851843
  0
CIRCLE
  8
_0-0_計極細
  6
CONTINUOUS
 62
    2
 10
894.13681034475758
 20
632.26893191766953
 40
0.331851851851843
  0
CIRCLE
  8
_0-0_計極細
  6
CONTINUOUS
 62
    2
 10
903.41014367809021
 20
648.5689319176696
 40
0.331851851851843
  0
CIRCLE
  8
_0-0_計極細
  6
CONTINUOUS
 62
    2
 10
910.45014367809017
 20
639.60893191766968
 40
0.331851851851843
  0
CIRCLE
  8
_0-0_計極細
  6
CONTINUOUS
 62
    2
 10
925.38347701142357
 20
639.92893191766939
 40
0.331851851851843
  0
CIRCLE
  8
_0-0_計極細
  6
CONTINUOUS
 62
    2
 10
921.9701436780897
 20
649.63559858433609
 40
0.331851851851843
  0
CIRCLE
  8
_0-0_計極細
  6
CONTINUOUS
 62
    2
 10
907.03681034475721
 20
643.66226525100296
 40
0.331851851851843
  0
CIRCLE
  8
_0-0_計極細
  6
CONTINUOUS
 62
    2
 10
889.9701436780897
 20
636.62226525100277
 40
0.331851851851843
  0
CIRCLE
  8
_0-0_計極細
  6
CONTINUOUS
 62
    2
 10
882.39681034475689
 20
635.4489319176696
 40
0.331851851851843
  0
CIRCLE
  8
_0-0_計極細
  6
CONTINUOUS
 62
    2
 10
876.03236590031258
 20
634.80893191766972
 40
0.331851851851843
  0
CIRCLE
  8
_0-0_計極細
  6
CONTINUOUS
 62
    2
 10
882.23088441883101
 20
640.78226525100285
 40
0.331851851851843
  0
LINE
  8
_0-0_計極細
  6
CONTINUOUS
 62
    2
 10
917.54681526100569
 20
574.91525889400145
 11
933.29177536801035
 21
590.66021900100668
  0
LINE
  8
_0-0_計極細
  6
CONTINUOUS
 62
    2
 10
875.12040852182054
 20
574.91525902600961
 11
890.86536849681863
 21
590.66021900100668
  0
LINE
  8
_0-0_計極細
  6
CONTINUOUS
 62
    2
 10
871.49335171293114
 20
613.71460908831205
 11
889.43896162562498
 21
631.66021900100714
  0
LINE
  8
_0-0_計極細
  6
CONTINUOUS
 62
    2
 10
913.30417458708689
 20
574.91525890720231
 11
929.04913468089137
 21
590.66021900100668
  0
LINE
  8
_0-0_計極細
  6
CONTINUOUS
 62
    2
 10
871.49335171293114
 20
575.53084290423863
 11
890
 21
594.03749119130748
  0
LINE
  8
_0-0_計極細
  6
CONTINUOUS
 62
    2
 10
871.49335171293114
 20
617.95724977543159
 11
885.19632093850589
 21
631.66021900100714
  0
LINE
  8
_0-0_計極細
  6
CONTINUOUS
 62
    2
 10
909.0615339131682
 20
574.9152589204034
 11
924.80649399377307
 21
590.66021900100668
  0
LINE
  8
_0-0_計極細
  6
CONTINUOUS
 62
    2
 10
871.49335171293114
 20
579.77348359135817
 11
890
 21
598.2801318784268
  0
LINE
  8
_0-0_計極細
  6
CONTINUOUS
 62
    2
 10
871.49335171293114
 20
622.19989046255091
 11
880.95368025138771
 21
631.66021900100714
  0
LINE
  8
_0-0_計極細
  6
CONTINUOUS
 62
    2
 10
939.99999999999909
 20
590.66021900100668
 11
939.99999999999909
 21
574.91525882413976
  0
LINE
  8
_0-0_計極細
  6
CONTINUOUS
 62
    2
 10
890
 20
631.66021900100714
 11
871.49335171293114
 21
631.66021900100714
  0
LINE
  8
_0-0_計極細
  6
CONTINUOUS
 62
    2
 10
939.99999999999909
 20
590.66021900100668
 11
890
 21
590.66021900100668
  0
LINE
  8
_0-0_計極細
  6
CONTINUOUS
 62
    2
 10
890
 20
631.66021900100714
 11
890
 21
590.66021900100668
  0
LINE
  8
_0-0_計極細
  6
CENTER1
 62
    2
 10
1085
 20
628.94872130973727
 11
1085
 21
667.01872130974084
  0
LINE
  8
_0-1_計細線
  6
CONTINUOUS
 62
    3
 10
1087.3499999999995
 20
640.95999999999992
 11
1091.800000000514
 21
640.95999999999992
  0
LINE
  8
_0-1_計細線
  6
CONTINUOUS
 62
    3
 10
1078.200000000551
 20
640.95999999999992
 11
1082.6499999999987
 21
640.95999999999992
  0
LINE
  8
_0-1_計細線
  6
CONTINUOUS
 62
    3
 10
1087.3499999999995
 20
653.95999999999947
 11
1091.8000000005513
 21
653.95999999999947
  0
LINE
  8
_0-1_計細線
  6
CONTINUOUS
 62
    3
 10
1078.2000000011185
 20
653.95999999999947
 11
1082.6499999999987
 21
653.95999999999947
  0
ARC
  8
_0-1_計細線
  6
CONTINUOUS
 62
    3
 10
1071.8000000011025
 20
656.65999999999985
 40
0.9999999999999997
 50
89.999999999999915
 51
179.99999999999983
  0
ARC
  8
_0-1_計細線
  6
CONTINUOUS
 62
    3
 10
1072.2679491924309
 20
658.65999999999985
 40
0.9999999999999997
 50
269.99999999999977
 51
329.99999999998937
  0
ARC
  8
_0-1_計細線
  6
CONTINUOUS
 62
    3
 10
1073.9999999999991
 20
657.66000000000008
 40
0.9999999999999997
 50
89.999999999999915
 51
150.00000000000097
  0
LINE
  8
_0-1_計細線
  6
CONTINUOUS
 62
    3
 10
1071.8000000011025
 20
657.66000000000008
 11
1072.2679491924309
 21
657.66000000000008
  0
ARC
  8
_0-1_計細線
  6
CONTINUOUS
 62
    3
 10
1081.1999999988957
 20
656.65999999999985
 40
0.9999999999999997
 50
0
 51
89.999999999999915
  0
ARC
  8
_0-1_計細線
  6
CONTINUOUS
 62
    3
 10
1080.7320508075691
 20
658.65999999999985
 40
0.9999999999999997
 50
209.99999999998388
 51
269.99999999999977
  0
ARC
  8
_0-1_計細線
  6
CONTINUOUS
 62
    3
 10
1079
 20
657.66000000000008
 40
0.9999999999999997
 50
29.99999999999903
 51
89.999999999999901
  0
LINE
  8
_0-1_計細線
  6
CONTINUOUS
 62
    3
 10
1081.1999999988957
 20
657.66000000000008
 11
1080.7320508075691
 21
657.66000000000008
  0
ARC
  8
_0-1_計細線
  6
CONTINUOUS
 62
    3
 10
1071.3000000011025
 20
655.26000000000022
 40
0.4999999999999998
 50
179.99999999999983
 51
269.99999999999977
  0
LINE
  8
_0-1_計細線
  6
CONTINUOUS
 62
    3
 10
1070.8000000011034
 20
656.65999999999985
 11
1070.8000000011034
 21
655.26000000000022
  0
ARC
  8
_0-1_計細線
  6
CONTINUOUS
 62
    3
 10
1081.6999999988957
 20
655.26000000000022
 40
0.4999999999999998
 50
269.99999999999977
 51
359.99999999999966
  0
LINE
  8
_0-1_計細線
  6
CONTINUOUS
 62
    3
 10
1082.1999999988957
 20
656.65999999999985
 11
1082.1999999988957
 21
655.26000000000022
  0
ARC
  8
_0-1_計細線
  6
CONTINUOUS
 62
    3
 10
1073.8000000011034
 20
653.76000000000022
 40
0.9999999999999997
 50
0
 51
89.999999999999915
  0
LINE
  8
_0-1_計細線
  6
CONTINUOUS
 62
    3
 10
1073.8000000011034
 20
654.75999999999988
 11
1071.3000000011025
 21
654.75999999999988
  0
ARC
  8
_0-1_計細線
  6
CONTINUOUS
 62
    3
 10
1079.2000000011039
 20
653.76000000000022
 40
0.9999999999999997
 50
89.999999999999915
 51
179.99999999999983
  0
LINE
  8
_0-1_計細線
  6
CONTINUOUS
 62
    3
 10
1079.1999999988957
 20
654.75999999999988
 11
1081.6999999988957
 21
654.75999999999988
  0
LINE
  8
_0-1_計細線
  6
CONTINUOUS
 62
    3
 10
1079
 20
658.65999999999985
 11
1073.9999999999991
 21
658.65999999999985
  0
LINE
  8
_0-1_計細線
  6
CONTINUOUS
 62
    3
 10
1074.8000000000002
 20
638.65999999999985
 11
1074.8000000011025
 21
653.76000000000022
  0
LINE
  8
_0-1_計細線
  6
CONTINUOUS
 62
    3
 10
1078.1999999999998
 20
638.65999999999985
 11
1078.200000001103
 21
653.76000000000022
  0
LINE
  8
_0-1_計細線
  6
CONTINUOUS
 62
    3
 10
1078.1999999999998
 20
638.65999999999985
 11
1074.8000000000002
 21
638.65999999999985
  0
LINE
  8
_0-1_計細線
  6
CONTINUOUS
 62
    3
 10
955.79999999750373
 20
653.95999999999947
 11
942.3999999975041
 21
653.95999999999947
  0
LINE
  8
_0-1_計細線
  6
CONTINUOUS
 62
    3
 10
1214.2000000024964
 20
653.95999999999947
 11
1227.6000000024951
 21
653.95999999999947
  0
LINE
  8
_0-1_計細線
  6
CONTINUOUS
 62
    3
 10
972.79999999767551
 20
653.95999999999947
 11
959.19999999767424
 21
653.95999999999947
  0
LINE
  8
_0-1_計細線
  6
CONTINUOUS
 62
    3
 10
989.7999999978465
 20
653.95999999999947
 11
976.19999999784625
 21
653.95999999999947
  0
LINE
  8
_0-1_計細線
  6
CONTINUOUS
 62
    3
 10
1006.7999999980185
 20
653.95999999999947
 11
993.19999999801894
 21
653.95999999999947
  0
LINE
  8
_0-1_計細線
  6
CONTINUOUS
 62
    3
 10
1197.2000000023245
 20
653.95999999999947
 11
1210.8000000023239
 21
653.95999999999947
  0
LINE
  8
_0-1_計細線
  6
CONTINUOUS
 62
    3
 10
1180.2000000021526
 20
653.95999999999947
 11
1193.8000000021511
 21
653.95999999999947
  0
LINE
  8
_0-1_計細線
  6
CONTINUOUS
 62
    3
 10
1163.2000000019798
 20
653.95999999999947
 11
1176.8000000019792
 21
653.95999999999947
  0
LINE
  8
_0-1_計細線
  6
CONTINUOUS
 62
    3
 10
1010.199999999465
 20
653.95999999999947
 11
1023.7999999994655
 21
653.95999999999947
  0
LINE
  8
_0-1_計細線
  6
CONTINUOUS
 62
    3
 10
1146.2000000018079
 20
653.95999999999947
 11
1159.8000000018083
 21
653.95999999999947
  0
LINE
  8
_0-1_計細線
  6
CONTINUOUS
 62
    3
 10
1129.2000000014459
 20
653.95999999999947
 11
1142.8000000014463
 21
653.95999999999947
  0
LINE
  8
_0-1_計細線
  6
CONTINUOUS
 62
    3
 10
1027.1999999994659
 20
653.95999999999947
 11
1040.7999999994663
 21
653.95999999999947
  0
LINE
  8
_0-1_計細線
  6
CONTINUOUS
 62
    3
 10
1044.199999999827
 20
653.95999999999947
 11
1057.7999999998283
 21
653.95999999999947
  0
LINE
  8
_0-1_計細線
  6
CONTINUOUS
 62
    3
 10
1061.200000000189
 20
653.95999999999947
 11
1074.8000000001894
 21
653.95999999999947
  0
LINE
  8
_0-1_計細線
  6
CONTINUOUS
 62
    3
 10
1095.200000000912
 20
653.95999999999947
 11
1108.8000000009133
 21
653.95999999999947
  0
LINE
  8
_0-1_計細線
  6
CONTINUOUS
 62
    3
 10
1112.2000000012749
 20
653.95999999999947
 11
1125.8000000012744
 21
653.95999999999947
  0
LINE
  8
_0-1_計細線
  6
CONTINUOUS
 62
    3
 10
955.79999999750373
 20
640.95999999999992
 11
942.3999999975041
 21
640.95999999999992
  0
LINE
  8
_0-1_計細線
  6
CONTINUOUS
 62
    3
 10
1214.2000000024964
 20
640.95999999999992
 11
1227.6000000024951
 21
640.95999999999992
  0
LINE
  8
_0-1_計細線
  6
CONTINUOUS
 62
    3
 10
972.79999999767551
 20
640.95999999999992
 11
959.19999999767424
 21
640.95999999999992
  0
LINE
  8
_0-1_計細線
  6
CONTINUOUS
 62
    3
 10
989.7999999978465
 20
640.95999999999992
 11
976.19999999784625
 21
640.95999999999992
  0
LINE
  8
_0-1_計細線
  6
CONTINUOUS
 62
    3
 10
1006.7999999980185
 20
640.95999999999992
 11
993.19999999801894
 21
640.95999999999992
  0
LINE
  8
_0-1_計細線
  6
CONTINUOUS
 62
    3
 10
1197.2000000023245
 20
640.95999999999992
 11
1210.800000002323
 21
640.95999999999992
  0
LINE
  8
_0-1_計細線
  6
CONTINUOUS
 62
    3
 10
1180.2000000021517
 20
640.95999999999992
 11
1193.8000000021511
 21
640.95999999999992
  0
LINE
  8
_0-1_計細線
  6
CONTINUOUS
 62
    3
 10
1163.2000000019798
 20
640.95999999999992
 11
1176.8000000019792
 21
640.95999999999992
  0
LINE
  8
_0-1_計細線
  6
CONTINUOUS
 62
    3
 10
1010.199999999465
 20
640.95999999999992
 11
1023.7999999994655
 21
640.95999999999992
  0
LINE
  8
_0-1_計細線
  6
CONTINUOUS
 62
    3
 10
1146.2000000018079
 20
640.95999999999992
 11
1159.8000000018083
 21
640.95999999999992
  0
LINE
  8
_0-1_計細線
  6
CONTINUOUS
 62
    3
 10
1129.2000000014459
 20
640.95999999999992
 11
1142.8000000014463
 21
640.95999999999992
  0
LINE
  8
_0-1_計細線
  6
CONTINUOUS
 62
    3
 10
1027.1999999994659
 20
640.95999999999992
 11
1040.7999999994654
 21
640.95999999999992
  0
LINE
  8
_0-1_計細線
  6
CONTINUOUS
 62
    3
 10
1044.199999999827
 20
640.95999999999992
 11
1057.7999999998283
 21
640.95999999999992
  0
LINE
  8
_0-1_計細線
  6
CONTINUOUS
 62
    3
 10
1061.200000000189
 20
640.95999999999992
 11
1074.8000000001894
 21
640.95999999999992
  0
LINE
  8
_0-1_計細線
  6
CONTINUOUS
 62
    3
 10
1095.200000000912
 20
640.95999999999992
 11
1108.8000000009133
 21
640.95999999999992
  0
LINE
  8
_0-1_計細線
  6
CONTINUOUS
 62
    3
 10
1112.2000000012749
 20
640.95999999999992
 11
1125.8000000012744
 21
640.95999999999992
  0
ARC
  8
_0-1_計細線
  6
CONTINUOUS
 62
    3
 10
935.9999999996553
 20
656.65999999999985
 40
0.9999999999999997
 50
89.999999999999915
 51
179.99999999999983
  0
ARC
  8
_0-1_計細線
  6
CONTINUOUS
 62
    3
 10
936.46794919098284
 20
658.65999999999985
 40
0.9999999999999997
 50
269.99999999999977
 51
330.0000000000154
  0
ARC
  8
_0-1_計細線
  6
CONTINUOUS
 62
    3
 10
938.19999999855202
 20
657.66000000000008
 40
0.9999999999999997
 50
89.999999999999915
 51
150.00000000000097
  0
LINE
  8
_0-1_計細線
  6
CONTINUOUS
 62
    3
 10
935.9999999996553
 20
657.66000000000008
 11
936.46794919098284
 21
657.66000000000008
  0
ARC
  8
_0-1_計細線
  6
CONTINUOUS
 62
    3
 10
945.3999999974485
 20
656.65999999999985
 40
0.9999999999999997
 50
0
 51
89.999999999999915
  0
ARC
  8
_0-1_計細線
  6
CONTINUOUS
 62
    3
 10
944.93205080612097
 20
658.65999999999985
 40
0.9999999999999997
 50
210.00000000000995
 51
269.99999999999977
  0
ARC
  8
_0-1_計細線
  6
CONTINUOUS
 62
    3
 10
943.19999999855202
 20
657.66000000000008
 40
0.9999999999999997
 50
29.999999999972975
 51
89.999999999999901
  0
LINE
  8
_0-1_計細線
  6
CONTINUOUS
 62
    3
 10
945.3999999974485
 20
657.66000000000008
 11
944.93205080612097
 21
657.66000000000008
  0
ARC
  8
_0-1_計細線
  6
CONTINUOUS
 62
    3
 10
935.49999999965621
 20
655.26000000000022
 40
0.4999999999999998
 50
179.99999999999983
 51
269.99999999999977
  0
LINE
  8
_0-1_計細線
  6
CONTINUOUS
 62
    3
 10
934.99999999965621
 20
656.65999999999985
 11
934.99999999965621
 21
655.26000000000022
  0
ARC
  8
_0-1_計細線
  6
CONTINUOUS
 62
    3
 10
945.89999999744862
 20
655.26000000000022
 40
0.4999999999999998
 50
269.99999999999977
 51
359.99999999999966
  0
LINE
  8
_0-1_計細線
  6
CONTINUOUS
 62
    3
 10
946.39999999744941
 20
656.65999999999985
 11
946.39999999744941
 21
655.26000000000022
  0
ARC
  8
_0-1_計細線
  6
CONTINUOUS
 62
    3
 10
937.99999999965621
 20
653.76000000000022
 40
0.9999999999999997
 50
0
 51
89.999999999999915
  0
LINE
  8
_0-1_計細線
  6
CONTINUOUS
 62
    3
 10
937.99999999965621
 20
654.75999999999988
 11
935.49999999965621
 21
654.75999999999988
  0
ARC
  8
_0-1_計細線
  6
CONTINUOUS
 62
    3
 10
943.39999999965585
 20
653.76000000000022
 40
0.9999999999999997
 50
89.999999999999915
 51
179.99999999999983
  0
LINE
  8
_0-1_計細線
  6
CONTINUOUS
 62
    3
 10
943.39999999744941
 20
654.75999999999988
 11
945.89999999744862
 21
654.75999999999988
  0
LINE
  8
_0-1_計細線
  6
CONTINUOUS
 62
    3
 10
943.19999999855202
 20
658.65999999999985
 11
938.19999999855202
 21
658.65999999999985
  0
LINE
  8
_0-1_計細線
  6
CONTINUOUS
 62
    3
 10
938.99999999855208
 20
638.65999999999985
 11
938.9999999996553
 21
653.76000000000022
  0
LINE
  8
_0-1_計細線
  6
CONTINUOUS
 62
    3
 10
942.39999999855172
 20
638.65999999999985
 11
942.39999999965676
 21
653.76000000000022
  0
LINE
  8
_0-1_計細線
  6
CONTINUOUS
 62
    3
 10
942.39999999855172
 20
638.65999999999985
 11
938.99999999855208
 21
638.65999999999985
  0
ARC
  8
_0-1_計細線
  6
CONTINUOUS
 62
    3
 10
1224.6000000034091
 20
656.65999999999985
 40
0.9999999999999997
 50
89.999999999999915
 51
179.99999999999983
  0
ARC
  8
_0-1_計細線
  6
CONTINUOUS
 62
    3
 10
1225.0679491947376
 20
658.65999999999985
 40
0.9999999999999997
 50
269.99999999999977
 51
329.99999999998937
  0
ARC
  8
_0-1_計細線
  6
CONTINUOUS
 62
    3
 10
1226.8000000023048
 20
657.66000000000008
 40
0.9999999999999997
 50
89.999999999999915
 51
149.99999999997493
  0
LINE
  8
_0-1_計細線
  6
CONTINUOUS
 62
    3
 10
1224.6000000034091
 20
657.66000000000008
 11
1225.0679491947376
 21
657.66000000000008
  0
ARC
  8
_0-1_計細線
  6
CONTINUOUS
 62
    3
 10
1234.0000000012014
 20
656.65999999999985
 40
0.9999999999999997
 50
0
 51
89.999999999999915
  0
ARC
  8
_0-1_計細線
  6
CONTINUOUS
 62
    3
 10
1233.5320508098748
 20
658.65999999999985
 40
0.9999999999999997
 50
209.99999999998388
 51
269.99999999999977
  0
ARC
  8
_0-1_計細線
  6
CONTINUOUS
 62
    3
 10
1231.8000000023058
 20
657.66000000000008
 40
0.9999999999999997
 50
29.99999999999903
 51
89.999999999999901
  0
LINE
  8
_0-1_計細線
  6
CONTINUOUS
 62
    3
 10
1234.0000000012014
 20
657.66000000000008
 11
1233.5320508098748
 21
657.66000000000008
  0
ARC
  8
_0-1_計細線
  6
CONTINUOUS
 62
    3
 10
1224.1000000034082
 20
655.26000000000022
 40
0.4999999999999998
 50
179.99999999999983
 51
269.99999999999977
  0
LINE
  8
_0-1_計細線
  6
CONTINUOUS
 62
    3
 10
1223.6000000034091
 20
656.65999999999985
 11
1223.6000000034091
 21
655.26000000000022
  0
ARC
  8
_0-1_計細線
  6
CONTINUOUS
 62
    3
 10
1234.5000000012024
 20
655.26000000000022
 40
0.4999999999999998
 50
269.99999999999977
 51
359.99999999999966
  0
LINE
  8
_0-1_計細線
  6
CONTINUOUS
 62
    3
 10
1235.0000000012024
 20
656.65999999999985
 11
1235.0000000012024
 21
655.26000000000022
  0
ARC
  8
_0-1_計細線
  6
CONTINUOUS
 62
    3
 10
1226.6000000034091
 20
653.76000000000022
 40
0.9999999999999997
 50
0
 51
89.999999999999915
  0
LINE
  8
_0-1_計細線
  6
CONTINUOUS
 62
    3
 10
1226.6000000034091
 20
654.75999999999988
 11
1224.1000000034082
 21
654.75999999999988
  0
ARC
  8
_0-1_計細線
  6
CONTINUOUS
 62
    3
 10
1232.0000000034097
 20
653.76000000000022
 40
0.9999999999999997
 50
89.999999999999915
 51
179.99999999999983
  0
LINE
  8
_0-1_計細線
  6
CONTINUOUS
 62
    3
 10
1232.0000000012024
 20
654.75999999999988
 11
1234.5000000012024
 21
654.75999999999988
  0
LINE
  8
_0-1_計細線
  6
CONTINUOUS
 62
    3
 10
1231.8000000023058
 20
658.65999999999985
 11
1226.8000000023048
 21
658.65999999999985
  0
LINE
  8
_0-1_計細線
  6
CONTINUOUS
 62
    3
 10
1227.6000000023059
 20
638.65999999999985
 11
1227.6000000034091
 21
653.76000000000022
  0
LINE
  8
_0-1_計細線
  6
CONTINUOUS
 62
    3
 10
1231.0000000023065
 20
638.65999999999985
 11
1231.0000000034088
 21
653.76000000000022
  0
LINE
  8
_0-1_計細線
  6
CONTINUOUS
 62
    3
 10
1231.0000000023065
 20
638.65999999999985
 11
1227.6000000023059
 21
638.65999999999985
  0
ARC
  8
_0-1_計細線
  6
CONTINUOUS
 62
    3
 10
962.19999999676202
 20
656.65999999999985
 40
0.9999999999999997
 50
0
 51
89.999999999999915
  0
ARC
  8
_0-1_計細線
  6
CONTINUOUS
 62
    3
 10
961.73205080543448
 20
658.65999999999985
 40
0.9999999999999997
 50
210.00000000000995
 51
269.99999999999977
  0
ARC
  8
_0-1_計細線
  6
CONTINUOUS
 62
    3
 10
959.99999999786553
 20
657.66000000000008
 40
0.9999999999999997
 50
29.999999999972975
 51
89.999999999999901
  0
LINE
  8
_0-1_計細線
  6
CONTINUOUS
 62
    3
 10
962.19999999676202
 20
657.66000000000008
 11
961.73205080543448
 21
657.66000000000008
  0
ARC
  8
_0-1_計細線
  6
CONTINUOUS
 62
    3
 10
952.79999999896802
 20
656.65999999999985
 40
0.9999999999999997
 50
89.999999999999915
 51
179.99999999999983
  0
ARC
  8
_0-1_計細線
  6
CONTINUOUS
 62
    3
 10
953.26794919029635
 20
658.65999999999985
 40
0.9999999999999997
 50
269.99999999999977
 51
330.0000000000154
  0
ARC
  8
_0-1_計細線
  6
CONTINUOUS
 62
    3
 10
954.99999999786553
 20
657.66000000000008
 40
0.9999999999999997
 50
89.999999999999915
 51
150.00000000000097
  0
LINE
  8
_0-1_計細線
  6
CONTINUOUS
 62
    3
 10
952.79999999896802
 20
657.66000000000008
 11
953.26794919029635
 21
657.66000000000008
  0
ARC
  8
_0-1_計細線
  6
CONTINUOUS
 62
    3
 10
962.69999999676111
 20
655.26000000000022
 40
0.4999999999999998
 50
269.99999999999977
 51
359.99999999999966
  0
LINE
  8
_0-1_計細線
  6
CONTINUOUS
 62
    3
 10
963.19999999676213
 20
656.65999999999985
 11
963.19999999676213
 21
655.26000000000022
  0
ARC
  8
_0-1_計細線
  6
CONTINUOUS
 62
    3
 10
952.29999999896893
 20
655.26000000000022
 40
0.4999999999999998
 50
179.99999999999983
 51
269.99999999999977
  0
LINE
  8
_0-1_計細線
  6
CONTINUOUS
 62
    3
 10
951.79999999896972
 20
656.65999999999985
 11
951.79999999896972
 21
655.26000000000022
  0
ARC
  8
_0-1_計細線
  6
CONTINUOUS
 62
    3
 10
960.19999999676202
 20
653.76000000000022
 40
0.9999999999999997
 50
89.999999999999915
 51
179.99999999999983
  0
LINE
  8
_0-1_計細線
  6
CONTINUOUS
 62
    3
 10
960.19999999676202
 20
654.75999999999988
 11
962.69999999676111
 21
654.75999999999988
  0
ARC
  8
_0-1_計細線
  6
CONTINUOUS
 62
    3
 10
954.79999999676147
 20
653.76000000000022
 40
0.9999999999999997
 50
0
 51
89.999999999999915
  0
LINE
  8
_0-1_計細線
  6
CONTINUOUS
 62
    3
 10
954.79999999896972
 20
654.75999999999988
 11
952.29999999896893
 21
654.75999999999988
  0
LINE
  8
_0-1_計細線
  6
CONTINUOUS
 62
    3
 10
954.99999999786553
 20
658.65999999999985
 11
959.99999999786553
 21
658.65999999999985
  0
LINE
  8
_0-1_計細線
  6
CONTINUOUS
 62
    3
 10
959.19999999786523
 20
638.65999999999985
 11
959.19999999676202
 21
653.76000000000022
  0
LINE
  8
_0-1_計細線
  6
CONTINUOUS
 62
    3
 10
955.7999999978656
 20
638.65999999999985
 11
955.79999999676147
 21
653.76000000000022
  0
LINE
  8
_0-1_計細線
  6
CONTINUOUS
 62
    3
 10
955.7999999978656
 20
638.65999999999985
 11
959.19999999786523
 21
638.65999999999985
  0
ARC
  8
_0-1_計細線
  6
CONTINUOUS
 62
    3
 10
979.19999999693403
 20
656.65999999999985
 40
0.9999999999999997
 50
0
 51
89.999999999999915
  0
ARC
  8
_0-1_計細線
  6
CONTINUOUS
 62
    3
 10
978.73205080560638
 20
658.65999999999985
 40
0.9999999999999997
 50
210.00000000000995
 51
269.99999999999977
  0
ARC
  8
_0-1_計細線
  6
CONTINUOUS
 62
    3
 10
976.99999999803731
 20
657.66000000000008
 40
0.9999999999999997
 50
29.999999999972975
 51
89.999999999999901
  0
LINE
  8
_0-1_計細線
  6
CONTINUOUS
 62
    3
 10
979.19999999693403
 20
657.66000000000008
 11
978.73205080560638
 21
657.66000000000008
  0
ARC
  8
_0-1_計細線
  6
CONTINUOUS
 62
    3
 10
969.7999999991398
 20
656.65999999999985
 40
0.9999999999999997
 50
89.999999999999915
 51
179.99999999999983
  0
ARC
  8
_0-1_計細線
  6
CONTINUOUS
 62
    3
 10
970.26794919046836
 20
658.65999999999985
 40
0.9999999999999997
 50
269.99999999999977
 51
329.99999999998937
  0
ARC
  8
_0-1_計細線
  6
CONTINUOUS
 62
    3
 10
971.99999999803731
 20
657.66000000000008
 40
0.9999999999999997
 50
89.999999999999915
 51
150.00000000002703
  0
LINE
  8
_0-1_計細線
  6
CONTINUOUS
 62
    3
 10
969.7999999991398
 20
657.66000000000008
 11
970.26794919046836
 21
657.66000000000008
  0
ARC
  8
_0-1_計細線
  6
CONTINUOUS
 62
    3
 10
979.699999996933
 20
655.26000000000022
 40
0.4999999999999998
 50
269.99999999999977
 51
359.99999999999966
  0
LINE
  8
_0-1_計細線
  6
CONTINUOUS
 62
    3
 10
980.19999999693312
 20
656.65999999999985
 11
980.19999999693312
 21
655.26000000000022
  0
ARC
  8
_0-1_計細線
  6
CONTINUOUS
 62
    3
 10
969.29999999914071
 20
655.26000000000022
 40
0.4999999999999998
 50
179.99999999999983
 51
269.99999999999977
  0
LINE
  8
_0-1_計細線
  6
CONTINUOUS
 62
    3
 10
968.79999999914162
 20
656.65999999999985
 11
968.79999999914162
 21
655.26000000000022
  0
ARC
  8
_0-1_計細線
  6
CONTINUOUS
 62
    3
 10
977.199999996933
 20
653.76000000000022
 40
0.9999999999999997
 50
89.999999999999915
 51
179.99999999999983
  0
LINE
  8
_0-1_計細線
  6
CONTINUOUS
 62
    3
 10
977.199999996933
 20
654.75999999999988
 11
979.699999996933
 21
654.75999999999988
  0
ARC
  8
_0-1_計細線
  6
CONTINUOUS
 62
    3
 10
971.79999999693337
 20
653.76000000000022
 40
0.9999999999999997
 50
0
 51
89.999999999999915
  0
LINE
  8
_0-1_計細線
  6
CONTINUOUS
 62
    3
 10
971.79999999914173
 20
654.75999999999988
 11
969.29999999914071
 21
654.75999999999988
  0
LINE
  8
_0-1_計細線
  6
CONTINUOUS
 62
    3
 10
971.99999999803731
 20
658.65999999999985
 11
976.99999999803731
 21
658.65999999999985
  0
LINE
  8
_0-1_計細線
  6
CONTINUOUS
 62
    3
 10
976.19999999803724
 20
638.65999999999985
 11
976.19999999693391
 21
653.76000000000022
  0
LINE
  8
_0-1_計細線
  6
CONTINUOUS
 62
    3
 10
972.79999999803749
 20
638.65999999999985
 11
972.79999999693348
 21
653.76000000000022
  0
LINE
  8
_0-1_計細線
  6
CONTINUOUS
 62
    3
 10
972.79999999803749
 20
638.65999999999985
 11
976.19999999803724
 21
638.65999999999985
  0
ARC
  8
_0-1_計細線
  6
CONTINUOUS
 62
    3
 10
996.19999999710581
 20
656.65999999999985
 40
0.9999999999999997
 50
0
 51
89.999999999999915
  0
ARC
  8
_0-1_計細線
  6
CONTINUOUS
 62
    3
 10
995.73205080577839
 20
658.65999999999985
 40
0.9999999999999997
 50
209.99999999998388
 51
269.99999999999977
  0
ARC
  8
_0-1_計細線
  6
CONTINUOUS
 62
    3
 10
993.9999999982092
 20
657.66000000000008
 40
0.9999999999999997
 50
29.99999999999903
 51
89.999999999999901
  0
LINE
  8
_0-1_計細線
  6
CONTINUOUS
 62
    3
 10
996.19999999710581
 20
657.66000000000008
 11
995.73205080577839
 21
657.66000000000008
  0
ARC
  8
_0-1_計細線
  6
CONTINUOUS
 62
    3
 10
986.79999999931272
 20
656.65999999999985
 40
0.9999999999999997
 50
89.999999999999915
 51
179.99999999999983
  0
ARC
  8
_0-1_計細線
  6
CONTINUOUS
 62
    3
 10
987.26794919064014
 20
658.65999999999985
 40
0.9999999999999997
 50
269.99999999999977
 51
329.99999999998937
  0
ARC
  8
_0-1_計細線
  6
CONTINUOUS
 62
    3
 10
988.9999999982092
 20
657.66000000000008
 40
0.9999999999999997
 50
89.999999999999915
 51
150.00000000002703
  0
LINE
  8
_0-1_計細線
  6
CONTINUOUS
 62
    3
 10
986.79999999931272
 20
657.66000000000008
 11
987.26794919064014
 21
657.66000000000008
  0
ARC
  8
_0-1_計細線
  6
CONTINUOUS
 62
    3
 10
996.69999999710501
 20
655.26000000000022
 40
0.4999999999999998
 50
269.99999999999977
 51
359.99999999999966
  0
LINE
  8
_0-1_計細線
  6
CONTINUOUS
 62
    3
 10
997.1999999971049
 20
656.65999999999985
 11
997.1999999971049
 21
655.26000000000022
  0
ARC
  8
_0-1_計細線
  6
CONTINUOUS
 62
    3
 10
986.29999999931272
 20
655.26000000000022
 40
0.4999999999999998
 50
179.99999999999983
 51
269.99999999999977
  0
LINE
  8
_0-1_計細線
  6
CONTINUOUS
 62
    3
 10
985.7999999993126
 20
656.65999999999985
 11
985.7999999993126
 21
655.26000000000022
  0
ARC
  8
_0-1_計細線
  6
CONTINUOUS
 62
    3
 10
994.19999999710501
 20
653.76000000000022
 40
0.9999999999999997
 50
89.999999999999915
 51
179.99999999999983
  0
LINE
  8
_0-1_計細線
  6
CONTINUOUS
 62
    3
 10
994.19999999710501
 20
654.75999999999988
 11
996.69999999710501
 21
654.75999999999988
  0
ARC
  8
_0-1_計細線
  6
CONTINUOUS
 62
    3
 10
988.79999999710537
 20
653.76000000000022
 40
0.9999999999999997
 50
0
 51
89.999999999999915
  0
LINE
  8
_0-1_計細線
  6
CONTINUOUS
 62
    3
 10
988.79999999931272
 20
654.75999999999988
 11
986.29999999931272
 21
654.75999999999988
  0
LINE
  8
_0-1_計細線
  6
CONTINUOUS
 62
    3
 10
988.9999999982092
 20
658.65999999999985
 11
993.9999999982092
 21
658.65999999999985
  0
LINE
  8
_0-1_計細線
  6
CONTINUOUS
 62
    3
 10
993.19999999820902
 20
638.65999999999985
 11
993.19999999710592
 21
653.76000000000022
  0
LINE
  8
_0-1_計細線
  6
CONTINUOUS
 62
    3
 10
989.7999999982095
 20
638.65999999999985
 11
989.79999999710446
 21
653.76000000000022
  0
LINE
  8
_0-1_計細線
  6
CONTINUOUS
 62
    3
 10
989.7999999982095
 20
638.65999999999985
 11
993.19999999820902
 21
638.65999999999985
  0
ARC
  8
_0-1_計細線
  6
CONTINUOUS
 62
    3
 10
1207.800000003238
 20
656.65999999999985
 40
0.9999999999999997
 50
89.999999999999915
 51
179.99999999999983
  0
ARC
  8
_0-1_計細線
  6
CONTINUOUS
 62
    3
 10
1208.2679491945646
 20
658.65999999999985
 40
0.9999999999999997
 50
269.99999999999977
 51
330.0000000000154
  0
ARC
  8
_0-1_計細線
  6
CONTINUOUS
 62
    3
 10
1210.0000000021337
 20
657.66000000000008
 40
0.9999999999999997
 50
89.999999999999915
 51
150.00000000000097
  0
LINE
  8
_0-1_計細線
  6
CONTINUOUS
 62
    3
 10
1207.800000003238
 20
657.66000000000008
 11
1208.2679491945646
 21
657.66000000000008
  0
ARC
  8
_0-1_計細線
  6
CONTINUOUS
 62
    3
 10
1217.2000000010303
 20
656.65999999999985
 40
0.9999999999999997
 50
0
 51
89.999999999999915
  0
ARC
  8
_0-1_計細線
  6
CONTINUOUS
 62
    3
 10
1216.7320508097018
 20
658.65999999999985
 40
0.9999999999999997
 50
210.00000000000995
 51
269.99999999999977
  0
ARC
  8
_0-1_計細線
  6
CONTINUOUS
 62
    3
 10
1215.0000000021328
 20
657.66000000000008
 40
0.9999999999999997
 50
29.999999999972975
 51
89.999999999999901
  0
LINE
  8
_0-1_計細線
  6
CONTINUOUS
 62
    3
 10
1217.2000000010303
 20
657.66000000000008
 11
1216.7320508097018
 21
657.66000000000008
  0
ARC
  8
_0-1_計細線
  6
CONTINUOUS
 62
    3
 10
1207.3000000032371
 20
655.26000000000022
 40
0.4999999999999998
 50
179.99999999999983
 51
269.99999999999977
  0
LINE
  8
_0-1_計細線
  6
CONTINUOUS
 62
    3
 10
1206.8000000032371
 20
656.65999999999985
 11
1206.8000000032371
 21
655.26000000000022
  0
ARC
  8
_0-1_計細線
  6
CONTINUOUS
 62
    3
 10
1217.7000000010312
 20
655.26000000000022
 40
0.4999999999999998
 50
269.99999999999977
 51
359.99999999999966
  0
LINE
  8
_0-1_計細線
  6
CONTINUOUS
 62
    3
 10
1218.2000000010303
 20
656.65999999999985
 11
1218.2000000010303
 21
655.26000000000022
  0
ARC
  8
_0-1_計細線
  6
CONTINUOUS
 62
    3
 10
1209.8000000032371
 20
653.76000000000022
 40
0.9999999999999997
 50
0
 51
89.999999999999915
  0
LINE
  8
_0-1_計細線
  6
CONTINUOUS
 62
    3
 10
1209.8000000032371
 20
654.75999999999988
 11
1207.3000000032371
 21
654.75999999999988
  0
ARC
  8
_0-1_計細線
  6
CONTINUOUS
 62
    3
 10
1215.2000000032367
 20
653.76000000000022
 40
0.9999999999999997
 50
89.999999999999915
 51
179.99999999999983
  0
LINE
  8
_0-1_計細線
  6
CONTINUOUS
 62
    3
 10
1215.2000000010303
 20
654.75999999999988
 11
1217.7000000010312
 21
654.75999999999988
  0
LINE
  8
_0-1_計細線
  6
CONTINUOUS
 62
    3
 10
1215.0000000021328
 20
658.65999999999985
 11
1210.0000000021337
 21
658.65999999999985
  0
LINE
  8
_0-1_計細線
  6
CONTINUOUS
 62
    3
 10
1210.8000000021329
 20
638.65999999999985
 11
1210.800000003238
 21
653.76000000000022
  0
LINE
  8
_0-1_計細線
  6
CONTINUOUS
 62
    3
 10
1214.2000000021335
 20
638.65999999999985
 11
1214.2000000032376
 21
653.76000000000022
  0
LINE
  8
_0-1_計細線
  6
CONTINUOUS
 62
    3
 10
1214.2000000021335
 20
638.65999999999985
 11
1210.8000000021329
 21
638.65999999999985
  0
ARC
  8
_0-1_計細線
  6
CONTINUOUS
 62
    3
 10
1190.8000000030661
 20
656.65999999999985
 40
0.9999999999999997
 50
89.999999999999915
 51
179.99999999999983
  0
ARC
  8
_0-1_計細線
  6
CONTINUOUS
 62
    3
 10
1191.2679491943936
 20
658.65999999999985
 40
0.9999999999999997
 50
269.99999999999977
 51
329.99999999998937
  0
ARC
  8
_0-1_計細線
  6
CONTINUOUS
 62
    3
 10
1193.0000000019618
 20
657.66000000000008
 40
0.9999999999999997
 50
89.999999999999915
 51
150.00000000000097
  0
LINE
  8
_0-1_計細線
  6
CONTINUOUS
 62
    3
 10
1190.8000000030661
 20
657.66000000000008
 11
1191.2679491943936
 21
657.66000000000008
  0
ARC
  8
_0-1_計細線
  6
CONTINUOUS
 62
    3
 10
1200.2000000008575
 20
656.65999999999985
 40
0.9999999999999997
 50
0
 51
89.999999999999915
  0
ARC
  8
_0-1_計細線
  6
CONTINUOUS
 62
    3
 10
1199.7320508095299
 20
658.65999999999985
 40
0.9999999999999997
 50
210.00000000000995
 51
269.99999999999977
  0
ARC
  8
_0-1_計細線
  6
CONTINUOUS
 62
    3
 10
1198.0000000019618
 20
657.66000000000008
 40
0.9999999999999997
 50
29.99999999999903
 51
89.999999999999901
  0
LINE
  8
_0-1_計細線
  6
CONTINUOUS
 62
    3
 10
1200.2000000008575
 20
657.66000000000008
 11
1199.7320508095299
 21
657.66000000000008
  0
ARC
  8
_0-1_計細線
  6
CONTINUOUS
 62
    3
 10
1190.3000000030652
 20
655.26000000000022
 40
0.4999999999999998
 50
179.99999999999983
 51
269.99999999999977
  0
LINE
  8
_0-1_計細線
  6
CONTINUOUS
 62
    3
 10
1189.8000000030652
 20
656.65999999999985
 11
1189.8000000030652
 21
655.26000000000022
  0
ARC
  8
_0-1_計細線
  6
CONTINUOUS
 62
    3
 10
1200.7000000008593
 20
655.26000000000022
 40
0.4999999999999998
 50
269.99999999999977
 51
359.99999999999966
  0
LINE
  8
_0-1_計細線
  6
CONTINUOUS
 62
    3
 10
1201.2000000008584
 20
656.65999999999985
 11
1201.2000000008584
 21
655.26000000000022
  0
ARC
  8
_0-1_計細線
  6
CONTINUOUS
 62
    3
 10
1192.8000000030652
 20
653.76000000000022
 40
0.9999999999999997
 50
0
 51
89.999999999999915
  0
LINE
  8
_0-1_計細線
  6
CONTINUOUS
 62
    3
 10
1192.8000000030652
 20
654.75999999999988
 11
1190.3000000030652
 21
654.75999999999988
  0
ARC
  8
_0-1_計細線
  6
CONTINUOUS
 62
    3
 10
1198.2000000030648
 20
653.76000000000022
 40
0.9999999999999997
 50
89.999999999999915
 51
179.99999999999983
  0
LINE
  8
_0-1_計細線
  6
CONTINUOUS
 62
    3
 10
1198.2000000008584
 20
654.75999999999988
 11
1200.7000000008593
 21
654.75999999999988
  0
LINE
  8
_0-1_計細線
  6
CONTINUOUS
 62
    3
 10
1198.0000000019618
 20
658.65999999999985
 11
1193.0000000019618
 21
658.65999999999985
  0
LINE
  8
_0-1_計細線
  6
CONTINUOUS
 62
    3
 10
1193.8000000019611
 20
638.65999999999985
 11
1193.8000000030661
 21
653.76000000000022
  0
LINE
  8
_0-1_計細線
  6
CONTINUOUS
 62
    3
 10
1197.2000000019625
 20
638.65999999999985
 11
1197.2000000030657
 21
653.76000000000022
  0
LINE
  8
_0-1_計細線
  6
CONTINUOUS
 62
    3
 10
1197.2000000019625
 20
638.65999999999985
 11
1193.8000000019611
 21
638.65999999999985
  0
ARC
  8
_0-1_計細線
  6
CONTINUOUS
 62
    3
 10
1173.8000000028942
 20
656.65999999999985
 40
0.9999999999999997
 50
89.999999999999915
 51
179.99999999999983
  0
ARC
  8
_0-1_計細線
  6
CONTINUOUS
 62
    3
 10
1174.2679491942217
 20
658.65999999999985
 40
0.9999999999999997
 50
269.99999999999977
 51
329.99999999998937
  0
ARC
  8
_0-1_計細線
  6
CONTINUOUS
 62
    3
 10
1176.0000000017908
 20
657.66000000000008
 40
0.9999999999999997
 50
89.999999999999915
 51
150.00000000002703
  0
LINE
  8
_0-1_計細線
  6
CONTINUOUS
 62
    3
 10
1173.8000000028942
 20
657.66000000000008
 11
1174.2679491942217
 21
657.66000000000008
  0
ARC
  8
_0-1_計細線
  6
CONTINUOUS
 62
    3
 10
1183.2000000006856
 20
656.65999999999985
 40
0.9999999999999997
 50
0
 51
89.999999999999915
  0
ARC
  8
_0-1_計細線
  6
CONTINUOUS
 62
    3
 10
1182.732050809359
 20
658.65999999999985
 40
0.9999999999999997
 50
209.99999999998388
 51
269.99999999999977
  0
ARC
  8
_0-1_計細線
  6
CONTINUOUS
 62
    3
 10
1181.0000000017899
 20
657.66000000000008
 40
0.9999999999999997
 50
29.99999999999903
 51
89.999999999999901
  0
LINE
  8
_0-1_計細線
  6
CONTINUOUS
 62
    3
 10
1183.2000000006856
 20
657.66000000000008
 11
1182.732050809359
 21
657.66000000000008
  0
ARC
  8
_0-1_計細線
  6
CONTINUOUS
 62
    3
 10
1173.3000000028924
 20
655.26000000000022
 40
0.4999999999999998
 50
179.99999999999983
 51
269.99999999999977
  0
LINE
  8
_0-1_計細線
  6
CONTINUOUS
 62
    3
 10
1172.8000000028933
 20
656.65999999999985
 11
1172.8000000028933
 21
655.26000000000022
  0
ARC
  8
_0-1_計細線
  6
CONTINUOUS
 62
    3
 10
1183.7000000006874
 20
655.26000000000022
 40
0.4999999999999998
 50
269.99999999999977
 51
359.99999999999966
  0
LINE
  8
_0-1_計細線
  6
CONTINUOUS
 62
    3
 10
1184.2000000006865
 20
656.65999999999985
 11
1184.2000000006865
 21
655.26000000000022
  0
ARC
  8
_0-1_計細線
  6
CONTINUOUS
 62
    3
 10
1175.8000000028933
 20
653.76000000000022
 40
0.9999999999999997
 50
0
 51
89.999999999999915
  0
LINE
  8
_0-1_計細線
  6
CONTINUOUS
 62
    3
 10
1175.8000000028933
 20
654.75999999999988
 11
1173.3000000028924
 21
654.75999999999988
  0
ARC
  8
_0-1_計細線
  6
CONTINUOUS
 62
    3
 10
1181.2000000028938
 20
653.76000000000022
 40
0.9999999999999997
 50
89.999999999999915
 51
179.99999999999983
  0
LINE
  8
_0-1_計細線
  6
CONTINUOUS
 62
    3
 10
1181.2000000006865
 20
654.75999999999988
 11
1183.7000000006874
 21
654.75999999999988
  0
LINE
  8
_0-1_計細線
  6
CONTINUOUS
 62
    3
 10
1181.0000000017899
 20
658.65999999999985
 11
1176.0000000017908
 21
658.65999999999985
  0
LINE
  8
_0-1_計細線
  6
CONTINUOUS
 62
    3
 10
1176.8000000017901
 20
638.65999999999985
 11
1176.8000000028942
 21
653.76000000000022
  0
LINE
  8
_0-1_計細線
  6
CONTINUOUS
 62
    3
 10
1180.2000000017906
 20
638.65999999999985
 11
1180.2000000028938
 21
653.76000000000022
  0
LINE
  8
_0-1_計細線
  6
CONTINUOUS
 62
    3
 10
1180.2000000017906
 20
638.65999999999985
 11
1176.8000000017901
 21
638.65999999999985
  0
ARC
  8
_0-1_計細線
  6
CONTINUOUS
 62
    3
 10
1003.8000000000184
 20
656.65999999999985
 40
0.9999999999999997
 50
89.999999999999915
 51
179.99999999999983
  0
ARC
  8
_0-1_計細線
  6
CONTINUOUS
 62
    3
 10
1004.2679491913451
 20
658.65999999999985
 40
0.9999999999999997
 50
269.99999999999977
 51
330.0000000000154
  0
ARC
  8
_0-1_計細線
  6
CONTINUOUS
 62
    3
 10
1005.9999999989141
 20
657.66000000000008
 40
0.9999999999999997
 50
89.999999999999915
 51
150.00000000000097
  0
LINE
  8
_0-1_計細線
  6
CONTINUOUS
 62
    3
 10
1003.8000000000184
 20
657.66000000000008
 11
1004.2679491913451
 21
657.66000000000008
  0
ARC
  8
_0-1_計細線
  6
CONTINUOUS
 62
    3
 10
1013.1999999978098
 20
656.65999999999985
 40
0.9999999999999997
 50
0
 51
89.999999999999915
  0
ARC
  8
_0-1_計細線
  6
CONTINUOUS
 62
    3
 10
1012.7320508064822
 20
658.65999999999985
 40
0.9999999999999997
 50
210.00000000000995
 51
269.99999999999977
  0
ARC
  8
_0-1_計細線
  6
CONTINUOUS
 62
    3
 10
1010.9999999989133
 20
657.66000000000008
 40
0.9999999999999997
 50
29.999999999972975
 51
89.999999999999901
  0
LINE
  8
_0-1_計細線
  6
CONTINUOUS
 62
    3
 10
1013.1999999978098
 20
657.66000000000008
 11
1012.7320508064822
 21
657.66000000000008
  0
ARC
  8
_0-1_計細線
  6
CONTINUOUS
 62
    3
 10
1003.3000000000175
 20
655.26000000000022
 40
0.4999999999999998
 50
179.99999999999983
 51
269.99999999999977
  0
LINE
  8
_0-1_計細線
  6
CONTINUOUS
 62
    3
 10
1002.8000000000175
 20
656.65999999999985
 11
1002.8000000000175
 21
655.26000000000022
  0
ARC
  8
_0-1_計細線
  6
CONTINUOUS
 62
    3
 10
1013.6999999978099
 20
655.26000000000022
 40
0.4999999999999998
 50
269.99999999999977
 51
359.99999999999966
  0
LINE
  8
_0-1_計細線
  6
CONTINUOUS
 62
    3
 10
1014.1999999978107
 20
656.65999999999985
 11
1014.1999999978107
 21
655.26000000000022
  0
ARC
  8
_0-1_計細線
  6
CONTINUOUS
 62
    3
 10
1005.8000000000175
 20
653.76000000000022
 40
0.9999999999999997
 50
0
 51
89.999999999999915
  0
LINE
  8
_0-1_計細線
  6
CONTINUOUS
 62
    3
 10
1005.8000000000175
 20
654.75999999999988
 11
1003.3000000000175
 21
654.75999999999988
  0
ARC
  8
_0-1_計細線
  6
CONTINUOUS
 62
    3
 10
1011.2000000000171
 20
653.76000000000022
 40
0.9999999999999997
 50
89.999999999999915
 51
179.99999999999983
  0
LINE
  8
_0-1_計細線
  6
CONTINUOUS
 62
    3
 10
1011.1999999978107
 20
654.75999999999988
 11
1013.6999999978099
 21
654.75999999999988
  0
LINE
  8
_0-1_計細線
  6
CONTINUOUS
 62
    3
 10
1010.9999999989133
 20
658.65999999999985
 11
1005.9999999989141
 21
658.65999999999985
  0
LINE
  8
_0-1_計細線
  6
CONTINUOUS
 62
    3
 10
1006.7999999989133
 20
638.65999999999985
 11
1006.8000000000184
 21
653.76000000000022
  0
LINE
  8
_0-1_計細線
  6
CONTINUOUS
 62
    3
 10
1010.199999998914
 20
638.65999999999985
 11
1010.200000000018
 21
653.76000000000022
  0
LINE
  8
_0-1_計細線
  6
CONTINUOUS
 62
    3
 10
1010.199999998914
 20
638.65999999999985
 11
1006.7999999989133
 21
638.65999999999985
  0
ARC
  8
_0-1_計細線
  6
CONTINUOUS
 62
    3
 10
1156.8000000027214
 20
656.65999999999985
 40
0.9999999999999997
 50
89.999999999999915
 51
179.99999999999983
  0
ARC
  8
_0-1_計細線
  6
CONTINUOUS
 62
    3
 10
1157.2679491940498
 20
658.65999999999985
 40
0.9999999999999997
 50
269.99999999999977
 51
329.99999999998937
  0
ARC
  8
_0-1_計細線
  6
CONTINUOUS
 62
    3
 10
1159.0000000016189
 20
657.66000000000008
 40
0.9999999999999997
 50
89.999999999999915
 51
150.00000000002703
  0
LINE
  8
_0-1_計細線
  6
CONTINUOUS
 62
    3
 10
1156.8000000027214
 20
657.66000000000008
 11
1157.2679491940498
 21
657.66000000000008
  0
ARC
  8
_0-1_計細線
  6
CONTINUOUS
 62
    3
 10
1166.2000000005146
 20
656.65999999999985
 40
0.9999999999999997
 50
0
 51
89.999999999999915
  0
ARC
  8
_0-1_計細線
  6
CONTINUOUS
 62
    3
 10
1165.7320508091871
 20
658.65999999999985
 40
0.9999999999999997
 50
209.99999999998388
 51
269.99999999999977
  0
ARC
  8
_0-1_計細線
  6
CONTINUOUS
 62
    3
 10
1164.000000001618
 20
657.66000000000008
 40
0.9999999999999997
 50
29.99999999999903
 51
89.999999999999901
  0
LINE
  8
_0-1_計細線
  6
CONTINUOUS
 62
    3
 10
1166.2000000005146
 20
657.66000000000008
 11
1165.7320508091871
 21
657.66000000000008
  0
ARC
  8
_0-1_計細線
  6
CONTINUOUS
 62
    3
 10
1156.3000000027214
 20
655.26000000000022
 40
0.4999999999999998
 50
179.99999999999983
 51
269.99999999999977
  0
LINE
  8
_0-1_計細線
  6
CONTINUOUS
 62
    3
 10
1155.8000000027214
 20
656.65999999999985
 11
1155.8000000027214
 21
655.26000000000022
  0
ARC
  8
_0-1_計細線
  6
CONTINUOUS
 62
    3
 10
1166.7000000005146
 20
655.26000000000022
 40
0.4999999999999998
 50
269.99999999999977
 51
359.99999999999966
  0
LINE
  8
_0-1_計細線
  6
CONTINUOUS
 62
    3
 10
1167.2000000005146
 20
656.65999999999985
 11
1167.2000000005146
 21
655.26000000000022
  0
ARC
  8
_0-1_計細線
  6
CONTINUOUS
 62
    3
 10
1158.8000000027214
 20
653.76000000000022
 40
0.9999999999999997
 50
0
 51
89.999999999999915
  0
LINE
  8
_0-1_計細線
  6
CONTINUOUS
 62
    3
 10
1158.8000000027214
 20
654.75999999999988
 11
1156.3000000027214
 21
654.75999999999988
  0
ARC
  8
_0-1_計細線
  6
CONTINUOUS
 62
    3
 10
1164.2000000027219
 20
653.76000000000022
 40
0.9999999999999997
 50
89.999999999999915
 51
179.99999999999983
  0
LINE
  8
_0-1_計細線
  6
CONTINUOUS
 62
    3
 10
1164.2000000005146
 20
654.75999999999988
 11
1166.7000000005146
 21
654.75999999999988
  0
LINE
  8
_0-1_計細線
  6
CONTINUOUS
 62
    3
 10
1164.000000001618
 20
658.65999999999985
 11
1159.0000000016189
 21
658.65999999999985
  0
LINE
  8
_0-1_計細線
  6
CONTINUOUS
 62
    3
 10
1159.8000000016182
 20
638.65999999999985
 11
1159.8000000027214
 21
653.76000000000022
  0
LINE
  8
_0-1_計細線
  6
CONTINUOUS
 62
    3
 10
1163.2000000016187
 20
638.65999999999985
 11
1163.2000000027219
 21
653.76000000000022
  0
LINE
  8
_0-1_計細線
  6
CONTINUOUS
 62
    3
 10
1163.2000000016187
 20
638.65999999999985
 11
1159.8000000016182
 21
638.65999999999985
  0
ARC
  8
_0-1_計細線
  6
CONTINUOUS
 62
    3
 10
1139.8000000023594
 20
656.65999999999985
 40
0.9999999999999997
 50
89.999999999999915
 51
179.99999999999983
  0
ARC
  8
_0-1_計細線
  6
CONTINUOUS
 62
    3
 10
1140.2679491936869
 20
658.65999999999985
 40
0.9999999999999997
 50
269.99999999999977
 51
330.0000000000154
  0
ARC
  8
_0-1_計細線
  6
CONTINUOUS
 62
    3
 10
1142.000000001256
 20
657.66000000000008
 40
0.9999999999999997
 50
89.999999999999915
 51
150.00000000000097
  0
LINE
  8
_0-1_計細線
  6
CONTINUOUS
 62
    3
 10
1139.8000000023594
 20
657.66000000000008
 11
1140.2679491936869
 21
657.66000000000008
  0
ARC
  8
_0-1_計細線
  6
CONTINUOUS
 62
    3
 10
1149.2000000001526
 20
656.65999999999985
 40
0.9999999999999997
 50
0
 51
89.999999999999915
  0
ARC
  8
_0-1_計細線
  6
CONTINUOUS
 62
    3
 10
1148.7320508088251
 20
658.65999999999985
 40
0.9999999999999997
 50
210.00000000000995
 51
269.99999999999977
  0
ARC
  8
_0-1_計細線
  6
CONTINUOUS
 62
    3
 10
1147.000000001256
 20
657.66000000000008
 40
0.9999999999999997
 50
29.999999999972975
 51
89.999999999999901
  0
LINE
  8
_0-1_計細線
  6
CONTINUOUS
 62
    3
 10
1149.2000000001526
 20
657.66000000000008
 11
1148.7320508088251
 21
657.66000000000008
  0
ARC
  8
_0-1_計細線
  6
CONTINUOUS
 62
    3
 10
1139.3000000023594
 20
655.26000000000022
 40
0.4999999999999998
 50
179.99999999999983
 51
269.99999999999977
  0
LINE
  8
_0-1_計細線
  6
CONTINUOUS
 62
    3
 10
1138.8000000023603
 20
656.65999999999985
 11
1138.8000000023603
 21
655.26000000000022
  0
ARC
  8
_0-1_計細線
  6
CONTINUOUS
 62
    3
 10
1149.7000000001526
 20
655.26000000000022
 40
0.4999999999999998
 50
269.99999999999977
 51
359.99999999999966
  0
LINE
  8
_0-1_計細線
  6
CONTINUOUS
 62
    3
 10
1150.2000000001535
 20
656.65999999999985
 11
1150.2000000001535
 21
655.26000000000022
  0
ARC
  8
_0-1_計細線
  6
CONTINUOUS
 62
    3
 10
1141.8000000023603
 20
653.76000000000022
 40
0.9999999999999997
 50
0
 51
89.999999999999915
  0
LINE
  8
_0-1_計細線
  6
CONTINUOUS
 62
    3
 10
1141.8000000023603
 20
654.75999999999988
 11
1139.3000000023594
 21
654.75999999999988
  0
ARC
  8
_0-1_計細線
  6
CONTINUOUS
 62
    3
 10
1147.20000000236
 20
653.76000000000022
 40
0.9999999999999997
 50
89.999999999999915
 51
179.99999999999983
  0
LINE
  8
_0-1_計細線
  6
CONTINUOUS
 62
    3
 10
1147.2000000001535
 20
654.75999999999988
 11
1149.7000000001526
 21
654.75999999999988
  0
LINE
  8
_0-1_計細線
  6
CONTINUOUS
 62
    3
 10
1147.000000001256
 20
658.65999999999985
 11
1142.000000001256
 21
658.65999999999985
  0
LINE
  8
_0-1_計細線
  6
CONTINUOUS
 62
    3
 10
1142.8000000012562
 20
638.65999999999985
 11
1142.8000000023594
 21
653.76000000000022
  0
LINE
  8
_0-1_計細線
  6
CONTINUOUS
 62
    3
 10
1146.2000000012567
 20
638.65999999999985
 11
1146.200000002359
 21
653.76000000000022
  0
LINE
  8
_0-1_計細線
  6
CONTINUOUS
 62
    3
 10
1146.2000000012567
 20
638.65999999999985
 11
1142.8000000012562
 21
638.65999999999985
  0
ARC
  8
_0-1_計細線
  6
CONTINUOUS
 62
    3
 10
1020.8000000000175
 20
656.65999999999985
 40
0.9999999999999997
 50
89.999999999999915
 51
179.99999999999983
  0
ARC
  8
_0-1_計細線
  6
CONTINUOUS
 62
    3
 10
1021.2679491913451
 20
658.65999999999985
 40
0.9999999999999997
 50
269.99999999999977
 51
329.99999999998937
  0
ARC
  8
_0-1_計細線
  6
CONTINUOUS
 62
    3
 10
1022.9999999989133
 20
657.66000000000008
 40
0.9999999999999997
 50
89.999999999999915
 51
150.00000000000097
  0
LINE
  8
_0-1_計細線
  6
CONTINUOUS
 62
    3
 10
1020.8000000000175
 20
657.66000000000008
 11
1021.2679491913451
 21
657.66000000000008
  0
ARC
  8
_0-1_計細線
  6
CONTINUOUS
 62
    3
 10
1030.1999999978098
 20
656.65999999999985
 40
0.9999999999999997
 50
0
 51
89.999999999999915
  0
ARC
  8
_0-1_計細線
  6
CONTINUOUS
 62
    3
 10
1029.7320508064831
 20
658.65999999999985
 40
0.9999999999999997
 50
209.99999999998388
 51
269.99999999999977
  0
ARC
  8
_0-1_計細線
  6
CONTINUOUS
 62
    3
 10
1027.9999999989141
 20
657.66000000000008
 40
0.9999999999999997
 50
29.99999999999903
 51
89.999999999999901
  0
LINE
  8
_0-1_計細線
  6
CONTINUOUS
 62
    3
 10
1030.1999999978098
 20
657.66000000000008
 11
1029.7320508064831
 21
657.66000000000008
  0
ARC
  8
_0-1_計細線
  6
CONTINUOUS
 62
    3
 10
1020.3000000000185
 20
655.26000000000022
 40
0.4999999999999998
 50
179.99999999999983
 51
269.99999999999977
  0
LINE
  8
_0-1_計細線
  6
CONTINUOUS
 62
    3
 10
1019.8000000000175
 20
656.65999999999985
 11
1019.8000000000175
 21
655.26000000000022
  0
ARC
  8
_0-1_計細線
  6
CONTINUOUS
 62
    3
 10
1030.6999999978107
 20
655.26000000000022
 40
0.4999999999999998
 50
269.99999999999977
 51
359.99999999999966
  0
LINE
  8
_0-1_計細線
  6
CONTINUOUS
 62
    3
 10
1031.1999999978098
 20
656.65999999999985
 11
1031.1999999978098
 21
655.26000000000022
  0
ARC
  8
_0-1_計細線
  6
CONTINUOUS
 62
    3
 10
1022.8000000000175
 20
653.76000000000022
 40
0.9999999999999997
 50
0
 51
89.999999999999915
  0
LINE
  8
_0-1_計細線
  6
CONTINUOUS
 62
    3
 10
1022.8000000000175
 20
654.75999999999988
 11
1020.3000000000185
 21
654.75999999999988
  0
ARC
  8
_0-1_計細線
  6
CONTINUOUS
 62
    3
 10
1028.200000000018
 20
653.76000000000022
 40
0.9999999999999997
 50
89.999999999999915
 51
179.99999999999983
  0
LINE
  8
_0-1_計細線
  6
CONTINUOUS
 62
    3
 10
1028.1999999978098
 20
654.75999999999988
 11
1030.6999999978107
 21
654.75999999999988
  0
LINE
  8
_0-1_計細線
  6
CONTINUOUS
 62
    3
 10
1027.9999999989141
 20
658.65999999999985
 11
1022.9999999989133
 21
658.65999999999985
  0
LINE
  8
_0-1_計細線
  6
CONTINUOUS
 62
    3
 10
1023.7999999989142
 20
638.65999999999985
 11
1023.8000000000176
 21
653.76000000000022
  0
LINE
  8
_0-1_計細線
  6
CONTINUOUS
 62
    3
 10
1027.1999999989139
 20
638.65999999999985
 11
1027.200000000018
 21
653.76000000000022
  0
LINE
  8
_0-1_計細線
  6
CONTINUOUS
 62
    3
 10
1027.1999999989139
 20
638.65999999999985
 11
1023.7999999989142
 21
638.65999999999985
  0
ARC
  8
_0-1_計細線
  6
CONTINUOUS
 62
    3
 10
1037.8000000003785
 20
656.65999999999985
 40
0.9999999999999997
 50
89.999999999999915
 51
179.99999999999983
  0
ARC
  8
_0-1_計細線
  6
CONTINUOUS
 62
    3
 10
1038.2679491917061
 20
658.65999999999985
 40
0.9999999999999997
 50
269.99999999999977
 51
330.0000000000154
  0
ARC
  8
_0-1_計細線
  6
CONTINUOUS
 62
    3
 10
1039.9999999992751
 20
657.66000000000008
 40
0.9999999999999997
 50
89.999999999999915
 51
150.00000000000097
  0
LINE
  8
_0-1_計細線
  6
CONTINUOUS
 62
    3
 10
1037.8000000003785
 20
657.66000000000008
 11
1038.2679491917061
 21
657.66000000000008
  0
ARC
  8
_0-1_計細線
  6
CONTINUOUS
 62
    3
 10
1047.1999999981726
 20
656.65999999999985
 40
0.9999999999999997
 50
0
 51
89.999999999999915
  0
ARC
  8
_0-1_計細線
  6
CONTINUOUS
 62
    3
 10
1046.7320508068442
 20
658.65999999999985
 40
0.9999999999999997
 50
210.00000000000995
 51
269.99999999999977
  0
ARC
  8
_0-1_計細線
  6
CONTINUOUS
 62
    3
 10
1044.999999999277
 20
657.66000000000008
 40
0.9999999999999997
 50
30.000000000025086
 51
89.999999999999901
  0
LINE
  8
_0-1_計細線
  6
CONTINUOUS
 62
    3
 10
1047.1999999981726
 20
657.66000000000008
 11
1046.7320508068442
 21
657.66000000000008
  0
ARC
  8
_0-1_計細線
  6
CONTINUOUS
 62
    3
 10
1037.3000000003794
 20
655.26000000000022
 40
0.4999999999999998
 50
179.99999999999983
 51
269.99999999999977
  0
LINE
  8
_0-1_計細線
  6
CONTINUOUS
 62
    3
 10
1036.8000000003794
 20
656.65999999999985
 11
1036.8000000003794
 21
655.26000000000022
  0
ARC
  8
_0-1_計細線
  6
CONTINUOUS
 62
    3
 10
1047.6999999981717
 20
655.26000000000022
 40
0.4999999999999998
 50
269.99999999999977
 51
359.99999999999966
  0
LINE
  8
_0-1_計細線
  6
CONTINUOUS
 62
    3
 10
1048.1999999981717
 20
656.65999999999985
 11
1048.1999999981717
 21
655.26000000000022
  0
ARC
  8
_0-1_計細線
  6
CONTINUOUS
 62
    3
 10
1039.8000000003794
 20
653.76000000000022
 40
0.9999999999999997
 50
0
 51
89.999999999999915
  0
LINE
  8
_0-1_計細線
  6
CONTINUOUS
 62
    3
 10
1039.8000000003794
 20
654.75999999999988
 11
1037.3000000003794
 21
654.75999999999988
  0
ARC
  8
_0-1_計細線
  6
CONTINUOUS
 62
    3
 10
1045.2000000003791
 20
653.76000000000022
 40
0.9999999999999997
 50
89.999999999999915
 51
179.99999999999983
  0
LINE
  8
_0-1_計細線
  6
CONTINUOUS
 62
    3
 10
1045.1999999981717
 20
654.75999999999988
 11
1047.6999999981717
 21
654.75999999999988
  0
LINE
  8
_0-1_計細線
  6
CONTINUOUS
 62
    3
 10
1044.999999999277
 20
658.65999999999985
 11
1039.9999999992751
 21
658.65999999999985
  0
LINE
  8
_0-1_計細線
  6
CONTINUOUS
 62
    3
 10
1040.7999999992753
 20
638.65999999999985
 11
1040.8000000003785
 21
653.76000000000022
  0
LINE
  8
_0-1_計細線
  6
CONTINUOUS
 62
    3
 10
1044.199999999275
 20
638.65999999999985
 11
1044.20000000038
 21
653.76000000000022
  0
LINE
  8
_0-1_計細線
  6
CONTINUOUS
 62
    3
 10
1044.199999999275
 20
638.65999999999985
 11
1040.7999999992753
 21
638.65999999999985
  0
ARC
  8
_0-1_計細線
  6
CONTINUOUS
 62
    3
 10
1054.8000000007405
 20
656.65999999999985
 40
0.9999999999999997
 50
89.999999999999915
 51
179.99999999999983
  0
ARC
  8
_0-1_計細線
  6
CONTINUOUS
 62
    3
 10
1055.267949192069
 20
658.65999999999985
 40
0.9999999999999997
 50
269.99999999999977
 51
329.99999999998937
  0
ARC
  8
_0-1_計細線
  6
CONTINUOUS
 62
    3
 10
1056.999999999638
 20
657.66000000000008
 40
0.9999999999999997
 50
89.999999999999915
 51
150.00000000002703
  0
LINE
  8
_0-1_計細線
  6
CONTINUOUS
 62
    3
 10
1054.8000000007405
 20
657.66000000000008
 11
1055.267949192069
 21
657.66000000000008
  0
ARC
  8
_0-1_計細線
  6
CONTINUOUS
 62
    3
 10
1064.1999999985346
 20
656.65999999999985
 40
0.9999999999999997
 50
0
 51
89.999999999999915
  0
ARC
  8
_0-1_計細線
  6
CONTINUOUS
 62
    3
 10
1063.7320508072071
 20
658.65999999999985
 40
0.9999999999999997
 50
210.00000000000995
 51
269.99999999999977
  0
ARC
  8
_0-1_計細線
  6
CONTINUOUS
 62
    3
 10
1061.999999999638
 20
657.66000000000008
 40
0.9999999999999997
 50
29.999999999972975
 51
89.999999999999901
  0
LINE
  8
_0-1_計細線
  6
CONTINUOUS
 62
    3
 10
1064.1999999985346
 20
657.66000000000008
 11
1063.7320508072071
 21
657.66000000000008
  0
ARC
  8
_0-1_計細線
  6
CONTINUOUS
 62
    3
 10
1054.3000000007414
 20
655.26000000000022
 40
0.4999999999999998
 50
179.99999999999983
 51
269.99999999999977
  0
LINE
  8
_0-1_計細線
  6
CONTINUOUS
 62
    3
 10
1053.8000000007423
 20
656.65999999999985
 11
1053.8000000007423
 21
655.26000000000022
  0
ARC
  8
_0-1_計細線
  6
CONTINUOUS
 62
    3
 10
1064.6999999985337
 20
655.26000000000022
 40
0.4999999999999998
 50
269.99999999999977
 51
359.99999999999966
  0
LINE
  8
_0-1_計細線
  6
CONTINUOUS
 62
    3
 10
1065.1999999985337
 20
656.65999999999985
 11
1065.1999999985337
 21
655.26000000000022
  0
ARC
  8
_0-1_計細線
  6
CONTINUOUS
 62
    3
 10
1056.8000000007423
 20
653.76000000000022
 40
0.9999999999999997
 50
0
 51
89.999999999999915
  0
LINE
  8
_0-1_計細線
  6
CONTINUOUS
 62
    3
 10
1056.8000000007423
 20
654.75999999999988
 11
1054.3000000007414
 21
654.75999999999988
  0
ARC
  8
_0-1_計細線
  6
CONTINUOUS
 62
    3
 10
1062.200000000742
 20
653.76000000000022
 40
0.9999999999999997
 50
89.999999999999915
 51
179.99999999999983
  0
LINE
  8
_0-1_計細線
  6
CONTINUOUS
 62
    3
 10
1062.1999999985337
 20
654.75999999999988
 11
1064.6999999985337
 21
654.75999999999988
  0
LINE
  8
_0-1_計細線
  6
CONTINUOUS
 62
    3
 10
1061.999999999638
 20
658.65999999999985
 11
1056.999999999638
 21
658.65999999999985
  0
LINE
  8
_0-1_計細線
  6
CONTINUOUS
 62
    3
 10
1057.7999999996382
 20
638.65999999999985
 11
1057.8000000007405
 21
653.76000000000022
  0
LINE
  8
_0-1_計細線
  6
CONTINUOUS
 62
    3
 10
1061.1999999996378
 20
638.65999999999985
 11
1061.2000000007411
 21
653.76000000000022
  0
LINE
  8
_0-1_計細線
  6
CONTINUOUS
 62
    3
 10
1061.1999999996378
 20
638.65999999999985
 11
1057.7999999996382
 21
638.65999999999985
  0
ARC
  8
_0-1_計細線
  6
CONTINUOUS
 62
    3
 10
1088.8000000014645
 20
656.65999999999985
 40
0.9999999999999997
 50
89.999999999999915
 51
179.99999999999983
  0
ARC
  8
_0-1_計細線
  6
CONTINUOUS
 62
    3
 10
1089.267949192792
 20
658.65999999999985
 40
0.9999999999999997
 50
269.99999999999977
 51
330.0000000000154
  0
ARC
  8
_0-1_計細線
  6
CONTINUOUS
 62
    3
 10
1091.0000000003611
 20
657.66000000000008
 40
0.9999999999999997
 50
89.999999999999915
 51
150.00000000000097
  0
LINE
  8
_0-1_計細線
  6
CONTINUOUS
 62
    3
 10
1088.8000000014645
 20
657.66000000000008
 11
1089.267949192792
 21
657.66000000000008
  0
ARC
  8
_0-1_計細線
  6
CONTINUOUS
 62
    3
 10
1098.1999999992577
 20
656.65999999999985
 40
0.9999999999999997
 50
0
 51
89.999999999999915
  0
ARC
  8
_0-1_計細線
  6
CONTINUOUS
 62
    3
 10
1097.7320508079301
 20
658.65999999999985
 40
0.9999999999999997
 50
210.00000000000995
 51
269.99999999999977
  0
ARC
  8
_0-1_計細線
  6
CONTINUOUS
 62
    3
 10
1096.0000000003611
 20
657.66000000000008
 40
0.9999999999999997
 50
29.999999999972975
 51
89.999999999999901
  0
LINE
  8
_0-1_計細線
  6
CONTINUOUS
 62
    3
 10
1098.1999999992577
 20
657.66000000000008
 11
1097.7320508079301
 21
657.66000000000008
  0
ARC
  8
_0-1_計細線
  6
CONTINUOUS
 62
    3
 10
1088.3000000014645
 20
655.26000000000022
 40
0.4999999999999998
 50
179.99999999999983
 51
269.99999999999977
  0
LINE
  8
_0-1_計細線
  6
CONTINUOUS
 62
    3
 10
1087.8000000014654
 20
656.65999999999985
 11
1087.8000000014654
 21
655.26000000000022
  0
ARC
  8
_0-1_計細線
  6
CONTINUOUS
 62
    3
 10
1098.6999999992568
 20
655.26000000000022
 40
0.4999999999999998
 50
269.99999999999977
 51
359.99999999999966
  0
LINE
  8
_0-1_計細線
  6
CONTINUOUS
 62
    3
 10
1099.1999999992577
 20
656.65999999999985
 11
1099.1999999992577
 21
655.26000000000022
  0
ARC
  8
_0-1_計細線
  6
CONTINUOUS
 62
    3
 10
1090.8000000014654
 20
653.76000000000022
 40
0.9999999999999997
 50
0
 51
89.999999999999915
  0
LINE
  8
_0-1_計細線
  6
CONTINUOUS
 62
    3
 10
1090.8000000014654
 20
654.75999999999988
 11
1088.3000000014645
 21
654.75999999999988
  0
ARC
  8
_0-1_計細線
  6
CONTINUOUS
 62
    3
 10
1096.200000001465
 20
653.76000000000022
 40
0.9999999999999997
 50
89.999999999999915
 51
179.99999999999983
  0
LINE
  8
_0-1_計細線
  6
CONTINUOUS
 62
    3
 10
1096.1999999992577
 20
654.75999999999988
 11
1098.6999999992568
 21
654.75999999999988
  0
LINE
  8
_0-1_計細線
  6
CONTINUOUS
 62
    3
 10
1096.0000000003611
 20
658.65999999999985
 11
1091.0000000003611
 21
658.65999999999985
  0
LINE
  8
_0-1_計細線
  6
CONTINUOUS
 62
    3
 10
1091.8000000003613
 20
638.65999999999985
 11
1091.8000000014645
 21
653.76000000000022
  0
LINE
  8
_0-1_計細線
  6
CONTINUOUS
 62
    3
 10
1095.2000000003609
 20
638.65999999999985
 11
1095.2000000014641
 21
653.76000000000022
  0
LINE
  8
_0-1_計細線
  6
CONTINUOUS
 62
    3
 10
1095.2000000003609
 20
638.65999999999985
 11
1091.8000000003613
 21
638.65999999999985
  0
ARC
  8
_0-1_計細線
  6
CONTINUOUS
 62
    3
 10
1105.8000000018264
 20
656.65999999999985
 40
0.9999999999999997
 50
89.999999999999915
 51
179.99999999999983
  0
ARC
  8
_0-1_計細線
  6
CONTINUOUS
 62
    3
 10
1106.267949193154
 20
658.65999999999985
 40
0.9999999999999997
 50
269.99999999999977
 51
329.99999999998937
  0
ARC
  8
_0-1_計細線
  6
CONTINUOUS
 62
    3
 10
1108.000000000723
 20
657.66000000000008
 40
0.9999999999999997
 50
89.999999999999915
 51
150.00000000002703
  0
LINE
  8
_0-1_計細線
  6
CONTINUOUS
 62
    3
 10
1105.8000000018264
 20
657.66000000000008
 11
1106.267949193154
 21
657.66000000000008
  0
ARC
  8
_0-1_計細線
  6
CONTINUOUS
 62
    3
 10
1115.1999999996196
 20
656.65999999999985
 40
0.9999999999999997
 50
0
 51
89.999999999999915
  0
ARC
  8
_0-1_計細線
  6
CONTINUOUS
 62
    3
 10
1114.7320508082921
 20
658.65999999999985
 40
0.9999999999999997
 50
209.99999999998388
 51
269.99999999999977
  0
ARC
  8
_0-1_計細線
  6
CONTINUOUS
 62
    3
 10
1113.000000000723
 20
657.66000000000008
 40
0.9999999999999997
 50
29.99999999999903
 51
89.999999999999901
  0
LINE
  8
_0-1_計細線
  6
CONTINUOUS
 62
    3
 10
1115.1999999996196
 20
657.66000000000008
 11
1114.7320508082921
 21
657.66000000000008
  0
ARC
  8
_0-1_計細線
  6
CONTINUOUS
 62
    3
 10
1105.3000000018264
 20
655.26000000000022
 40
0.4999999999999998
 50
179.99999999999983
 51
269.99999999999977
  0
LINE
  8
_0-1_計細線
  6
CONTINUOUS
 62
    3
 10
1104.8000000018264
 20
656.65999999999985
 11
1104.8000000018264
 21
655.26000000000022
  0
ARC
  8
_0-1_計細線
  6
CONTINUOUS
 62
    3
 10
1115.6999999996187
 20
655.26000000000022
 40
0.4999999999999998
 50
269.99999999999977
 51
359.99999999999966
  0
LINE
  8
_0-1_計細線
  6
CONTINUOUS
 62
    3
 10
1116.1999999996196
 20
656.65999999999985
 11
1116.1999999996196
 21
655.26000000000022
  0
ARC
  8
_0-1_計細線
  6
CONTINUOUS
 62
    3
 10
1107.8000000018264
 20
653.76000000000022
 40
0.9999999999999997
 50
0
 51
89.999999999999915
  0
LINE
  8
_0-1_計細線
  6
CONTINUOUS
 62
    3
 10
1107.8000000018264
 20
654.75999999999988
 11
1105.3000000018264
 21
654.75999999999988
  0
ARC
  8
_0-1_計細線
  6
CONTINUOUS
 62
    3
 10
1113.200000001827
 20
653.76000000000022
 40
0.9999999999999997
 50
89.999999999999915
 51
179.99999999999983
  0
LINE
  8
_0-1_計細線
  6
CONTINUOUS
 62
    3
 10
1113.1999999996196
 20
654.75999999999988
 11
1115.6999999996187
 21
654.75999999999988
  0
LINE
  8
_0-1_計細線
  6
CONTINUOUS
 62
    3
 10
1113.000000000723
 20
658.65999999999985
 11
1108.000000000723
 21
658.65999999999985
  0
LINE
  8
_0-1_計細線
  6
CONTINUOUS
 62
    3
 10
1108.8000000007232
 20
638.65999999999985
 11
1108.8000000018264
 21
653.76000000000022
  0
LINE
  8
_0-1_計細線
  6
CONTINUOUS
 62
    3
 10
1112.2000000007229
 20
638.65999999999985
 11
1112.2000000018261
 21
653.76000000000022
  0
LINE
  8
_0-1_計細線
  6
CONTINUOUS
 62
    3
 10
1112.2000000007229
 20
638.65999999999985
 11
1108.8000000007232
 21
638.65999999999985
  0
ARC
  8
_0-1_計細線
  6
CONTINUOUS
 62
    3
 10
1122.8000000021884
 20
656.65999999999985
 40
0.9999999999999997
 50
89.999999999999915
 51
179.99999999999983
  0
ARC
  8
_0-1_計細線
  6
CONTINUOUS
 62
    3
 10
1123.2679491935169
 20
658.65999999999985
 40
0.9999999999999997
 50
269.99999999999977
 51
329.99999999998937
  0
ARC
  8
_0-1_計細線
  6
CONTINUOUS
 62
    3
 10
1125.0000000010841
 20
657.66000000000008
 40
0.9999999999999997
 50
89.999999999999915
 51
149.99999999997493
  0
LINE
  8
_0-1_計細線
  6
CONTINUOUS
 62
    3
 10
1122.8000000021884
 20
657.66000000000008
 11
1123.2679491935169
 21
657.66000000000008
  0
ARC
  8
_0-1_計細線
  6
CONTINUOUS
 62
    3
 10
1132.1999999999807
 20
656.65999999999985
 40
0.9999999999999997
 50
0
 51
89.999999999999915
  0
ARC
  8
_0-1_計細線
  6
CONTINUOUS
 62
    3
 10
1131.7320508086532
 20
658.65999999999985
 40
0.9999999999999997
 50
210.00000000000995
 51
269.99999999999977
  0
ARC
  8
_0-1_計細線
  6
CONTINUOUS
 62
    3
 10
1130.000000001085
 20
657.66000000000008
 40
0.9999999999999997
 50
29.99999999999903
 51
89.999999999999901
  0
LINE
  8
_0-1_計細線
  6
CONTINUOUS
 62
    3
 10
1132.1999999999807
 20
657.66000000000008
 11
1131.7320508086532
 21
657.66000000000008
  0
ARC
  8
_0-1_計細線
  6
CONTINUOUS
 62
    3
 10
1122.3000000021875
 20
655.26000000000022
 40
0.4999999999999998
 50
179.99999999999983
 51
269.99999999999977
  0
LINE
  8
_0-1_計細線
  6
CONTINUOUS
 62
    3
 10
1121.8000000021884
 20
656.65999999999985
 11
1121.8000000021884
 21
655.26000000000022
  0
ARC
  8
_0-1_計細線
  6
CONTINUOUS
 62
    3
 10
1132.6999999999816
 20
655.26000000000022
 40
0.4999999999999998
 50
269.99999999999977
 51
359.99999999999966
  0
LINE
  8
_0-1_計細線
  6
CONTINUOUS
 62
    3
 10
1133.1999999999816
 20
656.65999999999985
 11
1133.1999999999816
 21
655.26000000000022
  0
ARC
  8
_0-1_計細線
  6
CONTINUOUS
 62
    3
 10
1124.8000000021884
 20
653.76000000000022
 40
0.9999999999999997
 50
0
 51
89.999999999999915
  0
LINE
  8
_0-1_計細線
  6
CONTINUOUS
 62
    3
 10
1124.8000000021884
 20
654.75999999999988
 11
1122.3000000021875
 21
654.75999999999988
  0
ARC
  8
_0-1_計細線
  6
CONTINUOUS
 62
    3
 10
1130.2000000021881
 20
653.76000000000022
 40
0.9999999999999997
 50
89.999999999999915
 51
179.99999999999983
  0
LINE
  8
_0-1_計細線
  6
CONTINUOUS
 62
    3
 10
1130.1999999999816
 20
654.75999999999988
 11
1132.6999999999816
 21
654.75999999999988
  0
LINE
  8
_0-1_計細線
  6
CONTINUOUS
 62
    3
 10
1130.000000001085
 20
658.65999999999985
 11
1125.0000000010841
 21
658.65999999999985
  0
LINE
  8
_0-1_計細線
  6
CONTINUOUS
 62
    3
 10
1125.8000000010843
 20
638.65999999999985
 11
1125.8000000021884
 21
653.76000000000022
  0
LINE
  8
_0-1_計細線
  6
CONTINUOUS
 62
    3
 10
1129.2000000010858
 20
638.65999999999985
 11
1129.2000000021881
 21
653.76000000000022
  0
LINE
  8
_0-1_計細線
  6
CONTINUOUS
 62
    3
 10
1129.2000000010858
 20
638.65999999999985
 11
1125.8000000010843
 21
638.65999999999985
  0
ARC
  8
_0-1_計細線
  6
CONTINUOUS
 62
    3
 10
1237
 20
638.66021900100668
 40
3
 50
269.99999999999977
 51
359.99999999999966
  0
LINE
  8
_0-1_計細線
  6
CONTINUOUS
 62
    3
 10
1240
 20
638.66021900100668
 11
1240
 21
658.16021900100668
  0
LINE
  8
_0-1_計細線
  6
CONTINUOUS
 62
    3
 10
1237
 20
635.66021900100668
 11
1210.4999999999991
 21
635.66021900100668
  0
LINE
  8
_0-1_計細線
  6
CONTINUOUS
 62
    3
 10
1209.9999999999991
 20
636.16021900100714
 11
1210.4999999999991
 21
635.66021900100668
  0
LINE
  8
_0-1_計細線
  6
CONTINUOUS
 62
    3
 10
1209.9999999999991
 20
638.16021900100691
 11
1209.9999999999991
 21
636.16021900100714
  0
LINE
  8
_0-1_計細線
  6
CONTINUOUS
 62
    3
 10
1210.4999999999991
 20
638.66021900100668
 11
1209.9999999999991
 21
638.16021900100691
  0
LINE
  8
_0-1_計細線
  6
CONTINUOUS
 62
    3
 10
1237
 20
638.66021900100668
 11
1210.4999999999991
 21
638.66021900100668
  0
LINE
  8
_0-1_計細線
  6
CONTINUOUS
 62
    3
 10
1239.5
 20
658.66021900100714
 11
1240
 21
658.16021900100668
  0
LINE
  8
_0-1_計細線
  6
CONTINUOUS
 62
    3
 10
1237.5
 20
658.66021900100714
 11
1239.5
 21
658.66021900100714
  0
LINE
  8
_0-1_計細線
  6
CONTINUOUS
 62
    3
 10
1237
 20
658.16021900100668
 11
1237.5
 21
658.66021900100714
  0
LINE
  8
_0-1_計細線
  6
CONTINUOUS
 62
    3
 10
1237
 20
638.66021900100668
 11
1237
 21
658.16021900100668
  0
ARC
  8
_0-1_計細線
  6
CONTINUOUS
 62
    3
 10
932.99999999999909
 20
638.66021900100668
 40
3
 50
179.99999999999983
 51
269.99999999999977
  0
LINE
  8
_0-1_計細線
  6
CONTINUOUS
 62
    3
 10
929.99999999999909
 20
638.66021900100668
 11
929.99999999999909
 21
658.16021900100668
  0
LINE
  8
_0-1_計細線
  6
CONTINUOUS
 62
    3
 10
932.99999999999909
 20
635.66021900100668
 11
959.4999999999992
 21
635.66021900100668
  0
LINE
  8
_0-1_計細線
  6
CONTINUOUS
 62
    3
 10
959.99999999999909
 20
636.16021900100714
 11
959.4999999999992
 21
635.66021900100668
  0
LINE
  8
_0-1_計細線
  6
CONTINUOUS
 62
    3
 10
959.99999999999909
 20
638.16021900100691
 11
959.99999999999909
 21
636.16021900100714
  0
LINE
  8
_0-1_計細線
  6
CONTINUOUS
 62
    3
 10
959.4999999999992
 20
638.66021900100668
 11
959.99999999999909
 21
638.16021900100691
  0
LINE
  8
_0-1_計細線
  6
CONTINUOUS
 62
    3
 10
932.99999999999909
 20
638.66021900100668
 11
959.4999999999992
 21
638.66021900100668
  0
LINE
  8
_0-1_計細線
  6
CONTINUOUS
 62
    3
 10
930.50000000000011
 20
658.66021900100714
 11
929.99999999999909
 21
658.16021900100668
  0
LINE
  8
_0-1_計細線
  6
CONTINUOUS
 62
    3
 10
932.49999999999909
 20
658.66021900100714
 11
930.50000000000011
 21
658.66021900100714
  0
LINE
  8
_0-1_計細線
  6
CONTINUOUS
 62
    3
 10
932.99999999999909
 20
658.16021900100668
 11
932.49999999999909
 21
658.66021900100714
  0
LINE
  8
_0-1_計細線
  6
CONTINUOUS
 62
    3
 10
932.99999999999909
 20
638.66021900100668
 11
932.99999999999909
 21
658.16021900100668
  0
LINE
  8
_0-1_計細線
  6
CONTINUOUS
 62
    3
 10
929.99999999999909
 20
647.66021900100668
 11
929.99999999999909
 21
612.66021900100668
  0
LINE
  8
_0-1_計細線
  6
CONTINUOUS
 62
    3
 10
929.99999999999909
 20
612.66021900100668
 11
927.69999999999925
 21
612.66021900100668
  0
LINE
  8
_0-1_計細線
  6
CONTINUOUS
 62
    3
 10
927.69999999999925
 20
612.66021900100668
 11
927.69999999999925
 21
647.66021900100668
  0
LINE
  8
_0-1_計細線
  6
CONTINUOUS
 62
    3
 10
927.69999999999925
 20
647.66021900100668
 11
929.99999999999909
 21
647.66021900100668
  0
LINE
  8
_0-0_計極細
  6
CONTINUOUS
 62
    2
 10
927.69999999999925
 20
631.66021900100668
 11
929.99999999999909
 21
631.66021900100668
  0
LINE
  8
_0-0_計極細
  6
CONTINUOUS
 62
    2
 10
927.69999999999925
 20
633.66021900100668
 11
929.99999999999909
 21
633.66021900100668
  0
LINE
  8
_0-0_計極細
  6
CONTINUOUS
 62
    2
 10
927.69999999999925
 20
629.66021900100668
 11
929.99999999999909
 21
629.66021900100668
  0
LINE
  8
_0-0_計極細
  6
CONTINUOUS
 62
    2
 10
927.69999999999925
 20
635.66021900100668
 11
929.99999999999909
 21
635.66021900100668
  0
LINE
  8
_0-0_計極細
  6
CONTINUOUS
 62
    2
 10
929.99999999999909
 20
615.66021900100668
 11
927.69999999999925
 21
615.66021900100668
  0
LINE
  8
_0-0_計極細
  6
CONTINUOUS
 62
    2
 10
927.69999999999925
 20
645.66021900100668
 11
929.99999999999909
 21
645.66021900100668
  0
LINE
  8
_0-1_計細線
  6
CONTINUOUS
 62
    3
 10
1240.0000000000002
 20
647.66021900100668
 11
1240.0000000000002
 21
612.66021900100668
  0
LINE
  8
_0-1_計細線
  6
CONTINUOUS
 62
    3
 10
1240.0000000000002
 20
612.66021900100668
 11
1242.3000000000002
 21
612.66021900100668
  0
LINE
  8
_0-1_計細線
  6
CONTINUOUS
 62
    3
 10
1242.3000000000002
 20
612.66021900100668
 11
1242.3000000000002
 21
647.66021900100668
  0
LINE
  8
_0-1_計細線
  6
CONTINUOUS
 62
    3
 10
1242.3000000000002
 20
647.66021900100668
 11
1240.0000000000002
 21
647.66021900100668
  0
LINE
  8
_0-0_計極細
  6
CONTINUOUS
 62
    2
 10
1242.3000000000002
 20
631.66021900100668
 11
1240.0000000000002
 21
631.66021900100668
  0
LINE
  8
_0-0_計極細
  6
CONTINUOUS
 62
    2
 10
1242.3000000000002
 20
633.66021900100668
 11
1240.0000000000002
 21
633.66021900100668
  0
LINE
  8
_0-0_計極細
  6
CONTINUOUS
 62
    2
 10
1242.3000000000002
 20
629.66021900100668
 11
1240.0000000000002
 21
629.66021900100668
  0
LINE
  8
_0-0_計極細
  6
CONTINUOUS
 62
    2
 10
1242.3000000000002
 20
635.66021900100668
 11
1240.0000000000002
 21
635.66021900100668
  0
LINE
  8
_0-0_計極細
  6
CONTINUOUS
 62
    2
 10
1240.0000000000002
 20
615.66021900100668
 11
1242.3000000000002
 21
615.66021900100668
  0
LINE
  8
_0-0_計極細
  6
CONTINUOUS
 62
    2
 10
1242.3000000000002
 20
645.66021900100668
 11
1240.0000000000002
 21
645.66021900100668
  0
LINE
  8
_0-7_枠細線
  6
CONTINUOUS
 62
    5
 10
1258.9140288208207
 20
632.80830283207115
 11
1251.4140288208207
 21
647.80830283207126
  0
LINE
  8
_0-7_枠細線
  6
CONTINUOUS
 62
    5
 10
1243.9140288208207
 20
632.80830283207115
 11
1258.9140288208207
 21
632.80830283207115
  0
LINE
  8
_0-7_枠細線
  6
CONTINUOUS
 62
    5
 10
1251.4140288208207
 20
647.80830283207126
 11
1243.9140288208207
 21
632.80830283207115
  0
TEXT
  8
_0-7_枠細線
 62
    5
 10
1246.2791800889688
 20
631.85948286722123
 40
12.5
 41
0.8
 50
0
  1
５
  0
LINE
  8
_0-5_寸法線
  6
CONTINUOUS
 62
    7
 10
919.99999999999909
 20
658.66021900100714
 11
872.69999999999925
 21
658.66021900100714
  0
LINE
  8
_0-5_寸法線
  6
CONTINUOUS
 62
    7
 10
877.69999999999925
 20
658.66021900100714
 11
880.28819045102432
 21
649.00096073811642
  0
LINE
  8
_0-5_寸法線
  6
CONTINUOUS
 62
    7
 10
877.69999999999925
 20
658.66021900100714
 11
875.11180954897395
 21
649.00096073811642
  0
LINE
  8
_0-5_寸法線
  6
CONTINUOUS
 62
    7
 10
917.69999999999925
 20
635.66021900100668
 11
872.69999999999925
 21
635.66021900100668
  0
LINE
  8
_0-5_寸法線
  6
CONTINUOUS
 62
    7
 10
877.69999999999925
 20
635.66021900100668
 11
875.11180954897395
 21
645.3194772638974
  0
LINE
  8
_0-5_寸法線
  6
CONTINUOUS
 62
    7
 10
877.69999999999925
 20
635.66021900100668
 11
880.28819045102432
 21
645.3194772638974
  0
LINE
  8
_0-5_寸法線
  6
CONTINUOUS
 62
    7
 10
877.69999999999925
 20
658.66021900100714
 11
877.69999999999925
 21
635.66021900100668
  0
TEXT
  8
_0-5_寸法線
 62
    7
 10
877.69999999999925
 20
639.66021900100691
 40
15
 41
1
 50
90
  1
23
  0
LINE
  8
_0-5_寸法線
  6
CONTINUOUS
 62
    7
 10
917.69999999999925
 20
635.66021900100668
 11
872.69999999999925
 21
635.66021900100668
  0
LINE
  8
_0-5_寸法線
  6
CONTINUOUS
 62
    7
 10
877.69999999999925
 20
635.66021900100668
 11
880.28819045102432
 21
626.00096073811596
  0
LINE
  8
_0-5_寸法線
  6
CONTINUOUS
 62
    7
 10
877.69999999999925
 20
635.66021900100668
 11
875.11180954897395
 21
626.00096073811596
  0
LINE
  8
_0-5_寸法線
  6
CONTINUOUS
 62
    7
 10
917.69999999999925
 20
612.66021900100668
 11
872.69999999999925
 21
612.66021900100668
  0
LINE
  8
_0-5_寸法線
  6
CONTINUOUS
 62
    7
 10
877.69999999999925
 20
612.66021900100668
 11
875.11180954897395
 21
622.3194772638974
  0
LINE
  8
_0-5_寸法線
  6
CONTINUOUS
 62
    7
 10
877.69999999999925
 20
612.66021900100668
 11
880.28819045102432
 21
622.3194772638974
  0
LINE
  8
_0-5_寸法線
  6
CONTINUOUS
 62
    7
 10
877.69999999999925
 20
635.66021900100668
 11
877.69999999999925
 21
612.66021900100668
  0
TEXT
  8
_0-5_寸法線
 62
    7
 10
877.69999999999925
 20
616.66021900100702
 40
15
 41
1
 50
90
  1
23
  0
LINE
  8
_0-5_寸法線
  6
CONTINUOUS
 62
    7
 10
1240
 20
602.66021900100691
 11
1240
 21
557.66021900100645
  0
LINE
  8
_0-5_寸法線
  6
CONTINUOUS
 62
    7
 10
1240
 20
562.66021900100645
 11
1230.3407417371093
 21
560.07202854998127
  0
LINE
  8
_0-5_寸法線
  6
CONTINUOUS
 62
    7
 10
1240
 20
562.66021900100645
 11
1230.3407417371093
 21
565.24840945203164
  0
LINE
  8
_0-5_寸法線
  6
CONTINUOUS
 62
    7
 10
1209.9999999999995
 20
625.66021900100668
 11
1210.0000000000011
 21
557.66021900100645
  0
LINE
  8
_0-5_寸法線
  6
CONTINUOUS
 62
    7
 10
1210.0000000000009
 20
562.66021900100645
 11
1219.6592582628916
 21
565.24840945203164
  0
LINE
  8
_0-5_寸法線
  6
CONTINUOUS
 62
    7
 10
1210.0000000000009
 20
562.66021900100645
 11
1219.6592582628916
 21
560.07202854998127
  0
LINE
  8
_0-5_寸法線
  6
CONTINUOUS
 62
    7
 10
1240
 20
562.66021900100645
 11
1210.0000000000009
 21
562.66021900100645
  0
TEXT
  8
_0-5_寸法線
 62
    7
 10
1217.4999999999986
 20
562.66021900100645
 40
15
 41
1
 50
0
  1
30
  0
LINE
  8
_0-5_寸法線
  6
CONTINUOUS
 62
    7
 10
929.99999999999909
 20
602.66021900100691
 11
929.99999999999909
 21
557.66021900100645
  0
LINE
  8
_0-5_寸法線
  6
CONTINUOUS
 62
    7
 10
929.99999999999909
 20
562.66021900100645
 11
939.65925826288981
 21
565.24840945203164
  0
LINE
  8
_0-5_寸法線
  6
CONTINUOUS
 62
    7
 10
929.99999999999909
 20
562.66021900100645
 11
939.65925826288981
 21
560.07202854998127
  0
LINE
  8
_0-5_寸法線
  6
CONTINUOUS
 62
    7
 10
959.99999999999886
 20
625.66021900100668
 11
959.99999999999716
 21
557.66021900100645
  0
LINE
  8
_0-5_寸法線
  6
CONTINUOUS
 62
    7
 10
959.99999999999727
 20
562.66021900100645
 11
950.34074173710667
 21
560.07202854998127
  0
LINE
  8
_0-5_寸法線
  6
CONTINUOUS
 62
    7
 10
959.99999999999727
 20
562.66021900100645
 11
950.34074173710667
 21
565.24840945203164
  0
LINE
  8
_0-5_寸法線
  6
CONTINUOUS
 62
    7
 10
929.99999999999909
 20
562.66021900100645
 11
959.99999999999727
 21
562.66021900100645
  0
TEXT
  8
_0-5_寸法線
 62
    7
 10
937.49999999999875
 20
562.66021900100645
 40
15
 41
1
 50
0
  1
30
  0
LINE
  8
_0-5_寸法線
  6
CONTINUOUS
 62
    7
 10
959.99999999999909
 20
630.66021900100668
 11
959.99999999999909
 21
557.66021900100668
  0
LINE
  8
_0-5_寸法線
  6
CONTINUOUS
 62
    7
 10
959.99999999999909
 20
562.66021900100668
 11
969.65925826288981
 21
565.24840945203186
  0
LINE
  8
_0-5_寸法線
  6
CONTINUOUS
 62
    7
 10
959.99999999999909
 20
562.66021900100668
 11
969.65925826288981
 21
560.0720285499815
  0
LINE
  8
_0-5_寸法線
  6
CONTINUOUS
 62
    7
 10
1209.9999999999991
 20
630.66021900100668
 11
1209.9999999999991
 21
557.66021900100668
  0
LINE
  8
_0-5_寸法線
  6
CONTINUOUS
 62
    7
 10
1209.9999999999991
 20
562.66021900100668
 11
1200.3407417371086
 21
560.0720285499815
  0
LINE
  8
_0-5_寸法線
  6
CONTINUOUS
 62
    7
 10
1209.9999999999991
 20
562.66021900100668
 11
1200.3407417371086
 21
565.24840945203186
  0
LINE
  8
_0-5_寸法線
  6
CONTINUOUS
 62
    7
 10
959.99999999999909
 20
562.66021900100668
 11
1209.9999999999991
 21
562.66021900100668
  0
TEXT
  8
_0-5_寸法線
 62
    7
 10
1073.75
 20
562.66021900100668
 40
15
 41
1
 50
0
  1
250
  0
LINE
  8
_0-1_計細線
  6
CONTINUOUS
 62
    3
 10
1087.3499999999995
 20
658.45999999999776
 11
1087.3499999999995
 21
639.45999999999731
  0
LINE
  8
_0-1_計細線
  6
CONTINUOUS
 62
    3
 10
1082.6499999999992
 20
639.45999999999731
 11
1082.6499999999992
 21
658.45999999999776
  0
LINE
  8
_0-1_計細線
  6
CONTINUOUS
 62
    3
 10
1087.3499999999995
 20
639.45999999999731
 11
1082.6499999999992
 21
639.45999999999731
  0
LINE
  8
_0-1_計細線
  6
CONTINUOUS
 62
    3
 10
1082.6499999999992
 20
658.45999999999776
 11
1087.3499999999995
 21
658.45999999999776
  0
LINE
  8
_0-1_計細線
  6
DASHED2
 62
    3
 10
1082.6499999999992
 20
642.45999999999742
 11
1087.3499999999995
 21
642.45999999999742
  0
LINE
  8
_0-1_計細線
  6
DASHED2
 62
    3
 10
1082.6499999999992
 20
655.95999999999765
 11
1087.3499999999995
 21
655.95999999999765
  0
TEXT
  8
_0-7_枠細線
 62
    5
 10
1035.6825687070714
 20
519.94207792640839
 40
25
 41
0.8
 50
0
  1
断面詳細図
  0
TEXT
  8
_0-7_枠細線
 62
    5
 10
1150.6315384562395
 20
522.45718700659722
 40
20
 41
0.6
 50
0
  1
Ｓ＝１：５
  0
LINE
  8
_0-1_計細線
  6
CONTINUOUS
 62
    3
 10
363.51795824097337
 20
552.25583080108242
 11
416.51795824097343
 21
552.25583080108242
  0
LINE
  8
_0-1_計細線
  6
CONTINUOUS
 62
    3
 10
416.51795824097343
 20
556.95583080108327
 11
363.51795824097337
 21
556.95583080108327
  0
LINE
  8
_0-1_計細線
  6
CONTINUOUS
 62
    3
 10
363.51795824097337
 20
556.95583080108327
 11
363.51795824097337
 21
552.25583080108242
  0
LINE
  8
_0-1_計細線
  6
CONTINUOUS
 62
    3
 10
406.51795824097343
 20
556.95583080108327
 11
406.51795824097343
 21
552.25583080108242
  0
LINE
  8
_0-1_計細線
  6
CONTINUOUS
 62
    3
 10
414.51795824097337
 20
556.95583080108327
 11
414.51795824097337
 21
552.25583080108242
  0
LINE
  8
_0-1_計細線
  6
CONTINUOUS
 62
    3
 10
416.51795824097343
 20
556.95583080108327
 11
416.51795824097343
 21
552.25583080108242
  0
LINE
  8
_0-1_計細線
  6
CONTINUOUS
 62
    3
 10
412.51795824097343
 20
556.95583080108327
 11
412.51795824097343
 21
552.25583080108242
  0
LINE
  8
_0-1_計細線
  6
CONTINUOUS
 62
    3
 10
410.51795824097337
 20
556.95583080108327
 11
410.51795824097337
 21
552.25583080108242
  0
LINE
  8
_0-1_計細線
  6
CONTINUOUS
 62
    3
 10
408.51795824097337
 20
556.95583080108327
 11
408.51795824097337
 21
552.25583080108242
  0
LINE
  8
_0-5_寸法線
  6
CONTINUOUS
 62
    7
 10
1240
 20
668.66021900100714
 11
1240.0000000000002
 21
783.66021900100691
  0
LINE
  8
_0-5_寸法線
  6
CONTINUOUS
 62
    7
 10
1240.0000000000002
 20
778.66021900100691
 11
1230.3407417371095
 21
776.07202854998172
  0
LINE
  8
_0-5_寸法線
  6
CONTINUOUS
 62
    7
 10
1240.0000000000002
 20
778.66021900100691
 11
1230.3407417371095
 21
781.24840945203221
  0
LINE
  8
_0-5_寸法線
  6
CONTINUOUS
 62
    7
 10
929.99999999999909
 20
668.66021900100714
 11
929.99999999999943
 21
783.66021900100714
  0
LINE
  8
_0-5_寸法線
  6
CONTINUOUS
 62
    7
 10
929.99999999999943
 20
778.66021900100714
 11
939.65925826289003
 21
781.24840945203232
  0
LINE
  8
_0-5_寸法線
  6
CONTINUOUS
 62
    7
 10
929.99999999999943
 20
778.66021900100714
 11
939.65925826289003
 21
776.07202854998206
  0
LINE
  8
_0-5_寸法線
  6
CONTINUOUS
 62
    7
 10
1240.0000000000002
 20
778.66021900100691
 11
929.99999999999943
 21
778.66021900100714
  0
TEXT
  8
_0-5_寸法線
 62
    7
 10
1073.7499999999998
 20
778.66021900100702
 40
15
 41
1
 50
0
  1
310
  0
LINE
  8
_0-5_寸法線
  6
CONTINUOUS
 62
    7
 10
930.00000051906909
 20
668.66021900100714
 11
930.0000005190692
 21
748.66021900100714
  0
LINE
  8
_0-5_寸法線
  6
CONTINUOUS
 62
    7
 10
930.0000005190692
 20
743.66021900100714
 11
920.3407422561786
 21
741.07202854998195
  0
LINE
  8
_0-5_寸法線
  6
CONTINUOUS
 62
    7
 10
930.0000005190692
 20
743.66021900100714
 11
920.3407422561786
 21
746.24840945203232
  0
LINE
  8
_0-5_寸法線
  6
CONTINUOUS
 62
    7
 10
932.99999999999909
 20
668.66021900100714
 11
932.99999999999932
 21
748.66021900100714
  0
CIRCLE
  8
_0-5_寸法線
  6
CONTINUOUS
 62
    1
 10
932.99999999999932
 20
743.66021900100714
 40
1.5000000000000002
  0
LINE
  8
_0-5_寸法線
  6
CONTINUOUS
 62
    7
 10
905.0000005190692
 20
743.66021900100714
 11
932.99999999999932
 21
743.66021900100714
  0
TEXT
  8
_0-5_寸法線
 62
    7
 10
909.94596866275674
 20
743.66021900100714
 40
15
 41
1
 50
0
  1
3
  0
LINE
  8
_0-5_寸法線
  6
CONTINUOUS
 62
    7
 10
934.99999999965598
 20
668.66021900100714
 11
934.9999999996561
 21
748.66021900100714
  0
LINE
  8
_0-5_寸法線
  6
CONTINUOUS
 62
    7
 10
932.99999999999932
 20
743.66021900100714
 11
934.9999999996561
 21
743.66021900100714
  0
TEXT
  8
_0-5_寸法線
 62
    7
 10
935.63601325660841
 20
743.66021900100714
 40
15
 41
1
 50
0
  1
2
  0
LINE
  8
_0-5_寸法線
  6
CONTINUOUS
 62
    7
 10
934.9999999996561
 20
743.66021900100714
 11
944.6592582625467
 21
746.24840945203232
  0
LINE
  8
_0-5_寸法線
  6
CONTINUOUS
 62
    7
 10
934.9999999996561
 20
743.66021900100714
 11
944.6592582625467
 21
741.07202854998195
  0
LINE
  8
_0-5_寸法線
  6
CONTINUOUS
 62
    7
 10
1235.0000000012024
 20
668.65999999999985
 11
1235.0000000012026
 21
748.66021900100714
  0
LINE
  8
_0-5_寸法線
  6
CONTINUOUS
 62
    7
 10
1235.0000000012026
 20
743.66021900100714
 11
1225.3407417383119
 21
741.07202854998195
  0
LINE
  8
_0-5_寸法線
  6
CONTINUOUS
 62
    7
 10
1235.0000000012026
 20
743.66021900100714
 11
1225.3407417383119
 21
746.24840945203232
  0
LINE
  8
_0-5_寸法線
  6
CONTINUOUS
 62
    7
 10
934.9999999996561
 20
743.66021900100714
 11
1235.0000000012026
 21
743.66021900100714
  0
TEXT
  8
_0-5_寸法線
 62
    7
 10
1073.7500000004293
 20
743.66021900100714
 40
15
 41
1
 50
0
  1
300
  0
LINE
  8
_0-5_寸法線
  6
CONTINUOUS
 62
    7
 10
1236.9999998924982
 20
668.66021900100714
 11
1236.9999998924984
 21
748.66021900100714
  0
CIRCLE
  8
_0-5_寸法線
  6
CONTINUOUS
 62
    1
 10
1236.9999998924984
 20
743.66021900100714
 40
1.5000000000000002
  0
LINE
  8
_0-5_寸法線
  6
CONTINUOUS
 62
    7
 10
1235.0000000012026
 20
743.66021900100714
 11
1236.9999998924984
 21
743.66021900100714
  0
TEXT
  8
_0-5_寸法線
 62
    7
 10
1225.2959158164767
 20
743.66021900100714
 40
15
 41
1
 50
0
  1
2
  0
LINE
  8
_0-5_寸法線
  6
CONTINUOUS
 62
    7
 10
1240
 20
668.66021900100714
 11
1240.0000000000002
 21
748.66021900100714
  0
LINE
  8
_0-5_寸法線
  6
CONTINUOUS
 62
    7
 10
1240.0000000000002
 20
743.66021900100714
 11
1249.6592582628909
 21
746.24840945203232
  0
LINE
  8
_0-5_寸法線
  6
CONTINUOUS
 62
    7
 10
1240.0000000000002
 20
743.66021900100714
 11
1249.6592582628909
 21
741.07202854998195
  0
LINE
  8
_0-5_寸法線
  6
CONTINUOUS
 62
    7
 10
1236.9999998924984
 20
743.66021900100714
 11
1265.0000000000002
 21
743.66021900100714
  0
TEXT
  8
_0-5_寸法線
 62
    7
 10
1254.2559587294518
 20
743.66021900100714
 40
15
 41
1
 50
0
  1
3
  0
LINE
  8
_0-5_寸法線
  6
CONTINUOUS
 62
    7
 10
1127.5000000010846
 20
668.65999999999985
 11
1127.5000000010848
 21
713.66000000000031
  0
LINE
  8
_0-5_寸法線
  6
CONTINUOUS
 62
    7
 10
1127.5000000010848
 20
708.66000000000031
 11
1137.1592582639755
 21
711.24819045102538
  0
LINE
  8
_0-5_寸法線
  6
CONTINUOUS
 62
    7
 10
1127.5000000010848
 20
708.66000000000031
 11
1137.1592582639755
 21
706.07180954897501
  0
LINE
  8
_0-5_寸法線
  6
CONTINUOUS
 62
    7
 10
1144.500000001256
 20
668.65999999999985
 11
1144.5000000012562
 21
713.66000000000031
  0
LINE
  8
_0-5_寸法線
  6
CONTINUOUS
 62
    7
 10
1144.5000000012562
 20
708.66000000000031
 11
1134.8407417383655
 21
706.07180954897501
  0
LINE
  8
_0-5_寸法線
  6
CONTINUOUS
 62
    7
 10
1144.5000000012562
 20
708.66000000000031
 11
1134.8407417383655
 21
711.24819045102538
  0
LINE
  8
_0-5_寸法線
  6
CONTINUOUS
 62
    7
 10
1127.5000000010848
 20
708.66000000000031
 11
1144.5000000012562
 21
708.66000000000031
  0
TEXT
  8
_0-5_寸法線
 62
    7
 10
1119.8440227085655
 20
693.66000000000031
 40
15
 41
1
 50
0
  1
(17)
  0
LINE
  8
_0-5_寸法線
  6
CONTINUOUS
 62
    7
 10
1144.5000000012562
 20
708.66000000000031
 11
1154.159258264147
 21
711.24819045102538
  0
LINE
  8
_0-5_寸法線
  6
CONTINUOUS
 62
    7
 10
1144.5000000012562
 20
708.66000000000031
 11
1154.159258264147
 21
706.0718095489749
  0
LINE
  8
_0-5_寸法線
  6
CONTINUOUS
 62
    7
 10
1161.5000000016184
 20
668.65999999999985
 11
1161.5000000016187
 21
713.66000000000031
  0
LINE
  8
_0-5_寸法線
  6
CONTINUOUS
 62
    7
 10
1161.5000000016187
 20
708.66000000000031
 11
1151.840741738728
 21
706.07180954897501
  0
LINE
  8
_0-5_寸法線
  6
CONTINUOUS
 62
    7
 10
1161.5000000016187
 20
708.66000000000031
 11
1151.840741738728
 21
711.24819045102538
  0
LINE
  8
_0-5_寸法線
  6
CONTINUOUS
 62
    7
 10
1144.5000000012562
 20
708.66000000000031
 11
1161.5000000016187
 21
708.66000000000031
  0
TEXT
  8
_0-5_寸法線
 62
    7
 10
1138.9106893748963
 20
708.66000000000031
 40
15
 41
1
 50
0
  1
(17)
  0
LINE
  8
_0-5_寸法線
  6
CONTINUOUS
 62
    7
 10
1014.1999999978107
 20
668.65999999999974
 11
1014.1999999978109
 21
713.66000000000031
  0
LINE
  8
_0-5_寸法線
  6
CONTINUOUS
 62
    7
 10
1014.1999999978109
 20
708.66000000000031
 11
1004.5407417349202
 21
706.07180954897501
  0
LINE
  8
_0-5_寸法線
  6
CONTINUOUS
 62
    7
 10
1014.1999999978109
 20
708.66000000000031
 11
1004.5407417349202
 21
711.24819045102538
  0
LINE
  8
_0-5_寸法線
  6
CONTINUOUS
 62
    7
 10
1019.8000000000177
 20
668.65999999999985
 11
1019.8000000000178
 21
713.66000000000031
  0
LINE
  8
_0-5_寸法線
  6
CONTINUOUS
 62
    7
 10
974.82604431445282
 20
708.66000000000031
 11
1019.8000000000178
 21
708.66000000000031
  0
TEXT
  8
_0-5_寸法線
 62
    7
 10
974.82604431445282
 20
693.66000000000031
 40
15
 41
1
 50
0
  1
(5.6)
  0
LINE
  8
_0-5_寸法線
  6
CONTINUOUS
 62
    7
 10
1019.8000000000178
 20
708.66000000000031
 11
1029.4592582629084
 21
711.24819045102538
  0
LINE
  8
_0-5_寸法線
  6
CONTINUOUS
 62
    7
 10
1019.8000000000178
 20
708.66000000000031
 11
1029.4592582629084
 21
706.07180954897501
  0
LINE
  8
_0-5_寸法線
  6
CONTINUOUS
 62
    7
 10
1031.1999999978098
 20
668.65999999999974
 11
1031.19999999781
 21
713.66000000000031
  0
LINE
  8
_0-5_寸法線
  6
CONTINUOUS
 62
    7
 10
1031.19999999781
 20
708.66000000000031
 11
1021.5407417349194
 21
706.07180954897501
  0
LINE
  8
_0-5_寸法線
  6
CONTINUOUS
 62
    7
 10
1031.19999999781
 20
708.66000000000031
 11
1021.5407417349194
 21
711.24819045102538
  0
LINE
  8
_0-5_寸法線
  6
CONTINUOUS
 62
    7
 10
1019.8000000000178
 20
708.66000000000031
 11
1031.19999999781
 21
708.66000000000031
  0
TEXT
  8
_0-5_寸法線
 62
    7
 10
1006.7353035724943
 20
708.66000000000031
 40
15
 41
1
 50
0
  1
11.4
  0
LINE
  8
_0-5_寸法線
  6
CONTINUOUS
 62
    7
 10
283.51795824097348
 20
399.6058308010812
 11
203.51795824097351
 21
399.60583080108137
  0
LINE
  8
_0-5_寸法線
  6
CONTINUOUS
 62
    7
 10
208.51795824097351
 20
399.60583080108137
 11
205.9297677899483
 21
409.26508906397203
  0
LINE
  8
_0-5_寸法線
  6
CONTINUOUS
 62
    7
 10
208.51795824097351
 20
399.60583080108137
 11
211.10614869199873
 21
409.26508906397203
  0
LINE
  8
_0-5_寸法線
  6
CONTINUOUS
 62
    7
 10
283.51795824097394
 20
709.60583080108324
 11
203.51795824097351
 21
709.60583080108358
  0
LINE
  8
_0-5_寸法線
  6
CONTINUOUS
 62
    7
 10
208.51795824097351
 20
709.60583080108358
 11
211.10614869199873
 21
699.94657253819287
  0
LINE
  8
_0-5_寸法線
  6
CONTINUOUS
 62
    7
 10
208.51795824097351
 20
709.60583080108358
 11
205.9297677899483
 21
699.94657253819287
  0
LINE
  8
_0-5_寸法線
  6
CONTINUOUS
 62
    7
 10
208.51795824097351
 20
399.60583080108137
 11
208.51795824097351
 21
709.60583080108358
  0
TEXT
  8
_0-5_寸法線
 62
    7
 10
208.51795824097337
 20
543.35583080108245
 40
15
 41
1
 50
90
  1
310
  0
LINE
  8
_0-5_寸法線
  6
CONTINUOUS
 62
    7
 10
243.51795824097351
 20
399.60583080108137
 11
246.10614869199864
 21
389.94657253819065
  0
LINE
  8
_0-5_寸法線
  6
CONTINUOUS
 62
    7
 10
243.51795824097351
 20
399.60583080108137
 11
240.92976778994824
 21
389.94657253819071
  0
LINE
  8
_0-5_寸法線
  6
CONTINUOUS
 62
    7
 10
283.51795824097348
 20
402.6058308010812
 11
238.51795824097351
 21
402.60583080108131
  0
CIRCLE
  8
_0-5_寸法線
  6
CONTINUOUS
 62
    1
 10
243.51795824097351
 20
402.60583080108131
 40
1.5000000000000002
  0
LINE
  8
_0-5_寸法線
  6
CONTINUOUS
 62
    7
 10
243.51795824097351
 20
374.60583080108131
 11
243.51795824097351
 21
402.60583080108131
  0
TEXT
  8
_0-5_寸法線
 62
    7
 10
243.51795824097351
 20
377.95918897221122
 40
15
 41
1
 50
90
  1
3
  0
LINE
  8
_0-5_寸法線
  6
CONTINUOUS
 62
    7
 10
283.51795824097348
 20
404.60583080108285
 11
238.51795824097351
 21
404.60583080108279
  0
LINE
  8
_0-5_寸法線
  6
CONTINUOUS
 62
    7
 10
243.51795824097351
 20
402.60583080108131
 11
243.51795824097351
 21
404.60583080108279
  0
TEXT
  8
_0-5_寸法線
 62
    7
 10
262.37112393143593
 20
407.35352656792077
 40
15
 41
1
 50
90
  1
2
  0
LINE
  8
_0-5_寸法線
  6
CONTINUOUS
 62
    7
 10
243.51795824097351
 20
404.60583080108279
 11
240.9297677899483
 21
414.26508906397345
  0
LINE
  8
_0-5_寸法線
  6
CONTINUOUS
 62
    7
 10
243.51795824097351
 20
404.60583080108279
 11
246.10614869199873
 21
414.26508906397345
  0
LINE
  8
_0-5_寸法線
  6
CONTINUOUS
 62
    7
 10
283.51795824097348
 20
704.60583080108279
 11
238.51795824097351
 21
704.60583080108279
  0
LINE
  8
_0-5_寸法線
  6
CONTINUOUS
 62
    7
 10
243.51795824097351
 20
704.60583080108279
 11
246.10614869199864
 21
694.94657253819219
  0
LINE
  8
_0-5_寸法線
  6
CONTINUOUS
 62
    7
 10
243.51795824097351
 20
704.60583080108279
 11
240.92976778994824
 21
694.94657253819219
  0
LINE
  8
_0-5_寸法線
  6
CONTINUOUS
 62
    7
 10
243.51795824097351
 20
404.60583080108279
 11
243.51795824097351
 21
704.60583080108279
  0
TEXT
  8
_0-5_寸法線
 62
    7
 10
243.51795824097351
 20
543.35583080108279
 40
15
 41
1
 50
90
  1
300
  0
LINE
  8
_0-5_寸法線
  6
CONTINUOUS
 62
    7
 10
283.51795824097394
 20
706.60583080108324
 11
238.51795824097351
 21
706.60583080108336
  0
CIRCLE
  8
_0-5_寸法線
  6
CONTINUOUS
 62
    1
 10
243.51795824097351
 20
706.60583080108336
 40
1.5000000000000002
  0
LINE
  8
_0-5_寸法線
  6
CONTINUOUS
 62
    7
 10
243.51795824097351
 20
704.60583080108279
 11
243.51795824097351
 21
706.60583080108336
  0
TEXT
  8
_0-5_寸法線
 62
    7
 10
262.94657056316464
 20
695.11794576317652
 40
15
 41
1
 50
90
  1
2
  0
LINE
  8
_0-5_寸法線
  6
CONTINUOUS
 62
    7
 10
243.51795824097351
 20
709.60583080108336
 11
240.9297677899483
 21
719.26508906397419
  0
LINE
  8
_0-5_寸法線
  6
CONTINUOUS
 62
    7
 10
243.51795824097351
 20
709.60583080108336
 11
246.10614869199873
 21
719.26508906397419
  0
LINE
  8
_0-5_寸法線
  6
CONTINUOUS
 62
    7
 10
243.51795824097351
 20
706.60583080108336
 11
243.51795824097351
 21
734.60583080108336
  0
TEXT
  8
_0-5_寸法線
 62
    7
 10
243.51795824097351
 20
723.87159773133521
 40
15
 41
1
 50
90
  1
3
  0
LINE
  8
_0-5_寸法線
  6
CONTINUOUS
 62
    7
 10
298.51795824097348
 20
719.60583080108279
 11
298.51795824097348
 21
764.60583080108279
  0
LINE
  8
_0-5_寸法線
  6
CONTINUOUS
 62
    7
 10
298.51795824097348
 20
759.60583080108279
 11
308.1772165038642
 21
762.19402125210809
  0
LINE
  8
_0-5_寸法線
  6
CONTINUOUS
 62
    7
 10
298.51795824097348
 20
759.60583080108279
 11
308.1772165038642
 21
757.01764035005772
  0
LINE
  8
_0-5_寸法線
  6
CONTINUOUS
 62
    7
 10
305.51795824097354
 20
719.60583080108279
 11
305.51795824097354
 21
764.60583080108279
  0
LINE
  8
_0-5_寸法線
  6
CONTINUOUS
 62
    7
 10
305.51795824097354
 20
759.60583080108279
 11
295.85869997808277
 21
757.01764035005772
  0
LINE
  8
_0-5_寸法線
  6
CONTINUOUS
 62
    7
 10
305.51795824097354
 20
759.60583080108279
 11
295.85869997808288
 21
762.19402125210809
  0
LINE
  8
_0-5_寸法線
  6
CONTINUOUS
 62
    7
 10
298.51795824097348
 20
759.60583080108279
 11
305.51795824097354
 21
759.60583080108279
  0
TEXT
  8
_0-5_寸法線
 62
    7
 10
300.14918918786697
 20
759.60583080108279
 40
15
 41
1
 50
0
  1
7
  0
LINE
  8
_0-5_寸法線
  6
CONTINUOUS
 62
    7
 10
305.51795824097354
 20
759.60583080108279
 11
315.1772165038642
 21
762.19402125210809
  0
LINE
  8
_0-5_寸法線
  6
CONTINUOUS
 62
    7
 10
305.51795824097354
 20
759.60583080108279
 11
315.1772165038642
 21
757.01764035005749
  0
LINE
  8
_0-5_寸法線
  6
CONTINUOUS
 62
    7
 10
402.51795824097343
 20
719.60583080108279
 11
402.51795824097343
 21
764.60583080108279
  0
LINE
  8
_0-5_寸法線
  6
CONTINUOUS
 62
    7
 10
402.51795824097343
 20
759.60583080108279
 11
392.85869997808271
 21
757.01764035005772
  0
LINE
  8
_0-5_寸法線
  6
CONTINUOUS
 62
    7
 10
402.51795824097343
 20
759.60583080108279
 11
392.85869997808277
 21
762.19402125210809
  0
LINE
  8
_0-5_寸法線
  6
CONTINUOUS
 62
    7
 10
305.51795824097354
 20
759.60583080108279
 11
402.51795824097343
 21
759.60583080108279
  0
TEXT
  8
_0-5_寸法線
 62
    7
 10
346.51795824097343
 20
759.60583080108279
 40
15
 41
1
 50
0
  1
97
  0
LINE
  8
_0-5_寸法線
  6
CONTINUOUS
 62
    7
 10
402.51795824097343
 20
759.60583080108279
 11
412.17721650386409
 21
762.19402125210809
  0
LINE
  8
_0-5_寸法線
  6
CONTINUOUS
 62
    7
 10
402.51795824097343
 20
759.60583080108279
 11
412.17721650386409
 21
757.01764035005749
  0
LINE
  8
_0-5_寸法線
  6
CONTINUOUS
 62
    7
 10
494.51795824097337
 20
719.60583080108279
 11
494.51795824097337
 21
764.60583080108279
  0
LINE
  8
_0-5_寸法線
  6
CONTINUOUS
 62
    7
 10
494.51795824097337
 20
759.60583080108279
 11
484.85869997808265
 21
757.01764035005772
  0
LINE
  8
_0-5_寸法線
  6
CONTINUOUS
 62
    7
 10
494.51795824097337
 20
759.60583080108279
 11
484.85869997808271
 21
762.19402125210809
  0
LINE
  8
_0-5_寸法線
  6
CONTINUOUS
 62
    7
 10
402.51795824097343
 20
759.60583080108279
 11
494.51795824097337
 21
759.60583080108279
  0
TEXT
  8
_0-5_寸法線
 62
    7
 10
441.01795824097337
 20
759.60583080108279
 40
15
 41
1
 50
0
  1
92
  0
LINE
  8
_0-5_寸法線
  6
CONTINUOUS
 62
    7
 10
494.51795824097337
 20
759.60583080108279
 11
504.17721650386409
 21
762.19402125210809
  0
LINE
  8
_0-5_寸法線
  6
CONTINUOUS
 62
    7
 10
494.51795824097337
 20
759.60583080108279
 11
504.17721650386403
 21
757.01764035005749
  0
LINE
  8
_0-5_寸法線
  6
CONTINUOUS
 62
    7
 10
591.51795824097348
 20
719.60583080108279
 11
591.51795824097348
 21
764.60583080108279
  0
LINE
  8
_0-5_寸法線
  6
CONTINUOUS
 62
    7
 10
591.51795824097348
 20
759.60583080108279
 11
581.85869997808277
 21
757.01764035005772
  0
LINE
  8
_0-5_寸法線
  6
CONTINUOUS
 62
    7
 10
591.51795824097348
 20
759.60583080108279
 11
581.85869997808277
 21
762.19402125210809
  0
LINE
  8
_0-5_寸法線
  6
CONTINUOUS
 62
    7
 10
494.51795824097337
 20
759.60583080108279
 11
591.51795824097348
 21
759.60583080108279
  0
TEXT
  8
_0-5_寸法線
 62
    7
 10
535.51795824097348
 20
759.60583080108279
 40
15
 41
1
 50
0
  1
97
  0
LINE
  8
_0-5_寸法線
  6
CONTINUOUS
 62
    7
 10
591.51795824097348
 20
759.60583080108279
 11
601.1772165038642
 21
762.19402125210809
  0
LINE
  8
_0-5_寸法線
  6
CONTINUOUS
 62
    7
 10
591.51795824097348
 20
759.60583080108279
 11
601.1772165038642
 21
757.01764035005749
  0
LINE
  8
_0-5_寸法線
  6
CONTINUOUS
 62
    7
 10
598.51795824097348
 20
719.60583080108279
 11
598.51795824097371
 21
764.60583080108279
  0
LINE
  8
_0-5_寸法線
  6
CONTINUOUS
 62
    7
 10
598.51795824097371
 20
759.60583080108279
 11
588.85869997808288
 21
757.01764035005772
  0
LINE
  8
_0-5_寸法線
  6
CONTINUOUS
 62
    7
 10
598.51795824097371
 20
759.60583080108279
 11
588.85869997808288
 21
762.19402125210809
  0
LINE
  8
_0-5_寸法線
  6
CONTINUOUS
 62
    7
 10
591.51795824097348
 20
759.60583080108279
 11
598.51795824097371
 21
759.60583080108279
  0
TEXT
  8
_0-5_寸法線
 62
    7
 10
589.91143324125005
 20
759.60583080108279
 40
15
 41
1
 50
0
  1
7
  0
LINE
  8
_0-5_寸法線
  6
CONTINUOUS
 62
    7
 10
579.96760606765997
 20
579.97202950939209
 11
584.39621953222093
 21
588.93793062314023
  0
LINE
  8
_0-5_寸法線
  6
CONTINUOUS
 62
    7
 10
579.96760606765997
 20
579.97202950939209
 11
588.2858483883856
 21
585.52242090943662
  0
LINE
  8
_0-5_寸法線
  6
CONTINUOUS
 62
    7
 10
579.96760606765997
 20
579.97202950939209
 11
631.01982498169195
 21
638.11098987087109
  0
LINE
  8
_0-5_寸法線
  6
CONTINUOUS
 62
    7
 10
631.01982498169195
 20
638.11098987087109
 11
763.01982498169207
 21
638.11098987087109
  0
TEXT
  8
_0-5_寸法線
 62
    7
 10
631.01982498169218
 20
638.11098987087109
 40
15
 41
0.8000000000000001
 50
0
  1
セーフティグレーチング
  0
TEXT
  8
_0-5_寸法線
 62
    7
 10
630.9922483335605
 20
516.27645690487657
 40
15
 41
0.8000000000000001
 50
0
  1
ＧＳＬ－２０
  0
LINE
  8
_0-5_寸法線
  6
CONTINUOUS
 62
    7
 10
602.10724588699281
 20
498.46015316043804
 11
606.53585929940164
 21
507.42605429994614
  0
LINE
  8
_0-5_寸法線
  6
CONTINUOUS
 62
    7
 10
602.10724588699281
 20
498.46015316043804
 11
610.42548817543343
 21
504.01054460886741
  0
LINE
  8
_0-5_寸法線
  6
CONTINUOUS
 62
    7
 10
602.10724588699281
 20
498.46015316043804
 11
631.01982498169195
 21
531.38619135059093
  0
LINE
  8
_0-5_寸法線
  6
CONTINUOUS
 62
    7
 10
631.01982498169195
 20
531.38619135059093
 11
739.01982498169207
 21
531.38619135059093
  0
TEXT
  8
_0-5_寸法線
 62
    7
 10
631.01982498169195
 20
531.38619135059093
 40
15
 41
0.8000000000000001
 50
0
  1
ＳＵＳアングル受枠
  0
LINE
  8
_0-1_計細線
  6
CONTINUOUS
 62
    3
 10
937.4999999991951
 20
647.4599999999997
 11
934.49548399919513
 21
647.4599999999997
  0
LINE
  8
_0-1_計細線
  6
CONTINUOUS
 62
    3
 10
937.4999999991951
 20
643.96000000000026
 11
934.49547199919652
 21
643.96000000000026
  0
ARC
  8
_0-1_計細線
  6
CONTINUOUS
 62
    3
 10
934.49547199919652
 20
644.16000000000008
 40
0.2
 50
179.99999999999983
 51
269.99999999999977
  0
ARC
  8
_0-1_計細線
  6
CONTINUOUS
 62
    3
 10
942.0534519991952
 20
645.70985400000029
 40
7.7579559999999983
 50
166.96197800000277
 51
193.03567000000038
  0
ARC
  8
_0-1_計細線
  6
CONTINUOUS
 62
    3
 10
934.49547199919652
 20
650.76000000000022
 40
0.2
 50
89.999999999999915
 51
179.99999999999983
  0
ARC
  8
_0-1_計細線
  6
CONTINUOUS
 62
    3
 10
942.0534519991952
 20
649.2101439999999
 40
7.7579559999999983
 50
166.96432999999925
 51
193.03802200000015
  0
LINE
  8
_0-1_計細線
  6
CONTINUOUS
 62
    3
 10
937.4999999991951
 20
650.96000000000004
 11
934.49547199919652
 21
650.96000000000004
  0
LINE
  8
_0-1_計細線
  6
CONTINUOUS
 62
    3
 10
934.29547199919568
 20
644.16000000000008
 11
934.29547199919568
 21
650.76000000000022
  0
ARC
  8
_0-1_計細線
  6
CONTINUOUS
 62
    3
 10
937.69999999919582
 20
641.16000000000008
 40
0.2
 50
179.99999999999983
 51
269.99999999999977
  0
ARC
  8
_0-1_計細線
  6
CONTINUOUS
 62
    3
 10
937.69999999919582
 20
653.75999999999965
 40
0.2
 50
89.999999999999915
 51
179.99999999999983
  0
LINE
  8
_0-1_計細線
  6
CONTINUOUS
 62
    3
 10
937.4999999991951
 20
646.95999999999981
 11
937.4999999991951
 21
641.16000000000008
  0
LINE
  8
_0-1_計細線
  6
CONTINUOUS
 62
    3
 10
937.4999999991951
 20
653.75999999999965
 11
937.4999999991951
 21
646.95999999999981
  0
LINE
  8
_0-1_計細線
  6
CONTINUOUS
 62
    3
 10
938.99999999872023
 20
640.95999999999992
 11
937.69999999919582
 21
640.95999999999992
  0
LINE
  8
_0-1_計細線
  6
CONTINUOUS
 62
    3
 10
938.99999999966997
 20
653.96000000000004
 11
937.69999999919582
 21
653.96000000000004
  0
LINE
  8
_0-1_計細線
  6
CONTINUOUS
 62
    3
 10
1232.5000000008049
 20
647.4599999999997
 11
1235.5045160008049
 21
647.4599999999997
  0
LINE
  8
_0-1_計細線
  6
CONTINUOUS
 62
    3
 10
1232.5000000008049
 20
643.96000000000026
 11
1235.5045280008035
 21
643.96000000000026
  0
ARC
  8
_0-1_計細線
  6
CONTINUOUS
 62
    3
 10
1235.5045280008035
 20
644.16000000000008
 40
0.2
 50
269.99999999999977
 51
359.99999999999966
  0
ARC
  8
_0-1_計細線
  6
CONTINUOUS
 62
    3
 10
1227.9465480008048
 20
645.70985400000029
 40
7.7579559999999983
 50
346.96432999999888
 51
13.038021999996865
  0
ARC
  8
_0-1_計細線
  6
CONTINUOUS
 62
    3
 10
1235.5045280008035
 20
650.76000000000022
 40
0.2
 50
0
 51
89.999999999999915
  0
ARC
  8
_0-1_計細線
  6
CONTINUOUS
 62
    3
 10
1227.9465480008048
 20
649.2101439999999
 40
7.7579559999999983
 50
346.96197799999919
 51
13.035670000000389
  0
LINE
  8
_0-1_計細線
  6
CONTINUOUS
 62
    3
 10
1232.5000000008049
 20
650.96000000000004
 11
1235.5045280008035
 21
650.96000000000004
  0
LINE
  8
_0-1_計細線
  6
CONTINUOUS
 62
    3
 10
1235.7045280008042
 20
644.16000000000008
 11
1235.7045280008042
 21
650.76000000000022
  0
ARC
  8
_0-1_計細線
  6
CONTINUOUS
 62
    3
 10
1232.3000000008042
 20
641.16000000000008
 40
0.2
 50
269.99999999999977
 51
359.99999999999966
  0
ARC
  8
_0-1_計細線
  6
CONTINUOUS
 62
    3
 10
1232.3000000008042
 20
653.75999999999965
 40
0.2
 50
0
 51
89.999999999999915
  0
LINE
  8
_0-1_計細線
  6
CONTINUOUS
 62
    3
 10
1232.5000000008049
 20
646.95999999999981
 11
1232.5000000008049
 21
641.16000000000008
  0
LINE
  8
_0-1_計細線
  6
CONTINUOUS
 62
    3
 10
1232.5000000008049
 20
653.75999999999965
 11
1232.5000000008049
 21
646.95999999999981
  0
LINE
  8
_0-1_計細線
  6
CONTINUOUS
 62
    3
 10
1231.0000000012799
 20
640.95999999999992
 11
1232.3000000008042
 21
640.95999999999992
  0
LINE
  8
_0-1_計細線
  6
CONTINUOUS
 62
    3
 10
1231.0000000003301
 20
653.96000000000004
 11
1232.3000000008042
 21
653.96000000000004
  0
LINE
  8
_0-0_計極細
  6
CENTER1
 62
    2
 10
1238.8721647772363
 20
647.4599999999997
 11
931.44939203730644
 21
647.4599999999997
  0
LINE
  8
_0-5_寸法線
  6
CONTINUOUS
 62
    7
 10
1076.8084795571101
 20
644.39576436351035
 11
1053.1396183888319
 21
660.96887937437759
  0
LINE
  8
_0-5_寸法線
  6
CONTINUOUS
 62
    7
 10
1057.2353786102769
 20
658.10099719262223
 11
1054.6471881592518
 21
667.76025545551295
  0
LINE
  8
_0-5_寸法線
  6
CONTINUOUS
 62
    7
 10
1057.2353786102769
 20
658.10099719262223
 11
1059.8235690613021
 21
667.76025545551295
  0
LINE
  8
_0-5_寸法線
  6
CONTINUOUS
 62
    7
 10
1076.8084795571101
 20
664.39576436351001
 11
1053.1396183888321
 21
680.96887937437816
  0
LINE
  8
_0-5_寸法線
  6
CONTINUOUS
 62
    7
 10
1057.2353786102769
 20
678.1009971926228
 11
1059.8235690613021
 21
668.4417389297322
  0
LINE
  8
_0-5_寸法線
  6
CONTINUOUS
 62
    7
 10
1057.2353786102769
 20
678.1009971926228
 11
1054.6471881592518
 21
668.4417389297322
  0
LINE
  8
_0-5_寸法線
  6
CONTINUOUS
 62
    7
 10
1057.2353786102769
 20
658.10099719262223
 11
1057.2353786102769
 21
678.1009971926228
  0
TEXT
  8
_0-5_寸法線
 62
    7
 10
1057.2353786102769
 20
660.60099719262257
 40
15
 41
1
 50
90
  1
20
  0
TEXT
  8
_0-5_寸法線
 62
    7
 10
630.9922483335605
 20
622.42580879342802
 40
15
 41
0.8000000000000001
 50
0
  1
ＧＲＳ－２０Ｋ３００
  0
ENDSEC
  0
EOF
