  0
SECTION
  2
HEADER
  9
$ACADVER
  1
AC1009
  9
$INSBASE
 10
0
 20
0
 30
0
  9
$EXTMIN
 10
0
 20
0
  9
$EXTMAX
 10
1485
 20
1050
  9
$LIMMIN
 10
0
 20
0
  9
$LIMMAX
 10
1485
 20
1050
  9
$LTSCALE
 40
5
  0
ENDSEC
  0
SECTION
  2
TABLES
  0
TABLE
  2
LTYPE
 70
     9
  0
LTYPE
  2
CONTINUOUS
 70
    64
  3
実線
 72
    65
 73
     0
 40
0.0
  0
LTYPE
  2
DASHED1
 70
    64
  3
--  --  --  --  --  --  --  --  
 72
    65
 73
     2
 40
2.5
 49
1.25
 49
-1.25
  0
LTYPE
  2
DASHED2
 70
    64
  3
----    ----    ----    ----    
 72
    65
 73
     2
 40
5.0
 49
2.5
 49
-2.5
  0
LTYPE
  2
DASHED3
 70
    64
  3
------  ------  ------  ------  
 72
    65
 73
     2
 40
5.0
 49
3.75
 49
-1.25
  0
LTYPE
  2
CENTER1
 70
    64
  3
----- - ----- - ----- - ----- - 
 72
    65
 73
     4
 40
10.0
 49
6.25
 49
-1.25
 49
1.25
 49
-1.25
  0
LTYPE
  2
CENTER2
 70
    64
  3
----------  --  ----------  --  
 72
    65
 73
     4
 40
20.0
 49
12.5
 49
-2.5
 49
2.5
 49
-2.5
  0
LTYPE
  2
PHANTOM1
 70
    64
  3
--- - - --- - - --- - - --- - - 
 72
    65
 73
     6
 40
10.0
 49
3.25
 49
-1.25
 49
1.25
 49
-1.25
 49
1.25
 49
-1.25
  0
LTYPE
  2
PHANTOM2
 70
    64
  3
--------  -  -  --------  -  -  
 72
    65
 73
     6
 40
20.0
 49
10.0
 49
-2.5
 49
1.25
 49
-2.5
 49
1.25
 49
-2.5
  0
LTYPE
  2
DOT
 70
    64
  3
-   -   -   -   -   -   -   -   
 72
    65
 73
     2
 40
2.5
 49
0.625
 49
-1.875
  0
LTYPE
  2
DUMMY
 70
    64
  3
ダミー
 72
    65
 73
     0
 40
0.0
  0
LTYPE
  2
RAND1
 70
    64
  3
ランダム線1
 72
    65
 73
     4
 40
10.0
 49
1.0
 49
-2.0
 49
3.0
 49
-4.0
  0
LTYPE
  2
RAND2
 70
    64
  3
ランダム線2
 72
    65
 73
     4
 40
14.0
 49
2.0
 49
-3.0
 49
4.0
 49
-5.0
  0
LTYPE
  2
RAND3
 70
    64
  3
ランダム線3
 72
    65
 73
     4
 40
18.0
 49
3.0
 49
-4.0
 49
5.0
 49
-6.0
  0
LTYPE
  2
RAND4
 70
    64
  3
ランダム線4
 72
    65
 73
     4
 40
22.0
 49
4.0
 49
-5.0
 49
6.0
 49
-7.0
  0
LTYPE
  2
RAND5
 70
    64
  3
ランダム線5
 72
    65
 73
     4
 40
26.0
 49
5.0
 49
-6.0
 49
7.0
 49
-8.0
  0
LTYPE
  2
LONG1
 70
    64
  3
----------  --  ----------  --  
 72
    65
 73
     4
 40
40.0
 49
32.5
 49
-2.5
 49
2.5
 49
-2.5
  0
LTYPE
  2
LONG2
 70
    64
  3
--------  -  -  --------  -  -  
 72
    65
 73
     6
 40
40.0
 49
30.0
 49
-2.5
 49
1.25
 49
-2.5
 49
1.25
 49
-2.5
  0
LTYPE
  2
LONG3
 70
    64
  3
+++++++++++++++..+++++++++++++++
 72
    65
 73
     2
 40
40.0
 49
37.5
 49
-2.5
  0
LTYPE
  2
LONG4
 70
    64
  3
+++++++++++++++..+++++++++++++++
 72
    65
 73
     2
 40
80.0
 49
75.0
 49
-5.0
  0
LTYPE
  2
LONG5
 70
    64
  3
----------  --  ----------  --  
 72
    65
 73
     4
 40
60.0
 49
37.5
 49
-7.5
 49
7.5
 49
-7.5
  0
LTYPE
  2
dashed
 70
   64
  3
-------   -------------   ------
 72
   65
 73
    2
 40
7.5
 49
6
 49
-1.5
  0
LTYPE
  2
dashed_spaced
 70
   64
  3
----        --------        ----
 72
   65
 73
    2
 40
12
 49
6
 49
-6
  0
LTYPE
  2
long_dashed_dotted
 70
   64
  3
------------- --- --------------
 72
   65
 73
    4
 40
15.25
 49
12
 49
-1.5
 49
0.25
 49
-1.5
  0
LTYPE
  2
long_dashed_double-dotted
 70
   64
  3
----------- --- --- ------------
 72
   65
 73
    6
 40
17
 49
12
 49
-1.5
 49
0.25
 49
-1.5
 49
0.25
 49
-1.5
  0
LTYPE
  2
long_dashed_triplicate-dotted
 70
   64
  3
--------- --- --- --- ----------
 72
   65
 73
    8
 40
18.75
 49
12
 49
-1.5
 49
0.25
 49
-1.5
 49
0.25
 49
-1.5
 49
0.25
 49
-1.5
  0
LTYPE
  2
dotted
 70
   64
  3
   -       -       -       -    
 72
   65
 73
    2
 40
1.75
 49
0.25
 49
-1.5
  0
LTYPE
  2
chain
 70
   64
  3
-------------- -- --------------
 72
   65
 73
    4
 40
18.5
 49
12
 49
-1.5
 49
3.5
 49
-1.5
  0
LTYPE
  2
chain_double_dash
 70
   64
  3
------------ -- -- -------------
 72
   65
 73
    6
 40
23.5
 49
12
 49
-1.5
 49
3.5
 49
-1.5
 49
3.5
 49
-1.5
  0
LTYPE
  2
dashed_dotted
 70
   64
  3
-----------     -     ----------
 72
   65
 73
    4
 40
9.25
 49
6
 49
-1.5
 49
0.25
 49
-1.5
  0
LTYPE
  2
double-dashed_dotted
 70
   64
  3
------   -----------   -   -----
 72
   65
 73
    6
 40
16.75
 49
6
 49
-1.5
 49
6
 49
-1.5
 49
0.25
 49
-1.5
  0
LTYPE
  2
dashed_double-dotted
 70
   64
  3
---------    -    -    ---------
 72
   65
 73
    6
 40
11
 49
6
 49
-1.5
 49
0.25
 49
-1.5
 49
0.25
 49
-1.5
  0
LTYPE
  2
double-dashed_double-dotted
 70
   64
  3
-----   ---------   -   -   ----
 72
   65
 73
    8
 40
18.5
 49
6
 49
-1.5
 49
6
 49
-1.5
 49
0.25
 49
-1.5
 49
0.25
 49
-1.5
  0
LTYPE
  2
dashed_triplicate-dotted
 70
   64
  3
-------    -    -    -    ------
 72
   65
 73
    8
 40
12.75
 49
6
 49
-1.5
 49
0.25
 49
-1.5
 49
0.25
 49
-1.5
 49
0.25
 49
-1.5
  0
LTYPE
  2
double-dashed_triplicate-dotted
 70
   64
  3
-----  ---------  -  -  -  -----
 72
   65
 73
   10
 40
20.25
 49
6
 49
-1.5
 49
6
 49
-1.5
 49
0.25
 49
-1.5
 49
0.25
 49
-1.5
 49
0.25
 49
-1.5
  0
LTYPE
  2
undefined
 70
   64
  3
--------------------------------
 72
   65
 73
    0
 40
0
  0
ENDTAB
  0
TABLE
  2
STYLE
  5
3
100
AcDbSymbolTable
 70
     1
  0
STYLE
  5
10
100
AcDbSymbolTableRecord
100
AcDbTextStyleTableRecord
  2
STANDARD
 70
     0
 40
0.0
 41
1.0
 50
0.0
 71
     0
 42
0.2
  3
txt
  4
bigfont.shx
  0
STYLE
  5
26
100
AcDbSymbolTableRecord
100
AcDbTextStyleTableRecord
  2
TATEGAKI
 70
    68
 40
0.0
 41
1.0
 50
0.0
 71
     0
 42
1.0
  3
txt
  4
bigfont.shx
  0
ENDTAB
  0
TABLE
  2
LAYER
 70
   10
  0
LAYER
  2
_0-0_計極細
 70
   64
 62
    7
  6
CONTINUOUS
  0
LAYER
  2
_0-1_計細線
 70
   64
 62
    7
  6
CONTINUOUS
  0
LAYER
  2
_0-5_寸法線
 70
   64
 62
    7
  6
CONTINUOUS
  0
LAYER
  2
_0-7_枠細線
 70
   64
 62
    7
  6
CONTINUOUS
  0
LAYER
  2
_0-8_枠中線
 70
   64
 62
    7
  6
CONTINUOUS
  0
LAYER
  2
_0-9_枠極太
 70
   64
 62
    7
  6
CONTINUOUS
  0
LAYER
  2
_0-a_極細3
 70
   64
 62
    7
  6
CONTINUOUS
  0
LAYER
  2
_0-b_細線3
 70
   64
 62
    7
  6
CONTINUOUS
  0
LAYER
  2
_0-d_寸法3
 70
   64
 62
    7
  6
CONTINUOUS
  0
LAYER
  2
ADD_LINE
 70
   64
 62
    7
  6
CONTINUOUS
  0
ENDTAB
  0
ENDSEC
  0
SECTION
  2
BLOCKS
  0
ENDSEC
  0
SECTION
  2
ENTITIES
  0
LINE
  8
_0-7_枠細線
  6
CONTINUOUS
 62
    5
 10
1185
 20
180
 11
1185
 21
100
  0
TEXT
  8
_0-7_枠細線
 62
    5
 10
937.5
 20
97.5
 40
17.5
 41
1
 50
0
  1
備考
  7
TATEGAKI
  0
TEXT
  8
_0-7_枠細線
 62
    5
 10
937.5
 20
137.5
 40
17.5
 41
1
 50
0
  1
品番
  7
TATEGAKI
  0
TEXT
  8
_0-7_枠細線
 62
    5
 10
937.5
 20
177.5
 40
17.5
 41
1
 50
0
  1
品名
  7
TATEGAKI
  0
LINE
  8
_0-7_枠細線
  6
CONTINUOUS
 62
    5
 10
1185
 20
140
 11
925
 21
140
  0
LINE
  8
_0-7_枠細線
  6
CONTINUOUS
 62
    5
 10
950
 20
180
 11
950
 21
60
  0
LINE
  8
_0-8_枠中線
  6
CONTINUOUS
 62
    5
 10
1425
 20
180
 11
925
 21
180
  0
LINE
  8
_0-8_枠中線
  6
CONTINUOUS
 62
    5
 10
925
 20
180
 11
925
 21
60
  0
LINE
  8
_0-7_枠細線
  6
CONTINUOUS
 62
    5
 10
1245
 20
180
 11
1245
 21
60
  0
TEXT
  8
_0-7_枠細線
 62
    5
 10
1192.5
 20
160
 40
15
 41
1
 50
0
  1
縮　尺
  0
LINE
  8
_0-7_枠細線
  6
CONTINUOUS
 62
    5
 10
1185
 20
155
 11
1245
 21
155
  0
LINE
  8
_0-7_枠細線
  6
CONTINUOUS
 62
    5
 10
1245
 20
100
 11
925
 21
100
  0
LINE
  8
_0-7_枠細線
  6
CONTINUOUS
 62
    5
 10
1425
 20
90
 11
1245
 21
90
  0
LINE
  8
_0-7_枠細線
  6
CONTINUOUS
 62
    5
 10
1245
 20
120
 11
1425
 21
120
  0
LINE
  8
_0-7_枠細線
  6
CONTINUOUS
 62
    5
 10
1425
 20
140
 11
1245
 21
140
  0
TEXT
  8
_0-7_枠細線
 62
    5
 10
1255
 20
147.5
 40
25
 41
0.8
 50
0
  1
株式会社シマブン
  0
TEXT
  8
_0-7_枠細線
 62
    5
 10
1252.5
 20
60
 40
15
 41
1
 50
0
  1
年月日
  0
TEXT
  8
_0-7_枠細線
 62
    5
 10
1252.5
 20
75
 40
15
 41
1
 50
0
  1
作　成
  0
TEXT
  8
_0-7_枠細線
 62
    5
 10
1256.25
 20
122.5
 40
15
 41
1
 50
0
  1
承 認
  0
LINE
  8
_0-7_枠細線
  6
CONTINUOUS
 62
    5
 10
1305
 20
140
 11
1305
 21
60
  0
TEXT
  8
_0-7_枠細線
 62
    5
 10
1316.25
 20
122.5
 40
15
 41
1
 50
0
  1
検 図
  0
LINE
  8
_0-7_枠細線
  6
CONTINUOUS
 62
    5
 10
1365
 20
140
 11
1365
 21
90
  0
TEXT
  8
_0-7_枠細線
 62
    5
 10
1375
 20
95
 40
20
 41
1
 50
0
  1
藤戸
  0
TEXT
  8
_0-7_枠細線
 62
    5
 10
1376.25
 20
122.5
 40
15
 41
1
 50
0
  1
設 計
  0
TEXT
  8
_0-7_枠細線
 62
    5
 10
1255
 20
95
 40
20
 41
1
 50
0
  1
隠塚
  0
TEXT
  8
_0-7_枠細線
 62
    5
 10
1315
 20
95
 40
20
 41
1
 50
0
  1
渋田
  0
TEXT
  8
_0-7_枠細線
 62
    5
 10
1193.9999999999998
 20
117.5
 40
20
 41
0.7000000000000001
 50
0
  1
１：５
  0
TEXT
  8
_0-7_枠細線
 62
    5
 10
960.5
 20
69.999999999999858
 40
20
 41
0.5999999999999998
 50
0
  1
品番・色については表参照のこと
  0
TEXT
  8
_0-7_枠細線
 62
    5
 10
1309.9999999999998
 20
67.499999999999929
 40
15.000000000000009
 41
0.6666666666666665
 50
0
  1
２０１０年０３月０１日
  0
TEXT
  8
_0-7_枠細線
 62
    5
 10
960.5
 20
158.74999999999994
 40
20.000000000000007
 41
0.5999999999999998
 50
0
  1
セーフティグレーチングＨ２０タイプ
  0
TEXT
  8
_0-7_枠細線
 62
    5
 10
1128.5
 20
141.25
 40
20.000000000000007
 41
0.5999999999999998
 50
0
  1
集水マス
  0
LINE
  8
_0-7_枠細線
  6
CONTINUOUS
 62
    5
 10
1425
 20
942.5
 11
890
 21
942.5
  0
TEXT
  8
_0-7_枠細線
 62
    5
 10
895
 20
945
 40
12.5
 41
1
 50
0
  1
記号
  0
TEXT
  8
_0-7_枠細線
 62
    5
 10
996.875
 20
945
 40
12.5
 41
1
 50
0
  1
訂　 正　 記　 事
  0
TEXT
  8
_0-7_枠細線
 62
    5
 10
1181.25
 20
945
 40
12.5
 41
1
 50
0
  1
訂 正 年 月 日
  0
TEXT
  8
_0-7_枠細線
 62
    5
 10
1306.25
 20
945
 40
12.5
 41
1
 50
0
  1
備　　　　　考
  0
LINE
  8
_0-7_枠細線
  6
CONTINUOUS
 62
    5
 10
1425
 20
925
 11
890
 21
925
  0
TEXT
  8
_0-7_枠細線
 62
    5
 10
938.85037037037023
 20
927.5
 40
12.5
 41
1
 50
0
  1
品番・色記号変更
  0
TEXT
  8
_0-7_枠細線
 62
    5
 10
1180
 20
927.5
 40
12.5
 41
0.7199999999999999
 50
0
  1
２０１３．０３．１３
  0
LINE
  8
_0-7_枠細線
  6
CONTINUOUS
 62
    5
 10
1425
 20
907.5
 11
890
 21
907.5
  0
LINE
  8
_0-7_枠細線
  6
CONTINUOUS
 62
    5
 10
1425
 20
890
 11
890
 21
890
  0
TEXT
  8
_0-7_枠細線
 62
    5
 10
938.85037037037023
 20
910
 40
12.5
 41
1
 50
0
  1
クロスバーピッチ変更
  0
TEXT
  8
_0-7_枠細線
 62
    5
 10
938.85037037037023
 20
892.5
 40
12.5
 41
1
 50
0
  1
取外具形状変更
  0
TEXT
  8
_0-7_枠細線
 62
    5
 10
1180
 20
910
 40
12.5
 41
0.7199999999999999
 50
0
  1
２０１５．１１．２０
  0
LINE
  8
_0-7_枠細線
  6
CONTINUOUS
 62
    5
 10
915
 20
908.94233397174685
 11
907.5
 21
923.94233397174685
  0
LINE
  8
_0-7_枠細線
  6
CONTINUOUS
 62
    5
 10
900
 20
908.94233397174685
 11
915
 21
908.94233397174685
  0
LINE
  8
_0-7_枠細線
  6
CONTINUOUS
 62
    5
 10
907.5
 20
923.94233397174685
 11
900
 21
908.94233397174685
  0
TEXT
  8
_0-7_枠細線
 62
    5
 10
902.36515126814822
 20
908.63533172636664
 40
12.5
 41
0.8
 50
0
  1
１
  0
TEXT
  8
_0-7_枠細線
 62
    5
 10
902.36515126814822
 20
891.13533172636664
 40
12.5
 41
0.8
 50
0
  1
２
  0
LINE
  8
_0-7_枠細線
  6
CONTINUOUS
 62
    5
 10
1425
 20
872.5
 11
890
 21
872.5
  0
LINE
  8
_0-7_枠細線
  6
CONTINUOUS
 62
    5
 10
907.5
 20
906.44233397174685
 11
900
 21
891.44233397174685
  0
LINE
  8
_0-7_枠細線
  6
CONTINUOUS
 62
    5
 10
900
 20
891.44233397174685
 11
915
 21
891.44233397174685
  0
LINE
  8
_0-7_枠細線
  6
CONTINUOUS
 62
    5
 10
915
 20
891.44233397174685
 11
907.5
 21
906.44233397174685
  0
TEXT
  8
_0-7_枠細線
 62
    5
 10
902.36515126814822
 20
873.39465008156549
 40
12.5
 41
0.8
 50
0
  1
３
  0
TEXT
  8
_0-7_枠細線
 62
    5
 10
1180
 20
875
 40
12.5
 41
0.7199999999999999
 50
0
  1
２０１７．０４．０１
  0
LINE
  8
_0-7_枠細線
  6
CONTINUOUS
 62
    5
 10
915
 20
856.44233397174685
 11
907.5
 21
871.44233397174685
  0
LINE
  8
_0-7_枠細線
  6
CONTINUOUS
 62
    5
 10
900
 20
856.44233397174685
 11
915
 21
856.44233397174685
  0
LINE
  8
_0-7_枠細線
  6
CONTINUOUS
 62
    5
 10
907.5
 20
871.44233397174685
 11
900
 21
856.44233397174685
  0
TEXT
  8
_0-7_枠細線
 62
    5
 10
1180
 20
857.5
 40
12.5
 41
0.7199999999999999
 50
0
  1
２０１７．０４．０１
  0
TEXT
  8
_0-7_枠細線
 62
    5
 10
938.85037037037023
 20
857.5
 40
12.5
 41
1
 50
0
  1
ブラウン色（Ｃ）追加
  0
LINE
  8
_0-7_枠細線
  6
CONTINUOUS
 62
    5
 10
1425
 20
855
 11
890
 21
855
  0
LINE
  8
_0-7_枠細線
  6
CONTINUOUS
 62
    5
 10
907.5
 20
888.94233397174685
 11
900
 21
873.94233397174685
  0
LINE
  8
_0-7_枠細線
  6
CONTINUOUS
 62
    5
 10
900
 20
873.94233397174685
 11
915
 21
873.94233397174685
  0
LINE
  8
_0-7_枠細線
  6
CONTINUOUS
 62
    5
 10
915
 20
873.94233397174685
 11
907.5
 21
888.94233397174685
  0
TEXT
  8
_0-7_枠細線
 62
    5
 10
902.36515126814822
 20
855.49351400689704
 40
12.5
 41
0.8
 50
0
  1
４
  0
TEXT
  8
_0-7_枠細線
 62
    5
 10
938.85037037037023
 20
875
 40
12.5
 41
1
 50
0
  1
取外具形状変更
  0
TEXT
  8
_0-7_枠細線
 62
    5
 10
1180
 20
892.5
 40
12.5
 41
0.7199999999999999
 50
0
  1
２０１５．１１．２０
  0
LINE
  8
_0-9_枠極太
  6
CONTINUOUS
 62
    5
 10
60
 20
60
 11
60
 21
960
  0
LINE
  8
_0-9_枠極太
  6
CONTINUOUS
 62
    5
 10
60
 20
960
 11
1425
 21
960
  0
LINE
  8
_0-9_枠極太
  6
CONTINUOUS
 62
    5
 10
1425
 20
960
 11
1425
 21
60
  0
LINE
  8
_0-9_枠極太
  6
CONTINUOUS
 62
    5
 10
1425
 20
60
 11
60
 21
60
  0
LINE
  8
_0-7_枠細線
  6
CONTINUOUS
 62
    5
 10
915
 20
838.94233397174685
 11
907.5
 21
853.94233397174685
  0
LINE
  8
_0-7_枠細線
  6
CONTINUOUS
 62
    5
 10
900
 20
838.94233397174685
 11
915
 21
838.94233397174685
  0
LINE
  8
_0-7_枠細線
  6
CONTINUOUS
 62
    5
 10
907.5
 20
853.94233397174685
 11
900
 21
838.94233397174685
  0
LINE
  8
_0-7_枠細線
  6
CONTINUOUS
 62
    5
 10
1425
 20
837.5
 11
890
 21
837.5
  0
TEXT
  8
_0-7_枠細線
 62
    5
 10
1180
 20
840
 40
12.5
 41
0.7199999999999999
 50
0
  1
２０１９．０９．０１
  0
TEXT
  8
_0-7_枠細線
 62
    5
 10
902.36515126814822
 20
837.99351400689704
 40
12.5
 41
0.8
 50
0
  1
５
  0
TEXT
  8
_0-7_枠細線
 62
    5
 10
938.85037037037023
 20
840
 40
12.5
 41
1
 50
0
  1
アンカー材質･厚み変更
  0
TEXT
  8
_0-7_枠細線
 62
    5
 10
960.5
 20
109.99999999999993
 40
20.000000000000007
 41
0.5999999999999998
 50
0
  1
ＧＲＳ－２０Ｋ３５０
  0
LINE
  8
_0-7_枠細線
  6
CONTINUOUS
 62
    5
 10
925
 20
473.73000000000047
 11
925
 21
223.73000000000002
  0
LINE
  8
_0-7_枠細線
  6
CONTINUOUS
 62
    5
 10
1270.7300000000005
 20
393.73000000000059
 11
1270.7300000000005
 21
473.73000000000059
  0
LINE
  8
_0-7_枠細線
  6
CONTINUOUS
 62
    5
 10
925
 20
323.73000000000059
 11
1225.0000000000005
 21
323.73000000000059
  0
LINE
  8
_0-7_枠細線
  6
CONTINUOUS
 62
    5
 10
925
 20
348.73000000000047
 11
1225.0000000000005
 21
348.73000000000047
  0
LINE
  8
_0-7_枠細線
  6
CONTINUOUS
 62
    5
 10
925
 20
373.73000000000047
 11
1225.0000000000005
 21
373.73000000000047
  0
LINE
  8
_0-7_枠細線
  6
CONTINUOUS
 62
    5
 10
925
 20
398.73000000000076
 11
1225.0000000000005
 21
398.73000000000076
  0
TEXT
  8
_0-7_枠細線
 62
    5
 10
1048.0000000000005
 20
403.73000000000076
 40
15
 41
0.5999999999999999
 50
0
  1
ライトグレー
  0
LINE
  8
_0-7_枠細線
  6
CONTINUOUS
 62
    5
 10
925
 20
423.73000000000047
 11
1225.0000000000005
 21
423.73000000000047
  0
TEXT
  8
_0-7_枠細線
 62
    5
 10
1057.0000000000005
 20
428.73000000000047
 40
15
 41
0.5999999999999999
 50
0
  1
ベージュ
  0
LINE
  8
_0-7_枠細線
  6
CONTINUOUS
 62
    5
 10
925
 20
448.73000000000047
 11
1225.0000000000005
 21
448.73000000000047
  0
TEXT
  8
_0-7_枠細線
 62
    5
 10
1069.0000000000005
 20
453.73000000000047
 40
15
 41
0.8000000000000001
 50
0
  1
色
  0
TEXT
  8
_0-7_枠細線
 62
    5
 10
951.00000000000034
 20
453.73000000000047
 40
15
 41
0.8000000000000001
 50
0
  1
品　　番
  0
TEXT
  8
_0-7_枠細線
 62
    5
 10
1151.0000000000005
 20
453.73000000000047
 40
15
 41
0.8000000000000001
 50
0
  1
備　　考
  0
LINE
  8
_0-7_枠細線
  6
CONTINUOUS
 62
    5
 10
925
 20
473.73000000000047
 11
1225.0000000000005
 21
473.73000000000047
  0
TEXT
  8
_0-7_枠細線
 62
    5
 10
1013.75
 20
478.73000000000047
 40
17.5
 41
1
 50
0
  1
品番表
  0
LINE
  8
_0-7_枠細線
  6
CONTINUOUS
 62
    5
 10
925
 20
248.73000000000033
 11
1225.0000000000005
 21
248.73000000000033
  0
LINE
  8
_0-7_枠細線
  6
CONTINUOUS
 62
    5
 10
925
 20
273.73000000000059
 11
1225.0000000000005
 21
273.73000000000059
  0
LINE
  8
_0-7_枠細線
  6
CONTINUOUS
 62
    5
 10
925
 20
298.7300000000007
 11
1225.0000000000005
 21
298.7300000000007
  0
TEXT
  8
_0-7_枠細線
 62
    5
 10
1057.0000000000009
 20
378.7300000000007
 40
15
 41
0.5999999999999999
 50
0
  1
ホワイト
  0
TEXT
  8
_0-7_枠細線
 62
    5
 10
1061.5000000000005
 20
353.73000000000047
 40
15
 41
0.5999999999999999
 50
0
  1
ピンク
  0
TEXT
  8
_0-7_枠細線
 62
    5
 10
1061.5000000000005
 20
328.73000000000047
 40
15
 41
0.5999999999999999
 50
0
  1
ブルー
  0
TEXT
  8
_0-7_枠細線
 62
    5
 10
1048
 20
303.73000000000059
 40
15
 41
0.5999999999999999
 50
0
  1
ダークグレー
  0
TEXT
  8
_0-7_枠細線
 62
    5
 10
1061.5000000000005
 20
278.7300000000007
 40
15
 41
0.5999999999999999
 50
0
  1
ウッド
  0
LINE
  8
_0-7_枠細線
  6
CONTINUOUS
 62
    5
 10
925
 20
223.73000000000002
 11
1225.0000000000005
 21
223.73000000000002
  0
TEXT
  8
_0-7_枠細線
 62
    5
 10
1057.0000000000009
 20
228.73000000000013
 40
15
 41
0.5999999999999999
 50
0
  1
ブラック
  0
LINE
  8
_0-7_枠細線
  6
CONTINUOUS
 62
    5
 10
1225.0000000000005
 20
473.73000000000047
 11
1225.0000000000005
 21
223.73000000000002
  0
LINE
  8
_0-7_枠細線
  6
CONTINUOUS
 62
    5
 10
1125
 20
473.73000000000047
 11
1125
 21
223.73000000000002
  0
LINE
  8
_0-7_枠細線
  6
CONTINUOUS
 62
    5
 10
1025.0000000000005
 20
473.73000000000047
 11
1025.0000000000005
 21
223.73000000000002
  0
TEXT
  8
_0-7_枠細線
 62
    5
 10
1057.0000000000005
 20
253.73000000000033
 40
15
 41
0.5999999999999999
 50
0
  1
ブラウン
  0
LINE
  8
_0-7_枠細線
  6
CONTINUOUS
 62
    5
 10
918.52762466555532
 20
254.30604122127349
 11
911.02762466555532
 21
269.30604122127352
  0
LINE
  8
_0-7_枠細線
  6
CONTINUOUS
 62
    5
 10
903.52762466555532
 20
254.30604122127349
 11
918.52762466555532
 21
254.30604122127349
  0
LINE
  8
_0-7_枠細線
  6
CONTINUOUS
 62
    5
 10
911.02762466555532
 20
269.30604122127352
 11
903.52762466555532
 21
254.30604122127349
  0
TEXT
  8
_0-7_枠細線
 62
    5
 10
905.89277593370343
 20
253.3572212564236
 40
12.5
 41
0.8
 50
0
  1
４
  0
TEXT
  8
_0-7_枠細線
 62
    5
 10
930.00000000000045
 20
428.73000000000047
 40
15
 41
0.5
 50
0
  1
ＧＲＳ－２０Ｋ３５０－Ｂ
  0
TEXT
  8
_0-7_枠細線
 62
    5
 10
930.00000000000045
 20
403.73000000000047
 40
15
 41
0.5
 50
0
  1
ＧＲＳ－２０Ｋ３５０－Ｇ
  0
TEXT
  8
_0-7_枠細線
 62
    5
 10
930.00000000000045
 20
378.7300000000007
 40
15
 41
0.5
 50
0
  1
ＧＲＳ－２０Ｋ３５０－Ｓ
  0
TEXT
  8
_0-7_枠細線
 62
    5
 10
930.00000000000045
 20
353.73000000000047
 40
15
 41
0.5
 50
0
  1
ＧＲＳ－２０Ｋ３５０－Ｐ
  0
TEXT
  8
_0-7_枠細線
 62
    5
 10
930.00000000000045
 20
328.73000000000047
 40
15
 41
0.5
 50
0
  1
ＧＲＳ－２０Ｋ３５０－Ａ
  0
TEXT
  8
_0-7_枠細線
 62
    5
 10
930.00000000000045
 20
303.73000000000059
 40
15
 41
0.5
 50
0
  1
ＧＲＳ－２０Ｋ３５０－Ｄ
  0
TEXT
  8
_0-7_枠細線
 62
    5
 10
930.00000000000045
 20
278.7300000000007
 40
15
 41
0.5
 50
0
  1
ＧＲＳ－２０Ｋ３５０－Ｍ
  0
TEXT
  8
_0-7_枠細線
 62
    5
 10
930.00000000000045
 20
253.73000000000033
 40
15
 41
0.5
 50
0
  1
ＧＲＳ－２０Ｋ３５０－Ｃ
  0
TEXT
  8
_0-7_枠細線
 62
    5
 10
930.00000000000045
 20
228.73000000000013
 40
15
 41
0.5
 50
0
  1
ＧＲＳ－２０Ｋ３５０－Ｋ
  0
TEXT
  8
_0-7_枠細線
 62
    5
 10
1293.2300000000007
 20
451.23000000000059
 40
15
 41
1
 50
0
  1
耐荷重
  0
TEXT
  8
_0-7_枠細線
 62
    5
 10
1285.7300000000007
 20
421.23000000000059
 40
15
 41
1
 50
0
  1
3.5kN/㎡
  0
TEXT
  8
_0-7_枠細線
 62
    5
 10
1278.2300000000005
 20
401.23000000000059
 40
15
 41
1
 50
0
  1
（歩道用）
  0
LINE
  8
_0-7_枠細線
  6
CONTINUOUS
 62
    5
 10
1360.7300000000007
 20
393.73000000000059
 11
1360.7300000000007
 21
473.73000000000059
  0
LINE
  8
_0-7_枠細線
  6
CONTINUOUS
 62
    5
 10
1270.7300000000005
 20
393.73000000000059
 11
1360.7300000000007
 21
393.73000000000059
  0
LINE
  8
_0-7_枠細線
  6
CONTINUOUS
 62
    5
 10
1270.7300000000005
 20
443.73000000000059
 11
1360.7300000000007
 21
443.73000000000059
  0
LINE
  8
_0-7_枠細線
  6
CONTINUOUS
 62
    5
 10
1270.7300000000005
 20
473.73000000000059
 11
1360.7300000000007
 21
473.73000000000059
  0
LINE
  8
_0-1_計細線
  6
CONTINUOUS
 62
    3
 10
625.5179582409736
 20
731.60583080108256
 11
271.5179582409732
 21
731.60583080108256
  0
LINE
  8
_0-1_計細線
  6
CONTINUOUS
 62
    3
 10
271.5179582409732
 20
377.60583080108086
 11
625.5179582409736
 21
377.60583080108086
  0
LINE
  8
_0-1_計細線
  6
CONTINUOUS
 62
    3
 10
625.5179582409736
 20
377.60583080108086
 11
625.5179582409736
 21
731.60583080108256
  0
LINE
  8
_0-1_計細線
  6
CONTINUOUS
 62
    3
 10
271.5179582409732
 20
731.60583080108256
 11
271.5179582409732
 21
377.60583080108086
  0
LINE
  8
_0-1_計細線
  6
CONTINUOUS
 62
    3
 10
268.51795824097314
 20
374.60583080108086
 11
268.51795824097314
 21
734.60583080108245
  0
LINE
  8
_0-1_計細線
  6
CONTINUOUS
 62
    3
 10
268.51795824097314
 20
734.60583080108245
 11
628.51795824097371
 21
734.60583080108245
  0
LINE
  8
_0-1_計細線
  6
CONTINUOUS
 62
    3
 10
628.51795824097371
 20
734.60583080108245
 11
628.51795824097371
 21
374.60583080108086
  0
LINE
  8
_0-1_計細線
  6
CONTINUOUS
 62
    3
 10
628.51795824097371
 20
374.60583080108086
 11
268.51795824097314
 21
374.60583080108086
  0
LINE
  8
_0-0_計極細
  6
CONTINUOUS
 62
    2
 10
371.01795824097314
 20
548.90583080107717
 11
371.01795824097314
 21
543.30583080107726
  0
LINE
  8
_0-0_計極細
  6
CONTINUOUS
 62
    2
 10
384.0179582409732
 20
548.90583080107717
 11
384.0179582409732
 21
543.30583080107726
  0
LINE
  8
_0-0_計極細
  6
CONTINUOUS
 62
    2
 10
371.01795824097314
 20
582.90583080107854
 11
371.01795824097314
 21
577.30583080107863
  0
LINE
  8
_0-0_計極細
  6
CONTINUOUS
 62
    2
 10
384.0179582409732
 20
582.90583080107854
 11
384.0179582409732
 21
577.30583080107863
  0
LINE
  8
_0-0_計極細
  6
CONTINUOUS
 62
    2
 10
371.01795824097314
 20
599.90583080107945
 11
371.01795824097314
 21
594.30583080107908
  0
LINE
  8
_0-0_計極細
  6
CONTINUOUS
 62
    2
 10
384.0179582409732
 20
599.90583080107945
 11
384.0179582409732
 21
594.30583080107908
  0
LINE
  8
_0-0_計極細
  6
CONTINUOUS
 62
    2
 10
371.01795824097314
 20
616.9058308010799
 11
371.01795824097314
 21
611.30583080107999
  0
LINE
  8
_0-0_計極細
  6
CONTINUOUS
 62
    2
 10
384.0179582409732
 20
616.9058308010799
 11
384.0179582409732
 21
611.30583080107999
  0
LINE
  8
_0-0_計極細
  6
CONTINUOUS
 62
    2
 10
371.01795824097314
 20
633.90583080107899
 11
371.01795824097314
 21
628.30583080107908
  0
LINE
  8
_0-0_計極細
  6
CONTINUOUS
 62
    2
 10
384.0179582409732
 20
633.90583080107899
 11
384.0179582409732
 21
628.30583080107908
  0
LINE
  8
_0-0_計極細
  6
CONTINUOUS
 62
    2
 10
371.01795824097314
 20
650.90583080107808
 11
371.01795824097314
 21
645.30583080107817
  0
LINE
  8
_0-0_計極細
  6
CONTINUOUS
 62
    2
 10
384.0179582409732
 20
650.90583080107808
 11
384.0179582409732
 21
645.30583080107817
  0
LINE
  8
_0-0_計極細
  6
CONTINUOUS
 62
    2
 10
371.01795824097314
 20
667.90583080107717
 11
371.01795824097314
 21
662.30583080107738
  0
LINE
  8
_0-0_計極細
  6
CONTINUOUS
 62
    2
 10
384.0179582409732
 20
667.90583080107717
 11
384.0179582409732
 21
662.30583080107738
  0
LINE
  8
_0-0_計極細
  6
CONTINUOUS
 62
    2
 10
371.01795824097314
 20
684.90583080107626
 11
371.01795824097314
 21
679.30583080107635
  0
LINE
  8
_0-0_計極細
  6
CONTINUOUS
 62
    2
 10
384.0179582409732
 20
684.90583080107626
 11
384.0179582409732
 21
679.30583080107635
  0
LINE
  8
_0-0_計極細
  6
CONTINUOUS
 62
    2
 10
371.01795824097314
 20
701.60583080107926
 11
371.01795824097314
 21
696.30583080107954
  0
LINE
  8
_0-0_計極細
  6
CONTINUOUS
 62
    2
 10
384.0179582409732
 20
701.60583080107926
 11
384.0179582409732
 21
696.30583080107954
  0
LINE
  8
_0-0_計極細
  6
CONTINUOUS
 62
    2
 10
371.01795824097314
 20
718.20583080107826
 11
371.01795824097314
 21
713.00583080107845
  0
LINE
  8
_0-0_計極細
  6
CONTINUOUS
 62
    2
 10
384.0179582409732
 20
718.20583080107826
 11
384.0179582409732
 21
713.00583080107845
  0
LINE
  8
_0-0_計極細
  6
CONTINUOUS
 62
    2
 10
371.01795824097314
 20
526.30583080107635
 11
371.01795824097314
 21
531.90583080107626
  0
LINE
  8
_0-0_計極細
  6
CONTINUOUS
 62
    2
 10
384.0179582409732
 20
526.30583080107635
 11
384.0179582409732
 21
531.90583080107626
  0
LINE
  8
_0-0_計極細
  6
CONTINUOUS
 62
    2
 10
371.01795824097314
 20
509.30583080107544
 11
371.01795824097314
 21
514.90583080107581
  0
LINE
  8
_0-0_計極細
  6
CONTINUOUS
 62
    2
 10
384.0179582409732
 20
509.30583080107544
 11
384.0179582409732
 21
514.90583080107581
  0
LINE
  8
_0-0_計極細
  6
CONTINUOUS
 62
    2
 10
371.01795824097314
 20
492.30583080107499
 11
371.01795824097314
 21
497.90583080107496
  0
LINE
  8
_0-0_計極細
  6
CONTINUOUS
 62
    2
 10
384.0179582409732
 20
492.30583080107499
 11
384.0179582409732
 21
497.90583080107496
  0
LINE
  8
_0-0_計極細
  6
CONTINUOUS
 62
    2
 10
371.01795824097314
 20
475.3058308010759
 11
371.01795824097314
 21
480.90583080107587
  0
LINE
  8
_0-0_計極細
  6
CONTINUOUS
 62
    2
 10
384.0179582409732
 20
475.3058308010759
 11
384.0179582409732
 21
480.90583080107587
  0
LINE
  8
_0-0_計極細
  6
CONTINUOUS
 62
    2
 10
371.01795824097314
 20
458.30583080107687
 11
371.01795824097314
 21
463.90583080107672
  0
LINE
  8
_0-0_計極細
  6
CONTINUOUS
 62
    2
 10
384.0179582409732
 20
458.30583080107687
 11
384.0179582409732
 21
463.90583080107672
  0
LINE
  8
_0-0_計極細
  6
CONTINUOUS
 62
    2
 10
371.01795824097314
 20
441.30583080107778
 11
371.01795824097314
 21
446.90583080107763
  0
LINE
  8
_0-0_計極細
  6
CONTINUOUS
 62
    2
 10
384.0179582409732
 20
441.30583080107778
 11
384.0179582409732
 21
446.90583080107763
  0
LINE
  8
_0-0_計極細
  6
CONTINUOUS
 62
    2
 10
371.01795824097314
 20
424.30583080107863
 11
371.01795824097314
 21
429.90583080107854
  0
LINE
  8
_0-0_計極細
  6
CONTINUOUS
 62
    2
 10
384.0179582409732
 20
424.30583080107863
 11
384.0179582409732
 21
429.90583080107854
  0
LINE
  8
_0-0_計極細
  6
CONTINUOUS
 62
    2
 10
371.01795824097314
 20
407.60583080107563
 11
371.01795824097314
 21
412.90583080107535
  0
LINE
  8
_0-0_計極細
  6
CONTINUOUS
 62
    2
 10
384.0179582409732
 20
407.60583080107563
 11
384.0179582409732
 21
412.90583080107535
  0
LINE
  8
_0-0_計極細
  6
CONTINUOUS
 62
    2
 10
371.01795824097314
 20
391.00583080107668
 11
371.01795824097314
 21
396.2058308010765
  0
LINE
  8
_0-0_計極細
  6
CONTINUOUS
 62
    2
 10
384.0179582409732
 20
391.00583080107668
 11
384.0179582409732
 21
396.2058308010765
  0
LINE
  8
_0-0_計極細
  6
CENTER1
 62
    2
 10
377.51795824097314
 20
738.3565502255442
 11
377.51795824097314
 21
372.04800706006517
  0
LINE
  8
_0-0_計極細
  6
CONTINUOUS
 62
    2
 10
371.01795824097314
 20
565.90583080107808
 11
371.01795824097314
 21
565.45583080107781
  0
LINE
  8
_0-0_計極細
  6
CONTINUOUS
 62
    2
 10
371.01795824097314
 20
560.75583080107799
 11
371.01795824097314
 21
560.30583080107772
  0
LINE
  8
_0-0_計極細
  6
CONTINUOUS
 62
    2
 10
384.0179582409732
 20
565.90583080107808
 11
384.0179582409732
 21
565.45583080107781
  0
LINE
  8
_0-0_計極細
  6
CONTINUOUS
 62
    2
 10
384.0179582409732
 20
560.75583080107799
 11
384.0179582409732
 21
560.30583080107772
  0
LINE
  8
_0-0_計極細
  6
CONTINUOUS
 62
    2
 10
468.0179582409732
 20
548.90583080107717
 11
468.0179582409732
 21
543.30583080107726
  0
LINE
  8
_0-0_計極細
  6
CONTINUOUS
 62
    2
 10
481.01795824097314
 20
548.90583080107717
 11
481.01795824097314
 21
543.30583080107726
  0
LINE
  8
_0-0_計極細
  6
CONTINUOUS
 62
    2
 10
468.0179582409732
 20
565.90583080107808
 11
468.0179582409732
 21
560.30583080107772
  0
LINE
  8
_0-0_計極細
  6
CONTINUOUS
 62
    2
 10
481.01795824097314
 20
565.90583080107808
 11
481.01795824097314
 21
560.30583080107772
  0
LINE
  8
_0-0_計極細
  6
CONTINUOUS
 62
    2
 10
468.0179582409732
 20
582.90583080107854
 11
468.0179582409732
 21
577.30583080107863
  0
LINE
  8
_0-0_計極細
  6
CONTINUOUS
 62
    2
 10
481.01795824097314
 20
582.90583080107854
 11
481.01795824097314
 21
577.30583080107863
  0
LINE
  8
_0-0_計極細
  6
CONTINUOUS
 62
    2
 10
468.0179582409732
 20
599.90583080107945
 11
468.0179582409732
 21
594.30583080107908
  0
LINE
  8
_0-0_計極細
  6
CONTINUOUS
 62
    2
 10
481.01795824097314
 20
599.90583080107945
 11
481.01795824097314
 21
594.30583080107908
  0
LINE
  8
_0-0_計極細
  6
CONTINUOUS
 62
    2
 10
468.0179582409732
 20
616.9058308010799
 11
468.0179582409732
 21
611.30583080107999
  0
LINE
  8
_0-0_計極細
  6
CONTINUOUS
 62
    2
 10
481.01795824097314
 20
616.9058308010799
 11
481.01795824097314
 21
611.30583080107999
  0
LINE
  8
_0-0_計極細
  6
CONTINUOUS
 62
    2
 10
468.0179582409732
 20
633.90583080107899
 11
468.0179582409732
 21
628.30583080107908
  0
LINE
  8
_0-0_計極細
  6
CONTINUOUS
 62
    2
 10
481.01795824097314
 20
633.90583080107899
 11
481.01795824097314
 21
628.30583080107908
  0
LINE
  8
_0-0_計極細
  6
CONTINUOUS
 62
    2
 10
468.0179582409732
 20
650.90583080107808
 11
468.0179582409732
 21
645.30583080107817
  0
LINE
  8
_0-0_計極細
  6
CONTINUOUS
 62
    2
 10
481.01795824097314
 20
650.90583080107808
 11
481.01795824097314
 21
645.30583080107817
  0
LINE
  8
_0-0_計極細
  6
CONTINUOUS
 62
    2
 10
468.0179582409732
 20
667.90583080107717
 11
468.0179582409732
 21
662.30583080107738
  0
LINE
  8
_0-0_計極細
  6
CONTINUOUS
 62
    2
 10
481.01795824097314
 20
667.90583080107717
 11
481.01795824097314
 21
662.30583080107738
  0
LINE
  8
_0-0_計極細
  6
CONTINUOUS
 62
    2
 10
468.0179582409732
 20
684.90583080107626
 11
468.0179582409732
 21
679.30583080107635
  0
LINE
  8
_0-0_計極細
  6
CONTINUOUS
 62
    2
 10
481.01795824097314
 20
684.90583080107626
 11
481.01795824097314
 21
679.30583080107635
  0
LINE
  8
_0-0_計極細
  6
CONTINUOUS
 62
    2
 10
468.0179582409732
 20
701.60583080107926
 11
468.0179582409732
 21
696.30583080107954
  0
LINE
  8
_0-0_計極細
  6
CONTINUOUS
 62
    2
 10
481.01795824097314
 20
701.60583080107926
 11
481.01795824097314
 21
696.30583080107954
  0
LINE
  8
_0-0_計極細
  6
CONTINUOUS
 62
    2
 10
468.0179582409732
 20
718.20583080107826
 11
468.0179582409732
 21
713.00583080107845
  0
LINE
  8
_0-0_計極細
  6
CONTINUOUS
 62
    2
 10
481.01795824097314
 20
718.20583080107826
 11
481.01795824097314
 21
713.00583080107845
  0
LINE
  8
_0-0_計極細
  6
CONTINUOUS
 62
    2
 10
468.0179582409732
 20
526.30583080107635
 11
468.0179582409732
 21
531.90583080107626
  0
LINE
  8
_0-0_計極細
  6
CONTINUOUS
 62
    2
 10
481.01795824097314
 20
526.30583080107635
 11
481.01795824097314
 21
531.90583080107626
  0
LINE
  8
_0-0_計極細
  6
CONTINUOUS
 62
    2
 10
468.0179582409732
 20
509.30583080107544
 11
468.0179582409732
 21
514.90583080107581
  0
LINE
  8
_0-0_計極細
  6
CONTINUOUS
 62
    2
 10
481.01795824097314
 20
509.30583080107544
 11
481.01795824097314
 21
514.90583080107581
  0
LINE
  8
_0-0_計極細
  6
CONTINUOUS
 62
    2
 10
468.0179582409732
 20
492.30583080107499
 11
468.0179582409732
 21
497.90583080107496
  0
LINE
  8
_0-0_計極細
  6
CONTINUOUS
 62
    2
 10
481.01795824097314
 20
492.30583080107499
 11
481.01795824097314
 21
497.90583080107496
  0
LINE
  8
_0-0_計極細
  6
CONTINUOUS
 62
    2
 10
468.0179582409732
 20
475.3058308010759
 11
468.0179582409732
 21
480.90583080107587
  0
LINE
  8
_0-0_計極細
  6
CONTINUOUS
 62
    2
 10
481.01795824097314
 20
475.3058308010759
 11
481.01795824097314
 21
480.90583080107587
  0
LINE
  8
_0-0_計極細
  6
CONTINUOUS
 62
    2
 10
468.0179582409732
 20
458.30583080107687
 11
468.0179582409732
 21
463.90583080107672
  0
LINE
  8
_0-0_計極細
  6
CONTINUOUS
 62
    2
 10
481.01795824097314
 20
458.30583080107687
 11
481.01795824097314
 21
463.90583080107672
  0
LINE
  8
_0-0_計極細
  6
CONTINUOUS
 62
    2
 10
468.0179582409732
 20
441.30583080107778
 11
468.0179582409732
 21
446.90583080107763
  0
LINE
  8
_0-0_計極細
  6
CONTINUOUS
 62
    2
 10
481.01795824097314
 20
441.30583080107778
 11
481.01795824097314
 21
446.90583080107763
  0
LINE
  8
_0-0_計極細
  6
CONTINUOUS
 62
    2
 10
468.0179582409732
 20
424.30583080107863
 11
468.0179582409732
 21
429.90583080107854
  0
LINE
  8
_0-0_計極細
  6
CONTINUOUS
 62
    2
 10
481.01795824097314
 20
424.30583080107863
 11
481.01795824097314
 21
429.90583080107854
  0
LINE
  8
_0-0_計極細
  6
CONTINUOUS
 62
    2
 10
468.0179582409732
 20
407.60583080107563
 11
468.0179582409732
 21
412.90583080107535
  0
LINE
  8
_0-0_計極細
  6
CONTINUOUS
 62
    2
 10
481.01795824097314
 20
407.60583080107563
 11
481.01795824097314
 21
412.90583080107535
  0
LINE
  8
_0-0_計極細
  6
CONTINUOUS
 62
    2
 10
468.0179582409732
 20
391.00583080107668
 11
468.0179582409732
 21
396.2058308010765
  0
LINE
  8
_0-0_計極細
  6
CONTINUOUS
 62
    2
 10
481.01795824097314
 20
391.00583080107668
 11
481.01795824097314
 21
396.2058308010765
  0
LINE
  8
_0-0_計極細
  6
CENTER1
 62
    2
 10
474.51795824097314
 20
738.3565502255442
 11
474.51795824097314
 21
372.04800706006517
  0
LINE
  8
_0-0_計極細
  6
CONTINUOUS
 62
    2
 10
513.01795824097314
 20
548.90583080107717
 11
513.01795824097314
 21
543.30583080107726
  0
LINE
  8
_0-0_計極細
  6
CONTINUOUS
 62
    2
 10
526.01795824097314
 20
548.90583080107717
 11
526.01795824097314
 21
543.30583080107726
  0
LINE
  8
_0-0_計極細
  6
CONTINUOUS
 62
    2
 10
513.01795824097314
 20
565.90583080107808
 11
513.01795824097314
 21
560.30583080107772
  0
LINE
  8
_0-0_計極細
  6
CONTINUOUS
 62
    2
 10
526.01795824097314
 20
565.90583080107808
 11
526.01795824097314
 21
560.30583080107772
  0
LINE
  8
_0-0_計極細
  6
CONTINUOUS
 62
    2
 10
513.01795824097314
 20
582.90583080107854
 11
513.01795824097314
 21
577.30583080107863
  0
LINE
  8
_0-0_計極細
  6
CONTINUOUS
 62
    2
 10
526.01795824097314
 20
582.90583080107854
 11
526.01795824097314
 21
577.30583080107863
  0
LINE
  8
_0-0_計極細
  6
CONTINUOUS
 62
    2
 10
513.01795824097314
 20
599.90583080107945
 11
513.01795824097314
 21
594.30583080107908
  0
LINE
  8
_0-0_計極細
  6
CONTINUOUS
 62
    2
 10
526.01795824097314
 20
599.90583080107945
 11
526.01795824097314
 21
594.30583080107908
  0
LINE
  8
_0-0_計極細
  6
CONTINUOUS
 62
    2
 10
513.01795824097314
 20
616.9058308010799
 11
513.01795824097314
 21
611.30583080107999
  0
LINE
  8
_0-0_計極細
  6
CONTINUOUS
 62
    2
 10
526.01795824097314
 20
616.9058308010799
 11
526.01795824097314
 21
611.30583080107999
  0
LINE
  8
_0-0_計極細
  6
CONTINUOUS
 62
    2
 10
513.01795824097314
 20
633.90583080107899
 11
513.01795824097314
 21
628.30583080107908
  0
LINE
  8
_0-0_計極細
  6
CONTINUOUS
 62
    2
 10
526.01795824097314
 20
633.90583080107899
 11
526.01795824097314
 21
628.30583080107908
  0
LINE
  8
_0-0_計極細
  6
CONTINUOUS
 62
    2
 10
513.01795824097314
 20
650.90583080107808
 11
513.01795824097314
 21
645.30583080107817
  0
LINE
  8
_0-0_計極細
  6
CONTINUOUS
 62
    2
 10
526.01795824097314
 20
650.90583080107808
 11
526.01795824097314
 21
645.30583080107817
  0
LINE
  8
_0-0_計極細
  6
CONTINUOUS
 62
    2
 10
513.01795824097314
 20
667.90583080107717
 11
513.01795824097314
 21
662.30583080107738
  0
LINE
  8
_0-0_計極細
  6
CONTINUOUS
 62
    2
 10
526.01795824097314
 20
667.90583080107717
 11
526.01795824097314
 21
662.30583080107738
  0
LINE
  8
_0-0_計極細
  6
CONTINUOUS
 62
    2
 10
513.01795824097314
 20
684.90583080107626
 11
513.01795824097314
 21
679.30583080107635
  0
LINE
  8
_0-0_計極細
  6
CONTINUOUS
 62
    2
 10
526.01795824097314
 20
684.90583080107626
 11
526.01795824097314
 21
679.30583080107635
  0
LINE
  8
_0-0_計極細
  6
CONTINUOUS
 62
    2
 10
513.01795824097314
 20
701.60583080107926
 11
513.01795824097314
 21
696.30583080107954
  0
LINE
  8
_0-0_計極細
  6
CONTINUOUS
 62
    2
 10
526.01795824097314
 20
701.60583080107926
 11
526.01795824097314
 21
696.30583080107954
  0
LINE
  8
_0-0_計極細
  6
CONTINUOUS
 62
    2
 10
513.01795824097314
 20
718.20583080107826
 11
513.01795824097314
 21
713.00583080107845
  0
LINE
  8
_0-0_計極細
  6
CONTINUOUS
 62
    2
 10
526.01795824097314
 20
718.20583080107826
 11
526.01795824097314
 21
713.00583080107845
  0
LINE
  8
_0-0_計極細
  6
CONTINUOUS
 62
    2
 10
513.01795824097314
 20
526.30583080107635
 11
513.01795824097314
 21
531.90583080107626
  0
LINE
  8
_0-0_計極細
  6
CONTINUOUS
 62
    2
 10
526.01795824097314
 20
526.30583080107635
 11
526.01795824097314
 21
531.90583080107626
  0
LINE
  8
_0-0_計極細
  6
CONTINUOUS
 62
    2
 10
513.01795824097314
 20
509.30583080107544
 11
513.01795824097314
 21
514.90583080107581
  0
LINE
  8
_0-0_計極細
  6
CONTINUOUS
 62
    2
 10
526.01795824097314
 20
509.30583080107544
 11
526.01795824097314
 21
514.90583080107581
  0
LINE
  8
_0-0_計極細
  6
CONTINUOUS
 62
    2
 10
513.01795824097314
 20
492.30583080107499
 11
513.01795824097314
 21
497.90583080107496
  0
LINE
  8
_0-0_計極細
  6
CONTINUOUS
 62
    2
 10
526.01795824097314
 20
492.30583080107499
 11
526.01795824097314
 21
497.90583080107496
  0
LINE
  8
_0-0_計極細
  6
CONTINUOUS
 62
    2
 10
513.01795824097314
 20
475.3058308010759
 11
513.01795824097314
 21
480.90583080107587
  0
LINE
  8
_0-0_計極細
  6
CONTINUOUS
 62
    2
 10
526.01795824097314
 20
475.3058308010759
 11
526.01795824097314
 21
480.90583080107587
  0
LINE
  8
_0-0_計極細
  6
CONTINUOUS
 62
    2
 10
513.01795824097314
 20
458.30583080107687
 11
513.01795824097314
 21
463.90583080107672
  0
LINE
  8
_0-0_計極細
  6
CONTINUOUS
 62
    2
 10
526.01795824097314
 20
458.30583080107687
 11
526.01795824097314
 21
463.90583080107672
  0
LINE
  8
_0-0_計極細
  6
CONTINUOUS
 62
    2
 10
513.01795824097314
 20
441.30583080107778
 11
513.01795824097314
 21
446.90583080107763
  0
LINE
  8
_0-0_計極細
  6
CONTINUOUS
 62
    2
 10
526.01795824097314
 20
441.30583080107778
 11
526.01795824097314
 21
446.90583080107763
  0
LINE
  8
_0-0_計極細
  6
CONTINUOUS
 62
    2
 10
513.01795824097314
 20
424.30583080107863
 11
513.01795824097314
 21
429.90583080107854
  0
LINE
  8
_0-0_計極細
  6
CONTINUOUS
 62
    2
 10
526.01795824097314
 20
424.30583080107863
 11
526.01795824097314
 21
429.90583080107854
  0
LINE
  8
_0-0_計極細
  6
CONTINUOUS
 62
    2
 10
513.01795824097314
 20
407.60583080107563
 11
513.01795824097314
 21
412.90583080107535
  0
LINE
  8
_0-0_計極細
  6
CONTINUOUS
 62
    2
 10
526.01795824097314
 20
407.60583080107563
 11
526.01795824097314
 21
412.90583080107535
  0
LINE
  8
_0-0_計極細
  6
CONTINUOUS
 62
    2
 10
513.01795824097314
 20
391.00583080107668
 11
513.01795824097314
 21
396.2058308010765
  0
LINE
  8
_0-0_計極細
  6
CONTINUOUS
 62
    2
 10
526.01795824097314
 20
391.00583080107668
 11
526.01795824097314
 21
396.2058308010765
  0
LINE
  8
_0-0_計極細
  6
CENTER1
 62
    2
 10
519.51795824097314
 20
738.3565502255442
 11
519.51795824097314
 21
372.04800706006517
  0
LINE
  8
_0-1_計細線
  6
CONTINUOUS
 62
    3
 10
273.51795824097314
 20
531.90583080108127
 11
623.51795824097314
 21
531.90583080108127
  0
LINE
  8
_0-1_計細線
  6
CONTINUOUS
 62
    3
 10
273.51795824097314
 20
543.30583080108181
 11
623.51795824097314
 21
543.30583080108181
  0
LINE
  8
_0-1_計細線
  6
CONTINUOUS
 62
    3
 10
273.51795824097314
 20
531.90583080108127
 11
273.51795824097314
 21
543.30583080108181
  0
LINE
  8
_0-1_計細線
  6
CONTINUOUS
 62
    3
 10
623.51795824097314
 20
531.90583080108127
 11
623.51795824097314
 21
543.30583080108181
  0
LINE
  8
_0-0_計極細
  6
CONTINUOUS
 62
    2
 10
273.51795824097314
 20
540.10583080108154
 11
623.51795824097314
 21
540.10583080108154
  0
LINE
  8
_0-0_計極細
  6
CONTINUOUS
 62
    2
 10
273.51795824097314
 20
535.10583080108154
 11
623.51795824097314
 21
535.10583080108154
  0
LINE
  8
_0-1_計細線
  6
CONTINUOUS
 62
    3
 10
273.51795824097314
 20
628.30583080107908
 11
623.51795824097314
 21
628.30583080107908
  0
LINE
  8
_0-1_計細線
  6
CONTINUOUS
 62
    3
 10
273.51795824097314
 20
616.90583080107854
 11
623.51795824097314
 21
616.90583080107854
  0
LINE
  8
_0-1_計細線
  6
CONTINUOUS
 62
    3
 10
273.51795824097314
 20
628.30583080107908
 11
273.51795824097314
 21
616.90583080107854
  0
LINE
  8
_0-1_計細線
  6
CONTINUOUS
 62
    3
 10
623.51795824097314
 20
628.30583080107908
 11
623.51795824097314
 21
616.90583080107854
  0
LINE
  8
_0-0_計極細
  6
CONTINUOUS
 62
    2
 10
273.51795824097314
 20
620.10583080107881
 11
623.51795824097314
 21
620.10583080107881
  0
LINE
  8
_0-0_計極細
  6
CONTINUOUS
 62
    2
 10
273.51795824097314
 20
625.10583080107881
 11
623.51795824097314
 21
625.10583080107881
  0
LINE
  8
_0-1_計細線
  6
CONTINUOUS
 62
    3
 10
273.51795824097314
 20
594.30583080107908
 11
623.51795824097314
 21
594.30583080107908
  0
LINE
  8
_0-1_計細線
  6
CONTINUOUS
 62
    3
 10
273.51795824097314
 20
582.90583080107854
 11
623.51795824097314
 21
582.90583080107854
  0
LINE
  8
_0-1_計細線
  6
CONTINUOUS
 62
    3
 10
273.51795824097314
 20
594.30583080107908
 11
273.51795824097314
 21
582.90583080107854
  0
LINE
  8
_0-1_計細線
  6
CONTINUOUS
 62
    3
 10
623.51795824097314
 20
594.30583080107908
 11
623.51795824097314
 21
582.90583080107854
  0
LINE
  8
_0-0_計極細
  6
CONTINUOUS
 62
    2
 10
273.51795824097314
 20
586.10583080107881
 11
623.51795824097314
 21
586.10583080107881
  0
LINE
  8
_0-0_計極細
  6
CONTINUOUS
 62
    2
 10
273.51795824097314
 20
591.10583080107881
 11
623.51795824097314
 21
591.10583080107881
  0
LINE
  8
_0-1_計細線
  6
CONTINUOUS
 62
    3
 10
273.51795824097314
 20
611.30583080107999
 11
623.51795824097314
 21
611.30583080107999
  0
LINE
  8
_0-1_計細線
  6
CONTINUOUS
 62
    3
 10
273.51795824097314
 20
599.90583080107945
 11
623.51795824097314
 21
599.90583080107945
  0
LINE
  8
_0-1_計細線
  6
CONTINUOUS
 62
    3
 10
273.51795824097314
 20
611.30583080107999
 11
273.51795824097314
 21
599.90583080107945
  0
LINE
  8
_0-1_計細線
  6
CONTINUOUS
 62
    3
 10
623.51795824097314
 20
611.30583080107999
 11
623.51795824097314
 21
599.90583080107945
  0
LINE
  8
_0-0_計極細
  6
CONTINUOUS
 62
    2
 10
273.51795824097314
 20
603.10583080107972
 11
623.51795824097314
 21
603.10583080107972
  0
LINE
  8
_0-0_計極細
  6
CONTINUOUS
 62
    2
 10
273.51795824097314
 20
608.10583080107972
 11
623.51795824097314
 21
608.10583080107972
  0
LINE
  8
_0-1_計細線
  6
CONTINUOUS
 62
    3
 10
273.51795824097314
 20
696.30583080107954
 11
623.51795824097314
 21
696.30583080107954
  0
LINE
  8
_0-1_計細線
  6
CONTINUOUS
 62
    3
 10
273.51795824097314
 20
684.90583080107899
 11
623.51795824097314
 21
684.90583080107899
  0
LINE
  8
_0-1_計細線
  6
CONTINUOUS
 62
    3
 10
273.51795824097314
 20
696.30583080107954
 11
273.51795824097314
 21
684.90583080107899
  0
LINE
  8
_0-1_計細線
  6
CONTINUOUS
 62
    3
 10
623.51795824097314
 20
696.30583080107954
 11
623.51795824097314
 21
684.90583080107899
  0
LINE
  8
_0-0_計極細
  6
CONTINUOUS
 62
    2
 10
273.51795824097314
 20
688.10583080107972
 11
623.51795824097314
 21
688.10583080107972
  0
LINE
  8
_0-0_計極細
  6
CONTINUOUS
 62
    2
 10
273.51795824097314
 20
693.10583080107972
 11
623.51795824097314
 21
693.10583080107972
  0
LINE
  8
_0-1_計細線
  6
CONTINUOUS
 62
    3
 10
273.51795824097314
 20
645.30583080107817
 11
623.51795824097314
 21
645.30583080107817
  0
LINE
  8
_0-1_計細線
  6
CONTINUOUS
 62
    3
 10
273.51795824097314
 20
633.90583080107763
 11
623.51795824097314
 21
633.90583080107763
  0
LINE
  8
_0-1_計細線
  6
CONTINUOUS
 62
    3
 10
273.51795824097314
 20
645.30583080107817
 11
273.51795824097314
 21
633.90583080107763
  0
LINE
  8
_0-1_計細線
  6
CONTINUOUS
 62
    3
 10
623.51795824097314
 20
645.30583080107817
 11
623.51795824097314
 21
633.90583080107763
  0
LINE
  8
_0-0_計極細
  6
CONTINUOUS
 62
    2
 10
273.51795824097314
 20
637.1058308010779
 11
623.51795824097314
 21
637.1058308010779
  0
LINE
  8
_0-0_計極細
  6
CONTINUOUS
 62
    2
 10
273.51795824097314
 20
642.1058308010779
 11
623.51795824097314
 21
642.1058308010779
  0
LINE
  8
_0-1_計細線
  6
CONTINUOUS
 62
    3
 10
273.51795824097314
 20
662.30583080107738
 11
623.51795824097314
 21
662.30583080107738
  0
LINE
  8
_0-1_計細線
  6
CONTINUOUS
 62
    3
 10
273.51795824097314
 20
650.90583080107672
 11
623.51795824097314
 21
650.90583080107672
  0
LINE
  8
_0-1_計細線
  6
CONTINUOUS
 62
    3
 10
273.51795824097314
 20
662.30583080107738
 11
273.51795824097314
 21
650.90583080107672
  0
LINE
  8
_0-1_計細線
  6
CONTINUOUS
 62
    3
 10
623.51795824097314
 20
662.30583080107738
 11
623.51795824097314
 21
650.90583080107672
  0
LINE
  8
_0-0_計極細
  6
CONTINUOUS
 62
    2
 10
273.51795824097314
 20
654.10583080107699
 11
623.51795824097314
 21
654.10583080107699
  0
LINE
  8
_0-0_計極細
  6
CONTINUOUS
 62
    2
 10
273.51795824097314
 20
659.10583080107699
 11
623.51795824097314
 21
659.10583080107699
  0
LINE
  8
_0-1_計細線
  6
CONTINUOUS
 62
    3
 10
273.51795824097314
 20
679.30583080107635
 11
623.51795824097314
 21
679.30583080107635
  0
LINE
  8
_0-1_計細線
  6
CONTINUOUS
 62
    3
 10
273.51795824097314
 20
667.90583080107581
 11
623.51795824097314
 21
667.90583080107581
  0
LINE
  8
_0-1_計細線
  6
CONTINUOUS
 62
    3
 10
273.51795824097314
 20
679.30583080107635
 11
273.51795824097314
 21
667.90583080107581
  0
LINE
  8
_0-1_計細線
  6
CONTINUOUS
 62
    3
 10
623.51795824097314
 20
679.30583080107635
 11
623.51795824097314
 21
667.90583080107581
  0
LINE
  8
_0-0_計極細
  6
CONTINUOUS
 62
    2
 10
273.51795824097314
 20
671.10583080107619
 11
623.51795824097314
 21
671.10583080107619
  0
LINE
  8
_0-0_計極細
  6
CONTINUOUS
 62
    2
 10
273.51795824097314
 20
676.10583080107619
 11
623.51795824097314
 21
676.10583080107619
  0
LINE
  8
_0-0_計極細
  6
CENTER2
 62
    2
 10
257.62935870395393
 20
554.60583080107745
 11
639.56269203733143
 21
554.60583080107745
  0
LINE
  8
_0-1_計細線
  6
CONTINUOUS
 62
    3
 10
273.51795824097314
 20
713.00583080107845
 11
623.51795824097314
 21
713.00583080107845
  0
LINE
  8
_0-1_計細線
  6
CONTINUOUS
 62
    3
 10
273.51795824097314
 20
701.60583080107801
 11
623.51795824097314
 21
701.60583080107801
  0
LINE
  8
_0-1_計細線
  6
CONTINUOUS
 62
    3
 10
273.51795824097314
 20
713.00583080107845
 11
273.51795824097314
 21
701.60583080107801
  0
LINE
  8
_0-1_計細線
  6
CONTINUOUS
 62
    3
 10
623.51795824097314
 20
713.00583080107845
 11
623.51795824097314
 21
701.60583080107801
  0
LINE
  8
_0-0_計極細
  6
CONTINUOUS
 62
    2
 10
273.51795824097314
 20
704.80583080107817
 11
623.51795824097314
 21
704.80583080107817
  0
LINE
  8
_0-0_計極細
  6
CONTINUOUS
 62
    2
 10
273.51795824097314
 20
709.80583080107817
 11
623.51795824097314
 21
709.80583080107817
  0
LINE
  8
_0-1_計細線
  6
CONTINUOUS
 62
    3
 10
273.51795824097314
 20
729.60583080108245
 11
623.51795824097314
 21
729.60583080108245
  0
LINE
  8
_0-1_計細線
  6
CONTINUOUS
 62
    3
 10
273.51795824097314
 20
718.2058308010819
 11
623.51795824097314
 21
718.2058308010819
  0
LINE
  8
_0-1_計細線
  6
CONTINUOUS
 62
    3
 10
273.51795824097314
 20
729.60583080108245
 11
273.51795824097314
 21
718.2058308010819
  0
LINE
  8
_0-1_計細線
  6
CONTINUOUS
 62
    3
 10
623.51795824097314
 20
729.60583080108245
 11
623.51795824097314
 21
718.2058308010819
  0
LINE
  8
_0-0_計極細
  6
CONTINUOUS
 62
    2
 10
273.51795824097314
 20
721.40583080108217
 11
623.51795824097314
 21
721.40583080108217
  0
LINE
  8
_0-0_計極細
  6
CONTINUOUS
 62
    2
 10
273.51795824097314
 20
726.40583080108217
 11
623.51795824097314
 21
726.40583080108217
  0
LINE
  8
_0-1_計細線
  6
CONTINUOUS
 62
    3
 10
273.51795824097314
 20
480.90583080107587
 11
623.51795824097314
 21
480.90583080107587
  0
LINE
  8
_0-1_計細線
  6
CONTINUOUS
 62
    3
 10
273.51795824097314
 20
492.30583080107635
 11
623.51795824097314
 21
492.30583080107635
  0
LINE
  8
_0-1_計細線
  6
CONTINUOUS
 62
    3
 10
273.51795824097314
 20
480.90583080107587
 11
273.51795824097314
 21
492.30583080107635
  0
LINE
  8
_0-1_計細線
  6
CONTINUOUS
 62
    3
 10
623.51795824097314
 20
480.90583080107587
 11
623.51795824097314
 21
492.30583080107635
  0
LINE
  8
_0-0_計極細
  6
CONTINUOUS
 62
    2
 10
273.51795824097314
 20
489.10583080107614
 11
623.51795824097314
 21
489.10583080107614
  0
LINE
  8
_0-0_計極細
  6
CONTINUOUS
 62
    2
 10
273.51795824097314
 20
484.10583080107614
 11
623.51795824097314
 21
484.10583080107614
  0
LINE
  8
_0-1_計細線
  6
CONTINUOUS
 62
    3
 10
273.51795824097314
 20
514.90583080107581
 11
623.51795824097314
 21
514.90583080107581
  0
LINE
  8
_0-1_計細線
  6
CONTINUOUS
 62
    3
 10
273.51795824097314
 20
526.30583080107635
 11
623.51795824097314
 21
526.30583080107635
  0
LINE
  8
_0-1_計細線
  6
CONTINUOUS
 62
    3
 10
273.51795824097314
 20
514.90583080107581
 11
273.51795824097314
 21
526.30583080107635
  0
LINE
  8
_0-1_計細線
  6
CONTINUOUS
 62
    3
 10
623.51795824097314
 20
514.90583080107581
 11
623.51795824097314
 21
526.30583080107635
  0
LINE
  8
_0-0_計極細
  6
CONTINUOUS
 62
    2
 10
273.51795824097314
 20
523.10583080107608
 11
623.51795824097314
 21
523.10583080107608
  0
LINE
  8
_0-0_計極細
  6
CONTINUOUS
 62
    2
 10
273.51795824097314
 20
518.10583080107608
 11
623.51795824097314
 21
518.10583080107608
  0
LINE
  8
_0-1_計細線
  6
CONTINUOUS
 62
    3
 10
273.51795824097314
 20
497.90583080107496
 11
623.51795824097314
 21
497.90583080107496
  0
LINE
  8
_0-1_計細線
  6
CONTINUOUS
 62
    3
 10
273.51795824097314
 20
509.30583080107544
 11
623.51795824097314
 21
509.30583080107544
  0
LINE
  8
_0-1_計細線
  6
CONTINUOUS
 62
    3
 10
273.51795824097314
 20
497.90583080107496
 11
273.51795824097314
 21
509.30583080107544
  0
LINE
  8
_0-1_計細線
  6
CONTINUOUS
 62
    3
 10
623.51795824097314
 20
497.90583080107496
 11
623.51795824097314
 21
509.30583080107544
  0
LINE
  8
_0-0_計極細
  6
CONTINUOUS
 62
    2
 10
273.51795824097314
 20
506.10583080107517
 11
623.51795824097314
 21
506.10583080107517
  0
LINE
  8
_0-0_計極細
  6
CONTINUOUS
 62
    2
 10
273.51795824097314
 20
501.10583080107517
 11
623.51795824097314
 21
501.10583080107517
  0
LINE
  8
_0-1_計細線
  6
CONTINUOUS
 62
    3
 10
273.51795824097314
 20
412.90583080107535
 11
623.51795824097314
 21
412.90583080107535
  0
LINE
  8
_0-1_計細線
  6
CONTINUOUS
 62
    3
 10
273.51795824097314
 20
424.30583080107596
 11
623.51795824097314
 21
424.30583080107596
  0
LINE
  8
_0-1_計細線
  6
CONTINUOUS
 62
    3
 10
273.51795824097314
 20
412.90583080107535
 11
273.51795824097314
 21
424.30583080107596
  0
LINE
  8
_0-1_計細線
  6
CONTINUOUS
 62
    3
 10
623.51795824097314
 20
412.90583080107535
 11
623.51795824097314
 21
424.30583080107596
  0
LINE
  8
_0-0_計極細
  6
CONTINUOUS
 62
    2
 10
273.51795824097314
 20
421.10583080107517
 11
623.51795824097314
 21
421.10583080107517
  0
LINE
  8
_0-0_計極細
  6
CONTINUOUS
 62
    2
 10
273.51795824097314
 20
416.10583080107517
 11
623.51795824097314
 21
416.10583080107517
  0
LINE
  8
_0-1_計細線
  6
CONTINUOUS
 62
    3
 10
273.51795824097314
 20
463.90583080107672
 11
623.51795824097314
 21
463.90583080107672
  0
LINE
  8
_0-1_計細線
  6
CONTINUOUS
 62
    3
 10
273.51795824097314
 20
475.30583080107732
 11
623.51795824097314
 21
475.30583080107732
  0
LINE
  8
_0-1_計細線
  6
CONTINUOUS
 62
    3
 10
273.51795824097314
 20
463.90583080107672
 11
273.51795824097314
 21
475.30583080107732
  0
LINE
  8
_0-1_計細線
  6
CONTINUOUS
 62
    3
 10
623.51795824097314
 20
463.90583080107672
 11
623.51795824097314
 21
475.30583080107732
  0
LINE
  8
_0-0_計極細
  6
CONTINUOUS
 62
    2
 10
273.51795824097314
 20
472.10583080107705
 11
623.51795824097314
 21
472.10583080107705
  0
LINE
  8
_0-0_計極細
  6
CONTINUOUS
 62
    2
 10
273.51795824097314
 20
467.10583080107705
 11
623.51795824097314
 21
467.10583080107705
  0
LINE
  8
_0-1_計細線
  6
CONTINUOUS
 62
    3
 10
273.51795824097314
 20
446.90583080107763
 11
623.51795824097314
 21
446.90583080107763
  0
LINE
  8
_0-1_計細線
  6
CONTINUOUS
 62
    3
 10
273.51795824097314
 20
458.30583080107823
 11
623.51795824097314
 21
458.30583080107823
  0
LINE
  8
_0-1_計細線
  6
CONTINUOUS
 62
    3
 10
273.51795824097314
 20
446.90583080107763
 11
273.51795824097314
 21
458.30583080107823
  0
LINE
  8
_0-1_計細線
  6
CONTINUOUS
 62
    3
 10
623.51795824097314
 20
446.90583080107763
 11
623.51795824097314
 21
458.30583080107823
  0
LINE
  8
_0-0_計極細
  6
CONTINUOUS
 62
    2
 10
273.51795824097314
 20
455.1058308010779
 11
623.51795824097314
 21
455.1058308010779
  0
LINE
  8
_0-0_計極細
  6
CONTINUOUS
 62
    2
 10
273.51795824097314
 20
450.1058308010779
 11
623.51795824097314
 21
450.1058308010779
  0
LINE
  8
_0-1_計細線
  6
CONTINUOUS
 62
    3
 10
273.51795824097314
 20
429.90583080107854
 11
623.51795824097314
 21
429.90583080107854
  0
LINE
  8
_0-1_計細線
  6
CONTINUOUS
 62
    3
 10
273.51795824097314
 20
441.30583080107908
 11
623.51795824097314
 21
441.30583080107908
  0
LINE
  8
_0-1_計細線
  6
CONTINUOUS
 62
    3
 10
273.51795824097314
 20
429.90583080107854
 11
273.51795824097314
 21
441.30583080107908
  0
LINE
  8
_0-1_計細線
  6
CONTINUOUS
 62
    3
 10
623.51795824097314
 20
429.90583080107854
 11
623.51795824097314
 21
441.30583080107908
  0
LINE
  8
_0-0_計極細
  6
CONTINUOUS
 62
    2
 10
273.51795824097314
 20
438.10583080107881
 11
623.51795824097314
 21
438.10583080107881
  0
LINE
  8
_0-0_計極細
  6
CONTINUOUS
 62
    2
 10
273.51795824097314
 20
433.10583080107881
 11
623.51795824097314
 21
433.10583080107881
  0
LINE
  8
_0-1_計細線
  6
CONTINUOUS
 62
    3
 10
273.51795824097314
 20
396.2058308010765
 11
623.51795824097314
 21
396.2058308010765
  0
LINE
  8
_0-1_計細線
  6
CONTINUOUS
 62
    3
 10
273.51795824097314
 20
407.60583080107699
 11
623.51795824097314
 21
407.60583080107699
  0
LINE
  8
_0-1_計細線
  6
CONTINUOUS
 62
    3
 10
273.51795824097314
 20
396.2058308010765
 11
273.51795824097314
 21
407.60583080107699
  0
LINE
  8
_0-1_計細線
  6
CONTINUOUS
 62
    3
 10
623.51795824097314
 20
396.2058308010765
 11
623.51795824097314
 21
407.60583080107699
  0
LINE
  8
_0-0_計極細
  6
CONTINUOUS
 62
    2
 10
273.51795824097314
 20
404.40583080107672
 11
623.51795824097314
 21
404.40583080107672
  0
LINE
  8
_0-0_計極細
  6
CONTINUOUS
 62
    2
 10
273.51795824097314
 20
399.40583080107672
 11
623.51795824097314
 21
399.40583080107672
  0
LINE
  8
_0-1_計細線
  6
CONTINUOUS
 62
    3
 10
273.51795824097314
 20
379.6058308010725
 11
623.51795824097314
 21
379.6058308010725
  0
LINE
  8
_0-1_計細線
  6
CONTINUOUS
 62
    3
 10
273.51795824097314
 20
391.00583080107299
 11
623.51795824097314
 21
391.00583080107299
  0
LINE
  8
_0-1_計細線
  6
CONTINUOUS
 62
    3
 10
273.51795824097314
 20
379.6058308010725
 11
273.51795824097314
 21
391.00583080107299
  0
LINE
  8
_0-1_計細線
  6
CONTINUOUS
 62
    3
 10
623.51795824097314
 20
379.6058308010725
 11
623.51795824097314
 21
391.00583080107299
  0
LINE
  8
_0-0_計極細
  6
CONTINUOUS
 62
    2
 10
273.51795824097314
 20
387.80583080107277
 11
623.51795824097314
 21
387.80583080107277
  0
LINE
  8
_0-0_計極細
  6
CONTINUOUS
 62
    2
 10
273.51795824097314
 20
382.80583080107272
 11
623.51795824097314
 21
382.80583080107272
  0
LINE
  8
_0-1_計細線
  6
CONTINUOUS
 62
    3
 10
273.51795824097314
 20
548.90583080107717
 11
623.51795824097314
 21
548.90583080107717
  0
LINE
  8
_0-1_計細線
  6
CONTINUOUS
 62
    3
 10
623.51795824097314
 20
560.30583080107772
 11
623.51795824097314
 21
548.90583080107717
  0
LINE
  8
_0-0_計極細
  6
CONTINUOUS
 62
    2
 10
273.51795824097314
 20
552.10583080107745
 11
623.51795824097314
 21
552.10583080107745
  0
LINE
  8
_0-0_計極細
  6
CONTINUOUS
 62
    2
 10
273.51795824097314
 20
557.10583080107745
 11
623.51795824097314
 21
557.10583080107745
  0
LINE
  8
_0-1_計細線
  6
CONTINUOUS
 62
    3
 10
273.51795824097314
 20
560.30583080107772
 11
273.51795824097314
 21
548.90583080107717
  0
LINE
  8
_0-1_計細線
  6
CONTINUOUS
 62
    3
 10
273.51795824097314
 20
560.30583080107772
 11
623.51795824097314
 21
560.30583080107772
  0
LINE
  8
_0-1_計細線
  6
CONTINUOUS
 62
    3
 10
273.51795824097314
 20
577.30583080107863
 11
623.51795824097314
 21
577.30583080107863
  0
LINE
  8
_0-1_計細線
  6
CONTINUOUS
 62
    3
 10
623.51795824097314
 20
577.30583080107863
 11
623.51795824097314
 21
565.90583080107808
  0
LINE
  8
_0-0_計極細
  6
CONTINUOUS
 62
    2
 10
273.51795824097314
 20
569.10583080107835
 11
623.51795824097314
 21
569.10583080107835
  0
LINE
  8
_0-0_計極細
  6
CONTINUOUS
 62
    2
 10
273.51795824097314
 20
574.10583080107835
 11
623.51795824097314
 21
574.10583080107835
  0
LINE
  8
_0-1_計細線
  6
CONTINUOUS
 62
    3
 10
273.51795824097314
 20
565.90583080107808
 11
623.51795824097314
 21
565.90583080107808
  0
LINE
  8
_0-1_計細線
  6
CONTINUOUS
 62
    3
 10
273.51795824097314
 20
577.30583080107863
 11
273.51795824097314
 21
565.90583080107808
  0
LINE
  8
_0-0_計極細
  6
CONTINUOUS
 62
    2
 10
610.01795824097314
 20
548.90583080107717
 11
610.01795824097314
 21
543.30583080107726
  0
LINE
  8
_0-0_計極細
  6
CONTINUOUS
 62
    2
 10
623.01795824097314
 20
548.90583080107717
 11
623.01795824097314
 21
543.30583080107726
  0
LINE
  8
_0-0_計極細
  6
CONTINUOUS
 62
    2
 10
610.01795824097314
 20
565.90583080107808
 11
610.01795824097314
 21
560.30583080107772
  0
LINE
  8
_0-0_計極細
  6
CONTINUOUS
 62
    2
 10
623.01795824097314
 20
565.90583080107808
 11
623.01795824097314
 21
560.30583080107772
  0
LINE
  8
_0-0_計極細
  6
CONTINUOUS
 62
    2
 10
610.01795824097314
 20
582.90583080107854
 11
610.01795824097314
 21
577.30583080107863
  0
LINE
  8
_0-0_計極細
  6
CONTINUOUS
 62
    2
 10
623.01795824097314
 20
582.90583080107854
 11
623.01795824097314
 21
577.30583080107863
  0
LINE
  8
_0-0_計極細
  6
CONTINUOUS
 62
    2
 10
610.01795824097314
 20
599.90583080107945
 11
610.01795824097314
 21
594.30583080107908
  0
LINE
  8
_0-0_計極細
  6
CONTINUOUS
 62
    2
 10
623.01795824097314
 20
599.90583080107945
 11
623.01795824097314
 21
594.30583080107908
  0
LINE
  8
_0-0_計極細
  6
CONTINUOUS
 62
    2
 10
610.01795824097314
 20
616.9058308010799
 11
610.01795824097314
 21
611.30583080107999
  0
LINE
  8
_0-0_計極細
  6
CONTINUOUS
 62
    2
 10
623.01795824097314
 20
616.9058308010799
 11
623.01795824097314
 21
611.30583080107999
  0
LINE
  8
_0-0_計極細
  6
CONTINUOUS
 62
    2
 10
610.01795824097314
 20
633.90583080107899
 11
610.01795824097314
 21
628.30583080107908
  0
LINE
  8
_0-0_計極細
  6
CONTINUOUS
 62
    2
 10
623.01795824097314
 20
633.90583080107899
 11
623.01795824097314
 21
628.30583080107908
  0
LINE
  8
_0-0_計極細
  6
CONTINUOUS
 62
    2
 10
610.01795824097314
 20
650.90583080107808
 11
610.01795824097314
 21
645.30583080107817
  0
LINE
  8
_0-0_計極細
  6
CONTINUOUS
 62
    2
 10
623.01795824097314
 20
650.90583080107808
 11
623.01795824097314
 21
645.30583080107817
  0
LINE
  8
_0-0_計極細
  6
CONTINUOUS
 62
    2
 10
610.01795824097314
 20
667.90583080107717
 11
610.01795824097314
 21
662.30583080107738
  0
LINE
  8
_0-0_計極細
  6
CONTINUOUS
 62
    2
 10
623.01795824097314
 20
667.90583080107717
 11
623.01795824097314
 21
662.30583080107738
  0
LINE
  8
_0-0_計極細
  6
CONTINUOUS
 62
    2
 10
610.01795824097314
 20
684.90583080107626
 11
610.01795824097314
 21
679.30583080107635
  0
LINE
  8
_0-0_計極細
  6
CONTINUOUS
 62
    2
 10
623.01795824097314
 20
684.90583080107626
 11
623.01795824097314
 21
679.30583080107635
  0
LINE
  8
_0-0_計極細
  6
CONTINUOUS
 62
    2
 10
610.01795824097314
 20
701.60583080107926
 11
610.01795824097314
 21
696.30583080107954
  0
LINE
  8
_0-0_計極細
  6
CONTINUOUS
 62
    2
 10
623.01795824097314
 20
701.60583080107926
 11
623.01795824097314
 21
696.30583080107954
  0
LINE
  8
_0-0_計極細
  6
CONTINUOUS
 62
    2
 10
610.01795824097314
 20
718.20583080107826
 11
610.01795824097314
 21
713.00583080107845
  0
LINE
  8
_0-0_計極細
  6
CONTINUOUS
 62
    2
 10
623.01795824097314
 20
718.20583080107826
 11
623.01795824097314
 21
713.00583080107845
  0
LINE
  8
_0-0_計極細
  6
CONTINUOUS
 62
    2
 10
610.01795824097314
 20
526.30583080107635
 11
610.01795824097314
 21
531.90583080107626
  0
LINE
  8
_0-0_計極細
  6
CONTINUOUS
 62
    2
 10
623.01795824097314
 20
526.30583080107635
 11
623.01795824097314
 21
531.90583080107626
  0
LINE
  8
_0-0_計極細
  6
CONTINUOUS
 62
    2
 10
610.01795824097314
 20
509.30583080107544
 11
610.01795824097314
 21
514.90583080107581
  0
LINE
  8
_0-0_計極細
  6
CONTINUOUS
 62
    2
 10
623.01795824097314
 20
509.30583080107544
 11
623.01795824097314
 21
514.90583080107581
  0
LINE
  8
_0-0_計極細
  6
CONTINUOUS
 62
    2
 10
610.01795824097314
 20
492.30583080107499
 11
610.01795824097314
 21
497.90583080107496
  0
LINE
  8
_0-0_計極細
  6
CONTINUOUS
 62
    2
 10
623.01795824097314
 20
492.30583080107499
 11
623.01795824097314
 21
497.90583080107496
  0
LINE
  8
_0-0_計極細
  6
CONTINUOUS
 62
    2
 10
610.01795824097314
 20
475.3058308010759
 11
610.01795824097314
 21
480.90583080107587
  0
LINE
  8
_0-0_計極細
  6
CONTINUOUS
 62
    2
 10
623.01795824097314
 20
475.3058308010759
 11
623.01795824097314
 21
480.90583080107587
  0
LINE
  8
_0-0_計極細
  6
CONTINUOUS
 62
    2
 10
610.01795824097314
 20
458.30583080107687
 11
610.01795824097314
 21
463.90583080107672
  0
LINE
  8
_0-0_計極細
  6
CONTINUOUS
 62
    2
 10
623.01795824097314
 20
458.30583080107687
 11
623.01795824097314
 21
463.90583080107672
  0
LINE
  8
_0-0_計極細
  6
CONTINUOUS
 62
    2
 10
610.01795824097314
 20
441.30583080107778
 11
610.01795824097314
 21
446.90583080107763
  0
LINE
  8
_0-0_計極細
  6
CONTINUOUS
 62
    2
 10
623.01795824097314
 20
441.30583080107778
 11
623.01795824097314
 21
446.90583080107763
  0
LINE
  8
_0-0_計極細
  6
CONTINUOUS
 62
    2
 10
610.01795824097314
 20
424.30583080107863
 11
610.01795824097314
 21
429.90583080107854
  0
LINE
  8
_0-0_計極細
  6
CONTINUOUS
 62
    2
 10
623.01795824097314
 20
424.30583080107863
 11
623.01795824097314
 21
429.90583080107854
  0
LINE
  8
_0-0_計極細
  6
CONTINUOUS
 62
    2
 10
610.01795824097314
 20
407.60583080107563
 11
610.01795824097314
 21
412.90583080107535
  0
LINE
  8
_0-0_計極細
  6
CONTINUOUS
 62
    2
 10
623.01795824097314
 20
407.60583080107563
 11
623.01795824097314
 21
412.90583080107535
  0
LINE
  8
_0-0_計極細
  6
CONTINUOUS
 62
    2
 10
610.01795824097314
 20
391.00583080107668
 11
610.01795824097314
 21
396.2058308010765
  0
LINE
  8
_0-0_計極細
  6
CONTINUOUS
 62
    2
 10
623.01795824097314
 20
391.00583080107668
 11
623.01795824097314
 21
396.2058308010765
  0
LINE
  8
_0-0_計極細
  6
CENTER1
 62
    2
 10
616.51795824097326
 20
738.3565502255442
 11
616.51795824097326
 21
372.04800706006517
  0
LINE
  8
_0-0_計極細
  6
CONTINUOUS
 62
    2
 10
274.0179582409736
 20
548.90583080107717
 11
274.0179582409736
 21
543.30583080107726
  0
LINE
  8
_0-0_計極細
  6
CONTINUOUS
 62
    2
 10
287.0179582409736
 20
548.90583080107717
 11
287.0179582409736
 21
543.30583080107726
  0
LINE
  8
_0-0_計極細
  6
CONTINUOUS
 62
    2
 10
274.0179582409736
 20
565.90583080107808
 11
274.0179582409736
 21
560.30583080107772
  0
LINE
  8
_0-0_計極細
  6
CONTINUOUS
 62
    2
 10
287.0179582409736
 20
565.90583080107808
 11
287.0179582409736
 21
560.30583080107772
  0
LINE
  8
_0-0_計極細
  6
CONTINUOUS
 62
    2
 10
274.0179582409736
 20
582.90583080107854
 11
274.0179582409736
 21
577.30583080107863
  0
LINE
  8
_0-0_計極細
  6
CONTINUOUS
 62
    2
 10
287.0179582409736
 20
582.90583080107854
 11
287.0179582409736
 21
577.30583080107863
  0
LINE
  8
_0-0_計極細
  6
CONTINUOUS
 62
    2
 10
274.0179582409736
 20
599.90583080107945
 11
274.0179582409736
 21
594.30583080107908
  0
LINE
  8
_0-0_計極細
  6
CONTINUOUS
 62
    2
 10
287.0179582409736
 20
599.90583080107945
 11
287.0179582409736
 21
594.30583080107908
  0
LINE
  8
_0-0_計極細
  6
CONTINUOUS
 62
    2
 10
274.0179582409736
 20
616.9058308010799
 11
274.0179582409736
 21
611.30583080107999
  0
LINE
  8
_0-0_計極細
  6
CONTINUOUS
 62
    2
 10
287.0179582409736
 20
616.9058308010799
 11
287.0179582409736
 21
611.30583080107999
  0
LINE
  8
_0-0_計極細
  6
CONTINUOUS
 62
    2
 10
274.0179582409736
 20
633.90583080107899
 11
274.0179582409736
 21
628.30583080107908
  0
LINE
  8
_0-0_計極細
  6
CONTINUOUS
 62
    2
 10
287.0179582409736
 20
633.90583080107899
 11
287.0179582409736
 21
628.30583080107908
  0
LINE
  8
_0-0_計極細
  6
CONTINUOUS
 62
    2
 10
274.0179582409736
 20
650.90583080107808
 11
274.0179582409736
 21
645.30583080107817
  0
LINE
  8
_0-0_計極細
  6
CONTINUOUS
 62
    2
 10
287.0179582409736
 20
650.90583080107808
 11
287.0179582409736
 21
645.30583080107817
  0
LINE
  8
_0-0_計極細
  6
CONTINUOUS
 62
    2
 10
274.0179582409736
 20
667.90583080107717
 11
274.0179582409736
 21
662.30583080107738
  0
LINE
  8
_0-0_計極細
  6
CONTINUOUS
 62
    2
 10
287.0179582409736
 20
667.90583080107717
 11
287.0179582409736
 21
662.30583080107738
  0
LINE
  8
_0-0_計極細
  6
CONTINUOUS
 62
    2
 10
274.0179582409736
 20
684.90583080107626
 11
274.0179582409736
 21
679.30583080107635
  0
LINE
  8
_0-0_計極細
  6
CONTINUOUS
 62
    2
 10
287.0179582409736
 20
684.90583080107626
 11
287.0179582409736
 21
679.30583080107635
  0
LINE
  8
_0-0_計極細
  6
CONTINUOUS
 62
    2
 10
274.0179582409736
 20
701.60583080107926
 11
274.0179582409736
 21
696.30583080107954
  0
LINE
  8
_0-0_計極細
  6
CONTINUOUS
 62
    2
 10
287.0179582409736
 20
701.60583080107926
 11
287.0179582409736
 21
696.30583080107954
  0
LINE
  8
_0-0_計極細
  6
CONTINUOUS
 62
    2
 10
274.0179582409736
 20
718.20583080107826
 11
274.0179582409736
 21
713.00583080107845
  0
LINE
  8
_0-0_計極細
  6
CONTINUOUS
 62
    2
 10
287.0179582409736
 20
718.20583080107826
 11
287.0179582409736
 21
713.00583080107845
  0
LINE
  8
_0-0_計極細
  6
CONTINUOUS
 62
    2
 10
274.0179582409736
 20
526.30583080107635
 11
274.0179582409736
 21
531.90583080107626
  0
LINE
  8
_0-0_計極細
  6
CONTINUOUS
 62
    2
 10
287.0179582409736
 20
526.30583080107635
 11
287.0179582409736
 21
531.90583080107626
  0
LINE
  8
_0-0_計極細
  6
CONTINUOUS
 62
    2
 10
274.0179582409736
 20
509.30583080107544
 11
274.0179582409736
 21
514.90583080107581
  0
LINE
  8
_0-0_計極細
  6
CONTINUOUS
 62
    2
 10
287.0179582409736
 20
509.30583080107544
 11
287.0179582409736
 21
514.90583080107581
  0
LINE
  8
_0-0_計極細
  6
CONTINUOUS
 62
    2
 10
274.0179582409736
 20
492.30583080107499
 11
274.0179582409736
 21
497.90583080107496
  0
LINE
  8
_0-0_計極細
  6
CONTINUOUS
 62
    2
 10
287.0179582409736
 20
492.30583080107499
 11
287.0179582409736
 21
497.90583080107496
  0
LINE
  8
_0-0_計極細
  6
CONTINUOUS
 62
    2
 10
274.0179582409736
 20
475.3058308010759
 11
274.0179582409736
 21
480.90583080107587
  0
LINE
  8
_0-0_計極細
  6
CONTINUOUS
 62
    2
 10
287.0179582409736
 20
475.3058308010759
 11
287.0179582409736
 21
480.90583080107587
  0
LINE
  8
_0-0_計極細
  6
CONTINUOUS
 62
    2
 10
274.0179582409736
 20
458.30583080107687
 11
274.0179582409736
 21
463.90583080107672
  0
LINE
  8
_0-0_計極細
  6
CONTINUOUS
 62
    2
 10
287.0179582409736
 20
458.30583080107687
 11
287.0179582409736
 21
463.90583080107672
  0
LINE
  8
_0-0_計極細
  6
CONTINUOUS
 62
    2
 10
274.0179582409736
 20
441.30583080107778
 11
274.0179582409736
 21
446.90583080107763
  0
LINE
  8
_0-0_計極細
  6
CONTINUOUS
 62
    2
 10
287.0179582409736
 20
441.30583080107778
 11
287.0179582409736
 21
446.90583080107763
  0
LINE
  8
_0-0_計極細
  6
CONTINUOUS
 62
    2
 10
274.0179582409736
 20
424.30583080107863
 11
274.0179582409736
 21
429.90583080107854
  0
LINE
  8
_0-0_計極細
  6
CONTINUOUS
 62
    2
 10
287.0179582409736
 20
424.30583080107863
 11
287.0179582409736
 21
429.90583080107854
  0
LINE
  8
_0-0_計極細
  6
CONTINUOUS
 62
    2
 10
274.0179582409736
 20
407.60583080107563
 11
274.0179582409736
 21
412.90583080107535
  0
LINE
  8
_0-0_計極細
  6
CONTINUOUS
 62
    2
 10
287.0179582409736
 20
407.60583080107563
 11
287.0179582409736
 21
412.90583080107535
  0
LINE
  8
_0-0_計極細
  6
CONTINUOUS
 62
    2
 10
274.0179582409736
 20
391.00583080107668
 11
274.0179582409736
 21
396.2058308010765
  0
LINE
  8
_0-0_計極細
  6
CONTINUOUS
 62
    2
 10
287.0179582409736
 20
391.00583080107668
 11
287.0179582409736
 21
396.2058308010765
  0
LINE
  8
_0-0_計極細
  6
CENTER1
 62
    2
 10
280.5179582409736
 20
738.3565502255442
 11
280.5179582409736
 21
372.04800706006517
  0
ARC
  8
_0-a_極細3
  6
CONTINUOUS
 62
    7
 10
540.46932777957909
 20
246.85084653362867
 40
17.558839598481345
 50
150.03871396148165
 51
205.23810402387883
  0
ARC
  8
_0-a_極細3
  6
CONTINUOUS
 62
    7
 10
508.70385258968099
 20
231.87733732099801
 40
17.558839598481345
 50
330.03871396148202
 51
25.238104023878222
  0
ARC
  8
_0-a_極細3
  6
CONTINUOUS
 62
    7
 10
395.54951234124525
 20
246.85084653362867
 40
17.558839598481345
 50
150.03871396148165
 51
205.23810402387883
  0
ARC
  8
_0-a_極細3
  6
CONTINUOUS
 62
    7
 10
363.78403715134709
 20
231.87733732099801
 40
17.558839598481345
 50
330.03871396148202
 51
25.238104023878222
  0
LINE
  8
_0-a_極細3
  6
CENTER1
 62
    7
 10
530.43869144413884
 20
239.69746235864693
 11
367.86014881621304
 21
239.69746235864693
  0
LINE
  8
_0-b_細線3
  6
CONTINUOUS
 62
    7
 10
454.47325778809591
 20
228.86412902531367
 11
477.80659112142939
 21
228.86412902531367
  0
LINE
  8
_0-b_細線3
  6
CONTINUOUS
 62
    7
 10
483.47325778869896
 20
228.86412902531367
 11
506.80659112203244
 21
228.86412902531367
  0
LINE
  8
_0-b_細線3
  6
CONTINUOUS
 62
    7
 10
396.47325778657296
 20
228.86412902531367
 11
419.80659111990644
 21
228.86412902531367
  0
LINE
  8
_0-b_細線3
  6
CONTINUOUS
 62
    7
 10
425.47325778717641
 20
228.86412902531367
 11
448.80659112050949
 21
228.86412902531367
  0
LINE
  8
_0-b_細線3
  6
CONTINUOUS
 62
    7
 10
454.47325778809591
 20
250.53079569198033
 11
477.80659112142939
 21
250.53079569198033
  0
LINE
  8
_0-b_細線3
  6
CONTINUOUS
 62
    7
 10
483.47325778869896
 20
250.53079569198033
 11
506.80659112203244
 21
250.53079569198033
  0
LINE
  8
_0-b_細線3
  6
CONTINUOUS
 62
    7
 10
396.47325778657296
 20
250.53079569198033
 11
419.80659111990644
 21
250.53079569198033
  0
LINE
  8
_0-b_細線3
  6
CONTINUOUS
 62
    7
 10
425.47325778717641
 20
250.53079569198033
 11
448.80659112050949
 21
250.53079569198033
  0
LINE
  8
_0-b_細線3
  6
CONTINUOUS
 62
    7
 10
512.4732577893019
 20
250.53079569198033
 11
523.23235418010199
 21
250.53079569198033
  0
LINE
  8
_0-b_細線3
  6
CONTINUOUS
 62
    7
 10
512.4732577893019
 20
228.86412902531367
 11
525.94082618915809
 21
228.86412902531367
  0
LINE
  8
_0-b_細線3
  6
CONTINUOUS
 62
    7
 10
378.31253874176809
 20
250.53079569198033
 11
390.80659111930345
 21
250.53079569198033
  0
LINE
  8
_0-b_細線3
  6
CONTINUOUS
 62
    7
 10
381.02101075082425
 20
228.86412902531367
 11
390.80659111930345
 21
228.86412902531367
  0
TEXT
  8
_0-7_枠細線
 62
    5
 10
417.22469092493753
 20
170.0670836765407
 40
25.000000000000007
 41
0.8
 50
0
  1
断面詳細
  0
TEXT
  8
_0-7_枠細線
 62
    5
 10
521.18718073399953
 20
173.02652349686042
 40
20.000000000000004
 41
0.5999999999999999
 50
0
  1
Ｓ＝１：３
  0
ARC
  8
_0-b_細線3
  6
CONTINUOUS
 62
    7
 10
443.80659112234895
 20
255.03079569198022
 40
1.666666666666667
 50
89.999999999999915
 51
179.99999999999983
  0
ARC
  8
_0-b_細線3
  6
CONTINUOUS
 62
    7
 10
444.58650644122781
 20
258.36412902531367
 40
1.666666666666667
 50
269.99999999999977
 51
330.00000000000301
  0
ARC
  8
_0-b_細線3
  6
CONTINUOUS
 62
    7
 10
447.47325778717595
 20
256.69746235864716
 40
1.666666666666667
 50
89.999999999999915
 51
150.00000000000134
  0
LINE
  8
_0-b_細線3
  6
CONTINUOUS
 62
    7
 10
443.80659112234895
 20
256.69746235864716
 11
444.58650644122781
 21
256.69746235864716
  0
ARC
  8
_0-b_細線3
  6
CONTINUOUS
 62
    7
 10
459.47325778533695
 20
255.03079569198022
 40
1.666666666666667
 50
0
 51
89.999999999999915
  0
ARC
  8
_0-b_細線3
  6
CONTINUOUS
 62
    7
 10
458.69334246645764
 20
258.36412902531367
 40
1.666666666666667
 50
210.00000000000404
 51
269.99999999999977
  0
ARC
  8
_0-b_細線3
  6
CONTINUOUS
 62
    7
 10
455.80659112050944
 20
256.69746235864716
 40
1.666666666666667
 50
29.999999999990862
 51
89.999999999984354
  0
LINE
  8
_0-b_細線3
  6
CONTINUOUS
 62
    7
 10
459.47325778533695
 20
256.69746235864716
 11
458.69334246645764
 21
256.69746235864716
  0
ARC
  8
_0-b_細線3
  6
CONTINUOUS
 62
    7
 10
442.97325778901546
 20
252.69746235864716
 40
0.8333333333333334
 50
179.99999999999983
 51
269.99999999999977
  0
LINE
  8
_0-b_細線3
  6
CONTINUOUS
 62
    7
 10
442.13992445568192
 20
255.03079569198022
 11
442.13992445568192
 21
252.69746235864716
  0
ARC
  8
_0-b_細線3
  6
CONTINUOUS
 62
    7
 10
460.30659111867004
 20
252.69746235864716
 40
0.8333333333333334
 50
269.99999999999977
 51
359.99999999999966
  0
LINE
  8
_0-b_細線3
  6
CONTINUOUS
 62
    7
 10
461.13992445200353
 20
255.03079569198022
 11
461.13992445200353
 21
252.69746235864716
  0
ARC
  8
_0-b_細線3
  6
CONTINUOUS
 62
    7
 10
447.13992445568192
 20
250.19746235864716
 40
1.666666666666667
 50
0
 51
89.999999999999915
  0
LINE
  8
_0-b_細線3
  6
CONTINUOUS
 62
    7
 10
447.13992445568192
 20
251.8641290253137
 11
442.97325778901546
 21
251.8641290253137
  0
ARC
  8
_0-b_細線3
  6
CONTINUOUS
 62
    7
 10
456.13992445568243
 20
250.19746235864716
 40
1.666666666666667
 50
89.999999999999915
 51
179.99999999999983
  0
LINE
  8
_0-b_細線3
  6
CONTINUOUS
 62
    7
 10
456.13992445200353
 20
251.8641290253137
 11
460.30659111867004
 21
251.8641290253137
  0
LINE
  8
_0-b_細線3
  6
CONTINUOUS
 62
    7
 10
455.80659112050944
 20
258.36412902531367
 11
447.47325778717595
 21
258.36412902531367
  0
LINE
  8
_0-b_細線3
  6
CONTINUOUS
 62
    7
 10
448.80659112050949
 20
225.03079569198033
 11
448.80659112234895
 21
250.19746235864716
  0
LINE
  8
_0-b_細線3
  6
CONTINUOUS
 62
    7
 10
454.47325778717595
 20
225.03079569198033
 11
454.47325778901586
 21
250.19746235864716
  0
LINE
  8
_0-b_細線3
  6
CONTINUOUS
 62
    7
 10
454.47325778717595
 20
225.03079569198033
 11
448.80659112050949
 21
225.03079569198033
  0
ARC
  8
_0-b_細線3
  6
CONTINUOUS
 62
    7
 10
472.80659112295189
 20
255.03079569198022
 40
1.666666666666667
 50
89.999999999999915
 51
179.99999999999983
  0
ARC
  8
_0-b_細線3
  6
CONTINUOUS
 62
    7
 10
473.58650644183086
 20
258.36412902531367
 40
1.666666666666667
 50
269.99999999999977
 51
329.99999999999523
  0
ARC
  8
_0-b_細線3
  6
CONTINUOUS
 62
    7
 10
476.47325778777895
 20
256.69746235864716
 40
1.666666666666667
 50
89.999999999999915
 51
150.00000000000915
  0
LINE
  8
_0-b_細線3
  6
CONTINUOUS
 62
    7
 10
472.80659112295189
 20
256.69746235864716
 11
473.58650644183086
 21
256.69746235864716
  0
ARC
  8
_0-b_細線3
  6
CONTINUOUS
 62
    7
 10
488.47325778593995
 20
255.03079569198022
 40
1.666666666666667
 50
0
 51
89.999999999999915
  0
ARC
  8
_0-b_細線3
  6
CONTINUOUS
 62
    7
 10
487.69334246706057
 20
258.36412902531367
 40
1.666666666666667
 50
209.99999999999622
 51
269.99999999999977
  0
ARC
  8
_0-b_細線3
  6
CONTINUOUS
 62
    7
 10
484.80659112111249
 20
256.69746235864716
 40
1.666666666666667
 50
29.999999999998682
 51
89.999999999999915
  0
LINE
  8
_0-b_細線3
  6
CONTINUOUS
 62
    7
 10
488.47325778593995
 20
256.69746235864716
 11
487.69334246706057
 21
256.69746235864716
  0
ARC
  8
_0-b_細線3
  6
CONTINUOUS
 62
    7
 10
471.97325778961891
 20
252.69746235864716
 40
0.8333333333333334
 50
179.99999999999983
 51
269.99999999999977
  0
LINE
  8
_0-b_細線3
  6
CONTINUOUS
 62
    7
 10
471.13992445628497
 20
255.03079569198022
 11
471.13992445628497
 21
252.69746235864716
  0
ARC
  8
_0-b_細線3
  6
CONTINUOUS
 62
    7
 10
489.30659111927298
 20
252.69746235864716
 40
0.8333333333333334
 50
269.99999999999977
 51
359.99999999999966
  0
LINE
  8
_0-b_細線3
  6
CONTINUOUS
 62
    7
 10
490.13992445260646
 20
255.03079569198022
 11
490.13992445260646
 21
252.69746235864716
  0
ARC
  8
_0-b_細線3
  6
CONTINUOUS
 62
    7
 10
476.13992445628497
 20
250.19746235864716
 40
1.666666666666667
 50
0
 51
89.999999999999915
  0
LINE
  8
_0-b_細線3
  6
CONTINUOUS
 62
    7
 10
476.13992445628497
 20
251.8641290253137
 11
471.97325778961891
 21
251.8641290253137
  0
ARC
  8
_0-b_細線3
  6
CONTINUOUS
 62
    7
 10
485.13992445628537
 20
250.19746235864716
 40
1.666666666666667
 50
89.999999999999915
 51
179.99999999999983
  0
LINE
  8
_0-b_細線3
  6
CONTINUOUS
 62
    7
 10
485.13992445260646
 20
251.8641290253137
 11
489.30659111927298
 21
251.8641290253137
  0
LINE
  8
_0-b_細線3
  6
CONTINUOUS
 62
    7
 10
484.80659112111249
 20
258.36412902531367
 11
476.47325778777895
 21
258.36412902531367
  0
LINE
  8
_0-b_細線3
  6
CONTINUOUS
 62
    7
 10
477.80659112111243
 20
225.03079569198033
 11
477.80659112295189
 21
250.19746235864716
  0
LINE
  8
_0-b_細線3
  6
CONTINUOUS
 62
    7
 10
483.473257787779
 20
225.03079569198033
 11
483.47325778961886
 21
250.19746235864716
  0
LINE
  8
_0-b_細線3
  6
CONTINUOUS
 62
    7
 10
483.473257787779
 20
225.03079569198033
 11
477.80659112111243
 21
225.03079569198033
  0
ARC
  8
_0-b_細線3
  6
CONTINUOUS
 62
    7
 10
501.80659112355494
 20
255.03079569198022
 40
1.666666666666667
 50
89.999999999999915
 51
179.99999999999983
  0
ARC
  8
_0-b_細線3
  6
CONTINUOUS
 62
    7
 10
502.5865064424338
 20
258.36412902531367
 40
1.666666666666667
 50
269.99999999999977
 51
329.99999999999523
  0
ARC
  8
_0-b_細線3
  6
CONTINUOUS
 62
    7
 10
505.473257788382
 20
256.69746235864716
 40
1.666666666666667
 50
89.999999999999915
 51
150.00000000000915
  0
LINE
  8
_0-b_細線3
  6
CONTINUOUS
 62
    7
 10
501.80659112355494
 20
256.69746235864716
 11
502.5865064424338
 21
256.69746235864716
  0
ARC
  8
_0-b_細線3
  6
CONTINUOUS
 62
    7
 10
517.47325778654294
 20
255.03079569198022
 40
1.666666666666667
 50
0
 51
89.999999999999915
  0
ARC
  8
_0-b_細線3
  6
CONTINUOUS
 62
    7
 10
516.69334246766357
 20
258.36412902531367
 40
1.666666666666667
 50
210.00000000000404
 51
269.99999999999977
  0
ARC
  8
_0-b_細線3
  6
CONTINUOUS
 62
    7
 10
513.80659112171543
 20
256.69746235864716
 40
1.666666666666667
 50
29.999999999990862
 51
89.999999999984354
  0
LINE
  8
_0-b_細線3
  6
CONTINUOUS
 62
    7
 10
517.47325778654294
 20
256.69746235864716
 11
516.69334246766357
 21
256.69746235864716
  0
ARC
  8
_0-b_細線3
  6
CONTINUOUS
 62
    7
 10
500.9732577902214
 20
252.69746235864716
 40
0.8333333333333334
 50
179.99999999999983
 51
269.99999999999977
  0
LINE
  8
_0-b_細線3
  6
CONTINUOUS
 62
    7
 10
500.13992445688791
 20
255.03079569198022
 11
500.13992445688791
 21
252.69746235864716
  0
ARC
  8
_0-b_細線3
  6
CONTINUOUS
 62
    7
 10
518.30659111987597
 20
252.69746235864716
 40
0.8333333333333334
 50
269.99999999999977
 51
359.99999999999966
  0
LINE
  8
_0-b_細線3
  6
CONTINUOUS
 62
    7
 10
519.13992445320946
 20
255.03079569198022
 11
519.13992445320946
 21
252.69746235864716
  0
ARC
  8
_0-b_細線3
  6
CONTINUOUS
 62
    7
 10
505.13992445688791
 20
250.19746235864716
 40
1.666666666666667
 50
0
 51
89.999999999999915
  0
LINE
  8
_0-b_細線3
  6
CONTINUOUS
 62
    7
 10
505.13992445688791
 20
251.8641290253137
 11
500.9732577902214
 21
251.8641290253137
  0
ARC
  8
_0-b_細線3
  6
CONTINUOUS
 62
    7
 10
514.13992445688791
 20
250.19746235864716
 40
1.666666666666667
 50
89.999999999999915
 51
179.99999999999983
  0
LINE
  8
_0-b_細線3
  6
CONTINUOUS
 62
    7
 10
514.13992445320901
 20
251.8641290253137
 11
518.30659111987597
 21
251.8641290253137
  0
LINE
  8
_0-b_細線3
  6
CONTINUOUS
 62
    7
 10
513.80659112171543
 20
258.36412902531367
 11
505.473257788382
 21
258.36412902531367
  0
LINE
  8
_0-b_細線3
  6
CONTINUOUS
 62
    7
 10
506.80659112171548
 20
225.03079569198033
 11
506.80659112355494
 21
250.19746235864716
  0
LINE
  8
_0-b_細線3
  6
CONTINUOUS
 62
    7
 10
512.47325778838194
 20
225.03079569198033
 11
512.47325779022185
 21
250.19746235864716
  0
LINE
  8
_0-b_細線3
  6
CONTINUOUS
 62
    7
 10
512.47325778838194
 20
225.03079569198033
 11
506.80659112171548
 21
225.03079569198033
  0
ARC
  8
_0-b_細線3
  6
CONTINUOUS
 62
    7
 10
385.806591120826
 20
255.03079569198022
 40
1.666666666666667
 50
89.999999999999915
 51
179.99999999999983
  0
ARC
  8
_0-b_細線3
  6
CONTINUOUS
 62
    7
 10
386.58650643970486
 20
258.36412902531367
 40
1.666666666666667
 50
269.99999999999977
 51
330.00000000000301
  0
ARC
  8
_0-b_細線3
  6
CONTINUOUS
 62
    7
 10
389.473257785653
 20
256.69746235864716
 40
1.666666666666667
 50
89.999999999999915
 51
150.00000000000134
  0
LINE
  8
_0-b_細線3
  6
CONTINUOUS
 62
    7
 10
385.806591120826
 20
256.69746235864716
 11
386.58650643970486
 21
256.69746235864716
  0
ARC
  8
_0-b_細線3
  6
CONTINUOUS
 62
    7
 10
401.47325778381401
 20
255.03079569198022
 40
1.666666666666667
 50
0
 51
89.999999999999915
  0
ARC
  8
_0-b_細線3
  6
CONTINUOUS
 62
    7
 10
400.69334246493509
 20
258.36412902531367
 40
1.666666666666667
 50
209.99999999999622
 51
269.99999999999977
  0
ARC
  8
_0-b_細線3
  6
CONTINUOUS
 62
    7
 10
397.80659111898649
 20
256.69746235864716
 40
1.666666666666667
 50
29.999999999990862
 51
89.999999999984354
  0
LINE
  8
_0-b_細線3
  6
CONTINUOUS
 62
    7
 10
401.47325778381401
 20
256.69746235864716
 11
400.69334246493509
 21
256.69746235864716
  0
ARC
  8
_0-b_細線3
  6
CONTINUOUS
 62
    7
 10
384.97325778749291
 20
252.69746235864716
 40
0.8333333333333334
 50
179.99999999999983
 51
269.99999999999977
  0
LINE
  8
_0-b_細線3
  6
CONTINUOUS
 62
    7
 10
384.13992445415897
 20
255.03079569198022
 11
384.13992445415897
 21
252.69746235864716
  0
ARC
  8
_0-b_細線3
  6
CONTINUOUS
 62
    7
 10
402.30659111714709
 20
252.69746235864716
 40
0.8333333333333334
 50
269.99999999999977
 51
359.99999999999966
  0
LINE
  8
_0-b_細線3
  6
CONTINUOUS
 62
    7
 10
403.13992445048098
 20
255.03079569198022
 11
403.13992445048098
 21
252.69746235864716
  0
ARC
  8
_0-b_細線3
  6
CONTINUOUS
 62
    7
 10
389.13992445415897
 20
250.19746235864716
 40
1.666666666666667
 50
0
 51
89.999999999999915
  0
LINE
  8
_0-b_細線3
  6
CONTINUOUS
 62
    7
 10
389.13992445415897
 20
251.8641290253137
 11
384.97325778749291
 21
251.8641290253137
  0
ARC
  8
_0-b_細線3
  6
CONTINUOUS
 62
    7
 10
398.13992445415948
 20
250.19746235864716
 40
1.666666666666667
 50
89.999999999999915
 51
179.99999999999983
  0
LINE
  8
_0-b_細線3
  6
CONTINUOUS
 62
    7
 10
398.13992445048058
 20
251.8641290253137
 11
402.30659111714709
 21
251.8641290253137
  0
LINE
  8
_0-b_細線3
  6
CONTINUOUS
 62
    7
 10
397.80659111898649
 20
258.36412902531367
 11
389.473257785653
 21
258.36412902531367
  0
LINE
  8
_0-b_細線3
  6
CONTINUOUS
 62
    7
 10
390.80659111898694
 20
225.03079569198033
 11
390.806591120826
 21
250.19746235864716
  0
LINE
  8
_0-b_細線3
  6
CONTINUOUS
 62
    7
 10
396.473257785653
 20
225.03079569198033
 11
396.47325778749291
 21
250.19746235864716
  0
LINE
  8
_0-b_細線3
  6
CONTINUOUS
 62
    7
 10
396.473257785653
 20
225.03079569198033
 11
390.80659111898694
 21
225.03079569198033
  0
ARC
  8
_0-b_細線3
  6
CONTINUOUS
 62
    7
 10
414.80659112142894
 20
255.03079569198022
 40
1.666666666666667
 50
89.999999999999915
 51
179.99999999999983
  0
ARC
  8
_0-b_細線3
  6
CONTINUOUS
 62
    7
 10
415.58650644030831
 20
258.36412902531367
 40
1.666666666666667
 50
269.99999999999977
 51
329.99999999998744
  0
ARC
  8
_0-b_細線3
  6
CONTINUOUS
 62
    7
 10
418.473257786256
 20
256.69746235864716
 40
1.666666666666667
 50
89.999999999999915
 51
150.00000000000915
  0
LINE
  8
_0-b_細線3
  6
CONTINUOUS
 62
    7
 10
414.80659112142894
 20
256.69746235864716
 11
415.58650644030831
 21
256.69746235864716
  0
ARC
  8
_0-b_細線3
  6
CONTINUOUS
 62
    7
 10
430.473257784417
 20
255.03079569198022
 40
1.666666666666667
 50
0
 51
89.999999999999915
  0
ARC
  8
_0-b_細線3
  6
CONTINUOUS
 62
    7
 10
429.69334246553763
 20
258.36412902531367
 40
1.666666666666667
 50
210.00000000000404
 51
269.99999999999977
  0
ARC
  8
_0-b_細線3
  6
CONTINUOUS
 62
    7
 10
426.80659111958994
 20
256.69746235864716
 40
1.666666666666667
 50
29.999999999998682
 51
89.999999999999915
  0
LINE
  8
_0-b_細線3
  6
CONTINUOUS
 62
    7
 10
430.473257784417
 20
256.69746235864716
 11
429.69334246553763
 21
256.69746235864716
  0
ARC
  8
_0-b_細線3
  6
CONTINUOUS
 62
    7
 10
413.97325778809596
 20
252.69746235864716
 40
0.8333333333333334
 50
179.99999999999983
 51
269.99999999999977
  0
LINE
  8
_0-b_細線3
  6
CONTINUOUS
 62
    7
 10
413.13992445476242
 20
255.03079569198022
 11
413.13992445476242
 21
252.69746235864716
  0
ARC
  8
_0-b_細線3
  6
CONTINUOUS
 62
    7
 10
431.30659111775003
 20
252.69746235864716
 40
0.8333333333333334
 50
269.99999999999977
 51
359.99999999999966
  0
LINE
  8
_0-b_細線3
  6
CONTINUOUS
 62
    7
 10
432.13992445108352
 20
255.03079569198022
 11
432.13992445108352
 21
252.69746235864716
  0
ARC
  8
_0-b_細線3
  6
CONTINUOUS
 62
    7
 10
418.13992445476242
 20
250.19746235864716
 40
1.666666666666667
 50
0
 51
89.999999999999915
  0
LINE
  8
_0-b_細線3
  6
CONTINUOUS
 62
    7
 10
418.13992445476242
 20
251.8641290253137
 11
413.97325778809596
 21
251.8641290253137
  0
ARC
  8
_0-b_細線3
  6
CONTINUOUS
 62
    7
 10
427.13992445476242
 20
250.19746235864716
 40
1.666666666666667
 50
89.999999999999915
 51
179.99999999999983
  0
LINE
  8
_0-b_細線3
  6
CONTINUOUS
 62
    7
 10
427.13992445108352
 20
251.8641290253137
 11
431.30659111775003
 21
251.8641290253137
  0
LINE
  8
_0-b_細線3
  6
CONTINUOUS
 62
    7
 10
426.80659111958994
 20
258.36412902531367
 11
418.473257786256
 21
258.36412902531367
  0
LINE
  8
_0-b_細線3
  6
CONTINUOUS
 62
    7
 10
419.80659111958948
 20
225.03079569198033
 11
419.80659112142894
 21
250.19746235864716
  0
LINE
  8
_0-b_細線3
  6
CONTINUOUS
 62
    7
 10
425.47325778625645
 20
225.03079569198033
 11
425.47325778809591
 21
250.19746235864716
  0
LINE
  8
_0-b_細線3
  6
CONTINUOUS
 62
    7
 10
425.47325778625645
 20
225.03079569198033
 11
419.80659111958948
 21
225.03079569198033
  0
LINE
  8
_0-d_寸法3
  6
CONTINUOUS
 62
    7
 10
517.83144489825486
 20
230.76656005549083
 11
553.18378662394036
 21
255.52053622518162
  0
LINE
  8
_0-d_寸法3
  6
CONTINUOUS
 62
    7
 10
549.08802640249542
 20
252.65265404342639
 11
546.49983595147023
 21
262.31191230631703
  0
LINE
  8
_0-d_寸法3
  6
CONTINUOUS
 62
    7
 10
549.08802640249542
 20
252.65265404342639
 11
551.6762168535206
 21
262.31191230631703
  0
LINE
  8
_0-d_寸法3
  6
CONTINUOUS
 62
    7
 10
517.83144489825486
 20
264.09989338882417
 11
553.18378662394036
 21
288.85386955851493
  0
LINE
  8
_0-d_寸法3
  6
CONTINUOUS
 62
    7
 10
549.08802640249542
 20
285.98598737675968
 11
551.6762168535206
 21
276.32672911386896
  0
LINE
  8
_0-d_寸法3
  6
CONTINUOUS
 62
    7
 10
549.08802640249542
 20
285.98598737675968
 11
546.49983595147012
 21
276.32672911386908
  0
LINE
  8
_0-d_寸法3
  6
CONTINUOUS
 62
    7
 10
549.08802640249542
 20
252.65265404342639
 11
549.08802640249542
 21
285.98598737675968
  0
TEXT
  8
_0-d_寸法3
 62
    7
 10
549.08802640249542
 20
261.81932071009402
 40
15
 41
1
 50
90
  1
20
  0
LINE
  8
_0-7_枠細線
  6
CONTINUOUS
 62
    5
 10
639.62302206321726
 20
803.92835803928369
 11
632.12302206321726
 21
788.92835803928369
  0
LINE
  8
_0-7_枠細線
  6
CONTINUOUS
 62
    5
 10
632.12302206321726
 20
788.92835803928369
 11
647.12302206321726
 21
788.92835803928369
  0
LINE
  8
_0-7_枠細線
  6
CONTINUOUS
 62
    5
 10
647.12302206321726
 20
788.92835803928369
 11
639.62302206321726
 21
803.92835803928369
  0
TEXT
  8
_0-7_枠細線
 62
    5
 10
636.98817333136537
 20
788.38067414910233
 40
12.5
 41
0.8
 50
0
  1
1
  0
LINE
  8
_0-5_寸法線
  6
CONTINUOUS
 62
    7
 10
268.51795824097314
 20
744.60583080108245
 11
268.51795824097337
 21
894.60583080108245
  0
LINE
  8
_0-5_寸法線
  6
CONTINUOUS
 62
    7
 10
268.51795824097337
 20
889.60583080108245
 11
278.17721650386403
 21
892.19402125210763
  0
LINE
  8
_0-5_寸法線
  6
CONTINUOUS
 62
    7
 10
268.51795824097337
 20
889.60583080108245
 11
278.17721650386403
 21
887.01764035005738
  0
LINE
  8
_0-5_寸法線
  6
CONTINUOUS
 62
    7
 10
628.51795824097371
 20
744.60583080108245
 11
628.51795824097405
 21
894.60583080108245
  0
LINE
  8
_0-5_寸法線
  6
CONTINUOUS
 62
    7
 10
628.51795824097405
 20
889.60583080108245
 11
618.85869997808334
 21
887.01764035005738
  0
LINE
  8
_0-5_寸法線
  6
CONTINUOUS
 62
    7
 10
628.51795824097405
 20
889.60583080108245
 11
618.85869997808334
 21
892.19402125210763
  0
LINE
  8
_0-5_寸法線
  6
CONTINUOUS
 62
    7
 10
268.51795824097337
 20
889.60583080108245
 11
628.51795824097405
 21
889.60583080108245
  0
TEXT
  8
_0-5_寸法線
 62
    7
 10
437.26795824097343
 20
889.60583080108233
 40
15
 41
1
 50
0
  1
360
  0
LINE
  8
_0-5_寸法線
  6
CONTINUOUS
 62
    7
 10
268.51795824097314
 20
854.60583080108245
 11
258.85869997808243
 21
852.01764035005738
  0
LINE
  8
_0-5_寸法線
  6
CONTINUOUS
 62
    7
 10
268.51795824097314
 20
854.60583080108245
 11
258.85869997808248
 21
857.19402125210763
  0
LINE
  8
_0-5_寸法線
  6
CONTINUOUS
 62
    7
 10
271.5179582409732
 20
744.60583080108245
 11
271.5179582409732
 21
859.60583080108245
  0
LINE
  8
_0-5_寸法線
  6
CONTINUOUS
 62
    7
 10
243.51795824097314
 20
854.60583080108245
 11
271.5179582409732
 21
854.60583080108245
  0
TEXT
  8
_0-5_寸法線
 62
    7
 10
247.41188198170633
 20
854.60583080108233
 40
15
 41
1
 50
0
  1
3
  0
LINE
  8
_0-5_寸法線
  6
CONTINUOUS
 62
    7
 10
271.5179582409732
 20
854.60583080108245
 11
281.17721650386386
 21
857.19402125210763
  0
LINE
  8
_0-5_寸法線
  6
CONTINUOUS
 62
    7
 10
271.5179582409732
 20
854.60583080108245
 11
281.17721650386386
 21
852.01764035005726
  0
LINE
  8
_0-5_寸法線
  6
CONTINUOUS
 62
    7
 10
625.5179582409736
 20
744.60583080108245
 11
625.51795824097371
 21
859.60583080108245
  0
LINE
  8
_0-5_寸法線
  6
CONTINUOUS
 62
    7
 10
625.51795824097371
 20
854.60583080108245
 11
615.858699978083
 21
852.01764035005738
  0
LINE
  8
_0-5_寸法線
  6
CONTINUOUS
 62
    7
 10
625.51795824097371
 20
854.60583080108245
 11
615.858699978083
 21
857.19402125210763
  0
LINE
  8
_0-5_寸法線
  6
CONTINUOUS
 62
    7
 10
271.5179582409732
 20
854.60583080108245
 11
625.51795824097371
 21
854.60583080108245
  0
TEXT
  8
_0-5_寸法線
 62
    7
 10
437.26795824097331
 20
854.60583080108233
 40
15
 41
1
 50
0
  1
354
  0
LINE
  8
_0-5_寸法線
  6
CONTINUOUS
 62
    7
 10
628.51795824097371
 20
854.60583080108245
 11
638.17721650386443
 21
857.19402125210763
  0
LINE
  8
_0-5_寸法線
  6
CONTINUOUS
 62
    7
 10
628.51795824097371
 20
854.60583080108245
 11
638.17721650386443
 21
852.01764035005726
  0
LINE
  8
_0-5_寸法線
  6
CONTINUOUS
 62
    7
 10
625.51795824097371
 20
854.60583080108245
 11
653.51795824097383
 21
854.60583080108245
  0
TEXT
  8
_0-5_寸法線
 62
    7
 10
642.68560460944332
 20
854.60583080108245
 40
15
 41
1
 50
0
  1
3
  0
LINE
  8
_0-5_寸法線
  6
CONTINUOUS
 62
    7
 10
273.51795824097314
 20
744.60583080108245
 11
273.51795824097326
 21
824.60583080108245
  0
LINE
  8
_0-5_寸法線
  6
CONTINUOUS
 62
    7
 10
273.51795824097326
 20
819.60583080108245
 11
283.17721650386386
 21
822.19402125210763
  0
LINE
  8
_0-5_寸法線
  6
CONTINUOUS
 62
    7
 10
273.51795824097326
 20
819.60583080108245
 11
283.17721650386386
 21
817.01764035005738
  0
LINE
  8
_0-5_寸法線
  6
CONTINUOUS
 62
    7
 10
623.51795824097314
 20
744.60583080108245
 11
623.51795824097326
 21
824.60583080108245
  0
LINE
  8
_0-5_寸法線
  6
CONTINUOUS
 62
    7
 10
623.51795824097326
 20
819.60583080108245
 11
613.85869997808254
 21
817.01764035005738
  0
LINE
  8
_0-5_寸法線
  6
CONTINUOUS
 62
    7
 10
623.51795824097326
 20
819.60583080108245
 11
613.85869997808254
 21
822.19402125210763
  0
LINE
  8
_0-5_寸法線
  6
CONTINUOUS
 62
    7
 10
273.51795824097326
 20
819.60583080108245
 11
623.51795824097326
 21
819.60583080108245
  0
TEXT
  8
_0-5_寸法線
 62
    7
 10
437.26795824097331
 20
819.60583080108245
 40
15
 41
1
 50
0
  1
350
  0
TEXT
  8
_0-7_枠細線
 62
    5
 10
938.85037037037023
 20
822.5
 40
12.5
 41
1
 50
0
  1
取外具形状変更
  0
LINE
  8
_0-7_枠細線
  6
CONTINUOUS
 62
    5
 10
907.5
 20
836.44233397174673
 11
900
 21
821.44233397174673
  0
LINE
  8
_0-7_枠細線
  6
CONTINUOUS
 62
    5
 10
900
 20
821.44233397174673
 11
915
 21
821.44233397174673
  0
LINE
  8
_0-7_枠細線
  6
CONTINUOUS
 62
    5
 10
915
 20
821.44233397174673
 11
907.5
 21
836.44233397174673
  0
TEXT
  8
_0-7_枠細線
 62
    5
 10
902.36515126814822
 20
821.13533172636653
 40
12.5
 41
0.8
 50
0
  1
６
  0
TEXT
  8
_0-7_枠細線
 62
    5
 10
1180
 20
822.5
 40
12.5
 41
0.7199999999999999
 50
0
  1
２０２１．０５．０６
  0
LINE
  8
_0-7_枠細線
  6
CONTINUOUS
 62
    5
 10
1425
 20
820
 11
890
 21
820
  0
LINE
  8
_0-7_枠細線
  6
CONTINUOUS
 62
    5
 10
890
 20
820
 11
890
 21
959.99999999999909
  0
LINE
  8
_0-7_枠細線
  6
CONTINUOUS
 62
    5
 10
925
 20
820
 11
925
 21
959.99999999999909
  0
LINE
  8
_0-7_枠細線
  6
CONTINUOUS
 62
    5
 10
1175
 20
820
 11
1175
 21
959.99999999999909
  0
LINE
  8
_0-7_枠細線
  6
CONTINUOUS
 62
    5
 10
1275
 20
820
 11
1275
 21
959.99999999999909
  0
LINE
  8
_0-1_計細線
  6
CONTINUOUS
 62
    3
 10
338.51795824097275
 20
560.75583080107799
 11
391.51795824097269
 21
560.75583080107799
  0
LINE
  8
_0-1_計細線
  6
CONTINUOUS
 62
    3
 10
391.51795824097269
 20
565.45583080107781
 11
338.51795824097275
 21
565.45583080107781
  0
LINE
  8
_0-1_計細線
  6
CONTINUOUS
 62
    3
 10
338.51795824097275
 20
565.45583080107781
 11
338.51795824097275
 21
560.75583080107799
  0
LINE
  8
_0-1_計細線
  6
CONTINUOUS
 62
    3
 10
381.51795824097269
 20
565.45583080107781
 11
381.51795824097269
 21
560.75583080107799
  0
LINE
  8
_0-1_計細線
  6
CONTINUOUS
 62
    3
 10
389.51795824097275
 20
565.45583080107781
 11
389.51795824097275
 21
560.75583080107799
  0
LINE
  8
_0-1_計細線
  6
CONTINUOUS
 62
    3
 10
391.51795824097269
 20
565.45583080107781
 11
391.51795824097269
 21
560.75583080107799
  0
LINE
  8
_0-1_計細線
  6
CONTINUOUS
 62
    3
 10
387.51795824097269
 20
565.45583080107781
 11
387.51795824097269
 21
560.75583080107799
  0
LINE
  8
_0-1_計細線
  6
CONTINUOUS
 62
    3
 10
385.51795824097269
 20
565.45583080107781
 11
385.51795824097269
 21
560.75583080107799
  0
LINE
  8
_0-1_計細線
  6
CONTINUOUS
 62
    3
 10
383.51795824097275
 20
565.45583080107781
 11
383.51795824097275
 21
560.75583080107799
  0
LINE
  8
_0-d_寸法3
  6
CONTINUOUS
 62
    7
 10
451.63992445384292
 20
268.36412902531367
 11
451.63992445384292
 21
313.36412902531367
  0
LINE
  8
_0-d_寸法3
  6
CONTINUOUS
 62
    7
 10
451.63992445384292
 20
308.36412902531367
 11
461.29918271673364
 21
310.95231947633886
  0
LINE
  8
_0-d_寸法3
  6
CONTINUOUS
 62
    7
 10
451.63992445384292
 20
308.36412902531367
 11
461.29918271673364
 21
305.77593857428849
  0
LINE
  8
_0-d_寸法3
  6
CONTINUOUS
 62
    7
 10
480.63992445444597
 20
268.36412902531367
 11
480.63992445444597
 21
313.36412902531367
  0
LINE
  8
_0-d_寸法3
  6
CONTINUOUS
 62
    7
 10
480.63992445444597
 20
308.36412902531367
 11
470.98066619155526
 21
305.77593857428849
  0
LINE
  8
_0-d_寸法3
  6
CONTINUOUS
 62
    7
 10
480.63992445444597
 20
308.36412902531367
 11
470.98066619155531
 21
310.95231947633891
  0
LINE
  8
_0-d_寸法3
  6
CONTINUOUS
 62
    7
 10
451.63992445384292
 20
308.36412902531367
 11
480.63992445444597
 21
308.36412902531367
  0
TEXT
  8
_0-d_寸法3
 62
    7
 10
440.09374654420213
 20
293.36412902531367
 40
15
 41
1
 50
0
  1
(17.4)
  0
LINE
  8
_0-d_寸法3
  6
CONTINUOUS
 62
    7
 10
480.63992445444597
 20
308.36412902531367
 11
490.29918271733663
 21
310.9523194763388
  0
LINE
  8
_0-d_寸法3
  6
CONTINUOUS
 62
    7
 10
480.63992445444597
 20
308.36412902531367
 11
490.29918271733663
 21
305.77593857428843
  0
LINE
  8
_0-d_寸法3
  6
CONTINUOUS
 62
    7
 10
509.63992445504891
 20
268.36412902531367
 11
509.63992445504891
 21
313.36412902531367
  0
LINE
  8
_0-d_寸法3
  6
CONTINUOUS
 62
    7
 10
509.63992445504891
 20
308.36412902531367
 11
499.9806661921582
 21
305.77593857428849
  0
LINE
  8
_0-d_寸法3
  6
CONTINUOUS
 62
    7
 10
509.63992445504891
 20
308.36412902531367
 11
499.98066619215825
 21
310.95231947633891
  0
LINE
  8
_0-d_寸法3
  6
CONTINUOUS
 62
    7
 10
480.63992445444597
 20
308.36412902531367
 11
509.63992445504891
 21
308.36412902531367
  0
TEXT
  8
_0-d_寸法3
 62
    7
 10
477.16041321086828
 20
308.36412902531367
 40
15
 41
1
 50
0
  1
(17.4)
  0
LINE
  8
_0-d_寸法3
  6
CONTINUOUS
 62
    7
 10
403.13992445048143
 20
268.36412902531367
 11
403.13992445048143
 21
313.36412902531367
  0
LINE
  8
_0-d_寸法3
  6
CONTINUOUS
 62
    7
 10
403.13992445048143
 20
308.36412902531367
 11
393.48066618759077
 21
305.77593857428849
  0
LINE
  8
_0-d_寸法3
  6
CONTINUOUS
 62
    7
 10
403.13992445048143
 20
308.36412902531367
 11
393.48066618759077
 21
310.95231947633891
  0
LINE
  8
_0-d_寸法3
  6
CONTINUOUS
 62
    7
 10
413.13992445476237
 20
268.36412902531367
 11
413.13992445476242
 21
313.36412902531367
  0
LINE
  8
_0-d_寸法3
  6
CONTINUOUS
 62
    7
 10
378.76596876731406
 20
308.36412902531367
 11
413.13992445476242
 21
308.36412902531367
  0
TEXT
  8
_0-d_寸法3
 62
    7
 10
378.76596876731406
 20
293.36412902531367
 40
15
 41
1
 50
0
  1
(6)
  0
LINE
  8
_0-d_寸法3
  6
CONTINUOUS
 62
    7
 10
413.13992445476242
 20
308.36412902531367
 11
422.79918271765314
 21
310.95231947633886
  0
LINE
  8
_0-d_寸法3
  6
CONTINUOUS
 62
    7
 10
413.13992445476242
 20
308.36412902531367
 11
422.79918271765314
 21
305.77593857428849
  0
LINE
  8
_0-d_寸法3
  6
CONTINUOUS
 62
    7
 10
432.13992445108352
 20
268.36412902531367
 11
432.13992445108363
 21
313.36412902531367
  0
LINE
  8
_0-d_寸法3
  6
CONTINUOUS
 62
    7
 10
432.13992445108363
 20
308.36412902531367
 11
422.48066618819286
 21
305.77593857428849
  0
LINE
  8
_0-d_寸法3
  6
CONTINUOUS
 62
    7
 10
432.13992445108363
 20
308.36412902531367
 11
422.48066618819291
 21
310.95231947633891
  0
LINE
  8
_0-d_寸法3
  6
CONTINUOUS
 62
    7
 10
413.13992445476242
 20
308.36412902531367
 11
432.13992445108363
 21
308.36412902531367
  0
TEXT
  8
_0-d_寸法3
 62
    7
 10
403.87522802657327
 20
308.36412902531367
 40
15
 41
1
 50
0
  1
11.4
  0
LINE
  8
_0-1_計細線
  6
CONTINUOUS
 62
    3
 10
1095.850000000733
 20
640.95999999999992
 11
1100.3000000005518
 21
640.95999999999992
  0
LINE
  8
_0-1_計細線
  6
CONTINUOUS
 62
    3
 10
1086.7000000001535
 20
640.95999999999992
 11
1091.1500000007327
 21
640.95999999999992
  0
LINE
  8
_0-1_計細線
  6
CONTINUOUS
 62
    3
 10
1086.7000000011183
 20
653.95999999999958
 11
1091.1500000007327
 21
653.95999999999958
  0
LINE
  8
_0-1_計細線
  6
CONTINUOUS
 62
    3
 10
1095.850000000733
 20
653.95999999999958
 11
1100.300000000552
 21
653.95999999999958
  0
ARC
  8
_0-1_計細線
  6
CONTINUOUS
 62
    3
 10
1080.3000000011034
 20
656.65999999999985
 40
1.0000000000000004
 50
89.999999999999915
 51
179.99999999999983
  0
ARC
  8
_0-1_計細線
  6
CONTINUOUS
 62
    3
 10
1080.7679491924309
 20
658.6599999999994
 40
1.0000000000000004
 50
269.99999999999977
 51
330.00000000002012
  0
ARC
  8
_0-1_計細線
  6
CONTINUOUS
 62
    3
 10
1082.5
 20
657.65999999999963
 40
1.0000000000000004
 50
89.999999999999915
 51
149.99999999999622
  0
LINE
  8
_0-1_計細線
  6
CONTINUOUS
 62
    3
 10
1080.3000000011034
 20
657.65999999999963
 11
1080.7679491924309
 21
657.65999999999963
  0
ARC
  8
_0-1_計細線
  6
CONTINUOUS
 62
    3
 10
1089.6999999988966
 20
656.65999999999985
 40
1.0000000000000004
 50
0
 51
89.999999999999915
  0
ARC
  8
_0-1_計細線
  6
CONTINUOUS
 62
    3
 10
1089.2320508075688
 20
658.6599999999994
 40
1.0000000000000004
 50
209.99999999998565
 51
269.99999999999977
  0
ARC
  8
_0-1_計細線
  6
CONTINUOUS
 62
    3
 10
1087.5
 20
657.65999999999963
 40
1.0000000000000004
 50
30.000000000003801
 51
89.999999999999929
  0
LINE
  8
_0-1_計細線
  6
CONTINUOUS
 62
    3
 10
1089.6999999988966
 20
657.65999999999963
 11
1089.2320508075688
 21
657.65999999999963
  0
ARC
  8
_0-1_計細線
  6
CONTINUOUS
 62
    3
 10
1079.8000000011034
 20
655.25999999999999
 40
0.5000000000000002
 50
179.99999999999983
 51
269.99999999999977
  0
LINE
  8
_0-1_計細線
  6
CONTINUOUS
 62
    3
 10
1079.3000000011036
 20
656.65999999999985
 11
1079.3000000011036
 21
655.25999999999999
  0
ARC
  8
_0-1_計細線
  6
CONTINUOUS
 62
    3
 10
1090.1999999988966
 20
655.25999999999999
 40
0.5000000000000002
 50
269.99999999999977
 51
359.99999999999966
  0
LINE
  8
_0-1_計細線
  6
CONTINUOUS
 62
    3
 10
1090.6999999988966
 20
656.65999999999985
 11
1090.6999999988966
 21
655.25999999999999
  0
ARC
  8
_0-1_計細線
  6
CONTINUOUS
 62
    3
 10
1082.3000000011036
 20
653.75999999999999
 40
1.0000000000000004
 50
0
 51
89.999999999999915
  0
LINE
  8
_0-1_計細線
  6
CONTINUOUS
 62
    3
 10
1082.3000000011036
 20
654.75999999999954
 11
1079.8000000011034
 21
654.75999999999954
  0
ARC
  8
_0-1_計細線
  6
CONTINUOUS
 62
    3
 10
1087.7000000011037
 20
653.75999999999999
 40
1.0000000000000004
 50
89.999999999999915
 51
179.99999999999983
  0
LINE
  8
_0-1_計細線
  6
CONTINUOUS
 62
    3
 10
1087.6999999988966
 20
654.75999999999954
 11
1090.1999999988966
 21
654.75999999999954
  0
LINE
  8
_0-1_計細線
  6
CONTINUOUS
 62
    3
 10
1087.5
 20
658.6599999999994
 11
1082.5
 21
658.6599999999994
  0
LINE
  8
_0-1_計細線
  6
CONTINUOUS
 62
    3
 10
1083.3
 20
638.65999999999985
 11
1083.3000000011034
 21
653.75999999999999
  0
LINE
  8
_0-1_計細線
  6
CONTINUOUS
 62
    3
 10
1086.6999999999998
 20
638.65999999999985
 11
1086.7000000011035
 21
653.75999999999999
  0
LINE
  8
_0-1_計細線
  6
CONTINUOUS
 62
    3
 10
1086.6999999999998
 20
638.65999999999985
 11
1083.3
 21
638.65999999999985
  0
LINE
  8
_0-1_計細線
  6
CONTINUOUS
 62
    3
 10
930.60000018883079
 20
653.95999999999958
 11
917.40000018883075
 21
653.95999999999958
  0
LINE
  8
_0-1_計細線
  6
CONTINUOUS
 62
    3
 10
930.60000018883045
 20
640.95999999999992
 11
917.40000018883075
 21
640.95999999999992
  0
LINE
  8
_0-1_計細線
  6
CONTINUOUS
 62
    3
 10
947.30000018900239
 20
653.95999999999958
 11
934.00000018900232
 21
653.95999999999958
  0
LINE
  8
_0-1_計細線
  6
CONTINUOUS
 62
    3
 10
947.30000018900239
 20
640.95999999999992
 11
934.00000018900232
 21
640.95999999999992
  0
LINE
  8
_0-1_計細線
  6
CONTINUOUS
 62
    3
 10
964.30000018902081
 20
653.95999999999958
 11
950.70000018902067
 21
653.95999999999958
  0
LINE
  8
_0-1_計細線
  6
CONTINUOUS
 62
    3
 10
981.30000018919247
 20
653.95999999999958
 11
967.70000018919234
 21
653.95999999999958
  0
LINE
  8
_0-1_計細線
  6
CONTINUOUS
 62
    3
 10
998.30000018936414
 20
653.95999999999958
 11
984.700000189364
 21
653.95999999999958
  0
LINE
  8
_0-1_計細線
  6
CONTINUOUS
 62
    3
 10
1015.300000189536
 20
653.95999999999958
 11
1001.7000001895358
 21
653.95999999999958
  0
LINE
  8
_0-1_計細線
  6
CONTINUOUS
 62
    3
 10
964.30000018902035
 20
640.95999999999992
 11
950.7000001890201
 21
640.95999999999992
  0
LINE
  8
_0-1_計細線
  6
CONTINUOUS
 62
    3
 10
981.30000018919213
 20
640.95999999999992
 11
967.70000018919234
 21
640.95999999999992
  0
LINE
  8
_0-1_計細線
  6
CONTINUOUS
 62
    3
 10
998.30000018936414
 20
640.95999999999992
 11
984.700000189364
 21
640.95999999999992
  0
LINE
  8
_0-1_計細線
  6
CONTINUOUS
 62
    3
 10
1015.3000001895361
 20
640.95999999999992
 11
1001.700000189536
 21
640.95999999999992
  0
LINE
  8
_0-1_計細線
  6
CONTINUOUS
 62
    3
 10
1239.4000000025142
 20
653.95999999999958
 11
1252.6000000025142
 21
653.95999999999958
  0
LINE
  8
_0-1_計細線
  6
CONTINUOUS
 62
    3
 10
1239.4000000025142
 20
640.95999999999992
 11
1252.6000000025144
 21
640.95999999999992
  0
LINE
  8
_0-1_計細線
  6
CONTINUOUS
 62
    3
 10
1222.7000000023424
 20
653.95999999999958
 11
1236.0000000023429
 21
653.95999999999958
  0
LINE
  8
_0-1_計細線
  6
CONTINUOUS
 62
    3
 10
1222.7000000023424
 20
640.95999999999992
 11
1236.0000000023429
 21
640.95999999999992
  0
LINE
  8
_0-1_計細線
  6
CONTINUOUS
 62
    3
 10
1205.700000002324
 20
653.95999999999958
 11
1219.3000000023242
 21
653.95999999999958
  0
LINE
  8
_0-1_計細線
  6
CONTINUOUS
 62
    3
 10
1188.7000000021524
 20
653.95999999999958
 11
1202.3000000021525
 21
653.95999999999958
  0
LINE
  8
_0-1_計細線
  6
CONTINUOUS
 62
    3
 10
1171.7000000019807
 20
653.95999999999958
 11
1185.3000000019808
 21
653.95999999999958
  0
LINE
  8
_0-1_計細線
  6
CONTINUOUS
 62
    3
 10
1018.6999999994662
 20
653.95999999999958
 11
1032.2999999994663
 21
653.95999999999958
  0
LINE
  8
_0-1_計細線
  6
CONTINUOUS
 62
    3
 10
1154.7000000018088
 20
653.95999999999958
 11
1168.3000000018092
 21
653.95999999999958
  0
LINE
  8
_0-1_計細線
  6
CONTINUOUS
 62
    3
 10
1137.7000000014468
 20
653.95999999999958
 11
1151.300000001447
 21
653.95999999999958
  0
LINE
  8
_0-1_計細線
  6
CONTINUOUS
 62
    3
 10
1035.6999999994664
 20
653.95999999999958
 11
1049.2999999994665
 21
653.95999999999958
  0
LINE
  8
_0-1_計細線
  6
CONTINUOUS
 62
    3
 10
1052.6999999998288
 20
653.95999999999958
 11
1066.2999999998283
 21
653.95999999999958
  0
LINE
  8
_0-1_計細線
  6
CONTINUOUS
 62
    3
 10
1069.7000000001901
 20
653.95999999999958
 11
1083.3000000001898
 21
653.95999999999958
  0
LINE
  8
_0-1_計細線
  6
CONTINUOUS
 62
    3
 10
1103.7000000009134
 20
653.95999999999958
 11
1117.3000000009138
 21
653.95999999999958
  0
LINE
  8
_0-1_計細線
  6
CONTINUOUS
 62
    3
 10
1120.7000000012756
 20
653.95999999999958
 11
1134.3000000012753
 21
653.95999999999958
  0
LINE
  8
_0-1_計細線
  6
CONTINUOUS
 62
    3
 10
1205.7000000023243
 20
640.95999999999992
 11
1219.3000000023244
 21
640.95999999999992
  0
LINE
  8
_0-1_計細線
  6
CONTINUOUS
 62
    3
 10
1188.7000000021528
 20
640.95999999999992
 11
1202.3000000021525
 21
640.95999999999992
  0
LINE
  8
_0-1_計細線
  6
CONTINUOUS
 62
    3
 10
1171.7000000019807
 20
640.95999999999992
 11
1185.3000000019806
 21
640.95999999999992
  0
LINE
  8
_0-1_計細線
  6
CONTINUOUS
 62
    3
 10
1018.6999999994662
 20
640.95999999999992
 11
1032.2999999994663
 21
640.95999999999992
  0
LINE
  8
_0-1_計細線
  6
CONTINUOUS
 62
    3
 10
1154.7000000018086
 20
640.95999999999992
 11
1168.3000000018087
 21
640.95999999999992
  0
LINE
  8
_0-1_計細線
  6
CONTINUOUS
 62
    3
 10
1137.7000000014471
 20
640.95999999999992
 11
1151.3000000014472
 21
640.95999999999992
  0
LINE
  8
_0-1_計細線
  6
CONTINUOUS
 62
    3
 10
1035.6999999994662
 20
640.95999999999992
 11
1049.2999999994663
 21
640.95999999999992
  0
LINE
  8
_0-1_計細線
  6
CONTINUOUS
 62
    3
 10
1052.6999999998284
 20
640.95999999999992
 11
1066.2999999998283
 21
640.95999999999992
  0
LINE
  8
_0-1_計細線
  6
CONTINUOUS
 62
    3
 10
1069.7000000001899
 20
640.95999999999992
 11
1083.3000000001898
 21
640.95999999999992
  0
LINE
  8
_0-1_計細線
  6
CONTINUOUS
 62
    3
 10
1103.7000000009134
 20
640.95999999999992
 11
1117.3000000009133
 21
640.95999999999992
  0
LINE
  8
_0-1_計細線
  6
CONTINUOUS
 62
    3
 10
1120.7000000012754
 20
640.95999999999992
 11
1134.3000000012757
 21
640.95999999999992
  0
ARC
  8
_0-1_計細線
  6
CONTINUOUS
 62
    3
 10
920.40000018776391
 20
656.65999999999985
 40
1.0000000000000004
 50
0
 51
89.999999999999915
  0
ARC
  8
_0-1_計細線
  6
CONTINUOUS
 62
    3
 10
919.93205099643603
 20
658.6599999999994
 40
1.0000000000000004
 50
209.99999999998889
 51
269.99999999999977
  0
ARC
  8
_0-1_計細線
  6
CONTINUOUS
 62
    3
 10
918.20000018886731
 20
657.65999999999963
 40
1.0000000000000004
 50
30.000000000007059
 51
89.999999999999929
  0
LINE
  8
_0-1_計細線
  6
CONTINUOUS
 62
    3
 10
920.40000018776391
 20
657.65999999999963
 11
919.93205099643603
 21
657.65999999999963
  0
ARC
  8
_0-1_計細線
  6
CONTINUOUS
 62
    3
 10
911.00000018997048
 20
656.65999999999985
 40
1.0000000000000004
 50
89.999999999999915
 51
179.99999999999983
  0
ARC
  8
_0-1_計細線
  6
CONTINUOUS
 62
    3
 10
911.46794938129847
 20
658.6599999999994
 40
1.0000000000000004
 50
269.99999999999977
 51
330.00000000001035
  0
ARC
  8
_0-1_計細線
  6
CONTINUOUS
 62
    3
 10
913.20000018886731
 20
657.65999999999963
 40
1.0000000000000004
 50
90.00000000001954
 51
150.00000000000273
  0
LINE
  8
_0-1_計細線
  6
CONTINUOUS
 62
    3
 10
911.00000018997048
 20
657.65999999999963
 11
911.46794938129847
 21
657.65999999999963
  0
ARC
  8
_0-1_計細線
  6
CONTINUOUS
 62
    3
 10
920.90000018776379
 20
655.25999999999999
 40
0.5000000000000002
 50
269.99999999999977
 51
359.99999999999966
  0
LINE
  8
_0-1_計細線
  6
CONTINUOUS
 62
    3
 10
921.40000018776345
 20
656.65999999999985
 11
921.40000018776345
 21
655.25999999999999
  0
ARC
  8
_0-1_計細線
  6
CONTINUOUS
 62
    3
 10
910.50000018997082
 20
655.25999999999999
 40
0.5000000000000002
 50
179.99999999999983
 51
269.99999999999977
  0
LINE
  8
_0-1_計細線
  6
CONTINUOUS
 62
    3
 10
910.00000018997082
 20
656.65999999999985
 11
910.00000018997082
 21
655.25999999999999
  0
ARC
  8
_0-1_計細線
  6
CONTINUOUS
 62
    3
 10
918.40000018776345
 20
653.75999999999999
 40
1.0000000000000004
 50
89.999999999999915
 51
179.99999999999983
  0
LINE
  8
_0-1_計細線
  6
CONTINUOUS
 62
    3
 10
918.40000018776345
 20
654.75999999999954
 11
920.90000018776379
 21
654.75999999999954
  0
ARC
  8
_0-1_計細線
  6
CONTINUOUS
 62
    3
 10
913.00000018776359
 20
653.75999999999999
 40
1.0000000000000004
 50
0
 51
89.999999999999915
  0
LINE
  8
_0-1_計細線
  6
CONTINUOUS
 62
    3
 10
913.00000018997082
 20
654.75999999999954
 11
910.50000018997082
 21
654.75999999999954
  0
LINE
  8
_0-1_計細線
  6
CONTINUOUS
 62
    3
 10
913.20000018886731
 20
658.6599999999994
 11
918.20000018886731
 21
658.6599999999994
  0
LINE
  8
_0-1_計細線
  6
CONTINUOUS
 62
    3
 10
917.40000018886735
 20
638.65999999999985
 11
917.40000018776357
 21
653.75999999999999
  0
LINE
  8
_0-1_計細線
  6
CONTINUOUS
 62
    3
 10
914.00000018886715
 20
638.65999999999985
 11
914.00000018776325
 21
653.75999999999999
  0
LINE
  8
_0-1_計細線
  6
CONTINUOUS
 62
    3
 10
914.00000018886715
 20
638.65999999999985
 11
917.40000018886735
 21
638.65999999999985
  0
ARC
  8
_0-1_計細線
  6
CONTINUOUS
 62
    3
 10
937.00000018808907
 20
656.65999999999985
 40
1.0000000000000004
 50
0
 51
89.999999999999915
  0
ARC
  8
_0-1_計細線
  6
CONTINUOUS
 62
    3
 10
936.53205099676143
 20
658.6599999999994
 40
1.0000000000000004
 50
209.99999999998889
 51
269.99999999999977
  0
ARC
  8
_0-1_計細線
  6
CONTINUOUS
 62
    3
 10
934.80000018919259
 20
657.65999999999963
 40
1.0000000000000004
 50
30.000000000000544
 51
89.999999999999929
  0
LINE
  8
_0-1_計細線
  6
CONTINUOUS
 62
    3
 10
937.00000018808907
 20
657.65999999999963
 11
936.53205099676143
 21
657.65999999999963
  0
ARC
  8
_0-1_計細線
  6
CONTINUOUS
 62
    3
 10
927.60000019029587
 20
656.65999999999985
 40
1.0000000000000004
 50
89.999999999999915
 51
179.99999999999983
  0
ARC
  8
_0-1_計細線
  6
CONTINUOUS
 62
    3
 10
928.06794938162386
 20
658.6599999999994
 40
1.0000000000000004
 50
269.99999999999977
 51
330.00000000001364
  0
ARC
  8
_0-1_計細線
  6
CONTINUOUS
 62
    3
 10
929.8000001891927
 20
657.65999999999963
 40
1.0000000000000004
 50
90.000000000013031
 51
149.99999999999622
  0
LINE
  8
_0-1_計細線
  6
CONTINUOUS
 62
    3
 10
927.60000019029587
 20
657.65999999999963
 11
928.06794938162386
 21
657.65999999999963
  0
ARC
  8
_0-1_計細線
  6
CONTINUOUS
 62
    3
 10
937.50000018808919
 20
655.25999999999999
 40
0.5000000000000002
 50
269.99999999999977
 51
359.99999999999966
  0
LINE
  8
_0-1_計細線
  6
CONTINUOUS
 62
    3
 10
938.00000018808885
 20
656.65999999999985
 11
938.00000018808885
 21
655.25999999999999
  0
ARC
  8
_0-1_計細線
  6
CONTINUOUS
 62
    3
 10
927.1000001902961
 20
655.25999999999999
 40
0.5000000000000002
 50
179.99999999999983
 51
269.99999999999977
  0
LINE
  8
_0-1_計細線
  6
CONTINUOUS
 62
    3
 10
926.60000019029621
 20
656.65999999999985
 11
926.60000019029621
 21
655.25999999999999
  0
ARC
  8
_0-1_計細線
  6
CONTINUOUS
 62
    3
 10
935.00000018808896
 20
653.75999999999999
 40
1.0000000000000004
 50
89.999999999999915
 51
179.99999999999983
  0
LINE
  8
_0-1_計細線
  6
CONTINUOUS
 62
    3
 10
935.00000018808896
 20
654.75999999999954
 11
937.50000018808919
 21
654.75999999999954
  0
ARC
  8
_0-1_計細線
  6
CONTINUOUS
 62
    3
 10
929.60000018808898
 20
653.75999999999999
 40
1.0000000000000004
 50
0
 51
89.999999999999915
  0
LINE
  8
_0-1_計細線
  6
CONTINUOUS
 62
    3
 10
929.60000019029621
 20
654.75999999999954
 11
927.1000001902961
 21
654.75999999999954
  0
LINE
  8
_0-1_計細線
  6
CONTINUOUS
 62
    3
 10
929.8000001891927
 20
658.6599999999994
 11
934.80000018919259
 21
658.6599999999994
  0
LINE
  8
_0-1_計細線
  6
CONTINUOUS
 62
    3
 10
934.00000018919275
 20
638.65999999999985
 11
934.00000018808896
 21
653.75999999999999
  0
LINE
  8
_0-1_計細線
  6
CONTINUOUS
 62
    3
 10
930.60000018919254
 20
638.65999999999985
 11
930.60000018808921
 21
653.75999999999999
  0
LINE
  8
_0-1_計細線
  6
CONTINUOUS
 62
    3
 10
930.60000018919254
 20
638.65999999999985
 11
934.00000018919275
 21
638.65999999999985
  0
ARC
  8
_0-1_計細線
  6
CONTINUOUS
 62
    3
 10
953.7000001881072
 20
656.65999999999985
 40
1.0000000000000004
 50
0
 51
89.999999999999915
  0
ARC
  8
_0-1_計細線
  6
CONTINUOUS
 62
    3
 10
953.23205099677944
 20
658.6599999999994
 40
1.0000000000000004
 50
209.99999999999542
 51
269.99999999999977
  0
ARC
  8
_0-1_計細線
  6
CONTINUOUS
 62
    3
 10
951.50000018921094
 20
657.65999999999963
 40
1.0000000000000004
 50
30.000000000000544
 51
89.999999999999929
  0
LINE
  8
_0-1_計細線
  6
CONTINUOUS
 62
    3
 10
953.7000001881072
 20
657.65999999999963
 11
953.23205099677944
 21
657.65999999999963
  0
ARC
  8
_0-1_計細線
  6
CONTINUOUS
 62
    3
 10
944.30000019031422
 20
656.65999999999985
 40
1.0000000000000004
 50
89.999999999999915
 51
179.99999999999983
  0
ARC
  8
_0-1_計細線
  6
CONTINUOUS
 62
    3
 10
944.76794938164164
 20
658.6599999999994
 40
1.0000000000000004
 50
269.99999999999977
 51
330.00000000001364
  0
ARC
  8
_0-1_計細線
  6
CONTINUOUS
 62
    3
 10
946.50000018921048
 20
657.65999999999963
 40
1.0000000000000004
 50
89.999999999999915
 51
149.99999999999946
  0
LINE
  8
_0-1_計細線
  6
CONTINUOUS
 62
    3
 10
944.30000019031422
 20
657.65999999999963
 11
944.76794938164164
 21
657.65999999999963
  0
ARC
  8
_0-1_計細線
  6
CONTINUOUS
 62
    3
 10
954.20000018810697
 20
655.25999999999999
 40
0.5000000000000002
 50
269.99999999999977
 51
359.99999999999966
  0
LINE
  8
_0-1_計細線
  6
CONTINUOUS
 62
    3
 10
954.70000018810708
 20
656.65999999999985
 11
954.70000018810708
 21
655.25999999999999
  0
ARC
  8
_0-1_計細線
  6
CONTINUOUS
 62
    3
 10
943.80000019031456
 20
655.25999999999999
 40
0.5000000000000002
 50
179.99999999999983
 51
269.99999999999977
  0
LINE
  8
_0-1_計細線
  6
CONTINUOUS
 62
    3
 10
943.30000019031399
 20
656.65999999999985
 11
943.30000019031399
 21
655.25999999999999
  0
ARC
  8
_0-1_計細線
  6
CONTINUOUS
 62
    3
 10
951.70000018810697
 20
653.75999999999999
 40
1.0000000000000004
 50
89.999999999999915
 51
179.99999999999983
  0
LINE
  8
_0-1_計細線
  6
CONTINUOUS
 62
    3
 10
951.70000018810697
 20
654.75999999999954
 11
954.20000018810697
 21
654.75999999999954
  0
ARC
  8
_0-1_計細線
  6
CONTINUOUS
 62
    3
 10
946.30000018810711
 20
653.75999999999999
 40
1.0000000000000004
 50
0
 51
89.999999999999915
  0
LINE
  8
_0-1_計細線
  6
CONTINUOUS
 62
    3
 10
946.30000019031456
 20
654.75999999999954
 11
943.80000019031456
 21
654.75999999999954
  0
LINE
  8
_0-1_計細線
  6
CONTINUOUS
 62
    3
 10
946.50000018921048
 20
658.6599999999994
 11
951.50000018921094
 21
658.6599999999994
  0
LINE
  8
_0-1_計細線
  6
CONTINUOUS
 62
    3
 10
950.70000018921053
 20
638.65999999999985
 11
950.7000001881072
 21
653.75999999999999
  0
LINE
  8
_0-1_計細線
  6
CONTINUOUS
 62
    3
 10
947.30000018921055
 20
638.65999999999985
 11
947.30000018810699
 21
653.75999999999999
  0
LINE
  8
_0-1_計細線
  6
CONTINUOUS
 62
    3
 10
947.30000018921055
 20
638.65999999999985
 11
950.70000018921053
 21
638.65999999999985
  0
ARC
  8
_0-1_計細線
  6
CONTINUOUS
 62
    3
 10
970.70000018827886
 20
656.65999999999985
 40
1.0000000000000004
 50
0
 51
89.999999999999915
  0
ARC
  8
_0-1_計細線
  6
CONTINUOUS
 62
    3
 10
970.23205099695144
 20
658.6599999999994
 40
1.0000000000000004
 50
209.99999999998889
 51
269.99999999999977
  0
ARC
  8
_0-1_計細線
  6
CONTINUOUS
 62
    3
 10
968.5000001893826
 20
657.65999999999963
 40
1.0000000000000004
 50
29.999999999997289
 51
89.999999999999929
  0
LINE
  8
_0-1_計細線
  6
CONTINUOUS
 62
    3
 10
970.70000018827886
 20
657.65999999999963
 11
970.23205099695144
 21
657.65999999999963
  0
ARC
  8
_0-1_計細線
  6
CONTINUOUS
 62
    3
 10
961.30000019048589
 20
656.65999999999985
 40
1.0000000000000004
 50
89.999999999999915
 51
179.99999999999983
  0
ARC
  8
_0-1_計細線
  6
CONTINUOUS
 62
    3
 10
961.76794938181365
 20
658.6599999999994
 40
1.0000000000000004
 50
269.99999999999977
 51
330.00000000000387
  0
ARC
  8
_0-1_計細線
  6
CONTINUOUS
 62
    3
 10
963.50000018938272
 20
657.65999999999963
 40
1.0000000000000004
 50
90.000000000032571
 51
150.00000000001575
  0
LINE
  8
_0-1_計細線
  6
CONTINUOUS
 62
    3
 10
961.30000019048589
 20
657.65999999999963
 11
961.76794938181365
 21
657.65999999999963
  0
ARC
  8
_0-1_計細線
  6
CONTINUOUS
 62
    3
 10
971.20000018827864
 20
655.25999999999999
 40
0.5000000000000002
 50
269.99999999999977
 51
359.99999999999966
  0
LINE
  8
_0-1_計細線
  6
CONTINUOUS
 62
    3
 10
971.70000018827909
 20
656.65999999999985
 11
971.70000018827909
 21
655.25999999999999
  0
ARC
  8
_0-1_計細線
  6
CONTINUOUS
 62
    3
 10
960.800000190486
 20
655.25999999999999
 40
0.5000000000000002
 50
179.99999999999983
 51
269.99999999999977
  0
LINE
  8
_0-1_計細線
  6
CONTINUOUS
 62
    3
 10
960.30000019048589
 20
656.65999999999985
 11
960.30000019048589
 21
655.25999999999999
  0
ARC
  8
_0-1_計細線
  6
CONTINUOUS
 62
    3
 10
968.70000018827909
 20
653.75999999999999
 40
1.0000000000000004
 50
89.999999999999915
 51
179.99999999999983
  0
LINE
  8
_0-1_計細線
  6
CONTINUOUS
 62
    3
 10
968.70000018827909
 20
654.75999999999954
 11
971.20000018827864
 21
654.75999999999954
  0
ARC
  8
_0-1_計細線
  6
CONTINUOUS
 62
    3
 10
963.300000188279
 20
653.75999999999999
 40
1.0000000000000004
 50
0
 51
89.999999999999915
  0
LINE
  8
_0-1_計細線
  6
CONTINUOUS
 62
    3
 10
963.30000019048612
 20
654.75999999999954
 11
960.800000190486
 21
654.75999999999954
  0
LINE
  8
_0-1_計細線
  6
CONTINUOUS
 62
    3
 10
963.50000018938272
 20
658.6599999999994
 11
968.5000001893826
 21
658.6599999999994
  0
LINE
  8
_0-1_計細線
  6
CONTINUOUS
 62
    3
 10
967.70000018938254
 20
638.65999999999985
 11
967.70000018827886
 21
653.75999999999999
  0
LINE
  8
_0-1_計細線
  6
CONTINUOUS
 62
    3
 10
964.30000018938256
 20
638.65999999999985
 11
964.30000018827855
 21
653.75999999999999
  0
LINE
  8
_0-1_計細線
  6
CONTINUOUS
 62
    3
 10
964.30000018938256
 20
638.65999999999985
 11
967.70000018938254
 21
638.65999999999985
  0
ARC
  8
_0-1_計細線
  6
CONTINUOUS
 62
    3
 10
987.70000018845053
 20
656.65999999999985
 40
1.0000000000000004
 50
0
 51
89.999999999999915
  0
ARC
  8
_0-1_計細線
  6
CONTINUOUS
 62
    3
 10
987.23205099712288
 20
658.6599999999994
 40
1.0000000000000004
 50
209.99999999998889
 51
269.99999999999977
  0
ARC
  8
_0-1_計細線
  6
CONTINUOUS
 62
    3
 10
985.50000018955427
 20
657.65999999999963
 40
1.0000000000000004
 50
30.000000000007059
 51
89.999999999999929
  0
LINE
  8
_0-1_計細線
  6
CONTINUOUS
 62
    3
 10
987.70000018845053
 20
657.65999999999963
 11
987.23205099712288
 21
657.65999999999963
  0
ARC
  8
_0-1_計細線
  6
CONTINUOUS
 62
    3
 10
978.30000019065778
 20
656.65999999999985
 40
1.0000000000000004
 50
89.999999999999915
 51
179.99999999999983
  0
ARC
  8
_0-1_計細線
  6
CONTINUOUS
 62
    3
 10
978.76794938198555
 20
658.6599999999994
 40
1.0000000000000004
 50
269.99999999999977
 51
330.00000000000387
  0
ARC
  8
_0-1_計細線
  6
CONTINUOUS
 62
    3
 10
980.50000018955416
 20
657.65999999999963
 40
1.0000000000000004
 50
90.000000000013031
 51
149.99999999999946
  0
LINE
  8
_0-1_計細線
  6
CONTINUOUS
 62
    3
 10
978.30000019065778
 20
657.65999999999963
 11
978.76794938198555
 21
657.65999999999963
  0
ARC
  8
_0-1_計細線
  6
CONTINUOUS
 62
    3
 10
988.20000018845064
 20
655.25999999999999
 40
0.5000000000000002
 50
269.99999999999977
 51
359.99999999999966
  0
LINE
  8
_0-1_計細線
  6
CONTINUOUS
 62
    3
 10
988.70000018845053
 20
656.65999999999985
 11
988.70000018845053
 21
655.25999999999999
  0
ARC
  8
_0-1_計細線
  6
CONTINUOUS
 62
    3
 10
977.80000019065767
 20
655.25999999999999
 40
0.5000000000000002
 50
179.99999999999983
 51
269.99999999999977
  0
LINE
  8
_0-1_計細線
  6
CONTINUOUS
 62
    3
 10
977.30000019065778
 20
656.65999999999985
 11
977.30000019065778
 21
655.25999999999999
  0
ARC
  8
_0-1_計細線
  6
CONTINUOUS
 62
    3
 10
985.70000018845064
 20
653.75999999999999
 40
1.0000000000000004
 50
89.999999999999915
 51
179.99999999999983
  0
LINE
  8
_0-1_計細線
  6
CONTINUOUS
 62
    3
 10
985.70000018845064
 20
654.75999999999954
 11
988.20000018845064
 21
654.75999999999954
  0
ARC
  8
_0-1_計細線
  6
CONTINUOUS
 62
    3
 10
980.30000018845044
 20
653.75999999999999
 40
1.0000000000000004
 50
0
 51
89.999999999999915
  0
LINE
  8
_0-1_計細線
  6
CONTINUOUS
 62
    3
 10
980.30000019065812
 20
654.75999999999954
 11
977.80000019065767
 21
654.75999999999954
  0
LINE
  8
_0-1_計細線
  6
CONTINUOUS
 62
    3
 10
980.50000018955416
 20
658.6599999999994
 11
985.50000018955427
 21
658.6599999999994
  0
LINE
  8
_0-1_計細線
  6
CONTINUOUS
 62
    3
 10
984.70000018955443
 20
638.65999999999985
 11
984.70000018845053
 21
653.75999999999999
  0
LINE
  8
_0-1_計細線
  6
CONTINUOUS
 62
    3
 10
981.300000189554
 20
638.65999999999985
 11
981.30000018845044
 21
653.75999999999999
  0
LINE
  8
_0-1_計細線
  6
CONTINUOUS
 62
    3
 10
981.300000189554
 20
638.65999999999985
 11
984.70000018955443
 21
638.65999999999985
  0
ARC
  8
_0-1_計細線
  6
CONTINUOUS
 62
    3
 10
1004.7000001886222
 20
656.65999999999985
 40
1.0000000000000004
 50
0
 51
89.999999999999915
  0
ARC
  8
_0-1_計細線
  6
CONTINUOUS
 62
    3
 10
1004.232050997295
 20
658.6599999999994
 40
1.0000000000000004
 50
209.99999999998565
 51
269.99999999999977
  0
ARC
  8
_0-1_計細線
  6
CONTINUOUS
 62
    3
 10
1002.5000001897261
 20
657.65999999999963
 40
1.0000000000000004
 50
30.000000000000544
 51
89.999999999999929
  0
LINE
  8
_0-1_計細線
  6
CONTINUOUS
 62
    3
 10
1004.7000001886222
 20
657.65999999999963
 11
1004.232050997295
 21
657.65999999999963
  0
ARC
  8
_0-1_計細線
  6
CONTINUOUS
 62
    3
 10
995.30000019082979
 20
656.65999999999985
 40
1.0000000000000004
 50
89.999999999999915
 51
179.99999999999983
  0
ARC
  8
_0-1_計細線
  6
CONTINUOUS
 62
    3
 10
995.76794938215721
 20
658.6599999999994
 40
1.0000000000000004
 50
269.99999999999977
 51
330.00000000001364
  0
ARC
  8
_0-1_計細線
  6
CONTINUOUS
 62
    3
 10
997.50000018972628
 20
657.65999999999963
 40
1.0000000000000004
 50
89.999999999999915
 51
149.99999999999946
  0
LINE
  8
_0-1_計細線
  6
CONTINUOUS
 62
    3
 10
995.30000019082979
 20
657.65999999999963
 11
995.76794938215721
 21
657.65999999999963
  0
ARC
  8
_0-1_計細線
  6
CONTINUOUS
 62
    3
 10
1005.2000001886227
 20
655.25999999999999
 40
0.5000000000000002
 50
269.99999999999977
 51
359.99999999999966
  0
LINE
  8
_0-1_計細線
  6
CONTINUOUS
 62
    3
 10
1005.7000001886224
 20
656.65999999999985
 11
1005.7000001886224
 21
655.25999999999999
  0
ARC
  8
_0-1_計細線
  6
CONTINUOUS
 62
    3
 10
994.80000019082968
 20
655.25999999999999
 40
0.5000000000000002
 50
179.99999999999983
 51
269.99999999999977
  0
LINE
  8
_0-1_計細線
  6
CONTINUOUS
 62
    3
 10
994.30000019082968
 20
656.65999999999985
 11
994.30000019082968
 21
655.25999999999999
  0
ARC
  8
_0-1_計細線
  6
CONTINUOUS
 62
    3
 10
1002.7000001886224
 20
653.75999999999999
 40
1.0000000000000004
 50
89.999999999999915
 51
179.99999999999983
  0
LINE
  8
_0-1_計細線
  6
CONTINUOUS
 62
    3
 10
1002.7000001886224
 20
654.75999999999954
 11
1005.2000001886227
 21
654.75999999999954
  0
ARC
  8
_0-1_計細線
  6
CONTINUOUS
 62
    3
 10
997.30000018862245
 20
653.75999999999999
 40
1.0000000000000004
 50
0
 51
89.999999999999915
  0
LINE
  8
_0-1_計細線
  6
CONTINUOUS
 62
    3
 10
997.30000019082979
 20
654.75999999999954
 11
994.80000019082968
 21
654.75999999999954
  0
LINE
  8
_0-1_計細線
  6
CONTINUOUS
 62
    3
 10
997.50000018972628
 20
658.6599999999994
 11
1002.5000001897261
 21
658.6599999999994
  0
LINE
  8
_0-1_計細線
  6
CONTINUOUS
 62
    3
 10
1001.7000001897261
 20
638.65999999999985
 11
1001.7000001886225
 21
653.75999999999999
  0
LINE
  8
_0-1_計細線
  6
CONTINUOUS
 62
    3
 10
998.30000018972612
 20
638.65999999999985
 11
998.30000018862211
 21
653.75999999999999
  0
LINE
  8
_0-1_計細線
  6
CONTINUOUS
 62
    3
 10
998.30000018972612
 20
638.65999999999985
 11
1001.7000001897261
 21
638.65999999999985
  0
ARC
  8
_0-1_計細線
  6
CONTINUOUS
 62
    3
 10
1249.6000000035813
 20
656.65999999999985
 40
1.0000000000000004
 50
89.999999999999915
 51
179.99999999999983
  0
ARC
  8
_0-1_計細線
  6
CONTINUOUS
 62
    3
 10
1250.0679491949088
 20
658.6599999999994
 40
1.0000000000000004
 50
269.99999999999977
 51
330.00000000001364
  0
ARC
  8
_0-1_計細線
  6
CONTINUOUS
 62
    3
 10
1251.8000000024774
 20
657.65999999999963
 40
1.0000000000000004
 50
89.999999999999915
 51
149.99999999998971
  0
LINE
  8
_0-1_計細線
  6
CONTINUOUS
 62
    3
 10
1249.6000000035813
 20
657.65999999999963
 11
1250.0679491949088
 21
657.65999999999963
  0
ARC
  8
_0-1_計細線
  6
CONTINUOUS
 62
    3
 10
1259.000000001374
 20
656.65999999999985
 40
1.0000000000000004
 50
0
 51
89.999999999999915
  0
ARC
  8
_0-1_計細線
  6
CONTINUOUS
 62
    3
 10
1258.5320508100467
 20
658.6599999999994
 40
1.0000000000000004
 50
209.99999999998565
 51
269.99999999999977
  0
ARC
  8
_0-1_計細線
  6
CONTINUOUS
 62
    3
 10
1256.8000000024776
 20
657.65999999999963
 40
1.0000000000000004
 50
30.000000000003801
 51
89.999999999986969
  0
LINE
  8
_0-1_計細線
  6
CONTINUOUS
 62
    3
 10
1259.000000001374
 20
657.65999999999963
 11
1258.5320508100467
 21
657.65999999999963
  0
ARC
  8
_0-1_計細線
  6
CONTINUOUS
 62
    3
 10
1249.100000003581
 20
655.25999999999999
 40
0.5000000000000002
 50
179.99999999999983
 51
269.99999999999977
  0
LINE
  8
_0-1_計細線
  6
CONTINUOUS
 62
    3
 10
1248.6000000035813
 20
656.65999999999985
 11
1248.6000000035813
 21
655.25999999999999
  0
ARC
  8
_0-1_計細線
  6
CONTINUOUS
 62
    3
 10
1259.5000000013742
 20
655.25999999999999
 40
0.5000000000000002
 50
269.99999999999977
 51
359.99999999999966
  0
LINE
  8
_0-1_計細線
  6
CONTINUOUS
 62
    3
 10
1260.000000001374
 20
656.65999999999985
 11
1260.000000001374
 21
655.25999999999999
  0
ARC
  8
_0-1_計細線
  6
CONTINUOUS
 62
    3
 10
1251.6000000035815
 20
653.75999999999999
 40
1.0000000000000004
 50
0
 51
89.999999999999915
  0
LINE
  8
_0-1_計細線
  6
CONTINUOUS
 62
    3
 10
1251.6000000035815
 20
654.75999999999954
 11
1249.100000003581
 21
654.75999999999954
  0
ARC
  8
_0-1_計細線
  6
CONTINUOUS
 62
    3
 10
1257.0000000035814
 20
653.75999999999999
 40
1.0000000000000004
 50
89.999999999999915
 51
179.99999999999983
  0
LINE
  8
_0-1_計細線
  6
CONTINUOUS
 62
    3
 10
1257.000000001374
 20
654.75999999999954
 11
1259.5000000013742
 21
654.75999999999954
  0
LINE
  8
_0-1_計細線
  6
CONTINUOUS
 62
    3
 10
1256.8000000024776
 20
658.6599999999994
 11
1251.8000000024774
 21
658.6599999999994
  0
LINE
  8
_0-1_計細線
  6
CONTINUOUS
 62
    3
 10
1252.6000000024778
 20
638.65999999999985
 11
1252.6000000035813
 21
653.75999999999999
  0
LINE
  8
_0-1_計細線
  6
CONTINUOUS
 62
    3
 10
1256.0000000024777
 20
638.65999999999985
 11
1256.0000000035814
 21
653.75999999999999
  0
LINE
  8
_0-1_計細線
  6
CONTINUOUS
 62
    3
 10
1256.0000000024777
 20
638.65999999999985
 11
1252.6000000024778
 21
638.65999999999985
  0
ARC
  8
_0-1_計細線
  6
CONTINUOUS
 62
    3
 10
1233.0000000032558
 20
656.65999999999985
 40
1.0000000000000004
 50
89.999999999999915
 51
179.99999999999983
  0
ARC
  8
_0-1_計細線
  6
CONTINUOUS
 62
    3
 10
1233.4679491945835
 20
658.6599999999994
 40
1.0000000000000004
 50
269.99999999999977
 51
330.00000000000711
  0
ARC
  8
_0-1_計細線
  6
CONTINUOUS
 62
    3
 10
1235.2000000021526
 20
657.65999999999963
 40
1.0000000000000004
 50
89.999999999999915
 51
150.00000000000273
  0
LINE
  8
_0-1_計細線
  6
CONTINUOUS
 62
    3
 10
1233.0000000032558
 20
657.65999999999963
 11
1233.4679491945835
 21
657.65999999999963
  0
ARC
  8
_0-1_計細線
  6
CONTINUOUS
 62
    3
 10
1242.400000001049
 20
656.65999999999985
 40
1.0000000000000004
 50
0
 51
89.999999999999915
  0
ARC
  8
_0-1_計細線
  6
CONTINUOUS
 62
    3
 10
1241.932050809721
 20
658.6599999999994
 40
1.0000000000000004
 50
209.99999999999216
 51
269.99999999999977
  0
ARC
  8
_0-1_計細線
  6
CONTINUOUS
 62
    3
 10
1240.2000000021521
 20
657.65999999999963
 40
1.0000000000000004
 50
29.999999999997289
 51
89.999999999986969
  0
LINE
  8
_0-1_計細線
  6
CONTINUOUS
 62
    3
 10
1242.400000001049
 20
657.65999999999963
 11
1241.932050809721
 21
657.65999999999963
  0
ARC
  8
_0-1_計細線
  6
CONTINUOUS
 62
    3
 10
1232.5000000032558
 20
655.25999999999999
 40
0.5000000000000002
 50
179.99999999999983
 51
269.99999999999977
  0
LINE
  8
_0-1_計細線
  6
CONTINUOUS
 62
    3
 10
1232.000000003256
 20
656.65999999999985
 11
1232.000000003256
 21
655.25999999999999
  0
ARC
  8
_0-1_計細線
  6
CONTINUOUS
 62
    3
 10
1242.9000000010487
 20
655.25999999999999
 40
0.5000000000000002
 50
269.99999999999977
 51
359.99999999999966
  0
LINE
  8
_0-1_計細線
  6
CONTINUOUS
 62
    3
 10
1243.4000000010487
 20
656.65999999999985
 11
1243.4000000010487
 21
655.25999999999999
  0
ARC
  8
_0-1_計細線
  6
CONTINUOUS
 62
    3
 10
1235.000000003256
 20
653.75999999999999
 40
1.0000000000000004
 50
0
 51
89.999999999999915
  0
LINE
  8
_0-1_計細線
  6
CONTINUOUS
 62
    3
 10
1235.000000003256
 20
654.75999999999954
 11
1232.5000000032558
 21
654.75999999999954
  0
ARC
  8
_0-1_計細線
  6
CONTINUOUS
 62
    3
 10
1240.4000000032559
 20
653.75999999999999
 40
1.0000000000000004
 50
89.999999999999915
 51
179.99999999999983
  0
LINE
  8
_0-1_計細線
  6
CONTINUOUS
 62
    3
 10
1240.4000000010485
 20
654.75999999999954
 11
1242.9000000010487
 21
654.75999999999954
  0
LINE
  8
_0-1_計細線
  6
CONTINUOUS
 62
    3
 10
1240.2000000021521
 20
658.6599999999994
 11
1235.2000000021526
 21
658.6599999999994
  0
LINE
  8
_0-1_計細線
  6
CONTINUOUS
 62
    3
 10
1236.0000000021521
 20
638.65999999999985
 11
1236.0000000032558
 21
653.75999999999999
  0
LINE
  8
_0-1_計細線
  6
CONTINUOUS
 62
    3
 10
1239.4000000021524
 20
638.65999999999985
 11
1239.4000000032561
 21
653.75999999999999
  0
LINE
  8
_0-1_計細線
  6
CONTINUOUS
 62
    3
 10
1239.4000000021524
 20
638.65999999999985
 11
1236.0000000021521
 21
638.65999999999985
  0
ARC
  8
_0-1_計細線
  6
CONTINUOUS
 62
    3
 10
1216.3000000032378
 20
656.65999999999985
 40
1.0000000000000004
 50
89.999999999999915
 51
179.99999999999983
  0
ARC
  8
_0-1_計細線
  6
CONTINUOUS
 62
    3
 10
1216.7679491945651
 20
658.6599999999994
 40
1.0000000000000004
 50
269.99999999999977
 51
330.00000000001364
  0
ARC
  8
_0-1_計細線
  6
CONTINUOUS
 62
    3
 10
1218.5000000021339
 20
657.65999999999963
 40
1.0000000000000004
 50
89.999999999999915
 51
149.99999999999622
  0
LINE
  8
_0-1_計細線
  6
CONTINUOUS
 62
    3
 10
1216.3000000032378
 20
657.65999999999963
 11
1216.7679491945651
 21
657.65999999999963
  0
ARC
  8
_0-1_計細線
  6
CONTINUOUS
 62
    3
 10
1225.7000000010307
 20
656.65999999999985
 40
1.0000000000000004
 50
0
 51
89.999999999999915
  0
ARC
  8
_0-1_計細線
  6
CONTINUOUS
 62
    3
 10
1225.2320508097032
 20
658.6599999999994
 40
1.0000000000000004
 50
209.99999999998565
 51
269.99999999999977
  0
ARC
  8
_0-1_計細線
  6
CONTINUOUS
 62
    3
 10
1223.5000000021344
 20
657.65999999999963
 40
1.0000000000000004
 50
30.000000000003801
 51
89.999999999999929
  0
LINE
  8
_0-1_計細線
  6
CONTINUOUS
 62
    3
 10
1225.7000000010307
 20
657.65999999999963
 11
1225.2320508097032
 21
657.65999999999963
  0
ARC
  8
_0-1_計細線
  6
CONTINUOUS
 62
    3
 10
1215.800000003238
 20
655.25999999999999
 40
0.5000000000000002
 50
179.99999999999983
 51
269.99999999999977
  0
LINE
  8
_0-1_計細線
  6
CONTINUOUS
 62
    3
 10
1215.3000000032378
 20
656.65999999999985
 11
1215.3000000032378
 21
655.25999999999999
  0
ARC
  8
_0-1_計細線
  6
CONTINUOUS
 62
    3
 10
1226.2000000010307
 20
655.25999999999999
 40
0.5000000000000002
 50
269.99999999999977
 51
359.99999999999966
  0
LINE
  8
_0-1_計細線
  6
CONTINUOUS
 62
    3
 10
1226.7000000010307
 20
656.65999999999985
 11
1226.7000000010307
 21
655.25999999999999
  0
ARC
  8
_0-1_計細線
  6
CONTINUOUS
 62
    3
 10
1218.3000000032378
 20
653.75999999999999
 40
1.0000000000000004
 50
0
 51
89.999999999999915
  0
LINE
  8
_0-1_計細線
  6
CONTINUOUS
 62
    3
 10
1218.3000000032378
 20
654.75999999999954
 11
1215.800000003238
 21
654.75999999999954
  0
ARC
  8
_0-1_計細線
  6
CONTINUOUS
 62
    3
 10
1223.7000000032376
 20
653.75999999999999
 40
1.0000000000000004
 50
89.999999999999915
 51
179.99999999999983
  0
LINE
  8
_0-1_計細線
  6
CONTINUOUS
 62
    3
 10
1223.7000000010303
 20
654.75999999999954
 11
1226.2000000010307
 21
654.75999999999954
  0
LINE
  8
_0-1_計細線
  6
CONTINUOUS
 62
    3
 10
1223.5000000021344
 20
658.6599999999994
 11
1218.5000000021339
 21
658.6599999999994
  0
LINE
  8
_0-1_計細線
  6
CONTINUOUS
 62
    3
 10
1219.3000000021343
 20
638.65999999999985
 11
1219.300000003238
 21
653.75999999999999
  0
LINE
  8
_0-1_計細線
  6
CONTINUOUS
 62
    3
 10
1222.7000000021339
 20
638.65999999999985
 11
1222.7000000032378
 21
653.75999999999999
  0
LINE
  8
_0-1_計細線
  6
CONTINUOUS
 62
    3
 10
1222.7000000021339
 20
638.65999999999985
 11
1219.3000000021343
 21
638.65999999999985
  0
ARC
  8
_0-1_計細線
  6
CONTINUOUS
 62
    3
 10
1199.3000000030661
 20
656.65999999999985
 40
1.0000000000000004
 50
89.999999999999915
 51
179.99999999999983
  0
ARC
  8
_0-1_計細線
  6
CONTINUOUS
 62
    3
 10
1199.7679491943934
 20
658.6599999999994
 40
1.0000000000000004
 50
269.99999999999977
 51
330.00000000000711
  0
ARC
  8
_0-1_計細線
  6
CONTINUOUS
 62
    3
 10
1201.5000000019622
 20
657.65999999999963
 40
1.0000000000000004
 50
89.999999999999915
 51
150.00000000000273
  0
LINE
  8
_0-1_計細線
  6
CONTINUOUS
 62
    3
 10
1199.3000000030661
 20
657.65999999999963
 11
1199.7679491943934
 21
657.65999999999963
  0
ARC
  8
_0-1_計細線
  6
CONTINUOUS
 62
    3
 10
1208.7000000008588
 20
656.65999999999985
 40
1.0000000000000004
 50
0
 51
89.999999999999915
  0
ARC
  8
_0-1_計細線
  6
CONTINUOUS
 62
    3
 10
1208.2320508095313
 20
658.6599999999994
 40
1.0000000000000004
 50
209.99999999998565
 51
269.99999999999977
  0
ARC
  8
_0-1_計細線
  6
CONTINUOUS
 62
    3
 10
1206.500000001962
 20
657.65999999999963
 40
1.0000000000000004
 50
29.999999999990774
 51
89.99999999996092
  0
LINE
  8
_0-1_計細線
  6
CONTINUOUS
 62
    3
 10
1208.7000000008588
 20
657.65999999999963
 11
1208.2320508095313
 21
657.65999999999963
  0
ARC
  8
_0-1_計細線
  6
CONTINUOUS
 62
    3
 10
1198.8000000030659
 20
655.25999999999999
 40
0.5000000000000002
 50
179.99999999999983
 51
269.99999999999977
  0
LINE
  8
_0-1_計細線
  6
CONTINUOUS
 62
    3
 10
1198.3000000030661
 20
656.65999999999985
 11
1198.3000000030661
 21
655.25999999999999
  0
ARC
  8
_0-1_計細線
  6
CONTINUOUS
 62
    3
 10
1209.2000000008588
 20
655.25999999999999
 40
0.5000000000000002
 50
269.99999999999977
 51
359.99999999999966
  0
LINE
  8
_0-1_計細線
  6
CONTINUOUS
 62
    3
 10
1209.7000000008593
 20
656.65999999999985
 11
1209.7000000008593
 21
655.25999999999999
  0
ARC
  8
_0-1_計細線
  6
CONTINUOUS
 62
    3
 10
1201.3000000030659
 20
653.75999999999999
 40
1.0000000000000004
 50
0
 51
89.999999999999915
  0
LINE
  8
_0-1_計細線
  6
CONTINUOUS
 62
    3
 10
1201.3000000030659
 20
654.75999999999954
 11
1198.8000000030659
 21
654.75999999999954
  0
ARC
  8
_0-1_計細線
  6
CONTINUOUS
 62
    3
 10
1206.7000000030657
 20
653.75999999999999
 40
1.0000000000000004
 50
89.999999999999915
 51
179.99999999999983
  0
LINE
  8
_0-1_計細線
  6
CONTINUOUS
 62
    3
 10
1206.7000000008584
 20
654.75999999999954
 11
1209.2000000008588
 21
654.75999999999954
  0
LINE
  8
_0-1_計細線
  6
CONTINUOUS
 62
    3
 10
1206.500000001962
 20
658.6599999999994
 11
1201.5000000019622
 21
658.6599999999994
  0
LINE
  8
_0-1_計細線
  6
CONTINUOUS
 62
    3
 10
1202.3000000019624
 20
638.65999999999985
 11
1202.3000000030661
 21
653.75999999999999
  0
LINE
  8
_0-1_計細線
  6
CONTINUOUS
 62
    3
 10
1205.7000000019623
 20
638.65999999999985
 11
1205.7000000030662
 21
653.75999999999999
  0
LINE
  8
_0-1_計細線
  6
CONTINUOUS
 62
    3
 10
1205.7000000019623
 20
638.65999999999985
 11
1202.3000000019624
 21
638.65999999999985
  0
ARC
  8
_0-1_計細線
  6
CONTINUOUS
 62
    3
 10
1182.3000000028942
 20
656.65999999999985
 40
1.0000000000000004
 50
89.999999999999915
 51
179.99999999999983
  0
ARC
  8
_0-1_計細線
  6
CONTINUOUS
 62
    3
 10
1182.7679491942217
 20
658.6599999999994
 40
1.0000000000000004
 50
269.99999999999977
 51
330.00000000000711
  0
ARC
  8
_0-1_計細線
  6
CONTINUOUS
 62
    3
 10
1184.5000000017906
 20
657.65999999999963
 40
1.0000000000000004
 50
89.999999999999915
 51
150.00000000000273
  0
LINE
  8
_0-1_計細線
  6
CONTINUOUS
 62
    3
 10
1182.3000000028942
 20
657.65999999999963
 11
1182.7679491942217
 21
657.65999999999963
  0
ARC
  8
_0-1_計細線
  6
CONTINUOUS
 62
    3
 10
1191.7000000006872
 20
656.65999999999985
 40
1.0000000000000004
 50
0
 51
89.999999999999915
  0
ARC
  8
_0-1_計細線
  6
CONTINUOUS
 62
    3
 10
1191.2320508093592
 20
658.6599999999994
 40
1.0000000000000004
 50
209.99999999999216
 51
269.99999999999977
  0
ARC
  8
_0-1_計細線
  6
CONTINUOUS
 62
    3
 10
1189.5000000017906
 20
657.65999999999963
 40
1.0000000000000004
 50
30.000000000003801
 51
89.999999999986969
  0
LINE
  8
_0-1_計細線
  6
CONTINUOUS
 62
    3
 10
1191.7000000006872
 20
657.65999999999963
 11
1191.2320508093592
 21
657.65999999999963
  0
ARC
  8
_0-1_計細線
  6
CONTINUOUS
 62
    3
 10
1181.800000002894
 20
655.25999999999999
 40
0.5000000000000002
 50
179.99999999999983
 51
269.99999999999977
  0
LINE
  8
_0-1_計細線
  6
CONTINUOUS
 62
    3
 10
1181.3000000028942
 20
656.65999999999985
 11
1181.3000000028942
 21
655.25999999999999
  0
ARC
  8
_0-1_計細線
  6
CONTINUOUS
 62
    3
 10
1192.2000000006872
 20
655.25999999999999
 40
0.5000000000000002
 50
269.99999999999977
 51
359.99999999999966
  0
LINE
  8
_0-1_計細線
  6
CONTINUOUS
 62
    3
 10
1192.7000000006867
 20
656.65999999999985
 11
1192.7000000006867
 21
655.25999999999999
  0
ARC
  8
_0-1_計細線
  6
CONTINUOUS
 62
    3
 10
1184.3000000028942
 20
653.75999999999999
 40
1.0000000000000004
 50
0
 51
89.999999999999915
  0
LINE
  8
_0-1_計細線
  6
CONTINUOUS
 62
    3
 10
1184.3000000028942
 20
654.75999999999954
 11
1181.800000002894
 21
654.75999999999954
  0
ARC
  8
_0-1_計細線
  6
CONTINUOUS
 62
    3
 10
1189.7000000028943
 20
653.75999999999999
 40
1.0000000000000004
 50
89.999999999999915
 51
179.99999999999983
  0
LINE
  8
_0-1_計細線
  6
CONTINUOUS
 62
    3
 10
1189.7000000006867
 20
654.75999999999954
 11
1192.2000000006872
 21
654.75999999999954
  0
LINE
  8
_0-1_計細線
  6
CONTINUOUS
 62
    3
 10
1189.5000000017906
 20
658.6599999999994
 11
1184.5000000017906
 21
658.6599999999994
  0
LINE
  8
_0-1_計細線
  6
CONTINUOUS
 62
    3
 10
1185.3000000017903
 20
638.65999999999985
 11
1185.3000000028942
 21
653.75999999999999
  0
LINE
  8
_0-1_計細線
  6
CONTINUOUS
 62
    3
 10
1188.7000000017906
 20
638.65999999999985
 11
1188.7000000028945
 21
653.75999999999999
  0
LINE
  8
_0-1_計細線
  6
CONTINUOUS
 62
    3
 10
1188.7000000017906
 20
638.65999999999985
 11
1185.3000000017903
 21
638.65999999999985
  0
ARC
  8
_0-1_計細線
  6
CONTINUOUS
 62
    3
 10
1012.3000000000183
 20
656.65999999999985
 40
1.0000000000000004
 50
89.999999999999915
 51
179.99999999999983
  0
ARC
  8
_0-1_計細線
  6
CONTINUOUS
 62
    3
 10
1012.7679491913455
 20
658.6599999999994
 40
1.0000000000000004
 50
269.99999999999977
 51
330.00000000001035
  0
ARC
  8
_0-1_計細線
  6
CONTINUOUS
 62
    3
 10
1014.4999999989143
 20
657.65999999999963
 40
1.0000000000000004
 50
89.999999999999915
 51
149.99999999999946
  0
LINE
  8
_0-1_計細線
  6
CONTINUOUS
 62
    3
 10
1012.3000000000183
 20
657.65999999999963
 11
1012.7679491913455
 21
657.65999999999963
  0
ARC
  8
_0-1_計細線
  6
CONTINUOUS
 62
    3
 10
1021.699999997811
 20
656.65999999999985
 40
1.0000000000000004
 50
0
 51
89.999999999999915
  0
ARC
  8
_0-1_計細線
  6
CONTINUOUS
 62
    3
 10
1021.2320508064836
 20
658.6599999999994
 40
1.0000000000000004
 50
209.9999999999726
 51
269.99999999999977
  0
ARC
  8
_0-1_計細線
  6
CONTINUOUS
 62
    3
 10
1019.4999999989142
 20
657.65999999999963
 40
1.0000000000000004
 50
30.000000000000544
 51
89.999999999967429
  0
LINE
  8
_0-1_計細線
  6
CONTINUOUS
 62
    3
 10
1021.699999997811
 20
657.65999999999963
 11
1021.2320508064836
 21
657.65999999999963
  0
ARC
  8
_0-1_計細線
  6
CONTINUOUS
 62
    3
 10
1011.8000000000181
 20
655.25999999999999
 40
0.5000000000000002
 50
179.99999999999983
 51
269.99999999999977
  0
LINE
  8
_0-1_計細線
  6
CONTINUOUS
 62
    3
 10
1011.300000000018
 20
656.65999999999985
 11
1011.300000000018
 21
655.25999999999999
  0
ARC
  8
_0-1_計細線
  6
CONTINUOUS
 62
    3
 10
1022.1999999978108
 20
655.25999999999999
 40
0.5000000000000002
 50
269.99999999999977
 51
359.99999999999966
  0
LINE
  8
_0-1_計細線
  6
CONTINUOUS
 62
    3
 10
1022.6999999978112
 20
656.65999999999985
 11
1022.6999999978112
 21
655.25999999999999
  0
ARC
  8
_0-1_計細線
  6
CONTINUOUS
 62
    3
 10
1014.3000000000179
 20
653.75999999999999
 40
1.0000000000000004
 50
0
 51
89.999999999999915
  0
LINE
  8
_0-1_計細線
  6
CONTINUOUS
 62
    3
 10
1014.3000000000179
 20
654.75999999999954
 11
1011.8000000000181
 21
654.75999999999954
  0
ARC
  8
_0-1_計細線
  6
CONTINUOUS
 62
    3
 10
1019.7000000000179
 20
653.75999999999999
 40
1.0000000000000004
 50
89.999999999999915
 51
179.99999999999983
  0
LINE
  8
_0-1_計細線
  6
CONTINUOUS
 62
    3
 10
1019.6999999978107
 20
654.75999999999954
 11
1022.1999999978108
 21
654.75999999999954
  0
LINE
  8
_0-1_計細線
  6
CONTINUOUS
 62
    3
 10
1019.4999999989142
 20
658.6599999999994
 11
1014.4999999989143
 21
658.6599999999994
  0
LINE
  8
_0-1_計細線
  6
CONTINUOUS
 62
    3
 10
1015.2999999989147
 20
638.65999999999985
 11
1015.3000000000179
 21
653.75999999999999
  0
LINE
  8
_0-1_計細線
  6
CONTINUOUS
 62
    3
 10
1018.6999999989143
 20
638.65999999999985
 11
1018.7000000000182
 21
653.75999999999999
  0
LINE
  8
_0-1_計細線
  6
CONTINUOUS
 62
    3
 10
1018.6999999989143
 20
638.65999999999985
 11
1015.2999999989147
 21
638.65999999999985
  0
ARC
  8
_0-1_計細線
  6
CONTINUOUS
 62
    3
 10
1165.3000000027223
 20
656.65999999999985
 40
1.0000000000000004
 50
89.999999999999915
 51
179.99999999999983
  0
ARC
  8
_0-1_計細線
  6
CONTINUOUS
 62
    3
 10
1165.7679491940498
 20
658.6599999999994
 40
1.0000000000000004
 50
269.99999999999977
 51
330.00000000001364
  0
ARC
  8
_0-1_計細線
  6
CONTINUOUS
 62
    3
 10
1167.5000000016189
 20
657.65999999999963
 40
1.0000000000000004
 50
89.999999999999915
 51
150.00000000000273
  0
LINE
  8
_0-1_計細線
  6
CONTINUOUS
 62
    3
 10
1165.3000000027223
 20
657.65999999999963
 11
1165.7679491940498
 21
657.65999999999963
  0
ARC
  8
_0-1_計細線
  6
CONTINUOUS
 62
    3
 10
1174.7000000005155
 20
656.65999999999985
 40
1.0000000000000004
 50
0
 51
89.999999999999915
  0
ARC
  8
_0-1_計細線
  6
CONTINUOUS
 62
    3
 10
1174.2320508091875
 20
658.6599999999994
 40
1.0000000000000004
 50
209.99999999998565
 51
269.99999999999977
  0
ARC
  8
_0-1_計細線
  6
CONTINUOUS
 62
    3
 10
1172.5000000016187
 20
657.65999999999963
 40
1.0000000000000004
 50
30.000000000003801
 51
89.999999999986969
  0
LINE
  8
_0-1_計細線
  6
CONTINUOUS
 62
    3
 10
1174.7000000005155
 20
657.65999999999963
 11
1174.2320508091875
 21
657.65999999999963
  0
ARC
  8
_0-1_計細線
  6
CONTINUOUS
 62
    3
 10
1164.8000000027223
 20
655.25999999999999
 40
0.5000000000000002
 50
179.99999999999983
 51
269.99999999999977
  0
LINE
  8
_0-1_計細線
  6
CONTINUOUS
 62
    3
 10
1164.3000000027223
 20
656.65999999999985
 11
1164.3000000027223
 21
655.25999999999999
  0
ARC
  8
_0-1_計細線
  6
CONTINUOUS
 62
    3
 10
1175.2000000005155
 20
655.25999999999999
 40
0.5000000000000002
 50
269.99999999999977
 51
359.99999999999966
  0
LINE
  8
_0-1_計細線
  6
CONTINUOUS
 62
    3
 10
1175.700000000515
 20
656.65999999999985
 11
1175.700000000515
 21
655.25999999999999
  0
ARC
  8
_0-1_計細線
  6
CONTINUOUS
 62
    3
 10
1167.3000000027223
 20
653.75999999999999
 40
1.0000000000000004
 50
0
 51
89.999999999999915
  0
LINE
  8
_0-1_計細線
  6
CONTINUOUS
 62
    3
 10
1167.3000000027223
 20
654.75999999999954
 11
1164.8000000027223
 21
654.75999999999954
  0
ARC
  8
_0-1_計細線
  6
CONTINUOUS
 62
    3
 10
1172.7000000027224
 20
653.75999999999999
 40
1.0000000000000004
 50
89.999999999999915
 51
179.99999999999983
  0
LINE
  8
_0-1_計細線
  6
CONTINUOUS
 62
    3
 10
1172.700000000515
 20
654.75999999999954
 11
1175.2000000005155
 21
654.75999999999954
  0
LINE
  8
_0-1_計細線
  6
CONTINUOUS
 62
    3
 10
1172.5000000016187
 20
658.6599999999994
 11
1167.5000000016189
 21
658.6599999999994
  0
LINE
  8
_0-1_計細線
  6
CONTINUOUS
 62
    3
 10
1168.3000000016186
 20
638.65999999999985
 11
1168.3000000027223
 21
653.75999999999999
  0
LINE
  8
_0-1_計細線
  6
CONTINUOUS
 62
    3
 10
1171.7000000016187
 20
638.65999999999985
 11
1171.7000000027224
 21
653.75999999999999
  0
LINE
  8
_0-1_計細線
  6
CONTINUOUS
 62
    3
 10
1171.7000000016187
 20
638.65999999999985
 11
1168.3000000016186
 21
638.65999999999985
  0
ARC
  8
_0-1_計細線
  6
CONTINUOUS
 62
    3
 10
1148.3000000023603
 20
656.65999999999985
 40
1.0000000000000004
 50
89.999999999999915
 51
179.99999999999983
  0
ARC
  8
_0-1_計細線
  6
CONTINUOUS
 62
    3
 10
1148.7679491936879
 20
658.6599999999994
 40
1.0000000000000004
 50
269.99999999999977
 51
330.00000000000711
  0
ARC
  8
_0-1_計細線
  6
CONTINUOUS
 62
    3
 10
1150.5000000012567
 20
657.65999999999963
 40
1.0000000000000004
 50
89.999999999999915
 51
150.00000000000273
  0
LINE
  8
_0-1_計細線
  6
CONTINUOUS
 62
    3
 10
1148.3000000023603
 20
657.65999999999963
 11
1148.7679491936879
 21
657.65999999999963
  0
ARC
  8
_0-1_計細線
  6
CONTINUOUS
 62
    3
 10
1157.7000000001533
 20
656.65999999999985
 40
1.0000000000000004
 50
0
 51
89.999999999999915
  0
ARC
  8
_0-1_計細線
  6
CONTINUOUS
 62
    3
 10
1157.232050808826
 20
658.6599999999994
 40
1.0000000000000004
 50
209.99999999998565
 51
269.99999999999977
  0
ARC
  8
_0-1_計細線
  6
CONTINUOUS
 62
    3
 10
1155.5000000012569
 20
657.65999999999963
 40
1.0000000000000004
 50
29.999999999997289
 51
89.999999999999929
  0
LINE
  8
_0-1_計細線
  6
CONTINUOUS
 62
    3
 10
1157.7000000001533
 20
657.65999999999963
 11
1157.232050808826
 21
657.65999999999963
  0
ARC
  8
_0-1_計細線
  6
CONTINUOUS
 62
    3
 10
1147.8000000023608
 20
655.25999999999999
 40
0.5000000000000002
 50
179.99999999999983
 51
269.99999999999977
  0
LINE
  8
_0-1_計細線
  6
CONTINUOUS
 62
    3
 10
1147.3000000023603
 20
656.65999999999985
 11
1147.3000000023603
 21
655.25999999999999
  0
ARC
  8
_0-1_計細線
  6
CONTINUOUS
 62
    3
 10
1158.2000000001535
 20
655.25999999999999
 40
0.5000000000000002
 50
269.99999999999977
 51
359.99999999999966
  0
LINE
  8
_0-1_計細線
  6
CONTINUOUS
 62
    3
 10
1158.7000000001535
 20
656.65999999999985
 11
1158.7000000001535
 21
655.25999999999999
  0
ARC
  8
_0-1_計細線
  6
CONTINUOUS
 62
    3
 10
1150.3000000023603
 20
653.75999999999999
 40
1.0000000000000004
 50
0
 51
89.999999999999915
  0
LINE
  8
_0-1_計細線
  6
CONTINUOUS
 62
    3
 10
1150.3000000023603
 20
654.75999999999954
 11
1147.8000000023608
 21
654.75999999999954
  0
ARC
  8
_0-1_計細線
  6
CONTINUOUS
 62
    3
 10
1155.7000000023609
 20
653.75999999999999
 40
1.0000000000000004
 50
89.999999999999915
 51
179.99999999999983
  0
LINE
  8
_0-1_計細線
  6
CONTINUOUS
 62
    3
 10
1155.7000000001535
 20
654.75999999999954
 11
1158.2000000001535
 21
654.75999999999954
  0
LINE
  8
_0-1_計細線
  6
CONTINUOUS
 62
    3
 10
1155.5000000012569
 20
658.6599999999994
 11
1150.5000000012567
 21
658.6599999999994
  0
LINE
  8
_0-1_計細線
  6
CONTINUOUS
 62
    3
 10
1151.3000000012571
 20
638.65999999999985
 11
1151.3000000023608
 21
653.75999999999999
  0
LINE
  8
_0-1_計細線
  6
CONTINUOUS
 62
    3
 10
1154.7000000012572
 20
638.65999999999985
 11
1154.7000000023609
 21
653.75999999999999
  0
LINE
  8
_0-1_計細線
  6
CONTINUOUS
 62
    3
 10
1154.7000000012572
 20
638.65999999999985
 11
1151.3000000012571
 21
638.65999999999985
  0
ARC
  8
_0-1_計細線
  6
CONTINUOUS
 62
    3
 10
1029.3000000000179
 20
656.65999999999985
 40
1.0000000000000004
 50
89.999999999999915
 51
179.99999999999983
  0
ARC
  8
_0-1_計細線
  6
CONTINUOUS
 62
    3
 10
1029.7679491913455
 20
658.6599999999994
 40
1.0000000000000004
 50
269.99999999999977
 51
330.00000000002012
  0
ARC
  8
_0-1_計細線
  6
CONTINUOUS
 62
    3
 10
1031.4999999989147
 20
657.65999999999963
 40
1.0000000000000004
 50
89.999999999999915
 51
150.00000000000273
  0
LINE
  8
_0-1_計細線
  6
CONTINUOUS
 62
    3
 10
1029.3000000000179
 20
657.65999999999963
 11
1029.7679491913455
 21
657.65999999999963
  0
ARC
  8
_0-1_計細線
  6
CONTINUOUS
 62
    3
 10
1038.6999999978107
 20
656.65999999999985
 40
1.0000000000000004
 50
0
 51
89.999999999999915
  0
ARC
  8
_0-1_計細線
  6
CONTINUOUS
 62
    3
 10
1038.2320508064834
 20
658.6599999999994
 40
1.0000000000000004
 50
209.99999999999216
 51
269.99999999999977
  0
ARC
  8
_0-1_計細線
  6
CONTINUOUS
 62
    3
 10
1036.4999999989145
 20
657.65999999999963
 40
1.0000000000000004
 50
29.999999999997289
 51
89.999999999999929
  0
LINE
  8
_0-1_計細線
  6
CONTINUOUS
 62
    3
 10
1038.6999999978107
 20
657.65999999999963
 11
1038.2320508064834
 21
657.65999999999963
  0
ARC
  8
_0-1_計細線
  6
CONTINUOUS
 62
    3
 10
1028.8000000000181
 20
655.25999999999999
 40
0.5000000000000002
 50
179.99999999999983
 51
269.99999999999977
  0
LINE
  8
_0-1_計細線
  6
CONTINUOUS
 62
    3
 10
1028.3000000000184
 20
656.65999999999985
 11
1028.3000000000184
 21
655.25999999999999
  0
ARC
  8
_0-1_計細線
  6
CONTINUOUS
 62
    3
 10
1039.1999999978111
 20
655.25999999999999
 40
0.5000000000000002
 50
269.99999999999977
 51
359.99999999999966
  0
LINE
  8
_0-1_計細線
  6
CONTINUOUS
 62
    3
 10
1039.6999999978111
 20
656.65999999999985
 11
1039.6999999978111
 21
655.25999999999999
  0
ARC
  8
_0-1_計細線
  6
CONTINUOUS
 62
    3
 10
1031.3000000000184
 20
653.75999999999999
 40
1.0000000000000004
 50
0
 51
89.999999999999915
  0
LINE
  8
_0-1_計細線
  6
CONTINUOUS
 62
    3
 10
1031.3000000000184
 20
654.75999999999954
 11
1028.8000000000181
 21
654.75999999999954
  0
ARC
  8
_0-1_計細線
  6
CONTINUOUS
 62
    3
 10
1036.700000000018
 20
653.75999999999999
 40
1.0000000000000004
 50
89.999999999999915
 51
179.99999999999983
  0
LINE
  8
_0-1_計細線
  6
CONTINUOUS
 62
    3
 10
1036.6999999978109
 20
654.75999999999954
 11
1039.1999999978111
 21
654.75999999999954
  0
LINE
  8
_0-1_計細線
  6
CONTINUOUS
 62
    3
 10
1036.4999999989145
 20
658.6599999999994
 11
1031.4999999989147
 21
658.6599999999994
  0
LINE
  8
_0-1_計細線
  6
CONTINUOUS
 62
    3
 10
1032.2999999989145
 20
638.65999999999985
 11
1032.3000000000179
 21
653.75999999999999
  0
LINE
  8
_0-1_計細線
  6
CONTINUOUS
 62
    3
 10
1035.6999999989143
 20
638.65999999999985
 11
1035.700000000018
 21
653.75999999999999
  0
LINE
  8
_0-1_計細線
  6
CONTINUOUS
 62
    3
 10
1035.6999999989143
 20
638.65999999999985
 11
1032.2999999989145
 21
638.65999999999985
  0
ARC
  8
_0-1_計細線
  6
CONTINUOUS
 62
    3
 10
1046.3000000003804
 20
656.65999999999985
 40
1.0000000000000004
 50
89.999999999999915
 51
179.99999999999983
  0
ARC
  8
_0-1_計細線
  6
CONTINUOUS
 62
    3
 10
1046.7679491917074
 20
658.6599999999994
 40
1.0000000000000004
 50
269.99999999999977
 51
330.00000000001364
  0
ARC
  8
_0-1_計細線
  6
CONTINUOUS
 62
    3
 10
1048.4999999992765
 20
657.65999999999963
 40
1.0000000000000004
 50
89.999999999999915
 51
150.00000000000273
  0
LINE
  8
_0-1_計細線
  6
CONTINUOUS
 62
    3
 10
1046.3000000003804
 20
657.65999999999963
 11
1046.7679491917074
 21
657.65999999999963
  0
ARC
  8
_0-1_計細線
  6
CONTINUOUS
 62
    3
 10
1055.6999999981726
 20
656.65999999999985
 40
1.0000000000000004
 50
0
 51
89.999999999999915
  0
ARC
  8
_0-1_計細線
  6
CONTINUOUS
 62
    3
 10
1055.2320508068451
 20
658.6599999999994
 40
1.0000000000000004
 50
209.99999999998565
 51
269.99999999999977
  0
ARC
  8
_0-1_計細線
  6
CONTINUOUS
 62
    3
 10
1053.4999999992767
 20
657.65999999999963
 40
1.0000000000000004
 50
30.000000000016829
 51
89.999999999999929
  0
LINE
  8
_0-1_計細線
  6
CONTINUOUS
 62
    3
 10
1055.6999999981726
 20
657.65999999999963
 11
1055.2320508068451
 21
657.65999999999963
  0
ARC
  8
_0-1_計細線
  6
CONTINUOUS
 62
    3
 10
1045.8000000003804
 20
655.25999999999999
 40
0.5000000000000002
 50
179.99999999999983
 51
269.99999999999977
  0
LINE
  8
_0-1_計細線
  6
CONTINUOUS
 62
    3
 10
1045.3000000003799
 20
656.65999999999985
 11
1045.3000000003799
 21
655.25999999999999
  0
ARC
  8
_0-1_計細線
  6
CONTINUOUS
 62
    3
 10
1056.1999999981726
 20
655.25999999999999
 40
0.5000000000000002
 50
269.99999999999977
 51
359.99999999999966
  0
LINE
  8
_0-1_計細線
  6
CONTINUOUS
 62
    3
 10
1056.6999999981726
 20
656.65999999999985
 11
1056.6999999981726
 21
655.25999999999999
  0
ARC
  8
_0-1_計細線
  6
CONTINUOUS
 62
    3
 10
1048.3000000003799
 20
653.75999999999999
 40
1.0000000000000004
 50
0
 51
89.999999999999915
  0
LINE
  8
_0-1_計細線
  6
CONTINUOUS
 62
    3
 10
1048.3000000003799
 20
654.75999999999954
 11
1045.8000000003804
 21
654.75999999999954
  0
ARC
  8
_0-1_計細線
  6
CONTINUOUS
 62
    3
 10
1053.70000000038
 20
653.75999999999999
 40
1.0000000000000004
 50
89.999999999999915
 51
179.99999999999983
  0
LINE
  8
_0-1_計細線
  6
CONTINUOUS
 62
    3
 10
1053.6999999981729
 20
654.75999999999954
 11
1056.1999999981726
 21
654.75999999999954
  0
LINE
  8
_0-1_計細線
  6
CONTINUOUS
 62
    3
 10
1053.4999999992767
 20
658.6599999999994
 11
1048.4999999992765
 21
658.6599999999994
  0
LINE
  8
_0-1_計細線
  6
CONTINUOUS
 62
    3
 10
1049.2999999992762
 20
638.65999999999985
 11
1049.3000000003801
 21
653.75999999999999
  0
LINE
  8
_0-1_計細線
  6
CONTINUOUS
 62
    3
 10
1052.6999999992763
 20
638.65999999999985
 11
1052.70000000038
 21
653.75999999999999
  0
LINE
  8
_0-1_計細線
  6
CONTINUOUS
 62
    3
 10
1052.6999999992763
 20
638.65999999999985
 11
1049.2999999992762
 21
638.65999999999985
  0
ARC
  8
_0-1_計細線
  6
CONTINUOUS
 62
    3
 10
1063.3000000007416
 20
656.65999999999985
 40
1.0000000000000004
 50
89.999999999999915
 51
179.99999999999983
  0
ARC
  8
_0-1_計細線
  6
CONTINUOUS
 62
    3
 10
1063.7679491920696
 20
658.6599999999994
 40
1.0000000000000004
 50
269.99999999999977
 51
330.00000000000711
  0
ARC
  8
_0-1_計細線
  6
CONTINUOUS
 62
    3
 10
1065.4999999996385
 20
657.65999999999963
 40
1.0000000000000004
 50
89.999999999999915
 51
150.00000000000273
  0
LINE
  8
_0-1_計細線
  6
CONTINUOUS
 62
    3
 10
1063.3000000007416
 20
657.65999999999963
 11
1063.7679491920696
 21
657.65999999999963
  0
ARC
  8
_0-1_計細線
  6
CONTINUOUS
 62
    3
 10
1072.6999999985346
 20
656.65999999999985
 40
1.0000000000000004
 50
0
 51
89.999999999999915
  0
ARC
  8
_0-1_計細線
  6
CONTINUOUS
 62
    3
 10
1072.2320508072071
 20
658.6599999999994
 40
1.0000000000000004
 50
209.99999999999216
 51
269.99999999999977
  0
ARC
  8
_0-1_計細線
  6
CONTINUOUS
 62
    3
 10
1070.4999999996382
 20
657.65999999999963
 40
1.0000000000000004
 50
29.999999999997289
 51
89.999999999986969
  0
LINE
  8
_0-1_計細線
  6
CONTINUOUS
 62
    3
 10
1072.6999999985346
 20
657.65999999999963
 11
1072.2320508072071
 21
657.65999999999963
  0
ARC
  8
_0-1_計細線
  6
CONTINUOUS
 62
    3
 10
1062.8000000007419
 20
655.25999999999999
 40
0.5000000000000002
 50
179.99999999999983
 51
269.99999999999977
  0
LINE
  8
_0-1_計細線
  6
CONTINUOUS
 62
    3
 10
1062.3000000007421
 20
656.65999999999985
 11
1062.3000000007421
 21
655.25999999999999
  0
ARC
  8
_0-1_計細線
  6
CONTINUOUS
 62
    3
 10
1073.1999999985348
 20
655.25999999999999
 40
0.5000000000000002
 50
269.99999999999977
 51
359.99999999999966
  0
LINE
  8
_0-1_計細線
  6
CONTINUOUS
 62
    3
 10
1073.6999999985346
 20
656.65999999999985
 11
1073.6999999985346
 21
655.25999999999999
  0
ARC
  8
_0-1_計細線
  6
CONTINUOUS
 62
    3
 10
1065.3000000007421
 20
653.75999999999999
 40
1.0000000000000004
 50
0
 51
89.999999999999915
  0
LINE
  8
_0-1_計細線
  6
CONTINUOUS
 62
    3
 10
1065.3000000007421
 20
654.75999999999954
 11
1062.8000000007419
 21
654.75999999999954
  0
ARC
  8
_0-1_計細線
  6
CONTINUOUS
 62
    3
 10
1070.700000000742
 20
653.75999999999999
 40
1.0000000000000004
 50
89.999999999999915
 51
179.99999999999983
  0
LINE
  8
_0-1_計細線
  6
CONTINUOUS
 62
    3
 10
1070.6999999985346
 20
654.75999999999954
 11
1073.1999999985348
 21
654.75999999999954
  0
LINE
  8
_0-1_計細線
  6
CONTINUOUS
 62
    3
 10
1070.4999999996382
 20
658.6599999999994
 11
1065.4999999996385
 21
658.6599999999994
  0
LINE
  8
_0-1_計細線
  6
CONTINUOUS
 62
    3
 10
1066.2999999996382
 20
638.65999999999985
 11
1066.3000000007419
 21
653.75999999999999
  0
LINE
  8
_0-1_計細線
  6
CONTINUOUS
 62
    3
 10
1069.6999999996385
 20
638.65999999999985
 11
1069.700000000742
 21
653.75999999999999
  0
LINE
  8
_0-1_計細線
  6
CONTINUOUS
 62
    3
 10
1069.6999999996385
 20
638.65999999999985
 11
1066.2999999996382
 21
638.65999999999985
  0
ARC
  8
_0-1_計細線
  6
CONTINUOUS
 62
    3
 10
1097.3000000014654
 20
656.65999999999985
 40
1.0000000000000004
 50
89.999999999999915
 51
179.99999999999983
  0
ARC
  8
_0-1_計細線
  6
CONTINUOUS
 62
    3
 10
1097.7679491927929
 20
658.6599999999994
 40
1.0000000000000004
 50
269.99999999999977
 51
330.00000000000711
  0
ARC
  8
_0-1_計細線
  6
CONTINUOUS
 62
    3
 10
1099.500000000362
 20
657.65999999999963
 40
1.0000000000000004
 50
89.999999999999915
 51
150.00000000000924
  0
LINE
  8
_0-1_計細線
  6
CONTINUOUS
 62
    3
 10
1097.3000000014654
 20
657.65999999999963
 11
1097.7679491927929
 21
657.65999999999963
  0
ARC
  8
_0-1_計細線
  6
CONTINUOUS
 62
    3
 10
1106.6999999992584
 20
656.65999999999985
 40
1.0000000000000004
 50
0
 51
89.999999999999915
  0
ARC
  8
_0-1_計細線
  6
CONTINUOUS
 62
    3
 10
1106.2320508079304
 20
658.6599999999994
 40
1.0000000000000004
 50
209.99999999999216
 51
269.99999999999977
  0
ARC
  8
_0-1_計細線
  6
CONTINUOUS
 62
    3
 10
1104.5000000003615
 20
657.65999999999963
 40
1.0000000000000004
 50
29.999999999997289
 51
89.99999999996092
  0
LINE
  8
_0-1_計細線
  6
CONTINUOUS
 62
    3
 10
1106.6999999992584
 20
657.65999999999963
 11
1106.2320508079304
 21
657.65999999999963
  0
ARC
  8
_0-1_計細線
  6
CONTINUOUS
 62
    3
 10
1096.8000000014652
 20
655.25999999999999
 40
0.5000000000000002
 50
179.99999999999983
 51
269.99999999999977
  0
LINE
  8
_0-1_計細線
  6
CONTINUOUS
 62
    3
 10
1096.3000000014654
 20
656.65999999999985
 11
1096.3000000014654
 21
655.25999999999999
  0
ARC
  8
_0-1_計細線
  6
CONTINUOUS
 62
    3
 10
1107.1999999992581
 20
655.25999999999999
 40
0.5000000000000002
 50
269.99999999999977
 51
359.99999999999966
  0
LINE
  8
_0-1_計細線
  6
CONTINUOUS
 62
    3
 10
1107.6999999992581
 20
656.65999999999985
 11
1107.6999999992581
 21
655.25999999999999
  0
ARC
  8
_0-1_計細線
  6
CONTINUOUS
 62
    3
 10
1099.3000000014654
 20
653.75999999999999
 40
1.0000000000000004
 50
0
 51
89.999999999999915
  0
LINE
  8
_0-1_計細線
  6
CONTINUOUS
 62
    3
 10
1099.3000000014654
 20
654.75999999999954
 11
1096.8000000014652
 21
654.75999999999954
  0
ARC
  8
_0-1_計細線
  6
CONTINUOUS
 62
    3
 10
1104.7000000014652
 20
653.75999999999999
 40
1.0000000000000004
 50
89.999999999999915
 51
179.99999999999983
  0
LINE
  8
_0-1_計細線
  6
CONTINUOUS
 62
    3
 10
1104.6999999992579
 20
654.75999999999954
 11
1107.1999999992581
 21
654.75999999999954
  0
LINE
  8
_0-1_計細線
  6
CONTINUOUS
 62
    3
 10
1104.5000000003615
 20
658.6599999999994
 11
1099.500000000362
 21
658.6599999999994
  0
LINE
  8
_0-1_計細線
  6
CONTINUOUS
 62
    3
 10
1100.3000000003615
 20
638.65999999999985
 11
1100.3000000014658
 21
653.75999999999999
  0
LINE
  8
_0-1_計細線
  6
CONTINUOUS
 62
    3
 10
1103.7000000003618
 20
638.65999999999985
 11
1103.7000000014655
 21
653.75999999999999
  0
LINE
  8
_0-1_計細線
  6
CONTINUOUS
 62
    3
 10
1103.7000000003618
 20
638.65999999999985
 11
1100.3000000003615
 21
638.65999999999985
  0
ARC
  8
_0-1_計細線
  6
CONTINUOUS
 62
    3
 10
1114.3000000018271
 20
656.65999999999985
 40
1.0000000000000004
 50
89.999999999999915
 51
179.99999999999983
  0
ARC
  8
_0-1_計細線
  6
CONTINUOUS
 62
    3
 10
1114.7679491931544
 20
658.6599999999994
 40
1.0000000000000004
 50
269.99999999999977
 51
330.00000000001364
  0
ARC
  8
_0-1_計細線
  6
CONTINUOUS
 62
    3
 10
1116.5000000007235
 20
657.65999999999963
 40
1.0000000000000004
 50
89.999999999999915
 51
149.99999999999622
  0
LINE
  8
_0-1_計細線
  6
CONTINUOUS
 62
    3
 10
1114.3000000018271
 20
657.65999999999963
 11
1114.7679491931544
 21
657.65999999999963
  0
ARC
  8
_0-1_計細線
  6
CONTINUOUS
 62
    3
 10
1123.6999999996199
 20
656.65999999999985
 40
1.0000000000000004
 50
0
 51
89.999999999999915
  0
ARC
  8
_0-1_計細線
  6
CONTINUOUS
 62
    3
 10
1123.2320508082926
 20
658.6599999999994
 40
1.0000000000000004
 50
209.9999999999726
 51
269.99999999999977
  0
ARC
  8
_0-1_計細線
  6
CONTINUOUS
 62
    3
 10
1121.5000000007237
 20
657.65999999999963
 40
1.0000000000000004
 50
30.000000000016829
 51
89.999999999999929
  0
LINE
  8
_0-1_計細線
  6
CONTINUOUS
 62
    3
 10
1123.6999999996199
 20
657.65999999999963
 11
1123.2320508082926
 21
657.65999999999963
  0
ARC
  8
_0-1_計細線
  6
CONTINUOUS
 62
    3
 10
1113.8000000018274
 20
655.25999999999999
 40
0.5000000000000002
 50
179.99999999999983
 51
269.99999999999977
  0
LINE
  8
_0-1_計細線
  6
CONTINUOUS
 62
    3
 10
1113.3000000018269
 20
656.65999999999985
 11
1113.3000000018269
 21
655.25999999999999
  0
ARC
  8
_0-1_計細線
  6
CONTINUOUS
 62
    3
 10
1124.1999999996199
 20
655.25999999999999
 40
0.5000000000000002
 50
269.99999999999977
 51
359.99999999999966
  0
LINE
  8
_0-1_計細線
  6
CONTINUOUS
 62
    3
 10
1124.6999999996201
 20
656.65999999999985
 11
1124.6999999996201
 21
655.25999999999999
  0
ARC
  8
_0-1_計細線
  6
CONTINUOUS
 62
    3
 10
1116.3000000018269
 20
653.75999999999999
 40
1.0000000000000004
 50
0
 51
89.999999999999915
  0
LINE
  8
_0-1_計細線
  6
CONTINUOUS
 62
    3
 10
1116.3000000018269
 20
654.75999999999954
 11
1113.8000000018274
 21
654.75999999999954
  0
ARC
  8
_0-1_計細線
  6
CONTINUOUS
 62
    3
 10
1121.7000000018274
 20
653.75999999999999
 40
1.0000000000000004
 50
89.999999999999915
 51
179.99999999999983
  0
LINE
  8
_0-1_計細線
  6
CONTINUOUS
 62
    3
 10
1121.6999999996201
 20
654.75999999999954
 11
1124.1999999996199
 21
654.75999999999954
  0
LINE
  8
_0-1_計細線
  6
CONTINUOUS
 62
    3
 10
1121.5000000007237
 20
658.6599999999994
 11
1116.5000000007235
 21
658.6599999999994
  0
LINE
  8
_0-1_計細線
  6
CONTINUOUS
 62
    3
 10
1117.3000000007237
 20
638.65999999999985
 11
1117.3000000018271
 21
653.75999999999999
  0
LINE
  8
_0-1_計細線
  6
CONTINUOUS
 62
    3
 10
1120.7000000007233
 20
638.65999999999985
 11
1120.7000000018272
 21
653.75999999999999
  0
LINE
  8
_0-1_計細線
  6
CONTINUOUS
 62
    3
 10
1120.7000000007233
 20
638.65999999999985
 11
1117.3000000007237
 21
638.65999999999985
  0
ARC
  8
_0-1_計細線
  6
CONTINUOUS
 62
    3
 10
1131.3000000021887
 20
656.65999999999985
 40
1.0000000000000004
 50
89.999999999999915
 51
179.99999999999983
  0
ARC
  8
_0-1_計細線
  6
CONTINUOUS
 62
    3
 10
1131.7679491935166
 20
658.6599999999994
 40
1.0000000000000004
 50
269.99999999999977
 51
330.00000000001364
  0
ARC
  8
_0-1_計細線
  6
CONTINUOUS
 62
    3
 10
1133.500000001085
 20
657.65999999999963
 40
1.0000000000000004
 50
89.999999999999915
 51
149.9999999999832
  0
LINE
  8
_0-1_計細線
  6
CONTINUOUS
 62
    3
 10
1131.3000000021887
 20
657.65999999999963
 11
1131.7679491935166
 21
657.65999999999963
  0
ARC
  8
_0-1_計細線
  6
CONTINUOUS
 62
    3
 10
1140.6999999999816
 20
656.65999999999985
 40
1.0000000000000004
 50
0
 51
89.999999999999915
  0
ARC
  8
_0-1_計細線
  6
CONTINUOUS
 62
    3
 10
1140.2320508086541
 20
658.6599999999994
 40
1.0000000000000004
 50
209.99999999999216
 51
269.99999999999977
  0
ARC
  8
_0-1_計細線
  6
CONTINUOUS
 62
    3
 10
1138.5000000010855
 20
657.65999999999963
 40
1.0000000000000004
 50
29.999999999997289
 51
89.999999999999929
  0
LINE
  8
_0-1_計細線
  6
CONTINUOUS
 62
    3
 10
1140.6999999999816
 20
657.65999999999963
 11
1140.2320508086541
 21
657.65999999999963
  0
ARC
  8
_0-1_計細線
  6
CONTINUOUS
 62
    3
 10
1130.8000000021889
 20
655.25999999999999
 40
0.5000000000000002
 50
179.99999999999983
 51
269.99999999999977
  0
LINE
  8
_0-1_計細線
  6
CONTINUOUS
 62
    3
 10
1130.3000000021891
 20
656.65999999999985
 11
1130.3000000021891
 21
655.25999999999999
  0
ARC
  8
_0-1_計細線
  6
CONTINUOUS
 62
    3
 10
1141.1999999999819
 20
655.25999999999999
 40
0.5000000000000002
 50
269.99999999999977
 51
359.99999999999966
  0
LINE
  8
_0-1_計細線
  6
CONTINUOUS
 62
    3
 10
1141.6999999999821
 20
656.65999999999985
 11
1141.6999999999821
 21
655.25999999999999
  0
ARC
  8
_0-1_計細線
  6
CONTINUOUS
 62
    3
 10
1133.3000000021891
 20
653.75999999999999
 40
1.0000000000000004
 50
0
 51
89.999999999999915
  0
LINE
  8
_0-1_計細線
  6
CONTINUOUS
 62
    3
 10
1133.3000000021891
 20
654.75999999999954
 11
1130.8000000021889
 21
654.75999999999954
  0
ARC
  8
_0-1_計細線
  6
CONTINUOUS
 62
    3
 10
1138.7000000021892
 20
653.75999999999999
 40
1.0000000000000004
 50
89.999999999999915
 51
179.99999999999983
  0
LINE
  8
_0-1_計細線
  6
CONTINUOUS
 62
    3
 10
1138.6999999999819
 20
654.75999999999954
 11
1141.1999999999819
 21
654.75999999999954
  0
LINE
  8
_0-1_計細線
  6
CONTINUOUS
 62
    3
 10
1138.5000000010855
 20
658.6599999999994
 11
1133.500000001085
 21
658.6599999999994
  0
LINE
  8
_0-1_計細線
  6
CONTINUOUS
 62
    3
 10
1134.3000000010854
 20
638.65999999999985
 11
1134.3000000021891
 21
653.75999999999999
  0
LINE
  8
_0-1_計細線
  6
CONTINUOUS
 62
    3
 10
1137.7000000010855
 20
638.65999999999985
 11
1137.700000002189
 21
653.75999999999999
  0
LINE
  8
_0-1_計細線
  6
CONTINUOUS
 62
    3
 10
1137.7000000010855
 20
638.65999999999985
 11
1134.3000000010854
 21
638.65999999999985
  0
ARC
  8
_0-1_計細線
  6
CONTINUOUS
 62
    3
 10
907.99999999999977
 20
638.66021900100645
 40
3.0000000000000004
 50
179.99999999999983
 51
269.99999999999977
  0
LINE
  8
_0-1_計細線
  6
CONTINUOUS
 62
    3
 10
905
 20
638.66021900100645
 11
905
 21
658.16021900100645
  0
LINE
  8
_0-1_計細線
  6
CONTINUOUS
 62
    3
 10
907.99999999999977
 20
635.66021900100645
 11
934.5
 21
635.66021900100645
  0
LINE
  8
_0-1_計細線
  6
CONTINUOUS
 62
    3
 10
935
 20
636.16021900100691
 11
934.5
 21
635.66021900100645
  0
LINE
  8
_0-1_計細線
  6
CONTINUOUS
 62
    3
 10
935
 20
638.16021900100668
 11
935
 21
636.16021900100691
  0
LINE
  8
_0-1_計細線
  6
CONTINUOUS
 62
    3
 10
934.5
 20
638.66021900100645
 11
935
 21
638.16021900100668
  0
LINE
  8
_0-1_計細線
  6
CONTINUOUS
 62
    3
 10
907.99999999999977
 20
638.66021900100645
 11
934.5
 21
638.66021900100645
  0
LINE
  8
_0-1_計細線
  6
CONTINUOUS
 62
    3
 10
905.49999999999977
 20
658.66021900100691
 11
905
 21
658.16021900100645
  0
LINE
  8
_0-1_計細線
  6
CONTINUOUS
 62
    3
 10
907.5
 20
658.66021900100691
 11
905.49999999999977
 21
658.66021900100691
  0
LINE
  8
_0-1_計細線
  6
CONTINUOUS
 62
    3
 10
907.99999999999977
 20
658.16021900100645
 11
907.5
 21
658.66021900100691
  0
LINE
  8
_0-1_計細線
  6
CONTINUOUS
 62
    3
 10
907.99999999999977
 20
638.66021900100645
 11
907.99999999999977
 21
658.16021900100645
  0
ARC
  8
_0-1_計細線
  6
CONTINUOUS
 62
    3
 10
1262
 20
638.66021900100645
 40
3.0000000000000004
 50
269.99999999999977
 51
359.99999999999966
  0
LINE
  8
_0-1_計細線
  6
CONTINUOUS
 62
    3
 10
1265
 20
638.66021900100645
 11
1265
 21
658.16021900100645
  0
LINE
  8
_0-1_計細線
  6
CONTINUOUS
 62
    3
 10
1262
 20
635.66021900100645
 11
1235.4999999999995
 21
635.66021900100645
  0
LINE
  8
_0-1_計細線
  6
CONTINUOUS
 62
    3
 10
1234.9999999999998
 20
636.16021900100691
 11
1235.4999999999995
 21
635.66021900100645
  0
LINE
  8
_0-1_計細線
  6
CONTINUOUS
 62
    3
 10
1234.9999999999998
 20
638.16021900100668
 11
1234.9999999999998
 21
636.16021900100691
  0
LINE
  8
_0-1_計細線
  6
CONTINUOUS
 62
    3
 10
1235.4999999999995
 20
638.66021900100645
 11
1234.9999999999998
 21
638.16021900100668
  0
LINE
  8
_0-1_計細線
  6
CONTINUOUS
 62
    3
 10
1262
 20
638.66021900100645
 11
1235.4999999999995
 21
638.66021900100645
  0
LINE
  8
_0-1_計細線
  6
CONTINUOUS
 62
    3
 10
1264.5000000000002
 20
658.66021900100691
 11
1265
 21
658.16021900100645
  0
LINE
  8
_0-1_計細線
  6
CONTINUOUS
 62
    3
 10
1262.5
 20
658.66021900100691
 11
1264.5000000000002
 21
658.66021900100691
  0
LINE
  8
_0-1_計細線
  6
CONTINUOUS
 62
    3
 10
1262
 20
658.16021900100645
 11
1262.5
 21
658.66021900100691
  0
LINE
  8
_0-1_計細線
  6
CONTINUOUS
 62
    3
 10
1262
 20
638.66021900100645
 11
1262
 21
658.16021900100645
  0
LINE
  8
_0-0_計極細
  6
CENTER1
 62
    2
 10
1085
 20
628.94872130973704
 11
1085
 21
667.01872130974039
  0
LINE
  8
_0-0_計極細
  6
CENTER1
 62
    2
 10
885.49999999999977
 20
585.69417483033476
 11
885.49999999999977
 21
619.6769879087617
  0
LINE
  8
_0-0_計極細
  6
CONTINUOUS
 62
    2
 10
880.99999999999977
 20
617.11155580999616
 11
880.99999999999977
 21
590.66021900100645
  0
LINE
  8
_0-0_計極細
  6
CONTINUOUS
 62
    2
 10
890
 20
617.11155580999616
 11
880.99999999999977
 21
617.11155580999616
  0
LINE
  8
_0-0_計極細
  6
CONTINUOUS
 62
    2
 10
890
 20
590.66021900100645
 11
890
 21
617.11155580999616
  0
LINE
  8
_0-0_計極細
  6
CENTER1
 62
    2
 10
874.3036083875478
 20
608.73567846802734
 11
912.72222067708697
 21
622.7189097590483
  0
LINE
  8
_0-0_計極細
  6
CONTINUOUS
 62
    2
 10
878.81595906770883
 20
605.58923969850844
 11
911.89056596191745
 21
617.62741211805633
  0
LINE
  8
_0-0_計極細
  6
CONTINUOUS
 62
    2
 10
875.73777777777764
 20
614.0464732855819
 11
908.81238467198682
 21
626.08464570512956
  0
LINE
  8
_0-0_計極細
  6
CONTINUOUS
 62
    2
 10
908.81238467198682
 20
626.08464570512956
 11
911.89056596191745
 21
617.62741211805633
  0
LINE
  8
_0-0_計極細
  6
CONTINUOUS
 62
    2
 10
878.81595906770883
 20
605.58923969850844
 11
875.73777777777764
 21
614.0464732855819
  0
CIRCLE
  8
_0-0_計極細
  6
CONTINUOUS
 62
    2
 10
887.10792145586868
 20
646.89485784359465
 40
1.0953188836088352
  0
LINE
  8
_0-0_計極細
  6
CONTINUOUS
 62
    2
 10
894.6988081934212
 20
651.66021899733028
 11
900
 21
656.96141080390885
  0
LINE
  8
_0-0_計極細
  6
CONTINUOUS
 62
    2
 10
881.97088612323705
 20
651.66021898850363
 11
888.97088613574044
 21
658.66021900100679
  0
LINE
  8
_0-0_計極細
  6
CONTINUOUS
 62
    2
 10
869.24296405305199
 20
651.66021897967676
 11
876.24296407438192
 21
658.66021900100691
  0
LINE
  8
_0-0_計極細
  6
CONTINUOUS
 62
    2
 10
856.51504198286773
 20
651.66021897084988
 11
863.51504201302407
 21
658.66021900100691
  0
LINE
  8
_0-0_計極細
  6
CONTINUOUS
 62
    2
 10
846.49335171293103
 20
654.36645076227137
 11
850.78711995166623
 21
658.66021900100679
  0
LINE
  8
_0-0_計極細
  6
DASHED2
 62
    2
 10
888.33484715832913
 20
651.66021899291673
 11
895.33484716641919
 21
658.66021900100691
  0
LINE
  8
_0-0_計極細
  6
DASHED2
 62
    2
 10
875.60692508814464
 20
651.66021898409008
 11
882.60692510506101
 21
658.66021900100691
  0
LINE
  8
_0-0_計極細
  6
DASHED2
 62
    2
 10
862.87900301796014
 20
651.66021897526343
 11
869.87900304370316
 21
658.66021900100691
  0
LINE
  8
_0-0_計極細
  6
DASHED2
 62
    2
 10
850.15108094777497
 20
651.66021896643679
 11
857.15108098234509
 21
658.66021900100691
  0
LINE
  8
_0-0_計極細
  6
CONTINUOUS
 62
    2
 10
904.88114584618427
 20
651.66021900100668
 11
904.99999999999989
 21
651.7790731548223
  0
LINE
  8
_0-0_計極細
  6
CONTINUOUS
 62
    2
 10
902.33556143391286
 20
651.66021900100668
 11
905
 21
654.32465756709371
  0
LINE
  8
_0-0_計極細
  6
CONTINUOUS
 62
    2
 10
900
 20
651.87024197936535
 11
905
 21
656.87024197936535
  0
LINE
  8
_0-0_計極細
  6
CONTINUOUS
 62
    2
 10
900
 20
654.41582639163698
 11
904.24439260936936
 21
658.66021900100691
  0
LINE
  8
_0-0_計極細
  6
CONTINUOUS
 62
    2
 10
900
 20
656.96141080390885
 11
901.69880819709817
 21
658.66021900100691
  0
LINE
  8
_0-0_計極細
  6
CONTINUOUS
 62
    2
 10
905
 20
657.29163887765162
 11
903.63141987664471
 21
658.66021900100691
  0
LINE
  8
_0-0_計極細
  6
CONTINUOUS
 62
    2
 10
905
 20
654.74605446537976
 11
901.0858354643733
 21
658.66021900100691
  0
LINE
  8
_0-0_計極細
  6
CONTINUOUS
 62
    2
 10
900
 20
657.20047005310857
 11
905
 21
652.20047005310835
  0
LINE
  8
_0-0_計極細
  6
CONTINUOUS
 62
    2
 10
900
 20
654.65488564083671
 11
902.99466663983014
 21
651.66021900100668
  0
LINE
  8
_0-0_計極細
  6
CONTINUOUS
 62
    2
 10
900
 20
652.10930122856541
 11
900.44908222755851
 21
651.66021900100668
  0
LINE
  8
_0-0_計極細
  6
CONTINUOUS
 62
    2
 10
905
 20
658.16021900100645
 11
905
 21
658.66021900100691
  0
LINE
  8
_0-0_計極細
  6
CONTINUOUS
 62
    2
 10
905
 20
658.66021900100691
 11
900
 21
658.66021900100691
  0
LINE
  8
_0-0_計極細
  6
CONTINUOUS
 62
    2
 10
905
 20
651.66021900100668
 11
846.49335171293103
 21
651.66021900100668
  0
LINE
  8
_0-0_計極細
  6
CONTINUOUS
 62
    2
 10
900
 20
658.66021900100691
 11
846.49335171293103
 21
658.66021900100691
  0
LINE
  8
_0-0_計極細
  6
CONTINUOUS
 62
    2
 10
900
 20
658.66021900100691
 11
900
 21
651.66021900100668
  0
CIRCLE
  8
_0-0_計極細
  6
CONTINUOUS
 62
    2
 10
923.65014367808749
 20
614.60152451026238
 40
1.0953188836088352
  0
CIRCLE
  8
_0-0_計極細
  6
CONTINUOUS
 62
    2
 10
931.07236590031278
 20
579.64862263110126
 40
0.3318518518518431
  0
CIRCLE
  8
_0-0_計極細
  6
CONTINUOUS
 62
    2
 10
930.27236590031237
 20
593.24226525100312
 40
0.3318518518518431
  0
CIRCLE
  8
_0-0_計極細
  6
CONTINUOUS
 62
    2
 10
930.86753951142271
 20
626.06819117692908
 40
1.0953188836088352
  0
LINE
  8
_0-0_計極細
  6
CONTINUOUS
 62
    2
 10
935
 20
635.66021900100645
 11
935
 21
574.91525882413953
  0
LINE
  8
_0-0_計極細
  6
CONTINUOUS
 62
    2
 10
934.5
 20
635.66021900100645
 11
935
 21
635.66021900100645
  0
CIRCLE
  8
_0-0_計極細
  6
CONTINUOUS
 62
    2
 10
851.31462413258191
 20
644.68152451026208
 40
1.0953188836088352
  0
CIRCLE
  8
_0-0_計極細
  6
CONTINUOUS
 62
    2
 10
923.98347701142313
 20
582.46819117692962
 40
1.0953188836088352
  0
CIRCLE
  8
_0-0_計極細
  6
CONTINUOUS
 62
    2
 10
921.10347701142314
 20
593.66819117692921
 40
1.0953188836088352
  0
CIRCLE
  8
_0-0_計極細
  6
CONTINUOUS
 62
    2
 10
899.516810344757
 20
595.82819117692907
 40
1.0953188836088352
  0
CIRCLE
  8
_0-0_計極細
  6
CONTINUOUS
 62
    2
 10
867.59681034475705
 20
603.5081911769289
 40
1.0953188836088352
  0
CIRCLE
  8
_0-0_計極細
  6
CONTINUOUS
 62
    2
 10
879.35681034475715
 20
626.30819117692886
 40
1.0953188836088352
  0
CIRCLE
  8
_0-0_計極細
  6
CONTINUOUS
 62
    2
 10
892.79681034475698
 20
620.22819117692893
 40
1.0953188836088352
  0
CIRCLE
  8
_0-0_計極細
  6
CONTINUOUS
 62
    2
 10
863.43287185722932
 20
644.14595974174733
 40
1.0953188836088352
  0
CIRCLE
  8
_0-0_計極細
  6
CONTINUOUS
 62
    2
 10
894.49014367809025
 20
639.98819117692847
 40
1.0953188836088352
  0
CIRCLE
  8
_0-0_計極細
  6
CONTINUOUS
 62
    2
 10
906.66347701142388
 20
626.79782080655855
 40
0.3318518518518431
  0
CIRCLE
  8
_0-0_計極細
  6
CONTINUOUS
 62
    2
 10
927.81014367809007
 20
608.95782080655863
 40
0.3318518518518431
  0
CIRCLE
  8
_0-0_計極細
  6
CONTINUOUS
 62
    2
 10
927.49014367809025
 20
619.73115413989171
 40
0.3318518518518431
  0
CIRCLE
  8
_0-0_計極細
  6
CONTINUOUS
 62
    2
 10
918.42347701142353
 20
625.70448747322484
 40
0.3318518518518431
  0
CIRCLE
  8
_0-0_計極細
  6
CONTINUOUS
 62
    2
 10
909.57014367809029
 20
605.22448747322528
 40
0.3318518518518431
  0
CIRCLE
  8
_0-0_計極細
  6
CONTINUOUS
 62
    2
 10
919.5701436780904
 20
579.05559858433662
 40
0.3318518518518431
  0
CIRCLE
  8
_0-0_計極細
  6
CONTINUOUS
 62
    2
 10
923.73014367809014
 20
588.01559858433666
 40
0.3318518518518431
  0
CIRCLE
  8
_0-0_計極細
  6
CONTINUOUS
 62
    2
 10
915.516810344757
 20
596.97559858433647
 40
0.3318518518518431
  0
CIRCLE
  8
_0-0_計極細
  6
CONTINUOUS
 62
    2
 10
907.73014367809026
 20
595.05559858433639
 40
0.3318518518518431
  0
CIRCLE
  8
_0-0_計極細
  6
CONTINUOUS
 62
    2
 10
895.78347701142388
 20
594.41559858433629
 40
0.3318518518518431
  0
CIRCLE
  8
_0-0_計極細
  6
CONTINUOUS
 62
    2
 10
897.91681034475744
 20
599.96226525100292
 40
0.3318518518518431
  0
CIRCLE
  8
_0-0_計極細
  6
CONTINUOUS
 62
    2
 10
894.18347701142375
 20
601.45559858433649
 40
0.3318518518518431
  0
CIRCLE
  8
_0-0_計極細
  6
CONTINUOUS
 62
    2
 10
900.90347701142366
 20
604.76226525100287
 40
0.3318518518518431
  0
CIRCLE
  8
_0-0_計極細
  6
CONTINUOUS
 62
    2
 10
877.32347701142419
 20
594.02893191766975
 40
0.3318518518518431
  0
CIRCLE
  8
_0-0_計極細
  6
CONTINUOUS
 62
    2
 10
873.5901436780905
 20
599.14893191766964
 40
0.3318518518518431
  0
CIRCLE
  8
_0-0_計極細
  6
CONTINUOUS
 62
    2
 10
868.36347701142415
 20
595.09559858433636
 40
0.3318518518518431
  0
CIRCLE
  8
_0-0_計極細
  6
CONTINUOUS
 62
    2
 10
871.77681034475711
 20
605.86893191766967
 40
0.3318518518518431
  0
CIRCLE
  8
_0-0_計極細
  6
CONTINUOUS
 62
    2
 10
896.44347701142374
 20
622.13559858433609
 40
0.3318518518518431
  0
CIRCLE
  8
_0-0_計極細
  6
CONTINUOUS
 62
    2
 10
880.01681034475746
 20
617.76226525100287
 40
0.3318518518518431
  0
CIRCLE
  8
_0-0_計極細
  6
CONTINUOUS
 62
    2
 10
888.87014367809024
 20
625.86893191766944
 40
0.3318518518518431
  0
CIRCLE
  8
_0-0_計極細
  6
CONTINUOUS
 62
    2
 10
896.44347701142374
 20
629.28226525100285
 40
0.3318518518518431
  0
CIRCLE
  8
_0-0_計極細
  6
CONTINUOUS
 62
    2
 10
881.40347701142355
 20
631.52226525100264
 40
0.3318518518518431
  0
CIRCLE
  8
_0-0_計極細
  6
CONTINUOUS
 62
    2
 10
869.13681034475758
 20
632.26893191766931
 40
0.3318518518518431
  0
CIRCLE
  8
_0-0_計極細
  6
CONTINUOUS
 62
    2
 10
878.41014367809066
 20
648.56893191766926
 40
0.3318518518518431
  0
CIRCLE
  8
_0-0_計極細
  6
CONTINUOUS
 62
    2
 10
885.45014367809028
 20
639.60893191766945
 40
0.3318518518518431
  0
CIRCLE
  8
_0-0_計極細
  6
CONTINUOUS
 62
    2
 10
900.38347701142357
 20
639.92893191766916
 40
0.3318518518518431
  0
CIRCLE
  8
_0-0_計極細
  6
CONTINUOUS
 62
    2
 10
896.97014367809015
 20
649.63559858433587
 40
0.3318518518518431
  0
CIRCLE
  8
_0-0_計極細
  6
CONTINUOUS
 62
    2
 10
882.03681034475721
 20
643.66226525100274
 40
0.3318518518518431
  0
CIRCLE
  8
_0-0_計極細
  6
CONTINUOUS
 62
    2
 10
864.97014367809072
 20
636.62226525100255
 40
0.3318518518518431
  0
CIRCLE
  8
_0-0_計極細
  6
CONTINUOUS
 62
    2
 10
857.39681034475768
 20
635.44893191766937
 40
0.3318518518518431
  0
CIRCLE
  8
_0-0_計極細
  6
CONTINUOUS
 62
    2
 10
851.03236590031304
 20
634.8089319176695
 40
0.3318518518518431
  0
CIRCLE
  8
_0-0_計極細
  6
CONTINUOUS
 62
    2
 10
857.23088441883147
 20
640.78226525100263
 40
0.3318518518518431
  0
LINE
  8
_0-0_計極細
  6
CONTINUOUS
 62
    2
 10
892.54681526100615
 20
574.91525889400123
 11
908.29177536801137
 21
590.66021900100645
  0
LINE
  8
_0-0_計極細
  6
CONTINUOUS
 62
    2
 10
850.1204085218211
 20
574.91525902600938
 11
865.86536849681863
 21
590.66021900100645
  0
LINE
  8
_0-0_計極細
  6
CONTINUOUS
 62
    2
 10
846.49335171293103
 20
613.71460908831182
 11
864.43896162562578
 21
631.66021900100691
  0
LINE
  8
_0-0_計極細
  6
CONTINUOUS
 62
    2
 10
888.30417458708769
 20
574.91525890720209
 11
904.04913468089205
 21
590.66021900100645
  0
LINE
  8
_0-0_計極細
  6
CONTINUOUS
 62
    2
 10
846.49335171293103
 20
575.5308429042384
 11
864.99999999999955
 21
594.03749119130748
  0
LINE
  8
_0-0_計極細
  6
CONTINUOUS
 62
    2
 10
846.49335171293103
 20
617.95724977543136
 11
860.19632093850646
 21
631.66021900100691
  0
LINE
  8
_0-0_計極細
  6
CONTINUOUS
 62
    2
 10
884.06153391316923
 20
574.91525892040318
 11
899.80649399377307
 21
590.66021900100645
  0
LINE
  8
_0-0_計極細
  6
CONTINUOUS
 62
    2
 10
846.49335171293103
 20
579.77348359135794
 11
864.99999999999955
 21
598.28013187842657
  0
LINE
  8
_0-0_計極細
  6
CONTINUOUS
 62
    2
 10
846.49335171293103
 20
622.19989046255091
 11
855.95368025138691
 21
631.66021900100691
  0
LINE
  8
_0-0_計極細
  6
CONTINUOUS
 62
    2
 10
915
 20
590.66021900100645
 11
915
 21
574.91525882413953
  0
LINE
  8
_0-0_計極細
  6
CONTINUOUS
 62
    2
 10
864.99999999999955
 20
631.66021900100691
 11
846.49335171293103
 21
631.66021900100691
  0
LINE
  8
_0-0_計極細
  6
CONTINUOUS
 62
    2
 10
915
 20
590.66021900100645
 11
864.99999999999955
 21
590.66021900100645
  0
LINE
  8
_0-0_計極細
  6
CONTINUOUS
 62
    2
 10
864.99999999999955
 20
631.66021900100691
 11
864.99999999999955
 21
590.66021900100645
  0
CIRCLE
  8
_0-0_計極細
  6
CONTINUOUS
 62
    2
 10
1281.3968103447555
 20
623.77208006581759
 40
0.3318518518518431
  0
CIRCLE
  8
_0-0_計極細
  6
CONTINUOUS
 62
    2
 10
1293.1568103447555
 20
620.41208006581746
 40
0.3318518518518431
  0
LINE
  8
_0-0_計極細
  6
CONTINUOUS
 62
    2
 10
1280.0000000000002
 20
617.11155580999616
 11
1289.0000000000005
 21
617.11155580999616
  0
LINE
  8
_0-0_計極細
  6
CENTER1
 62
    2
 10
1284.5000000000002
 20
585.69417483033476
 11
1284.5000000000002
 21
619.6769879087617
  0
LINE
  8
_0-0_計極細
  6
CONTINUOUS
 62
    2
 10
1289.0000000000005
 20
617.11155580999616
 11
1289.0000000000005
 21
590.66021900100645
  0
LINE
  8
_0-0_計極細
  6
CONTINUOUS
 62
    2
 10
1280.0000000000002
 20
590.66021900100645
 11
1280.0000000000002
 21
617.11155580999616
  0
LINE
  8
_0-0_計極細
  6
CENTER1
 62
    2
 10
1295.6963916124525
 20
608.73567846802734
 11
1257.2777793229129
 21
622.7189097590483
  0
LINE
  8
_0-0_計極細
  6
CONTINUOUS
 62
    2
 10
1291.1840409322915
 20
605.58923969850844
 11
1258.1094340380828
 21
617.62741211805633
  0
LINE
  8
_0-0_計極細
  6
CONTINUOUS
 62
    2
 10
1294.2622222222224
 20
614.0464732855819
 11
1261.1876153280132
 21
626.08464570512956
  0
LINE
  8
_0-0_計極細
  6
CONTINUOUS
 62
    2
 10
1261.1876153280132
 20
626.08464570512956
 11
1258.1094340380828
 21
617.62741211805633
  0
LINE
  8
_0-0_計極細
  6
CONTINUOUS
 62
    2
 10
1291.1840409322915
 20
605.58923969850844
 11
1294.2622222222224
 21
614.0464732855819
  0
LINE
  8
_0-0_計極細
  6
CONTINUOUS
 62
    2
 10
1311.073483240182
 20
651.66021900100668
 11
1318.0734828641084
 21
658.66021862493335
  0
LINE
  8
_0-0_計極細
  6
CONTINUOUS
 62
    2
 10
1298.345561178824
 20
651.66021900100668
 11
1305.3455609023199
 21
658.66021872450233
  0
LINE
  8
_0-0_計極細
  6
CONTINUOUS
 62
    2
 10
1285.6176391174663
 20
651.66021900100668
 11
1292.6176389405309
 21
658.66021882407153
  0
LINE
  8
_0-0_計極細
  6
CONTINUOUS
 62
    2
 10
1272.8897170561083
 20
651.66021900100668
 11
1279.8897169787424
 21
658.66021892364074
  0
LINE
  8
_0-0_計極細
  6
DASHED2
 62
    2
 10
1317.4374442708609
 20
651.66021900100668
 11
1323.5066482870689
 21
657.72942301721469
  0
LINE
  8
_0-0_計極細
  6
DASHED2
 62
    2
 10
1304.7095222095029
 20
651.66021900100668
 11
1311.7095218832139
 21
658.66021867471795
  0
LINE
  8
_0-0_計極細
  6
DASHED2
 62
    2
 10
1291.9816001481449
 20
651.66021900100668
 11
1298.9815999214256
 21
658.66021877428682
  0
LINE
  8
_0-0_計極細
  6
DASHED2
 62
    2
 10
1279.2536780867872
 20
651.66021900100668
 11
1286.2536779596362
 21
658.66021887385602
  0
LINE
  8
_0-0_計極細
  6
DASHED2
 62
    2
 10
1270
 20
655.13446297557743
 11
1273.5257559978479
 21
658.66021897342523
  0
LINE
  8
_0-0_計極細
  6
CONTINUOUS
 62
    2
 10
1270
 20
653.8616707694415
 11
1267.7985482315651
 21
651.66021900100668
  0
LINE
  8
_0-0_計極細
  6
CONTINUOUS
 62
    2
 10
1270
 20
656.4072551817128
 11
1265.2529638192937
 21
651.66021900100668
  0
LINE
  8
_0-0_計極細
  6
CONTINUOUS
 62
    2
 10
1265
 20
653.952839593985
 11
1269.707379407022
 21
658.66021900100691
  0
LINE
  8
_0-0_計極細
  6
CONTINUOUS
 62
    2
 10
1265
 20
656.4984240062563
 11
1267.1617949947504
 21
658.66021900100679
  0
LINE
  8
_0-0_計極細
  6
CONTINUOUS
 62
    2
 10
1270
 20
657.75462567530349
 11
1269.0944066742968
 21
658.66021900100691
  0
LINE
  8
_0-0_計極細
  6
CONTINUOUS
 62
    2
 10
1270
 20
655.20904126303196
 11
1266.5488222620252
 21
658.66021900100691
  0
LINE
  8
_0-0_計極細
  6
CONTINUOUS
 62
    2
 10
1270
 20
652.66345685076044
 11
1265
 21
657.66345685076044
  0
LINE
  8
_0-0_計極細
  6
CONTINUOUS
 62
    2
 10
1268.4576534374819
 20
651.66021900100668
 11
1265
 21
655.1178724384888
  0
LINE
  8
_0-0_計極細
  6
CONTINUOUS
 62
    2
 10
1265.9120690252105
 20
651.66021900100668
 11
1265
 21
652.57228802621694
  0
LINE
  8
_0-0_計極細
  6
CONTINUOUS
 62
    2
 10
1265
 20
658.16021900100645
 11
1265
 21
658.66021900100691
  0
LINE
  8
_0-0_計極細
  6
CONTINUOUS
 62
    2
 10
1265
 20
658.66021900100691
 11
1270
 21
658.66021900100691
  0
LINE
  8
_0-0_計極細
  6
CONTINUOUS
 62
    2
 10
1265
 20
651.66021900100668
 11
1323.5066482870689
 21
651.66021900100668
  0
LINE
  8
_0-0_計極細
  6
CONTINUOUS
 62
    2
 10
1270
 20
658.66021900100691
 11
1323.5066482870689
 21
658.66021900100691
  0
LINE
  8
_0-0_計極細
  6
CONTINUOUS
 62
    2
 10
1270
 20
658.66021900100691
 11
1270
 21
651.66021900100668
  0
CIRCLE
  8
_0-0_計極細
  6
CONTINUOUS
 62
    2
 10
1240.7601436780888
 20
584.07152451026241
 40
1.0953188836088352
  0
CIRCLE
  8
_0-0_計極細
  6
CONTINUOUS
 62
    2
 10
1238.9912547892
 20
627.6448578435959
 40
1.0953188836088352
  0
CIRCLE
  8
_0-0_計極細
  6
CONTINUOUS
 62
    2
 10
1239.3745881225336
 20
588.07282080655887
 40
0.3318518518518431
  0
CIRCLE
  8
_0-0_計極細
  6
CONTINUOUS
 62
    2
 10
1238.5906375052498
 20
611.62615413989192
 40
0.3318518518518431
  0
LINE
  8
_0-0_計極細
  6
CONTINUOUS
 62
    2
 10
1234.9999999999998
 20
635.66021900100645
 11
1234.9999999999998
 21
574.91525882413953
  0
LINE
  8
_0-0_計極細
  6
CONTINUOUS
 62
    2
 10
1235.4999999999995
 20
635.66021900100645
 11
1234.9999999999998
 21
635.66021900100645
  0
CIRCLE
  8
_0-0_計極細
  6
CONTINUOUS
 62
    2
 10
1276.9968103447554
 20
650.37948747322503
 40
0.3318518518518431
  0
CIRCLE
  8
_0-0_計極細
  6
CONTINUOUS
 62
    2
 10
1289.7968103447554
 20
642.98819117692847
 40
1.0953188836088352
  0
CIRCLE
  8
_0-0_計極細
  6
CONTINUOUS
 62
    2
 10
1289.7168103447552
 20
646.77948747322489
 40
0.3318518518518431
  0
CIRCLE
  8
_0-0_計極細
  6
CONTINUOUS
 62
    2
 10
1308.1968103447552
 20
649.81948747322485
 40
0.3318518518518431
  0
CIRCLE
  8
_0-0_計極細
  6
CONTINUOUS
 62
    2
 10
1243.5738473817933
 20
606.55093459937393
 40
0.3318518518518431
  0
CIRCLE
  8
_0-0_計極細
  6
CONTINUOUS
 62
    2
 10
1243.4538473817929
 20
620.92426793270715
 40
0.3318518518518431
  0
CIRCLE
  8
_0-0_計極細
  6
CONTINUOUS
 62
    2
 10
1271.9334770114222
 20
624.17819117692875
 40
1.0953188836088352
  0
CIRCLE
  8
_0-0_計極細
  6
CONTINUOUS
 62
    2
 10
1302.3325925925926
 20
592.14595974174745
 40
1.0953188836088352
  0
CIRCLE
  8
_0-0_計極細
  6
CONTINUOUS
 62
    2
 10
1274.5734770114223
 20
598.25819117692913
 40
1.0953188836088352
  0
CIRCLE
  8
_0-0_計極細
  6
CONTINUOUS
 62
    2
 10
1253.4534770114224
 20
611.69819117692896
 40
1.0953188836088352
  0
CIRCLE
  8
_0-0_計極細
  6
CONTINUOUS
 62
    2
 10
1247.3201436780892
 20
593.77819117692911
 40
1.0953188836088352
  0
CIRCLE
  8
_0-0_計極細
  6
CONTINUOUS
 62
    2
 10
1289.5568103447554
 20
620.50819117692868
 40
1.0953188836088352
  0
CIRCLE
  8
_0-0_計極細
  6
CONTINUOUS
 62
    2
 10
1270.3568103447556
 20
639.70819117692872
 40
1.0953188836088352
  0
CIRCLE
  8
_0-0_計極細
  6
CONTINUOUS
 62
    2
 10
1303.6101436780884
 20
635.76152451026223
 40
1.0953188836088352
  0
CIRCLE
  8
_0-0_計極細
  6
CONTINUOUS
 62
    2
 10
1312.996810344755
 20
645.04152451026198
 40
1.0953188836088352
  0
CIRCLE
  8
_0-0_計極細
  6
CONTINUOUS
 62
    2
 10
1315.8768103447551
 20
636.77948747322466
 40
0.3318518518518431
  0
CIRCLE
  8
_0-0_計極細
  6
CONTINUOUS
 62
    2
 10
1298.1168103447553
 20
624.05948747322509
 40
0.3318518518518431
  0
CIRCLE
  8
_0-0_計極細
  6
CONTINUOUS
 62
    2
 10
1299.7968103447554
 20
640.13948747322502
 40
0.3318518518518431
  0
CIRCLE
  8
_0-0_計極細
  6
CONTINUOUS
 62
    2
 10
1289.7168103447552
 20
628.37948747322503
 40
0.3318518518518431
  0
CIRCLE
  8
_0-0_計極細
  6
CONTINUOUS
 62
    2
 10
1300.516810344755
 20
615.65948747322523
 40
0.3318518518518431
  0
CIRCLE
  8
_0-0_計極細
  6
CONTINUOUS
 62
    2
 10
1301.4768103447554
 20
603.17948747322521
 40
0.3318518518518431
  0
CIRCLE
  8
_0-0_計極細
  6
CONTINUOUS
 62
    2
 10
1297.1568103447553
 20
594.77948747322534
 40
0.3318518518518431
  0
CIRCLE
  8
_0-0_計極細
  6
CONTINUOUS
 62
    2
 10
1273.6368103447555
 20
626.69948747322519
 40
0.3318518518518431
  0
CIRCLE
  8
_0-0_計極細
  6
CONTINUOUS
 62
    2
 10
1268.2768103447554
 20
635.52615413989156
 40
0.3318518518518431
  0
CIRCLE
  8
_0-0_計極細
  6
CONTINUOUS
 62
    2
 10
1269.770143678089
 20
647.36615413989159
 40
0.3318518518518431
  0
CIRCLE
  8
_0-0_計極細
  6
CONTINUOUS
 62
    2
 10
1275.4634770114224
 20
602.95282080655875
 40
0.3318518518518431
  0
CIRCLE
  8
_0-0_計極細
  6
CONTINUOUS
 62
    2
 10
1268.7434770114223
 20
599.59282080655862
 40
0.3318518518518431
  0
CIRCLE
  8
_0-0_計極細
  6
CONTINUOUS
 62
    2
 10
1275.9434770114224
 20
594.15282080655879
 40
0.3318518518518431
  0
CIRCLE
  8
_0-0_計極細
  6
CONTINUOUS
 62
    2
 10
1259.7834770114223
 20
593.99282080655871
 40
0.3318518518518431
  0
CIRCLE
  8
_0-0_計極細
  6
CONTINUOUS
 62
    2
 10
1251.4634770114226
 20
596.87282080655882
 40
0.3318518518518431
  0
CIRCLE
  8
_0-0_計極細
  6
CONTINUOUS
 62
    2
 10
1244.5834770114225
 20
578.95282080655898
 40
0.3318518518518431
  0
CIRCLE
  8
_0-0_計極細
  6
CONTINUOUS
 62
    2
 10
1250.1834770114224
 20
589.67282080655878
 40
0.3318518518518431
  0
CIRCLE
  8
_0-0_計極細
  6
CONTINUOUS
 62
    2
 10
1260.8834770114222
 20
603.65282080655857
 40
0.3318518518518431
  0
CIRCLE
  8
_0-0_計極細
  6
CONTINUOUS
 62
    2
 10
1250.3634770114224
 20
613.86615413989193
 40
0.3318518518518431
  0
CIRCLE
  8
_0-0_計極細
  6
CONTINUOUS
 62
    2
 10
1252.8168103447556
 20
628.85282080655838
 40
0.3318518518518431
  0
CIRCLE
  8
_0-0_計極細
  6
CONTINUOUS
 62
    2
 10
1246.8434770114227
 20
625.9728208065585
 40
0.3318518518518431
  0
LINE
  8
_0-0_計極細
  6
CONTINUOUS
 62
    2
 10
1309.9740014487561
 20
574.91525882413953
 11
1323.5066483119933
 21
588.44790568737653
  0
LINE
  8
_0-0_計極細
  6
CONTINUOUS
 62
    2
 10
1267.5475945775629
 20
574.91525882413953
 11
1283.2925547544303
 21
590.66021900100645
  0
LINE
  8
_0-0_計極細
  6
CONTINUOUS
 62
    2
 10
1305
 20
612.3676642465764
 11
1323.506648287522
 21
630.87431253409818
  0
LINE
  8
_0-0_計極細
  6
CONTINUOUS
 62
    2
 10
1305.7313607616366
 20
574.91525882413953
 11
1323.5066483095463
 21
592.69054637204886
  0
LINE
  8
_0-0_計極細
  6
CONTINUOUS
 62
    2
 10
1263.3049538904436
 20
574.91525882413953
 11
1279.0499140673112
 21
590.66021900100645
  0
LINE
  8
_0-0_計極細
  6
CONTINUOUS
 62
    2
 10
1305
 20
616.61030493369549
 11
1320.0499139595809
 21
631.66021889327658
  0
LINE
  8
_0-0_計極細
  6
CONTINUOUS
 62
    2
 10
1301.4887200745172
 20
574.91525882413953
 11
1323.5066483070989
 21
596.93318705672118
  0
LINE
  8
_0-0_計極細
  6
CONTINUOUS
 62
    2
 10
1259.0623132033243
 20
574.91525882413953
 11
1274.8072733801916
 21
590.66021900100645
  0
LINE
  8
_0-0_計極細
  6
CONTINUOUS
 62
    2
 10
1305
 20
620.85294562081503
 11
1315.8072733028314
 21
631.6602189236462
  0
LINE
  8
_0-0_計極細
  6
CONTINUOUS
 62
    2
 10
1255
 20
590.66021900100645
 11
1255
 21
574.91525882413953
  0
LINE
  8
_0-0_計極細
  6
CONTINUOUS
 62
    2
 10
1305
 20
631.66021900100691
 11
1323.5066482870689
 21
631.66021900100691
  0
LINE
  8
_0-0_計極細
  6
CONTINUOUS
 62
    2
 10
1255
 20
590.66021900100645
 11
1305
 21
590.66021900100645
  0
LINE
  8
_0-0_計極細
  6
CONTINUOUS
 62
    2
 10
1305
 20
631.66021900100691
 11
1305
 21
590.66021900100645
  0
LINE
  8
_0-1_計細線
  6
CONTINUOUS
 62
    3
 10
1265.0000000000002
 20
647.66021900100657
 11
1265.0000000000002
 21
612.66021900100645
  0
LINE
  8
_0-1_計細線
  6
CONTINUOUS
 62
    3
 10
1265.0000000000002
 20
612.66021900100645
 11
1267.3000000000002
 21
612.66021900100645
  0
LINE
  8
_0-1_計細線
  6
CONTINUOUS
 62
    3
 10
1267.3000000000002
 20
612.66021900100645
 11
1267.3000000000002
 21
647.66021900100657
  0
LINE
  8
_0-1_計細線
  6
CONTINUOUS
 62
    3
 10
1267.3000000000002
 20
647.66021900100657
 11
1265.0000000000002
 21
647.66021900100657
  0
LINE
  8
_0-0_計極細
  6
CONTINUOUS
 62
    2
 10
1267.3000000000002
 20
631.66021900100645
 11
1265.0000000000002
 21
631.66021900100645
  0
LINE
  8
_0-0_計極細
  6
CONTINUOUS
 62
    2
 10
1267.3000000000002
 20
633.66021900100645
 11
1265.0000000000002
 21
633.66021900100645
  0
LINE
  8
_0-0_計極細
  6
CONTINUOUS
 62
    2
 10
1267.3000000000002
 20
629.66021900100645
 11
1265.0000000000002
 21
629.66021900100645
  0
LINE
  8
_0-0_計極細
  6
CONTINUOUS
 62
    2
 10
1267.3000000000002
 20
635.66021900100645
 11
1265.0000000000002
 21
635.66021900100645
  0
LINE
  8
_0-0_計極細
  6
CONTINUOUS
 62
    2
 10
1265.0000000000002
 20
615.66021900100645
 11
1267.3000000000002
 21
615.66021900100645
  0
LINE
  8
_0-0_計極細
  6
CONTINUOUS
 62
    2
 10
1267.3000000000002
 20
645.66021900100645
 11
1265.0000000000002
 21
645.66021900100645
  0
LINE
  8
_0-7_枠細線
  6
CONTINUOUS
 62
    5
 10
1283.9140288208207
 20
632.80830283207092
 11
1276.4140288208207
 21
647.80830283207092
  0
LINE
  8
_0-7_枠細線
  6
CONTINUOUS
 62
    5
 10
1268.9140288208207
 20
632.80830283207092
 11
1283.9140288208207
 21
632.80830283207092
  0
LINE
  8
_0-7_枠細線
  6
CONTINUOUS
 62
    5
 10
1276.4140288208207
 20
647.80830283207092
 11
1268.9140288208207
 21
632.80830283207092
  0
TEXT
  8
_0-7_枠細線
 62
    5
 10
1271.2791800889688
 20
631.859482867221
 40
12.5
 41
0.8
 50
0
  1
５
  0
LINE
  8
_0-1_計細線
  6
CONTINUOUS
 62
    3
 10
904.99999999999989
 20
647.66021900100657
 11
904.99999999999989
 21
612.66021900100645
  0
LINE
  8
_0-1_計細線
  6
CONTINUOUS
 62
    3
 10
904.99999999999989
 20
612.66021900100645
 11
902.69999999999982
 21
612.66021900100645
  0
LINE
  8
_0-1_計細線
  6
CONTINUOUS
 62
    3
 10
902.69999999999982
 20
612.66021900100645
 11
902.69999999999982
 21
647.66021900100657
  0
LINE
  8
_0-1_計細線
  6
CONTINUOUS
 62
    3
 10
902.69999999999982
 20
647.66021900100657
 11
904.99999999999989
 21
647.66021900100657
  0
LINE
  8
_0-0_計極細
  6
CONTINUOUS
 62
    2
 10
902.69999999999982
 20
631.66021900100645
 11
904.99999999999989
 21
631.66021900100645
  0
LINE
  8
_0-0_計極細
  6
CONTINUOUS
 62
    2
 10
902.69999999999982
 20
633.66021900100645
 11
904.99999999999989
 21
633.66021900100645
  0
LINE
  8
_0-0_計極細
  6
CONTINUOUS
 62
    2
 10
902.69999999999982
 20
629.66021900100645
 11
904.99999999999989
 21
629.66021900100645
  0
LINE
  8
_0-0_計極細
  6
CONTINUOUS
 62
    2
 10
902.69999999999982
 20
635.66021900100645
 11
904.99999999999989
 21
635.66021900100645
  0
LINE
  8
_0-0_計極細
  6
CONTINUOUS
 62
    2
 10
904.99999999999989
 20
615.66021900100645
 11
902.69999999999982
 21
615.66021900100645
  0
LINE
  8
_0-0_計極細
  6
CONTINUOUS
 62
    2
 10
902.69999999999982
 20
645.66021900100645
 11
904.99999999999989
 21
645.66021900100645
  0
LINE
  8
_0-5_寸法線
  6
CONTINUOUS
 62
    7
 10
935
 20
630.66021900100645
 11
934.99999999999989
 21
557.66021900100645
  0
LINE
  8
_0-5_寸法線
  6
CONTINUOUS
 62
    7
 10
934.99999999999989
 20
562.66021900100645
 11
944.65925826289049
 21
565.24840945203164
  0
LINE
  8
_0-5_寸法線
  6
CONTINUOUS
 62
    7
 10
934.99999999999989
 20
562.66021900100645
 11
944.65925826289049
 21
560.07202854998127
  0
LINE
  8
_0-5_寸法線
  6
CONTINUOUS
 62
    7
 10
1234.9999999999998
 20
630.66021900100645
 11
1234.9999999999998
 21
557.66021900100645
  0
LINE
  8
_0-5_寸法線
  6
CONTINUOUS
 62
    7
 10
1234.9999999999998
 20
562.66021900100645
 11
1225.3407417371091
 21
560.07202854998127
  0
LINE
  8
_0-5_寸法線
  6
CONTINUOUS
 62
    7
 10
1234.9999999999998
 20
562.66021900100645
 11
1225.3407417371091
 21
565.24840945203164
  0
LINE
  8
_0-5_寸法線
  6
CONTINUOUS
 62
    7
 10
934.99999999999989
 20
562.66021900100645
 11
1234.9999999999998
 21
562.66021900100645
  0
TEXT
  8
_0-5_寸法線
 62
    7
 10
1073.7499999999998
 20
562.66021900100645
 40
15
 41
1
 50
0
  1
300
  0
LINE
  8
_0-5_寸法線
  6
CONTINUOUS
 62
    7
 10
905
 20
602.66021900100668
 11
904.99999999999909
 21
557.66021900100645
  0
LINE
  8
_0-5_寸法線
  6
CONTINUOUS
 62
    7
 10
904.99999999999932
 20
562.66021900100645
 11
914.65925826288992
 21
565.24840945203164
  0
LINE
  8
_0-5_寸法線
  6
CONTINUOUS
 62
    7
 10
904.99999999999932
 20
562.66021900100645
 11
914.65925826288992
 21
560.07202854998127
  0
LINE
  8
_0-5_寸法線
  6
CONTINUOUS
 62
    7
 10
934.99999999999989
 20
625.66021900100645
 11
934.99999999999864
 21
557.66021900100645
  0
LINE
  8
_0-5_寸法線
  6
CONTINUOUS
 62
    7
 10
934.99999999999875
 20
562.66021900100645
 11
925.34074173710792
 21
560.07202854998127
  0
LINE
  8
_0-5_寸法線
  6
CONTINUOUS
 62
    7
 10
934.99999999999875
 20
562.66021900100645
 11
925.34074173710792
 21
565.24840945203164
  0
LINE
  8
_0-5_寸法線
  6
CONTINUOUS
 62
    7
 10
904.99999999999932
 20
562.66021900100645
 11
934.99999999999875
 21
562.66021900100645
  0
TEXT
  8
_0-5_寸法線
 62
    7
 10
912.49999999999886
 20
562.66021900100645
 40
15
 41
1
 50
0
  1
30
  0
LINE
  8
_0-5_寸法線
  6
CONTINUOUS
 62
    7
 10
1265.0000000000002
 20
602.66021900100668
 11
1265.0000000000002
 21
557.66021900100645
  0
LINE
  8
_0-5_寸法線
  6
CONTINUOUS
 62
    7
 10
1265.0000000000002
 20
562.66021900100645
 11
1255.3407417371095
 21
560.07202854998127
  0
LINE
  8
_0-5_寸法線
  6
CONTINUOUS
 62
    7
 10
1265.0000000000002
 20
562.66021900100645
 11
1255.3407417371095
 21
565.24840945203164
  0
LINE
  8
_0-5_寸法線
  6
CONTINUOUS
 62
    7
 10
1235.0000000000002
 20
625.66021900100645
 11
1235.0000000000002
 21
557.66021900100645
  0
LINE
  8
_0-5_寸法線
  6
CONTINUOUS
 62
    7
 10
1235.0000000000002
 20
562.66021900100645
 11
1244.6592582628909
 21
565.24840945203164
  0
LINE
  8
_0-5_寸法線
  6
CONTINUOUS
 62
    7
 10
1235.0000000000002
 20
562.66021900100645
 11
1244.6592582628909
 21
560.07202854998127
  0
LINE
  8
_0-5_寸法線
  6
CONTINUOUS
 62
    7
 10
1265.0000000000002
 20
562.66021900100645
 11
1235.0000000000002
 21
562.66021900100645
  0
TEXT
  8
_0-5_寸法線
 62
    7
 10
1242.5000000000002
 20
562.66021900100645
 40
15
 41
1
 50
0
  1
30
  0
LINE
  8
_0-1_計細線
  6
CONTINUOUS
 62
    3
 10
1095.850000000733
 20
658.45999999999799
 11
1095.850000000733
 21
639.45999999999754
  0
LINE
  8
_0-1_計細線
  6
CONTINUOUS
 62
    3
 10
1091.1500000007327
 20
639.45999999999754
 11
1091.1500000007327
 21
658.45999999999799
  0
LINE
  8
_0-1_計細線
  6
CONTINUOUS
 62
    3
 10
1095.850000000733
 20
639.45999999999754
 11
1091.1500000007327
 21
639.45999999999754
  0
LINE
  8
_0-1_計細線
  6
CONTINUOUS
 62
    3
 10
1091.1500000007327
 20
658.45999999999799
 11
1095.850000000733
 21
658.45999999999799
  0
LINE
  8
_0-1_計細線
  6
DASHED2
 62
    3
 10
1091.1500000007327
 20
642.45999999999754
 11
1095.850000000733
 21
642.45999999999754
  0
LINE
  8
_0-1_計細線
  6
DASHED2
 62
    3
 10
1091.1500000007327
 20
655.95999999999788
 11
1095.850000000733
 21
655.95999999999788
  0
LINE
  8
_0-5_寸法線
  6
CONTINUOUS
 62
    7
 10
895
 20
658.66021900100679
 11
847.69999999999982
 21
658.66021900100679
  0
LINE
  8
_0-5_寸法線
  6
CONTINUOUS
 62
    7
 10
852.69999999999982
 20
658.66021900100679
 11
855.28819045102512
 21
649.00096073811596
  0
LINE
  8
_0-5_寸法線
  6
CONTINUOUS
 62
    7
 10
852.69999999999982
 20
658.66021900100679
 11
850.11180954897463
 21
649.00096073811596
  0
LINE
  8
_0-5_寸法線
  6
CONTINUOUS
 62
    7
 10
892.69999999999982
 20
635.66021900100645
 11
847.69999999999982
 21
635.66021900100645
  0
LINE
  8
_0-5_寸法線
  6
CONTINUOUS
 62
    7
 10
852.69999999999982
 20
635.66021900100645
 11
850.11180954897452
 21
645.31947726389717
  0
LINE
  8
_0-5_寸法線
  6
CONTINUOUS
 62
    7
 10
852.69999999999982
 20
635.66021900100645
 11
855.28819045102512
 21
645.31947726389717
  0
LINE
  8
_0-5_寸法線
  6
CONTINUOUS
 62
    7
 10
852.69999999999982
 20
658.66021900100679
 11
852.69999999999982
 21
635.66021900100645
  0
TEXT
  8
_0-5_寸法線
 62
    7
 10
852.69999999999982
 20
639.66021900100645
 40
15
 41
1
 50
90
  1
23
  0
LINE
  8
_0-5_寸法線
  6
CONTINUOUS
 62
    7
 10
892.69999999999982
 20
635.66021900100645
 11
847.69999999999982
 21
635.66021900100645
  0
LINE
  8
_0-5_寸法線
  6
CONTINUOUS
 62
    7
 10
852.69999999999982
 20
635.66021900100645
 11
855.28819045102512
 21
626.00096073811574
  0
LINE
  8
_0-5_寸法線
  6
CONTINUOUS
 62
    7
 10
852.69999999999982
 20
635.66021900100645
 11
850.11180954897463
 21
626.00096073811574
  0
LINE
  8
_0-5_寸法線
  6
CONTINUOUS
 62
    7
 10
892.69999999999982
 20
612.66021900100645
 11
847.69999999999982
 21
612.66021900100645
  0
LINE
  8
_0-5_寸法線
  6
CONTINUOUS
 62
    7
 10
852.69999999999982
 20
612.66021900100645
 11
850.11180954897452
 21
622.31947726389717
  0
LINE
  8
_0-5_寸法線
  6
CONTINUOUS
 62
    7
 10
852.69999999999982
 20
612.66021900100645
 11
855.28819045102512
 21
622.31947726389717
  0
LINE
  8
_0-5_寸法線
  6
CONTINUOUS
 62
    7
 10
852.69999999999982
 20
635.66021900100645
 11
852.69999999999982
 21
612.66021900100645
  0
TEXT
  8
_0-5_寸法線
 62
    7
 10
852.69999999999982
 20
616.66021900100645
 40
15
 41
1
 50
90
  1
23
  0
TEXT
  8
_0-7_枠細線
 62
    5
 10
1035.6825687070714
 20
519.94207792640861
 40
25
 41
0.8
 50
0
  1
断面詳細図
  0
TEXT
  8
_0-7_枠細線
 62
    5
 10
1150.6315384562395
 20
522.45718700659745
 40
20
 41
0.6
 50
0
  1
Ｓ＝１：５
  0
LINE
  8
_0-5_寸法線
  6
CONTINUOUS
 62
    7
 10
1265
 20
668.66021900100691
 11
1265.0000000000002
 21
783.66021900100668
  0
LINE
  8
_0-5_寸法線
  6
CONTINUOUS
 62
    7
 10
1265.0000000000002
 20
778.66021900100668
 11
1255.3407417371095
 21
776.0720285499815
  0
LINE
  8
_0-5_寸法線
  6
CONTINUOUS
 62
    7
 10
1265.0000000000002
 20
778.66021900100668
 11
1255.3407417371095
 21
781.24840945203175
  0
LINE
  8
_0-5_寸法線
  6
CONTINUOUS
 62
    7
 10
905
 20
668.66021900100691
 11
905.00000000000023
 21
783.66021900100691
  0
LINE
  8
_0-5_寸法線
  6
CONTINUOUS
 62
    7
 10
905.00000000000023
 20
778.66021900100691
 11
914.65925826289094
 21
781.24840945203221
  0
LINE
  8
_0-5_寸法線
  6
CONTINUOUS
 62
    7
 10
905.00000000000023
 20
778.66021900100691
 11
914.65925826289094
 21
776.07202854998172
  0
LINE
  8
_0-5_寸法線
  6
CONTINUOUS
 62
    7
 10
1265.0000000000002
 20
778.66021900100668
 11
905.00000000000023
 21
778.66021900100691
  0
TEXT
  8
_0-5_寸法線
 62
    7
 10
1073.7500000000002
 20
778.66021900100679
 40
15
 41
1
 50
0
  1
360
  0
LINE
  8
_0-5_寸法線
  6
CONTINUOUS
 62
    7
 10
905.00000051907011
 20
668.66021900100691
 11
905.00000051907023
 21
748.66021900100691
  0
LINE
  8
_0-5_寸法線
  6
CONTINUOUS
 62
    7
 10
905.00000051907023
 20
743.66021900100691
 11
895.3407422561794
 21
741.07202854998172
  0
LINE
  8
_0-5_寸法線
  6
CONTINUOUS
 62
    7
 10
905.00000051907023
 20
743.66021900100691
 11
895.3407422561794
 21
746.24840945203221
  0
LINE
  8
_0-5_寸法線
  6
CONTINUOUS
 62
    7
 10
908.00000000000011
 20
668.66021900100691
 11
908.00000000000011
 21
748.66021900100691
  0
CIRCLE
  8
_0-5_寸法線
  6
CONTINUOUS
 62
    1
 10
908.00000000000011
 20
743.66021900100691
 40
1.5000000000000002
  0
LINE
  8
_0-5_寸法線
  6
CONTINUOUS
 62
    7
 10
880.00000051907023
 20
743.66021900100691
 11
908.00000000000011
 21
743.66021900100691
  0
TEXT
  8
_0-5_寸法線
 62
    7
 10
884.94596866275754
 20
743.66021900100691
 40
15
 41
1
 50
0
  1
3
  0
LINE
  8
_0-5_寸法線
  6
CONTINUOUS
 62
    7
 10
909.99999999965678
 20
668.66021900100691
 11
909.99999999965689
 21
748.66021900100691
  0
LINE
  8
_0-5_寸法線
  6
CONTINUOUS
 62
    7
 10
908.00000000000011
 20
743.66021900100691
 11
909.99999999965689
 21
743.66021900100691
  0
TEXT
  8
_0-5_寸法線
 62
    7
 10
910.6360132566092
 20
743.66021900100691
 40
15
 41
1
 50
0
  1
2
  0
LINE
  8
_0-5_寸法線
  6
CONTINUOUS
 62
    7
 10
909.99999999965689
 20
743.66021900100691
 11
919.65925826254761
 21
746.24840945203221
  0
LINE
  8
_0-5_寸法線
  6
CONTINUOUS
 62
    7
 10
909.99999999965689
 20
743.66021900100691
 11
919.65925826254761
 21
741.07202854998161
  0
LINE
  8
_0-5_寸法線
  6
CONTINUOUS
 62
    7
 10
1260.000000001374
 20
668.6599999999994
 11
1260.0000000013742
 21
748.66021900100691
  0
LINE
  8
_0-5_寸法線
  6
CONTINUOUS
 62
    7
 10
1260.0000000013742
 20
743.66021900100691
 11
1250.3407417384835
 21
741.07202854998172
  0
LINE
  8
_0-5_寸法線
  6
CONTINUOUS
 62
    7
 10
1260.0000000013742
 20
743.66021900100691
 11
1250.3407417384835
 21
746.24840945203221
  0
LINE
  8
_0-5_寸法線
  6
CONTINUOUS
 62
    7
 10
909.99999999965689
 20
743.66021900100691
 11
1260.0000000013742
 21
743.66021900100691
  0
TEXT
  8
_0-5_寸法線
 62
    7
 10
1073.7500000005157
 20
743.66021900100691
 40
15
 41
1
 50
0
  1
350
  0
LINE
  8
_0-5_寸法線
  6
CONTINUOUS
 62
    7
 10
1262
 20
668.66021900100691
 11
1262.0000000000002
 21
748.66021900100691
  0
CIRCLE
  8
_0-5_寸法線
  6
CONTINUOUS
 62
    1
 10
1262.0000000000002
 20
743.66021900100691
 40
1.5000000000000002
  0
LINE
  8
_0-5_寸法線
  6
CONTINUOUS
 62
    7
 10
1260.0000000013742
 20
743.66021900100691
 11
1262.0000000000002
 21
743.66021900100691
  0
TEXT
  8
_0-5_寸法線
 62
    7
 10
1250.2959158166484
 20
743.66021900100691
 40
15
 41
1
 50
0
  1
2
  0
LINE
  8
_0-5_寸法線
  6
CONTINUOUS
 62
    7
 10
1265
 20
668.66021900100691
 11
1265.0000000000002
 21
748.66021900100691
  0
LINE
  8
_0-5_寸法線
  6
CONTINUOUS
 62
    7
 10
1265.0000000000002
 20
743.66021900100691
 11
1274.6592582628909
 21
746.24840945203221
  0
LINE
  8
_0-5_寸法線
  6
CONTINUOUS
 62
    7
 10
1265.0000000000002
 20
743.66021900100691
 11
1274.6592582628909
 21
741.07202854998161
  0
LINE
  8
_0-5_寸法線
  6
CONTINUOUS
 62
    7
 10
1262.0000000000002
 20
743.66021900100691
 11
1290.0000000000002
 21
743.66021900100691
  0
TEXT
  8
_0-5_寸法線
 62
    7
 10
1279.2559587294518
 20
743.66021900100691
 40
15
 41
1
 50
0
  1
3
  0
LINE
  8
_0-5_寸法線
  6
CONTINUOUS
 62
    7
 10
1136.000000001085
 20
668.6599999999994
 11
1136.0000000010855
 21
713.65999999999997
  0
LINE
  8
_0-5_寸法線
  6
CONTINUOUS
 62
    7
 10
1136.0000000010855
 20
708.65999999999997
 11
1145.659258263976
 21
711.24819045102515
  0
LINE
  8
_0-5_寸法線
  6
CONTINUOUS
 62
    7
 10
1136.0000000010855
 20
708.65999999999997
 11
1145.659258263976
 21
706.0718095489749
  0
LINE
  8
_0-5_寸法線
  6
CONTINUOUS
 62
    7
 10
1153.0000000012569
 20
668.6599999999994
 11
1153.0000000012571
 21
713.65999999999997
  0
LINE
  8
_0-5_寸法線
  6
CONTINUOUS
 62
    7
 10
1153.0000000012571
 20
708.65999999999997
 11
1143.3407417383664
 21
706.0718095489749
  0
LINE
  8
_0-5_寸法線
  6
CONTINUOUS
 62
    7
 10
1153.0000000012571
 20
708.65999999999997
 11
1143.3407417383664
 21
711.24819045102515
  0
LINE
  8
_0-5_寸法線
  6
CONTINUOUS
 62
    7
 10
1136.0000000010855
 20
708.65999999999997
 11
1153.0000000012571
 21
708.65999999999997
  0
TEXT
  8
_0-5_寸法線
 62
    7
 10
1128.3440227085662
 20
693.65999999999997
 40
15
 41
1
 50
0
  1
(17)
  0
LINE
  8
_0-5_寸法線
  6
CONTINUOUS
 62
    7
 10
1153.0000000012571
 20
708.65999999999997
 11
1162.6592582641479
 21
711.24819045102515
  0
LINE
  8
_0-5_寸法線
  6
CONTINUOUS
 62
    7
 10
1153.0000000012571
 20
708.65999999999997
 11
1162.6592582641479
 21
706.07180954897467
  0
LINE
  8
_0-5_寸法線
  6
CONTINUOUS
 62
    7
 10
1170.0000000016189
 20
668.6599999999994
 11
1170.0000000016191
 21
713.65999999999997
  0
LINE
  8
_0-5_寸法線
  6
CONTINUOUS
 62
    7
 10
1170.0000000016191
 20
708.65999999999997
 11
1160.3407417387284
 21
706.0718095489749
  0
LINE
  8
_0-5_寸法線
  6
CONTINUOUS
 62
    7
 10
1170.0000000016191
 20
708.65999999999997
 11
1160.3407417387284
 21
711.24819045102515
  0
LINE
  8
_0-5_寸法線
  6
CONTINUOUS
 62
    7
 10
1153.0000000012571
 20
708.65999999999997
 11
1170.0000000016191
 21
708.65999999999997
  0
TEXT
  8
_0-5_寸法線
 62
    7
 10
1147.4106893748969
 20
708.65999999999997
 40
15
 41
1
 50
0
  1
(17)
  0
LINE
  8
_0-5_寸法線
  6
CONTINUOUS
 62
    7
 10
1005.7000001886227
 20
668.6599999999994
 11
1005.7000001886228
 21
713.65999999999997
  0
LINE
  8
_0-5_寸法線
  6
CONTINUOUS
 62
    7
 10
1005.7000001886228
 20
708.65999999999997
 11
996.04074192573194
 21
706.0718095489749
  0
LINE
  8
_0-5_寸法線
  6
CONTINUOUS
 62
    7
 10
1005.7000001886228
 20
708.65999999999997
 11
996.04074192573194
 21
711.24819045102515
  0
LINE
  8
_0-5_寸法線
  6
CONTINUOUS
 62
    7
 10
1011.300000000018
 20
668.6599999999994
 11
1011.3000000000181
 21
713.65999999999997
  0
LINE
  8
_0-5_寸法線
  6
CONTINUOUS
 62
    7
 10
966.32604450526458
 20
708.65999999999997
 11
1011.3000000000181
 21
708.65999999999997
  0
TEXT
  8
_0-5_寸法線
 62
    7
 10
966.32604450526469
 20
693.65999999999997
 40
15
 41
1
 50
0
  1
(5.6)
  0
LINE
  8
_0-5_寸法線
  6
CONTINUOUS
 62
    7
 10
1011.3000000000181
 20
708.65999999999997
 11
1020.9592582629089
 21
711.24819045102515
  0
LINE
  8
_0-5_寸法線
  6
CONTINUOUS
 62
    7
 10
1011.3000000000181
 20
708.65999999999997
 11
1020.9592582629089
 21
706.0718095489749
  0
LINE
  8
_0-5_寸法線
  6
CONTINUOUS
 62
    7
 10
1022.6999999978112
 20
668.6599999999994
 11
1022.6999999978113
 21
713.65999999999997
  0
LINE
  8
_0-5_寸法線
  6
CONTINUOUS
 62
    7
 10
1022.6999999978113
 20
708.65999999999997
 11
1013.0407417349205
 21
706.0718095489749
  0
LINE
  8
_0-5_寸法線
  6
CONTINUOUS
 62
    7
 10
1022.6999999978113
 20
708.65999999999997
 11
1013.0407417349205
 21
711.24819045102515
  0
LINE
  8
_0-5_寸法線
  6
CONTINUOUS
 62
    7
 10
1011.3000000000181
 20
708.65999999999997
 11
1022.6999999978113
 21
708.65999999999997
  0
TEXT
  8
_0-5_寸法線
 62
    7
 10
998.23530357249513
 20
708.65999999999997
 40
15
 41
1
 50
0
  1
11.4
  0
LINE
  8
_0-5_寸法線
  6
CONTINUOUS
 62
    7
 10
627.07304125240762
 20
496.01048733043274
 11
631.01755386744981
 21
505.19965596691839
  0
LINE
  8
_0-5_寸法線
  6
CONTINUOUS
 62
    7
 10
627.07304125240762
 20
496.01048733043274
 11
635.08367370082522
 21
501.99628450176749
  0
LINE
  8
_0-5_寸法線
  6
CONTINUOUS
 62
    7
 10
627.07304125240762
 20
496.01048733043274
 11
649.96896521821498
 21
525.07285850830556
  0
LINE
  8
_0-5_寸法線
  6
CONTINUOUS
 62
    7
 10
649.96896521821498
 20
525.07285850830556
 11
757.96896521821498
 21
525.07285850830556
  0
TEXT
  8
_0-5_寸法線
 62
    7
 10
649.96896521821498
 20
525.07285850830556
 40
15
 41
0.8000000000000001
 50
0
  1
ＳＵＳアングル受枠
  0
TEXT
  8
_0-5_寸法線
 62
    7
 10
651.00916501160759
 20
509.99813182303853
 40
15
 41
0.8000000000000001
 50
0
  1
ＧＳＬ－２０
  0
LINE
  8
_0-5_寸法線
  6
CONTINUOUS
 62
    7
 10
602.12468812304621
 20
604.29975778394612
 11
606.0692007380884
 21
613.48892642043188
  0
LINE
  8
_0-5_寸法線
  6
CONTINUOUS
 62
    7
 10
602.12468812304621
 20
604.29975778394612
 11
610.13532057146381
 21
610.28555495528087
  0
LINE
  8
_0-5_寸法線
  6
CONTINUOUS
 62
    7
 10
602.12468812304621
 20
604.29975778394612
 11
649.96896521821498
 21
665.02970001092581
  0
LINE
  8
_0-5_寸法線
  6
CONTINUOUS
 62
    7
 10
649.96896521821498
 20
665.02970001092581
 11
781.96896521821532
 21
665.02970001092581
  0
TEXT
  8
_0-5_寸法線
 62
    7
 10
649.96896521821532
 20
665.02970001092581
 40
15
 41
0.8000000000000001
 50
0
  1
セーフティグレーチング
  0
TEXT
  8
_0-5_寸法線
 62
    7
 10
650.93609242345156
 20
649.95497332565878
 40
15
 41
0.8000000000000001
 50
0
  1
ＧＲＳ－２０Ｋ３５０
  0
LINE
  8
_0-5_寸法線
  6
CONTINUOUS
 62
    7
 10
258.51795824097314
 20
374.60583080108086
 11
178.51795824097314
 21
374.60583080108108
  0
LINE
  8
_0-5_寸法線
  6
CONTINUOUS
 62
    7
 10
183.51795824097314
 20
374.60583080108108
 11
180.92976778994796
 21
384.26508906397174
  0
LINE
  8
_0-5_寸法線
  6
CONTINUOUS
 62
    7
 10
183.51795824097314
 20
374.60583080108108
 11
186.10614869199836
 21
384.26508906397174
  0
LINE
  8
_0-5_寸法線
  6
CONTINUOUS
 62
    7
 10
258.51795824097366
 20
734.6058308010829
 11
178.51795824097314
 21
734.60583080108324
  0
LINE
  8
_0-5_寸法線
  6
CONTINUOUS
 62
    7
 10
183.51795824097314
 20
734.60583080108324
 11
186.10614869199836
 21
724.94657253819241
  0
LINE
  8
_0-5_寸法線
  6
CONTINUOUS
 62
    7
 10
183.51795824097314
 20
734.60583080108324
 11
180.92976778994796
 21
724.94657253819241
  0
LINE
  8
_0-5_寸法線
  6
CONTINUOUS
 62
    7
 10
183.51795824097314
 20
374.60583080108108
 11
183.51795824097314
 21
734.60583080108324
  0
TEXT
  8
_0-5_寸法線
 62
    7
 10
183.51795824097303
 20
543.35583080108211
 40
15
 41
1
 50
89.999999999999815
  1
360
  0
LINE
  8
_0-5_寸法線
  6
CONTINUOUS
 62
    7
 10
360.08153774983617
 20
563.12519415061456
 11
352.5334774712627
 21
569.68467477266245
  0
LINE
  8
_0-5_寸法線
  6
CONTINUOUS
 62
    7
 10
360.08153774983617
 20
563.12519415061456
 11
356.82446611031929
 21
572.5799011442266
  0
LINE
  8
_0-5_寸法線
  6
CONTINUOUS
 62
    7
 10
360.08153774983617
 20
563.12519415061456
 11
203.83141762452126
 21
794.70207425023091
  0
LINE
  8
_0-5_寸法線
  6
CONTINUOUS
 62
    7
 10
203.83141762452126
 20
794.70207425023091
 11
143.83141762452126
 21
794.70207425023091
  0
TEXT
  8
_0-5_寸法線
 62
    7
 10
143.83141762452126
 20
794.70207425023091
 40
15
 41
0.8000000000000001
 50
0
  1
取　外　具
  0
TEXT
  8
_0-5_寸法線
 62
    7
 10
139.31414161081634
 20
777.18231303365826
 40
15
 41
0.8000000000000001
 50
0
  1
(標準付属)
  0
TEXT
  8
_0-7_枠細線
 62
    5
 10
142.91711215909359
 20
811.21182795575714
 40
12.5
 41
0.8
 50
0
  1
２
  0
LINE
  8
_0-7_枠細線
  6
CONTINUOUS
 62
    5
 10
155.55196089094545
 20
811.51883020113769
 11
148.05196089094545
 21
826.51883020113769
  0
LINE
  8
_0-7_枠細線
  6
CONTINUOUS
 62
    5
 10
140.55196089094545
 20
811.51883020113769
 11
155.55196089094545
 21
811.51883020113769
  0
LINE
  8
_0-7_枠細線
  6
CONTINUOUS
 62
    5
 10
148.05196089094545
 20
826.51883020113769
 11
140.55196089094545
 21
811.51883020113769
  0
TEXT
  8
_0-7_枠細線
 62
    5
 10
161.80900598696979
 20
810.91868523369112
 40
12.5
 41
0.8
 50
0
  1
３
  0
LINE
  8
_0-7_枠細線
  6
CONTINUOUS
 62
    5
 10
166.94385471882163
 20
826.46636912387248
 11
159.44385471882163
 21
811.46636912387248
  0
LINE
  8
_0-7_枠細線
  6
CONTINUOUS
 62
    5
 10
159.44385471882163
 20
811.46636912387248
 11
174.44385471882163
 21
811.46636912387248
  0
LINE
  8
_0-7_枠細線
  6
CONTINUOUS
 62
    5
 10
174.44385471882163
 20
811.46636912387248
 11
166.94385471882163
 21
826.46636912387248
  0
LINE
  8
_0-7_枠細線
  6
CONTINUOUS
 62
    5
 10
193.15783858231796
 20
811.46636912387248
 11
185.65783858231796
 21
826.46636912387248
  0
LINE
  8
_0-7_枠細線
  6
CONTINUOUS
 62
    5
 10
178.15783858231796
 20
811.46636912387248
 11
193.15783858231796
 21
811.46636912387248
  0
LINE
  8
_0-7_枠細線
  6
CONTINUOUS
 62
    5
 10
185.65783858231796
 20
826.46636912387248
 11
178.15783858231796
 21
811.46636912387248
  0
TEXT
  8
_0-7_枠細線
 62
    5
 10
180.52298985046605
 20
810.91868523369112
 40
12.5
 41
0.8
 50
0
  1
６
  0
LINE
  8
_0-5_寸法線
  6
CONTINUOUS
 62
    7
 10
218.51795824097314
 20
374.60583080108103
 11
221.10614869199836
 21
364.94657253819025
  0
LINE
  8
_0-5_寸法線
  6
CONTINUOUS
 62
    7
 10
218.51795824097314
 20
374.60583080108103
 11
215.92976778994796
 21
364.94657253819037
  0
LINE
  8
_0-5_寸法線
  6
CONTINUOUS
 62
    7
 10
258.51795824097314
 20
377.60583080108086
 11
213.51795824097314
 21
377.60583080108097
  0
CIRCLE
  8
_0-5_寸法線
  6
CONTINUOUS
 62
    1
 10
218.51795824097314
 20
377.60583080108097
 40
1.5000000000000002
  0
LINE
  8
_0-5_寸法線
  6
CONTINUOUS
 62
    7
 10
218.51795824097314
 20
349.60583080108103
 11
218.51795824097314
 21
377.60583080108097
  0
TEXT
  8
_0-5_寸法線
 62
    7
 10
218.51795824097314
 20
352.95918897221094
 40
15
 41
1
 50
90
  1
3
  0
LINE
  8
_0-5_寸法線
  6
CONTINUOUS
 62
    7
 10
258.51795824097314
 20
379.6058308010725
 11
213.51795824097314
 21
379.6058308010725
  0
LINE
  8
_0-5_寸法線
  6
CONTINUOUS
 62
    7
 10
218.51795824097314
 20
377.60583080108097
 11
218.51795824097314
 21
379.6058308010725
  0
TEXT
  8
_0-5_寸法線
 62
    7
 10
237.41283891898263
 20
382.16803147666889
 40
15
 41
1
 50
90
  1
2
  0
LINE
  8
_0-5_寸法線
  6
CONTINUOUS
 62
    7
 10
218.51795824097314
 20
379.6058308010725
 11
215.92976778994796
 21
389.26508906396316
  0
LINE
  8
_0-5_寸法線
  6
CONTINUOUS
 62
    7
 10
218.51795824097314
 20
379.6058308010725
 11
221.10614869199836
 21
389.26508906396316
  0
LINE
  8
_0-5_寸法線
  6
CONTINUOUS
 62
    7
 10
258.51795824097314
 20
729.60583080108245
 11
213.51795824097314
 21
729.60583080108245
  0
LINE
  8
_0-5_寸法線
  6
CONTINUOUS
 62
    7
 10
218.51795824097314
 20
729.60583080108245
 11
221.10614869199836
 21
719.94657253819173
  0
LINE
  8
_0-5_寸法線
  6
CONTINUOUS
 62
    7
 10
218.51795824097314
 20
729.60583080108245
 11
215.92976778994796
 21
719.94657253819173
  0
LINE
  8
_0-5_寸法線
  6
CONTINUOUS
 62
    7
 10
218.51795824097314
 20
379.6058308010725
 11
218.51795824097314
 21
729.60583080108245
  0
TEXT
  8
_0-5_寸法線
 62
    7
 10
218.51795824097309
 20
543.35583080107745
 40
15
 41
1
 50
89.999999999999645
  1
350
  0
LINE
  8
_0-5_寸法線
  6
CONTINUOUS
 62
    7
 10
258.51795824097366
 20
731.6058308010829
 11
213.51795824097314
 21
731.60583080108313
  0
CIRCLE
  8
_0-5_寸法線
  6
CONTINUOUS
 62
    1
 10
218.51795824097314
 20
731.60583080108313
 40
1.5000000000000002
  0
LINE
  8
_0-5_寸法線
  6
CONTINUOUS
 62
    7
 10
218.51795824097314
 20
729.60583080108245
 11
218.51795824097314
 21
731.60583080108313
  0
TEXT
  8
_0-5_寸法線
 62
    7
 10
236.8134153442648
 20
719.90382513794793
 40
15
 41
1
 50
90
  1
2
  0
LINE
  8
_0-5_寸法線
  6
CONTINUOUS
 62
    7
 10
218.51795824097314
 20
734.60583080108313
 11
215.92976778994796
 21
744.26508906397373
  0
LINE
  8
_0-5_寸法線
  6
CONTINUOUS
 62
    7
 10
218.51795824097314
 20
734.60583080108313
 11
221.10614869199836
 21
744.26508906397373
  0
LINE
  8
_0-5_寸法線
  6
CONTINUOUS
 62
    7
 10
218.51795824097314
 20
731.60583080108313
 11
218.51795824097314
 21
759.60583080108313
  0
TEXT
  8
_0-5_寸法線
 62
    7
 10
218.51795824097314
 20
748.87159773133476
 40
15
 41
1
 50
90
  1
3
  0
LINE
  8
_0-5_寸法線
  6
CONTINUOUS
 62
    7
 10
273.51795824097314
 20
744.60583080108245
 11
273.51795824097314
 21
789.60583080108245
  0
LINE
  8
_0-5_寸法線
  6
CONTINUOUS
 62
    7
 10
273.51795824097314
 20
784.60583080108245
 11
283.1772165038638
 21
787.19402125210763
  0
LINE
  8
_0-5_寸法線
  6
CONTINUOUS
 62
    7
 10
273.51795824097314
 20
784.60583080108245
 11
283.1772165038638
 21
782.01764035005738
  0
LINE
  8
_0-5_寸法線
  6
CONTINUOUS
 62
    7
 10
280.51795824097314
 20
744.60583080108245
 11
280.51795824097314
 21
789.60583080108245
  0
LINE
  8
_0-5_寸法線
  6
CONTINUOUS
 62
    7
 10
280.51795824097314
 20
784.60583080108245
 11
270.85869997808243
 21
782.01764035005738
  0
LINE
  8
_0-5_寸法線
  6
CONTINUOUS
 62
    7
 10
280.51795824097314
 20
784.60583080108245
 11
270.85869997808243
 21
787.19402125210763
  0
LINE
  8
_0-5_寸法線
  6
CONTINUOUS
 62
    7
 10
273.51795824097314
 20
784.60583080108245
 11
280.51795824097314
 21
784.60583080108245
  0
TEXT
  8
_0-5_寸法線
 62
    7
 10
274.74447633214754
 20
784.60583080108245
 40
15
 41
1
 50
0
  1
7
  0
LINE
  8
_0-5_寸法線
  6
CONTINUOUS
 62
    7
 10
280.51795824097314
 20
784.60583080108245
 11
290.17721650386392
 21
787.19402125210763
  0
LINE
  8
_0-5_寸法線
  6
CONTINUOUS
 62
    7
 10
280.51795824097314
 20
784.60583080108245
 11
290.17721650386375
 21
782.01764035005726
  0
LINE
  8
_0-5_寸法線
  6
CONTINUOUS
 62
    7
 10
474.51795824097314
 20
744.60583080108245
 11
474.51795824097314
 21
789.60583080108245
  0
LINE
  8
_0-5_寸法線
  6
CONTINUOUS
 62
    7
 10
474.51795824097314
 20
784.60583080108245
 11
464.85869997808243
 21
782.01764035005738
  0
LINE
  8
_0-5_寸法線
  6
CONTINUOUS
 62
    7
 10
474.51795824097314
 20
784.60583080108245
 11
464.85869997808254
 21
787.19402125210763
  0
LINE
  8
_0-5_寸法線
  6
CONTINUOUS
 62
    7
 10
280.51795824097314
 20
784.60583080108245
 11
474.51795824097314
 21
784.60583080108245
  0
TEXT
  8
_0-5_寸法線
 62
    7
 10
347.51795824097309
 20
784.60583080108233
 40
15
 41
1
 50
0
  1
2@97=194
  0
LINE
  8
_0-5_寸法線
  6
CONTINUOUS
 62
    7
 10
474.51795824097314
 20
784.60583080108245
 11
484.17721650386392
 21
787.19402125210763
  0
LINE
  8
_0-5_寸法線
  6
CONTINUOUS
 62
    7
 10
474.51795824097314
 20
784.60583080108245
 11
484.17721650386386
 21
782.01764035005726
  0
LINE
  8
_0-5_寸法線
  6
CONTINUOUS
 62
    7
 10
519.51795824097303
 20
744.60583080108245
 11
519.51795824097303
 21
789.60583080108245
  0
LINE
  8
_0-5_寸法線
  6
CONTINUOUS
 62
    7
 10
519.51795824097303
 20
784.60583080108245
 11
509.85869997808237
 21
782.01764035005738
  0
LINE
  8
_0-5_寸法線
  6
CONTINUOUS
 62
    7
 10
519.51795824097303
 20
784.60583080108245
 11
509.85869997808237
 21
787.19402125210763
  0
LINE
  8
_0-5_寸法線
  6
CONTINUOUS
 62
    7
 10
474.51795824097314
 20
784.60583080108245
 11
519.51795824097303
 21
784.60583080108245
  0
TEXT
  8
_0-5_寸法線
 62
    7
 10
489.51795824097314
 20
784.60583080108233
 40
15
 41
1
 50
0
  1
45
  0
LINE
  8
_0-5_寸法線
  6
CONTINUOUS
 62
    7
 10
519.51795824097303
 20
784.60583080108245
 11
529.17721650386375
 21
787.19402125210763
  0
LINE
  8
_0-5_寸法線
  6
CONTINUOUS
 62
    7
 10
519.51795824097303
 20
784.60583080108245
 11
529.17721650386375
 21
782.01764035005726
  0
LINE
  8
_0-5_寸法線
  6
CONTINUOUS
 62
    7
 10
616.51795824097326
 20
744.60583080108245
 11
616.51795824097326
 21
789.60583080108245
  0
LINE
  8
_0-5_寸法線
  6
CONTINUOUS
 62
    7
 10
616.51795824097326
 20
784.60583080108245
 11
606.85869997808243
 21
782.01764035005738
  0
LINE
  8
_0-5_寸法線
  6
CONTINUOUS
 62
    7
 10
616.51795824097326
 20
784.60583080108245
 11
606.85869997808243
 21
787.19402125210763
  0
LINE
  8
_0-5_寸法線
  6
CONTINUOUS
 62
    7
 10
519.51795824097303
 20
784.60583080108245
 11
616.51795824097326
 21
784.60583080108245
  0
TEXT
  8
_0-5_寸法線
 62
    7
 10
560.51795824097314
 20
784.60583080108233
 40
15
 41
1
 50
0
  1
97
  0
LINE
  8
_0-5_寸法線
  6
CONTINUOUS
 62
    7
 10
616.51795824097326
 20
784.60583080108245
 11
626.17721650386386
 21
787.19402125210763
  0
LINE
  8
_0-5_寸法線
  6
CONTINUOUS
 62
    7
 10
616.51795824097326
 20
784.60583080108245
 11
626.17721650386386
 21
782.01764035005726
  0
LINE
  8
_0-5_寸法線
  6
CONTINUOUS
 62
    7
 10
623.51795824097314
 20
744.60583080108245
 11
623.51795824097314
 21
789.60583080108245
  0
LINE
  8
_0-5_寸法線
  6
CONTINUOUS
 62
    7
 10
623.51795824097314
 20
784.60583080108245
 11
613.85869997808243
 21
782.01764035005738
  0
LINE
  8
_0-5_寸法線
  6
CONTINUOUS
 62
    7
 10
623.51795824097314
 20
784.60583080108245
 11
613.85869997808243
 21
787.19402125210763
  0
LINE
  8
_0-5_寸法線
  6
CONTINUOUS
 62
    7
 10
616.51795824097326
 20
784.60583080108245
 11
623.51795824097314
 21
784.60583080108245
  0
TEXT
  8
_0-5_寸法線
 62
    7
 10
615.17621716513577
 20
784.60583080108245
 40
15
 41
1
 50
0
  1
7
  0
LINE
  8
_0-1_計細線
  6
CONTINUOUS
 62
    3
 10
912.50000018822379
 20
647.45999999999981
 11
909.49548418822371
 21
647.45999999999981
  0
LINE
  8
_0-1_計細線
  6
CONTINUOUS
 62
    3
 10
912.50000018822379
 20
643.96000000000026
 11
909.49547218822431
 21
643.96000000000026
  0
ARC
  8
_0-1_計細線
  6
CONTINUOUS
 62
    3
 10
909.49547218822431
 20
644.16000000000008
 40
0.2000000000000001
 50
179.99999999999983
 51
269.99999999999977
  0
ARC
  8
_0-1_計細線
  6
CONTINUOUS
 62
    3
 10
917.0534521882239
 20
645.7098540000004
 40
7.7579560000000019
 50
166.96197800000505
 51
193.03566999999961
  0
ARC
  8
_0-1_計細線
  6
CONTINUOUS
 62
    3
 10
909.49547218822431
 20
650.76000000000022
 40
0.2000000000000001
 50
89.999999999999915
 51
179.99999999999983
  0
ARC
  8
_0-1_計細線
  6
CONTINUOUS
 62
    3
 10
917.0534521882239
 20
649.2101439999999
 40
7.7579560000000019
 50
166.96433000000002
 51
193.0380219999995
  0
LINE
  8
_0-1_計細線
  6
CONTINUOUS
 62
    3
 10
912.50000018822379
 20
650.96000000000004
 11
909.49547218822431
 21
650.96000000000004
  0
LINE
  8
_0-1_計細線
  6
CONTINUOUS
 62
    3
 10
909.29547218822393
 20
644.16000000000008
 11
909.29547218822393
 21
650.76000000000022
  0
ARC
  8
_0-1_計細線
  6
CONTINUOUS
 62
    3
 10
912.70000018822429
 20
641.16000000000008
 40
0.2000000000000001
 50
179.99999999999983
 51
269.99999999999977
  0
ARC
  8
_0-1_計細線
  6
CONTINUOUS
 62
    3
 10
912.70000018822429
 20
653.75999999999976
 40
0.2000000000000001
 50
89.999999999999915
 51
179.99999999999983
  0
LINE
  8
_0-1_計細線
  6
CONTINUOUS
 62
    3
 10
912.50000018822379
 20
646.95999999999981
 11
912.50000018822379
 21
641.16000000000008
  0
LINE
  8
_0-1_計細線
  6
CONTINUOUS
 62
    3
 10
912.50000018822379
 20
653.75999999999976
 11
912.50000018822379
 21
646.95999999999981
  0
LINE
  8
_0-1_計細線
  6
CONTINUOUS
 62
    3
 10
914.000000188699
 20
640.95999999999992
 11
912.70000018822429
 21
640.95999999999992
  0
LINE
  8
_0-1_計細線
  6
CONTINUOUS
 62
    3
 10
914.00000018774847
 20
653.96000000000004
 11
912.70000018822429
 21
653.96000000000004
  0
LINE
  8
_0-1_計細線
  6
CONTINUOUS
 62
    3
 10
1257.4999998117764
 20
647.45999999999981
 11
1260.5045158117764
 21
647.45999999999981
  0
LINE
  8
_0-1_計細線
  6
CONTINUOUS
 62
    3
 10
1257.4999998117764
 20
643.96000000000026
 11
1260.5045278117759
 21
643.96000000000026
  0
ARC
  8
_0-1_計細線
  6
CONTINUOUS
 62
    3
 10
1260.5045278117759
 20
644.16000000000008
 40
0.2000000000000001
 50
269.99999999999977
 51
359.99999999999966
  0
ARC
  8
_0-1_計細線
  6
CONTINUOUS
 62
    3
 10
1252.9465478117763
 20
645.7098540000004
 40
7.7579560000000019
 50
346.96432999999968
 51
13.038021999994573
  0
ARC
  8
_0-1_計細線
  6
CONTINUOUS
 62
    3
 10
1260.5045278117759
 20
650.76000000000022
 40
0.2000000000000001
 50
0
 51
89.999999999999915
  0
ARC
  8
_0-1_計細線
  6
CONTINUOUS
 62
    3
 10
1252.9465478117763
 20
649.2101439999999
 40
7.7579560000000019
 50
346.96197799999976
 51
13.035669999999625
  0
LINE
  8
_0-1_計細線
  6
CONTINUOUS
 62
    3
 10
1257.4999998117764
 20
650.96000000000004
 11
1260.5045278117759
 21
650.96000000000004
  0
LINE
  8
_0-1_計細線
  6
CONTINUOUS
 62
    3
 10
1260.7045278117762
 20
644.16000000000008
 11
1260.7045278117762
 21
650.76000000000022
  0
ARC
  8
_0-1_計細線
  6
CONTINUOUS
 62
    3
 10
1257.2999998117757
 20
641.16000000000008
 40
0.2000000000000001
 50
269.99999999999977
 51
359.99999999999966
  0
ARC
  8
_0-1_計細線
  6
CONTINUOUS
 62
    3
 10
1257.2999998117757
 20
653.75999999999976
 40
0.2000000000000001
 50
0
 51
89.999999999999915
  0
LINE
  8
_0-1_計細線
  6
CONTINUOUS
 62
    3
 10
1257.4999998117764
 20
646.95999999999981
 11
1257.4999998117764
 21
641.16000000000008
  0
LINE
  8
_0-1_計細線
  6
CONTINUOUS
 62
    3
 10
1257.4999998117764
 20
653.75999999999976
 11
1257.4999998117764
 21
646.95999999999981
  0
LINE
  8
_0-1_計細線
  6
CONTINUOUS
 62
    3
 10
1255.9999998113012
 20
640.95999999999992
 11
1257.2999998117757
 21
640.95999999999992
  0
LINE
  8
_0-1_計細線
  6
CONTINUOUS
 62
    3
 10
1255.9999998122516
 20
653.96000000000004
 11
1257.2999998117757
 21
653.96000000000004
  0
LINE
  8
_0-0_計極細
  6
CENTER1
 62
    2
 10
1263.5939345553384
 20
647.45999999999981
 11
906.47298863849187
 21
647.45999999999981
  0
LINE
  8
_0-5_寸法線
  6
CONTINUOUS
 62
    7
 10
1076.8084795571101
 20
644.39576436351035
 11
1053.1396183888319
 21
660.96887937437759
  0
LINE
  8
_0-5_寸法線
  6
CONTINUOUS
 62
    7
 10
1057.2353786102769
 20
658.10099719262223
 11
1054.6471881592518
 21
667.76025545551295
  0
LINE
  8
_0-5_寸法線
  6
CONTINUOUS
 62
    7
 10
1057.2353786102769
 20
658.10099719262223
 11
1059.8235690613021
 21
667.76025545551295
  0
LINE
  8
_0-5_寸法線
  6
CONTINUOUS
 62
    7
 10
1076.8084795571101
 20
664.39576436351001
 11
1053.1396183888321
 21
680.96887937437816
  0
LINE
  8
_0-5_寸法線
  6
CONTINUOUS
 62
    7
 10
1057.2353786102769
 20
678.1009971926228
 11
1059.8235690613021
 21
668.4417389297322
  0
LINE
  8
_0-5_寸法線
  6
CONTINUOUS
 62
    7
 10
1057.2353786102769
 20
678.1009971926228
 11
1054.6471881592518
 21
668.4417389297322
  0
LINE
  8
_0-5_寸法線
  6
CONTINUOUS
 62
    7
 10
1057.2353786102769
 20
658.10099719262223
 11
1057.2353786102769
 21
678.1009971926228
  0
TEXT
  8
_0-5_寸法線
 62
    7
 10
1057.2353786102769
 20
660.60099719262257
 40
15
 41
1
 50
90
  1
20
  0
ENDSEC
  0
EOF
