  0
SECTION
  2
HEADER
  9
$ACADVER
  1
AC1009
  9
$INSBASE
 10
0
 20
0
 30
0
  9
$EXTMIN
 10
0
 20
0
  9
$EXTMAX
 10
1485
 20
1050
  9
$LIMMIN
 10
0
 20
0
  9
$LIMMAX
 10
1485
 20
1050
  9
$LTSCALE
 40
5
  0
ENDSEC
  0
SECTION
  2
TABLES
  0
TABLE
  2
LTYPE
 70
     9
  0
LTYPE
  2
CONTINUOUS
 70
    64
  3
実線
 72
    65
 73
     0
 40
0.0
  0
LTYPE
  2
DASHED1
 70
    64
  3
--  --  --  --  --  --  --  --  
 72
    65
 73
     2
 40
2.5
 49
1.25
 49
-1.25
  0
LTYPE
  2
DASHED2
 70
    64
  3
----    ----    ----    ----    
 72
    65
 73
     2
 40
5.0
 49
2.5
 49
-2.5
  0
LTYPE
  2
DASHED3
 70
    64
  3
------  ------  ------  ------  
 72
    65
 73
     2
 40
5.0
 49
3.75
 49
-1.25
  0
LTYPE
  2
CENTER1
 70
    64
  3
----- - ----- - ----- - ----- - 
 72
    65
 73
     4
 40
10.0
 49
6.25
 49
-1.25
 49
1.25
 49
-1.25
  0
LTYPE
  2
CENTER2
 70
    64
  3
----------  --  ----------  --  
 72
    65
 73
     4
 40
20.0
 49
12.5
 49
-2.5
 49
2.5
 49
-2.5
  0
LTYPE
  2
PHANTOM1
 70
    64
  3
--- - - --- - - --- - - --- - - 
 72
    65
 73
     6
 40
10.0
 49
3.25
 49
-1.25
 49
1.25
 49
-1.25
 49
1.25
 49
-1.25
  0
LTYPE
  2
PHANTOM2
 70
    64
  3
--------  -  -  --------  -  -  
 72
    65
 73
     6
 40
20.0
 49
10.0
 49
-2.5
 49
1.25
 49
-2.5
 49
1.25
 49
-2.5
  0
LTYPE
  2
DOT
 70
    64
  3
-   -   -   -   -   -   -   -   
 72
    65
 73
     2
 40
2.5
 49
0.625
 49
-1.875
  0
LTYPE
  2
DUMMY
 70
    64
  3
ダミー
 72
    65
 73
     0
 40
0.0
  0
LTYPE
  2
RAND1
 70
    64
  3
ランダム線1
 72
    65
 73
     4
 40
10.0
 49
1.0
 49
-2.0
 49
3.0
 49
-4.0
  0
LTYPE
  2
RAND2
 70
    64
  3
ランダム線2
 72
    65
 73
     4
 40
14.0
 49
2.0
 49
-3.0
 49
4.0
 49
-5.0
  0
LTYPE
  2
RAND3
 70
    64
  3
ランダム線3
 72
    65
 73
     4
 40
18.0
 49
3.0
 49
-4.0
 49
5.0
 49
-6.0
  0
LTYPE
  2
RAND4
 70
    64
  3
ランダム線4
 72
    65
 73
     4
 40
22.0
 49
4.0
 49
-5.0
 49
6.0
 49
-7.0
  0
LTYPE
  2
RAND5
 70
    64
  3
ランダム線5
 72
    65
 73
     4
 40
26.0
 49
5.0
 49
-6.0
 49
7.0
 49
-8.0
  0
LTYPE
  2
LONG1
 70
    64
  3
----------  --  ----------  --  
 72
    65
 73
     4
 40
40.0
 49
32.5
 49
-2.5
 49
2.5
 49
-2.5
  0
LTYPE
  2
LONG2
 70
    64
  3
--------  -  -  --------  -  -  
 72
    65
 73
     6
 40
40.0
 49
30.0
 49
-2.5
 49
1.25
 49
-2.5
 49
1.25
 49
-2.5
  0
LTYPE
  2
LONG3
 70
    64
  3
+++++++++++++++..+++++++++++++++
 72
    65
 73
     2
 40
40.0
 49
37.5
 49
-2.5
  0
LTYPE
  2
LONG4
 70
    64
  3
+++++++++++++++..+++++++++++++++
 72
    65
 73
     2
 40
80.0
 49
75.0
 49
-5.0
  0
LTYPE
  2
LONG5
 70
    64
  3
----------  --  ----------  --  
 72
    65
 73
     4
 40
60.0
 49
37.5
 49
-7.5
 49
7.5
 49
-7.5
  0
LTYPE
  2
dashed
 70
   64
  3
-------   -------------   ------
 72
   65
 73
    2
 40
7.5
 49
6
 49
-1.5
  0
LTYPE
  2
dashed_spaced
 70
   64
  3
----        --------        ----
 72
   65
 73
    2
 40
12
 49
6
 49
-6
  0
LTYPE
  2
long_dashed_dotted
 70
   64
  3
------------- --- --------------
 72
   65
 73
    4
 40
15.25
 49
12
 49
-1.5
 49
0.25
 49
-1.5
  0
LTYPE
  2
long_dashed_double-dotted
 70
   64
  3
----------- --- --- ------------
 72
   65
 73
    6
 40
17
 49
12
 49
-1.5
 49
0.25
 49
-1.5
 49
0.25
 49
-1.5
  0
LTYPE
  2
long_dashed_triplicate-dotted
 70
   64
  3
--------- --- --- --- ----------
 72
   65
 73
    8
 40
18.75
 49
12
 49
-1.5
 49
0.25
 49
-1.5
 49
0.25
 49
-1.5
 49
0.25
 49
-1.5
  0
LTYPE
  2
dotted
 70
   64
  3
   -       -       -       -    
 72
   65
 73
    2
 40
1.75
 49
0.25
 49
-1.5
  0
LTYPE
  2
chain
 70
   64
  3
-------------- -- --------------
 72
   65
 73
    4
 40
18.5
 49
12
 49
-1.5
 49
3.5
 49
-1.5
  0
LTYPE
  2
chain_double_dash
 70
   64
  3
------------ -- -- -------------
 72
   65
 73
    6
 40
23.5
 49
12
 49
-1.5
 49
3.5
 49
-1.5
 49
3.5
 49
-1.5
  0
LTYPE
  2
dashed_dotted
 70
   64
  3
-----------     -     ----------
 72
   65
 73
    4
 40
9.25
 49
6
 49
-1.5
 49
0.25
 49
-1.5
  0
LTYPE
  2
double-dashed_dotted
 70
   64
  3
------   -----------   -   -----
 72
   65
 73
    6
 40
16.75
 49
6
 49
-1.5
 49
6
 49
-1.5
 49
0.25
 49
-1.5
  0
LTYPE
  2
dashed_double-dotted
 70
   64
  3
---------    -    -    ---------
 72
   65
 73
    6
 40
11
 49
6
 49
-1.5
 49
0.25
 49
-1.5
 49
0.25
 49
-1.5
  0
LTYPE
  2
double-dashed_double-dotted
 70
   64
  3
-----   ---------   -   -   ----
 72
   65
 73
    8
 40
18.5
 49
6
 49
-1.5
 49
6
 49
-1.5
 49
0.25
 49
-1.5
 49
0.25
 49
-1.5
  0
LTYPE
  2
dashed_triplicate-dotted
 70
   64
  3
-------    -    -    -    ------
 72
   65
 73
    8
 40
12.75
 49
6
 49
-1.5
 49
0.25
 49
-1.5
 49
0.25
 49
-1.5
 49
0.25
 49
-1.5
  0
LTYPE
  2
double-dashed_triplicate-dotted
 70
   64
  3
-----  ---------  -  -  -  -----
 72
   65
 73
   10
 40
20.25
 49
6
 49
-1.5
 49
6
 49
-1.5
 49
0.25
 49
-1.5
 49
0.25
 49
-1.5
 49
0.25
 49
-1.5
  0
LTYPE
  2
undefined
 70
   64
  3
--------------------------------
 72
   65
 73
    0
 40
0
  0
ENDTAB
  0
TABLE
  2
STYLE
  5
3
100
AcDbSymbolTable
 70
     1
  0
STYLE
  5
10
100
AcDbSymbolTableRecord
100
AcDbTextStyleTableRecord
  2
STANDARD
 70
     0
 40
0.0
 41
1.0
 50
0.0
 71
     0
 42
0.2
  3
txt
  4
bigfont.shx
  0
STYLE
  5
26
100
AcDbSymbolTableRecord
100
AcDbTextStyleTableRecord
  2
TATEGAKI
 70
    68
 40
0.0
 41
1.0
 50
0.0
 71
     0
 42
1.0
  3
txt
  4
bigfont.shx
  0
ENDTAB
  0
TABLE
  2
LAYER
 70
   10
  0
LAYER
  2
_0-0_計極細
 70
   64
 62
    7
  6
CONTINUOUS
  0
LAYER
  2
_0-1_計細線
 70
   64
 62
    7
  6
CONTINUOUS
  0
LAYER
  2
_0-5_寸法線
 70
   64
 62
    7
  6
CONTINUOUS
  0
LAYER
  2
_0-7_枠細線
 70
   64
 62
    7
  6
CONTINUOUS
  0
LAYER
  2
_0-8_枠中線
 70
   64
 62
    7
  6
CONTINUOUS
  0
LAYER
  2
_0-9_枠極太
 70
   64
 62
    7
  6
CONTINUOUS
  0
LAYER
  2
_0-a_極細3
 70
   64
 62
    7
  6
CONTINUOUS
  0
LAYER
  2
_0-b_細線3
 70
   64
 62
    7
  6
CONTINUOUS
  0
LAYER
  2
_0-d_寸法3
 70
   64
 62
    7
  6
CONTINUOUS
  0
LAYER
  2
ADD_LINE
 70
   64
 62
    7
  6
CONTINUOUS
  0
ENDTAB
  0
ENDSEC
  0
SECTION
  2
BLOCKS
  0
ENDSEC
  0
SECTION
  2
ENTITIES
  0
LINE
  8
_0-7_枠細線
  6
CONTINUOUS
 62
    5
 10
1185
 20
180
 11
1185
 21
100
  0
TEXT
  8
_0-7_枠細線
 62
    5
 10
937.5
 20
97.5
 40
17.5
 41
1
 50
0
  1
備考
  7
TATEGAKI
  0
TEXT
  8
_0-7_枠細線
 62
    5
 10
937.5
 20
137.5
 40
17.5
 41
1
 50
0
  1
品番
  7
TATEGAKI
  0
TEXT
  8
_0-7_枠細線
 62
    5
 10
937.5
 20
177.5
 40
17.5
 41
1
 50
0
  1
品名
  7
TATEGAKI
  0
LINE
  8
_0-7_枠細線
  6
CONTINUOUS
 62
    5
 10
1185
 20
140
 11
925
 21
140
  0
LINE
  8
_0-7_枠細線
  6
CONTINUOUS
 62
    5
 10
950
 20
180
 11
950
 21
60
  0
LINE
  8
_0-8_枠中線
  6
CONTINUOUS
 62
    5
 10
1425
 20
180
 11
925
 21
180
  0
LINE
  8
_0-8_枠中線
  6
CONTINUOUS
 62
    5
 10
925
 20
180
 11
925
 21
60
  0
LINE
  8
_0-7_枠細線
  6
CONTINUOUS
 62
    5
 10
1245
 20
180
 11
1245
 21
60
  0
TEXT
  8
_0-7_枠細線
 62
    5
 10
1192.5
 20
160
 40
15
 41
1
 50
0
  1
縮　尺
  0
TEXT
  8
_0-7_枠細線
 62
    5
 10
1194
 20
117.5
 40
20
 41
0.7
 50
0
  1
１：５
  0
LINE
  8
_0-7_枠細線
  6
CONTINUOUS
 62
    5
 10
1185
 20
155
 11
1245
 21
155
  0
LINE
  8
_0-7_枠細線
  6
CONTINUOUS
 62
    5
 10
1245
 20
100
 11
925
 21
100
  0
LINE
  8
_0-7_枠細線
  6
CONTINUOUS
 62
    5
 10
1425
 20
90
 11
1245
 21
90
  0
LINE
  8
_0-7_枠細線
  6
CONTINUOUS
 62
    5
 10
1245
 20
120
 11
1425
 21
120
  0
LINE
  8
_0-7_枠細線
  6
CONTINUOUS
 62
    5
 10
1425
 20
140
 11
1245
 21
140
  0
TEXT
  8
_0-7_枠細線
 62
    5
 10
1255
 20
147.5
 40
25
 41
0.8
 50
0
  1
株式会社シマブン
  0
TEXT
  8
_0-7_枠細線
 62
    5
 10
1252.5
 20
60
 40
15
 41
1
 50
0
  1
年月日
  0
TEXT
  8
_0-7_枠細線
 62
    5
 10
1252.5
 20
75
 40
15
 41
1
 50
0
  1
作　成
  0
TEXT
  8
_0-7_枠細線
 62
    5
 10
1250
 20
95
 40
20
 41
1
 50
0
  1
島 英
  0
TEXT
  8
_0-7_枠細線
 62
    5
 10
1256.25
 20
122.5
 40
15
 41
1
 50
0
  1
承 認
  0
LINE
  8
_0-7_枠細線
  6
CONTINUOUS
 62
    5
 10
1305
 20
140
 11
1305
 21
60
  0
TEXT
  8
_0-7_枠細線
 62
    5
 10
1315
 20
95
 40
20
 41
1
 50
0
  1
隠塚
  0
TEXT
  8
_0-7_枠細線
 62
    5
 10
1316.25
 20
122.5
 40
15
 41
1
 50
0
  1
検 図
  0
LINE
  8
_0-7_枠細線
  6
CONTINUOUS
 62
    5
 10
1365
 20
140
 11
1365
 21
90
  0
TEXT
  8
_0-7_枠細線
 62
    5
 10
1375
 20
95
 40
20
 41
1
 50
0
  1
藤戸
  0
TEXT
  8
_0-7_枠細線
 62
    5
 10
1376.25
 20
122.5
 40
15
 41
1
 50
0
  1
設 計
  0
TEXT
  8
_0-7_枠細線
 62
    5
 10
965.50000000000011
 20
150
 40
20
 41
0.6
 50
0
  1
セーフティグレーチングＨ２０タイプ
  0
LINE
  8
_0-a_極細3
  6
CONTINUOUS
 62
    7
 10
293.03841985316762
 20
232.04579153234235
 11
293.03841985316762
 21
163.71245819900901
  0
LINE
  8
_0-a_極細3
  6
CONTINUOUS
 62
    7
 10
376.37175318650111
 20
163.71245819900901
 11
293.03841985316762
 21
163.71245819900901
  0
LINE
  8
_0-a_極細3
  6
CONTINUOUS
 62
    7
 10
293.03841985316762
 20
232.04579153234235
 11
262.19400604138656
 21
232.04579153234235
  0
LINE
  8
_0-a_極細3
  6
CONTINUOUS
 62
    7
 10
376.37175318650111
 20
163.71245819900901
 11
376.37175318650111
 21
137.47085790423
  0
LINE
  8
_0-a_極細3
  6
CONTINUOUS
 62
    7
 10
338.94977862151131
 20
137.47085802066678
 11
365.19137879985396
 21
163.71245819900901
  0
LINE
  8
_0-a_極細3
  6
CONTINUOUS
 62
    7
 10
268.23910072287003
 20
137.47085824068
 11
294.4807006811991
 21
163.71245819900901
  0
LINE
  8
_0-a_極細3
  6
CONTINUOUS
 62
    7
 10
262.19400604138656
 20
202.13644167785128
 11
292.10335589587771
 21
232.04579153234235
  0
LINE
  8
_0-a_極細3
  6
CONTINUOUS
 62
    7
 10
331.87871083164714
 20
137.47085804266817
 11
358.1203109879882
 21
163.71245819900901
  0
LINE
  8
_0-a_極細3
  6
CONTINUOUS
 62
    7
 10
262.19400604138656
 20
138.49683137106206
 11
293.03841985316762
 21
169.34124518284335
  0
LINE
  8
_0-a_極細3
  6
CONTINUOUS
 62
    7
 10
262.19400604138656
 20
209.20750948971681
 11
285.03228808401195
 21
232.04579153234235
  0
LINE
  8
_0-a_極細3
  6
CONTINUOUS
 62
    7
 10
324.80764304178342
 20
137.47085806466947
 11
351.0492431761229
 21
163.71245819900901
  0
LINE
  8
_0-a_極細3
  6
CONTINUOUS
 62
    7
 10
262.19400604138656
 20
145.56789918292742
 11
293.03841985316762
 21
176.41231299470883
  0
LINE
  8
_0-a_極細3
  6
CONTINUOUS
 62
    7
 10
262.19400604138656
 20
216.27857730158223
 11
277.96122027214665
 21
232.04579153234235
  0
CIRCLE
  8
_0-a_極細3
  6
CONTINUOUS
 62
    7
 10
280.08989388455376
 20
247.24920194900233
 40
0.5530864197530718
  0
CIRCLE
  8
_0-a_極細3
  6
CONTINUOUS
 62
    7
 10
269.75902968702326
 20
237.29364639344692
 40
0.5530864197530718
  0
CIRCLE
  8
_0-a_極細3
  6
CONTINUOUS
 62
    7
 10
280.36643709443047
 20
238.3603130601135
 40
0.5530864197530718
  0
CIRCLE
  8
_0-a_極細3
  6
CONTINUOUS
 62
    7
 10
292.98865931665273
 20
240.31586861566905
 40
0.5530864197530718
  0
CIRCLE
  8
_0-a_極細3
  6
CONTINUOUS
 62
    7
 10
321.43310376109662
 20
252.04920194900225
 40
0.5530864197530718
  0
CIRCLE
  8
_0-a_極細3
  6
CONTINUOUS
 62
    7
 10
346.32199264998525
 20
262.0047575045578
 40
0.5530864197530718
  0
CIRCLE
  8
_0-a_極細3
  6
CONTINUOUS
 62
    7
 10
352.01088153887412
 20
245.82697972678008
 40
0.5530864197530718
  0
CIRCLE
  8
_0-a_極細3
  6
CONTINUOUS
 62
    7
 10
327.12199264998554
 20
245.29364639344678
 40
0.5530864197530718
  0
CIRCLE
  8
_0-a_極細3
  6
CONTINUOUS
 62
    7
 10
315.38865931665242
 20
260.22697972677997
 40
0.5530864197530718
  0
CIRCLE
  8
_0-a_極細3
  6
CONTINUOUS
 62
    7
 10
299.93310376109707
 20
233.06031306011346
 40
0.5530864197530718
  0
CIRCLE
  8
_0-a_極細3
  6
CONTINUOUS
 62
    7
 10
320.37754820554096
 20
231.81586861566902
 40
0.5530864197530718
  0
CIRCLE
  8
_0-a_極細3
  6
CONTINUOUS
 62
    7
 10
345.44421487220751
 20
228.08253528233578
 40
0.5530864197530718
  0
CIRCLE
  8
_0-a_極細3
  6
CONTINUOUS
 62
    7
 10
332.8219926499853
 20
222.39364639344694
 40
0.5530864197530718
  0
CIRCLE
  8
_0-a_極細3
  6
CONTINUOUS
 62
    7
 10
318.06643709443028
 20
208.88253528233588
 40
0.5530864197530718
  0
CIRCLE
  8
_0-a_極細3
  6
CONTINUOUS
 62
    7
 10
345.44421487220751
 20
216.17142417122477
 40
0.5530864197530718
  0
CIRCLE
  8
_0-a_極細3
  6
CONTINUOUS
 62
    7
 10
304.33310376109671
 20
189.06031306011386
 40
0.5530864197530718
  0
CIRCLE
  8
_0-a_極細3
  6
CONTINUOUS
 62
    7
 10
298.64421487220784
 20
171.10475750455848
 40
0.5530864197530718
  0
CIRCLE
  8
_0-a_極細3
  6
CONTINUOUS
 62
    7
 10
307.35532598331906
 20
177.86031306011395
 40
0.5530864197530718
  0
CIRCLE
  8
_0-a_極細3
  6
CONTINUOUS
 62
    7
 10
313.57754820554123
 20
169.32697972678071
 40
0.5530864197530718
  0
CIRCLE
  8
_0-a_極細3
  6
CONTINUOUS
 62
    7
 10
352.8775482055409
 20
187.21586861566962
 40
0.5530864197530718
  0
CIRCLE
  8
_0-a_極細3
  6
CONTINUOUS
 62
    7
 10
341.67754820554109
 20
181.70475750455836
 40
0.5530864197530718
  0
CIRCLE
  8
_0-a_極細3
  6
CONTINUOUS
 62
    7
 10
347.89977042776331
 20
179.21586861566959
 40
0.5530864197530718
  0
CIRCLE
  8
_0-a_極細3
  6
CONTINUOUS
 62
    7
 10
344.3442148722076
 20
169.97142417122518
 40
0.5530864197530718
  0
CIRCLE
  8
_0-a_極細3
  6
CONTINUOUS
 62
    7
 10
364.25532598331864
 20
171.03809083789187
 40
0.5530864197530718
  0
CIRCLE
  8
_0-a_極細3
  6
CONTINUOUS
 62
    7
 10
377.23310376109629
 20
174.2380908378918
 40
0.5530864197530718
  0
CIRCLE
  8
_0-a_極細3
  6
CONTINUOUS
 62
    7
 10
390.92199264998521
 20
159.30475750455861
 40
0.5530864197530718
  0
CIRCLE
  8
_0-a_極細3
  6
CONTINUOUS
 62
    7
 10
383.98865931665176
 20
144.37142417122539
 40
0.5530864197530718
  0
CIRCLE
  8
_0-a_極細3
  6
CONTINUOUS
 62
    7
 10
367.3219926499853
 20
187.98623898603992
 40
0.5530864197530718
  0
CIRCLE
  8
_0-a_極細3
  6
CONTINUOUS
 62
    7
 10
382.07754820554072
 20
222.11957231937299
 40
0.5530864197530718
  0
CIRCLE
  8
_0-a_極細3
  6
CONTINUOUS
 62
    7
 10
397.18865931665164
 20
212.16401676381747
 40
0.5530864197530718
  0
CIRCLE
  8
_0-a_極細3
  6
CONTINUOUS
 62
    7
 10
397.72199264998494
 20
194.20846120826207
 40
0.5530864197530718
  0
CIRCLE
  8
_0-a_極細3
  6
CONTINUOUS
 62
    7
 10
362.47754820554087
 20
223.94179454159516
 40
0.5530864197530718
  0
CIRCLE
  8
_0-a_極細3
  6
CONTINUOUS
 62
    7
 10
342.18865931665209
 20
245.92574515887893
 40
1.825531472681392
  0
CIRCLE
  8
_0-a_極細3
  6
CONTINUOUS
 62
    7
 10
290.42653961521705
 20
252.85535943357684
 40
1.825531472681392
  0
CIRCLE
  8
_0-a_極細3
  6
CONTINUOUS
 62
    7
 10
316.96643709442992
 20
223.12574515887911
 40
1.825531472681392
  0
CIRCLE
  8
_0-a_極細3
  6
CONTINUOUS
 62
    7
 10
297.36643709443001
 20
185.12574515887957
 40
1.825531472681392
  0
CIRCLE
  8
_0-a_極細3
  6
CONTINUOUS
 62
    7
 10
350.56643709442932
 20
172.32574515887976
 40
1.825531472681392
  0
CIRCLE
  8
_0-a_極細3
  6
CONTINUOUS
 62
    7
 10
386.54421487220702
 20
168.72574515887976
 40
1.825531472681392
  0
CIRCLE
  8
_0-a_極細3
  6
CONTINUOUS
 62
    7
 10
391.34421487220669
 20
150.05907849221336
 40
1.825531472681392
  0
CIRCLE
  8
_0-a_極細3
  6
CONTINUOUS
 62
    7
 10
270.22946007413771
 20
253.74796738110115
 40
1.825531472681392
  0
LINE
  8
_0-a_極細3
  6
CONTINUOUS
 62
    7
 10
408.87175318650111
 20
238.71245819900901
 11
409.70508651983459
 21
238.71245819900901
  0
LINE
  8
_0-a_極細3
  6
CONTINUOUS
 62
    7
 10
409.70508651983459
 20
238.71245819900901
 11
409.70508651983459
 21
137.47085790423
  0
CIRCLE
  8
_0-a_極細3
  6
CONTINUOUS
 62
    7
 10
402.8176523722056
 20
222.72574515887953
 40
1.825531472681392
  0
CIRCLE
  8
_0-a_極細3
  6
CONTINUOUS
 62
    7
 10
401.8256963536885
 20
168.0158686156696
 40
0.5530864197530718
  0
CIRCLE
  8
_0-a_極細3
  6
CONTINUOUS
 62
    7
 10
403.15902968702238
 20
145.35979758249988
 40
0.5530864197530718
  0
CIRCLE
  8
_0-a_極細3
  6
CONTINUOUS
 62
    7
 10
390.78865931664745
 20
203.6146340477687
 40
1.825531472681392
  0
LINE
  8
_0-a_極細3
  6
CONTINUOUS
 62
    7
 10
693.03841985316808
 20
232.04579153234235
 11
693.03841985316808
 21
163.71245819900901
  0
LINE
  8
_0-a_極細3
  6
CONTINUOUS
 62
    7
 10
609.70508651983482
 20
163.71245819900901
 11
693.03841985316808
 21
163.71245819900901
  0
LINE
  8
_0-a_極細3
  6
CONTINUOUS
 62
    7
 10
693.03841985316808
 20
232.04579153234235
 11
723.88283366494943
 21
232.04579153234235
  0
LINE
  8
_0-a_極細3
  6
CONTINUOUS
 62
    7
 10
609.70508651983482
 20
163.71245819900901
 11
609.70508651983482
 21
137.47085790423
  0
LINE
  8
_0-a_極細3
  6
CONTINUOUS
 62
    7
 10
701.3284222677612
 20
137.47085790423
 11
723.88283370649015
 21
160.02526934295895
  0
LINE
  8
_0-a_極細3
  6
CONTINUOUS
 62
    7
 10
630.61774414910633
 20
137.47085790423
 11
656.85934444388522
 21
163.71245819900901
  0
LINE
  8
_0-a_極細3
  6
CONTINUOUS
 62
    7
 10
693.03841985316808
 20
199.89153360829178
 11
723.88283366570499
 21
230.73594742082855
  0
LINE
  8
_0-a_極細3
  6
CONTINUOUS
 62
    7
 10
694.25735445589555
 20
137.47085790423
 11
723.88283370241152
 21
167.09633715074597
  0
LINE
  8
_0-a_極細3
  6
CONTINUOUS
 62
    7
 10
623.54667633724057
 20
137.47085790423
 11
649.78827663201992
 21
163.71245819900901
  0
LINE
  8
_0-a_極細3
  6
CONTINUOUS
 62
    7
 10
693.03841985316808
 20
206.96260142015728
 11
718.12160978580278
 21
232.04579135279198
  0
LINE
  8
_0-a_極細3
  6
CONTINUOUS
 62
    7
 10
687.18628664403013
 20
137.47085790423
 11
723.88283369833289
 21
174.1674049585329
  0
LINE
  8
_0-a_極細3
  6
CONTINUOUS
 62
    7
 10
616.47560852537526
 20
137.47085790423
 11
642.71720882015438
 21
163.71245819900901
  0
LINE
  8
_0-a_極細3
  6
CONTINUOUS
 62
    7
 10
693.03841985316808
 20
214.0336692320227
 11
711.05054202455358
 21
232.04579140340809
  0
CIRCLE
  8
_0-a_極細3
  6
CONTINUOUS
 62
    7
 10
596.11088153887226
 20
222.56679454159519
 40
0.5530864197530718
  0
CIRCLE
  8
_0-a_極細3
  6
CONTINUOUS
 62
    7
 10
606.06643709442756
 20
227.36679454159514
 40
0.5530864197530718
  0
CIRCLE
  8
_0-a_極細3
  6
CONTINUOUS
 62
    7
 10
601.97754820553905
 20
202.38901676381758
 40
0.5530864197530718
  0
CIRCLE
  8
_0-a_極細3
  6
CONTINUOUS
 62
    7
 10
619.51088153887213
 20
185.36679454159548
 40
0.5530864197530718
  0
CIRCLE
  8
_0-a_極細3
  6
CONTINUOUS
 62
    7
 10
601.67754820553887
 20
162.0667945415957
 40
0.5530864197530718
  0
CIRCLE
  8
_0-a_極細3
  6
CONTINUOUS
 62
    7
 10
592.34421487220584
 20
144.20012787492931
 40
0.5530864197530718
  0
CIRCLE
  8
_0-a_極細3
  6
CONTINUOUS
 62
    7
 10
603.81088153887208
 20
174.06679454159558
 40
0.5530864197530718
  0
CIRCLE
  8
_0-a_極細3
  6
CONTINUOUS
 62
    7
 10
617.67754820553864
 20
169.26679454159569
 40
0.5530864197530718
  0
CIRCLE
  8
_0-a_極細3
  6
CONTINUOUS
 62
    7
 10
644.61088153887192
 20
169.53346120826234
 40
0.5530864197530718
  0
CIRCLE
  8
_0-a_極細3
  6
CONTINUOUS
 62
    7
 10
632.61088153887204
 20
178.60012787492892
 40
0.5530864197530718
  0
CIRCLE
  8
_0-a_極細3
  6
CONTINUOUS
 62
    7
 10
643.81088153887185
 20
184.2001278749288
 40
0.5530864197530718
  0
CIRCLE
  8
_0-a_極細3
  6
CONTINUOUS
 62
    7
 10
634.3219926499828
 20
258.2223500971503
 40
0.5530864197530718
  0
CIRCLE
  8
_0-a_極細3
  6
CONTINUOUS
 62
    7
 10
631.83310376109398
 20
238.48901676381715
 40
0.5530864197530718
  0
CIRCLE
  8
_0-a_極細3
  6
CONTINUOUS
 62
    7
 10
652.36643709442706
 20
237.77790565270607
 40
0.5530864197530718
  0
CIRCLE
  8
_0-a_極細3
  6
CONTINUOUS
 62
    7
 10
640.76643709442715
 20
223.77790565270615
 40
0.5530864197530718
  0
CIRCLE
  8
_0-a_極細3
  6
CONTINUOUS
 62
    7
 10
679.96643709442674
 20
170.57790565270679
 40
0.5530864197530718
  0
CIRCLE
  8
_0-a_極細3
  6
CONTINUOUS
 62
    7
 10
687.16643709442678
 20
184.5779056527067
 40
0.5530864197530718
  0
CIRCLE
  8
_0-a_極細3
  6
CONTINUOUS
 62
    7
 10
685.56643709442665
 20
205.3779056527064
 40
0.5530864197530718
  0
CIRCLE
  8
_0-a_極細3
  6
CONTINUOUS
 62
    7
 10
667.56643709442687
 20
226.57790565270625
 40
0.5530864197530718
  0
CIRCLE
  8
_0-a_極細3
  6
CONTINUOUS
 62
    7
 10
684.3664370944266
 20
246.17790565270593
 40
0.5530864197530718
  0
CIRCLE
  8
_0-a_極細3
  6
CONTINUOUS
 62
    7
 10
681.56643709442665
 20
219.37790565270632
 40
0.5530864197530718
  0
CIRCLE
  8
_0-a_極細3
  6
CONTINUOUS
 62
    7
 10
711.16643709442644
 20
240.57790565270602
 40
0.5530864197530718
  0
CIRCLE
  8
_0-a_極細3
  6
CONTINUOUS
 62
    7
 10
706.36643709442626
 20
254.34796738110106
 40
1.825531472681392
  0
CIRCLE
  8
_0-a_極細3
  6
CONTINUOUS
 62
    7
 10
690.72199264998198
 20
238.88130071443456
 40
1.825531472681392
  0
CIRCLE
  8
_0-a_極細3
  6
CONTINUOUS
 62
    7
 10
635.29977042776045
 20
245.45907849221223
 40
1.825531472681392
  0
CIRCLE
  8
_0-a_極細3
  6
CONTINUOUS
 62
    7
 10
667.29977042776
 20
213.4590784922126
 40
1.825531472681392
  0
CIRCLE
  8
_0-a_極細3
  6
CONTINUOUS
 62
    7
 10
596.90532598331697
 20
168.90907849221307
 40
1.825531472681392
  0
CIRCLE
  8
_0-a_極細3
  6
CONTINUOUS
 62
    7
 10
607.12754820553869
 20
198.77574515887957
 40
1.825531472681392
  0
CIRCLE
  8
_0-a_極細3
  6
CONTINUOUS
 62
    7
 10
642.32754820553839
 20
176.37574515887977
 40
1.825531472681392
  0
CIRCLE
  8
_0-a_極細3
  6
CONTINUOUS
 62
    7
 10
688.59274084082199
 20
166.18869276691015
 40
1.825531472681392
  0
CIRCLE
  8
_0-a_極細3
  6
CONTINUOUS
 62
    7
 10
637.92754820553819
 20
219.57574515887927
 40
1.825531472681392
  0
CIRCLE
  8
_0-a_極細3
  6
CONTINUOUS
 62
    7
 10
590.46149882282293
 20
214.15253975184294
 40
0.5530864197530718
  0
CIRCLE
  8
_0-a_極細3
  6
CONTINUOUS
 62
    7
 10
590.66149882282366
 20
190.19698419628753
 40
0.5530864197530718
  0
CIRCLE
  8
_0-a_極細3
  6
CONTINUOUS
 62
    7
 10
698.36643709442671
 20
262.31123898603914
 40
0.5530864197530718
  0
CIRCLE
  8
_0-a_極細3
  6
CONTINUOUS
 62
    7
 10
667.56643709442687
 20
257.24457231937265
 40
0.5530864197530718
  0
CIRCLE
  8
_0-a_極細3
  6
CONTINUOUS
 62
    7
 10
667.69977042776009
 20
250.92574515887893
 40
1.825531472681392
  0
CIRCLE
  8
_0-a_極細3
  6
CONTINUOUS
 62
    7
 10
646.36643709442706
 20
263.24457231937242
 40
0.5530864197530718
  0
LINE
  8
_0-a_極細3
  6
CONTINUOUS
 62
    7
 10
577.20508651983414
 20
238.71245819900901
 11
576.37175318650111
 21
238.71245819900901
  0
LINE
  8
_0-a_極細3
  6
CONTINUOUS
 62
    7
 10
576.37175318650111
 20
238.71245819900901
 11
576.37175318650111
 21
137.47085790423
  0
CIRCLE
  8
_0-a_極細3
  6
CONTINUOUS
 62
    7
 10
582.35614902858447
 20
198.65568343048423
 40
0.5530864197530718
  0
CIRCLE
  8
_0-a_極細3
  6
CONTINUOUS
 62
    7
 10
583.66273339072427
 20
159.40012787492913
 40
0.5530864197530718
  0
CIRCLE
  8
_0-a_極細3
  6
CONTINUOUS
 62
    7
 10
583.02384450183467
 20
225.35352293665753
 40
1.825531472681392
  0
CIRCLE
  8
_0-a_極細3
  6
CONTINUOUS
 62
    7
 10
585.97199264998267
 20
152.73130071443504
 40
1.825531472681392
  0
LINE
  8
_0-a_極細3
  6
CENTER1
 62
    7
 10
493.03841985316808
 20
227.52662871355923
 11
493.03841985316808
 21
290.97662871356556
  0
LINE
  8
_0-a_極細3
  6
CONTINUOUS
 62
    7
 10
351.37175318650111
 20
277.04579153234238
 11
351.37175318650111
 21
265.37912486567564
  0
LINE
  8
_0-a_極細3
  6
CONTINUOUS
 62
    7
 10
351.37175318650111
 20
277.04579153234238
 11
262.19400604138656
 21
277.04579153234238
  0
LINE
  8
_0-a_極細3
  6
CONTINUOUS
 62
    7
 10
359.70508651983459
 20
265.37912486567564
 11
262.19400604138656
 21
265.37912486567564
  0
LINE
  8
_0-a_極細3
  6
CONTINUOUS
 62
    7
 10
359.70508651983459
 20
277.04579153234238
 11
351.37175318650111
 21
277.04579153234238
  0
LINE
  8
_0-a_極細3
  6
CONTINUOUS
 62
    7
 10
359.70508651983459
 20
276.21245819900901
 11
359.70508651983459
 21
277.04579153234238
  0
LINE
  8
_0-a_極細3
  6
CONTINUOUS
 62
    7
 10
359.50699626347495
 20
265.37912486567564
 11
359.70508651983408
 21
265.577215122035
  0
LINE
  8
_0-a_極細3
  6
CONTINUOUS
 62
    7
 10
355.26435557635585
 20
265.37912486567564
 11
359.70508651983459
 21
269.81985580915421
  0
LINE
  8
_0-a_極細3
  6
CONTINUOUS
 62
    7
 10
351.37175318650111
 20
265.72916316294027
 11
359.70508651983459
 21
274.06249649627352
  0
LINE
  8
_0-a_極細3
  6
CONTINUOUS
 62
    7
 10
351.37175318650111
 20
269.97180385005947
 11
358.44574086878373
 21
277.04579153234238
  0
LINE
  8
_0-a_極細3
  6
CONTINUOUS
 62
    7
 10
351.37175318650111
 20
274.21444453717879
 11
354.20310018166469
 21
277.04579153234238
  0
LINE
  8
_0-a_極細3
  6
CONTINUOUS
 62
    7
 10
359.70508651983459
 20
274.76482466008383
 11
357.42411964757616
 21
277.04579153234238
  0
LINE
  8
_0-a_極細3
  6
CONTINUOUS
 62
    7
 10
359.70508651983459
 20
270.52218397296451
 11
353.18147896045662
 21
277.04579153234238
  0
LINE
  8
_0-a_極細3
  6
CONTINUOUS
 62
    7
 10
351.37175318650111
 20
274.61287661917868
 11
359.70508651983459
 21
266.27954328584531
  0
LINE
  8
_0-a_極細3
  6
CONTINUOUS
 62
    7
 10
351.37175318650111
 20
270.37023593205936
 11
356.36286425288449
 21
265.37912486567564
  0
LINE
  8
_0-a_極細3
  6
CONTINUOUS
 62
    7
 10
351.37175318650111
 20
266.12759524494004
 11
352.12022356576534
 21
265.37912486567564
  0
LINE
  8
_0-a_極細3
  6
CONTINUOUS
 62
    7
 10
342.5364335088704
 20
265.37912485954837
 11
351.37175318650111
 21
274.21444453717879
  0
LINE
  8
_0-a_極細3
  6
CONTINUOUS
 62
    7
 10
321.32323005856301
 20
265.37912484483707
 11
332.98989674606838
 21
277.04579153234226
  0
LINE
  8
_0-a_極細3
  6
CONTINUOUS
 62
    7
 10
300.11002660825511
 20
265.37912483012576
 11
311.77669331047156
 21
277.04579153234238
  0
LINE
  8
_0-a_極細3
  6
CONTINUOUS
 62
    7
 10
278.89682315794721
 20
265.37912481541446
 11
290.56348987487513
 21
277.04579153234238
  0
LINE
  8
_0-a_極細3
  6
CONTINUOUS
 62
    7
 10
262.19400604138656
 20
269.88951113444989
 11
269.35028643927876
 21
277.04579153234226
  0
LINE
  8
_0-a_極細3
  6
DASHED2
 62
    7
 10
331.92983178371674
 20
265.37912485219272
 11
343.59649846386645
 21
277.04579153234249
  0
LINE
  8
_0-a_極細3
  6
DASHED2
 62
    7
 10
310.71662833340883
 20
265.37912483748141
 11
322.38329502827014
 21
277.04579153234238
  0
LINE
  8
_0-a_極細3
  6
DASHED2
 62
    7
 10
289.50342488310139
 20
265.37912482277022
 11
301.17009159267332
 21
277.04579153234238
  0
LINE
  8
_0-a_極細3
  6
DASHED2
 62
    7
 10
268.29022143279349
 20
265.37912480805892
 11
279.95688815707695
 21
277.04579153234238
  0
ARC
  8
_0-b_細線3
  6
CONTINUOUS
 62
    7
 10
364.70508651983459
 20
243.71245819900901
 40
5
 50
179.99999999999983
 51
269.99999999999977
  0
LINE
  8
_0-b_細線3
  6
CONTINUOUS
 62
    7
 10
359.70508651983459
 20
243.71245819900901
 11
359.70508651983459
 21
276.21245819900901
  0
LINE
  8
_0-b_細線3
  6
CONTINUOUS
 62
    7
 10
364.70508651983459
 20
238.71245819900901
 11
408.87175318650111
 21
238.71245819900901
  0
LINE
  8
_0-b_細線3
  6
CONTINUOUS
 62
    7
 10
409.70508651983459
 20
239.54579153234235
 11
408.87175318650111
 21
238.71245819900901
  0
LINE
  8
_0-b_細線3
  6
CONTINUOUS
 62
    7
 10
409.70508651983459
 20
242.87912486567575
 11
409.70508651983459
 21
239.54579153234235
  0
LINE
  8
_0-b_細線3
  6
CONTINUOUS
 62
    7
 10
408.87175318650111
 20
243.71245819900901
 11
409.70508651983459
 21
242.87912486567575
  0
LINE
  8
_0-b_細線3
  6
CONTINUOUS
 62
    7
 10
364.70508651983459
 20
243.71245819900901
 11
408.87175318650111
 21
243.71245819900901
  0
LINE
  8
_0-b_細線3
  6
CONTINUOUS
 62
    7
 10
360.53841985316757
 20
277.04579153234238
 11
359.70508651983459
 21
276.21245819900901
  0
LINE
  8
_0-b_細線3
  6
CONTINUOUS
 62
    7
 10
363.87175318650111
 20
277.04579153234238
 11
360.53841985316757
 21
277.04579153234238
  0
LINE
  8
_0-b_細線3
  6
CONTINUOUS
 62
    7
 10
364.70508651983459
 20
276.21245819900901
 11
363.87175318650111
 21
277.04579153234238
  0
LINE
  8
_0-b_細線3
  6
CONTINUOUS
 62
    7
 10
364.70508651983459
 20
243.71245819900901
 11
364.70508651983459
 21
276.21245819900901
  0
LINE
  8
_0-a_極細3
  6
CONTINUOUS
 62
    7
 10
634.70508651983482
 20
277.04579153234238
 11
634.70508651983482
 21
265.37912486567564
  0
LINE
  8
_0-a_極細3
  6
CONTINUOUS
 62
    7
 10
634.70508651983482
 20
277.04579153234238
 11
723.88283366494943
 21
277.04579153234238
  0
LINE
  8
_0-a_極細3
  6
CONTINUOUS
 62
    7
 10
626.37175318650134
 20
265.37912486567564
 11
723.88283366494943
 21
265.37912486567564
  0
LINE
  8
_0-a_極細3
  6
CONTINUOUS
 62
    7
 10
626.37175318650134
 20
277.04579153234238
 11
634.70508651983482
 21
277.04579153234238
  0
LINE
  8
_0-a_極細3
  6
CONTINUOUS
 62
    7
 10
626.37175318650134
 20
276.21245819900901
 11
626.37175318650134
 21
277.04579153234238
  0
LINE
  8
_0-a_極細3
  6
CONTINUOUS
 62
    7
 10
634.70508651983459
 20
269.04821114640038
 11
631.03600023910985
 21
265.37912486567564
  0
LINE
  8
_0-a_極細3
  6
CONTINUOUS
 62
    7
 10
634.70508651983459
 20
273.29085183351958
 11
626.79335955199076
 21
265.37912486567564
  0
LINE
  8
_0-a_極細3
  6
CONTINUOUS
 62
    7
 10
626.37175318650134
 20
269.20015918730576
 11
634.21738553153818
 21
277.04579153234238
  0
LINE
  8
_0-a_極細3
  6
CONTINUOUS
 62
    7
 10
626.37175318650134
 20
273.44279987442496
 11
629.97474484441864
 21
277.04579153234226
  0
LINE
  8
_0-a_極細3
  6
CONTINUOUS
 62
    7
 10
634.70508651983482
 20
275.53646932283687
 11
633.1957643103292
 21
277.04579153234238
  0
LINE
  8
_0-a_極細3
  6
CONTINUOUS
 62
    7
 10
634.70508651983482
 20
271.29382863571755
 11
628.9531236232101
 21
277.04579153234238
  0
LINE
  8
_0-a_極細3
  6
CONTINUOUS
 62
    7
 10
634.70508651983482
 20
267.05118794859834
 11
626.37175318650134
 21
275.3845212819316
  0
LINE
  8
_0-a_極細3
  6
CONTINUOUS
 62
    7
 10
632.13450891563798
 20
265.37912486567564
 11
626.37175318650134
 21
271.14188059481239
  0
LINE
  8
_0-a_極細3
  6
CONTINUOUS
 62
    7
 10
627.89186822851889
 20
265.37912486567564
 11
626.37175318650134
 21
266.89923990769307
  0
LINE
  8
_0-a_極細3
  6
CONTINUOUS
 62
    7
 10
703.16089192013794
 20
265.37912486567564
 11
714.82755796001538
 21
277.04579090555342
  0
LINE
  8
_0-a_極細3
  6
CONTINUOUS
 62
    7
 10
681.94768848454135
 20
265.37912486567575
 11
693.6143546903678
 21
277.04579107150187
  0
LINE
  8
_0-a_極細3
  6
CONTINUOUS
 62
    7
 10
660.73448504894486
 20
265.37912486567564
 11
672.40115142071954
 21
277.04579123745032
  0
LINE
  8
_0-a_極細3
  6
CONTINUOUS
 62
    7
 10
639.52128161334849
 20
265.37912486567564
 11
651.18794815107196
 21
277.04579140339888
  0
LINE
  8
_0-a_極細3
  6
DASHED2
 62
    7
 10
713.76749363793624
 20
265.37912486567575
 11
723.88283366494943
 21
275.49446489268905
  0
LINE
  8
_0-a_極細3
  6
DASHED2
 62
    7
 10
692.55429020233942
 20
265.37912486567564
 11
704.22095632519154
 21
277.04579098852753
  0
LINE
  8
_0-a_極細3
  6
DASHED2
 62
    7
 10
671.34108676674305
 20
265.37912486567564
 11
683.00775305554362
 21
277.04579115447609
  0
LINE
  8
_0-a_極細3
  6
DASHED2
 62
    7
 10
650.12788333114668
 20
265.37912486567564
 11
661.79454978589547
 21
277.04579132042454
  0
LINE
  8
_0-a_極細3
  6
DASHED2
 62
    7
 10
634.70508651983459
 20
271.16953148995992
 11
640.58134651624778
 21
277.04579148637299
  0
ARC
  8
_0-b_細線3
  6
CONTINUOUS
 62
    7
 10
621.37175318650134
 20
243.71245819900901
 40
5
 50
269.99999999999977
 51
359.99999999999966
  0
LINE
  8
_0-b_細線3
  6
CONTINUOUS
 62
    7
 10
626.37175318650134
 20
243.71245819900901
 11
626.37175318650134
 21
276.21245819900901
  0
LINE
  8
_0-b_細線3
  6
CONTINUOUS
 62
    7
 10
621.37175318650134
 20
238.71245819900901
 11
577.20508651983414
 21
238.71245819900901
  0
LINE
  8
_0-b_細線3
  6
CONTINUOUS
 62
    7
 10
576.37175318650111
 20
239.54579153234235
 11
577.20508651983414
 21
238.71245819900901
  0
LINE
  8
_0-b_細線3
  6
CONTINUOUS
 62
    7
 10
576.37175318650111
 20
242.87912486567575
 11
576.37175318650111
 21
239.54579153234235
  0
LINE
  8
_0-b_細線3
  6
CONTINUOUS
 62
    7
 10
577.20508651983414
 20
243.71245819900901
 11
576.37175318650111
 21
242.87912486567575
  0
LINE
  8
_0-b_細線3
  6
CONTINUOUS
 62
    7
 10
621.37175318650134
 20
243.71245819900901
 11
577.20508651983414
 21
243.71245819900901
  0
LINE
  8
_0-b_細線3
  6
CONTINUOUS
 62
    7
 10
625.53841985316831
 20
277.04579153234238
 11
626.37175318650134
 21
276.21245819900901
  0
LINE
  8
_0-b_細線3
  6
CONTINUOUS
 62
    7
 10
622.20508651983482
 20
277.04579153234238
 11
625.53841985316831
 21
277.04579153234238
  0
LINE
  8
_0-b_細線3
  6
CONTINUOUS
 62
    7
 10
621.37175318650134
 20
276.21245819900901
 11
622.20508651983482
 21
277.04579153234238
  0
LINE
  8
_0-b_細線3
  6
CONTINUOUS
 62
    7
 10
621.37175318650134
 20
243.71245819900901
 11
621.37175318650134
 21
276.21245819900901
  0
CIRCLE
  8
_0-a_極細3
  6
CONTINUOUS
 62
    7
 10
329.88495561294877
 20
257.43685626998843
 40
1.825531472681392
  0
ARC
  8
_0-b_細線3
  6
CONTINUOUS
 62
    7
 10
369.70508651926201
 20
273.71245819900901
 40
1.666666666666667
 50
89.999999999999915
 51
179.99999999999983
  0
ARC
  8
_0-b_細線3
  6
CONTINUOUS
 62
    7
 10
370.48500183814093
 20
277.04579153234249
 40
1.666666666666667
 50
269.99999999999977
 51
329.99999999999523
  0
ARC
  8
_0-b_細線3
  6
CONTINUOUS
 62
    7
 10
373.37175318408913
 20
275.37912486567598
 40
1.666666666666667
 50
89.999999999999915
 51
150.00000000000915
  0
LINE
  8
_0-b_細線3
  6
CONTINUOUS
 62
    7
 10
369.70508651926201
 20
275.37912486567598
 11
370.48500183814093
 21
275.37912486567598
  0
ARC
  8
_0-b_細線3
  6
CONTINUOUS
 62
    7
 10
385.37175318225013
 20
273.71245819900901
 40
1.666666666666667
 50
0
 51
89.999999999999915
  0
ARC
  8
_0-b_細線3
  6
CONTINUOUS
 62
    7
 10
384.59183786337121
 20
277.04579153234249
 40
1.666666666666667
 50
209.99999999999622
 51
269.99999999999977
  0
ARC
  8
_0-b_細線3
  6
CONTINUOUS
 62
    7
 10
381.70508651742261
 20
275.37912486567598
 40
1.666666666666667
 50
29.999999999990862
 51
89.999999999984354
  0
LINE
  8
_0-b_細線3
  6
CONTINUOUS
 62
    7
 10
385.37175318225013
 20
275.37912486567598
 11
384.59183786337121
 21
275.37912486567598
  0
ARC
  8
_0-b_細線3
  6
CONTINUOUS
 62
    7
 10
368.87175318592904
 20
271.37912486567598
 40
0.8333333333333334
 50
179.99999999999983
 51
269.99999999999977
  0
LINE
  8
_0-b_細線3
  6
CONTINUOUS
 62
    7
 10
368.03841985259504
 20
273.71245819900901
 11
368.03841985259504
 21
271.37912486567598
  0
ARC
  8
_0-b_細線3
  6
CONTINUOUS
 62
    7
 10
386.20508651558362
 20
271.37912486567598
 40
0.8333333333333334
 50
269.99999999999977
 51
359.99999999999966
  0
LINE
  8
_0-b_細線3
  6
CONTINUOUS
 62
    7
 10
387.0384198489171
 20
273.71245819900901
 11
387.0384198489171
 21
271.37912486567598
  0
ARC
  8
_0-b_細線3
  6
CONTINUOUS
 62
    7
 10
373.03841985259504
 20
268.87912486567598
 40
1.666666666666667
 50
0
 51
89.999999999999915
  0
LINE
  8
_0-b_細線3
  6
CONTINUOUS
 62
    7
 10
373.03841985259504
 20
270.54579153234249
 11
368.87175318592904
 21
270.54579153234249
  0
ARC
  8
_0-b_細線3
  6
CONTINUOUS
 62
    7
 10
382.0384198525955
 20
268.87912486567598
 40
1.666666666666667
 50
89.999999999999915
 51
179.99999999999983
  0
LINE
  8
_0-b_細線3
  6
CONTINUOUS
 62
    7
 10
382.03841984891659
 20
270.54579153234249
 11
386.20508651558362
 21
270.54579153234249
  0
LINE
  8
_0-b_細線3
  6
CONTINUOUS
 62
    7
 10
381.70508651742261
 20
277.04579153234249
 11
373.37175318408913
 21
277.04579153234249
  0
LINE
  8
_0-b_細線3
  6
CONTINUOUS
 62
    7
 10
374.70508651742301
 20
243.71245819900901
 11
374.70508651926201
 21
268.87912486567598
  0
LINE
  8
_0-b_細線3
  6
CONTINUOUS
 62
    7
 10
380.37175318408907
 20
243.71245819900901
 11
380.37175318592904
 21
268.87912486567598
  0
LINE
  8
_0-b_細線3
  6
CONTINUOUS
 62
    7
 10
380.37175318408907
 20
243.71245819900901
 11
374.70508651742301
 21
243.71245819900901
  0
ARC
  8
_0-b_細線3
  6
CONTINUOUS
 62
    7
 10
398.20508651986501
 20
273.71245819900901
 40
1.666666666666667
 50
89.999999999999915
 51
179.99999999999983
  0
ARC
  8
_0-b_細線3
  6
CONTINUOUS
 62
    7
 10
398.98500183874398
 20
277.04579153234249
 40
1.666666666666667
 50
269.99999999999977
 51
330.00000000000301
  0
ARC
  8
_0-b_細線3
  6
CONTINUOUS
 62
    7
 10
401.87175318469207
 20
275.37912486567598
 40
1.666666666666667
 50
89.999999999999915
 51
150.00000000000134
  0
LINE
  8
_0-b_細線3
  6
CONTINUOUS
 62
    7
 10
398.20508651986501
 20
275.37912486567598
 11
398.98500183874398
 21
275.37912486567598
  0
ARC
  8
_0-b_細線3
  6
CONTINUOUS
 62
    7
 10
413.87175318285307
 20
273.71245819900901
 40
1.666666666666667
 50
0
 51
89.999999999999915
  0
ARC
  8
_0-b_細線3
  6
CONTINUOUS
 62
    7
 10
413.09183786397421
 20
277.04579153234249
 40
1.666666666666667
 50
209.99999999999622
 51
269.99999999999977
  0
ARC
  8
_0-b_細線3
  6
CONTINUOUS
 62
    7
 10
410.20508651802561
 20
275.37912486567598
 40
1.666666666666667
 50
29.999999999990862
 51
89.999999999984354
  0
LINE
  8
_0-b_細線3
  6
CONTINUOUS
 62
    7
 10
413.87175318285307
 20
275.37912486567598
 11
413.09183786397421
 21
275.37912486567598
  0
ARC
  8
_0-b_細線3
  6
CONTINUOUS
 62
    7
 10
397.37175318653203
 20
271.37912486567598
 40
0.8333333333333334
 50
179.99999999999983
 51
269.99999999999977
  0
LINE
  8
_0-b_細線3
  6
CONTINUOUS
 62
    7
 10
396.53841985319809
 20
273.71245819900901
 11
396.53841985319809
 21
271.37912486567598
  0
ARC
  8
_0-b_細線3
  6
CONTINUOUS
 62
    7
 10
414.70508651618616
 20
271.37912486567598
 40
0.8333333333333334
 50
269.99999999999977
 51
359.99999999999966
  0
LINE
  8
_0-b_細線3
  6
CONTINUOUS
 62
    7
 10
415.5384198495201
 20
273.71245819900901
 11
415.5384198495201
 21
271.37912486567598
  0
ARC
  8
_0-b_細線3
  6
CONTINUOUS
 62
    7
 10
401.53841985319809
 20
268.87912486567598
 40
1.666666666666667
 50
0
 51
89.999999999999915
  0
LINE
  8
_0-b_細線3
  6
CONTINUOUS
 62
    7
 10
401.53841985319809
 20
270.54579153234249
 11
397.37175318653203
 21
270.54579153234249
  0
ARC
  8
_0-b_細線3
  6
CONTINUOUS
 62
    7
 10
410.53841985319849
 20
268.87912486567598
 40
1.666666666666667
 50
89.999999999999915
 51
179.99999999999983
  0
LINE
  8
_0-b_細線3
  6
CONTINUOUS
 62
    7
 10
410.53841984951958
 20
270.54579153234249
 11
414.70508651618616
 21
270.54579153234249
  0
LINE
  8
_0-b_細線3
  6
CONTINUOUS
 62
    7
 10
410.20508651802561
 20
277.04579153234249
 11
401.87175318469207
 21
277.04579153234249
  0
LINE
  8
_0-b_細線3
  6
CONTINUOUS
 62
    7
 10
403.20508651802606
 20
243.71245819900901
 11
403.20508651986501
 21
268.87912486567598
  0
LINE
  8
_0-b_細線3
  6
CONTINUOUS
 62
    7
 10
408.87175318469212
 20
243.71245819900901
 11
408.87175318653198
 21
268.87912486567598
  0
LINE
  8
_0-b_細線3
  6
CONTINUOUS
 62
    7
 10
408.87175318469212
 20
243.71245819900901
 11
403.20508651802606
 21
243.71245819900901
  0
ARC
  8
_0-b_細線3
  6
CONTINUOUS
 62
    7
 10
427.20508652046806
 20
273.71245819900901
 40
1.666666666666667
 50
89.999999999999915
 51
179.99999999999983
  0
ARC
  8
_0-b_細線3
  6
CONTINUOUS
 62
    7
 10
427.98500183934743
 20
277.04579153234249
 40
1.666666666666667
 50
269.99999999999977
 51
329.99999999998744
  0
ARC
  8
_0-b_細線3
  6
CONTINUOUS
 62
    7
 10
430.87175318529512
 20
275.37912486567598
 40
1.666666666666667
 50
89.999999999999915
 51
150.00000000000915
  0
LINE
  8
_0-b_細線3
  6
CONTINUOUS
 62
    7
 10
427.20508652046806
 20
275.37912486567598
 11
427.98500183934743
 21
275.37912486567598
  0
ARC
  8
_0-b_細線3
  6
CONTINUOUS
 62
    7
 10
442.87175318345612
 20
273.71245819900901
 40
1.666666666666667
 50
0
 51
89.999999999999915
  0
ARC
  8
_0-b_細線3
  6
CONTINUOUS
 62
    7
 10
442.09183786457675
 20
277.04579153234249
 40
1.666666666666667
 50
210.00000000000404
 51
269.99999999999977
  0
ARC
  8
_0-b_細線3
  6
CONTINUOUS
 62
    7
 10
439.20508651862906
 20
275.37912486567598
 40
1.666666666666667
 50
29.999999999998682
 51
89.999999999999915
  0
LINE
  8
_0-b_細線3
  6
CONTINUOUS
 62
    7
 10
442.87175318345612
 20
275.37912486567598
 11
442.09183786457675
 21
275.37912486567598
  0
ARC
  8
_0-b_細線3
  6
CONTINUOUS
 62
    7
 10
426.37175318713503
 20
271.37912486567598
 40
0.8333333333333334
 50
179.99999999999983
 51
269.99999999999977
  0
LINE
  8
_0-b_細線3
  6
CONTINUOUS
 62
    7
 10
425.53841985380154
 20
273.71245819900901
 11
425.53841985380154
 21
271.37912486567598
  0
ARC
  8
_0-b_細線3
  6
CONTINUOUS
 62
    7
 10
443.70508651678909
 20
271.37912486567598
 40
0.8333333333333334
 50
269.99999999999977
 51
359.99999999999966
  0
LINE
  8
_0-b_細線3
  6
CONTINUOUS
 62
    7
 10
444.53841985012264
 20
273.71245819900901
 11
444.53841985012264
 21
271.37912486567598
  0
ARC
  8
_0-b_細線3
  6
CONTINUOUS
 62
    7
 10
430.53841985380154
 20
268.87912486567598
 40
1.666666666666667
 50
0
 51
89.999999999999915
  0
LINE
  8
_0-b_細線3
  6
CONTINUOUS
 62
    7
 10
430.53841985380154
 20
270.54579153234249
 11
426.37175318713503
 21
270.54579153234249
  0
ARC
  8
_0-b_細線3
  6
CONTINUOUS
 62
    7
 10
439.53841985380154
 20
268.87912486567598
 40
1.666666666666667
 50
89.999999999999915
 51
179.99999999999983
  0
LINE
  8
_0-b_細線3
  6
CONTINUOUS
 62
    7
 10
439.53841985012264
 20
270.54579153234249
 11
443.70508651678909
 21
270.54579153234249
  0
LINE
  8
_0-b_細線3
  6
CONTINUOUS
 62
    7
 10
439.20508651862906
 20
277.04579153234249
 11
430.87175318529512
 21
277.04579153234249
  0
LINE
  8
_0-b_細線3
  6
CONTINUOUS
 62
    7
 10
432.2050865186286
 20
243.71245819900901
 11
432.20508652046806
 21
268.87912486567598
  0
LINE
  8
_0-b_細線3
  6
CONTINUOUS
 62
    7
 10
437.87175318529557
 20
243.71245819900901
 11
437.87175318713503
 21
268.87912486567598
  0
LINE
  8
_0-b_細線3
  6
CONTINUOUS
 62
    7
 10
437.87175318529557
 20
243.71245819900901
 11
432.2050865186286
 21
243.71245819900901
  0
ARC
  8
_0-b_細線3
  6
CONTINUOUS
 62
    7
 10
456.20508652107105
 20
273.71245819900901
 40
1.666666666666667
 50
89.999999999999915
 51
179.99999999999983
  0
ARC
  8
_0-b_細線3
  6
CONTINUOUS
 62
    7
 10
456.98500183994997
 20
277.04579153234249
 40
1.666666666666667
 50
269.99999999999977
 51
329.99999999999523
  0
ARC
  8
_0-b_細線3
  6
CONTINUOUS
 62
    7
 10
459.87175318589806
 20
275.37912486567598
 40
1.666666666666667
 50
89.999999999999915
 51
150.00000000000915
  0
LINE
  8
_0-b_細線3
  6
CONTINUOUS
 62
    7
 10
456.20508652107105
 20
275.37912486567598
 11
456.98500183994997
 21
275.37912486567598
  0
ARC
  8
_0-b_細線3
  6
CONTINUOUS
 62
    7
 10
471.87175318405906
 20
273.71245819900901
 40
1.666666666666667
 50
0
 51
89.999999999999915
  0
ARC
  8
_0-b_細線3
  6
CONTINUOUS
 62
    7
 10
471.0918378651802
 20
277.04579153234249
 40
1.666666666666667
 50
209.99999999999622
 51
269.99999999999977
  0
ARC
  8
_0-b_細線3
  6
CONTINUOUS
 62
    7
 10
468.20508651923154
 20
275.37912486567598
 40
1.666666666666667
 50
29.999999999990862
 51
89.999999999984354
  0
LINE
  8
_0-b_細線3
  6
CONTINUOUS
 62
    7
 10
471.87175318405906
 20
275.37912486567598
 11
471.0918378651802
 21
275.37912486567598
  0
ARC
  8
_0-b_細線3
  6
CONTINUOUS
 62
    7
 10
455.37175318773757
 20
271.37912486567598
 40
0.8333333333333334
 50
179.99999999999983
 51
269.99999999999977
  0
LINE
  8
_0-b_細線3
  6
CONTINUOUS
 62
    7
 10
454.53841985440408
 20
273.71245819900901
 11
454.53841985440408
 21
271.37912486567598
  0
ARC
  8
_0-b_細線3
  6
CONTINUOUS
 62
    7
 10
472.70508651739215
 20
271.37912486567598
 40
0.8333333333333334
 50
269.99999999999977
 51
359.99999999999966
  0
LINE
  8
_0-b_細線3
  6
CONTINUOUS
 62
    7
 10
473.53841985072609
 20
273.71245819900901
 11
473.53841985072609
 21
271.37912486567598
  0
ARC
  8
_0-b_細線3
  6
CONTINUOUS
 62
    7
 10
459.53841985440408
 20
268.87912486567598
 40
1.666666666666667
 50
0
 51
89.999999999999915
  0
LINE
  8
_0-b_細線3
  6
CONTINUOUS
 62
    7
 10
459.53841985440408
 20
270.54579153234249
 11
455.37175318773757
 21
270.54579153234249
  0
ARC
  8
_0-b_細線3
  6
CONTINUOUS
 62
    7
 10
468.53841985440454
 20
268.87912486567598
 40
1.666666666666667
 50
89.999999999999915
 51
179.99999999999983
  0
LINE
  8
_0-b_細線3
  6
CONTINUOUS
 62
    7
 10
468.53841985072563
 20
270.54579153234249
 11
472.70508651739215
 21
270.54579153234249
  0
LINE
  8
_0-b_細線3
  6
CONTINUOUS
 62
    7
 10
468.20508651923154
 20
277.04579153234249
 11
459.87175318589806
 21
277.04579153234249
  0
LINE
  8
_0-b_細線3
  6
CONTINUOUS
 62
    7
 10
461.20508651923205
 20
243.71245819900901
 11
461.20508652107105
 21
268.87912486567598
  0
LINE
  8
_0-b_細線3
  6
CONTINUOUS
 62
    7
 10
466.87175318589811
 20
243.71245819900901
 11
466.87175318773797
 21
268.87912486567598
  0
LINE
  8
_0-b_細線3
  6
CONTINUOUS
 62
    7
 10
466.87175318589811
 20
243.71245819900901
 11
461.20508651923205
 21
243.71245819900901
  0
ARC
  8
_0-b_細線3
  6
CONTINUOUS
 62
    7
 10
514.20508652227704
 20
273.71245819900901
 40
1.666666666666667
 50
89.999999999999915
 51
179.99999999999983
  0
ARC
  8
_0-b_細線3
  6
CONTINUOUS
 62
    7
 10
514.98500184115596
 20
277.04579153234249
 40
1.666666666666667
 50
269.99999999999977
 51
330.00000000000301
  0
ARC
  8
_0-b_細線3
  6
CONTINUOUS
 62
    7
 10
517.8717531871041
 20
275.37912486567598
 40
1.666666666666667
 50
89.999999999999915
 51
150.00000000000134
  0
LINE
  8
_0-b_細線3
  6
CONTINUOUS
 62
    7
 10
514.20508652227704
 20
275.37912486567598
 11
514.98500184115596
 21
275.37912486567598
  0
ARC
  8
_0-b_細線3
  6
CONTINUOUS
 62
    7
 10
529.87175318526511
 20
273.71245819900901
 40
1.666666666666667
 50
0
 51
89.999999999999915
  0
ARC
  8
_0-b_細線3
  6
CONTINUOUS
 62
    7
 10
529.09183786638573
 20
277.04579153234249
 40
1.666666666666667
 50
210.00000000000404
 51
269.99999999999977
  0
ARC
  8
_0-b_細線3
  6
CONTINUOUS
 62
    7
 10
526.20508652043759
 20
275.37912486567598
 40
1.666666666666667
 50
29.999999999990862
 51
89.999999999984354
  0
LINE
  8
_0-b_細線3
  6
CONTINUOUS
 62
    7
 10
529.87175318526511
 20
275.37912486567598
 11
529.09183786638573
 21
275.37912486567598
  0
ARC
  8
_0-b_細線3
  6
CONTINUOUS
 62
    7
 10
513.37175318894356
 20
271.37912486567598
 40
0.8333333333333334
 50
179.99999999999983
 51
269.99999999999977
  0
LINE
  8
_0-b_細線3
  6
CONTINUOUS
 62
    7
 10
512.53841985561007
 20
273.71245819900901
 11
512.53841985561007
 21
271.37912486567598
  0
ARC
  8
_0-b_細線3
  6
CONTINUOUS
 62
    7
 10
530.70508651859814
 20
271.37912486567598
 40
0.8333333333333334
 50
269.99999999999977
 51
359.99999999999966
  0
LINE
  8
_0-b_細線3
  6
CONTINUOUS
 62
    7
 10
531.53841985193162
 20
273.71245819900901
 11
531.53841985193162
 21
271.37912486567598
  0
ARC
  8
_0-b_細線3
  6
CONTINUOUS
 62
    7
 10
517.53841985561007
 20
268.87912486567598
 40
1.666666666666667
 50
0
 51
89.999999999999915
  0
LINE
  8
_0-b_細線3
  6
CONTINUOUS
 62
    7
 10
517.53841985561007
 20
270.54579153234249
 11
513.37175318894356
 21
270.54579153234249
  0
ARC
  8
_0-b_細線3
  6
CONTINUOUS
 62
    7
 10
526.53841985561053
 20
268.87912486567598
 40
1.666666666666667
 50
89.999999999999915
 51
179.99999999999983
  0
LINE
  8
_0-b_細線3
  6
CONTINUOUS
 62
    7
 10
526.53841985193162
 20
270.54579153234249
 11
530.70508651859814
 21
270.54579153234249
  0
LINE
  8
_0-b_細線3
  6
CONTINUOUS
 62
    7
 10
526.20508652043759
 20
277.04579153234249
 11
517.8717531871041
 21
277.04579153234249
  0
LINE
  8
_0-b_細線3
  6
CONTINUOUS
 62
    7
 10
519.20508652043759
 20
243.71245819900901
 11
519.20508652227704
 21
268.87912486567598
  0
LINE
  8
_0-b_細線3
  6
CONTINUOUS
 62
    7
 10
524.8717531871041
 20
243.71245819900901
 11
524.87175318894401
 21
268.87912486567598
  0
LINE
  8
_0-b_細線3
  6
CONTINUOUS
 62
    7
 10
524.8717531871041
 20
243.71245819900901
 11
519.20508652043759
 21
243.71245819900901
  0
ARC
  8
_0-b_細線3
  6
CONTINUOUS
 62
    7
 10
543.20508652288004
 20
273.71245819900901
 40
1.666666666666667
 50
89.999999999999915
 51
179.99999999999983
  0
ARC
  8
_0-b_細線3
  6
CONTINUOUS
 62
    7
 10
543.98500184175896
 20
277.04579153234249
 40
1.666666666666667
 50
269.99999999999977
 51
329.99999999999523
  0
ARC
  8
_0-b_細線3
  6
CONTINUOUS
 62
    7
 10
546.8717531877071
 20
275.37912486567598
 40
1.666666666666667
 50
89.999999999999915
 51
150.00000000000915
  0
LINE
  8
_0-b_細線3
  6
CONTINUOUS
 62
    7
 10
543.20508652288004
 20
275.37912486567598
 11
543.98500184175896
 21
275.37912486567598
  0
ARC
  8
_0-b_細線3
  6
CONTINUOUS
 62
    7
 10
558.8717531858681
 20
273.71245819900901
 40
1.666666666666667
 50
0
 51
89.999999999999915
  0
ARC
  8
_0-b_細線3
  6
CONTINUOUS
 62
    7
 10
558.09183786698873
 20
277.04579153234249
 40
1.666666666666667
 50
209.99999999999622
 51
269.99999999999977
  0
ARC
  8
_0-b_細線3
  6
CONTINUOUS
 62
    7
 10
555.20508652104058
 20
275.37912486567598
 40
1.666666666666667
 50
29.999999999998682
 51
89.999999999999915
  0
LINE
  8
_0-b_細線3
  6
CONTINUOUS
 62
    7
 10
558.8717531858681
 20
275.37912486567598
 11
558.09183786698873
 21
275.37912486567598
  0
ARC
  8
_0-b_細線3
  6
CONTINUOUS
 62
    7
 10
542.37175318954701
 20
271.37912486567598
 40
0.8333333333333334
 50
179.99999999999983
 51
269.99999999999977
  0
LINE
  8
_0-b_細線3
  6
CONTINUOUS
 62
    7
 10
541.53841985621307
 20
273.71245819900901
 11
541.53841985621307
 21
271.37912486567598
  0
ARC
  8
_0-b_細線3
  6
CONTINUOUS
 62
    7
 10
559.70508651920113
 20
271.37912486567598
 40
0.8333333333333334
 50
269.99999999999977
 51
359.99999999999966
  0
LINE
  8
_0-b_細線3
  6
CONTINUOUS
 62
    7
 10
560.53841985253462
 20
273.71245819900901
 11
560.53841985253462
 21
271.37912486567598
  0
ARC
  8
_0-b_細線3
  6
CONTINUOUS
 62
    7
 10
546.53841985621307
 20
268.87912486567598
 40
1.666666666666667
 50
0
 51
89.999999999999915
  0
LINE
  8
_0-b_細線3
  6
CONTINUOUS
 62
    7
 10
546.53841985621307
 20
270.54579153234249
 11
542.37175318954701
 21
270.54579153234249
  0
ARC
  8
_0-b_細線3
  6
CONTINUOUS
 62
    7
 10
555.53841985621352
 20
268.87912486567598
 40
1.666666666666667
 50
89.999999999999915
 51
179.99999999999983
  0
LINE
  8
_0-b_細線3
  6
CONTINUOUS
 62
    7
 10
555.53841985253462
 20
270.54579153234249
 11
559.70508651920113
 21
270.54579153234249
  0
LINE
  8
_0-b_細線3
  6
CONTINUOUS
 62
    7
 10
555.20508652104058
 20
277.04579153234249
 11
546.8717531877071
 21
277.04579153234249
  0
LINE
  8
_0-b_細線3
  6
CONTINUOUS
 62
    7
 10
548.20508652104058
 20
243.71245819900901
 11
548.20508652288004
 21
268.87912486567598
  0
LINE
  8
_0-b_細線3
  6
CONTINUOUS
 62
    7
 10
553.8717531877071
 20
243.71245819900901
 11
553.87175318954701
 21
268.87912486567598
  0
LINE
  8
_0-b_細線3
  6
CONTINUOUS
 62
    7
 10
553.8717531877071
 20
243.71245819900901
 11
548.20508652104058
 21
243.71245819900901
  0
ARC
  8
_0-b_細線3
  6
CONTINUOUS
 62
    7
 10
572.20508652348303
 20
273.71245819900901
 40
1.666666666666667
 50
89.999999999999915
 51
179.99999999999983
  0
ARC
  8
_0-b_細線3
  6
CONTINUOUS
 62
    7
 10
572.98500184236195
 20
277.04579153234249
 40
1.666666666666667
 50
269.99999999999977
 51
329.99999999999523
  0
ARC
  8
_0-b_細線3
  6
CONTINUOUS
 62
    7
 10
575.87175318831009
 20
275.37912486567598
 40
1.666666666666667
 50
89.999999999999915
 51
150.00000000000915
  0
LINE
  8
_0-b_細線3
  6
CONTINUOUS
 62
    7
 10
572.20508652348303
 20
275.37912486567598
 11
572.98500184236195
 21
275.37912486567598
  0
ARC
  8
_0-b_細線3
  6
CONTINUOUS
 62
    7
 10
587.8717531864711
 20
273.71245819900901
 40
1.666666666666667
 50
0
 51
89.999999999999915
  0
ARC
  8
_0-b_細線3
  6
CONTINUOUS
 62
    7
 10
587.09183786759172
 20
277.04579153234249
 40
1.666666666666667
 50
210.00000000000404
 51
269.99999999999977
  0
ARC
  8
_0-b_細線3
  6
CONTINUOUS
 62
    7
 10
584.20508652164358
 20
275.37912486567598
 40
1.666666666666667
 50
29.999999999990862
 51
89.999999999984354
  0
LINE
  8
_0-b_細線3
  6
CONTINUOUS
 62
    7
 10
587.8717531864711
 20
275.37912486567598
 11
587.09183786759172
 21
275.37912486567598
  0
ARC
  8
_0-b_細線3
  6
CONTINUOUS
 62
    7
 10
571.37175319014955
 20
271.37912486567598
 40
0.8333333333333334
 50
179.99999999999983
 51
269.99999999999977
  0
LINE
  8
_0-b_細線3
  6
CONTINUOUS
 62
    7
 10
570.53841985681606
 20
273.71245819900901
 11
570.53841985681606
 21
271.37912486567598
  0
ARC
  8
_0-b_細線3
  6
CONTINUOUS
 62
    7
 10
588.70508651980413
 20
271.37912486567598
 40
0.8333333333333334
 50
269.99999999999977
 51
359.99999999999966
  0
LINE
  8
_0-b_細線3
  6
CONTINUOUS
 62
    7
 10
589.53841985313761
 20
273.71245819900901
 11
589.53841985313761
 21
271.37912486567598
  0
ARC
  8
_0-b_細線3
  6
CONTINUOUS
 62
    7
 10
575.53841985681606
 20
268.87912486567598
 40
1.666666666666667
 50
0
 51
89.999999999999915
  0
LINE
  8
_0-b_細線3
  6
CONTINUOUS
 62
    7
 10
575.53841985681606
 20
270.54579153234249
 11
571.37175319014955
 21
270.54579153234249
  0
ARC
  8
_0-b_細線3
  6
CONTINUOUS
 62
    7
 10
584.53841985681606
 20
268.87912486567598
 40
1.666666666666667
 50
89.999999999999915
 51
179.99999999999983
  0
LINE
  8
_0-b_細線3
  6
CONTINUOUS
 62
    7
 10
584.53841985313716
 20
270.54579153234249
 11
588.70508651980413
 21
270.54579153234249
  0
LINE
  8
_0-b_細線3
  6
CONTINUOUS
 62
    7
 10
584.20508652164358
 20
277.04579153234249
 11
575.87175318831009
 21
277.04579153234249
  0
LINE
  8
_0-b_細線3
  6
CONTINUOUS
 62
    7
 10
577.20508652164358
 20
243.71245819900901
 11
577.20508652348303
 21
268.87912486567598
  0
LINE
  8
_0-b_細線3
  6
CONTINUOUS
 62
    7
 10
582.87175318831009
 20
243.71245819900901
 11
582.87175319015
 21
268.87912486567598
  0
LINE
  8
_0-b_細線3
  6
CONTINUOUS
 62
    7
 10
582.87175318831009
 20
243.71245819900901
 11
577.20508652164358
 21
243.71245819900901
  0
ARC
  8
_0-b_細線3
  6
CONTINUOUS
 62
    7
 10
600.70508652408603
 20
273.71245819900901
 40
1.666666666666667
 50
89.999999999999915
 51
179.99999999999983
  0
ARC
  8
_0-b_細線3
  6
CONTINUOUS
 62
    7
 10
601.48500184296495
 20
277.04579153234249
 40
1.666666666666667
 50
269.99999999999977
 51
329.99999999999523
  0
ARC
  8
_0-b_細線3
  6
CONTINUOUS
 62
    7
 10
604.37175318891309
 20
275.37912486567598
 40
1.666666666666667
 50
89.999999999999915
 51
150.00000000000915
  0
LINE
  8
_0-b_細線3
  6
CONTINUOUS
 62
    7
 10
600.70508652408603
 20
275.37912486567598
 11
601.48500184296495
 21
275.37912486567598
  0
ARC
  8
_0-b_細線3
  6
CONTINUOUS
 62
    7
 10
616.37175318707386
 20
273.71245819900901
 40
1.666666666666667
 50
0
 51
89.999999999999915
  0
ARC
  8
_0-b_細線3
  6
CONTINUOUS
 62
    7
 10
615.59183786819472
 20
277.04579153234249
 40
1.666666666666667
 50
210.00000000000014
 51
269.99999999999977
  0
ARC
  8
_0-b_細線3
  6
CONTINUOUS
 62
    7
 10
612.70508652224657
 20
275.37912486567598
 40
1.666666666666667
 50
29.999999999994774
 51
89.999999999999915
  0
LINE
  8
_0-b_細線3
  6
CONTINUOUS
 62
    7
 10
616.37175318707386
 20
275.37912486567598
 11
615.59183786819472
 21
275.37912486567598
  0
ARC
  8
_0-b_細線3
  6
CONTINUOUS
 62
    7
 10
599.87175319075254
 20
271.37912486567598
 40
0.8333333333333334
 50
179.99999999999983
 51
269.99999999999977
  0
LINE
  8
_0-b_細線3
  6
CONTINUOUS
 62
    7
 10
599.03841985741906
 20
273.71245819900901
 11
599.03841985741906
 21
271.37912486567598
  0
ARC
  8
_0-b_細線3
  6
CONTINUOUS
 62
    7
 10
617.20508652040735
 20
271.37912486567598
 40
0.8333333333333334
 50
269.99999999999977
 51
359.99999999999966
  0
LINE
  8
_0-b_細線3
  6
CONTINUOUS
 62
    7
 10
618.03841985374061
 20
273.71245819900901
 11
618.03841985374061
 21
271.37912486567598
  0
ARC
  8
_0-b_細線3
  6
CONTINUOUS
 62
    7
 10
604.03841985741906
 20
268.87912486567598
 40
1.666666666666667
 50
0
 51
89.999999999999915
  0
LINE
  8
_0-b_細線3
  6
CONTINUOUS
 62
    7
 10
604.03841985741906
 20
270.54579153234249
 11
599.87175319075254
 21
270.54579153234249
  0
ARC
  8
_0-b_細線3
  6
CONTINUOUS
 62
    7
 10
613.03841985741929
 20
268.87912486567598
 40
1.666666666666667
 50
89.999999999999915
 51
179.99999999999983
  0
LINE
  8
_0-b_細線3
  6
CONTINUOUS
 62
    7
 10
613.03841985374038
 20
270.54579153234249
 11
617.20508652040735
 21
270.54579153234249
  0
LINE
  8
_0-b_細線3
  6
CONTINUOUS
 62
    7
 10
612.70508652224657
 20
277.04579153234249
 11
604.37175318891309
 21
277.04579153234249
  0
LINE
  8
_0-b_細線3
  6
CONTINUOUS
 62
    7
 10
605.70508652224657
 20
243.71245819900901
 11
605.70508652408603
 21
268.87912486567598
  0
LINE
  8
_0-b_細線3
  6
CONTINUOUS
 62
    7
 10
611.37175318891332
 20
243.71245819900901
 11
611.37175319075277
 21
268.87912486567598
  0
LINE
  8
_0-b_細線3
  6
CONTINUOUS
 62
    7
 10
611.37175318891332
 20
243.71245819900901
 11
605.70508652224657
 21
243.71245819900901
  0
LINE
  8
_0-a_極細3
  6
CONTINUOUS
 62
    7
 10
316.06501829934928
 20
188.59415936151251
 11
310.93471614946407
 21
202.68954867330109
  0
LINE
  8
_0-a_極細3
  6
CONTINUOUS
 62
    7
 10
366.05906097314573
 20
222.75316937254735
 11
371.18936312303049
 21
208.65778006075874
  0
LINE
  8
_0-a_極細3
  6
CONTINUOUS
 62
    7
 10
310.93471614946407
 20
202.68954867330109
 11
366.05906097314573
 21
222.7531693725474
  0
LINE
  8
_0-a_極細3
  6
CONTINUOUS
 62
    7
 10
316.06501829934928
 20
188.59415936151251
 11
371.18936312303049
 21
208.65778006075874
  0
LINE
  8
_0-a_極細3
  6
CENTER1
 62
    7
 10
308.54443383241392
 20
193.83822397737697
 11
372.57545431497977
 21
217.14360946241229
  0
LINE
  8
_0-a_極細3
  6
CONTINUOUS
 62
    7
 10
334.70508651983459
 20
163.71245819900901
 11
334.70508651983459
 21
207.79801954732505
  0
LINE
  8
_0-a_極細3
  6
CONTINUOUS
 62
    7
 10
334.70508651983459
 20
207.79801954732505
 11
319.70508651983465
 21
207.79801954732505
  0
LINE
  8
_0-a_極細3
  6
CONTINUOUS
 62
    7
 10
319.70508651983465
 20
207.79801954732505
 11
319.70508651983465
 21
163.71245819900901
  0
CIRCLE
  8
_0-a_極細3
  6
CONTINUOUS
 62
    7
 10
349.08495561294848
 20
193.63438713418788
 40
1.825531472681392
  0
CIRCLE
  8
_0-a_極細3
  6
CONTINUOUS
 62
    7
 10
370.79359758825711
 20
199.85660935641016
 40
1.825531472681392
  0
LINE
  8
_0-a_極細3
  6
CENTER1
 62
    7
 10
327.20508651983459
 20
155.43571791455619
 11
327.20508651983459
 21
212.07373971193462
  0
LINE
  8
_0-a_極細3
  6
CONTINUOUS
 62
    7
 10
670.01182140698677
 20
188.59415936151251
 11
675.14212355687209
 21
202.68954867330109
  0
LINE
  8
_0-a_極細3
  6
CONTINUOUS
 62
    7
 10
620.01777873319031
 20
222.75316937254735
 11
614.88747658330556
 21
208.65778006075874
  0
LINE
  8
_0-a_極細3
  6
CONTINUOUS
 62
    7
 10
675.14212355687209
 20
202.68954867330109
 11
620.01777873319031
 21
222.7531693725474
  0
LINE
  8
_0-a_極細3
  6
CONTINUOUS
 62
    7
 10
670.01182140698677
 20
188.59415936151251
 11
614.88747658330556
 21
208.65778006075874
  0
LINE
  8
_0-a_極細3
  6
CENTER1
 62
    7
 10
677.53240587392213
 20
193.83822397737697
 11
613.50138539135628
 21
217.14360946241229
  0
LINE
  8
_0-a_極細3
  6
CONTINUOUS
 62
    7
 10
651.37175318650156
 20
163.71245819900901
 11
651.37175318650156
 21
207.79801954732505
  0
LINE
  8
_0-a_極細3
  6
CONTINUOUS
 62
    7
 10
651.37175318650156
 20
207.79801954732505
 11
666.37175318650156
 21
207.79801954732505
  0
LINE
  8
_0-a_極細3
  6
CONTINUOUS
 62
    7
 10
666.37175318650156
 20
207.79801954732505
 11
666.37175318650156
 21
163.71245819900901
  0
LINE
  8
_0-a_極細3
  6
CENTER1
 62
    7
 10
658.87175318650156
 20
155.43571791455619
 11
658.87175318650156
 21
212.07373971193462
  0
CIRCLE
  8
_0-a_極細3
  6
CONTINUOUS
 62
    7
 10
652.98865931664966
 20
220.87420194900264
 40
0.5530864197530718
  0
CIRCLE
  8
_0-a_極細3
  6
CONTINUOUS
 62
    7
 10
675.20484587357657
 20
207.53099207245953
 40
0.5530864197530718
  0
LINE
  8
_0-d_寸法3
  6
CONTINUOUS
 62
    7
 10
409.70508651983459
 20
233.71245819900901
 11
409.70508651983459
 21
173.23443296477038
  0
LINE
  8
_0-d_寸法3
  6
CONTINUOUS
 62
    7
 10
409.70508651983459
 20
178.23443296477038
 11
419.36434478272525
 21
180.8226234157955
  0
LINE
  8
_0-d_寸法3
  6
CONTINUOUS
 62
    7
 10
409.70508651983459
 20
178.23443296477038
 11
419.36434478272525
 21
175.64624251374511
  0
LINE
  8
_0-d_寸法3
  6
CONTINUOUS
 62
    7
 10
576.37175318650111
 20
233.71245819900901
 11
576.37175318650111
 21
173.23443296477038
  0
LINE
  8
_0-d_寸法3
  6
CONTINUOUS
 62
    7
 10
576.37175318650111
 20
178.23443296477038
 11
566.71249492361039
 21
175.64624251374511
  0
LINE
  8
_0-d_寸法3
  6
CONTINUOUS
 62
    7
 10
576.37175318650111
 20
178.23443296477038
 11
566.71249492361039
 21
180.82262341579559
  0
LINE
  8
_0-d_寸法3
  6
CONTINUOUS
 62
    7
 10
409.70508651983459
 20
178.23443296477038
 11
576.37175318650111
 21
178.23443296477038
  0
TEXT
  8
_0-d_寸法3
 62
    7
 10
481.78841985316808
 20
178.23443296477038
 40
15
 41
1
 50
0
  1
100
  0
LINE
  8
_0-d_寸法3
  6
CONTINUOUS
 62
    7
 10
359.70508651983442
 20
190.37912486567578
 11
359.70508651983431
 21
173.23443296477038
  0
LINE
  8
_0-d_寸法3
  6
CONTINUOUS
 62
    7
 10
359.70508651983431
 20
178.23443296477038
 11
369.36434478272497
 21
180.8226234157955
  0
LINE
  8
_0-d_寸法3
  6
CONTINUOUS
 62
    7
 10
359.70508651983431
 20
178.23443296477038
 11
369.36434478272497
 21
175.64624251374511
  0
LINE
  8
_0-d_寸法3
  6
CONTINUOUS
 62
    7
 10
409.70508651983442
 20
228.71245819900901
 11
409.70508651983391
 21
173.23443296477038
  0
LINE
  8
_0-d_寸法3
  6
CONTINUOUS
 62
    7
 10
409.70508651983403
 20
178.23443296477038
 11
400.04582825694331
 21
175.64624251374511
  0
LINE
  8
_0-d_寸法3
  6
CONTINUOUS
 62
    7
 10
409.70508651983403
 20
178.23443296477038
 11
400.04582825694337
 21
180.82262341579559
  0
LINE
  8
_0-d_寸法3
  6
CONTINUOUS
 62
    7
 10
359.70508651983431
 20
178.23443296477038
 11
409.70508651983403
 21
178.23443296477038
  0
TEXT
  8
_0-d_寸法3
 62
    7
 10
377.20508651983414
 20
178.23443296477038
 40
15
 41
1
 50
0
  1
30
  0
LINE
  8
_0-d_寸法3
  6
CONTINUOUS
 62
    7
 10
626.37175318650168
 20
190.37912486567578
 11
626.37175318650179
 21
173.23443296477038
  0
LINE
  8
_0-d_寸法3
  6
CONTINUOUS
 62
    7
 10
626.37175318650179
 20
178.23443296477038
 11
616.71249492361108
 21
175.64624251374511
  0
LINE
  8
_0-d_寸法3
  6
CONTINUOUS
 62
    7
 10
626.37175318650179
 20
178.23443296477038
 11
616.71249492361108
 21
180.8226234157955
  0
LINE
  8
_0-d_寸法3
  6
CONTINUOUS
 62
    7
 10
576.37175318650168
 20
228.71245819900901
 11
576.37175318650202
 21
173.23443296477038
  0
LINE
  8
_0-d_寸法3
  6
CONTINUOUS
 62
    7
 10
576.37175318650202
 20
178.23443296477038
 11
586.03101144939274
 21
180.82262341579559
  0
LINE
  8
_0-d_寸法3
  6
CONTINUOUS
 62
    7
 10
576.37175318650202
 20
178.23443296477038
 11
586.03101144939274
 21
175.64624251374511
  0
LINE
  8
_0-d_寸法3
  6
CONTINUOUS
 62
    7
 10
626.37175318650179
 20
178.23443296477038
 11
576.37175318650202
 21
178.23443296477038
  0
TEXT
  8
_0-d_寸法3
 62
    7
 10
593.87175318650191
 20
178.23443296477029
 40
15
 41
1
 50
0.0000000000002714
  1
30
  0
TEXT
  8
_0-7_枠細線
 62
    5
 10
965.49999999999977
 20
70
 40
20
 41
0.5999999999999998
 50
0
  1
色については品番表参照のこと
  0
TEXT
  8
_0-7_枠細線
 62
    5
 10
443.11637221393426
 20
93.71209319733083
 40
25
 41
0.8
 50
0
  1
断面詳細図
  0
TEXT
  8
_0-7_枠細線
 62
    5
 10
1310
 20
67.5
 40
15
 41
0.6666666666666666
 50
0
  1
２００９年０１月３０日
  0
TEXT
  8
_0-7_枠細線
 62
    5
 10
965.50000000000011
 20
110
 40
20
 41
0.6
 50
0
  1
ＧＲＳ－２０Ｗ１５０　ＳＥＴ
  0
LINE
  8
_0-7_枠細線
  6
CONTINUOUS
 62
    5
 10
1425
 20
942.5
 11
890
 21
942.5
  0
TEXT
  8
_0-7_枠細線
 62
    5
 10
895
 20
945
 40
12.5
 41
1
 50
0
  1
記号
  0
TEXT
  8
_0-7_枠細線
 62
    5
 10
996.875
 20
945
 40
12.5
 41
1
 50
0
  1
訂　 正　 記　 事
  0
TEXT
  8
_0-7_枠細線
 62
    5
 10
1181.25
 20
945
 40
12.5
 41
1
 50
0
  1
訂 正 年 月 日
  0
TEXT
  8
_0-7_枠細線
 62
    5
 10
1306.25
 20
945
 40
12.5
 41
1
 50
0
  1
備　　　　　考
  0
LINE
  8
_0-7_枠細線
  6
CONTINUOUS
 62
    5
 10
1425
 20
925
 11
890
 21
925
  0
TEXT
  8
_0-7_枠細線
 62
    5
 10
938.85037037037023
 20
927.5
 40
12.5
 41
1
 50
0
  1
品番・色記号変更
  0
TEXT
  8
_0-7_枠細線
 62
    5
 10
1180
 20
927.5
 40
12.5
 41
0.7199999999999999
 50
0
  1
２０１３．０３．１３
  0
LINE
  8
_0-7_枠細線
  6
CONTINUOUS
 62
    5
 10
1425
 20
907.5
 11
890
 21
907.5
  0
LINE
  8
_0-7_枠細線
  6
CONTINUOUS
 62
    5
 10
1425
 20
890
 11
890
 21
890
  0
TEXT
  8
_0-7_枠細線
 62
    5
 10
938.85037037037023
 20
910
 40
12.5
 41
1
 50
0
  1
クロスバーピッチ変更
  0
TEXT
  8
_0-7_枠細線
 62
    5
 10
938.85037037037023
 20
892.5
 40
12.5
 41
1
 50
0
  1
取外具形状変更
  0
TEXT
  8
_0-7_枠細線
 62
    5
 10
1180
 20
910
 40
12.5
 41
0.7199999999999999
 50
0
  1
２０１５．１１．２０
  0
LINE
  8
_0-7_枠細線
  6
CONTINUOUS
 62
    5
 10
915
 20
908.94233397174685
 11
907.5
 21
923.94233397174685
  0
LINE
  8
_0-7_枠細線
  6
CONTINUOUS
 62
    5
 10
900
 20
908.94233397174685
 11
915
 21
908.94233397174685
  0
LINE
  8
_0-7_枠細線
  6
CONTINUOUS
 62
    5
 10
907.5
 20
923.94233397174685
 11
900
 21
908.94233397174685
  0
TEXT
  8
_0-7_枠細線
 62
    5
 10
902.36515126814822
 20
908.63533172636664
 40
12.5
 41
0.8
 50
0
  1
１
  0
TEXT
  8
_0-7_枠細線
 62
    5
 10
902.36515126814822
 20
891.13533172636664
 40
12.5
 41
0.8
 50
0
  1
２
  0
ARC
  8
_0-b_細線3
  6
CONTINUOUS
 62
    7
 10
485.20508652167399
 20
273.71245819900901
 40
1.666666666666667
 50
89.999999999999915
 51
179.99999999999983
  0
ARC
  8
_0-b_細線3
  6
CONTINUOUS
 62
    7
 10
485.98500184055297
 20
277.04579153234249
 40
1.666666666666667
 50
269.99999999999977
 51
329.99999999999523
  0
ARC
  8
_0-b_細線3
  6
CONTINUOUS
 62
    7
 10
488.87175318650111
 20
275.37912486567598
 40
1.666666666666667
 50
89.999999999999915
 51
150.00000000000915
  0
LINE
  8
_0-b_細線3
  6
CONTINUOUS
 62
    7
 10
485.20508652167399
 20
275.37912486567598
 11
485.98500184055297
 21
275.37912486567598
  0
ARC
  8
_0-b_細線3
  6
CONTINUOUS
 62
    7
 10
500.87175318466211
 20
273.71245819900901
 40
1.666666666666667
 50
0
 51
89.999999999999915
  0
ARC
  8
_0-b_細線3
  6
CONTINUOUS
 62
    7
 10
500.09183786578319
 20
277.04579153234249
 40
1.666666666666667
 50
209.99999999999622
 51
269.99999999999977
  0
ARC
  8
_0-b_細線3
  6
CONTINUOUS
 62
    7
 10
497.20508651983459
 20
275.37912486567598
 40
1.666666666666667
 50
29.999999999990862
 51
89.999999999984354
  0
LINE
  8
_0-b_細線3
  6
CONTINUOUS
 62
    7
 10
500.87175318466211
 20
275.37912486567598
 11
500.09183786578319
 21
275.37912486567598
  0
ARC
  8
_0-b_細線3
  6
CONTINUOUS
 62
    7
 10
484.37175318834051
 20
271.37912486567598
 40
0.8333333333333334
 50
179.99999999999983
 51
269.99999999999977
  0
LINE
  8
_0-b_細線3
  6
CONTINUOUS
 62
    7
 10
483.53841985500708
 20
273.71245819900901
 11
483.53841985500708
 21
271.37912486567598
  0
ARC
  8
_0-b_細線3
  6
CONTINUOUS
 62
    7
 10
501.7050865179956
 20
271.37912486567598
 40
0.8333333333333334
 50
269.99999999999977
 51
359.99999999999966
  0
LINE
  8
_0-b_細線3
  6
CONTINUOUS
 62
    7
 10
502.53841985132908
 20
273.71245819900901
 11
502.53841985132908
 21
271.37912486567598
  0
ARC
  8
_0-b_細線3
  6
CONTINUOUS
 62
    7
 10
488.53841985500708
 20
268.87912486567598
 40
1.666666666666667
 50
0
 51
89.999999999999915
  0
LINE
  8
_0-b_細線3
  6
CONTINUOUS
 62
    7
 10
488.53841985500708
 20
270.54579153234249
 11
484.37175318834051
 21
270.54579153234249
  0
ARC
  8
_0-b_細線3
  6
CONTINUOUS
 62
    7
 10
497.53841985500708
 20
268.87912486567598
 40
1.666666666666667
 50
89.999999999999915
 51
179.99999999999983
  0
LINE
  8
_0-b_細線3
  6
CONTINUOUS
 62
    7
 10
497.53841985132817
 20
270.54579153234249
 11
501.7050865179956
 21
270.54579153234249
  0
LINE
  8
_0-b_細線3
  6
CONTINUOUS
 62
    7
 10
497.20508651983459
 20
277.04579153234249
 11
488.87175318650111
 21
277.04579153234249
  0
LINE
  8
_0-b_細線3
  6
CONTINUOUS
 62
    7
 10
490.20508651983505
 20
243.71245819900901
 11
490.20508652167399
 21
268.87912486567598
  0
LINE
  8
_0-b_細線3
  6
CONTINUOUS
 62
    7
 10
495.87175318650111
 20
243.71245819900901
 11
495.87175318834102
 21
268.87912486567598
  0
LINE
  8
_0-b_細線3
  6
CONTINUOUS
 62
    7
 10
495.87175318650111
 20
243.71245819900901
 11
490.20508651983505
 21
243.71245819900901
  0
LINE
  8
_0-b_細線3
  6
CONTINUOUS
 62
    7
 10
380.37175318497242
 20
247.54579153234209
 11
403.20508651830596
 21
247.54579153234209
  0
LINE
  8
_0-b_細線3
  6
CONTINUOUS
 62
    7
 10
582.87175318919378
 20
247.54579153234209
 11
605.70508652252681
 21
247.54579153234209
  0
LINE
  8
_0-b_細線3
  6
CONTINUOUS
 62
    7
 10
408.87175318557547
 20
247.54579153234209
 11
432.20508651890896
 21
247.54579153234209
  0
LINE
  8
_0-b_細線3
  6
CONTINUOUS
 62
    7
 10
437.87175318617892
 20
247.54579153234209
 11
461.20508651951189
 21
247.54579153234209
  0
LINE
  8
_0-b_細線3
  6
CONTINUOUS
 62
    7
 10
466.87175318678146
 20
247.54579153234209
 11
490.20508652011495
 21
247.54579153234209
  0
LINE
  8
_0-b_細線3
  6
CONTINUOUS
 62
    7
 10
524.87175318798779
 20
247.54579153234209
 11
548.20508652132082
 21
247.54579153234209
  0
LINE
  8
_0-b_細線3
  6
CONTINUOUS
 62
    7
 10
553.87175318859079
 20
247.54579153234209
 11
577.20508652192382
 21
247.54579153234209
  0
LINE
  8
_0-b_細線3
  6
CONTINUOUS
 62
    7
 10
380.37175318497259
 20
269.21245819900906
 11
403.20508651830608
 21
269.21245819900906
  0
LINE
  8
_0-b_細線3
  6
CONTINUOUS
 62
    7
 10
582.87175318919356
 20
269.21245819900906
 11
605.70508652252704
 21
269.21245819900906
  0
LINE
  8
_0-b_細線3
  6
CONTINUOUS
 62
    7
 10
408.87175318557559
 20
269.21245819900906
 11
432.20508651890907
 21
269.21245819900906
  0
LINE
  8
_0-b_細線3
  6
CONTINUOUS
 62
    7
 10
437.87175318617903
 20
269.21245819900906
 11
461.20508651951212
 21
269.21245819900906
  0
LINE
  8
_0-b_細線3
  6
CONTINUOUS
 62
    7
 10
466.87175318678158
 20
269.21245819900906
 11
490.20508652011506
 21
269.21245819900906
  0
LINE
  8
_0-b_細線3
  6
CONTINUOUS
 62
    7
 10
524.87175318798768
 20
269.21245819900906
 11
548.20508652132105
 21
269.21245819900906
  0
LINE
  8
_0-b_細線3
  6
CONTINUOUS
 62
    7
 10
553.87175318859056
 20
269.21245819900906
 11
577.20508652192404
 21
269.21245819900906
  0
LINE
  8
_0-b_細線3
  6
CONTINUOUS
 62
    7
 10
511.45508652013604
 20
269.21245819900906
 11
519.20508652071805
 21
269.21245819900906
  0
LINE
  8
_0-b_細線3
  6
CONTINUOUS
 62
    7
 10
495.78242685047263
 20
269.21245819900906
 11
503.62175318680215
 21
269.21245819900906
  0
LINE
  8
_0-b_細線3
  6
CONTINUOUS
 62
    7
 10
511.45508652013604
 20
247.54579153234209
 11
519.20508652071794
 21
247.54579153234209
  0
LINE
  8
_0-b_細線3
  6
CONTINUOUS
 62
    7
 10
495.87175318672053
 20
247.54579153234209
 11
503.62175318680215
 21
247.54579153234209
  0
LINE
  8
_0-7_枠細線
  6
CONTINUOUS
 62
    5
 10
1074.9999999999995
 20
300.00000000000011
 11
1374.9999999999998
 21
300.00000000000011
  0
LINE
  8
_0-7_枠細線
  6
CONTINUOUS
 62
    5
 10
1074.9999999999995
 20
325.00000000000006
 11
1374.9999999999998
 21
325.00000000000006
  0
LINE
  8
_0-7_枠細線
  6
CONTINUOUS
 62
    5
 10
1074.9999999999995
 20
350.00000000000006
 11
1374.9999999999998
 21
350.00000000000006
  0
LINE
  8
_0-7_枠細線
  6
CONTINUOUS
 62
    5
 10
1074.9999999999995
 20
375.00000000000023
 11
1374.9999999999998
 21
375.00000000000023
  0
TEXT
  8
_0-7_枠細線
 62
    5
 10
1198
 20
380.00000000000023
 40
15
 41
0.5999999999999999
 50
0
  1
ライトグレー
  0
LINE
  8
_0-7_枠細線
  6
CONTINUOUS
 62
    5
 10
1074.9999999999995
 20
400.00000000000006
 11
1374.9999999999998
 21
400.00000000000006
  0
TEXT
  8
_0-7_枠細線
 62
    5
 10
1207
 20
405
 40
15
 41
0.5999999999999999
 50
0
  1
ベージュ
  0
LINE
  8
_0-7_枠細線
  6
CONTINUOUS
 62
    5
 10
1074.9999999999995
 20
425
 11
1374.9999999999998
 21
425
  0
TEXT
  8
_0-7_枠細線
 62
    5
 10
1219
 20
430
 40
15
 41
0.8000000000000001
 50
0
  1
色
  0
TEXT
  8
_0-7_枠細線
 62
    5
 10
1100.9999999999998
 20
430
 40
15
 41
0.8000000000000001
 50
0
  1
品　　番
  0
TEXT
  8
_0-7_枠細線
 62
    5
 10
1301
 20
430
 40
15
 41
0.8000000000000001
 50
0
  1
備　　考
  0
LINE
  8
_0-7_枠細線
  6
CONTINUOUS
 62
    5
 10
1074.9999999999995
 20
450
 11
1374.9999999999998
 21
450
  0
TEXT
  8
_0-7_枠細線
 62
    5
 10
1163.7499999999995
 20
455
 40
17.5
 41
1
 50
0
  1
品番表
  0
LINE
  8
_0-7_枠細線
  6
CONTINUOUS
 62
    5
 10
1074.9999999999998
 20
480
 11
1074.9999999999998
 21
560
  0
TEXT
  8
_0-7_枠細線
 62
    5
 10
1097.4999999999998
 20
537.5
 40
15
 41
1
 50
0
  1
耐荷重
  0
TEXT
  8
_0-7_枠細線
 62
    5
 10
1089.9999999999998
 20
507.5
 40
15
 41
1
 50
0
  1
3.5kN/㎡
  0
TEXT
  8
_0-7_枠細線
 62
    5
 10
1082.4999999999998
 20
487.5
 40
15
 41
1
 50
0
  1
（歩道用）
  0
LINE
  8
_0-7_枠細線
  6
CONTINUOUS
 62
    5
 10
1164.9999999999998
 20
480
 11
1164.9999999999998
 21
560
  0
TEXT
  8
_0-7_枠細線
 62
    5
 10
1187.4999999999998
 20
537.5
 40
15
 41
1
 50
0
  1
蓋重量
  0
LINE
  8
_0-7_枠細線
  6
CONTINUOUS
 62
    5
 10
1254.9999999999998
 20
480
 11
1254.9999999999998
 21
560
  0
TEXT
  8
_0-7_枠細線
 62
    5
 10
1277.4999999999998
 20
537.5
 40
15
 41
1
 50
0
  1
枠重量
  0
LINE
  8
_0-7_枠細線
  6
CONTINUOUS
 62
    5
 10
1074.9999999999998
 20
530
 11
1344.9999999999998
 21
530
  0
LINE
  8
_0-7_枠細線
  6
CONTINUOUS
 62
    5
 10
1074.9999999999998
 20
560
 11
1344.9999999999998
 21
560
  0
LINE
  8
_0-7_枠細線
  6
CONTINUOUS
 62
    5
 10
1074.9999999999998
 20
480
 11
1344.9999999999998
 21
480
  0
LINE
  8
_0-7_枠細線
  6
CONTINUOUS
 62
    5
 10
1344.9999999999998
 20
480
 11
1344.9999999999998
 21
560
  0
LINE
  8
_0-7_枠細線
  6
CONTINUOUS
 62
    5
 10
1074.9999999999995
 20
224.99999999999986
 11
1374.9999999999998
 21
224.99999999999986
  0
LINE
  8
_0-7_枠細線
  6
CONTINUOUS
 62
    5
 10
1074.9999999999995
 20
250.00000000000014
 11
1374.9999999999998
 21
250.00000000000014
  0
LINE
  8
_0-7_枠細線
  6
CONTINUOUS
 62
    5
 10
1074.9999999999995
 20
275.00000000000017
 11
1374.9999999999998
 21
275.00000000000017
  0
TEXT
  8
_0-7_枠細線
 62
    5
 10
1207.0000000000005
 20
355.00000000000023
 40
15
 41
0.5999999999999999
 50
0
  1
ホワイト
  0
TEXT
  8
_0-7_枠細線
 62
    5
 10
1211.4999999999998
 20
330.00000000000006
 40
15
 41
0.5999999999999999
 50
0
  1
ピンク
  0
TEXT
  8
_0-7_枠細線
 62
    5
 10
1211.4999999999998
 20
305.00000000000006
 40
15
 41
0.5999999999999999
 50
0
  1
ブルー
  0
TEXT
  8
_0-7_枠細線
 62
    5
 10
1197.9999999999995
 20
280.00000000000011
 40
15
 41
0.5999999999999999
 50
0
  1
ダークグレー
  0
TEXT
  8
_0-7_枠細線
 62
    5
 10
1079.9999999999998
 20
405
 40
15
 41
0.5
 50
0
  1
ＧＲＳ－２０Ｗ１５０－Ｂ
  0
TEXT
  8
_0-7_枠細線
 62
    5
 10
1079.9999999999998
 20
380.00000000000006
 40
15
 41
0.5
 50
0
  1
ＧＲＳ－２０Ｗ１５０－Ｇ
  0
TEXT
  8
_0-7_枠細線
 62
    5
 10
1079.9999999999998
 20
355.00000000000023
 40
15
 41
0.5
 50
0
  1
ＧＲＳ－２０Ｗ１５０－Ｓ
  0
TEXT
  8
_0-7_枠細線
 62
    5
 10
1079.9999999999998
 20
330.00000000000006
 40
15
 41
0.5
 50
0
  1
ＧＲＳ－２０Ｗ１５０－Ｐ
  0
TEXT
  8
_0-7_枠細線
 62
    5
 10
1079.9999999999998
 20
305.00000000000006
 40
15
 41
0.5
 50
0
  1
ＧＲＳ－２０Ｗ１５０－Ａ
  0
TEXT
  8
_0-7_枠細線
 62
    5
 10
1079.9999999999998
 20
280.00000000000011
 40
15
 41
0.5
 50
0
  1
ＧＲＳ－２０Ｗ１５０－Ｄ
  0
TEXT
  8
_0-7_枠細線
 62
    5
 10
1079.9999999999998
 20
255.00000000000017
 40
15
 41
0.5
 50
0
  1
ＧＲＳ－２０Ｗ１５０－Ｍ
  0
TEXT
  8
_0-7_枠細線
 62
    5
 10
1211.4999999999998
 20
255.00000000000017
 40
15
 41
0.5999999999999999
 50
0
  1
ウッド
  0
LINE
  8
_0-7_枠細線
  6
CONTINUOUS
 62
    5
 10
1074.9999999999995
 20
199.99999999999957
 11
1374.9999999999998
 21
199.99999999999957
  0
TEXT
  8
_0-7_枠細線
 62
    5
 10
1207.0000000000005
 20
204.99999999999972
 40
15
 41
0.5999999999999999
 50
0
  1
ブラック
  0
TEXT
  8
_0-7_枠細線
 62
    5
 10
1079.9999999999998
 20
204.99999999999972
 40
15
 41
0.5
 50
0
  1
ＧＲＳ－２０Ｗ１５０－Ｋ
  0
LINE
  8
_0-7_枠細線
  6
CONTINUOUS
 62
    5
 10
1374.9999999999998
 20
450
 11
1374.9999999999998
 21
199.99999999999957
  0
LINE
  8
_0-7_枠細線
  6
CONTINUOUS
 62
    5
 10
1274.9999999999995
 20
450
 11
1274.9999999999995
 21
199.99999999999957
  0
LINE
  8
_0-7_枠細線
  6
CONTINUOUS
 62
    5
 10
1175
 20
450
 11
1175
 21
199.99999999999957
  0
LINE
  8
_0-7_枠細線
  6
CONTINUOUS
 62
    5
 10
1074.9999999999995
 20
450
 11
1074.9999999999995
 21
199.99999999999957
  0
TEXT
  8
_0-7_枠細線
 62
    5
 10
1079.9999999999998
 20
229.99999999999994
 40
15
 41
0.5
 50
0
  1
ＧＲＳ－２０Ｗ１５０－Ｃ
  0
TEXT
  8
_0-7_枠細線
 62
    5
 10
1207
 20
229.99999999999994
 40
15
 41
0.5999999999999999
 50
0
  1
ブラウン
  0
LINE
  8
_0-7_枠細線
  6
CONTINUOUS
 62
    5
 10
1425
 20
872.5
 11
890
 21
872.5
  0
LINE
  8
_0-7_枠細線
  6
CONTINUOUS
 62
    5
 10
907.5
 20
906.44233397174685
 11
900
 21
891.44233397174685
  0
LINE
  8
_0-7_枠細線
  6
CONTINUOUS
 62
    5
 10
900
 20
891.44233397174685
 11
915
 21
891.44233397174685
  0
LINE
  8
_0-7_枠細線
  6
CONTINUOUS
 62
    5
 10
915
 20
891.44233397174685
 11
907.5
 21
906.44233397174685
  0
TEXT
  8
_0-7_枠細線
 62
    5
 10
902.36515126814822
 20
873.39465008156549
 40
12.5
 41
0.8
 50
0
  1
３
  0
TEXT
  8
_0-7_枠細線
 62
    5
 10
1180
 20
875
 40
12.5
 41
0.7199999999999999
 50
0
  1
２０１７．０４．０１
  0
LINE
  8
_0-7_枠細線
  6
CONTINUOUS
 62
    5
 10
915
 20
856.44233397174685
 11
907.5
 21
871.44233397174685
  0
LINE
  8
_0-7_枠細線
  6
CONTINUOUS
 62
    5
 10
900
 20
856.44233397174685
 11
915
 21
856.44233397174685
  0
LINE
  8
_0-7_枠細線
  6
CONTINUOUS
 62
    5
 10
907.5
 20
871.44233397174685
 11
900
 21
856.44233397174685
  0
TEXT
  8
_0-7_枠細線
 62
    5
 10
1180
 20
857.5
 40
12.5
 41
0.7199999999999999
 50
0
  1
２０１７．０４．０１
  0
TEXT
  8
_0-7_枠細線
 62
    5
 10
938.85037037037023
 20
857.5
 40
12.5
 41
1
 50
0
  1
ブラウン色（Ｃ）追加
  0
LINE
  8
_0-7_枠細線
  6
CONTINUOUS
 62
    5
 10
1425
 20
855
 11
890
 21
855
  0
LINE
  8
_0-7_枠細線
  6
CONTINUOUS
 62
    5
 10
907.5
 20
888.94233397174685
 11
900
 21
873.94233397174685
  0
LINE
  8
_0-7_枠細線
  6
CONTINUOUS
 62
    5
 10
900
 20
873.94233397174685
 11
915
 21
873.94233397174685
  0
LINE
  8
_0-7_枠細線
  6
CONTINUOUS
 62
    5
 10
915
 20
873.94233397174685
 11
907.5
 21
888.94233397174685
  0
TEXT
  8
_0-7_枠細線
 62
    5
 10
902.36515126814822
 20
855.49351400689704
 40
12.5
 41
0.8
 50
0
  1
４
  0
TEXT
  8
_0-7_枠細線
 62
    5
 10
938.85037037037023
 20
875
 40
12.5
 41
1
 50
0
  1
取外具形状変更
  0
TEXT
  8
_0-7_枠細線
 62
    5
 10
1180
 20
892.5
 40
12.5
 41
0.7199999999999999
 50
0
  1
２０１５．１１．２０
  0
LINE
  8
_0-7_枠細線
  6
CONTINUOUS
 62
    5
 10
1068.5276246655549
 20
230.57604122127302
 11
1061.0276246655549
 21
245.57604122127302
  0
LINE
  8
_0-7_枠細線
  6
CONTINUOUS
 62
    5
 10
1053.5276246655549
 20
230.57604122127302
 11
1068.5276246655549
 21
230.57604122127302
  0
LINE
  8
_0-7_枠細線
  6
CONTINUOUS
 62
    5
 10
1061.0276246655549
 20
245.57604122127302
 11
1053.5276246655549
 21
230.57604122127302
  0
TEXT
  8
_0-7_枠細線
 62
    5
 10
1055.8927759337028
 20
229.62722125642307
 40
12.5
 41
0.8
 50
0
  1
４
  0
LINE
  8
_0-b_細線3
  6
CONTINUOUS
 62
    7
 10
359.70508651983459
 20
258.71245819900901
 11
359.70508651983459
 21
200.37912486567578
  0
LINE
  8
_0-b_細線3
  6
CONTINUOUS
 62
    7
 10
359.70508651983459
 20
200.37912486567578
 11
355.87175318650122
 21
200.37912486567578
  0
LINE
  8
_0-b_細線3
  6
CONTINUOUS
 62
    7
 10
355.87175318650122
 20
200.37912486567578
 11
355.87175318650122
 21
258.71245819900901
  0
LINE
  8
_0-b_細線3
  6
CONTINUOUS
 62
    7
 10
355.87175318650122
 20
258.71245819900901
 11
359.70508651983459
 21
258.71245819900901
  0
LINE
  8
_0-a_極細3
  6
CONTINUOUS
 62
    7
 10
355.87175318650122
 20
232.04579153234235
 11
359.70508651983459
 21
232.04579153234235
  0
LINE
  8
_0-a_極細3
  6
CONTINUOUS
 62
    7
 10
355.87175318650122
 20
235.37912486567575
 11
359.70508651983459
 21
235.37912486567575
  0
LINE
  8
_0-a_極細3
  6
CONTINUOUS
 62
    7
 10
355.87175318650122
 20
228.71245819900901
 11
359.70508651983459
 21
228.71245819900901
  0
LINE
  8
_0-a_極細3
  6
CONTINUOUS
 62
    7
 10
355.87175318650122
 20
238.71245819900901
 11
359.70508651983459
 21
238.71245819900901
  0
LINE
  8
_0-a_極細3
  6
CONTINUOUS
 62
    7
 10
359.70508651983459
 20
205.37912486567575
 11
355.87175318650122
 21
205.37912486567575
  0
LINE
  8
_0-a_極細3
  6
CONTINUOUS
 62
    7
 10
355.87175318650122
 20
255.37912486567575
 11
359.70508651983459
 21
255.37912486567575
  0
LINE
  8
_0-b_細線3
  6
CONTINUOUS
 62
    7
 10
626.37175318650156
 20
258.71245819900901
 11
626.37175318650156
 21
200.37912486567578
  0
LINE
  8
_0-b_細線3
  6
CONTINUOUS
 62
    7
 10
626.37175318650156
 20
200.37912486567578
 11
630.20508651983494
 21
200.37912486567578
  0
LINE
  8
_0-b_細線3
  6
CONTINUOUS
 62
    7
 10
630.20508651983494
 20
200.37912486567578
 11
630.20508651983494
 21
258.71245819900901
  0
LINE
  8
_0-b_細線3
  6
CONTINUOUS
 62
    7
 10
630.20508651983494
 20
258.71245819900901
 11
626.37175318650156
 21
258.71245819900901
  0
LINE
  8
_0-a_極細3
  6
CONTINUOUS
 62
    7
 10
630.20508651983494
 20
232.04579153234235
 11
626.37175318650156
 21
232.04579153234235
  0
LINE
  8
_0-a_極細3
  6
CONTINUOUS
 62
    7
 10
630.20508651983494
 20
235.37912486567575
 11
626.37175318650156
 21
235.37912486567575
  0
LINE
  8
_0-a_極細3
  6
CONTINUOUS
 62
    7
 10
630.20508651983494
 20
228.71245819900901
 11
626.37175318650156
 21
228.71245819900901
  0
LINE
  8
_0-a_極細3
  6
CONTINUOUS
 62
    7
 10
630.20508651983494
 20
238.71245819900901
 11
626.37175318650156
 21
238.71245819900901
  0
LINE
  8
_0-a_極細3
  6
CONTINUOUS
 62
    7
 10
626.37175318650156
 20
205.37912486567575
 11
630.20508651983494
 21
205.37912486567575
  0
LINE
  8
_0-a_極細3
  6
CONTINUOUS
 62
    7
 10
630.20508651983494
 20
255.37912486567575
 11
626.37175318650156
 21
255.37912486567575
  0
LINE
  8
_0-7_枠細線
  6
CONTINUOUS
 62
    5
 10
915
 20
838.94233397174685
 11
907.5
 21
853.94233397174685
  0
LINE
  8
_0-7_枠細線
  6
CONTINUOUS
 62
    5
 10
900
 20
838.94233397174685
 11
915
 21
838.94233397174685
  0
LINE
  8
_0-7_枠細線
  6
CONTINUOUS
 62
    5
 10
907.5
 20
853.94233397174685
 11
900
 21
838.94233397174685
  0
LINE
  8
_0-7_枠細線
  6
CONTINUOUS
 62
    5
 10
1425
 20
837.5
 11
890
 21
837.5
  0
TEXT
  8
_0-7_枠細線
 62
    5
 10
902.36515126814822
 20
837.99351400689704
 40
12.5
 41
0.8
 50
0
  1
５
  0
TEXT
  8
_0-7_枠細線
 62
    5
 10
1180
 20
840
 40
12.5
 41
0.7199999999999999
 50
0
  1
２０１９．０９．０１
  0
LINE
  8
_0-7_枠細線
  6
CONTINUOUS
 62
    5
 10
648.1358033604572
 20
248.04577999894889
 11
640.6358033604572
 21
263.04577999894889
  0
LINE
  8
_0-7_枠細線
  6
CONTINUOUS
 62
    5
 10
633.1358033604572
 20
248.04577999894889
 11
648.1358033604572
 21
248.04577999894889
  0
LINE
  8
_0-7_枠細線
  6
CONTINUOUS
 62
    5
 10
640.6358033604572
 20
263.04577999894889
 11
633.1358033604572
 21
248.04577999894889
  0
TEXT
  8
_0-7_枠細線
 62
    5
 10
635.50095462860531
 20
247.096960034099
 40
12.5
 41
0.8
 50
0
  1
５
  0
LINE
  8
_0-9_枠極太
  6
CONTINUOUS
 62
    5
 10
60
 20
60
 11
60
 21
960
  0
LINE
  8
_0-9_枠極太
  6
CONTINUOUS
 62
    5
 10
60
 20
960
 11
1425
 21
960
  0
LINE
  8
_0-9_枠極太
  6
CONTINUOUS
 62
    5
 10
1425
 20
960
 11
1425
 21
60
  0
LINE
  8
_0-9_枠極太
  6
CONTINUOUS
 62
    5
 10
1425
 20
60
 11
60
 21
60
  0
ARC
  8
_0-0_計極細
  6
CONTINUOUS
 62
    2
 10
204.60950240667813
 20
717.60000000000093
 40
11.295514677412786
 50
138.39585046827494
 51
221.60414953172469
  0
ARC
  8
_0-0_計極細
  6
CONTINUOUS
 62
    2
 10
187.71706009330771
 20
702.59999999999945
 40
11.295514677412786
 50
318.39585046827381
 51
41.604149531724723
  0
ARC
  8
_0-0_計極細
  6
CONTINUOUS
 62
    2
 10
204.60950240667813
 20
587.59999999999945
 40
11.295514677412786
 50
138.39585046827494
 51
221.60414953172469
  0
ARC
  8
_0-0_計極細
  6
CONTINUOUS
 62
    2
 10
187.71706009330771
 20
572.59999999999809
 40
11.295514677412786
 50
318.39585046827381
 51
41.604149531724723
  0
LINE
  8
_0-5_寸法線
  6
CONTINUOUS
 62
    7
 10
186.16328124999228
 20
725.10000000000093
 11
141.16328124999725
 21
725.10000000000093
  0
LINE
  8
_0-5_寸法線
  6
CONTINUOUS
 62
    7
 10
146.16328124999725
 20
725.10000000000093
 11
148.75147170102238
 21
715.4407417371101
  0
LINE
  8
_0-5_寸法線
  6
CONTINUOUS
 62
    7
 10
146.16328124999725
 20
725.10000000000093
 11
143.57509079897198
 21
715.4407417371101
  0
LINE
  8
_0-5_寸法線
  6
CONTINUOUS
 62
    7
 10
186.1632812499947
 20
695.10000000000093
 11
141.16328124999745
 21
695.10000000000093
  0
LINE
  8
_0-5_寸法線
  6
CONTINUOUS
 62
    7
 10
146.16328124999745
 20
695.10000000000093
 11
143.57509079897227
 21
704.75925826289154
  0
LINE
  8
_0-5_寸法線
  6
CONTINUOUS
 62
    7
 10
146.16328124999745
 20
695.10000000000093
 11
148.75147170102267
 21
704.75925826289154
  0
LINE
  8
_0-5_寸法線
  6
CONTINUOUS
 62
    7
 10
146.16328124999725
 20
725.10000000000093
 11
146.16328124999745
 21
695.10000000000093
  0
TEXT
  8
_0-5_寸法線
 62
    7
 10
146.16328124999725
 20
702.60000000000093
 40
15
 41
1
 50
90
  1
30
  0
LINE
  8
_0-5_寸法線
  6
CONTINUOUS
 62
    7
 10
146.16328124999745
 20
695.10000000000093
 11
148.75147170102267
 21
685.4407417371101
  0
LINE
  8
_0-5_寸法線
  6
CONTINUOUS
 62
    7
 10
146.16328124999745
 20
695.10000000000093
 11
143.57509079897227
 21
685.4407417371101
  0
LINE
  8
_0-5_寸法線
  6
CONTINUOUS
 62
    7
 10
186.16328124999242
 20
595.09999999999945
 11
141.16328124999745
 21
595.09999999999945
  0
LINE
  8
_0-5_寸法線
  6
CONTINUOUS
 62
    7
 10
146.16328124999745
 20
595.09999999999945
 11
143.57509079897227
 21
604.75925826289017
  0
LINE
  8
_0-5_寸法線
  6
CONTINUOUS
 62
    7
 10
146.16328124999745
 20
595.09999999999945
 11
148.75147170102267
 21
604.75925826289017
  0
LINE
  8
_0-5_寸法線
  6
CONTINUOUS
 62
    7
 10
146.16328124999745
 20
695.10000000000093
 11
146.16328124999745
 21
595.09999999999945
  0
TEXT
  8
_0-5_寸法線
 62
    7
 10
146.1632812499974
 20
633.85000000000036
 40
15
 41
1
 50
89.999999999999815
  1
100
  0
LINE
  8
_0-5_寸法線
  6
CONTINUOUS
 62
    7
 10
146.16328124999745
 20
595.09999999999945
 11
148.75147170102267
 21
585.44074173710874
  0
LINE
  8
_0-5_寸法線
  6
CONTINUOUS
 62
    7
 10
146.16328124999745
 20
595.09999999999945
 11
143.57509079897227
 21
585.44074173710874
  0
LINE
  8
_0-5_寸法線
  6
CONTINUOUS
 62
    7
 10
186.16328124999745
 20
565.10000000000264
 11
141.16328124999745
 21
565.10000000000264
  0
LINE
  8
_0-5_寸法線
  6
CONTINUOUS
 62
    7
 10
146.16328124999745
 20
565.10000000000264
 11
143.57509079897227
 21
574.75925826289335
  0
LINE
  8
_0-5_寸法線
  6
CONTINUOUS
 62
    7
 10
146.16328124999745
 20
565.10000000000264
 11
148.75147170102267
 21
574.75925826289335
  0
LINE
  8
_0-5_寸法線
  6
CONTINUOUS
 62
    7
 10
146.16328124999745
 20
595.09999999999945
 11
146.16328124999745
 21
565.10000000000264
  0
TEXT
  8
_0-5_寸法線
 62
    7
 10
146.16328124999745
 20
572.60000000000082
 40
15
 41
1
 50
90
  1
30
  0
LINE
  8
_0-1_計細線
  6
CONTINUOUS
 62
    3
 10
196.16328124999242
 20
695.10000000000093
 11
217.66328124999362
 21
695.10000000000093
  0
LINE
  8
_0-1_計細線
  6
CONTINUOUS
 62
    3
 10
196.16328124999242
 20
595.10000000000082
 11
217.66328124999362
 21
595.10000000000082
  0
ARC
  8
_0-0_計極細
  6
CONTINUOUS
 62
    2
 10
830.60950240667876
 20
717.60000000000093
 40
11.295514677412786
 50
138.39585046827415
 51
221.60414953172548
  0
ARC
  8
_0-0_計極細
  6
CONTINUOUS
 62
    2
 10
813.71706009330853
 20
702.59999999999945
 40
11.295514677412786
 50
318.39585046827534
 51
41.604149531723962
  0
ARC
  8
_0-0_計極細
  6
CONTINUOUS
 62
    2
 10
830.60950240667876
 20
587.59999999999945
 40
11.295514677412786
 50
138.39585046827415
 51
221.60414953172548
  0
ARC
  8
_0-0_計極細
  6
CONTINUOUS
 62
    2
 10
813.71706009330853
 20
572.59999999999809
 40
11.295514677412786
 50
318.39585046827534
 51
41.604149531723962
  0
LINE
  8
_0-1_計細線
  6
CONTINUOUS
 62
    3
 10
800.66328124999359
 20
595.10000000000082
 11
822.16328124999359
 21
595.10000000000082
  0
LINE
  8
_0-1_計細線
  6
CONTINUOUS
 62
    3
 10
800.66328124999359
 20
695.10000000000093
 11
822.16328124999359
 21
695.10000000000093
  0
LINE
  8
_0-1_計細線
  6
CONTINUOUS
 62
    3
 10
217.66328124999362
 20
720.10000000000093
 11
800.66328124999359
 21
720.10000000000093
  0
LINE
  8
_0-1_計細線
  6
CONTINUOUS
 62
    3
 10
217.66328124999362
 20
708.70000000000027
 11
800.66328124999359
 21
708.70000000000027
  0
LINE
  8
_0-1_計細線
  6
CONTINUOUS
 62
    3
 10
217.66328124999362
 20
720.10000000000093
 11
217.66328124999362
 21
708.70000000000027
  0
LINE
  8
_0-1_計細線
  6
CONTINUOUS
 62
    3
 10
800.66328124999359
 20
720.10000000000093
 11
800.66328124999359
 21
708.70000000000027
  0
LINE
  8
_0-0_計極細
  6
CONTINUOUS
 62
    2
 10
217.66328124999362
 20
711.90000000000055
 11
800.66328124999359
 21
711.90000000000055
  0
LINE
  8
_0-0_計極細
  6
CONTINUOUS
 62
    2
 10
217.66328124999362
 20
716.90000000000055
 11
800.66328124999359
 21
716.90000000000055
  0
LINE
  8
_0-1_計細線
  6
CONTINUOUS
 62
    3
 10
217.66328124999362
 20
703.00000000000091
 11
800.66328124999359
 21
703.00000000000091
  0
LINE
  8
_0-1_計細線
  6
CONTINUOUS
 62
    3
 10
217.66328124999362
 20
691.60000000000036
 11
800.66328124999359
 21
691.60000000000036
  0
LINE
  8
_0-1_計細線
  6
CONTINUOUS
 62
    3
 10
217.66328124999362
 20
703.00000000000091
 11
217.66328124999362
 21
691.60000000000036
  0
LINE
  8
_0-1_計細線
  6
CONTINUOUS
 62
    3
 10
800.66328124999359
 20
703.00000000000091
 11
800.66328124999359
 21
691.60000000000036
  0
LINE
  8
_0-0_計極細
  6
CONTINUOUS
 62
    2
 10
217.66328124999362
 20
694.80000000000064
 11
800.66328124999359
 21
694.80000000000064
  0
LINE
  8
_0-0_計極細
  6
CONTINUOUS
 62
    2
 10
217.66328124999362
 20
699.80000000000064
 11
800.66328124999359
 21
699.80000000000064
  0
LINE
  8
_0-1_計細線
  6
CONTINUOUS
 62
    3
 10
217.66328124999362
 20
685.59999999999991
 11
800.66328124999359
 21
685.59999999999991
  0
LINE
  8
_0-1_計細線
  6
CONTINUOUS
 62
    3
 10
217.66328124999362
 20
674.19999999999948
 11
800.66328124999359
 21
674.19999999999948
  0
LINE
  8
_0-1_計細線
  6
CONTINUOUS
 62
    3
 10
217.66328124999362
 20
685.59999999999991
 11
217.66328124999362
 21
674.19999999999948
  0
LINE
  8
_0-1_計細線
  6
CONTINUOUS
 62
    3
 10
800.66328124999359
 20
685.59999999999991
 11
800.66328124999359
 21
674.19999999999948
  0
LINE
  8
_0-0_計極細
  6
CONTINUOUS
 62
    2
 10
217.66328124999362
 20
677.40000000000009
 11
800.66328124999359
 21
677.40000000000009
  0
LINE
  8
_0-0_計極細
  6
CONTINUOUS
 62
    2
 10
217.66328124999362
 20
682.40000000000009
 11
800.66328124999359
 21
682.40000000000009
  0
LINE
  8
_0-1_計細線
  6
CONTINUOUS
 62
    3
 10
217.66328124999362
 20
570.10000000000082
 11
800.66328124999359
 21
570.10000000000082
  0
LINE
  8
_0-1_計細線
  6
CONTINUOUS
 62
    3
 10
217.66328124999362
 20
581.50000000000136
 11
800.66328124999359
 21
581.50000000000136
  0
LINE
  8
_0-1_計細線
  6
CONTINUOUS
 62
    3
 10
217.66328124999362
 20
570.10000000000082
 11
217.66328124999362
 21
581.50000000000136
  0
LINE
  8
_0-1_計細線
  6
CONTINUOUS
 62
    3
 10
800.66328124999359
 20
570.10000000000082
 11
800.66328124999359
 21
581.50000000000136
  0
LINE
  8
_0-0_計極細
  6
CONTINUOUS
 62
    2
 10
217.66328124999362
 20
578.30000000000109
 11
800.66328124999359
 21
578.30000000000109
  0
LINE
  8
_0-0_計極細
  6
CONTINUOUS
 62
    2
 10
217.66328124999362
 20
573.30000000000109
 11
800.66328124999359
 21
573.30000000000109
  0
LINE
  8
_0-1_計細線
  6
CONTINUOUS
 62
    3
 10
217.66328124999362
 20
587.20000000000073
 11
800.66328124999359
 21
587.20000000000073
  0
LINE
  8
_0-1_計細線
  6
CONTINUOUS
 62
    3
 10
217.66328124999362
 20
598.60000000000127
 11
800.66328124999359
 21
598.60000000000127
  0
LINE
  8
_0-1_計細線
  6
CONTINUOUS
 62
    3
 10
217.66328124999362
 20
587.20000000000073
 11
217.66328124999362
 21
598.60000000000127
  0
LINE
  8
_0-1_計細線
  6
CONTINUOUS
 62
    3
 10
800.66328124999359
 20
587.20000000000073
 11
800.66328124999359
 21
598.60000000000127
  0
LINE
  8
_0-0_計極細
  6
CONTINUOUS
 62
    2
 10
217.66328124999362
 20
595.400000000001
 11
800.66328124999359
 21
595.400000000001
  0
LINE
  8
_0-0_計極細
  6
CONTINUOUS
 62
    2
 10
217.66328124999362
 20
590.400000000001
 11
800.66328124999359
 21
590.400000000001
  0
LINE
  8
_0-1_計細線
  6
CONTINUOUS
 62
    3
 10
217.66328124999362
 20
604.60000000000173
 11
800.66328124999359
 21
604.60000000000173
  0
LINE
  8
_0-1_計細線
  6
CONTINUOUS
 62
    3
 10
217.66328124999362
 20
616.00000000000227
 11
800.66328124999359
 21
616.00000000000227
  0
LINE
  8
_0-1_計細線
  6
CONTINUOUS
 62
    3
 10
217.66328124999362
 20
604.60000000000173
 11
217.66328124999362
 21
616.00000000000227
  0
LINE
  8
_0-1_計細線
  6
CONTINUOUS
 62
    3
 10
800.66328124999359
 20
604.60000000000173
 11
800.66328124999359
 21
616.00000000000227
  0
LINE
  8
_0-0_計極細
  6
CONTINUOUS
 62
    2
 10
217.66328124999362
 20
612.80000000000155
 11
800.66328124999359
 21
612.80000000000155
  0
LINE
  8
_0-0_計極細
  6
CONTINUOUS
 62
    2
 10
217.66328124999362
 20
607.80000000000155
 11
800.66328124999359
 21
607.80000000000155
  0
LINE
  8
_0-1_計細線
  6
CONTINUOUS
 62
    3
 10
217.66328124999362
 20
622.00000000000227
 11
800.66328124999359
 21
622.00000000000227
  0
LINE
  8
_0-1_計細線
  6
CONTINUOUS
 62
    3
 10
217.66328124999362
 20
633.40000000000282
 11
800.66328124999359
 21
633.40000000000282
  0
LINE
  8
_0-1_計細線
  6
CONTINUOUS
 62
    3
 10
217.66328124999362
 20
622.00000000000227
 11
217.66328124999362
 21
633.40000000000282
  0
LINE
  8
_0-1_計細線
  6
CONTINUOUS
 62
    3
 10
800.66328124999359
 20
622.00000000000227
 11
800.66328124999359
 21
633.40000000000282
  0
LINE
  8
_0-0_計極細
  6
CONTINUOUS
 62
    2
 10
217.66328124999362
 20
630.20000000000255
 11
800.66328124999359
 21
630.20000000000255
  0
LINE
  8
_0-0_計極細
  6
CONTINUOUS
 62
    2
 10
217.66328124999362
 20
625.20000000000255
 11
800.66328124999359
 21
625.20000000000255
  0
LINE
  8
_0-0_計極細
  6
CENTER2
 62
    2
 10
201.77468171297483
 20
645.10000000000093
 11
816.70801504635153
 21
645.10000000000093
  0
LINE
  8
_0-1_計細線
  6
CONTINUOUS
 62
    3
 10
196.16328124999242
 20
725.10000000000093
 11
822.16328124999359
 21
725.10000000000093
  0
LINE
  8
_0-1_計細線
  6
CONTINUOUS
 62
    3
 10
822.16328124999359
 20
565.10000000000082
 11
196.16328124999242
 21
565.10000000000082
  0
LINE
  8
_0-1_計細線
  6
CONTINUOUS
 62
    3
 10
194.24906555161988
 20
722.10000000000082
 11
820.24906555162102
 21
722.10000000000082
  0
LINE
  8
_0-1_計細線
  6
CONTINUOUS
 62
    3
 10
824.07749694836809
 20
568.10000000000082
 11
198.07749694836843
 21
568.10000000000082
  0
LINE
  8
_0-0_計極細
  6
CONTINUOUS
 62
    2
 10
226.1632812499937
 20
708.70000000000027
 11
226.1632812499937
 21
703
  0
LINE
  8
_0-0_計極細
  6
CONTINUOUS
 62
    2
 10
239.16328124999367
 20
708.70000000000027
 11
239.16328124999367
 21
703
  0
LINE
  8
_0-0_計極細
  6
CONTINUOUS
 62
    2
 10
226.1632812499937
 20
691.60000000000036
 11
226.1632812499937
 21
685.59999999999991
  0
LINE
  8
_0-0_計極細
  6
CONTINUOUS
 62
    2
 10
239.16328124999367
 20
691.60000000000036
 11
239.16328124999367
 21
685.59999999999991
  0
LINE
  8
_0-0_計極細
  6
CONTINUOUS
 62
    2
 10
226.1632812499937
 20
674.19999999999948
 11
226.1632812499937
 21
668.19999999999936
  0
LINE
  8
_0-0_計極細
  6
CONTINUOUS
 62
    2
 10
239.16328124999367
 20
674.19999999999948
 11
239.16328124999367
 21
668.19999999999936
  0
LINE
  8
_0-0_計極細
  6
CONTINUOUS
 62
    2
 10
226.1632812499937
 20
656.79999999999882
 11
226.1632812499937
 21
650.79999999999882
  0
LINE
  8
_0-0_計極細
  6
CONTINUOUS
 62
    2
 10
239.16328124999367
 20
656.79999999999882
 11
239.16328124999367
 21
650.79999999999882
  0
LINE
  8
_0-0_計極細
  6
CONTINUOUS
 62
    2
 10
226.1632812499937
 20
639.39999999999827
 11
226.1632812499937
 21
633.39999999999827
  0
LINE
  8
_0-0_計極細
  6
CONTINUOUS
 62
    2
 10
239.16328124999367
 20
639.39999999999827
 11
239.16328124999367
 21
633.39999999999827
  0
LINE
  8
_0-0_計極細
  6
CONTINUOUS
 62
    2
 10
226.1632812499937
 20
581.50000000000136
 11
226.1632812499937
 21
587.20000000000164
  0
LINE
  8
_0-0_計極細
  6
CONTINUOUS
 62
    2
 10
239.16328124999367
 20
581.50000000000136
 11
239.16328124999367
 21
587.20000000000164
  0
LINE
  8
_0-0_計極細
  6
CONTINUOUS
 62
    2
 10
226.1632812499937
 20
598.60000000000127
 11
226.1632812499937
 21
604.60000000000173
  0
LINE
  8
_0-0_計極細
  6
CONTINUOUS
 62
    2
 10
239.16328124999367
 20
598.60000000000127
 11
239.16328124999367
 21
604.60000000000173
  0
LINE
  8
_0-0_計極細
  6
CONTINUOUS
 62
    2
 10
226.1632812499937
 20
616.00000000000227
 11
226.1632812499937
 21
622.00000000000227
  0
LINE
  8
_0-0_計極細
  6
CONTINUOUS
 62
    2
 10
239.16328124999367
 20
616.00000000000227
 11
239.16328124999367
 21
622.00000000000227
  0
LINE
  8
_0-0_計極細
  6
CENTER1
 62
    2
 10
232.66328124999376
 20
728.85071942446302
 11
232.66328124999376
 21
562.34217625898827
  0
LINE
  8
_0-0_計極細
  6
CONTINUOUS
 62
    2
 10
779.16328124999382
 20
708.70000000000027
 11
779.16328124999382
 21
703
  0
LINE
  8
_0-0_計極細
  6
CONTINUOUS
 62
    2
 10
792.16328124999382
 20
708.70000000000027
 11
792.16328124999382
 21
703
  0
LINE
  8
_0-0_計極細
  6
CONTINUOUS
 62
    2
 10
779.16328124999382
 20
691.60000000000036
 11
779.16328124999382
 21
685.59999999999991
  0
LINE
  8
_0-0_計極細
  6
CONTINUOUS
 62
    2
 10
792.16328124999382
 20
691.60000000000036
 11
792.16328124999382
 21
685.59999999999991
  0
LINE
  8
_0-0_計極細
  6
CONTINUOUS
 62
    2
 10
779.16328124999382
 20
674.19999999999948
 11
779.16328124999382
 21
668.19999999999936
  0
LINE
  8
_0-0_計極細
  6
CONTINUOUS
 62
    2
 10
792.16328124999382
 20
674.19999999999948
 11
792.16328124999382
 21
668.19999999999936
  0
LINE
  8
_0-0_計極細
  6
CONTINUOUS
 62
    2
 10
779.16328124999382
 20
656.79999999999882
 11
779.16328124999382
 21
650.79999999999882
  0
LINE
  8
_0-0_計極細
  6
CONTINUOUS
 62
    2
 10
792.16328124999382
 20
656.79999999999882
 11
792.16328124999382
 21
650.79999999999882
  0
LINE
  8
_0-0_計極細
  6
CONTINUOUS
 62
    2
 10
779.16328124999382
 20
639.39999999999827
 11
779.16328124999382
 21
633.39999999999827
  0
LINE
  8
_0-0_計極細
  6
CONTINUOUS
 62
    2
 10
792.16328124999382
 20
639.39999999999827
 11
792.16328124999382
 21
633.39999999999827
  0
LINE
  8
_0-0_計極細
  6
CONTINUOUS
 62
    2
 10
779.16328124999382
 20
581.50000000000136
 11
779.16328124999382
 21
587.20000000000164
  0
LINE
  8
_0-0_計極細
  6
CONTINUOUS
 62
    2
 10
792.16328124999382
 20
581.50000000000136
 11
792.16328124999382
 21
587.20000000000164
  0
LINE
  8
_0-0_計極細
  6
CONTINUOUS
 62
    2
 10
779.16328124999382
 20
598.60000000000127
 11
779.16328124999382
 21
604.60000000000173
  0
LINE
  8
_0-0_計極細
  6
CONTINUOUS
 62
    2
 10
792.16328124999382
 20
598.60000000000127
 11
792.16328124999382
 21
604.60000000000173
  0
LINE
  8
_0-0_計極細
  6
CONTINUOUS
 62
    2
 10
779.16328124999382
 20
616.00000000000227
 11
779.16328124999382
 21
622.00000000000227
  0
LINE
  8
_0-0_計極細
  6
CONTINUOUS
 62
    2
 10
792.16328124999382
 20
616.00000000000227
 11
792.16328124999382
 21
622.00000000000227
  0
LINE
  8
_0-0_計極細
  6
CENTER1
 62
    2
 10
785.6632812499937
 20
728.85071942446302
 11
785.6632812499937
 21
562.34217625898827
  0
LINE
  8
_0-0_計極細
  6
CONTINUOUS
 62
    2
 10
323.1632812499937
 20
708.70000000000027
 11
323.1632812499937
 21
703
  0
LINE
  8
_0-0_計極細
  6
CONTINUOUS
 62
    2
 10
336.1632812499937
 20
708.70000000000027
 11
336.1632812499937
 21
703
  0
LINE
  8
_0-0_計極細
  6
CONTINUOUS
 62
    2
 10
323.1632812499937
 20
691.60000000000036
 11
323.1632812499937
 21
685.59999999999991
  0
LINE
  8
_0-0_計極細
  6
CONTINUOUS
 62
    2
 10
336.1632812499937
 20
691.60000000000036
 11
336.1632812499937
 21
685.59999999999991
  0
LINE
  8
_0-0_計極細
  6
CONTINUOUS
 62
    2
 10
323.1632812499937
 20
674.19999999999948
 11
323.1632812499937
 21
668.19999999999936
  0
LINE
  8
_0-0_計極細
  6
CONTINUOUS
 62
    2
 10
336.1632812499937
 20
674.19999999999948
 11
336.1632812499937
 21
668.19999999999936
  0
LINE
  8
_0-0_計極細
  6
CONTINUOUS
 62
    2
 10
323.1632812499937
 20
639.39999999999827
 11
323.1632812499937
 21
633.39999999999827
  0
LINE
  8
_0-0_計極細
  6
CONTINUOUS
 62
    2
 10
336.1632812499937
 20
639.39999999999827
 11
336.1632812499937
 21
633.39999999999827
  0
LINE
  8
_0-0_計極細
  6
CONTINUOUS
 62
    2
 10
323.1632812499937
 20
581.50000000000136
 11
323.1632812499937
 21
587.20000000000164
  0
LINE
  8
_0-0_計極細
  6
CONTINUOUS
 62
    2
 10
336.1632812499937
 20
581.50000000000136
 11
336.1632812499937
 21
587.20000000000164
  0
LINE
  8
_0-0_計極細
  6
CONTINUOUS
 62
    2
 10
323.1632812499937
 20
598.60000000000127
 11
323.1632812499937
 21
604.60000000000173
  0
LINE
  8
_0-0_計極細
  6
CONTINUOUS
 62
    2
 10
336.1632812499937
 20
598.60000000000127
 11
336.1632812499937
 21
604.60000000000173
  0
LINE
  8
_0-0_計極細
  6
CONTINUOUS
 62
    2
 10
323.1632812499937
 20
616.00000000000227
 11
323.1632812499937
 21
622.00000000000227
  0
LINE
  8
_0-0_計極細
  6
CONTINUOUS
 62
    2
 10
336.1632812499937
 20
616.00000000000227
 11
336.1632812499937
 21
622.00000000000227
  0
LINE
  8
_0-0_計極細
  6
CENTER1
 62
    2
 10
329.6632812499937
 20
728.85071942446302
 11
329.6632812499937
 21
562.34217625898827
  0
LINE
  8
_0-0_計極細
  6
CONTINUOUS
 62
    2
 10
420.16328124999376
 20
708.70000000000027
 11
420.16328124999376
 21
703
  0
LINE
  8
_0-0_計極細
  6
CONTINUOUS
 62
    2
 10
433.1632812499937
 20
708.70000000000027
 11
433.1632812499937
 21
703
  0
LINE
  8
_0-0_計極細
  6
CONTINUOUS
 62
    2
 10
420.16328124999376
 20
691.60000000000036
 11
420.16328124999376
 21
685.59999999999991
  0
LINE
  8
_0-0_計極細
  6
CONTINUOUS
 62
    2
 10
433.1632812499937
 20
691.60000000000036
 11
433.1632812499937
 21
685.59999999999991
  0
LINE
  8
_0-0_計極細
  6
CONTINUOUS
 62
    2
 10
420.16328124999376
 20
674.19999999999948
 11
420.16328124999376
 21
668.19999999999936
  0
LINE
  8
_0-0_計極細
  6
CONTINUOUS
 62
    2
 10
433.1632812499937
 20
674.19999999999948
 11
433.1632812499937
 21
668.19999999999936
  0
LINE
  8
_0-0_計極細
  6
CONTINUOUS
 62
    2
 10
420.16328124999376
 20
656.79999999999882
 11
420.16328124999376
 21
650.79999999999882
  0
LINE
  8
_0-0_計極細
  6
CONTINUOUS
 62
    2
 10
433.1632812499937
 20
656.79999999999882
 11
433.1632812499937
 21
650.79999999999882
  0
LINE
  8
_0-0_計極細
  6
CONTINUOUS
 62
    2
 10
420.16328124999376
 20
639.39999999999827
 11
420.16328124999376
 21
633.39999999999827
  0
LINE
  8
_0-0_計極細
  6
CONTINUOUS
 62
    2
 10
433.1632812499937
 20
639.39999999999827
 11
433.1632812499937
 21
633.39999999999827
  0
LINE
  8
_0-0_計極細
  6
CONTINUOUS
 62
    2
 10
420.16328124999376
 20
581.50000000000136
 11
420.16328124999376
 21
587.20000000000164
  0
LINE
  8
_0-0_計極細
  6
CONTINUOUS
 62
    2
 10
433.1632812499937
 20
581.50000000000136
 11
433.1632812499937
 21
587.20000000000164
  0
LINE
  8
_0-0_計極細
  6
CONTINUOUS
 62
    2
 10
420.16328124999376
 20
598.60000000000127
 11
420.16328124999376
 21
604.60000000000173
  0
LINE
  8
_0-0_計極細
  6
CONTINUOUS
 62
    2
 10
433.1632812499937
 20
598.60000000000127
 11
433.1632812499937
 21
604.60000000000173
  0
LINE
  8
_0-0_計極細
  6
CONTINUOUS
 62
    2
 10
420.16328124999376
 20
616.00000000000227
 11
420.16328124999376
 21
622.00000000000227
  0
LINE
  8
_0-0_計極細
  6
CONTINUOUS
 62
    2
 10
433.1632812499937
 20
616.00000000000227
 11
433.1632812499937
 21
622.00000000000227
  0
LINE
  8
_0-0_計極細
  6
CENTER1
 62
    2
 10
426.66328124999376
 20
728.85071942446302
 11
426.66328124999376
 21
562.34217625898827
  0
LINE
  8
_0-0_計極細
  6
CONTINUOUS
 62
    2
 10
682.16328124999382
 20
708.70000000000027
 11
682.16328124999382
 21
703
  0
LINE
  8
_0-0_計極細
  6
CONTINUOUS
 62
    2
 10
695.16328124999382
 20
708.70000000000027
 11
695.16328124999382
 21
703
  0
LINE
  8
_0-0_計極細
  6
CONTINUOUS
 62
    2
 10
682.16328124999382
 20
691.60000000000036
 11
682.16328124999382
 21
685.59999999999991
  0
LINE
  8
_0-0_計極細
  6
CONTINUOUS
 62
    2
 10
695.16328124999382
 20
691.60000000000036
 11
695.16328124999382
 21
685.59999999999991
  0
LINE
  8
_0-0_計極細
  6
CONTINUOUS
 62
    2
 10
682.16328124999382
 20
674.19999999999948
 11
682.16328124999382
 21
668.19999999999936
  0
LINE
  8
_0-0_計極細
  6
CONTINUOUS
 62
    2
 10
695.16328124999382
 20
674.19999999999948
 11
695.16328124999382
 21
668.19999999999936
  0
LINE
  8
_0-0_計極細
  6
CONTINUOUS
 62
    2
 10
682.16328124999382
 20
656.79999999999882
 11
682.16328124999382
 21
650.79999999999882
  0
LINE
  8
_0-0_計極細
  6
CONTINUOUS
 62
    2
 10
695.16328124999382
 20
656.79999999999882
 11
695.16328124999382
 21
650.79999999999882
  0
LINE
  8
_0-0_計極細
  6
CONTINUOUS
 62
    2
 10
682.16328124999382
 20
639.39999999999827
 11
682.16328124999382
 21
633.39999999999827
  0
LINE
  8
_0-0_計極細
  6
CONTINUOUS
 62
    2
 10
695.16328124999382
 20
639.39999999999827
 11
695.16328124999382
 21
633.39999999999827
  0
LINE
  8
_0-0_計極細
  6
CONTINUOUS
 62
    2
 10
682.16328124999382
 20
581.50000000000136
 11
682.16328124999382
 21
587.20000000000164
  0
LINE
  8
_0-0_計極細
  6
CONTINUOUS
 62
    2
 10
695.16328124999382
 20
581.50000000000136
 11
695.16328124999382
 21
587.20000000000164
  0
LINE
  8
_0-0_計極細
  6
CONTINUOUS
 62
    2
 10
682.16328124999382
 20
598.60000000000127
 11
682.16328124999382
 21
604.60000000000173
  0
LINE
  8
_0-0_計極細
  6
CONTINUOUS
 62
    2
 10
695.16328124999382
 20
598.60000000000127
 11
695.16328124999382
 21
604.60000000000173
  0
LINE
  8
_0-0_計極細
  6
CONTINUOUS
 62
    2
 10
682.16328124999382
 20
616.00000000000227
 11
682.16328124999382
 21
622.00000000000227
  0
LINE
  8
_0-0_計極細
  6
CONTINUOUS
 62
    2
 10
695.16328124999382
 20
616.00000000000227
 11
695.16328124999382
 21
622.00000000000227
  0
LINE
  8
_0-0_計極細
  6
CENTER1
 62
    2
 10
688.6632812499937
 20
728.85071942446302
 11
688.6632812499937
 21
562.34217625898827
  0
LINE
  8
_0-0_計極細
  6
CONTINUOUS
 62
    2
 10
585.16328124999347
 20
708.70000000000027
 11
585.16328124999347
 21
703
  0
LINE
  8
_0-0_計極細
  6
CONTINUOUS
 62
    2
 10
598.1632812499937
 20
708.70000000000027
 11
598.1632812499937
 21
703
  0
LINE
  8
_0-0_計極細
  6
CONTINUOUS
 62
    2
 10
585.16328124999347
 20
691.60000000000036
 11
585.16328124999347
 21
685.59999999999991
  0
LINE
  8
_0-0_計極細
  6
CONTINUOUS
 62
    2
 10
598.1632812499937
 20
691.60000000000036
 11
598.1632812499937
 21
685.59999999999991
  0
LINE
  8
_0-0_計極細
  6
CONTINUOUS
 62
    2
 10
585.16328124999347
 20
674.19999999999948
 11
585.16328124999347
 21
668.19999999999936
  0
LINE
  8
_0-0_計極細
  6
CONTINUOUS
 62
    2
 10
598.1632812499937
 20
674.19999999999948
 11
598.1632812499937
 21
668.19999999999936
  0
LINE
  8
_0-0_計極細
  6
CONTINUOUS
 62
    2
 10
585.16328124999347
 20
656.79999999999882
 11
585.16328124999347
 21
650.79999999999882
  0
LINE
  8
_0-0_計極細
  6
CONTINUOUS
 62
    2
 10
598.1632812499937
 20
656.79999999999882
 11
598.1632812499937
 21
650.79999999999882
  0
LINE
  8
_0-0_計極細
  6
CONTINUOUS
 62
    2
 10
585.16328124999347
 20
639.39999999999827
 11
585.16328124999347
 21
633.39999999999827
  0
LINE
  8
_0-0_計極細
  6
CONTINUOUS
 62
    2
 10
598.1632812499937
 20
639.39999999999827
 11
598.1632812499937
 21
633.39999999999827
  0
LINE
  8
_0-0_計極細
  6
CONTINUOUS
 62
    2
 10
585.16328124999347
 20
581.50000000000136
 11
585.16328124999347
 21
587.20000000000164
  0
LINE
  8
_0-0_計極細
  6
CONTINUOUS
 62
    2
 10
598.1632812499937
 20
581.50000000000136
 11
598.1632812499937
 21
587.20000000000164
  0
LINE
  8
_0-0_計極細
  6
CONTINUOUS
 62
    2
 10
585.16328124999347
 20
598.60000000000127
 11
585.16328124999347
 21
604.60000000000173
  0
LINE
  8
_0-0_計極細
  6
CONTINUOUS
 62
    2
 10
598.1632812499937
 20
598.60000000000127
 11
598.1632812499937
 21
604.60000000000173
  0
LINE
  8
_0-0_計極細
  6
CONTINUOUS
 62
    2
 10
585.16328124999347
 20
616.00000000000227
 11
585.16328124999347
 21
622.00000000000227
  0
LINE
  8
_0-0_計極細
  6
CONTINUOUS
 62
    2
 10
598.1632812499937
 20
616.00000000000227
 11
598.1632812499937
 21
622.00000000000227
  0
LINE
  8
_0-0_計極細
  6
CENTER1
 62
    2
 10
591.6632812499937
 20
728.85071942446302
 11
591.6632812499937
 21
562.34217625898827
  0
LINE
  8
_0-0_計極細
  6
CONTINUOUS
 62
    2
 10
517.1632812499937
 20
708.70000000000027
 11
517.1632812499937
 21
703
  0
LINE
  8
_0-0_計極細
  6
CONTINUOUS
 62
    2
 10
530.16328124999382
 20
708.70000000000027
 11
530.16328124999382
 21
703
  0
LINE
  8
_0-0_計極細
  6
CONTINUOUS
 62
    2
 10
517.1632812499937
 20
691.60000000000036
 11
517.1632812499937
 21
685.59999999999991
  0
LINE
  8
_0-0_計極細
  6
CONTINUOUS
 62
    2
 10
530.16328124999382
 20
691.60000000000036
 11
530.16328124999382
 21
685.59999999999991
  0
LINE
  8
_0-0_計極細
  6
CONTINUOUS
 62
    2
 10
517.1632812499937
 20
674.19999999999948
 11
517.1632812499937
 21
668.19999999999936
  0
LINE
  8
_0-0_計極細
  6
CONTINUOUS
 62
    2
 10
530.16328124999382
 20
674.19999999999948
 11
530.16328124999382
 21
668.19999999999936
  0
LINE
  8
_0-0_計極細
  6
CONTINUOUS
 62
    2
 10
517.1632812499937
 20
656.79999999999882
 11
517.1632812499937
 21
650.79999999999882
  0
LINE
  8
_0-0_計極細
  6
CONTINUOUS
 62
    2
 10
530.16328124999382
 20
656.79999999999882
 11
530.16328124999382
 21
650.79999999999882
  0
LINE
  8
_0-0_計極細
  6
CONTINUOUS
 62
    2
 10
517.1632812499937
 20
639.39999999999827
 11
517.1632812499937
 21
633.39999999999827
  0
LINE
  8
_0-0_計極細
  6
CONTINUOUS
 62
    2
 10
530.16328124999382
 20
639.39999999999827
 11
530.16328124999382
 21
633.39999999999827
  0
LINE
  8
_0-0_計極細
  6
CONTINUOUS
 62
    2
 10
517.1632812499937
 20
581.50000000000136
 11
517.1632812499937
 21
587.20000000000164
  0
LINE
  8
_0-0_計極細
  6
CONTINUOUS
 62
    2
 10
530.16328124999382
 20
581.50000000000136
 11
530.16328124999382
 21
587.20000000000164
  0
LINE
  8
_0-0_計極細
  6
CONTINUOUS
 62
    2
 10
517.1632812499937
 20
598.60000000000127
 11
517.1632812499937
 21
604.60000000000173
  0
LINE
  8
_0-0_計極細
  6
CONTINUOUS
 62
    2
 10
530.16328124999382
 20
598.60000000000127
 11
530.16328124999382
 21
604.60000000000173
  0
LINE
  8
_0-0_計極細
  6
CONTINUOUS
 62
    2
 10
517.1632812499937
 20
616.00000000000227
 11
517.1632812499937
 21
622.00000000000227
  0
LINE
  8
_0-0_計極細
  6
CONTINUOUS
 62
    2
 10
530.16328124999382
 20
616.00000000000227
 11
530.16328124999382
 21
622.00000000000227
  0
LINE
  8
_0-0_計極細
  6
CENTER1
 62
    2
 10
523.6632812499937
 20
728.85071942446302
 11
523.6632812499937
 21
562.34217625898827
  0
LINE
  8
_0-5_寸法線
  6
CONTINUOUS
 62
    7
 10
329.6632812499937
 20
735.10000000000093
 11
329.66328124999387
 21
780.099999999999
  0
LINE
  8
_0-5_寸法線
  6
CONTINUOUS
 62
    7
 10
329.66328124999387
 20
775.099999999999
 11
339.32253951288453
 21
777.68819045102418
  0
LINE
  8
_0-5_寸法線
  6
CONTINUOUS
 62
    7
 10
329.66328124999387
 20
775.099999999999
 11
339.32253951288453
 21
772.51180954897393
  0
LINE
  8
_0-5_寸法線
  6
CONTINUOUS
 62
    7
 10
426.66328124999376
 20
735.10000000000093
 11
426.66328124999382
 21
780.099999999999
  0
LINE
  8
_0-5_寸法線
  6
CONTINUOUS
 62
    7
 10
426.66328124999382
 20
775.099999999999
 11
417.0040229871031
 21
772.51180954897393
  0
LINE
  8
_0-5_寸法線
  6
CONTINUOUS
 62
    7
 10
426.66328124999382
 20
775.099999999999
 11
417.00402298710316
 21
777.68819045102418
  0
LINE
  8
_0-5_寸法線
  6
CONTINUOUS
 62
    7
 10
329.66328124999387
 20
775.099999999999
 11
426.66328124999382
 21
775.099999999999
  0
TEXT
  8
_0-5_寸法線
 62
    7
 10
370.66328124999382
 20
775.099999999999
 40
15
 41
1
 50
0
  1
97
  0
LINE
  8
_0-5_寸法線
  6
CONTINUOUS
 62
    7
 10
426.66328124999382
 20
775.099999999999
 11
436.32253951288448
 21
777.68819045102418
  0
LINE
  8
_0-5_寸法線
  6
CONTINUOUS
 62
    7
 10
426.66328124999382
 20
775.099999999999
 11
436.32253951288448
 21
772.51180954897382
  0
LINE
  8
_0-5_寸法線
  6
CONTINUOUS
 62
    7
 10
523.6632812499937
 20
735.10000000000093
 11
523.66328124999382
 21
780.099999999999
  0
LINE
  8
_0-5_寸法線
  6
CONTINUOUS
 62
    7
 10
523.66328124999382
 20
775.099999999999
 11
514.0040229871031
 21
772.51180954897393
  0
LINE
  8
_0-5_寸法線
  6
CONTINUOUS
 62
    7
 10
523.66328124999382
 20
775.099999999999
 11
514.0040229871031
 21
777.68819045102418
  0
LINE
  8
_0-5_寸法線
  6
CONTINUOUS
 62
    7
 10
426.66328124999382
 20
775.099999999999
 11
523.66328124999382
 21
775.099999999999
  0
TEXT
  8
_0-5_寸法線
 62
    7
 10
467.66328124999382
 20
775.099999999999
 40
15
 41
1
 50
0
  1
97
  0
LINE
  8
_0-5_寸法線
  6
CONTINUOUS
 62
    7
 10
523.66328124999382
 20
775.099999999999
 11
533.32253951288453
 21
777.68819045102418
  0
LINE
  8
_0-5_寸法線
  6
CONTINUOUS
 62
    7
 10
523.66328124999382
 20
775.099999999999
 11
533.32253951288453
 21
772.51180954897382
  0
LINE
  8
_0-5_寸法線
  6
CONTINUOUS
 62
    7
 10
591.6632812499937
 20
735.10000000000093
 11
591.66328124999382
 21
780.099999999999
  0
LINE
  8
_0-5_寸法線
  6
CONTINUOUS
 62
    7
 10
591.66328124999382
 20
775.099999999999
 11
582.0040229871031
 21
772.51180954897393
  0
LINE
  8
_0-5_寸法線
  6
CONTINUOUS
 62
    7
 10
591.66328124999382
 20
775.099999999999
 11
582.0040229871031
 21
777.68819045102418
  0
LINE
  8
_0-5_寸法線
  6
CONTINUOUS
 62
    7
 10
523.66328124999382
 20
775.099999999999
 11
591.66328124999382
 21
775.099999999999
  0
TEXT
  8
_0-5_寸法線
 62
    7
 10
550.16328124999382
 20
775.099999999999
 40
15
 41
1
 50
0
  1
Ｂ
  0
LINE
  8
_0-5_寸法線
  6
CONTINUOUS
 62
    7
 10
217.66328124999362
 20
735.09999999999991
 11
217.66328124999362
 21
780.099999999999
  0
LINE
  8
_0-5_寸法線
  6
CONTINUOUS
 62
    7
 10
217.66328124999362
 20
775.099999999999
 11
227.32253951288428
 21
777.68819045102418
  0
LINE
  8
_0-5_寸法線
  6
CONTINUOUS
 62
    7
 10
217.66328124999362
 20
775.099999999999
 11
227.32253951288428
 21
772.51180954897393
  0
LINE
  8
_0-5_寸法線
  6
CONTINUOUS
 62
    7
 10
232.66328124999376
 20
735.09999999999991
 11
232.66328124999376
 21
780.099999999999
  0
LINE
  8
_0-5_寸法線
  6
CONTINUOUS
 62
    7
 10
232.66328124999376
 20
775.099999999999
 11
223.00402298710304
 21
772.51180954897393
  0
LINE
  8
_0-5_寸法線
  6
CONTINUOUS
 62
    7
 10
232.66328124999376
 20
775.099999999999
 11
223.0040229871031
 21
777.68819045102418
  0
LINE
  8
_0-5_寸法線
  6
CONTINUOUS
 62
    7
 10
217.66328124999362
 20
775.099999999999
 11
232.66328124999376
 21
775.099999999999
  0
TEXT
  8
_0-5_寸法線
 62
    7
 10
217.66328124999362
 20
775.099999999999
 40
15
 41
1
 50
0
  1
Ａ
  0
LINE
  8
_0-7_枠細線
  6
CONTINUOUS
 62
    5
 10
361.32314860838102
 20
778.48965769304198
 11
353.82314860838102
 21
793.48965769304198
  0
LINE
  8
_0-7_枠細線
  6
CONTINUOUS
 62
    5
 10
346.32314860838102
 20
778.48965769304198
 11
361.32314860838102
 21
778.48965769304198
  0
LINE
  8
_0-7_枠細線
  6
CONTINUOUS
 62
    5
 10
353.82314860838102
 20
793.48965769304198
 11
346.32314860838102
 21
778.48965769304198
  0
TEXT
  8
_0-7_枠細線
 62
    5
 10
348.68829987652907
 20
778.18265544766155
 40
12.5
 41
0.8
 50
0
  1
１
  0
LINE
  8
_0-5_寸法線
  6
CONTINUOUS
 62
    7
 10
557.58582171398575
 20
610.05372114838337
 11
562.58582170188379
 21
601.39346710355187
  0
LINE
  8
_0-5_寸法線
  6
CONTINUOUS
 62
    7
 10
557.58582171398575
 20
610.05372114838337
 11
557.58582170001159
 21
600.05372114838337
  0
LINE
  8
_0-5_寸法線
  6
CONTINUOUS
 62
    7
 10
557.58582171398575
 20
610.05372114838337
 11
580.9433047034795
 21
522.88240740740866
  0
LINE
  8
_0-5_寸法線
  6
CONTINUOUS
 62
    7
 10
580.9433047034795
 20
522.88240740740866
 11
712.94330470347961
 21
522.88240740740866
  0
TEXT
  8
_0-5_寸法線
 62
    7
 10
580.9433047034795
 20
522.88240740740866
 40
15
 41
0.8000000000000001
 50
0
  1
セーフティグレーチング
  0
TEXT
  8
_0-5_寸法線
 62
    7
 10
580.9433047034795
 20
507.88240740740866
 40
15
 41
0.8000000000000001
 50
0
  1
ＧＲＳ－２０Ｗ１５０
  0
LINE
  8
_0-0_計極細
  6
CONTINUOUS
 62
    2
 10
323.1632812499937
 20
656.79999999999882
 11
323.1632812499937
 21
656.15000000000111
  0
LINE
  8
_0-0_計極細
  6
CONTINUOUS
 62
    2
 10
323.1632812499937
 20
651.45000000000118
 11
323.1632812499937
 21
650.79999999999882
  0
LINE
  8
_0-0_計極細
  6
CONTINUOUS
 62
    2
 10
336.1632812499937
 20
656.79999999999882
 11
336.1632812499937
 21
656.15000000000111
  0
LINE
  8
_0-0_計極細
  6
CONTINUOUS
 62
    2
 10
336.1632812499937
 20
651.45000000000118
 11
336.1632812499937
 21
650.79999999999882
  0
LINE
  8
_0-5_寸法線
  6
CONTINUOUS
 62
    7
 10
307.06662715464472
 20
652.67214538582823
 11
312.0666271587811
 21
644.01189135037203
  0
LINE
  8
_0-5_寸法線
  6
CONTINUOUS
 62
    7
 10
307.06662715464472
 20
652.67214538582823
 11
307.06662715942105
 21
642.67214538582823
  0
LINE
  8
_0-5_寸法線
  6
CONTINUOUS
 62
    7
 10
307.06662715464472
 20
652.67214538582823
 11
341.84368269825154
 21
522.88240740740866
  0
LINE
  8
_0-5_寸法線
  6
CONTINUOUS
 62
    7
 10
341.84368269825154
 20
522.88240740740866
 11
401.84368269825154
 21
522.88240740740866
  0
TEXT
  8
_0-5_寸法線
 62
    7
 10
341.84368269825154
 20
522.88240740740866
 40
15
 41
0.8000000000000001
 50
0
  1
取　外　具
  0
TEXT
  8
_0-5_寸法線
 62
    7
 10
341.84368269825154
 20
507.88240740740866
 40
15
 41
0.8000000000000001
 50
0
  1
(標準付属)
  0
TEXT
  8
_0-7_枠細線
 62
    5
 10
345.57120000618107
 20
539.94445117000623
 40
12.5
 41
0.8
 50
0
  1
２
  0
LINE
  8
_0-7_枠細線
  6
CONTINUOUS
 62
    5
 10
358.20604873803291
 20
540.25145341538655
 11
350.70604873803291
 21
555.25145341538655
  0
LINE
  8
_0-7_枠細線
  6
CONTINUOUS
 62
    5
 10
343.20604873803291
 20
540.25145341538655
 11
358.20604873803291
 21
540.25145341538655
  0
LINE
  8
_0-7_枠細線
  6
CONTINUOUS
 62
    5
 10
350.70604873803291
 20
555.25145341538655
 11
343.20604873803291
 21
540.25145341538655
  0
LINE
  8
_0-5_寸法線
  6
CONTINUOUS
 62
    7
 10
431.81818285525458
 20
567.07500000000118
 11
436.81818286637906
 21
558.4147459685795
  0
LINE
  8
_0-5_寸法線
  6
CONTINUOUS
 62
    7
 10
431.81818285525458
 20
567.07500000000118
 11
431.81818286810005
 21
557.07500000000118
  0
LINE
  8
_0-5_寸法線
  6
CONTINUOUS
 62
    7
 10
431.81818285525458
 20
567.07500000000118
 11
443.65955241272047
 21
522.88240740740866
  0
LINE
  8
_0-5_寸法線
  6
CONTINUOUS
 62
    7
 10
443.65955241272047
 20
522.88240740740866
 11
551.65955241272059
 21
522.88240740740866
  0
TEXT
  8
_0-5_寸法線
 62
    7
 10
443.65955241272047
 20
523.48240740740857
 40
15
 41
0.8000000000000001
 50
0
  1
ＳＵＳアングル受枠
  0
TEXT
  8
_0-5_寸法線
 62
    7
 10
443.65955241272047
 20
507.88240740740866
 40
15
 41
0.8000000000000001
 50
0
  1
ＧＳＬ－２０
  0
LINE
  8
_0-1_計細線
  6
CONTINUOUS
 62
    3
 10
217.66328124999362
 20
668.19999999999936
 11
800.66328124999359
 21
668.19999999999936
  0
LINE
  8
_0-1_計細線
  6
CONTINUOUS
 62
    3
 10
800.66328124999359
 20
668.19999999999936
 11
800.66328124999359
 21
656.79999999999882
  0
LINE
  8
_0-0_計極細
  6
CONTINUOUS
 62
    2
 10
217.66328124999362
 20
659.99999999999909
 11
800.66328124999359
 21
659.99999999999909
  0
LINE
  8
_0-0_計極細
  6
CONTINUOUS
 62
    2
 10
217.66328124999362
 20
664.99999999999909
 11
800.66328124999359
 21
664.99999999999909
  0
LINE
  8
_0-1_計細線
  6
CONTINUOUS
 62
    3
 10
217.66328124999362
 20
656.79999999999882
 11
800.66328124999359
 21
656.79999999999882
  0
LINE
  8
_0-1_計細線
  6
CONTINUOUS
 62
    3
 10
217.66328124999362
 20
668.19999999999936
 11
217.66328124999362
 21
656.79999999999882
  0
LINE
  8
_0-1_計細線
  6
CONTINUOUS
 62
    3
 10
217.66328124999362
 20
639.39999999999827
 11
800.66328124999359
 21
639.39999999999827
  0
LINE
  8
_0-1_計細線
  6
CONTINUOUS
 62
    3
 10
800.66328124999359
 20
650.79999999999882
 11
800.66328124999359
 21
639.39999999999827
  0
LINE
  8
_0-0_計極細
  6
CONTINUOUS
 62
    2
 10
217.66328124999362
 20
642.59999999999866
 11
800.66328124999359
 21
642.59999999999866
  0
LINE
  8
_0-0_計極細
  6
CONTINUOUS
 62
    2
 10
217.66328124999362
 20
647.59999999999866
 11
800.66328124999359
 21
647.59999999999866
  0
LINE
  8
_0-1_計細線
  6
CONTINUOUS
 62
    3
 10
217.66328124999362
 20
650.79999999999882
 11
217.66328124999362
 21
639.39999999999827
  0
LINE
  8
_0-1_計細線
  6
CONTINUOUS
 62
    3
 10
217.66328124999362
 20
650.79999999999882
 11
800.66328124999359
 21
650.79999999999882
  0
LINE
  8
_0-7_枠細線
  6
CONTINUOUS
 62
    5
 10
376.92003265272922
 20
540.25145341538655
 11
369.42003265272922
 21
555.25145341538655
  0
LINE
  8
_0-7_枠細線
  6
CONTINUOUS
 62
    5
 10
361.92003265272922
 20
540.25145341538655
 11
376.92003265272922
 21
540.25145341538655
  0
LINE
  8
_0-7_枠細線
  6
CONTINUOUS
 62
    5
 10
369.42003265272922
 20
555.25145341538655
 11
361.92003265272922
 21
540.25145341538655
  0
TEXT
  8
_0-7_枠細線
 62
    5
 10
364.28518392087733
 20
539.70376952520519
 40
12.5
 41
0.8
 50
0
  1
３
  0
TEXT
  8
_0-7_枠細線
 62
    5
 10
938.85037037037023
 20
840
 40
12.5
 41
1
 50
0
  1
アンカー材質･厚み変更
  0
LINE
  8
_0-7_枠細線
  6
CONTINUOUS
 62
    5
 10
1425
 20
820
 11
890
 21
820
  0
TEXT
  8
_0-7_枠細線
 62
    5
 10
938.85037037037023
 20
822.5
 40
12.5
 41
1
 50
0
  1
取外具形状変更
  0
LINE
  8
_0-7_枠細線
  6
CONTINUOUS
 62
    5
 10
907.5
 20
836.44233397174685
 11
900
 21
821.44233397174685
  0
LINE
  8
_0-7_枠細線
  6
CONTINUOUS
 62
    5
 10
900
 20
821.44233397174685
 11
915
 21
821.44233397174685
  0
LINE
  8
_0-7_枠細線
  6
CONTINUOUS
 62
    5
 10
915
 20
821.44233397174685
 11
907.5
 21
836.44233397174685
  0
LINE
  8
_0-7_枠細線
  6
CONTINUOUS
 62
    5
 10
1275
 20
820
 11
1275
 21
959.99999999999909
  0
LINE
  8
_0-7_枠細線
  6
CONTINUOUS
 62
    5
 10
1175
 20
820
 11
1175
 21
959.99999999999909
  0
LINE
  8
_0-7_枠細線
  6
CONTINUOUS
 62
    5
 10
925
 20
820
 11
925
 21
959.99999999999909
  0
LINE
  8
_0-7_枠細線
  6
CONTINUOUS
 62
    5
 10
890
 20
820
 11
890
 21
959.99999999999909
  0
TEXT
  8
_0-7_枠細線
 62
    5
 10
902.36515126814822
 20
821.13533172636664
 40
12.5
 41
0.8
 50
0
  1
６
  0
TEXT
  8
_0-7_枠細線
 62
    5
 10
1180
 20
822.5
 40
12.5
 41
0.7199999999999999
 50
0
  1
２０２１．０５．０６
  0
LINE
  8
_0-7_枠細線
  6
CONTINUOUS
 62
    5
 10
395.63401656742553
 20
540.25145341538655
 11
388.13401656742553
 21
555.25145341538655
  0
LINE
  8
_0-7_枠細線
  6
CONTINUOUS
 62
    5
 10
380.63401656742553
 20
540.25145341538655
 11
395.63401656742553
 21
540.25145341538655
  0
LINE
  8
_0-7_枠細線
  6
CONTINUOUS
 62
    5
 10
388.13401656742553
 20
555.25145341538655
 11
380.63401656742553
 21
540.25145341538655
  0
TEXT
  8
_0-7_枠細線
 62
    5
 10
382.99916783557364
 20
539.70376952520519
 40
12.5
 41
0.8
 50
0
  1
６
  0
LINE
  8
_0-1_計細線
  6
CONTINUOUS
 62
    3
 10
290.6632812499933
 20
651.45000000000118
 11
343.66328124999325
 21
651.45000000000118
  0
LINE
  8
_0-1_計細線
  6
CONTINUOUS
 62
    3
 10
343.66328124999325
 20
656.15000000000111
 11
290.6632812499933
 21
656.15000000000111
  0
LINE
  8
_0-1_計細線
  6
CONTINUOUS
 62
    3
 10
290.6632812499933
 20
656.15000000000111
 11
290.6632812499933
 21
651.45000000000118
  0
LINE
  8
_0-1_計細線
  6
CONTINUOUS
 62
    3
 10
333.66328124999325
 20
656.15000000000111
 11
333.66328124999325
 21
651.45000000000118
  0
LINE
  8
_0-1_計細線
  6
CONTINUOUS
 62
    3
 10
341.66328124999325
 20
656.15000000000111
 11
341.66328124999325
 21
651.45000000000118
  0
LINE
  8
_0-1_計細線
  6
CONTINUOUS
 62
    3
 10
343.66328124999325
 20
656.15000000000111
 11
343.66328124999325
 21
651.45000000000118
  0
LINE
  8
_0-1_計細線
  6
CONTINUOUS
 62
    3
 10
339.6632812499933
 20
656.15000000000111
 11
339.6632812499933
 21
651.45000000000118
  0
LINE
  8
_0-1_計細線
  6
CONTINUOUS
 62
    3
 10
337.66328124999325
 20
656.15000000000111
 11
337.66328124999325
 21
651.45000000000118
  0
LINE
  8
_0-1_計細線
  6
CONTINUOUS
 62
    3
 10
335.66328124999325
 20
656.15000000000111
 11
335.66328124999325
 21
651.45000000000118
  0
LINE
  8
_0-5_寸法線
  6
CONTINUOUS
 62
    7
 10
217.66328124999376
 20
735.099999999999
 11
217.66328124999504
 21
815.099999999999
  0
LINE
  8
_0-5_寸法線
  6
CONTINUOUS
 62
    7
 10
217.66328124999495
 20
810.099999999999
 11
227.3225395128857
 21
812.68819045102418
  0
LINE
  8
_0-5_寸法線
  6
CONTINUOUS
 62
    7
 10
217.66328124999495
 20
810.099999999999
 11
227.3225395128857
 21
807.51180954897393
  0
LINE
  8
_0-5_寸法線
  6
CONTINUOUS
 62
    7
 10
800.66328124999359
 20
735.099999999999
 11
800.66328124999495
 21
815.099999999999
  0
LINE
  8
_0-5_寸法線
  6
CONTINUOUS
 62
    7
 10
800.66328124999484
 20
810.099999999999
 11
791.00402298710424
 21
807.51180954897393
  0
LINE
  8
_0-5_寸法線
  6
CONTINUOUS
 62
    7
 10
800.66328124999484
 20
810.099999999999
 11
791.00402298710424
 21
812.68819045102418
  0
LINE
  8
_0-5_寸法線
  6
CONTINUOUS
 62
    7
 10
217.66328124999495
 20
810.099999999999
 11
800.66328124999484
 21
810.099999999999
  0
TEXT
  8
_0-5_寸法線
 62
    7
 10
501.66328124999524
 20
810.099999999999
 40
15
 41
1
 50
0
  1
Ｌ
  0
LINE
  8
_0-5_寸法線
  6
CONTINUOUS
 62
    7
 10
785.6632812499937
 20
735.10000000000093
 11
785.6632812499937
 21
780.099999999999
  0
LINE
  8
_0-5_寸法線
  6
CONTINUOUS
 62
    7
 10
785.6632812499937
 20
775.099999999999
 11
795.32253951288453
 21
777.68819045102418
  0
LINE
  8
_0-5_寸法線
  6
CONTINUOUS
 62
    7
 10
785.6632812499937
 20
775.099999999999
 11
795.32253951288453
 21
772.51180954897393
  0
LINE
  8
_0-5_寸法線
  6
CONTINUOUS
 62
    7
 10
800.66328124999359
 20
735.09999999999991
 11
800.66328124999359
 21
780.099999999999
  0
LINE
  8
_0-5_寸法線
  6
CONTINUOUS
 62
    7
 10
800.66328124999359
 20
775.099999999999
 11
791.00402298710276
 21
772.51180954897393
  0
LINE
  8
_0-5_寸法線
  6
CONTINUOUS
 62
    7
 10
800.66328124999359
 20
775.099999999999
 11
791.00402298710276
 21
777.68819045102418
  0
LINE
  8
_0-5_寸法線
  6
CONTINUOUS
 62
    7
 10
785.6632812499937
 20
775.099999999999
 11
800.66328124999359
 21
775.099999999999
  0
TEXT
  8
_0-5_寸法線
 62
    7
 10
785.66328124999359
 20
775.099999999999
 40
15
 41
1
 50
0
  1
Ａ
  0
LINE
  8
_0-b_細線3
  6
CONTINUOUS
 62
    7
 10
511.45508652013604
 20
276.71245819900611
 11
511.45508652013604
 21
245.04579153233905
  0
LINE
  8
_0-b_細線3
  6
CONTINUOUS
 62
    7
 10
503.62175318680215
 20
245.04579153233905
 11
503.62175318680215
 21
276.71245819900611
  0
LINE
  8
_0-b_細線3
  6
CONTINUOUS
 62
    7
 10
511.45508652013604
 20
245.04579153233905
 11
503.62175318680215
 21
245.04579153233905
  0
LINE
  8
_0-b_細線3
  6
CONTINUOUS
 62
    7
 10
503.62175318680215
 20
276.71245819900611
 11
511.45508652013604
 21
276.71245819900611
  0
LINE
  8
_0-b_細線3
  6
DASHED2
 62
    7
 10
503.62175318680215
 20
250.04579153233905
 11
511.45508652013604
 21
250.04579153233905
  0
LINE
  8
_0-b_細線3
  6
DASHED2
 62
    7
 10
503.62175318680215
 20
272.54579153233948
 11
511.45508652013604
 21
272.54579153233948
  0
LINE
  8
_0-d_寸法3
  6
CONTINUOUS
 62
    7
 10
522.03841985377107
 20
287.04579153234249
 11
522.03841985377107
 21
331.30064865003425
  0
LINE
  8
_0-d_寸法3
  6
CONTINUOUS
 62
    7
 10
522.03841985377107
 20
326.30064865003425
 11
531.69767811666179
 21
328.88883910105949
  0
LINE
  8
_0-d_寸法3
  6
CONTINUOUS
 62
    7
 10
522.03841985377107
 20
326.30064865003425
 11
531.69767811666179
 21
323.71245819900906
  0
LINE
  8
_0-d_寸法3
  6
CONTINUOUS
 62
    7
 10
551.03841985437407
 20
287.04579153234249
 11
551.03841985437407
 21
331.30064865003425
  0
LINE
  8
_0-d_寸法3
  6
CONTINUOUS
 62
    7
 10
551.03841985437407
 20
326.30064865003425
 11
541.37916159148335
 21
323.71245819900906
  0
LINE
  8
_0-d_寸法3
  6
CONTINUOUS
 62
    7
 10
551.03841985437407
 20
326.30064865003425
 11
541.37916159148335
 21
328.88883910105955
  0
LINE
  8
_0-d_寸法3
  6
CONTINUOUS
 62
    7
 10
522.03841985377107
 20
326.30064865003425
 11
551.03841985437407
 21
326.30064865003425
  0
TEXT
  8
_0-d_寸法3
 62
    7
 10
510.49224194412977
 20
311.30064865003425
 40
15
 41
1
 50
0
  1
(17.4)
  0
LINE
  8
_0-d_寸法3
  6
CONTINUOUS
 62
    7
 10
551.03841985437407
 20
326.30064865003425
 11
560.69767811726479
 21
328.88883910105938
  0
LINE
  8
_0-d_寸法3
  6
CONTINUOUS
 62
    7
 10
551.03841985437407
 20
326.30064865003425
 11
560.69767811726479
 21
323.71245819900901
  0
LINE
  8
_0-d_寸法3
  6
CONTINUOUS
 62
    7
 10
580.03841985497706
 20
287.04579153234249
 11
580.03841985497706
 21
331.30064865003425
  0
LINE
  8
_0-d_寸法3
  6
CONTINUOUS
 62
    7
 10
580.03841985497706
 20
326.30064865003425
 11
570.37916159208635
 21
323.71245819900906
  0
LINE
  8
_0-d_寸法3
  6
CONTINUOUS
 62
    7
 10
580.03841985497706
 20
326.30064865003425
 11
570.37916159208635
 21
328.88883910105955
  0
LINE
  8
_0-d_寸法3
  6
CONTINUOUS
 62
    7
 10
551.03841985437407
 20
326.30064865003425
 11
580.03841985497706
 21
326.30064865003425
  0
TEXT
  8
_0-d_寸法3
 62
    7
 10
547.55890861079638
 20
326.30064865003425
 40
15
 41
1
 50
0
  1
(17.4)
  0
LINE
  8
_0-d_寸法3
  6
CONTINUOUS
 62
    7
 10
415.53841984952049
 20
287.04579153234238
 11
415.53841984952055
 21
331.30064865003425
  0
LINE
  8
_0-d_寸法3
  6
CONTINUOUS
 62
    7
 10
415.53841984952055
 20
326.30064865003425
 11
405.87916158662983
 21
323.71245819900906
  0
LINE
  8
_0-d_寸法3
  6
CONTINUOUS
 62
    7
 10
415.53841984952055
 20
326.30064865003425
 11
405.87916158662995
 21
328.88883910105955
  0
LINE
  8
_0-d_寸法3
  6
CONTINUOUS
 62
    7
 10
425.53841985380154
 20
287.04579153234238
 11
425.5384198538016
 21
331.30064865003425
  0
LINE
  8
_0-d_寸法3
  6
CONTINUOUS
 62
    7
 10
391.16446416635313
 20
326.30064865003425
 11
425.5384198538016
 21
326.30064865003425
  0
TEXT
  8
_0-d_寸法3
 62
    7
 10
391.16446416635313
 20
311.30064865003425
 40
15
 41
1
 50
0
  1
(6)
  0
LINE
  8
_0-d_寸法3
  6
CONTINUOUS
 62
    7
 10
425.5384198538016
 20
326.30064865003425
 11
435.19767811669226
 21
328.88883910105949
  0
LINE
  8
_0-d_寸法3
  6
CONTINUOUS
 62
    7
 10
425.5384198538016
 20
326.30064865003425
 11
435.19767811669226
 21
323.71245819900906
  0
LINE
  8
_0-d_寸法3
  6
CONTINUOUS
 62
    7
 10
444.53841985012264
 20
287.04579153234238
 11
444.53841985012269
 21
331.30064865003425
  0
LINE
  8
_0-d_寸法3
  6
CONTINUOUS
 62
    7
 10
444.53841985012269
 20
326.30064865003425
 11
434.87916158723192
 21
323.71245819900906
  0
LINE
  8
_0-d_寸法3
  6
CONTINUOUS
 62
    7
 10
444.53841985012269
 20
326.30064865003425
 11
434.87916158723203
 21
328.88883910105955
  0
LINE
  8
_0-d_寸法3
  6
CONTINUOUS
 62
    7
 10
425.5384198538016
 20
326.30064865003425
 11
444.53841985012269
 21
326.30064865003425
  0
TEXT
  8
_0-d_寸法3
 62
    7
 10
416.27372342561216
 20
326.30064865003425
 40
15
 41
1
 50
0
  1
11.4
  0
LINE
  8
_0-d_寸法3
  6
CONTINUOUS
 62
    7
 10
359.70508651983459
 20
282.04579153234238
 11
359.70508651983459
 21
402.04579153234238
  0
LINE
  8
_0-d_寸法3
  6
CONTINUOUS
 62
    7
 10
359.70508651983459
 20
397.04579153234238
 11
369.36434478272525
 21
399.63398198336756
  0
LINE
  8
_0-d_寸法3
  6
CONTINUOUS
 62
    7
 10
359.70508651983459
 20
397.04579153234238
 11
369.36434478272525
 21
394.45760108131714
  0
LINE
  8
_0-d_寸法3
  6
CONTINUOUS
 62
    7
 10
626.37175318650134
 20
282.04579153234238
 11
626.37175318650156
 21
402.04579153234238
  0
LINE
  8
_0-d_寸法3
  6
CONTINUOUS
 62
    7
 10
626.37175318650156
 20
397.04579153234238
 11
616.71249492361085
 21
394.45760108131714
  0
LINE
  8
_0-d_寸法3
  6
CONTINUOUS
 62
    7
 10
626.37175318650156
 20
397.04579153234238
 11
616.71249492361085
 21
399.63398198336762
  0
LINE
  8
_0-d_寸法3
  6
CONTINUOUS
 62
    7
 10
359.70508651983459
 20
397.04579153234238
 11
626.37175318650156
 21
397.04579153234238
  0
TEXT
  8
_0-d_寸法3
 62
    7
 10
481.78841985316808
 20
397.04579153234238
 40
15
 41
1
 50
0
  1
160
  0
LINE
  8
_0-d_寸法3
  6
CONTINUOUS
 62
    7
 10
359.70508651983459
 20
362.04579153234243
 11
350.04582825694388
 21
359.45760108131731
  0
LINE
  8
_0-d_寸法3
  6
CONTINUOUS
 62
    7
 10
359.70508651983459
 20
362.04579153234243
 11
350.04582825694393
 21
364.63398198336768
  0
LINE
  8
_0-d_寸法3
  6
CONTINUOUS
 62
    7
 10
364.70508651983459
 20
282.04579153234238
 11
364.70508651983465
 21
367.04579153234243
  0
CIRCLE
  8
_0-d_寸法3
  6
CONTINUOUS
 62
    1
 10
364.70508651983465
 20
362.04579153234243
 40
1.5000000000000002
  0
LINE
  8
_0-d_寸法3
  6
CONTINUOUS
 62
    7
 10
334.70508651983459
 20
362.04579153234243
 11
364.70508651983465
 21
362.04579153234243
  0
TEXT
  8
_0-d_寸法3
 62
    7
 10
338.5604185759114
 20
362.04579153234243
 40
15
 41
1
 50
0
  1
3
  0
LINE
  8
_0-d_寸法3
  6
CONTINUOUS
 62
    7
 10
368.03841985259504
 20
282.04579153234238
 11
368.03841985259515
 21
367.04579153234243
  0
LINE
  8
_0-d_寸法3
  6
CONTINUOUS
 62
    7
 10
364.70508651983465
 20
362.04579153234243
 11
368.03841985259515
 21
362.04579153234243
  0
TEXT
  8
_0-d_寸法3
 62
    7
 10
362.62175318650111
 20
362.04579153234243
 40
15
 41
1
 50
0
  1
2
  0
LINE
  8
_0-d_寸法3
  6
CONTINUOUS
 62
    7
 10
368.03841985259515
 20
362.04579153234243
 11
377.69767811548581
 21
364.63398198336762
  0
LINE
  8
_0-d_寸法3
  6
CONTINUOUS
 62
    7
 10
368.03841985259515
 20
362.04579153234243
 11
377.69767811548581
 21
359.45760108131731
  0
LINE
  8
_0-d_寸法3
  6
CONTINUOUS
 62
    7
 10
618.03841985374061
 20
282.04579153234238
 11
618.03841985374083
 21
367.04579153234243
  0
LINE
  8
_0-d_寸法3
  6
CONTINUOUS
 62
    7
 10
618.03841985374083
 20
362.04579153234243
 11
608.37916159085
 21
359.45760108131731
  0
LINE
  8
_0-d_寸法3
  6
CONTINUOUS
 62
    7
 10
618.03841985374083
 20
362.04579153234243
 11
608.37916159085
 21
364.63398198336768
  0
LINE
  8
_0-d_寸法3
  6
CONTINUOUS
 62
    7
 10
368.03841985259515
 20
362.04579153234243
 11
618.03841985374083
 21
362.04579153234243
  0
TEXT
  8
_0-d_寸法3
 62
    7
 10
481.78841985316808
 20
362.04579153234243
 40
15
 41
1
 50
0
  1
150
  0
LINE
  8
_0-d_寸法3
  6
CONTINUOUS
 62
    7
 10
621.37175318650134
 20
282.04579153234238
 11
621.37175318650156
 21
367.04579153234243
  0
CIRCLE
  8
_0-d_寸法3
  6
CONTINUOUS
 62
    1
 10
621.37175318650156
 20
362.04579153234243
 40
1.5000000000000002
  0
LINE
  8
_0-d_寸法3
  6
CONTINUOUS
 62
    7
 10
618.03841985374083
 20
362.04579153234243
 11
621.37175318650156
 21
362.04579153234243
  0
TEXT
  8
_0-d_寸法3
 62
    7
 10
615.95508651983505
 20
362.04579153234243
 40
15
 41
1
 50
0
  1
2
  0
LINE
  8
_0-d_寸法3
  6
CONTINUOUS
 62
    7
 10
626.37175318650156
 20
362.04579153234243
 11
636.03101144939228
 21
364.63398198336756
  0
LINE
  8
_0-d_寸法3
  6
CONTINUOUS
 62
    7
 10
626.37175318650156
 20
362.04579153234243
 11
636.03101144939228
 21
359.45760108131719
  0
LINE
  8
_0-d_寸法3
  6
CONTINUOUS
 62
    7
 10
621.37175318650156
 20
362.04579153234243
 11
651.37175318650168
 21
362.04579153234243
  0
TEXT
  8
_0-d_寸法3
 62
    7
 10
639.93261989694747
 20
362.04579153234243
 40
15
 41
1
 50
0
  1
3
  0
LINE
  8
_0-d_寸法3
  6
CONTINUOUS
 62
    7
 10
349.70508651983459
 20
277.04579153234243
 11
300.87175318650122
 21
277.04579153234238
  0
LINE
  8
_0-d_寸法3
  6
CONTINUOUS
 62
    7
 10
305.87175318650122
 20
277.04579153234238
 11
308.45994363752641
 21
267.38653326945166
  0
LINE
  8
_0-d_寸法3
  6
CONTINUOUS
 62
    7
 10
305.87175318650122
 20
277.04579153234238
 11
303.28356273547598
 21
267.38653326945172
  0
LINE
  8
_0-d_寸法3
  6
CONTINUOUS
 62
    7
 10
345.87175318650122
 20
238.71245819900903
 11
300.87175318650139
 21
238.71245819900903
  0
LINE
  8
_0-d_寸法3
  6
CONTINUOUS
 62
    7
 10
305.87175318650139
 20
238.71245819900901
 11
303.28356273547615
 21
248.37171646189969
  0
LINE
  8
_0-d_寸法3
  6
CONTINUOUS
 62
    7
 10
305.87175318650139
 20
238.71245819900901
 11
308.45994363752652
 21
248.37171646189969
  0
LINE
  8
_0-d_寸法3
  6
CONTINUOUS
 62
    7
 10
305.87175318650122
 20
277.04579153234238
 11
305.87175318650139
 21
238.71245819900901
  0
TEXT
  8
_0-d_寸法3
 62
    7
 10
305.87175318650122
 20
250.37912486567569
 40
15
 41
1
 50
90
  1
23
  0
LINE
  8
_0-5_寸法線
  6
CONTINUOUS
 62
    7
 10
832.16328124999404
 20
725.10000000000207
 11
912.16328124999438
 21
725.10000000000218
  0
LINE
  8
_0-5_寸法線
  6
CONTINUOUS
 62
    7
 10
907.16328124999438
 20
725.10000000000218
 11
909.75147170101945
 21
715.44074173711147
  0
LINE
  8
_0-5_寸法線
  6
CONTINUOUS
 62
    7
 10
907.16328124999438
 20
725.10000000000218
 11
904.57509079896909
 21
715.44074173711147
  0
LINE
  8
_0-5_寸法線
  6
CONTINUOUS
 62
    7
 10
832.16328124999393
 20
565.09999999999752
 11
912.16328124999472
 21
565.09999999999764
  0
LINE
  8
_0-5_寸法線
  6
CONTINUOUS
 62
    7
 10
907.16328124999472
 20
565.09999999999764
 11
904.57509079896965
 21
574.75925826288835
  0
LINE
  8
_0-5_寸法線
  6
CONTINUOUS
 62
    7
 10
907.16328124999472
 20
565.09999999999764
 11
909.75147170101991
 21
574.75925826288835
  0
LINE
  8
_0-5_寸法線
  6
CONTINUOUS
 62
    7
 10
907.16328124999438
 20
725.10000000000218
 11
907.16328124999472
 21
565.09999999999764
  0
TEXT
  8
_0-5_寸法線
 62
    7
 10
907.16328124999472
 20
633.84999999999854
 40
15
 41
1
 50
90
  1
160
  0
LINE
  8
_0-5_寸法線
  6
CONTINUOUS
 62
    7
 10
872.16328124999438
 20
725.10000000000207
 11
869.57509079896909
 21
734.7592582628929
  0
LINE
  8
_0-5_寸法線
  6
CONTINUOUS
 62
    7
 10
872.16328124999438
 20
725.10000000000207
 11
874.75147170101945
 21
734.7592582628929
  0
LINE
  8
_0-5_寸法線
  6
CONTINUOUS
 62
    7
 10
832.16328124999291
 20
722.10000000000082
 11
877.16328124999438
 21
722.10000000000082
  0
CIRCLE
  8
_0-5_寸法線
  6
CONTINUOUS
 62
    1
 10
872.16328124999438
 20
722.10000000000082
 40
1.5000000000000002
  0
LINE
  8
_0-5_寸法線
  6
CONTINUOUS
 62
    7
 10
872.16328124999438
 20
750.10000000000207
 11
872.16328124999438
 21
722.10000000000082
  0
TEXT
  8
_0-5_寸法線
 62
    7
 10
872.16328124999438
 20
739.55938697318015
 40
15
 41
1
 50
90
  1
3
  0
LINE
  8
_0-5_寸法線
  6
CONTINUOUS
 62
    7
 10
832.16328124999291
 20
720.10000000000093
 11
877.16328124999438
 21
720.10000000000093
  0
LINE
  8
_0-5_寸法線
  6
CONTINUOUS
 62
    7
 10
872.16328124999438
 20
722.10000000000082
 11
872.16328124999438
 21
720.10000000000093
  0
TEXT
  8
_0-5_寸法線
 62
    7
 10
891.8871126378076
 20
713.75470364009163
 40
15
 41
1
 50
90
  1
2
  0
LINE
  8
_0-5_寸法線
  6
CONTINUOUS
 62
    7
 10
872.16328124999438
 20
720.10000000000093
 11
874.75147170101945
 21
710.4407417371101
  0
LINE
  8
_0-5_寸法線
  6
CONTINUOUS
 62
    7
 10
872.16328124999438
 20
720.10000000000093
 11
869.57509079896909
 21
710.4407417371101
  0
LINE
  8
_0-5_寸法線
  6
CONTINUOUS
 62
    7
 10
832.16328124999313
 20
570.10000000000082
 11
877.16328124999472
 21
570.10000000000082
  0
LINE
  8
_0-5_寸法線
  6
CONTINUOUS
 62
    7
 10
872.16328124999472
 20
570.10000000000082
 11
869.57509079896965
 21
579.75925826289154
  0
LINE
  8
_0-5_寸法線
  6
CONTINUOUS
 62
    7
 10
872.16328124999472
 20
570.10000000000082
 11
874.75147170101991
 21
579.75925826289154
  0
LINE
  8
_0-5_寸法線
  6
CONTINUOUS
 62
    7
 10
872.16328124999438
 20
720.10000000000093
 11
872.16328124999472
 21
570.10000000000082
  0
TEXT
  8
_0-5_寸法線
 62
    7
 10
872.16328124999472
 20
633.85000000000082
 40
15
 41
1
 50
90
  1
150
  0
LINE
  8
_0-5_寸法線
  6
CONTINUOUS
 62
    7
 10
832.16328124999291
 20
568.10000000000082
 11
877.16328124999472
 21
568.10000000000082
  0
CIRCLE
  8
_0-5_寸法線
  6
CONTINUOUS
 62
    1
 10
872.16328124999472
 20
568.10000000000082
 40
1.5000000000000002
  0
LINE
  8
_0-5_寸法線
  6
CONTINUOUS
 62
    7
 10
872.16328124999472
 20
570.10000000000082
 11
872.16328124999472
 21
568.10000000000082
  0
TEXT
  8
_0-5_寸法線
 62
    7
 10
892.36665149758164
 20
567.5145451965376
 40
15
 41
1
 50
90
  1
2
  0
LINE
  8
_0-5_寸法線
  6
CONTINUOUS
 62
    7
 10
872.16328124999472
 20
565.09999999999752
 11
874.75147170101991
 21
555.4407417371068
  0
LINE
  8
_0-5_寸法線
  6
CONTINUOUS
 62
    7
 10
872.16328124999472
 20
565.09999999999752
 11
869.57509079896954
 21
555.4407417371068
  0
LINE
  8
_0-5_寸法線
  6
CONTINUOUS
 62
    7
 10
872.16328124999472
 20
568.10000000000082
 11
872.16328124999472
 21
540.09999999999752
  0
TEXT
  8
_0-5_寸法線
 62
    7
 10
872.16328124999472
 20
543.35399509695981
 40
15
 41
1
 50
90
  1
3
  0
LINE
  8
_0-7_枠細線
  6
CONTINUOUS
 62
    5
 10
1225.0000000000014
 20
777.45837512859055
 11
1225.0000000000014
 21
702.45837512859043
  0
TEXT
  8
_0-7_枠細線
 62
    5
 10
1174.0000000000027
 20
732.45837512859043
 40
15
 41
0.5999999999999999
 50
0
  1
９９９
  0
TEXT
  8
_0-7_枠細線
 62
    5
 10
1181.5000000000027
 20
757.45837512859043
 40
15
 41
0.8000000000000001
 50
0
  1
Ｌ
  0
LINE
  8
_0-7_枠細線
  6
CONTINUOUS
 62
    5
 10
1150.0000000000014
 20
777.45837512859055
 11
1150.0000000000014
 21
702.45837512859043
  0
TEXT
  8
_0-7_枠細線
 62
    5
 10
1094.5000000000014
 20
757.45837512859043
 40
15
 41
0.8000000000000001
 50
0
  1
種　別
  0
TEXT
  8
_0-7_枠細線
 62
    5
 10
1094.5000000000009
 20
732.45837512859043
 40
15
 41
0.8000000000000001
 50
0
  1
定尺品
  0
TEXT
  8
_0-7_枠細線
 62
    5
 10
1094.5000000000009
 20
707.45837512859043
 40
15
 41
0.8000000000000001
 50
0
  1
特寸品
  0
LINE
  8
_0-7_枠細線
  6
CONTINUOUS
 62
    5
 10
1075
 20
777.45837512859055
 11
1075
 21
702.45837512859043
  0
LINE
  8
_0-7_枠細線
  6
CONTINUOUS
 62
    5
 10
1300.000000000002
 20
777.45837512859055
 11
1300.000000000002
 21
702.45837512859043
  0
TEXT
  8
_0-7_枠細線
 62
    5
 10
1256.5000000000027
 20
757.45837512859043
 40
15
 41
0.8000000000000001
 50
0
  1
Ａ
  0
TEXT
  8
_0-7_枠細線
 62
    5
 10
1244.5000000000018
 20
732.45837512859043
 40
15
 41
0.5999999999999999
 50
0
  1
１４．５
  0
TEXT
  8
_0-7_枠細線
 62
    5
 10
1151.5000000000018
 20
707.45837512859043
 40
15
 41
0.5999999999999999
 50
0
  1
３０５～１３０５
  0
LINE
  8
_0-7_枠細線
  6
CONTINUOUS
 62
    5
 10
1375.0000000000023
 20
777.45837512859055
 11
1375.0000000000023
 21
702.45837512859043
  0
LINE
  8
_0-7_枠細線
  6
CONTINUOUS
 62
    5
 10
1075
 20
777.45837512859055
 11
1375.0000000000023
 21
777.45837512859055
  0
LINE
  8
_0-7_枠細線
  6
CONTINUOUS
 62
    5
 10
1075
 20
752.45837512859043
 11
1375.0000000000023
 21
752.45837512859043
  0
LINE
  8
_0-7_枠細線
  6
CONTINUOUS
 62
    5
 10
1075
 20
727.45837512859043
 11
1375.0000000000023
 21
727.45837512859043
  0
LINE
  8
_0-7_枠細線
  6
CONTINUOUS
 62
    5
 10
1075
 20
702.45837512859043
 11
1375.0000000000023
 21
702.45837512859043
  0
TEXT
  8
_0-7_枠細線
 62
    5
 10
1331.5000000000023
 20
757.45837512859043
 40
15
 41
0.8000000000000001
 50
0
  1
Ｂ
  0
TEXT
  8
_0-7_枠細線
 62
    5
 10
1328.5000000000023
 20
732.45837512859043
 40
15
 41
0.5999999999999999
 50
0
  1
９７
  0
TEXT
  8
_0-7_枠細線
 62
    5
 10
1163.0053911613957
 20
782.45837512859055
 40
17.5
 41
1
 50
0
  1
寸法表
  0
TEXT
  8
_0-7_枠細線
 62
    5
 10
1244.5000000000018
 20
707.45837512859043
 40
15
 41
0.5999999999999999
 50
0
  1
７～２０
  0
TEXT
  8
_0-7_枠細線
 62
    5
 10
1077.04820616962
 20
681.73280458415547
 40
15
 41
0.8000000000000001
 50
0
  1
※ 特寸品はAが20以下となるようBにて調整
  0
TEXT
  8
_0-7_枠細線
 62
    5
 10
1077.4591206157011
 20
661.65385359249603
 40
15
 41
0.7666666666666667
 50
0
  1
※ Ｌの最小は角形(ます状)の場合のみ150mmまで対応可能
  0
TEXT
  8
_0-7_枠細線
 62
    5
 10
1315.0000000000023
 20
707.45837512859043
 40
15
 41
0.5999999999999999
 50
0
  1
２７～９７
  0
TEXT
  8
_0-7_枠細線
 62
    5
 10
558.06534196310224
 20
96.652836121858243
 40
20
 41
0.6
 50
0
  1
Ｓ＝１：３
  0
LINE
  8
_0-d_寸法3
  6
CONTINUOUS
 62
    7
 10
345.87175318650122
 20
238.71245819900901
 11
300.87175318650139
 21
238.71245819900892
  0
LINE
  8
_0-d_寸法3
  6
CONTINUOUS
 62
    7
 10
305.87175318650139
 20
238.71245819900892
 11
308.45994363752652
 21
229.05319993611826
  0
LINE
  8
_0-d_寸法3
  6
CONTINUOUS
 62
    7
 10
305.87175318650139
 20
238.71245819900892
 11
303.28356273547615
 21
229.05319993611826
  0
LINE
  8
_0-d_寸法3
  6
CONTINUOUS
 62
    7
 10
345.87175318650134
 20
200.37912486567549
 11
300.87175318650145
 21
200.37912486567549
  0
LINE
  8
_0-d_寸法3
  6
CONTINUOUS
 62
    7
 10
305.87175318650145
 20
200.37912486567549
 11
303.28356273547627
 21
210.03838312856615
  0
LINE
  8
_0-d_寸法3
  6
CONTINUOUS
 62
    7
 10
305.87175318650145
 20
200.37912486567549
 11
308.45994363752664
 21
210.03838312856615
  0
LINE
  8
_0-d_寸法3
  6
CONTINUOUS
 62
    7
 10
305.87175318650139
 20
238.71245819900892
 11
305.87175318650145
 21
200.37912486567549
  0
TEXT
  8
_0-d_寸法3
 62
    7
 10
305.87175318650139
 20
212.04579153234221
 40
15
 41
1
 50
90
  1
23
  0
LINE
  8
_0-d_寸法3
  6
CONTINUOUS
 62
    7
 10
484.84689941027818
 20
249.4482225625195
 11
455.7435676087436
 21
269.82659487697248
  0
LINE
  8
_0-d_寸法3
  6
CONTINUOUS
 62
    7
 10
459.83932783018849
 20
266.95871269521723
 11
457.25113737916331
 21
276.61797095810789
  0
LINE
  8
_0-d_寸法3
  6
CONTINUOUS
 62
    7
 10
459.83932783018849
 20
266.95871269521723
 11
462.42751828121379
 21
276.61797095810789
  0
LINE
  8
_0-d_寸法3
  6
CONTINUOUS
 62
    7
 10
484.84689941027818
 20
282.78155589585299
 11
455.7435676087436
 21
303.15992821030602
  0
LINE
  8
_0-d_寸法3
  6
CONTINUOUS
 62
    7
 10
459.83932783018849
 20
300.29204602855077
 11
462.42751828121368
 21
290.63278776566005
  0
LINE
  8
_0-d_寸法3
  6
CONTINUOUS
 62
    7
 10
459.83932783018849
 20
300.29204602855077
 11
457.25113737916331
 21
290.63278776566011
  0
LINE
  8
_0-d_寸法3
  6
CONTINUOUS
 62
    7
 10
459.83932783018849
 20
266.95871269521723
 11
459.83932783018849
 21
300.29204602855077
  0
TEXT
  8
_0-d_寸法3
 62
    7
 10
459.83932783018861
 20
276.12537936188403
 40
15
 41
1
 50
90
  1
20
  0
TEXT
  8
_0-7_枠細線
 62
    5
 10
1183.7499999999998
 20
498.75
 40
15
 41
1
 50
0
  1
1.8kg/m
  0
TEXT
  8
_0-7_枠細線
 62
    5
 10
1266.2499999999998
 20
498.75
 40
15
 41
1
 50
0
  1
2.4kg/m組
  0
LINE
  8
_0-a_極細3
  6
CENTER1
 62
    7
 10
624.11021618938503
 20
258.37912486567581
 11
361.99249936704939
 21
258.37912486567581
  0
LINE
  8
_0-b_細線3
  6
CONTINUOUS
 62
    7
 10
372.20508651834251
 20
258.37912486567581
 11
367.19755985167575
 21
258.37912486567581
  0
LINE
  8
_0-b_細線3
  6
CONTINUOUS
 62
    7
 10
372.20508651834251
 20
252.54579153234323
 11
367.19753985167671
 21
252.54579153234323
  0
ARC
  8
_0-b_細線3
  6
CONTINUOUS
 62
    7
 10
367.19753985167671
 20
252.87912486567626
 40
0.3333333333333334
 50
179.99999999999983
 51
269.99999999999977
  0
ARC
  8
_0-b_細線3
  6
CONTINUOUS
 62
    7
 10
379.79417318500936
 20
255.4622148656768
 40
12.929926666666667
 50
166.96197800000505
 51
193.03566999999961
  0
ARC
  8
_0-b_細線3
  6
CONTINUOUS
 62
    7
 10
367.19753985167671
 20
263.87912486567672
 40
0.3333333333333334
 50
89.999999999999915
 51
179.99999999999983
  0
ARC
  8
_0-b_細線3
  6
CONTINUOUS
 62
    7
 10
379.79417318500936
 20
261.29603153234262
 40
12.929926666666667
 50
166.96433000000002
 51
193.03802199999851
  0
LINE
  8
_0-b_細線3
  6
CONTINUOUS
 62
    7
 10
372.20508651834251
 20
264.21245819900975
 11
367.19753985167671
 21
264.21245819900975
  0
LINE
  8
_0-b_細線3
  6
CONTINUOUS
 62
    7
 10
366.86420651834277
 20
252.87912486567626
 11
366.86420651834277
 21
263.87912486567672
  0
ARC
  8
_0-b_細線3
  6
CONTINUOUS
 62
    7
 10
372.53841985167628
 20
247.87912486567623
 40
0.3333333333333334
 50
179.99999999999983
 51
269.99999999999977
  0
ARC
  8
_0-b_細線3
  6
CONTINUOUS
 62
    7
 10
372.53841985167628
 20
268.87912486567581
 40
0.3333333333333334
 50
89.999999999999915
 51
179.99999999999983
  0
LINE
  8
_0-b_細線3
  6
CONTINUOUS
 62
    7
 10
372.20508651834251
 20
257.54579153234278
 11
372.20508651834251
 21
247.87912486567623
  0
LINE
  8
_0-b_細線3
  6
CONTINUOUS
 62
    7
 10
372.20508651834251
 20
268.87912486567581
 11
372.20508651834251
 21
257.54579153234278
  0
LINE
  8
_0-b_細線3
  6
CONTINUOUS
 62
    7
 10
374.70508651770325
 20
247.54579153234275
 11
372.53841985167628
 21
247.54579153234275
  0
LINE
  8
_0-b_細線3
  6
CONTINUOUS
 62
    7
 10
374.70508651928634
 20
269.21245819900975
 11
372.53841985167628
 21
269.21245819900975
  0
LINE
  8
_0-b_細線3
  6
CONTINUOUS
 62
    7
 10
613.87175318799359
 20
258.37912486567581
 11
618.87927985466035
 21
258.37912486567581
  0
LINE
  8
_0-b_細線3
  6
CONTINUOUS
 62
    7
 10
613.87175318799359
 20
252.54579153234323
 11
618.87929985465939
 21
252.54579153234323
  0
ARC
  8
_0-b_細線3
  6
CONTINUOUS
 62
    7
 10
618.87929985465939
 20
252.87912486567626
 40
0.3333333333333334
 50
269.99999999999977
 51
359.99999999999966
  0
ARC
  8
_0-b_細線3
  6
CONTINUOUS
 62
    7
 10
606.28266652132675
 20
255.4622148656768
 40
12.929926666666667
 50
346.96432999999968
 51
13.038021999994573
  0
ARC
  8
_0-b_細線3
  6
CONTINUOUS
 62
    7
 10
618.87929985465939
 20
263.87912486567672
 40
0.3333333333333334
 50
0
 51
89.999999999999915
  0
ARC
  8
_0-b_細線3
  6
CONTINUOUS
 62
    7
 10
606.28266652132675
 20
261.29603153234262
 40
12.929926666666667
 50
346.96197800000073
 51
13.035669999999625
  0
LINE
  8
_0-b_細線3
  6
CONTINUOUS
 62
    7
 10
613.87175318799359
 20
264.21245819900975
 11
618.87929985465939
 21
264.21245819900975
  0
LINE
  8
_0-b_細線3
  6
CONTINUOUS
 62
    7
 10
619.21263318799333
 20
252.87912486567626
 11
619.21263318799333
 21
263.87912486567672
  0
ARC
  8
_0-b_細線3
  6
CONTINUOUS
 62
    7
 10
613.53841985465988
 20
247.87912486567623
 40
0.3333333333333334
 50
269.99999999999977
 51
359.99999999999966
  0
ARC
  8
_0-b_細線3
  6
CONTINUOUS
 62
    7
 10
613.53841985465988
 20
268.87912486567581
 40
0.3333333333333334
 50
0
 51
89.999999999999915
  0
LINE
  8
_0-b_細線3
  6
CONTINUOUS
 62
    7
 10
613.87175318799359
 20
257.54579153234278
 11
613.87175318799359
 21
247.87912486567623
  0
LINE
  8
_0-b_細線3
  6
CONTINUOUS
 62
    7
 10
613.87175318799359
 20
268.87912486567581
 11
613.87175318799359
 21
257.54579153234278
  0
LINE
  8
_0-b_細線3
  6
CONTINUOUS
 62
    7
 10
611.37175318863285
 20
247.54579153234275
 11
613.53841985465988
 21
247.54579153234275
  0
LINE
  8
_0-b_細線3
  6
CONTINUOUS
 62
    7
 10
611.37175318704976
 20
269.21245819900975
 11
613.53841985465988
 21
269.21245819900975
  0
ENDSEC
  0
EOF
