  0
SECTION
  2
HEADER
  9
$ACADVER
  1
AC1009
  9
$INSBASE
 10
0
 20
0
 30
0
  9
$EXTMIN
 10
0
 20
0
  9
$EXTMAX
 10
1485
 20
1050
  9
$LIMMIN
 10
0
 20
0
  9
$LIMMAX
 10
1485
 20
1050
  9
$LTSCALE
 40
5
  0
ENDSEC
  0
SECTION
  2
TABLES
  0
TABLE
  2
LTYPE
 70
     9
  0
LTYPE
  2
CONTINUOUS
 70
    64
  3
実線
 72
    65
 73
     0
 40
0.0
  0
LTYPE
  2
DASHED1
 70
    64
  3
--  --  --  --  --  --  --  --  
 72
    65
 73
     2
 40
2.5
 49
1.25
 49
-1.25
  0
LTYPE
  2
DASHED2
 70
    64
  3
----    ----    ----    ----    
 72
    65
 73
     2
 40
5.0
 49
2.5
 49
-2.5
  0
LTYPE
  2
DASHED3
 70
    64
  3
------  ------  ------  ------  
 72
    65
 73
     2
 40
5.0
 49
3.75
 49
-1.25
  0
LTYPE
  2
CENTER1
 70
    64
  3
----- - ----- - ----- - ----- - 
 72
    65
 73
     4
 40
10.0
 49
6.25
 49
-1.25
 49
1.25
 49
-1.25
  0
LTYPE
  2
CENTER2
 70
    64
  3
----------  --  ----------  --  
 72
    65
 73
     4
 40
20.0
 49
12.5
 49
-2.5
 49
2.5
 49
-2.5
  0
LTYPE
  2
PHANTOM1
 70
    64
  3
--- - - --- - - --- - - --- - - 
 72
    65
 73
     6
 40
10.0
 49
3.25
 49
-1.25
 49
1.25
 49
-1.25
 49
1.25
 49
-1.25
  0
LTYPE
  2
PHANTOM2
 70
    64
  3
--------  -  -  --------  -  -  
 72
    65
 73
     6
 40
20.0
 49
10.0
 49
-2.5
 49
1.25
 49
-2.5
 49
1.25
 49
-2.5
  0
LTYPE
  2
DOT
 70
    64
  3
-   -   -   -   -   -   -   -   
 72
    65
 73
     2
 40
2.5
 49
0.625
 49
-1.875
  0
LTYPE
  2
DUMMY
 70
    64
  3
ダミー
 72
    65
 73
     0
 40
0.0
  0
LTYPE
  2
RAND1
 70
    64
  3
ランダム線1
 72
    65
 73
     4
 40
10.0
 49
1.0
 49
-2.0
 49
3.0
 49
-4.0
  0
LTYPE
  2
RAND2
 70
    64
  3
ランダム線2
 72
    65
 73
     4
 40
14.0
 49
2.0
 49
-3.0
 49
4.0
 49
-5.0
  0
LTYPE
  2
RAND3
 70
    64
  3
ランダム線3
 72
    65
 73
     4
 40
18.0
 49
3.0
 49
-4.0
 49
5.0
 49
-6.0
  0
LTYPE
  2
RAND4
 70
    64
  3
ランダム線4
 72
    65
 73
     4
 40
22.0
 49
4.0
 49
-5.0
 49
6.0
 49
-7.0
  0
LTYPE
  2
RAND5
 70
    64
  3
ランダム線5
 72
    65
 73
     4
 40
26.0
 49
5.0
 49
-6.0
 49
7.0
 49
-8.0
  0
LTYPE
  2
LONG1
 70
    64
  3
----------  --  ----------  --  
 72
    65
 73
     4
 40
40.0
 49
32.5
 49
-2.5
 49
2.5
 49
-2.5
  0
LTYPE
  2
LONG2
 70
    64
  3
--------  -  -  --------  -  -  
 72
    65
 73
     6
 40
40.0
 49
30.0
 49
-2.5
 49
1.25
 49
-2.5
 49
1.25
 49
-2.5
  0
LTYPE
  2
LONG3
 70
    64
  3
+++++++++++++++..+++++++++++++++
 72
    65
 73
     2
 40
40.0
 49
37.5
 49
-2.5
  0
LTYPE
  2
LONG4
 70
    64
  3
+++++++++++++++..+++++++++++++++
 72
    65
 73
     2
 40
80.0
 49
75.0
 49
-5.0
  0
LTYPE
  2
LONG5
 70
    64
  3
----------  --  ----------  --  
 72
    65
 73
     4
 40
60.0
 49
37.5
 49
-7.5
 49
7.5
 49
-7.5
  0
LTYPE
  2
dashed
 70
   64
  3
-------   -------------   ------
 72
   65
 73
    2
 40
7.5
 49
6
 49
-1.5
  0
LTYPE
  2
dashed_spaced
 70
   64
  3
----        --------        ----
 72
   65
 73
    2
 40
12
 49
6
 49
-6
  0
LTYPE
  2
long_dashed_dotted
 70
   64
  3
------------- --- --------------
 72
   65
 73
    4
 40
15.25
 49
12
 49
-1.5
 49
0.25
 49
-1.5
  0
LTYPE
  2
long_dashed_double-dotted
 70
   64
  3
----------- --- --- ------------
 72
   65
 73
    6
 40
17
 49
12
 49
-1.5
 49
0.25
 49
-1.5
 49
0.25
 49
-1.5
  0
LTYPE
  2
long_dashed_triplicate-dotted
 70
   64
  3
--------- --- --- --- ----------
 72
   65
 73
    8
 40
18.75
 49
12
 49
-1.5
 49
0.25
 49
-1.5
 49
0.25
 49
-1.5
 49
0.25
 49
-1.5
  0
LTYPE
  2
dotted
 70
   64
  3
   -       -       -       -    
 72
   65
 73
    2
 40
1.75
 49
0.25
 49
-1.5
  0
LTYPE
  2
chain
 70
   64
  3
-------------- -- --------------
 72
   65
 73
    4
 40
18.5
 49
12
 49
-1.5
 49
3.5
 49
-1.5
  0
LTYPE
  2
chain_double_dash
 70
   64
  3
------------ -- -- -------------
 72
   65
 73
    6
 40
23.5
 49
12
 49
-1.5
 49
3.5
 49
-1.5
 49
3.5
 49
-1.5
  0
LTYPE
  2
dashed_dotted
 70
   64
  3
-----------     -     ----------
 72
   65
 73
    4
 40
9.25
 49
6
 49
-1.5
 49
0.25
 49
-1.5
  0
LTYPE
  2
double-dashed_dotted
 70
   64
  3
------   -----------   -   -----
 72
   65
 73
    6
 40
16.75
 49
6
 49
-1.5
 49
6
 49
-1.5
 49
0.25
 49
-1.5
  0
LTYPE
  2
dashed_double-dotted
 70
   64
  3
---------    -    -    ---------
 72
   65
 73
    6
 40
11
 49
6
 49
-1.5
 49
0.25
 49
-1.5
 49
0.25
 49
-1.5
  0
LTYPE
  2
double-dashed_double-dotted
 70
   64
  3
-----   ---------   -   -   ----
 72
   65
 73
    8
 40
18.5
 49
6
 49
-1.5
 49
6
 49
-1.5
 49
0.25
 49
-1.5
 49
0.25
 49
-1.5
  0
LTYPE
  2
dashed_triplicate-dotted
 70
   64
  3
-------    -    -    -    ------
 72
   65
 73
    8
 40
12.75
 49
6
 49
-1.5
 49
0.25
 49
-1.5
 49
0.25
 49
-1.5
 49
0.25
 49
-1.5
  0
LTYPE
  2
double-dashed_triplicate-dotted
 70
   64
  3
-----  ---------  -  -  -  -----
 72
   65
 73
   10
 40
20.25
 49
6
 49
-1.5
 49
6
 49
-1.5
 49
0.25
 49
-1.5
 49
0.25
 49
-1.5
 49
0.25
 49
-1.5
  0
LTYPE
  2
undefined
 70
   64
  3
--------------------------------
 72
   65
 73
    0
 40
0
  0
ENDTAB
  0
TABLE
  2
STYLE
  5
3
100
AcDbSymbolTable
 70
     1
  0
STYLE
  5
10
100
AcDbSymbolTableRecord
100
AcDbTextStyleTableRecord
  2
STANDARD
 70
     0
 40
0.0
 41
1.0
 50
0.0
 71
     0
 42
0.2
  3
txt
  4
bigfont.shx
  0
STYLE
  5
26
100
AcDbSymbolTableRecord
100
AcDbTextStyleTableRecord
  2
TATEGAKI
 70
    68
 40
0.0
 41
1.0
 50
0.0
 71
     0
 42
1.0
  3
txt
  4
bigfont.shx
  0
ENDTAB
  0
TABLE
  2
LAYER
 70
   10
  0
LAYER
  2
_0-0_計極細
 70
   64
 62
    7
  6
CONTINUOUS
  0
LAYER
  2
_0-1_計細線
 70
   64
 62
    7
  6
CONTINUOUS
  0
LAYER
  2
_0-5_寸法線
 70
   64
 62
    7
  6
CONTINUOUS
  0
LAYER
  2
_0-7_枠細線
 70
   64
 62
    7
  6
CONTINUOUS
  0
LAYER
  2
_0-8_枠中線
 70
   64
 62
    7
  6
CONTINUOUS
  0
LAYER
  2
_0-9_枠極太
 70
   64
 62
    7
  6
CONTINUOUS
  0
LAYER
  2
_0-a_極細3
 70
   64
 62
    7
  6
CONTINUOUS
  0
LAYER
  2
_0-b_細線3
 70
   64
 62
    7
  6
CONTINUOUS
  0
LAYER
  2
_0-d_寸法3
 70
   64
 62
    7
  6
CONTINUOUS
  0
LAYER
  2
ADD_LINE
 70
   64
 62
    7
  6
CONTINUOUS
  0
ENDTAB
  0
ENDSEC
  0
SECTION
  2
BLOCKS
  0
ENDSEC
  0
SECTION
  2
ENTITIES
  0
LINE
  8
_0-7_枠細線
  6
CONTINUOUS
 62
    5
 10
1185
 20
180
 11
1185
 21
100
  0
TEXT
  8
_0-7_枠細線
 62
    5
 10
937.5
 20
97.5
 40
17.5
 41
1
 50
0
  1
備考
  7
TATEGAKI
  0
TEXT
  8
_0-7_枠細線
 62
    5
 10
937.5
 20
137.5
 40
17.5
 41
1
 50
0
  1
品番
  7
TATEGAKI
  0
TEXT
  8
_0-7_枠細線
 62
    5
 10
937.5
 20
177.5
 40
17.5
 41
1
 50
0
  1
品名
  7
TATEGAKI
  0
LINE
  8
_0-7_枠細線
  6
CONTINUOUS
 62
    5
 10
1185
 20
140
 11
925
 21
140
  0
LINE
  8
_0-7_枠細線
  6
CONTINUOUS
 62
    5
 10
950
 20
180
 11
950
 21
60
  0
LINE
  8
_0-8_枠中線
  6
CONTINUOUS
 62
    5
 10
1425
 20
180
 11
925
 21
180
  0
LINE
  8
_0-8_枠中線
  6
CONTINUOUS
 62
    5
 10
925
 20
180
 11
925
 21
60
  0
LINE
  8
_0-7_枠細線
  6
CONTINUOUS
 62
    5
 10
1245
 20
180
 11
1245
 21
60
  0
TEXT
  8
_0-7_枠細線
 62
    5
 10
1192.5
 20
160
 40
15
 41
1
 50
0
  1
縮　尺
  0
TEXT
  8
_0-7_枠細線
 62
    5
 10
1194
 20
117.5
 40
20
 41
0.7
 50
0
  1
１：５
  0
LINE
  8
_0-7_枠細線
  6
CONTINUOUS
 62
    5
 10
1185
 20
155
 11
1245
 21
155
  0
LINE
  8
_0-7_枠細線
  6
CONTINUOUS
 62
    5
 10
1245
 20
100
 11
925
 21
100
  0
LINE
  8
_0-7_枠細線
  6
CONTINUOUS
 62
    5
 10
1425
 20
90
 11
1245
 21
90
  0
LINE
  8
_0-7_枠細線
  6
CONTINUOUS
 62
    5
 10
1245
 20
120
 11
1425
 21
120
  0
LINE
  8
_0-7_枠細線
  6
CONTINUOUS
 62
    5
 10
1425
 20
140
 11
1245
 21
140
  0
TEXT
  8
_0-7_枠細線
 62
    5
 10
1255
 20
147.5
 40
25
 41
0.8
 50
0
  1
株式会社シマブン
  0
TEXT
  8
_0-7_枠細線
 62
    5
 10
1252.5
 20
60
 40
15
 41
1
 50
0
  1
年月日
  0
TEXT
  8
_0-7_枠細線
 62
    5
 10
1252.5
 20
75
 40
15
 41
1
 50
0
  1
作　成
  0
TEXT
  8
_0-7_枠細線
 62
    5
 10
1250
 20
95
 40
20
 41
1
 50
0
  1
島 英
  0
TEXT
  8
_0-7_枠細線
 62
    5
 10
1256.25
 20
122.5
 40
15
 41
1
 50
0
  1
承 認
  0
LINE
  8
_0-7_枠細線
  6
CONTINUOUS
 62
    5
 10
1305
 20
140
 11
1305
 21
60
  0
TEXT
  8
_0-7_枠細線
 62
    5
 10
1315
 20
95
 40
20
 41
1
 50
0
  1
隠塚
  0
TEXT
  8
_0-7_枠細線
 62
    5
 10
1316.25
 20
122.5
 40
15
 41
1
 50
0
  1
検 図
  0
LINE
  8
_0-7_枠細線
  6
CONTINUOUS
 62
    5
 10
1365
 20
140
 11
1365
 21
90
  0
TEXT
  8
_0-7_枠細線
 62
    5
 10
1375
 20
95
 40
20
 41
1
 50
0
  1
藤戸
  0
TEXT
  8
_0-7_枠細線
 62
    5
 10
1376.25
 20
122.5
 40
15
 41
1
 50
0
  1
設 計
  0
TEXT
  8
_0-7_枠細線
 62
    5
 10
965.50000000000011
 20
150
 40
20
 41
0.6
 50
0
  1
セーフティグレーチングＨ２０タイプ
  0
LINE
  8
_0-a_極細3
  6
CENTER1
 62
    7
 10
493.03841985316757
 20
227.52699371523795
 11
493.03841985316757
 21
290.97699371524413
  0
LINE
  8
_0-a_極細3
  6
CONTINUOUS
 62
    7
 10
251.37175318650023
 20
232.04615653402107
 11
251.37175318650023
 21
163.71282320068758
  0
LINE
  8
_0-a_極細3
  6
CONTINUOUS
 62
    7
 10
334.70508651983374
 20
163.71282320068758
 11
251.37175318650023
 21
163.71282320068758
  0
LINE
  8
_0-a_極細3
  6
CONTINUOUS
 62
    7
 10
251.37175318650023
 20
232.04615653402107
 11
220.52733937471913
 21
232.04615653402107
  0
LINE
  8
_0-a_極細3
  6
CONTINUOUS
 62
    7
 10
334.70508651983374
 20
163.71282320068758
 11
334.70508651983374
 21
137.47122290590846
  0
LINE
  8
_0-a_極細3
  6
CONTINUOUS
 62
    7
 10
297.28311195484395
 20
137.47122302234516
 11
323.5247121331866
 21
163.71282320068758
  0
LINE
  8
_0-a_極細3
  6
CONTINUOUS
 62
    7
 10
226.57243405620264
 20
137.47122324235852
 11
252.81403401453167
 21
163.71282320068758
  0
LINE
  8
_0-a_極細3
  6
CONTINUOUS
 62
    7
 10
220.52733937471913
 20
202.13680667952985
 11
250.43668922921029
 21
232.04615653402107
  0
LINE
  8
_0-a_極細3
  6
CONTINUOUS
 62
    7
 10
290.21204416497972
 20
137.47122304434654
 11
316.45364432132084
 21
163.71282320068758
  0
LINE
  8
_0-a_極細3
  6
CONTINUOUS
 62
    7
 10
220.52733937471913
 20
138.49719637274049
 11
251.37175318650023
 21
169.34161018452187
  0
LINE
  8
_0-a_極細3
  6
CONTINUOUS
 62
    7
 10
220.52733937471913
 20
209.20787449139516
 11
243.36562141734453
 21
232.04615653402107
  0
LINE
  8
_0-a_極細3
  6
CONTINUOUS
 62
    7
 10
283.140976375116
 20
137.47122306634787
 11
309.38257650945548
 21
163.71282320068758
  0
LINE
  8
_0-a_極細3
  6
CONTINUOUS
 62
    7
 10
220.52733937471913
 20
145.56826418460582
 11
251.37175318650023
 21
176.41267799638717
  0
LINE
  8
_0-a_極細3
  6
CONTINUOUS
 62
    7
 10
220.52733937471913
 20
216.27894230326092
 11
236.29455360547922
 21
232.04615653402107
  0
CIRCLE
  8
_0-a_極細3
  6
CONTINUOUS
 62
    7
 10
238.42322721788634
 20
247.2495669506807
 40
0.5530864197530718
  0
CIRCLE
  8
_0-a_極細3
  6
CONTINUOUS
 62
    7
 10
228.09236302035586
 20
237.29401139512538
 40
0.5530864197530718
  0
CIRCLE
  8
_0-a_極細3
  6
CONTINUOUS
 62
    7
 10
238.69977042776304
 20
238.36067806179202
 40
0.5530864197530718
  0
CIRCLE
  8
_0-a_極細3
  6
CONTINUOUS
 62
    7
 10
251.32199264998533
 20
240.31623361734773
 40
0.5530864197530718
  0
CIRCLE
  8
_0-a_極細3
  6
CONTINUOUS
 62
    7
 10
279.76643709442925
 20
252.04956695068088
 40
0.5530864197530718
  0
CIRCLE
  8
_0-a_極細3
  6
CONTINUOUS
 62
    7
 10
304.65532598331788
 20
262.00512250623615
 40
0.5530864197530718
  0
CIRCLE
  8
_0-a_極細3
  6
CONTINUOUS
 62
    7
 10
310.34421487220675
 20
245.82734472845871
 40
0.5530864197530718
  0
CIRCLE
  8
_0-a_極細3
  6
CONTINUOUS
 62
    7
 10
285.45532598331806
 20
245.29401139512541
 40
0.5530864197530718
  0
CIRCLE
  8
_0-a_極細3
  6
CONTINUOUS
 62
    7
 10
273.721992649985
 20
260.22734472845832
 40
0.5530864197530718
  0
CIRCLE
  8
_0-a_極細3
  6
CONTINUOUS
 62
    7
 10
258.26643709442965
 20
233.06067806179183
 40
0.5530864197530718
  0
CIRCLE
  8
_0-a_極細3
  6
CONTINUOUS
 62
    7
 10
278.71088153887354
 20
231.81623361734776
 40
0.5530864197530718
  0
CIRCLE
  8
_0-a_極細3
  6
CONTINUOUS
 62
    7
 10
303.77754820554014
 20
228.08290028401416
 40
0.5530864197530718
  0
CIRCLE
  8
_0-a_極細3
  6
CONTINUOUS
 62
    7
 10
291.15532598331788
 20
222.39401139512529
 40
0.5530864197530718
  0
CIRCLE
  8
_0-a_極細3
  6
CONTINUOUS
 62
    7
 10
276.39977042776286
 20
208.88290028401434
 40
0.5530864197530718
  0
CIRCLE
  8
_0-a_極細3
  6
CONTINUOUS
 62
    7
 10
303.77754820554014
 20
216.17178917290315
 40
0.5530864197530718
  0
CIRCLE
  8
_0-a_極細3
  6
CONTINUOUS
 62
    7
 10
262.66643709442928
 20
189.06067806179223
 40
0.5530864197530718
  0
CIRCLE
  8
_0-a_極細3
  6
CONTINUOUS
 62
    7
 10
256.97754820554042
 20
171.105122506237
 40
0.5530864197530718
  0
CIRCLE
  8
_0-a_極細3
  6
CONTINUOUS
 62
    7
 10
265.68865931665164
 20
177.86067806179247
 40
0.5530864197530718
  0
CIRCLE
  8
_0-a_極細3
  6
CONTINUOUS
 62
    7
 10
271.91088153887381
 20
169.32734472845914
 40
0.5530864197530718
  0
CIRCLE
  8
_0-a_極細3
  6
CONTINUOUS
 62
    7
 10
311.21088153887354
 20
187.21623361734828
 40
0.5530864197530718
  0
CIRCLE
  8
_0-a_極細3
  6
CONTINUOUS
 62
    7
 10
300.01088153887372
 20
181.70512250623688
 40
0.5530864197530718
  0
CIRCLE
  8
_0-a_極細3
  6
CONTINUOUS
 62
    7
 10
306.23310376109589
 20
179.21623361734831
 40
0.5530864197530718
  0
CIRCLE
  8
_0-a_極細3
  6
CONTINUOUS
 62
    7
 10
302.67754820554023
 20
169.97178917290375
 40
0.5530864197530718
  0
CIRCLE
  8
_0-a_極細3
  6
CONTINUOUS
 62
    7
 10
322.58865931665127
 20
171.03845583957039
 40
0.5530864197530718
  0
CIRCLE
  8
_0-a_極細3
  6
CONTINUOUS
 62
    7
 10
335.56643709442886
 20
174.23845583957018
 40
0.5530864197530718
  0
CIRCLE
  8
_0-a_極細3
  6
CONTINUOUS
 62
    7
 10
349.25532598331779
 20
159.30512250623721
 40
0.5530864197530718
  0
CIRCLE
  8
_0-a_極細3
  6
CONTINUOUS
 62
    7
 10
342.32199264998434
 20
144.37178917290382
 40
0.5530864197530718
  0
CIRCLE
  8
_0-a_極細3
  6
CONTINUOUS
 62
    7
 10
325.65532598331794
 20
187.98660398771835
 40
0.5530864197530718
  0
CIRCLE
  8
_0-a_極細3
  6
CONTINUOUS
 62
    7
 10
340.4108815388733
 20
222.11993732105157
 40
0.5530864197530718
  0
CIRCLE
  8
_0-a_極細3
  6
CONTINUOUS
 62
    7
 10
355.52199264998416
 20
212.16438176549585
 40
0.5530864197530718
  0
CIRCLE
  8
_0-a_極細3
  6
CONTINUOUS
 62
    7
 10
356.05532598331752
 20
194.2088262099405
 40
0.5530864197530718
  0
CIRCLE
  8
_0-a_極細3
  6
CONTINUOUS
 62
    7
 10
320.81088153887345
 20
223.94215954327365
 40
0.5530864197530718
  0
CIRCLE
  8
_0-a_極細3
  6
CONTINUOUS
 62
    7
 10
300.52199264998467
 20
245.92611016055756
 40
1.825531472681392
  0
CIRCLE
  8
_0-a_極細3
  6
CONTINUOUS
 62
    7
 10
248.75987294854966
 20
252.85572443525552
 40
1.825531472681392
  0
CIRCLE
  8
_0-a_極細3
  6
CONTINUOUS
 62
    7
 10
297.69977042776259
 20
212.99277682722462
 40
1.825531472681392
  0
CIRCLE
  8
_0-a_極細3
  6
CONTINUOUS
 62
    7
 10
275.2997704277625
 20
223.12611016055783
 40
1.825531472681392
  0
CIRCLE
  8
_0-a_極細3
  6
CONTINUOUS
 62
    7
 10
255.69977042776259
 20
185.12611016055828
 40
1.825531472681392
  0
CIRCLE
  8
_0-a_極細3
  6
CONTINUOUS
 62
    7
 10
308.89977042776195
 20
172.32611016055813
 40
1.825531472681392
  0
CIRCLE
  8
_0-a_極細3
  6
CONTINUOUS
 62
    7
 10
344.87754820553954
 20
168.72611016055814
 40
1.825531472681392
  0
CIRCLE
  8
_0-a_極細3
  6
CONTINUOUS
 62
    7
 10
349.67754820553927
 20
150.0594434938921
 40
1.825531472681392
  0
CIRCLE
  8
_0-a_極細3
  6
CONTINUOUS
 62
    7
 10
228.56279340747028
 20
253.74833238277961
 40
1.825531472681392
  0
LINE
  8
_0-a_極細3
  6
CONTINUOUS
 62
    7
 10
367.20508651983369
 20
238.71282320068758
 11
368.03841985316717
 21
238.71282320068758
  0
LINE
  8
_0-a_極細3
  6
CONTINUOUS
 62
    7
 10
368.03841985316717
 20
238.71282320068758
 11
368.03841985316717
 21
137.47122290590846
  0
CIRCLE
  8
_0-a_極細3
  6
CONTINUOUS
 62
    7
 10
361.15098570553818
 20
222.72611016055819
 40
1.825531472681392
  0
CIRCLE
  8
_0-a_極細3
  6
CONTINUOUS
 62
    7
 10
360.15902968702102
 20
168.01623361734798
 40
0.5530864197530718
  0
CIRCLE
  8
_0-a_極細3
  6
CONTINUOUS
 62
    7
 10
361.49236302035496
 20
145.36016258417817
 40
0.5530864197530718
  0
CIRCLE
  8
_0-a_極細3
  6
CONTINUOUS
 62
    7
 10
349.12199264998003
 20
203.61499904944736
 40
1.825531472681392
  0
LINE
  8
_0-a_極細3
  6
CONTINUOUS
 62
    7
 10
309.70508651983369
 20
277.04615653402107
 11
309.70508651983369
 21
265.3794898673541
  0
LINE
  8
_0-a_極細3
  6
CONTINUOUS
 62
    7
 10
309.70508651983369
 20
277.04615653402107
 11
220.52733937471913
 21
277.04615653402107
  0
LINE
  8
_0-a_極細3
  6
CONTINUOUS
 62
    7
 10
318.03841985316723
 20
265.3794898673541
 11
220.52733937471913
 21
265.3794898673541
  0
LINE
  8
_0-a_極細3
  6
CONTINUOUS
 62
    7
 10
318.03841985316723
 20
277.04615653402107
 11
309.70508651983369
 21
277.04615653402107
  0
LINE
  8
_0-a_極細3
  6
CONTINUOUS
 62
    7
 10
318.03841985316723
 20
276.21282320068758
 11
318.03841985316723
 21
277.04615653402107
  0
LINE
  8
_0-a_極細3
  6
CONTINUOUS
 62
    7
 10
317.84032959680758
 20
265.3794898673541
 11
318.03841985316672
 21
265.57758012371369
  0
LINE
  8
_0-a_極細3
  6
CONTINUOUS
 62
    7
 10
313.59768890968849
 20
265.3794898673541
 11
318.03841985316723
 21
269.82022081083278
  0
LINE
  8
_0-a_極細3
  6
CONTINUOUS
 62
    7
 10
309.70508651983369
 20
265.72952816461884
 11
318.03841985316723
 21
274.06286149795187
  0
LINE
  8
_0-a_極細3
  6
CONTINUOUS
 62
    7
 10
309.70508651983369
 20
269.97216885173793
 11
316.77907420211636
 21
277.04615653402107
  0
LINE
  8
_0-a_極細3
  6
CONTINUOUS
 62
    7
 10
309.70508651983369
 20
274.21480953885748
 11
312.53643351499733
 21
277.04615653402107
  0
LINE
  8
_0-a_極細3
  6
CONTINUOUS
 62
    7
 10
318.03841985316723
 20
274.76518966176218
 11
315.75745298090879
 21
277.04615653402107
  0
LINE
  8
_0-a_極細3
  6
CONTINUOUS
 62
    7
 10
318.03841985316723
 20
270.52254897464309
 11
311.51481229378919
 21
277.04615653402107
  0
LINE
  8
_0-a_極細3
  6
CONTINUOUS
 62
    7
 10
309.70508651983369
 20
274.61324162085702
 11
318.03841985316723
 21
266.27990828752399
  0
LINE
  8
_0-a_極細3
  6
CONTINUOUS
 62
    7
 10
309.70508651983369
 20
270.37060093373793
 11
314.69619758621707
 21
265.3794898673541
  0
LINE
  8
_0-a_極細3
  6
CONTINUOUS
 62
    7
 10
309.70508651983369
 20
266.12796024661839
 11
310.45355689909798
 21
265.3794898673541
  0
LINE
  8
_0-a_極細3
  6
CONTINUOUS
 62
    7
 10
300.86976684220303
 20
265.37948986122683
 11
309.70508651983369
 21
274.21480953885748
  0
LINE
  8
_0-a_極細3
  6
CONTINUOUS
 62
    7
 10
279.65656339189565
 20
265.37948984651575
 11
291.3232300794009
 21
277.04615653402061
  0
LINE
  8
_0-a_極細3
  6
CONTINUOUS
 62
    7
 10
258.44335994158769
 20
265.37948983180422
 11
270.11002664380413
 21
277.04615653402107
  0
LINE
  8
_0-a_極細3
  6
CONTINUOUS
 62
    7
 10
237.23015649127979
 20
265.37948981709314
 11
248.89682320820768
 21
277.04615653402107
  0
LINE
  8
_0-a_極細3
  6
CONTINUOUS
 62
    7
 10
220.52733937471913
 20
269.88987613612835
 11
227.68361977261137
 21
277.04615653402061
  0
LINE
  8
_0-a_極細3
  6
DASHED2
 62
    7
 10
290.26316511704931
 20
265.37948985387129
 11
301.92983179719909
 21
277.04615653402107
  0
LINE
  8
_0-a_極細3
  6
DASHED2
 62
    7
 10
269.04996166674141
 20
265.37948983915976
 11
280.71662836160272
 21
277.04615653402107
  0
LINE
  8
_0-a_極細3
  6
DASHED2
 62
    7
 10
247.83675821643399
 20
265.37948982444868
 11
259.50342492600589
 21
277.04615653402107
  0
LINE
  8
_0-a_極細3
  6
DASHED2
 62
    7
 10
226.62355476612603
 20
265.37948980973761
 11
238.29022149040952
 21
277.04615653402107
  0
ARC
  8
_0-b_細線3
  6
CONTINUOUS
 62
    7
 10
323.03841985316717
 20
243.71282320068758
 40
5
 50
179.99999999999983
 51
269.99999999999977
  0
LINE
  8
_0-b_細線3
  6
CONTINUOUS
 62
    7
 10
318.03841985316723
 20
243.71282320068758
 11
318.03841985316723
 21
276.21282320068758
  0
LINE
  8
_0-b_細線3
  6
CONTINUOUS
 62
    7
 10
323.03841985316717
 20
238.71282320068758
 11
367.20508651983369
 21
238.71282320068758
  0
LINE
  8
_0-b_細線3
  6
CONTINUOUS
 62
    7
 10
368.03841985316717
 20
239.54615653402107
 11
367.20508651983369
 21
238.71282320068758
  0
LINE
  8
_0-b_細線3
  6
CONTINUOUS
 62
    7
 10
368.03841985316717
 20
242.87948986735412
 11
368.03841985316717
 21
239.54615653402107
  0
LINE
  8
_0-b_細線3
  6
CONTINUOUS
 62
    7
 10
367.20508651983369
 20
243.71282320068758
 11
368.03841985316717
 21
242.87948986735412
  0
LINE
  8
_0-b_細線3
  6
CONTINUOUS
 62
    7
 10
323.03841985316717
 20
243.71282320068758
 11
367.20508651983369
 21
243.71282320068758
  0
LINE
  8
_0-b_細線3
  6
CONTINUOUS
 62
    7
 10
318.8717531865002
 20
277.04615653402107
 11
318.03841985316723
 21
276.21282320068758
  0
LINE
  8
_0-b_細線3
  6
CONTINUOUS
 62
    7
 10
322.20508651983374
 20
277.04615653402107
 11
318.8717531865002
 21
277.04615653402107
  0
LINE
  8
_0-b_細線3
  6
CONTINUOUS
 62
    7
 10
323.03841985316717
 20
276.21282320068758
 11
322.20508651983374
 21
277.04615653402107
  0
LINE
  8
_0-b_細線3
  6
CONTINUOUS
 62
    7
 10
323.03841985316717
 20
243.71282320068758
 11
323.03841985316717
 21
276.21282320068758
  0
CIRCLE
  8
_0-a_極細3
  6
CONTINUOUS
 62
    7
 10
288.21828894628129
 20
257.43722127166711
 40
1.825531472681392
  0
LINE
  8
_0-a_極細3
  6
CONTINUOUS
 62
    7
 10
734.70508651983425
 20
232.04615653402107
 11
734.70508651983425
 21
163.71282320068758
  0
LINE
  8
_0-a_極細3
  6
CONTINUOUS
 62
    7
 10
651.37175318650088
 20
163.71282320068758
 11
734.70508651983425
 21
163.71282320068758
  0
LINE
  8
_0-a_極細3
  6
CONTINUOUS
 62
    7
 10
734.70508651983425
 20
232.04615653402107
 11
765.54950033161549
 21
232.04615653402107
  0
LINE
  8
_0-a_極細3
  6
CONTINUOUS
 62
    7
 10
651.37175318650088
 20
163.71282320068758
 11
651.37175318650088
 21
137.47122290590846
  0
LINE
  8
_0-a_極細3
  6
CONTINUOUS
 62
    7
 10
742.99508893442737
 20
137.47122290590846
 11
765.54950037315621
 21
160.02563434463767
  0
LINE
  8
_0-a_極細3
  6
CONTINUOUS
 62
    7
 10
672.28441081577239
 20
137.47122290590846
 11
698.52601111055139
 21
163.71282320068758
  0
LINE
  8
_0-a_極細3
  6
CONTINUOUS
 62
    7
 10
734.70508651983425
 20
199.89189860997021
 11
765.54950033237105
 21
230.73631242250713
  0
LINE
  8
_0-a_極細3
  6
CONTINUOUS
 62
    7
 10
735.9240211225615
 20
137.47122290590846
 11
765.54950036907758
 21
167.09670215242431
  0
LINE
  8
_0-a_極細3
  6
CONTINUOUS
 62
    7
 10
665.21334300390663
 20
137.47122290590846
 11
691.45494329868598
 21
163.71282320068758
  0
LINE
  8
_0-a_極細3
  6
CONTINUOUS
 62
    7
 10
734.70508651983425
 20
206.96296642183597
 11
759.78827645246884
 21
232.04615635447044
  0
LINE
  8
_0-a_極細3
  6
CONTINUOUS
 62
    7
 10
728.85295331069631
 20
137.47122290590846
 11
765.54950036499906
 21
174.16776996021142
  0
LINE
  8
_0-a_極細3
  6
CONTINUOUS
 62
    7
 10
658.14227519204132
 20
137.47122290590846
 11
684.38387548682044
 21
163.71282320068758
  0
LINE
  8
_0-a_極細3
  6
CONTINUOUS
 62
    7
 10
734.70508651983425
 20
214.03403423370128
 11
752.71720869121964
 21
232.04615640508655
  0
CIRCLE
  8
_0-a_極細3
  6
CONTINUOUS
 62
    7
 10
637.77754820553832
 20
222.56715954327365
 40
0.5530864197530718
  0
CIRCLE
  8
_0-a_極細3
  6
CONTINUOUS
 62
    7
 10
647.73310376109362
 20
227.36715954327383
 40
0.5530864197530718
  0
CIRCLE
  8
_0-a_極細3
  6
CONTINUOUS
 62
    7
 10
643.64421487220511
 20
202.38938176549624
 40
0.5530864197530718
  0
CIRCLE
  8
_0-a_極細3
  6
CONTINUOUS
 62
    7
 10
661.1775482055383
 20
185.36715954327383
 40
0.5530864197530718
  0
CIRCLE
  8
_0-a_極細3
  6
CONTINUOUS
 62
    7
 10
643.34421487220493
 20
162.06715954327407
 40
0.5530864197530718
  0
CIRCLE
  8
_0-a_極細3
  6
CONTINUOUS
 62
    7
 10
634.0108815388719
 20
144.20049287660774
 40
0.5530864197530718
  0
CIRCLE
  8
_0-a_極細3
  6
CONTINUOUS
 62
    7
 10
645.47754820553814
 20
174.0671595432741
 40
0.5530864197530718
  0
CIRCLE
  8
_0-a_極細3
  6
CONTINUOUS
 62
    7
 10
659.3442148722047
 20
169.26715954327435
 40
0.5530864197530718
  0
CIRCLE
  8
_0-a_極細3
  6
CONTINUOUS
 62
    7
 10
686.27754820553787
 20
169.53382620994077
 40
0.5530864197530718
  0
CIRCLE
  8
_0-a_極細3
  6
CONTINUOUS
 62
    7
 10
674.2775482055381
 20
178.60049287660743
 40
0.5530864197530718
  0
CIRCLE
  8
_0-a_極細3
  6
CONTINUOUS
 62
    7
 10
685.47754820553791
 20
184.20049287660731
 40
0.5530864197530718
  0
CIRCLE
  8
_0-a_極細3
  6
CONTINUOUS
 62
    7
 10
675.98865931664886
 20
258.22271509882876
 40
0.5530864197530718
  0
CIRCLE
  8
_0-a_極細3
  6
CONTINUOUS
 62
    7
 10
673.49977042776004
 20
238.48938176549566
 40
0.5530864197530718
  0
CIRCLE
  8
_0-a_極細3
  6
CONTINUOUS
 62
    7
 10
694.03310376109312
 20
237.77827065438444
 40
0.5530864197530718
  0
CIRCLE
  8
_0-a_極細3
  6
CONTINUOUS
 62
    7
 10
682.43310376109321
 20
223.77827065438487
 40
0.5530864197530718
  0
CIRCLE
  8
_0-a_極細3
  6
CONTINUOUS
 62
    7
 10
721.6331037610928
 20
170.57827065438551
 40
0.5530864197530718
  0
CIRCLE
  8
_0-a_極細3
  6
CONTINUOUS
 62
    7
 10
728.83310376109296
 20
184.57827065438508
 40
0.5530864197530718
  0
CIRCLE
  8
_0-a_極細3
  6
CONTINUOUS
 62
    7
 10
727.23310376109271
 20
205.37827065438478
 40
0.5530864197530718
  0
CIRCLE
  8
_0-a_極細3
  6
CONTINUOUS
 62
    7
 10
709.23310376109293
 20
226.5782706543846
 40
0.5530864197530718
  0
CIRCLE
  8
_0-a_極細3
  6
CONTINUOUS
 62
    7
 10
726.03310376109266
 20
246.17827065438451
 40
0.5530864197530718
  0
CIRCLE
  8
_0-a_極細3
  6
CONTINUOUS
 62
    7
 10
723.23310376109271
 20
219.37827065438481
 40
0.5530864197530718
  0
CIRCLE
  8
_0-a_極細3
  6
CONTINUOUS
 62
    7
 10
752.83310376109239
 20
240.5782706543846
 40
0.5530864197530718
  0
CIRCLE
  8
_0-a_極細3
  6
CONTINUOUS
 62
    7
 10
748.03310376109221
 20
254.34833238277952
 40
1.825531472681392
  0
CIRCLE
  8
_0-a_極細3
  6
CONTINUOUS
 62
    7
 10
732.38865931664805
 20
238.88166571611328
 40
1.825531472681392
  0
CIRCLE
  8
_0-a_極細3
  6
CONTINUOUS
 62
    7
 10
676.96643709442651
 20
245.45944349389086
 40
1.825531472681392
  0
CIRCLE
  8
_0-a_極細3
  6
CONTINUOUS
 62
    7
 10
708.96643709442617
 20
213.45944349389129
 40
1.825531472681392
  0
CIRCLE
  8
_0-a_極細3
  6
CONTINUOUS
 62
    7
 10
638.57199264998303
 20
168.90944349389159
 40
1.825531472681392
  0
CIRCLE
  8
_0-a_極細3
  6
CONTINUOUS
 62
    7
 10
648.79421487220486
 20
198.77611016055795
 40
1.825531472681392
  0
CIRCLE
  8
_0-a_極細3
  6
CONTINUOUS
 62
    7
 10
683.99421487220434
 20
176.37611016055828
 40
1.825531472681392
  0
CIRCLE
  8
_0-a_極細3
  6
CONTINUOUS
 62
    7
 10
730.25940750748805
 20
166.18905776858853
 40
1.825531472681392
  0
CIRCLE
  8
_0-a_極細3
  6
CONTINUOUS
 62
    7
 10
679.59421487220425
 20
219.57611016055765
 40
1.825531472681392
  0
CIRCLE
  8
_0-a_極細3
  6
CONTINUOUS
 62
    7
 10
632.12816548948899
 20
214.1529047535214
 40
0.5530864197530718
  0
CIRCLE
  8
_0-a_極細3
  6
CONTINUOUS
 62
    7
 10
632.32816548948972
 20
190.1973491979661
 40
0.5530864197530718
  0
CIRCLE
  8
_0-a_極細3
  6
CONTINUOUS
 62
    7
 10
740.03310376109266
 20
262.31160398771772
 40
0.5530864197530718
  0
CIRCLE
  8
_0-a_極細3
  6
CONTINUOUS
 62
    7
 10
709.23310376109293
 20
257.24493732105111
 40
0.5530864197530718
  0
CIRCLE
  8
_0-a_極細3
  6
CONTINUOUS
 62
    7
 10
709.36643709442615
 20
250.92611016055756
 40
1.825531472681392
  0
CIRCLE
  8
_0-a_極細3
  6
CONTINUOUS
 62
    7
 10
688.03310376109312
 20
263.24493732105111
 40
0.5530864197530718
  0
LINE
  8
_0-a_極細3
  6
CONTINUOUS
 62
    7
 10
618.8717531865002
 20
238.71282320068758
 11
618.03841985316717
 21
238.71282320068758
  0
LINE
  8
_0-a_極細3
  6
CONTINUOUS
 62
    7
 10
618.03841985316717
 20
238.71282320068758
 11
618.03841985316717
 21
137.47122290590846
  0
CIRCLE
  8
_0-a_極細3
  6
CONTINUOUS
 62
    7
 10
624.02281569525053
 20
198.65604843216261
 40
0.5530864197530718
  0
CIRCLE
  8
_0-a_極細3
  6
CONTINUOUS
 62
    7
 10
625.32940005739033
 20
159.40049287660756
 40
0.5530864197530718
  0
CIRCLE
  8
_0-a_極細3
  6
CONTINUOUS
 62
    7
 10
624.69051116850073
 20
225.3538879383359
 40
1.825531472681392
  0
CIRCLE
  8
_0-a_極細3
  6
CONTINUOUS
 62
    7
 10
627.63865931664873
 20
152.73166571611364
 40
1.825531472681392
  0
LINE
  8
_0-a_極細3
  6
CONTINUOUS
 62
    7
 10
676.37175318650088
 20
277.04615653402107
 11
676.37175318650088
 21
265.3794898673541
  0
LINE
  8
_0-a_極細3
  6
CONTINUOUS
 62
    7
 10
676.37175318650088
 20
277.04615653402107
 11
765.54950033161549
 21
277.04615653402107
  0
LINE
  8
_0-a_極細3
  6
CONTINUOUS
 62
    7
 10
668.0384198531674
 20
265.3794898673541
 11
765.54950033161549
 21
265.3794898673541
  0
LINE
  8
_0-a_極細3
  6
CONTINUOUS
 62
    7
 10
668.0384198531674
 20
277.04615653402107
 11
676.37175318650088
 21
277.04615653402107
  0
LINE
  8
_0-a_極細3
  6
CONTINUOUS
 62
    7
 10
668.0384198531674
 20
276.21282320068758
 11
668.0384198531674
 21
277.04615653402107
  0
LINE
  8
_0-a_極細3
  6
CONTINUOUS
 62
    7
 10
676.37175318650065
 20
269.04857614807906
 11
672.70266690577603
 21
265.3794898673541
  0
LINE
  8
_0-a_極細3
  6
CONTINUOUS
 62
    7
 10
676.37175318650065
 20
273.29121683519816
 11
668.46002621865682
 21
265.3794898673541
  0
LINE
  8
_0-a_極細3
  6
CONTINUOUS
 62
    7
 10
668.0384198531674
 20
269.20052418898422
 11
675.88405219820424
 21
277.04615653402107
  0
LINE
  8
_0-a_極細3
  6
CONTINUOUS
 62
    7
 10
668.0384198531674
 20
273.44316487610331
 11
671.6414115110847
 21
277.04615653402061
  0
LINE
  8
_0-a_極細3
  6
CONTINUOUS
 62
    7
 10
676.37175318650088
 20
275.53683432451544
 11
674.86243097699526
 21
277.04615653402107
  0
LINE
  8
_0-a_極細3
  6
CONTINUOUS
 62
    7
 10
676.37175318650088
 20
271.29419363739589
 11
670.61979028987616
 21
277.04615653402107
  0
LINE
  8
_0-a_極細3
  6
CONTINUOUS
 62
    7
 10
676.37175318650088
 20
267.0515529502768
 11
668.0384198531674
 21
275.38488628361029
  0
LINE
  8
_0-a_極細3
  6
CONTINUOUS
 62
    7
 10
673.80117558230404
 20
265.3794898673541
 11
668.0384198531674
 21
271.14224559649074
  0
LINE
  8
_0-a_極細3
  6
CONTINUOUS
 62
    7
 10
669.55853489518506
 20
265.3794898673541
 11
668.0384198531674
 21
266.89960490937165
  0
LINE
  8
_0-a_極細3
  6
CONTINUOUS
 62
    7
 10
744.82755858680389
 20
265.3794898673541
 11
756.49422462668144
 21
277.04615590723188
  0
LINE
  8
_0-a_極細3
  6
CONTINUOUS
 62
    7
 10
723.61435515120729
 20
265.3794898673541
 11
735.28102135703375
 21
277.04615607318055
  0
LINE
  8
_0-a_極細3
  6
CONTINUOUS
 62
    7
 10
702.40115171561104
 20
265.3794898673541
 11
714.0678180873856
 21
277.04615623912878
  0
LINE
  8
_0-a_極細3
  6
CONTINUOUS
 62
    7
 10
681.18794828001455
 20
265.3794898673541
 11
692.85461481773791
 21
277.04615640507745
  0
LINE
  8
_0-a_極細3
  6
DASHED2
 62
    7
 10
755.4341603046023
 20
265.3794898673541
 11
765.54950033161549
 21
275.49482989436774
  0
LINE
  8
_0-a_極細3
  6
DASHED2
 62
    7
 10
734.22095686900548
 20
265.3794898673541
 11
745.8876229918576
 21
277.04615599020599
  0
LINE
  8
_0-a_極細3
  6
DASHED2
 62
    7
 10
713.00775343340911
 20
265.3794898673541
 11
724.67441972220968
 21
277.04615615615467
  0
LINE
  8
_0-a_極細3
  6
DASHED2
 62
    7
 10
691.79454999781274
 20
265.3794898673541
 11
703.46121645256164
 21
277.04615632210289
  0
LINE
  8
_0-a_極細3
  6
DASHED2
 62
    7
 10
676.37175318650065
 20
271.16989649163861
 11
682.24801318291384
 21
277.04615648805157
  0
ARC
  8
_0-b_細線3
  6
CONTINUOUS
 62
    7
 10
663.0384198531674
 20
243.71282320068758
 40
5
 50
269.99999999999977
 51
359.99999999999966
  0
LINE
  8
_0-b_細線3
  6
CONTINUOUS
 62
    7
 10
668.0384198531674
 20
243.71282320068758
 11
668.0384198531674
 21
276.21282320068758
  0
LINE
  8
_0-b_細線3
  6
CONTINUOUS
 62
    7
 10
663.0384198531674
 20
238.71282320068758
 11
618.8717531865002
 21
238.71282320068758
  0
LINE
  8
_0-b_細線3
  6
CONTINUOUS
 62
    7
 10
618.03841985316717
 20
239.54615653402107
 11
618.8717531865002
 21
238.71282320068758
  0
LINE
  8
_0-b_細線3
  6
CONTINUOUS
 62
    7
 10
618.03841985316717
 20
242.87948986735412
 11
618.03841985316717
 21
239.54615653402107
  0
LINE
  8
_0-b_細線3
  6
CONTINUOUS
 62
    7
 10
618.8717531865002
 20
243.71282320068758
 11
618.03841985316717
 21
242.87948986735412
  0
LINE
  8
_0-b_細線3
  6
CONTINUOUS
 62
    7
 10
663.0384198531674
 20
243.71282320068758
 11
618.8717531865002
 21
243.71282320068758
  0
LINE
  8
_0-b_細線3
  6
CONTINUOUS
 62
    7
 10
667.20508651983437
 20
277.04615653402107
 11
668.0384198531674
 21
276.21282320068758
  0
LINE
  8
_0-b_細線3
  6
CONTINUOUS
 62
    7
 10
663.87175318650088
 20
277.04615653402107
 11
667.20508651983437
 21
277.04615653402107
  0
LINE
  8
_0-b_細線3
  6
CONTINUOUS
 62
    7
 10
663.0384198531674
 20
276.21282320068758
 11
663.87175318650088
 21
277.04615653402107
  0
LINE
  8
_0-b_細線3
  6
CONTINUOUS
 62
    7
 10
663.0384198531674
 20
243.71282320068758
 11
663.0384198531674
 21
276.21282320068758
  0
ARC
  8
_0-b_細線3
  6
CONTINUOUS
 62
    7
 10
556.03841985681561
 20
273.71245819900923
 40
1.666666666666667
 50
89.999999999999915
 51
179.99999999999983
  0
ARC
  8
_0-b_細線3
  6
CONTINUOUS
 62
    7
 10
556.81833517569498
 20
277.04579153234272
 40
1.666666666666667
 50
269.99999999999977
 51
329.99999999999523
  0
ARC
  8
_0-b_細線3
  6
CONTINUOUS
 62
    7
 10
559.70508652164267
 20
275.3791248656762
 40
1.666666666666667
 50
89.999999999999915
 51
150.00000000000134
  0
LINE
  8
_0-b_細線3
  6
CONTINUOUS
 62
    7
 10
556.03841985681561
 20
275.3791248656762
 11
556.81833517569498
 21
275.3791248656762
  0
ARC
  8
_0-b_細線3
  6
CONTINUOUS
 62
    7
 10
571.70508651980367
 20
273.71245819900923
 40
1.666666666666667
 50
0
 51
89.999999999999915
  0
ARC
  8
_0-b_細線3
  6
CONTINUOUS
 62
    7
 10
570.92517120092475
 20
277.04579153234272
 40
1.666666666666667
 50
210.00000000000404
 51
269.99999999999977
  0
ARC
  8
_0-b_細線3
  6
CONTINUOUS
 62
    7
 10
568.03841985497661
 20
275.3791248656762
 40
1.666666666666667
 50
29.999999999990862
 51
89.999999999999901
  0
LINE
  8
_0-b_細線3
  6
CONTINUOUS
 62
    7
 10
571.70508651980367
 20
275.3791248656762
 11
570.92517120092475
 21
275.3791248656762
  0
ARC
  8
_0-b_細線3
  6
CONTINUOUS
 62
    7
 10
555.20508652348258
 20
271.3791248656762
 40
0.8333333333333334
 50
179.99999999999983
 51
269.99999999999977
  0
LINE
  8
_0-b_細線3
  6
CONTINUOUS
 62
    7
 10
554.37175319014909
 20
273.71245819900923
 11
554.37175319014909
 21
271.3791248656762
  0
ARC
  8
_0-b_細線3
  6
CONTINUOUS
 62
    7
 10
572.53841985313716
 20
271.3791248656762
 40
0.8333333333333334
 50
269.99999999999977
 51
359.99999999999966
  0
LINE
  8
_0-b_細線3
  6
CONTINUOUS
 62
    7
 10
573.37175318647064
 20
273.71245819900923
 11
573.37175318647064
 21
271.3791248656762
  0
ARC
  8
_0-b_細線3
  6
CONTINUOUS
 62
    7
 10
559.37175319014909
 20
268.8791248656762
 40
1.666666666666667
 50
0
 51
89.999999999999915
  0
LINE
  8
_0-b_細線3
  6
CONTINUOUS
 62
    7
 10
559.37175319014909
 20
270.54579153234272
 11
555.20508652348258
 21
270.54579153234272
  0
ARC
  8
_0-b_細線3
  6
CONTINUOUS
 62
    7
 10
568.37175319014909
 20
268.8791248656762
 40
1.666666666666667
 50
89.999999999999915
 51
179.99999999999983
  0
LINE
  8
_0-b_細線3
  6
CONTINUOUS
 62
    7
 10
568.37175318647019
 20
270.54579153234272
 11
572.53841985313716
 21
270.54579153234272
  0
LINE
  8
_0-b_細線3
  6
CONTINUOUS
 62
    7
 10
568.03841985497661
 20
277.04579153234272
 11
559.70508652164267
 21
277.04579153234272
  0
LINE
  8
_0-b_細線3
  6
CONTINUOUS
 62
    7
 10
561.03841985497661
 20
243.71245819900923
 11
561.03841985681561
 21
268.8791248656762
  0
LINE
  8
_0-b_細線3
  6
CONTINUOUS
 62
    7
 10
566.70508652164312
 20
243.71245819900923
 11
566.70508652348258
 21
268.8791248656762
  0
LINE
  8
_0-b_細線3
  6
CONTINUOUS
 62
    7
 10
566.70508652164312
 20
243.71245819900923
 11
561.03841985497661
 21
243.71245819900923
  0
ARC
  8
_0-b_細線3
  6
CONTINUOUS
 62
    7
 10
527.70508652287958
 20
273.71245819900923
 40
1.666666666666667
 50
89.999999999999915
 51
179.99999999999983
  0
ARC
  8
_0-b_細線3
  6
CONTINUOUS
 62
    7
 10
528.4850018417585
 20
277.04579153234272
 40
1.666666666666667
 50
269.99999999999977
 51
329.99999999999523
  0
ARC
  8
_0-b_細線3
  6
CONTINUOUS
 62
    7
 10
531.37175318770664
 20
275.3791248656762
 40
1.666666666666667
 50
89.999999999999915
 51
150.00000000000915
  0
LINE
  8
_0-b_細線3
  6
CONTINUOUS
 62
    7
 10
527.70508652287958
 20
275.3791248656762
 11
528.4850018417585
 21
275.3791248656762
  0
ARC
  8
_0-b_細線3
  6
CONTINUOUS
 62
    7
 10
543.37175318586719
 20
273.71245819900923
 40
1.666666666666667
 50
0
 51
89.999999999999915
  0
ARC
  8
_0-b_細線3
  6
CONTINUOUS
 62
    7
 10
542.59183786698827
 20
277.04579153234272
 40
1.666666666666667
 50
209.99999999999622
 51
269.99999999999977
  0
ARC
  8
_0-b_細線3
  6
CONTINUOUS
 62
    7
 10
539.70508652104013
 20
275.3791248656762
 40
1.666666666666667
 50
29.999999999998682
 51
89.999999999999915
  0
LINE
  8
_0-b_細線3
  6
CONTINUOUS
 62
    7
 10
543.37175318586719
 20
275.3791248656762
 11
542.59183786698827
 21
275.3791248656762
  0
ARC
  8
_0-b_細線3
  6
CONTINUOUS
 62
    7
 10
526.8717531895461
 20
271.3791248656762
 40
0.8333333333333334
 50
179.99999999999983
 51
269.99999999999977
  0
LINE
  8
_0-b_細線3
  6
CONTINUOUS
 62
    7
 10
526.03841985621261
 20
273.71245819900923
 11
526.03841985621261
 21
271.3791248656762
  0
ARC
  8
_0-b_細線3
  6
CONTINUOUS
 62
    7
 10
544.20508651920068
 20
271.3791248656762
 40
0.8333333333333334
 50
269.99999999999977
 51
359.99999999999966
  0
LINE
  8
_0-b_細線3
  6
CONTINUOUS
 62
    7
 10
545.03841985253416
 20
273.71245819900923
 11
545.03841985253416
 21
271.3791248656762
  0
ARC
  8
_0-b_細線3
  6
CONTINUOUS
 62
    7
 10
531.03841985621261
 20
268.8791248656762
 40
1.666666666666667
 50
0
 51
89.999999999999915
  0
LINE
  8
_0-b_細線3
  6
CONTINUOUS
 62
    7
 10
531.03841985621261
 20
270.54579153234272
 11
526.8717531895461
 21
270.54579153234272
  0
ARC
  8
_0-b_細線3
  6
CONTINUOUS
 62
    7
 10
540.03841985621307
 20
268.8791248656762
 40
1.666666666666667
 50
89.999999999999915
 51
179.99999999999983
  0
LINE
  8
_0-b_細線3
  6
CONTINUOUS
 62
    7
 10
540.03841985253416
 20
270.54579153234272
 11
544.20508651920068
 21
270.54579153234272
  0
LINE
  8
_0-b_細線3
  6
CONTINUOUS
 62
    7
 10
539.70508652104013
 20
277.04579153234272
 11
531.37175318770664
 21
277.04579153234272
  0
LINE
  8
_0-b_細線3
  6
CONTINUOUS
 62
    7
 10
532.70508652104013
 20
243.71245819900923
 11
532.70508652287958
 21
268.8791248656762
  0
LINE
  8
_0-b_細線3
  6
CONTINUOUS
 62
    7
 10
538.37175318770664
 20
243.71245819900923
 11
538.3717531895461
 21
268.8791248656762
  0
LINE
  8
_0-b_細線3
  6
CONTINUOUS
 62
    7
 10
538.37175318770664
 20
243.71245819900923
 11
532.70508652104013
 21
243.71245819900923
  0
ARC
  8
_0-b_細線3
  6
CONTINUOUS
 62
    7
 10
499.37175318894305
 20
273.71245819900923
 40
1.666666666666667
 50
89.999999999999915
 51
179.99999999999983
  0
ARC
  8
_0-b_細線3
  6
CONTINUOUS
 62
    7
 10
500.15166850782242
 20
277.04579153234272
 40
1.666666666666667
 50
269.99999999999977
 51
329.99999999999523
  0
ARC
  8
_0-b_細線3
  6
CONTINUOUS
 62
    7
 10
503.03841985377062
 20
275.3791248656762
 40
1.666666666666667
 50
89.999999999999915
 51
150.00000000000915
  0
LINE
  8
_0-b_細線3
  6
CONTINUOUS
 62
    7
 10
499.37175318894305
 20
275.3791248656762
 11
500.15166850782242
 21
275.3791248656762
  0
ARC
  8
_0-b_細線3
  6
CONTINUOUS
 62
    7
 10
515.03841985193117
 20
273.71245819900923
 40
1.666666666666667
 50
0
 51
89.999999999999915
  0
ARC
  8
_0-b_細線3
  6
CONTINUOUS
 62
    7
 10
514.25850453305179
 20
277.04579153234272
 40
1.666666666666667
 50
210.00000000000404
 51
269.99999999999977
  0
ARC
  8
_0-b_細線3
  6
CONTINUOUS
 62
    7
 10
511.37175318710365
 20
275.3791248656762
 40
1.666666666666667
 50
29.999999999989889
 51
89.999999999984368
  0
LINE
  8
_0-b_細線3
  6
CONTINUOUS
 62
    7
 10
515.03841985193117
 20
275.3791248656762
 11
514.25850453305179
 21
275.3791248656762
  0
ARC
  8
_0-b_細線3
  6
CONTINUOUS
 62
    7
 10
498.53841985560962
 20
271.3791248656762
 40
0.8333333333333334
 50
179.99999999999983
 51
269.99999999999977
  0
LINE
  8
_0-b_細線3
  6
CONTINUOUS
 62
    7
 10
497.70508652227653
 20
273.71245819900923
 11
497.70508652227653
 21
271.3791248656762
  0
ARC
  8
_0-b_細線3
  6
CONTINUOUS
 62
    7
 10
515.87175318526465
 20
271.3791248656762
 40
0.8333333333333334
 50
269.99999999999977
 51
359.99999999999966
  0
LINE
  8
_0-b_細線3
  6
CONTINUOUS
 62
    7
 10
516.70508651859768
 20
273.71245819900923
 11
516.70508651859768
 21
271.3791248656762
  0
ARC
  8
_0-b_細線3
  6
CONTINUOUS
 62
    7
 10
502.70508652227653
 20
268.8791248656762
 40
1.666666666666667
 50
0
 51
89.999999999999915
  0
LINE
  8
_0-b_細線3
  6
CONTINUOUS
 62
    7
 10
502.70508652227653
 20
270.54579153234272
 11
498.53841985560962
 21
270.54579153234272
  0
ARC
  8
_0-b_細線3
  6
CONTINUOUS
 62
    7
 10
511.70508652227653
 20
268.8791248656762
 40
1.666666666666667
 50
89.999999999999915
 51
179.99999999999983
  0
LINE
  8
_0-b_細線3
  6
CONTINUOUS
 62
    7
 10
511.70508651859762
 20
270.54579153234272
 11
515.87175318526465
 21
270.54579153234272
  0
LINE
  8
_0-b_細線3
  6
CONTINUOUS
 62
    7
 10
511.37175318710365
 20
277.04579153234272
 11
503.03841985377062
 21
277.04579153234272
  0
LINE
  8
_0-b_細線3
  6
CONTINUOUS
 62
    7
 10
504.37175318710359
 20
243.71245819900923
 11
504.37175318894305
 21
268.8791248656762
  0
LINE
  8
_0-b_細線3
  6
CONTINUOUS
 62
    7
 10
510.03841985377056
 20
243.71245819900923
 11
510.03841985561002
 21
268.8791248656762
  0
LINE
  8
_0-b_細線3
  6
CONTINUOUS
 62
    7
 10
510.03841985377056
 20
243.71245819900923
 11
504.37175318710359
 21
243.71245819900923
  0
ARC
  8
_0-b_細線3
  6
CONTINUOUS
 62
    7
 10
442.70508652107054
 20
273.71245819900923
 40
1.666666666666667
 50
89.999999999999915
 51
179.99999999999983
  0
ARC
  8
_0-b_細線3
  6
CONTINUOUS
 62
    7
 10
443.48500183994992
 20
277.04579153234272
 40
1.666666666666667
 50
269.99999999999977
 51
329.99999999999523
  0
ARC
  8
_0-b_細線3
  6
CONTINUOUS
 62
    7
 10
446.37175318589811
 20
275.3791248656762
 40
1.666666666666667
 50
89.999999999999915
 51
150.00000000000915
  0
LINE
  8
_0-b_細線3
  6
CONTINUOUS
 62
    7
 10
442.70508652107054
 20
275.3791248656762
 11
443.48500183994992
 21
275.3791248656762
  0
ARC
  8
_0-b_細線3
  6
CONTINUOUS
 62
    7
 10
458.3717531840586
 20
273.71245819900923
 40
1.666666666666667
 50
0
 51
89.999999999999915
  0
ARC
  8
_0-b_細線3
  6
CONTINUOUS
 62
    7
 10
457.59183786517974
 20
277.04579153234272
 40
1.666666666666667
 50
209.99999999999622
 51
269.99999999999977
  0
ARC
  8
_0-b_細線3
  6
CONTINUOUS
 62
    7
 10
454.70508651923114
 20
275.3791248656762
 40
1.666666666666667
 50
29.999999999990862
 51
89.999999999984354
  0
LINE
  8
_0-b_細線3
  6
CONTINUOUS
 62
    7
 10
458.3717531840586
 20
275.3791248656762
 11
457.59183786517974
 21
275.3791248656762
  0
ARC
  8
_0-b_細線3
  6
CONTINUOUS
 62
    7
 10
441.87175318773711
 20
271.3791248656762
 40
0.8333333333333334
 50
179.99999999999983
 51
269.99999999999977
  0
LINE
  8
_0-b_細線3
  6
CONTINUOUS
 62
    7
 10
441.03841985440403
 20
273.71245819900923
 11
441.03841985440403
 21
271.3791248656762
  0
ARC
  8
_0-b_細線3
  6
CONTINUOUS
 62
    7
 10
459.20508651739215
 20
271.3791248656762
 40
0.8333333333333334
 50
269.99999999999977
 51
359.99999999999966
  0
LINE
  8
_0-b_細線3
  6
CONTINUOUS
 62
    7
 10
460.03841985072563
 20
273.71245819900923
 11
460.03841985072563
 21
271.3791248656762
  0
ARC
  8
_0-b_細線3
  6
CONTINUOUS
 62
    7
 10
446.03841985440403
 20
268.8791248656762
 40
1.666666666666667
 50
0
 51
89.999999999999915
  0
LINE
  8
_0-b_細線3
  6
CONTINUOUS
 62
    7
 10
446.03841985440403
 20
270.54579153234272
 11
441.87175318773711
 21
270.54579153234272
  0
ARC
  8
_0-b_細線3
  6
CONTINUOUS
 62
    7
 10
455.03841985440403
 20
268.8791248656762
 40
1.666666666666667
 50
89.999999999999915
 51
179.99999999999983
  0
LINE
  8
_0-b_細線3
  6
CONTINUOUS
 62
    7
 10
455.03841985072512
 20
270.54579153234272
 11
459.20508651739215
 21
270.54579153234272
  0
LINE
  8
_0-b_細線3
  6
CONTINUOUS
 62
    7
 10
454.70508651923114
 20
277.04579153234272
 11
446.37175318589811
 21
277.04579153234272
  0
LINE
  8
_0-b_細線3
  6
CONTINUOUS
 62
    7
 10
447.7050865192316
 20
243.71245819900923
 11
447.70508652107054
 21
268.8791248656762
  0
LINE
  8
_0-b_細線3
  6
CONTINUOUS
 62
    7
 10
453.37175318589806
 20
243.71245819900923
 11
453.37175318773751
 21
268.8791248656762
  0
LINE
  8
_0-b_細線3
  6
CONTINUOUS
 62
    7
 10
453.37175318589806
 20
243.71245819900923
 11
447.7050865192316
 21
243.71245819900923
  0
ARC
  8
_0-b_細線3
  6
CONTINUOUS
 62
    7
 10
414.37175318713406
 20
273.71245819900923
 40
1.666666666666667
 50
89.999999999999915
 51
179.99999999999983
  0
ARC
  8
_0-b_細線3
  6
CONTINUOUS
 62
    7
 10
415.15166850601349
 20
277.04579153234272
 40
1.666666666666667
 50
269.99999999999977
 51
329.99999999999523
  0
ARC
  8
_0-b_細線3
  6
CONTINUOUS
 62
    7
 10
418.03841985196158
 20
275.3791248656762
 40
1.666666666666667
 50
89.999999999999915
 51
150.00000000000915
  0
LINE
  8
_0-b_細線3
  6
CONTINUOUS
 62
    7
 10
414.37175318713406
 20
275.3791248656762
 11
415.15166850601349
 21
275.3791248656762
  0
ARC
  8
_0-b_細線3
  6
CONTINUOUS
 62
    7
 10
430.03841985012218
 20
273.71245819900923
 40
1.666666666666667
 50
0
 51
89.999999999999915
  0
ARC
  8
_0-b_細線3
  6
CONTINUOUS
 62
    7
 10
429.25850453124275
 20
277.04579153234272
 40
1.666666666666667
 50
210.00000000000404
 51
269.99999999999977
  0
ARC
  8
_0-b_細線3
  6
CONTINUOUS
 62
    7
 10
426.37175318529506
 20
275.3791248656762
 40
1.666666666666667
 50
29.999999999998682
 51
89.999999999999915
  0
LINE
  8
_0-b_細線3
  6
CONTINUOUS
 62
    7
 10
430.03841985012218
 20
275.3791248656762
 11
429.25850453124275
 21
275.3791248656762
  0
ARC
  8
_0-b_細線3
  6
CONTINUOUS
 62
    7
 10
413.53841985380109
 20
271.3791248656762
 40
0.8333333333333334
 50
179.99999999999983
 51
269.99999999999977
  0
LINE
  8
_0-b_細線3
  6
CONTINUOUS
 62
    7
 10
412.7050865204676
 20
273.71245819900923
 11
412.7050865204676
 21
271.3791248656762
  0
ARC
  8
_0-b_細線3
  6
CONTINUOUS
 62
    7
 10
430.87175318345567
 20
271.3791248656762
 40
0.8333333333333334
 50
269.99999999999977
 51
359.99999999999966
  0
LINE
  8
_0-b_細線3
  6
CONTINUOUS
 62
    7
 10
431.70508651678864
 20
273.71245819900923
 11
431.70508651678864
 21
271.3791248656762
  0
ARC
  8
_0-b_細線3
  6
CONTINUOUS
 62
    7
 10
417.7050865204676
 20
268.8791248656762
 40
1.666666666666667
 50
0
 51
89.999999999999915
  0
LINE
  8
_0-b_細線3
  6
CONTINUOUS
 62
    7
 10
417.7050865204676
 20
270.54579153234272
 11
413.53841985380109
 21
270.54579153234272
  0
ARC
  8
_0-b_細線3
  6
CONTINUOUS
 62
    7
 10
426.70508652046755
 20
268.8791248656762
 40
1.666666666666667
 50
89.999999999999915
 51
179.99999999999983
  0
LINE
  8
_0-b_細線3
  6
CONTINUOUS
 62
    7
 10
426.70508651678864
 20
270.54579153234272
 11
430.87175318345567
 21
270.54579153234272
  0
LINE
  8
_0-b_細線3
  6
CONTINUOUS
 62
    7
 10
426.37175318529506
 20
277.04579153234272
 11
418.03841985196158
 21
277.04579153234272
  0
LINE
  8
_0-b_細線3
  6
CONTINUOUS
 62
    7
 10
419.37175318529461
 20
243.71245819900923
 11
419.37175318713406
 21
268.8791248656762
  0
LINE
  8
_0-b_細線3
  6
CONTINUOUS
 62
    7
 10
425.03841985196163
 20
243.71245819900923
 11
425.03841985380109
 21
268.8791248656762
  0
LINE
  8
_0-b_細線3
  6
CONTINUOUS
 62
    7
 10
425.03841985196163
 20
243.71245819900923
 11
419.37175318529461
 21
243.71245819900923
  0
ARC
  8
_0-b_細線3
  6
CONTINUOUS
 62
    7
 10
386.03841985319764
 20
273.71245819900923
 40
1.666666666666667
 50
89.999999999999915
 51
179.99999999999983
  0
ARC
  8
_0-b_細線3
  6
CONTINUOUS
 62
    7
 10
386.81833517207701
 20
277.04579153234272
 40
1.666666666666667
 50
269.99999999999977
 51
329.99999999999523
  0
ARC
  8
_0-b_細線3
  6
CONTINUOUS
 62
    7
 10
389.7050865180251
 20
275.3791248656762
 40
1.666666666666667
 50
89.999999999999915
 51
150.00000000000915
  0
LINE
  8
_0-b_細線3
  6
CONTINUOUS
 62
    7
 10
386.03841985319764
 20
275.3791248656762
 11
386.81833517207701
 21
275.3791248656762
  0
ARC
  8
_0-b_細線3
  6
CONTINUOUS
 62
    7
 10
401.7050865161857
 20
273.71245819900923
 40
1.666666666666667
 50
0
 51
89.999999999999915
  0
ARC
  8
_0-b_細線3
  6
CONTINUOUS
 62
    7
 10
400.92517119730672
 20
277.04579153234272
 40
1.666666666666667
 50
209.99999999999622
 51
269.99999999999977
  0
ARC
  8
_0-b_細線3
  6
CONTINUOUS
 62
    7
 10
398.03841985135819
 20
275.3791248656762
 40
1.666666666666667
 50
29.999999999990862
 51
89.999999999984354
  0
LINE
  8
_0-b_細線3
  6
CONTINUOUS
 62
    7
 10
401.7050865161857
 20
275.3791248656762
 11
400.92517119730672
 21
275.3791248656762
  0
ARC
  8
_0-b_細線3
  6
CONTINUOUS
 62
    7
 10
385.20508651986461
 20
271.3791248656762
 40
0.8333333333333334
 50
179.99999999999983
 51
269.99999999999977
  0
LINE
  8
_0-b_細線3
  6
CONTINUOUS
 62
    7
 10
384.37175318653112
 20
273.71245819900923
 11
384.37175318653112
 21
271.3791248656762
  0
ARC
  8
_0-b_細線3
  6
CONTINUOUS
 62
    7
 10
402.53841984951919
 20
271.3791248656762
 40
0.8333333333333334
 50
269.99999999999977
 51
359.99999999999966
  0
LINE
  8
_0-b_細線3
  6
CONTINUOUS
 62
    7
 10
403.37175318285261
 20
273.71245819900923
 11
403.37175318285261
 21
271.3791248656762
  0
ARC
  8
_0-b_細線3
  6
CONTINUOUS
 62
    7
 10
389.37175318653112
 20
268.8791248656762
 40
1.666666666666667
 50
0
 51
89.999999999999915
  0
LINE
  8
_0-b_細線3
  6
CONTINUOUS
 62
    7
 10
389.37175318653112
 20
270.54579153234272
 11
385.20508651986461
 21
270.54579153234272
  0
ARC
  8
_0-b_細線3
  6
CONTINUOUS
 62
    7
 10
398.37175318653112
 20
268.8791248656762
 40
1.666666666666667
 50
89.999999999999915
 51
179.99999999999983
  0
LINE
  8
_0-b_細線3
  6
CONTINUOUS
 62
    7
 10
398.37175318285222
 20
270.54579153234272
 11
402.53841984951919
 21
270.54579153234272
  0
LINE
  8
_0-b_細線3
  6
CONTINUOUS
 62
    7
 10
398.03841985135819
 20
277.04579153234272
 11
389.7050865180251
 21
277.04579153234272
  0
LINE
  8
_0-b_細線3
  6
CONTINUOUS
 62
    7
 10
391.03841985135858
 20
243.71245819900923
 11
391.03841985319764
 21
268.8791248656762
  0
LINE
  8
_0-b_細線3
  6
CONTINUOUS
 62
    7
 10
396.70508651802515
 20
243.71245819900923
 11
396.70508651986461
 21
268.8791248656762
  0
LINE
  8
_0-b_細線3
  6
CONTINUOUS
 62
    7
 10
396.70508651802515
 20
243.71245819900923
 11
391.03841985135858
 21
243.71245819900923
  0
ARC
  8
_0-b_細線3
  6
CONTINUOUS
 62
    7
 10
584.37175319043513
 20
273.71245819900923
 40
1.666666666666667
 50
89.999999999999915
 51
179.99999999999983
  0
ARC
  8
_0-b_細線3
  6
CONTINUOUS
 62
    7
 10
585.15166850931405
 20
277.04579153234272
 40
1.666666666666667
 50
269.99999999999977
 51
329.99999999999523
  0
ARC
  8
_0-b_細線3
  6
CONTINUOUS
 62
    7
 10
588.03841985526219
 20
275.3791248656762
 40
1.666666666666667
 50
89.999999999999915
 51
150.00000000000915
  0
LINE
  8
_0-b_細線3
  6
CONTINUOUS
 62
    7
 10
584.37175319043513
 20
275.3791248656762
 11
585.15166850931405
 21
275.3791248656762
  0
ARC
  8
_0-b_細線3
  6
CONTINUOUS
 62
    7
 10
600.03841985342319
 20
273.71245819900923
 40
1.666666666666667
 50
0
 51
89.999999999999915
  0
ARC
  8
_0-b_細線3
  6
CONTINUOUS
 62
    7
 10
599.25850453454382
 20
277.04579153234272
 40
1.666666666666667
 50
210.00000000000404
 51
269.99999999999977
  0
ARC
  8
_0-b_細線3
  6
CONTINUOUS
 62
    7
 10
596.37175318859568
 20
275.3791248656762
 40
1.666666666666667
 50
29.999999999990862
 51
89.999999999999901
  0
LINE
  8
_0-b_細線3
  6
CONTINUOUS
 62
    7
 10
600.03841985342319
 20
275.3791248656762
 11
599.25850453454382
 21
275.3791248656762
  0
ARC
  8
_0-b_細線3
  6
CONTINUOUS
 62
    7
 10
583.5384198571021
 20
271.3791248656762
 40
0.8333333333333334
 50
179.99999999999983
 51
269.99999999999977
  0
LINE
  8
_0-b_細線3
  6
CONTINUOUS
 62
    7
 10
582.70508652376816
 20
273.71245819900923
 11
582.70508652376816
 21
271.3791248656762
  0
ARC
  8
_0-b_細線3
  6
CONTINUOUS
 62
    7
 10
600.87175318675668
 20
271.3791248656762
 40
0.8333333333333334
 50
269.99999999999977
 51
359.99999999999966
  0
LINE
  8
_0-b_細線3
  6
CONTINUOUS
 62
    7
 10
601.70508652008971
 20
273.71245819900923
 11
601.70508652008971
 21
271.3791248656762
  0
ARC
  8
_0-b_細線3
  6
CONTINUOUS
 62
    7
 10
587.70508652376816
 20
268.8791248656762
 40
1.666666666666667
 50
0
 51
89.999999999999915
  0
LINE
  8
_0-b_細線3
  6
CONTINUOUS
 62
    7
 10
587.70508652376816
 20
270.54579153234272
 11
583.5384198571021
 21
270.54579153234272
  0
ARC
  8
_0-b_細線3
  6
CONTINUOUS
 62
    7
 10
596.70508652376861
 20
268.8791248656762
 40
1.666666666666667
 50
89.999999999999915
 51
179.99999999999983
  0
LINE
  8
_0-b_細線3
  6
CONTINUOUS
 62
    7
 10
596.70508652008971
 20
270.54579153234272
 11
600.87175318675668
 21
270.54579153234272
  0
LINE
  8
_0-b_細線3
  6
CONTINUOUS
 62
    7
 10
596.37175318859568
 20
277.04579153234272
 11
588.03841985526219
 21
277.04579153234272
  0
LINE
  8
_0-b_細線3
  6
CONTINUOUS
 62
    7
 10
589.37175318859613
 20
243.71245819900923
 11
589.37175319043513
 21
268.8791248656762
  0
LINE
  8
_0-b_細線3
  6
CONTINUOUS
 62
    7
 10
595.03841985526265
 20
243.71245819900923
 11
595.0384198571021
 21
268.8791248656762
  0
LINE
  8
_0-b_細線3
  6
CONTINUOUS
 62
    7
 10
595.03841985526265
 20
243.71245819900923
 11
589.37175318859613
 21
243.71245819900923
  0
ARC
  8
_0-b_細線3
  6
CONTINUOUS
 62
    7
 10
357.03841985319764
 20
273.71245819900923
 40
1.666666666666667
 50
89.999999999999915
 51
179.99999999999983
  0
ARC
  8
_0-b_細線3
  6
CONTINUOUS
 62
    7
 10
357.81833517207696
 20
277.04579153234272
 40
1.666666666666667
 50
269.99999999999977
 51
329.99999999999523
  0
ARC
  8
_0-b_細線3
  6
CONTINUOUS
 62
    7
 10
360.70508651802515
 20
275.3791248656762
 40
1.666666666666667
 50
89.999999999999915
 51
150.00000000000915
  0
LINE
  8
_0-b_細線3
  6
CONTINUOUS
 62
    7
 10
357.03841985319764
 20
275.3791248656762
 11
357.81833517207696
 21
275.3791248656762
  0
ARC
  8
_0-b_細線3
  6
CONTINUOUS
 62
    7
 10
372.70508651618564
 20
273.71245819900923
 40
1.666666666666667
 50
0
 51
89.999999999999915
  0
ARC
  8
_0-b_細線3
  6
CONTINUOUS
 62
    7
 10
371.92517119730672
 20
277.04579153234272
 40
1.666666666666667
 50
209.99999999999622
 51
269.99999999999977
  0
ARC
  8
_0-b_細線3
  6
CONTINUOUS
 62
    7
 10
369.03841985135813
 20
275.3791248656762
 40
1.666666666666667
 50
29.999999999990862
 51
89.999999999984354
  0
LINE
  8
_0-b_細線3
  6
CONTINUOUS
 62
    7
 10
372.70508651618564
 20
275.3791248656762
 11
371.92517119730672
 21
275.3791248656762
  0
ARC
  8
_0-b_細線3
  6
CONTINUOUS
 62
    7
 10
356.20508651986455
 20
271.3791248656762
 40
0.8333333333333334
 50
179.99999999999983
 51
269.99999999999977
  0
LINE
  8
_0-b_細線3
  6
CONTINUOUS
 62
    7
 10
355.37175318653107
 20
273.71245819900923
 11
355.37175318653107
 21
271.3791248656762
  0
ARC
  8
_0-b_細線3
  6
CONTINUOUS
 62
    7
 10
373.53841984951913
 20
271.3791248656762
 40
0.8333333333333334
 50
269.99999999999977
 51
359.99999999999966
  0
LINE
  8
_0-b_細線3
  6
CONTINUOUS
 62
    7
 10
374.37175318285261
 20
273.71245819900923
 11
374.37175318285261
 21
271.3791248656762
  0
ARC
  8
_0-b_細線3
  6
CONTINUOUS
 62
    7
 10
360.37175318653107
 20
268.8791248656762
 40
1.666666666666667
 50
0
 51
89.999999999999915
  0
LINE
  8
_0-b_細線3
  6
CONTINUOUS
 62
    7
 10
360.37175318653107
 20
270.54579153234272
 11
356.20508651986455
 21
270.54579153234272
  0
ARC
  8
_0-b_細線3
  6
CONTINUOUS
 62
    7
 10
369.37175318653112
 20
268.8791248656762
 40
1.666666666666667
 50
89.999999999999915
 51
179.99999999999983
  0
LINE
  8
_0-b_細線3
  6
CONTINUOUS
 62
    7
 10
369.37175318285222
 20
270.54579153234272
 11
373.53841984951913
 21
270.54579153234272
  0
LINE
  8
_0-b_細線3
  6
CONTINUOUS
 62
    7
 10
369.03841985135813
 20
277.04579153234272
 11
360.70508651802515
 21
277.04579153234272
  0
LINE
  8
_0-b_細線3
  6
CONTINUOUS
 62
    7
 10
362.03841985135858
 20
243.71245819900923
 11
362.03841985319764
 21
268.8791248656762
  0
LINE
  8
_0-b_細線3
  6
CONTINUOUS
 62
    7
 10
367.7050865180251
 20
243.71245819900923
 11
367.70508651986455
 21
268.8791248656762
  0
LINE
  8
_0-b_細線3
  6
CONTINUOUS
 62
    7
 10
367.7050865180251
 20
243.71245819900923
 11
362.03841985135858
 21
243.71245819900923
  0
ARC
  8
_0-b_細線3
  6
CONTINUOUS
 62
    7
 10
328.0384198525951
 20
273.71245819900923
 40
1.666666666666667
 50
89.999999999999915
 51
179.99999999999983
  0
ARC
  8
_0-b_細線3
  6
CONTINUOUS
 62
    7
 10
328.81833517147408
 20
277.04579153234272
 40
1.666666666666667
 50
269.99999999999977
 51
329.99999999999523
  0
ARC
  8
_0-b_細線3
  6
CONTINUOUS
 62
    7
 10
331.70508651742216
 20
275.3791248656762
 40
1.666666666666667
 50
89.999999999999915
 51
150.00000000000915
  0
LINE
  8
_0-b_細線3
  6
CONTINUOUS
 62
    7
 10
328.0384198525951
 20
275.3791248656762
 11
328.81833517147408
 21
275.3791248656762
  0
ARC
  8
_0-b_細線3
  6
CONTINUOUS
 62
    7
 10
343.7050865155831
 20
273.71245819900923
 40
1.666666666666667
 50
0
 51
89.999999999999915
  0
ARC
  8
_0-b_細線3
  6
CONTINUOUS
 62
    7
 10
342.92517119670373
 20
277.04579153234272
 40
1.666666666666667
 50
210.00000000000404
 51
269.99999999999977
  0
ARC
  8
_0-b_細線3
  6
CONTINUOUS
 62
    7
 10
340.03841985075559
 20
275.3791248656762
 40
1.666666666666667
 50
29.999999999990862
 51
89.999999999999901
  0
LINE
  8
_0-b_細線3
  6
CONTINUOUS
 62
    7
 10
343.7050865155831
 20
275.3791248656762
 11
342.92517119670373
 21
275.3791248656762
  0
ARC
  8
_0-b_細線3
  6
CONTINUOUS
 62
    7
 10
327.20508651926161
 20
271.3791248656762
 40
0.8333333333333334
 50
179.99999999999983
 51
269.99999999999977
  0
LINE
  8
_0-b_細線3
  6
CONTINUOUS
 62
    7
 10
326.37175318592818
 20
273.71245819900923
 11
326.37175318592818
 21
271.3791248656762
  0
ARC
  8
_0-b_細線3
  6
CONTINUOUS
 62
    7
 10
344.53841984891659
 20
271.3791248656762
 40
0.8333333333333334
 50
269.99999999999977
 51
359.99999999999966
  0
LINE
  8
_0-b_細線3
  6
CONTINUOUS
 62
    7
 10
345.37175318224962
 20
273.71245819900923
 11
345.37175318224962
 21
271.3791248656762
  0
ARC
  8
_0-b_細線3
  6
CONTINUOUS
 62
    7
 10
331.37175318592818
 20
268.8791248656762
 40
1.666666666666667
 50
0
 51
89.999999999999915
  0
LINE
  8
_0-b_細線3
  6
CONTINUOUS
 62
    7
 10
331.37175318592818
 20
270.54579153234272
 11
327.20508651926161
 21
270.54579153234272
  0
ARC
  8
_0-b_細線3
  6
CONTINUOUS
 62
    7
 10
340.37175318592853
 20
268.8791248656762
 40
1.666666666666667
 50
89.999999999999915
 51
179.99999999999983
  0
LINE
  8
_0-b_細線3
  6
CONTINUOUS
 62
    7
 10
340.37175318224962
 20
270.54579153234272
 11
344.53841984891659
 21
270.54579153234272
  0
LINE
  8
_0-b_細線3
  6
CONTINUOUS
 62
    7
 10
340.03841985075559
 20
277.04579153234272
 11
331.70508651742216
 21
277.04579153234272
  0
LINE
  8
_0-b_細線3
  6
CONTINUOUS
 62
    7
 10
333.03841985075564
 20
243.71245819900923
 11
333.0384198525951
 21
268.8791248656762
  0
LINE
  8
_0-b_細線3
  6
CONTINUOUS
 62
    7
 10
338.70508651742216
 20
243.71245819900923
 11
338.70508651926161
 21
268.8791248656762
  0
LINE
  8
_0-b_細線3
  6
CONTINUOUS
 62
    7
 10
338.70508651742216
 20
243.71245819900923
 11
333.03841985075564
 21
243.71245819900923
  0
ARC
  8
_0-b_細線3
  6
CONTINUOUS
 62
    7
 10
613.37175319103812
 20
273.71245819900923
 40
1.666666666666667
 50
89.999999999999915
 51
179.99999999999983
  0
ARC
  8
_0-b_細線3
  6
CONTINUOUS
 62
    7
 10
614.1516685099175
 20
277.04579153234272
 40
1.666666666666667
 50
269.99999999999977
 51
329.99999999999523
  0
ARC
  8
_0-b_細線3
  6
CONTINUOUS
 62
    7
 10
617.03841985586519
 20
275.3791248656762
 40
1.666666666666667
 50
89.999999999999915
 51
150.00000000000134
  0
LINE
  8
_0-b_細線3
  6
CONTINUOUS
 62
    7
 10
613.37175319103812
 20
275.3791248656762
 11
614.1516685099175
 21
275.3791248656762
  0
ARC
  8
_0-b_細線3
  6
CONTINUOUS
 62
    7
 10
629.03841985402619
 20
273.71245819900923
 40
1.666666666666667
 50
0
 51
89.999999999999915
  0
ARC
  8
_0-b_細線3
  6
CONTINUOUS
 62
    7
 10
628.25850453514681
 20
277.04579153234272
 40
1.666666666666667
 50
210.00000000000404
 51
269.99999999999977
  0
ARC
  8
_0-b_細線3
  6
CONTINUOUS
 62
    7
 10
625.37175318919867
 20
275.3791248656762
 40
1.666666666666667
 50
29.999999999990862
 51
89.999999999984354
  0
LINE
  8
_0-b_細線3
  6
CONTINUOUS
 62
    7
 10
629.03841985402619
 20
275.3791248656762
 11
628.25850453514681
 21
275.3791248656762
  0
ARC
  8
_0-b_細線3
  6
CONTINUOUS
 62
    7
 10
612.53841985770464
 20
271.3791248656762
 40
0.8333333333333334
 50
179.99999999999983
 51
269.99999999999977
  0
LINE
  8
_0-b_細線3
  6
CONTINUOUS
 62
    7
 10
611.70508652437161
 20
273.71245819900923
 11
611.70508652437161
 21
271.3791248656762
  0
ARC
  8
_0-b_細線3
  6
CONTINUOUS
 62
    7
 10
629.87175318735967
 20
271.3791248656762
 40
0.8333333333333334
 50
269.99999999999977
 51
359.99999999999966
  0
LINE
  8
_0-b_細線3
  6
CONTINUOUS
 62
    7
 10
630.7050865206927
 20
273.71245819900923
 11
630.7050865206927
 21
271.3791248656762
  0
ARC
  8
_0-b_細線3
  6
CONTINUOUS
 62
    7
 10
616.70508652437161
 20
268.8791248656762
 40
1.666666666666667
 50
0
 51
89.999999999999915
  0
LINE
  8
_0-b_細線3
  6
CONTINUOUS
 62
    7
 10
616.70508652437161
 20
270.54579153234272
 11
612.53841985770464
 21
270.54579153234272
  0
ARC
  8
_0-b_細線3
  6
CONTINUOUS
 62
    7
 10
625.70508652437161
 20
268.8791248656762
 40
1.666666666666667
 50
89.999999999999915
 51
179.99999999999983
  0
LINE
  8
_0-b_細線3
  6
CONTINUOUS
 62
    7
 10
625.7050865206927
 20
270.54579153234272
 11
629.87175318735967
 21
270.54579153234272
  0
LINE
  8
_0-b_細線3
  6
CONTINUOUS
 62
    7
 10
625.37175318919867
 20
277.04579153234272
 11
617.03841985586519
 21
277.04579153234272
  0
LINE
  8
_0-b_細線3
  6
CONTINUOUS
 62
    7
 10
618.37175318919867
 20
243.71245819900923
 11
618.37175319103812
 21
268.8791248656762
  0
LINE
  8
_0-b_細線3
  6
CONTINUOUS
 62
    7
 10
624.03841985586564
 20
243.71245819900923
 11
624.03841985770509
 21
268.8791248656762
  0
LINE
  8
_0-b_細線3
  6
CONTINUOUS
 62
    7
 10
624.03841985586564
 20
243.71245819900923
 11
618.37175318919867
 21
243.71245819900923
  0
ARC
  8
_0-b_細線3
  6
CONTINUOUS
 62
    7
 10
642.37175319075163
 20
273.71245819900923
 40
1.666666666666667
 50
89.999999999999915
 51
179.99999999999983
  0
ARC
  8
_0-b_細線3
  6
CONTINUOUS
 62
    7
 10
643.15166850963112
 20
277.04579153234272
 40
1.666666666666667
 50
269.99999999999977
 51
329.99999999999523
  0
ARC
  8
_0-b_細線3
  6
CONTINUOUS
 62
    7
 10
646.03841985557915
 20
275.3791248656762
 40
1.666666666666667
 50
89.999999999999915
 51
150.00000000000915
  0
LINE
  8
_0-b_細線3
  6
CONTINUOUS
 62
    7
 10
642.37175319075163
 20
275.3791248656762
 11
643.15166850963112
 21
275.3791248656762
  0
ARC
  8
_0-b_細線3
  6
CONTINUOUS
 62
    7
 10
658.03841985373981
 20
273.71245819900923
 40
1.666666666666667
 50
0
 51
89.999999999999915
  0
ARC
  8
_0-b_細線3
  6
CONTINUOUS
 62
    7
 10
657.25850453486078
 20
277.04579153234272
 40
1.666666666666667
 50
209.99999999999622
 51
269.99999999999977
  0
ARC
  8
_0-b_細線3
  6
CONTINUOUS
 62
    7
 10
654.37175318891263
 20
275.3791248656762
 40
1.666666666666667
 50
29.999999999998682
 51
89.999999999999915
  0
LINE
  8
_0-b_細線3
  6
CONTINUOUS
 62
    7
 10
658.03841985373981
 20
275.3791248656762
 11
657.25850453486078
 21
275.3791248656762
  0
ARC
  8
_0-b_細線3
  6
CONTINUOUS
 62
    7
 10
641.5384198574186
 20
271.3791248656762
 40
0.8333333333333334
 50
179.99999999999983
 51
269.99999999999977
  0
LINE
  8
_0-b_細線3
  6
CONTINUOUS
 62
    7
 10
640.70508652408523
 20
273.71245819900923
 11
640.70508652408523
 21
271.3791248656762
  0
ARC
  8
_0-b_細線3
  6
CONTINUOUS
 62
    7
 10
658.87175318707318
 20
271.3791248656762
 40
0.8333333333333334
 50
269.99999999999977
 51
359.99999999999966
  0
LINE
  8
_0-b_細線3
  6
CONTINUOUS
 62
    7
 10
659.70508652040667
 20
273.71245819900923
 11
659.70508652040667
 21
271.3791248656762
  0
ARC
  8
_0-b_細線3
  6
CONTINUOUS
 62
    7
 10
645.70508652408523
 20
268.8791248656762
 40
1.666666666666667
 50
0
 51
89.999999999999915
  0
LINE
  8
_0-b_細線3
  6
CONTINUOUS
 62
    7
 10
645.70508652408523
 20
270.54579153234272
 11
641.5384198574186
 21
270.54579153234272
  0
ARC
  8
_0-b_細線3
  6
CONTINUOUS
 62
    7
 10
654.70508652408512
 20
268.8791248656762
 40
1.666666666666667
 50
89.999999999999915
 51
179.99999999999983
  0
LINE
  8
_0-b_細線3
  6
CONTINUOUS
 62
    7
 10
654.70508652040621
 20
270.54579153234272
 11
658.87175318707318
 21
270.54579153234272
  0
LINE
  8
_0-b_細線3
  6
CONTINUOUS
 62
    7
 10
654.37175318891263
 20
277.04579153234272
 11
646.03841985557915
 21
277.04579153234272
  0
LINE
  8
_0-b_細線3
  6
CONTINUOUS
 62
    7
 10
647.37175318891263
 20
243.71245819900923
 11
647.37175319075163
 21
268.8791248656762
  0
LINE
  8
_0-b_細線3
  6
CONTINUOUS
 62
    7
 10
653.03841985557926
 20
243.71245819900923
 11
653.03841985741872
 21
268.8791248656762
  0
LINE
  8
_0-b_細線3
  6
CONTINUOUS
 62
    7
 10
653.03841985557926
 20
243.71245819900923
 11
647.37175318891263
 21
243.71245819900923
  0
LINE
  8
_0-d_寸法3
  6
CONTINUOUS
 62
    7
 10
368.03841985316717
 20
233.71282320068758
 11
368.03841985316717
 21
173.23479796644875
  0
LINE
  8
_0-d_寸法3
  6
CONTINUOUS
 62
    7
 10
368.03841985316717
 20
178.23479796644875
 11
377.69767811605783
 21
180.82298841747388
  0
LINE
  8
_0-d_寸法3
  6
CONTINUOUS
 62
    7
 10
368.03841985316717
 20
178.23479796644875
 11
377.69767811605783
 21
175.64660751542348
  0
LINE
  8
_0-d_寸法3
  6
CONTINUOUS
 62
    7
 10
618.03841985316717
 20
233.71282320068758
 11
618.03841985316717
 21
173.23479796644875
  0
LINE
  8
_0-d_寸法3
  6
CONTINUOUS
 62
    7
 10
618.03841985316717
 20
178.23479796644875
 11
608.37916159027645
 21
175.64660751542348
  0
LINE
  8
_0-d_寸法3
  6
CONTINUOUS
 62
    7
 10
618.03841985316717
 20
178.23479796644875
 11
608.37916159027645
 21
180.82298841747394
  0
LINE
  8
_0-d_寸法3
  6
CONTINUOUS
 62
    7
 10
368.03841985316717
 20
178.23479796644875
 11
618.03841985316717
 21
178.23479796644875
  0
TEXT
  8
_0-d_寸法3
 62
    7
 10
481.78841985316717
 20
178.23479796644875
 40
15
 41
1
 50
0
  1
150
  0
LINE
  8
_0-a_極細3
  6
CONTINUOUS
 62
    7
 10
274.39835163268191
 20
188.59452436319117
 11
269.26804948279664
 21
202.68991367497989
  0
LINE
  8
_0-a_極細3
  6
CONTINUOUS
 62
    7
 10
324.39239430647837
 20
222.75353437422586
 11
329.52269645636312
 21
208.65814506243737
  0
LINE
  8
_0-a_極細3
  6
CONTINUOUS
 62
    7
 10
269.26804948279664
 20
202.68991367497989
 11
324.39239430647837
 21
222.75353437422609
  0
LINE
  8
_0-a_極細3
  6
CONTINUOUS
 62
    7
 10
274.39835163268191
 20
188.59452436319117
 11
329.52269645636312
 21
208.65814506243737
  0
LINE
  8
_0-a_極細3
  6
CENTER1
 62
    7
 10
266.8777671657466
 20
193.83858897905569
 11
330.9087876483124
 21
217.14397446409092
  0
LINE
  8
_0-a_極細3
  6
CONTINUOUS
 62
    7
 10
293.03841985316723
 20
163.71282320068758
 11
293.03841985316723
 21
207.79838454900371
  0
LINE
  8
_0-a_極細3
  6
CONTINUOUS
 62
    7
 10
293.03841985316723
 20
207.79838454900371
 11
278.03841985316723
 21
207.79838454900371
  0
LINE
  8
_0-a_極細3
  6
CONTINUOUS
 62
    7
 10
278.03841985316723
 20
207.79838454900371
 11
278.03841985316723
 21
163.71282320068758
  0
LINE
  8
_0-a_極細3
  6
CENTER1
 62
    7
 10
285.53841985316723
 20
155.43608291623471
 11
285.53841985316723
 21
212.07410471361325
  0
LINE
  8
_0-d_寸法3
  6
CONTINUOUS
 62
    7
 10
318.03841985316706
 20
190.37948986735429
 11
318.03841985316694
 21
173.23479796644889
  0
LINE
  8
_0-d_寸法3
  6
CONTINUOUS
 62
    7
 10
318.03841985316694
 20
178.23479796644889
 11
327.6976781160576
 21
180.82298841747416
  0
LINE
  8
_0-d_寸法3
  6
CONTINUOUS
 62
    7
 10
318.03841985316694
 20
178.23479796644889
 11
327.6976781160576
 21
175.64660751542377
  0
LINE
  8
_0-d_寸法3
  6
CONTINUOUS
 62
    7
 10
368.03841985316706
 20
228.71282320068758
 11
368.0384198531666
 21
173.23479796644889
  0
LINE
  8
_0-d_寸法3
  6
CONTINUOUS
 62
    7
 10
368.0384198531666
 20
178.23479796644889
 11
358.37916159027594
 21
175.64660751542377
  0
LINE
  8
_0-d_寸法3
  6
CONTINUOUS
 62
    7
 10
368.0384198531666
 20
178.23479796644889
 11
358.37916159027594
 21
180.82298841747416
  0
LINE
  8
_0-d_寸法3
  6
CONTINUOUS
 62
    7
 10
318.03841985316694
 20
178.23479796644889
 11
368.0384198531666
 21
178.23479796644889
  0
TEXT
  8
_0-d_寸法3
 62
    7
 10
335.53841985316683
 20
178.23479796644889
 40
15
 41
1
 50
0
  1
30
  0
LINE
  8
_0-a_極細3
  6
CONTINUOUS
 62
    7
 10
711.67848807365294
 20
188.59452436319117
 11
716.80879022353804
 21
202.68991367497989
  0
LINE
  8
_0-a_極細3
  6
CONTINUOUS
 62
    7
 10
661.68444539985649
 20
222.75353437422586
 11
656.55414324997173
 21
208.65814506243737
  0
LINE
  8
_0-a_極細3
  6
CONTINUOUS
 62
    7
 10
716.80879022353804
 20
202.68991367497989
 11
661.68444539985649
 21
222.75353437422609
  0
LINE
  8
_0-a_極細3
  6
CONTINUOUS
 62
    7
 10
711.67848807365294
 20
188.59452436319117
 11
656.55414324997173
 21
208.65814506243737
  0
LINE
  8
_0-a_極細3
  6
CENTER1
 62
    7
 10
719.1990725405883
 20
193.83858897905569
 11
655.16805205802245
 21
217.14397446409092
  0
LINE
  8
_0-a_極細3
  6
CONTINUOUS
 62
    7
 10
693.03841985316751
 20
163.71282320068758
 11
693.03841985316751
 21
207.79838454900371
  0
LINE
  8
_0-a_極細3
  6
CONTINUOUS
 62
    7
 10
708.03841985316751
 20
207.79838454900371
 11
708.03841985316751
 21
163.71282320068758
  0
LINE
  8
_0-a_極細3
  6
CENTER1
 62
    7
 10
700.53841985316751
 20
155.43608291623471
 11
700.53841985316751
 21
212.07410471361325
  0
LINE
  8
_0-d_寸法3
  6
CONTINUOUS
 62
    7
 10
668.03841985316785
 20
190.37948986735429
 11
668.03841985316797
 21
173.23479796644889
  0
LINE
  8
_0-d_寸法3
  6
CONTINUOUS
 62
    7
 10
668.03841985316797
 20
178.23479796644889
 11
658.37916159027714
 21
175.64660751542377
  0
LINE
  8
_0-d_寸法3
  6
CONTINUOUS
 62
    7
 10
668.03841985316797
 20
178.23479796644889
 11
658.37916159027714
 21
180.82298841747416
  0
LINE
  8
_0-d_寸法3
  6
CONTINUOUS
 62
    7
 10
618.03841985316785
 20
228.71282320068758
 11
618.03841985316808
 21
173.23479796644889
  0
LINE
  8
_0-d_寸法3
  6
CONTINUOUS
 62
    7
 10
618.03841985316808
 20
178.23479796644889
 11
627.6976781160588
 21
180.82298841747416
  0
LINE
  8
_0-d_寸法3
  6
CONTINUOUS
 62
    7
 10
618.03841985316808
 20
178.23479796644889
 11
627.6976781160588
 21
175.64660751542377
  0
LINE
  8
_0-d_寸法3
  6
CONTINUOUS
 62
    7
 10
668.03841985316797
 20
178.23479796644889
 11
618.03841985316808
 21
178.23479796644889
  0
TEXT
  8
_0-d_寸法3
 62
    7
 10
635.53841985316797
 20
178.23479796644889
 40
15
 41
1
 50
0.0000000000002714
  1
30
  0
LINE
  8
_0-a_極細3
  6
CONTINUOUS
 62
    7
 10
693.03841985316751
 20
207.79838454900371
 11
708.03841985316751
 21
207.79838454900371
  0
CIRCLE
  8
_0-a_極細3
  6
CONTINUOUS
 62
    7
 10
716.13113759739895
 20
215.3067571655879
 40
0.5530864197530718
  0
CIRCLE
  8
_0-a_極細3
  6
CONTINUOUS
 62
    7
 10
696.53113759739927
 20
220.90675716558781
 40
0.5530864197530718
  0
TEXT
  8
_0-7_枠細線
 62
    5
 10
965.49999999999977
 20
70
 40
20
 41
0.5999999999999998
 50
0
  1
色については品番表参照のこと
  0
TEXT
  8
_0-7_枠細線
 62
    5
 10
443.11637221393426
 20
93.712458199009205
 40
25
 41
0.8
 50
0
  1
断面詳細図
  0
TEXT
  8
_0-7_枠細線
 62
    5
 10
1310
 20
67.5
 40
15
 41
0.6666666666666666
 50
0
  1
２００９年０１月３０日
  0
TEXT
  8
_0-7_枠細線
 62
    5
 10
965.50000000000011
 20
110
 40
20
 41
0.6
 50
0
  1
ＧＲＳ－２０Ｗ２００　ＳＥＴ
  0
LINE
  8
_0-b_細線3
  6
CONTINUOUS
 62
    7
 10
538.37175318862637
 20
247.54579153234258
 11
561.03841985529334
 21
247.54579153234258
  0
LINE
  8
_0-b_細線3
  6
CONTINUOUS
 62
    7
 10
510.03841985468995
 20
247.54579153234258
 11
532.70508652135641
 21
247.54579153234258
  0
LINE
  8
_0-b_細線3
  6
CONTINUOUS
 62
    7
 10
453.37175318681744
 20
247.54579153234258
 11
476.03841985348396
 21
247.54579153234258
  0
LINE
  8
_0-b_細線3
  6
CONTINUOUS
 62
    7
 10
425.03841985288142
 20
247.54579153234258
 11
447.70508651954793
 21
247.54579153234258
  0
LINE
  8
_0-b_細線3
  6
CONTINUOUS
 62
    7
 10
396.70508651894443
 20
247.54579153234258
 11
419.37175318561145
 21
247.54579153234258
  0
LINE
  8
_0-b_細線3
  6
CONTINUOUS
 62
    7
 10
566.70508652224589
 20
247.54579153234258
 11
589.37175318891286
 21
247.54579153234258
  0
LINE
  8
_0-b_細線3
  6
CONTINUOUS
 62
    7
 10
367.70508651894443
 20
247.54579153234258
 11
391.03841985227797
 21
247.54579153234258
  0
LINE
  8
_0-b_細線3
  6
CONTINUOUS
 62
    7
 10
338.70508651834194
 20
247.54579153234258
 11
362.03841985227791
 21
247.54579153234258
  0
LINE
  8
_0-b_細線3
  6
CONTINUOUS
 62
    7
 10
595.03841985618192
 20
247.54579153234258
 11
618.37175318951586
 21
247.54579153234258
  0
LINE
  8
_0-b_細線3
  6
CONTINUOUS
 62
    7
 10
624.03841985646841
 20
247.54579153234258
 11
647.37175318980235
 21
247.54579153234258
  0
LINE
  8
_0-b_細線3
  6
CONTINUOUS
 62
    7
 10
538.3717531886266
 20
269.21245819900906
 11
561.03841985529311
 21
269.21245819900906
  0
LINE
  8
_0-b_細線3
  6
CONTINUOUS
 62
    7
 10
510.03841985469012
 20
269.21245819900906
 11
532.70508652135663
 21
269.21245819900906
  0
LINE
  8
_0-b_細線3
  6
CONTINUOUS
 62
    7
 10
453.37175318681761
 20
269.21245819900906
 11
476.03841985348413
 21
269.21245819900906
  0
LINE
  8
_0-b_細線3
  6
CONTINUOUS
 62
    7
 10
425.03841985288153
 20
269.21245819900906
 11
447.70508651954805
 21
269.21245819900906
  0
LINE
  8
_0-b_細線3
  6
CONTINUOUS
 62
    7
 10
396.70508651894465
 20
269.21245819900906
 11
419.37175318561162
 21
269.21245819900906
  0
LINE
  8
_0-b_細線3
  6
CONTINUOUS
 62
    7
 10
566.70508652224567
 20
269.21245819900906
 11
589.37175318891263
 21
269.21245819900906
  0
LINE
  8
_0-b_細線3
  6
CONTINUOUS
 62
    7
 10
367.7050865189446
 20
269.21245819900906
 11
391.03841985227808
 21
269.21245819900906
  0
LINE
  8
_0-b_細線3
  6
CONTINUOUS
 62
    7
 10
338.70508651834211
 20
269.21245819900906
 11
362.03841985227814
 21
269.21245819900906
  0
LINE
  8
_0-b_細線3
  6
CONTINUOUS
 62
    7
 10
595.03841985618214
 20
269.21245819900906
 11
618.37175318951563
 21
269.21245819900906
  0
LINE
  8
_0-b_細線3
  6
CONTINUOUS
 62
    7
 10
624.03841985646864
 20
269.21245819900906
 11
647.37175318980223
 21
269.21245819900906
  0
LINE
  8
_0-7_枠細線
  6
CONTINUOUS
 62
    5
 10
1425
 20
942.5
 11
890
 21
942.5
  0
TEXT
  8
_0-7_枠細線
 62
    5
 10
895
 20
945
 40
12.5
 41
1
 50
0
  1
記号
  0
TEXT
  8
_0-7_枠細線
 62
    5
 10
996.875
 20
945
 40
12.5
 41
1
 50
0
  1
訂　 正　 記　 事
  0
TEXT
  8
_0-7_枠細線
 62
    5
 10
1181.25
 20
945
 40
12.5
 41
1
 50
0
  1
訂 正 年 月 日
  0
TEXT
  8
_0-7_枠細線
 62
    5
 10
1306.25
 20
945
 40
12.5
 41
1
 50
0
  1
備　　　　　考
  0
LINE
  8
_0-7_枠細線
  6
CONTINUOUS
 62
    5
 10
1425
 20
925
 11
890
 21
925
  0
TEXT
  8
_0-7_枠細線
 62
    5
 10
938.85037037037023
 20
927.5
 40
12.5
 41
1
 50
0
  1
品番・色記号変更
  0
TEXT
  8
_0-7_枠細線
 62
    5
 10
1180
 20
927.5
 40
12.5
 41
0.7199999999999999
 50
0
  1
２０１３．０３．１３
  0
LINE
  8
_0-7_枠細線
  6
CONTINUOUS
 62
    5
 10
1425
 20
907.5
 11
890
 21
907.5
  0
LINE
  8
_0-7_枠細線
  6
CONTINUOUS
 62
    5
 10
1425
 20
890
 11
890
 21
890
  0
TEXT
  8
_0-7_枠細線
 62
    5
 10
938.85037037037023
 20
910
 40
12.5
 41
1
 50
0
  1
クロスバーピッチ変更
  0
TEXT
  8
_0-7_枠細線
 62
    5
 10
938.85037037037023
 20
892.5
 40
12.5
 41
1
 50
0
  1
取外具形状変更
  0
TEXT
  8
_0-7_枠細線
 62
    5
 10
1180
 20
910
 40
12.5
 41
0.7199999999999999
 50
0
  1
２０１５．１１．２０
  0
LINE
  8
_0-7_枠細線
  6
CONTINUOUS
 62
    5
 10
915
 20
908.94233397174685
 11
907.5
 21
923.94233397174685
  0
LINE
  8
_0-7_枠細線
  6
CONTINUOUS
 62
    5
 10
900
 20
908.94233397174685
 11
915
 21
908.94233397174685
  0
LINE
  8
_0-7_枠細線
  6
CONTINUOUS
 62
    5
 10
907.5
 20
923.94233397174685
 11
900
 21
908.94233397174685
  0
TEXT
  8
_0-7_枠細線
 62
    5
 10
902.36515126814822
 20
908.63533172636664
 40
12.5
 41
0.8
 50
0
  1
１
  0
TEXT
  8
_0-7_枠細線
 62
    5
 10
902.36515126814822
 20
891.13533172636664
 40
12.5
 41
0.8
 50
0
  1
２
  0
LINE
  8
_0-7_枠細線
  6
CONTINUOUS
 62
    5
 10
1425
 20
872.5
 11
890
 21
872.5
  0
LINE
  8
_0-7_枠細線
  6
CONTINUOUS
 62
    5
 10
907.5
 20
906.44233397174685
 11
900
 21
891.44233397174685
  0
LINE
  8
_0-7_枠細線
  6
CONTINUOUS
 62
    5
 10
900
 20
891.44233397174685
 11
915
 21
891.44233397174685
  0
LINE
  8
_0-7_枠細線
  6
CONTINUOUS
 62
    5
 10
915
 20
891.44233397174685
 11
907.5
 21
906.44233397174685
  0
TEXT
  8
_0-7_枠細線
 62
    5
 10
902.36515126814822
 20
873.39465008156549
 40
12.5
 41
0.8
 50
0
  1
３
  0
TEXT
  8
_0-7_枠細線
 62
    5
 10
1180
 20
875
 40
12.5
 41
0.7199999999999999
 50
0
  1
２０１７．０４．０１
  0
LINE
  8
_0-7_枠細線
  6
CONTINUOUS
 62
    5
 10
915
 20
856.44233397174685
 11
907.5
 21
871.44233397174685
  0
LINE
  8
_0-7_枠細線
  6
CONTINUOUS
 62
    5
 10
900
 20
856.44233397174685
 11
915
 21
856.44233397174685
  0
LINE
  8
_0-7_枠細線
  6
CONTINUOUS
 62
    5
 10
907.5
 20
871.44233397174685
 11
900
 21
856.44233397174685
  0
TEXT
  8
_0-7_枠細線
 62
    5
 10
1180
 20
857.5
 40
12.5
 41
0.7199999999999999
 50
0
  1
２０１７．０４．０１
  0
TEXT
  8
_0-7_枠細線
 62
    5
 10
938.85037037037023
 20
857.5
 40
12.5
 41
1
 50
0
  1
ブラウン色（Ｃ）追加
  0
LINE
  8
_0-7_枠細線
  6
CONTINUOUS
 62
    5
 10
1425
 20
855
 11
890
 21
855
  0
LINE
  8
_0-7_枠細線
  6
CONTINUOUS
 62
    5
 10
907.5
 20
888.94233397174685
 11
900
 21
873.94233397174685
  0
LINE
  8
_0-7_枠細線
  6
CONTINUOUS
 62
    5
 10
900
 20
873.94233397174685
 11
915
 21
873.94233397174685
  0
LINE
  8
_0-7_枠細線
  6
CONTINUOUS
 62
    5
 10
915
 20
873.94233397174685
 11
907.5
 21
888.94233397174685
  0
TEXT
  8
_0-7_枠細線
 62
    5
 10
902.36515126814822
 20
855.49351400689704
 40
12.5
 41
0.8
 50
0
  1
４
  0
TEXT
  8
_0-7_枠細線
 62
    5
 10
938.85037037037023
 20
875
 40
12.5
 41
1
 50
0
  1
取外具形状変更
  0
TEXT
  8
_0-7_枠細線
 62
    5
 10
1180
 20
892.5
 40
12.5
 41
0.7199999999999999
 50
0
  1
２０１５．１１．２０
  0
ARC
  8
_0-b_細線3
  6
CONTINUOUS
 62
    7
 10
471.03841985500657
 20
273.71245819900923
 40
1.666666666666667
 50
89.999999999999915
 51
179.99999999999983
  0
ARC
  8
_0-b_細線3
  6
CONTINUOUS
 62
    7
 10
471.818335173886
 20
277.04579153234272
 40
1.666666666666667
 50
269.99999999999977
 51
329.99999999999523
  0
ARC
  8
_0-b_細線3
  6
CONTINUOUS
 62
    7
 10
474.70508651983408
 20
275.3791248656762
 40
1.666666666666667
 50
89.999999999999915
 51
150.00000000000915
  0
LINE
  8
_0-b_細線3
  6
CONTINUOUS
 62
    7
 10
471.03841985500657
 20
275.3791248656762
 11
471.818335173886
 21
275.3791248656762
  0
ARC
  8
_0-b_細線3
  6
CONTINUOUS
 62
    7
 10
486.70508651799508
 20
273.71245819900923
 40
1.666666666666667
 50
0
 51
89.999999999999915
  0
ARC
  8
_0-b_細線3
  6
CONTINUOUS
 62
    7
 10
485.92517119911577
 20
277.04579153234272
 40
1.666666666666667
 50
210.00000000000404
 51
269.99999999999977
  0
ARC
  8
_0-b_細線3
  6
CONTINUOUS
 62
    7
 10
483.03841985316757
 20
275.3791248656762
 40
1.666666666666667
 50
29.999999999990862
 51
89.999999999999901
  0
LINE
  8
_0-b_細線3
  6
CONTINUOUS
 62
    7
 10
486.70508651799508
 20
275.3791248656762
 11
485.92517119911577
 21
275.3791248656762
  0
ARC
  8
_0-b_細線3
  6
CONTINUOUS
 62
    7
 10
470.20508652167359
 20
271.3791248656762
 40
0.8333333333333334
 50
179.99999999999983
 51
269.99999999999977
  0
LINE
  8
_0-b_細線3
  6
CONTINUOUS
 62
    7
 10
469.37175318834011
 20
273.71245819900923
 11
469.37175318834011
 21
271.3791248656762
  0
ARC
  8
_0-b_細線3
  6
CONTINUOUS
 62
    7
 10
487.53841985132857
 20
271.3791248656762
 40
0.8333333333333334
 50
269.99999999999977
 51
359.99999999999966
  0
LINE
  8
_0-b_細線3
  6
CONTINUOUS
 62
    7
 10
488.37175318466166
 20
273.71245819900923
 11
488.37175318466166
 21
271.3791248656762
  0
ARC
  8
_0-b_細線3
  6
CONTINUOUS
 62
    7
 10
474.37175318834011
 20
268.8791248656762
 40
1.666666666666667
 50
0
 51
89.999999999999915
  0
LINE
  8
_0-b_細線3
  6
CONTINUOUS
 62
    7
 10
474.37175318834011
 20
270.54579153234272
 11
470.20508652167359
 21
270.54579153234272
  0
ARC
  8
_0-b_細線3
  6
CONTINUOUS
 62
    7
 10
483.37175318834005
 20
268.8791248656762
 40
1.666666666666667
 50
89.999999999999915
 51
179.99999999999983
  0
LINE
  8
_0-b_細線3
  6
CONTINUOUS
 62
    7
 10
483.37175318466115
 20
270.54579153234272
 11
487.53841985132857
 21
270.54579153234272
  0
LINE
  8
_0-b_細線3
  6
CONTINUOUS
 62
    7
 10
483.03841985316757
 20
277.04579153234272
 11
474.70508651983408
 21
277.04579153234272
  0
LINE
  8
_0-b_細線3
  6
CONTINUOUS
 62
    7
 10
476.03841985316762
 20
243.71245819900923
 11
476.03841985500657
 21
268.8791248656762
  0
LINE
  8
_0-b_細線3
  6
CONTINUOUS
 62
    7
 10
481.70508651983414
 20
243.71245819900923
 11
481.70508652167359
 21
268.8791248656762
  0
LINE
  8
_0-b_細線3
  6
CONTINUOUS
 62
    7
 10
481.70508651983414
 20
243.71245819900923
 11
476.03841985316762
 21
243.71245819900923
  0
LINE
  8
_0-b_細線3
  6
CONTINUOUS
 62
    7
 10
496.95508651983459
 20
269.21245819900906
 11
504.37175318742055
 21
269.21245819900906
  0
LINE
  8
_0-b_細線3
  6
CONTINUOUS
 62
    7
 10
481.70508652169787
 20
269.21245819900906
 11
489.12175318650065
 21
269.21245819900906
  0
LINE
  8
_0-b_細線3
  6
CONTINUOUS
 62
    7
 10
496.95508651983459
 20
247.54579153234258
 11
504.37175318742044
 21
247.54579153234258
  0
LINE
  8
_0-b_細線3
  6
CONTINUOUS
 62
    7
 10
481.70508652008999
 20
247.54579153234258
 11
489.12175318650065
 21
247.54579153234258
  0
LINE
  8
_0-7_枠細線
  6
CONTINUOUS
 62
    5
 10
1074.9999999999998
 20
480.00000000000028
 11
1074.9999999999998
 21
560.00000000000023
  0
TEXT
  8
_0-7_枠細線
 62
    5
 10
1097.4999999999998
 20
537.50000000000023
 40
15
 41
1
 50
0
  1
耐荷重
  0
TEXT
  8
_0-7_枠細線
 62
    5
 10
1089.9999999999998
 20
507.50000000000028
 40
15
 41
1
 50
0
  1
3.5kN/㎡
  0
TEXT
  8
_0-7_枠細線
 62
    5
 10
1082.4999999999998
 20
487.50000000000028
 40
15
 41
1
 50
0
  1
（歩道用）
  0
LINE
  8
_0-7_枠細線
  6
CONTINUOUS
 62
    5
 10
1164.9999999999998
 20
480.00000000000028
 11
1164.9999999999998
 21
560.00000000000023
  0
TEXT
  8
_0-7_枠細線
 62
    5
 10
1187.4999999999998
 20
537.50000000000023
 40
15
 41
1
 50
0
  1
蓋重量
  0
LINE
  8
_0-7_枠細線
  6
CONTINUOUS
 62
    5
 10
1254.9999999999998
 20
480.00000000000028
 11
1254.9999999999998
 21
560.00000000000023
  0
TEXT
  8
_0-7_枠細線
 62
    5
 10
1277.4999999999998
 20
537.50000000000023
 40
15
 41
1
 50
0
  1
枠重量
  0
LINE
  8
_0-7_枠細線
  6
CONTINUOUS
 62
    5
 10
1074.9999999999998
 20
530.00000000000023
 11
1344.9999999999998
 21
530.00000000000023
  0
LINE
  8
_0-7_枠細線
  6
CONTINUOUS
 62
    5
 10
1074.9999999999998
 20
560.00000000000023
 11
1344.9999999999998
 21
560.00000000000023
  0
LINE
  8
_0-7_枠細線
  6
CONTINUOUS
 62
    5
 10
1074.9999999999998
 20
480.00000000000028
 11
1344.9999999999998
 21
480.00000000000028
  0
LINE
  8
_0-7_枠細線
  6
CONTINUOUS
 62
    5
 10
1344.9999999999998
 20
480.00000000000028
 11
1344.9999999999998
 21
560.00000000000023
  0
LINE
  8
_0-7_枠細線
  6
CONTINUOUS
 62
    5
 10
1075
 20
300.00000000000034
 11
1375.0000000000002
 21
300.00000000000034
  0
LINE
  8
_0-7_枠細線
  6
CONTINUOUS
 62
    5
 10
1075
 20
325.00000000000028
 11
1375.0000000000002
 21
325.00000000000028
  0
LINE
  8
_0-7_枠細線
  6
CONTINUOUS
 62
    5
 10
1075
 20
350.00000000000028
 11
1375.0000000000002
 21
350.00000000000028
  0
LINE
  8
_0-7_枠細線
  6
CONTINUOUS
 62
    5
 10
1075
 20
375.00000000000045
 11
1375.0000000000002
 21
375.00000000000045
  0
TEXT
  8
_0-7_枠細線
 62
    5
 10
1198.0000000000005
 20
380.00000000000045
 40
15
 41
0.5999999999999999
 50
0
  1
ライトグレー
  0
LINE
  8
_0-7_枠細線
  6
CONTINUOUS
 62
    5
 10
1075
 20
400.00000000000028
 11
1375.0000000000002
 21
400.00000000000028
  0
TEXT
  8
_0-7_枠細線
 62
    5
 10
1207.0000000000005
 20
405.00000000000023
 40
15
 41
0.5999999999999999
 50
0
  1
ベージュ
  0
LINE
  8
_0-7_枠細線
  6
CONTINUOUS
 62
    5
 10
1075
 20
425.00000000000023
 11
1375.0000000000002
 21
425.00000000000023
  0
TEXT
  8
_0-7_枠細線
 62
    5
 10
1219.0000000000005
 20
430.00000000000023
 40
15
 41
0.8000000000000001
 50
0
  1
色
  0
TEXT
  8
_0-7_枠細線
 62
    5
 10
1101.0000000000002
 20
430.00000000000023
 40
15
 41
0.8000000000000001
 50
0
  1
品　　番
  0
TEXT
  8
_0-7_枠細線
 62
    5
 10
1301.0000000000002
 20
430.00000000000023
 40
15
 41
0.8000000000000001
 50
0
  1
備　　考
  0
LINE
  8
_0-7_枠細線
  6
CONTINUOUS
 62
    5
 10
1075
 20
450.00000000000023
 11
1375.0000000000002
 21
450.00000000000023
  0
TEXT
  8
_0-7_枠細線
 62
    5
 10
1163.75
 20
455.00000000000023
 40
17.5
 41
1
 50
0
  1
品番表
  0
LINE
  8
_0-7_枠細線
  6
CONTINUOUS
 62
    5
 10
1075
 20
225.00000000000011
 11
1375.0000000000002
 21
225.00000000000011
  0
LINE
  8
_0-7_枠細線
  6
CONTINUOUS
 62
    5
 10
1075
 20
250.00000000000034
 11
1375.0000000000002
 21
250.00000000000034
  0
LINE
  8
_0-7_枠細線
  6
CONTINUOUS
 62
    5
 10
1075
 20
275.00000000000045
 11
1375.0000000000002
 21
275.00000000000045
  0
TEXT
  8
_0-7_枠細線
 62
    5
 10
1207.0000000000009
 20
355.00000000000045
 40
15
 41
0.5999999999999999
 50
0
  1
ホワイト
  0
TEXT
  8
_0-7_枠細線
 62
    5
 10
1211.5000000000005
 20
330.00000000000028
 40
15
 41
0.5999999999999999
 50
0
  1
ピンク
  0
TEXT
  8
_0-7_枠細線
 62
    5
 10
1211.5000000000005
 20
305.00000000000028
 40
15
 41
0.5999999999999999
 50
0
  1
ブルー
  0
TEXT
  8
_0-7_枠細線
 62
    5
 10
1198
 20
280.00000000000034
 40
15
 41
0.5999999999999999
 50
0
  1
ダークグレー
  0
TEXT
  8
_0-7_枠細線
 62
    5
 10
1211.5000000000005
 20
255.00000000000043
 40
15
 41
0.5999999999999999
 50
0
  1
ウッド
  0
LINE
  8
_0-7_枠細線
  6
CONTINUOUS
 62
    5
 10
1075
 20
199.99999999999986
 11
1375.0000000000002
 21
199.99999999999986
  0
TEXT
  8
_0-7_枠細線
 62
    5
 10
1207.0000000000009
 20
204.99999999999986
 40
15
 41
0.5999999999999999
 50
0
  1
ブラック
  0
LINE
  8
_0-7_枠細線
  6
CONTINUOUS
 62
    5
 10
1375.0000000000002
 20
450.00000000000023
 11
1375.0000000000002
 21
199.99999999999977
  0
LINE
  8
_0-7_枠細線
  6
CONTINUOUS
 62
    5
 10
1275
 20
450.00000000000023
 11
1275
 21
199.99999999999977
  0
LINE
  8
_0-7_枠細線
  6
CONTINUOUS
 62
    5
 10
1175.0000000000005
 20
450.00000000000023
 11
1175.0000000000005
 21
199.99999999999977
  0
LINE
  8
_0-7_枠細線
  6
CONTINUOUS
 62
    5
 10
1075
 20
450.00000000000023
 11
1075
 21
199.99999999999977
  0
TEXT
  8
_0-7_枠細線
 62
    5
 10
1207.0000000000005
 20
230.00000000000014
 40
15
 41
0.5999999999999999
 50
0
  1
ブラウン
  0
LINE
  8
_0-7_枠細線
  6
CONTINUOUS
 62
    5
 10
1068.5276246655551
 20
230.57604122127321
 11
1061.0276246655551
 21
245.57604122127321
  0
LINE
  8
_0-7_枠細線
  6
CONTINUOUS
 62
    5
 10
1053.5276246655551
 20
230.57604122127321
 11
1068.5276246655551
 21
230.57604122127321
  0
LINE
  8
_0-7_枠細線
  6
CONTINUOUS
 62
    5
 10
1061.0276246655551
 20
245.57604122127321
 11
1053.5276246655551
 21
230.57604122127321
  0
TEXT
  8
_0-7_枠細線
 62
    5
 10
1055.8927759337032
 20
229.6272212564233
 40
12.5
 41
0.8
 50
0
  1
４
  0
TEXT
  8
_0-7_枠細線
 62
    5
 10
1080.0000000000002
 20
405.00000000000023
 40
15
 41
0.5
 50
0
  1
ＧＲＳ－２０Ｗ２００－Ｂ
  0
TEXT
  8
_0-7_枠細線
 62
    5
 10
1080.0000000000002
 20
380.00000000000028
 40
15
 41
0.5
 50
0
  1
ＧＲＳ－２０Ｗ２００－Ｇ
  0
TEXT
  8
_0-7_枠細線
 62
    5
 10
1080.0000000000002
 20
355.00000000000045
 40
15
 41
0.5
 50
0
  1
ＧＲＳ－２０Ｗ２００－Ｓ
  0
TEXT
  8
_0-7_枠細線
 62
    5
 10
1080.0000000000002
 20
330.00000000000028
 40
15
 41
0.5
 50
0
  1
ＧＲＳ－２０Ｗ２００－Ｐ
  0
TEXT
  8
_0-7_枠細線
 62
    5
 10
1080.0000000000002
 20
280.00000000000034
 40
15
 41
0.5
 50
0
  1
ＧＲＳ－２０Ｗ２００－Ｄ
  0
TEXT
  8
_0-7_枠細線
 62
    5
 10
1080.0000000000002
 20
305.00000000000028
 40
15
 41
0.5
 50
0
  1
ＧＲＳ－２０Ｗ２００－Ａ
  0
TEXT
  8
_0-7_枠細線
 62
    5
 10
1080.0000000000002
 20
255.00000000000043
 40
15
 41
0.5
 50
0
  1
ＧＲＳ－２０Ｗ２００－Ｍ
  0
TEXT
  8
_0-7_枠細線
 62
    5
 10
1080.0000000000002
 20
230.00000000000014
 40
15
 41
0.5
 50
0
  1
ＧＲＳ－２０Ｗ２００－Ｃ
  0
TEXT
  8
_0-7_枠細線
 62
    5
 10
1080.0000000000002
 20
204.99999999999986
 40
15
 41
0.5
 50
0
  1
ＧＲＳ－２０Ｗ２００－Ｋ
  0
LINE
  8
_0-7_枠細線
  6
CONTINUOUS
 62
    5
 10
915
 20
838.94233397174685
 11
907.5
 21
853.94233397174685
  0
LINE
  8
_0-7_枠細線
  6
CONTINUOUS
 62
    5
 10
900
 20
838.94233397174685
 11
915
 21
838.94233397174685
  0
LINE
  8
_0-7_枠細線
  6
CONTINUOUS
 62
    5
 10
907.5
 20
853.94233397174685
 11
900
 21
838.94233397174685
  0
LINE
  8
_0-7_枠細線
  6
CONTINUOUS
 62
    5
 10
1425
 20
837.5
 11
890
 21
837.5
  0
TEXT
  8
_0-7_枠細線
 62
    5
 10
902.36515126814822
 20
837.99351400689704
 40
12.5
 41
0.8
 50
0
  1
５
  0
TEXT
  8
_0-7_枠細線
 62
    5
 10
1180
 20
840
 40
12.5
 41
0.7199999999999999
 50
0
  1
２０１９．０９．０１
  0
LINE
  8
_0-9_枠極太
  6
CONTINUOUS
 62
    5
 10
60
 20
60
 11
60
 21
960
  0
LINE
  8
_0-9_枠極太
  6
CONTINUOUS
 62
    5
 10
60
 20
960
 11
1425
 21
960
  0
LINE
  8
_0-9_枠極太
  6
CONTINUOUS
 62
    5
 10
1425
 20
960
 11
1425
 21
60
  0
LINE
  8
_0-9_枠極太
  6
CONTINUOUS
 62
    5
 10
1425
 20
60
 11
60
 21
60
  0
LINE
  8
_0-b_細線3
  6
CONTINUOUS
 62
    7
 10
318.03841985316723
 20
258.71282320068758
 11
318.03841985316723
 21
200.37948986735429
  0
LINE
  8
_0-b_細線3
  6
CONTINUOUS
 62
    7
 10
318.03841985316723
 20
200.37948986735429
 11
314.2050865198338
 21
200.37948986735429
  0
LINE
  8
_0-b_細線3
  6
CONTINUOUS
 62
    7
 10
314.2050865198338
 20
200.37948986735429
 11
314.2050865198338
 21
258.71282320068758
  0
LINE
  8
_0-b_細線3
  6
CONTINUOUS
 62
    7
 10
314.2050865198338
 20
258.71282320068758
 11
318.03841985316723
 21
258.71282320068758
  0
LINE
  8
_0-a_極細3
  6
CONTINUOUS
 62
    7
 10
314.2050865198338
 20
232.04615653402098
 11
318.03841985316723
 21
232.04615653402098
  0
LINE
  8
_0-a_極細3
  6
CONTINUOUS
 62
    7
 10
314.2050865198338
 20
235.37948986735432
 11
318.03841985316723
 21
235.37948986735432
  0
LINE
  8
_0-a_極細3
  6
CONTINUOUS
 62
    7
 10
314.2050865198338
 20
228.71282320068758
 11
318.03841985316723
 21
228.71282320068758
  0
LINE
  8
_0-a_極細3
  6
CONTINUOUS
 62
    7
 10
314.2050865198338
 20
238.71282320068758
 11
318.03841985316723
 21
238.71282320068758
  0
LINE
  8
_0-a_極細3
  6
CONTINUOUS
 62
    7
 10
318.03841985316723
 20
205.37948986735432
 11
314.2050865198338
 21
205.37948986735432
  0
LINE
  8
_0-a_極細3
  6
CONTINUOUS
 62
    7
 10
314.2050865198338
 20
255.37948986735432
 11
318.03841985316723
 21
255.37948986735432
  0
LINE
  8
_0-b_細線3
  6
CONTINUOUS
 62
    7
 10
668.03841985316762
 20
258.71282320068758
 11
668.03841985316762
 21
200.37948986735429
  0
LINE
  8
_0-b_細線3
  6
CONTINUOUS
 62
    7
 10
668.03841985316762
 20
200.37948986735429
 11
671.87175318650111
 21
200.37948986735429
  0
LINE
  8
_0-b_細線3
  6
CONTINUOUS
 62
    7
 10
671.87175318650111
 20
200.37948986735429
 11
671.87175318650111
 21
258.71282320068758
  0
LINE
  8
_0-b_細線3
  6
CONTINUOUS
 62
    7
 10
671.87175318650111
 20
258.71282320068758
 11
668.03841985316762
 21
258.71282320068758
  0
LINE
  8
_0-a_極細3
  6
CONTINUOUS
 62
    7
 10
671.87175318650111
 20
232.04615653402098
 11
668.03841985316762
 21
232.04615653402098
  0
LINE
  8
_0-a_極細3
  6
CONTINUOUS
 62
    7
 10
671.87175318650111
 20
235.37948986735432
 11
668.03841985316762
 21
235.37948986735432
  0
LINE
  8
_0-a_極細3
  6
CONTINUOUS
 62
    7
 10
671.87175318650111
 20
228.71282320068758
 11
668.03841985316762
 21
228.71282320068758
  0
LINE
  8
_0-a_極細3
  6
CONTINUOUS
 62
    7
 10
671.87175318650111
 20
238.71282320068758
 11
668.03841985316762
 21
238.71282320068758
  0
LINE
  8
_0-a_極細3
  6
CONTINUOUS
 62
    7
 10
668.03841985316762
 20
205.37948986735432
 11
671.87175318650111
 21
205.37948986735432
  0
LINE
  8
_0-a_極細3
  6
CONTINUOUS
 62
    7
 10
671.87175318650111
 20
255.37948986735432
 11
668.03841985316762
 21
255.37948986735432
  0
LINE
  8
_0-7_枠細線
  6
CONTINUOUS
 62
    5
 10
689.80247002712326
 20
248.04614500062752
 11
682.30247002712326
 21
263.04614500062746
  0
LINE
  8
_0-7_枠細線
  6
CONTINUOUS
 62
    5
 10
674.80247002712326
 20
248.04614500062752
 11
689.80247002712326
 21
248.04614500062752
  0
LINE
  8
_0-7_枠細線
  6
CONTINUOUS
 62
    5
 10
682.30247002712326
 20
263.04614500062746
 11
674.80247002712326
 21
248.04614500062752
  0
TEXT
  8
_0-7_枠細線
 62
    5
 10
677.16762129527137
 20
247.09732503577757
 40
12.5
 41
0.8
 50
0
  1
５
  0
ARC
  8
_0-0_計極細
  6
CONTINUOUS
 62
    2
 10
204.60950240667813
 20
742.59999999999991
 40
11.295514677412786
 50
138.39585046827494
 51
221.60414953172469
  0
ARC
  8
_0-0_計極細
  6
CONTINUOUS
 62
    2
 10
187.71706009330757
 20
727.59999999999866
 40
11.295514677412786
 50
318.39585046827455
 51
41.604149531723962
  0
ARC
  8
_0-0_計極細
  6
CONTINUOUS
 62
    2
 10
204.60950240667813
 20
562.59999999999991
 40
11.295514677412786
 50
138.39585046827494
 51
221.60414953172469
  0
ARC
  8
_0-0_計極細
  6
CONTINUOUS
 62
    2
 10
187.71706009330771
 20
547.59999999999854
 40
11.295514677412786
 50
318.39585046827455
 51
41.604149531724723
  0
LINE
  8
_0-1_計細線
  6
CONTINUOUS
 62
    3
 10
196.16328124999242
 20
570.10000000000127
 11
217.66328124999362
 21
570.10000000000127
  0
LINE
  8
_0-1_計細線
  6
CONTINUOUS
 62
    3
 10
196.16328124999228
 20
720.09999999999991
 11
217.66328124999362
 21
720.09999999999991
  0
ARC
  8
_0-0_計極細
  6
CONTINUOUS
 62
    2
 10
830.60950240667876
 20
742.59999999999991
 40
11.295514677412786
 50
138.39585046827415
 51
221.60414953172548
  0
ARC
  8
_0-0_計極細
  6
CONTINUOUS
 62
    2
 10
813.71706009330853
 20
727.59999999999866
 40
11.295514677412786
 50
318.39585046827534
 51
41.604149531723962
  0
ARC
  8
_0-0_計極細
  6
CONTINUOUS
 62
    2
 10
830.60950240667876
 20
562.59999999999991
 40
11.295514677412786
 50
138.39585046827415
 51
221.60414953172548
  0
ARC
  8
_0-0_計極細
  6
CONTINUOUS
 62
    2
 10
813.71706009330853
 20
547.59999999999854
 40
11.295514677412786
 50
318.39585046827534
 51
41.604149531723962
  0
LINE
  8
_0-1_計細線
  6
CONTINUOUS
 62
    3
 10
800.66328124999359
 20
570.10000000000127
 11
822.16328124999359
 21
570.10000000000127
  0
LINE
  8
_0-1_計細線
  6
CONTINUOUS
 62
    3
 10
800.66328124999359
 20
720.09999999999991
 11
822.16328124999359
 21
720.09999999999991
  0
LINE
  8
_0-1_計細線
  6
CONTINUOUS
 62
    3
 10
217.66328124999362
 20
579.90000000000055
 11
800.66328124999359
 21
579.90000000000055
  0
LINE
  8
_0-1_計細線
  6
CONTINUOUS
 62
    3
 10
217.66328124999362
 20
591.30000000000109
 11
800.66328124999359
 21
591.30000000000109
  0
LINE
  8
_0-1_計細線
  6
CONTINUOUS
 62
    3
 10
217.66328124999362
 20
579.90000000000055
 11
217.66328124999362
 21
591.30000000000109
  0
LINE
  8
_0-1_計細線
  6
CONTINUOUS
 62
    3
 10
800.66328124999359
 20
579.90000000000055
 11
800.66328124999359
 21
591.30000000000109
  0
LINE
  8
_0-0_計極細
  6
CONTINUOUS
 62
    2
 10
217.66328124999362
 20
588.10000000000127
 11
800.66328124999359
 21
588.10000000000127
  0
LINE
  8
_0-0_計極細
  6
CONTINUOUS
 62
    2
 10
217.66328124999362
 20
583.10000000000127
 11
800.66328124999359
 21
583.10000000000127
  0
LINE
  8
_0-1_計細線
  6
CONTINUOUS
 62
    3
 10
217.66328124999362
 20
596.90000000000146
 11
800.66328124999359
 21
596.90000000000146
  0
LINE
  8
_0-1_計細線
  6
CONTINUOUS
 62
    3
 10
217.66328124999362
 20
608.300000000002
 11
800.66328124999359
 21
608.300000000002
  0
LINE
  8
_0-1_計細線
  6
CONTINUOUS
 62
    3
 10
217.66328124999362
 20
596.90000000000146
 11
217.66328124999362
 21
608.300000000002
  0
LINE
  8
_0-1_計細線
  6
CONTINUOUS
 62
    3
 10
800.66328124999359
 20
596.90000000000146
 11
800.66328124999359
 21
608.300000000002
  0
LINE
  8
_0-0_計極細
  6
CONTINUOUS
 62
    2
 10
217.66328124999362
 20
605.10000000000173
 11
800.66328124999359
 21
605.10000000000173
  0
LINE
  8
_0-0_計極細
  6
CONTINUOUS
 62
    2
 10
217.66328124999362
 20
600.10000000000173
 11
800.66328124999359
 21
600.10000000000173
  0
LINE
  8
_0-1_計細線
  6
CONTINUOUS
 62
    3
 10
217.66328124999362
 20
613.90000000000236
 11
800.66328124999359
 21
613.90000000000236
  0
LINE
  8
_0-1_計細線
  6
CONTINUOUS
 62
    3
 10
217.66328124999362
 20
625.30000000000291
 11
800.66328124999359
 21
625.30000000000291
  0
LINE
  8
_0-1_計細線
  6
CONTINUOUS
 62
    3
 10
217.66328124999362
 20
613.90000000000236
 11
217.66328124999362
 21
625.30000000000291
  0
LINE
  8
_0-1_計細線
  6
CONTINUOUS
 62
    3
 10
800.66328124999359
 20
613.90000000000236
 11
800.66328124999359
 21
625.30000000000291
  0
LINE
  8
_0-0_計極細
  6
CONTINUOUS
 62
    2
 10
217.66328124999362
 20
622.10000000000218
 11
800.66328124999359
 21
622.10000000000218
  0
LINE
  8
_0-0_計極細
  6
CONTINUOUS
 62
    2
 10
217.66328124999362
 20
617.10000000000218
 11
800.66328124999359
 21
617.10000000000218
  0
LINE
  8
_0-0_計極細
  6
CENTER2
 62
    2
 10
201.77468171297483
 20
645.10000000000093
 11
816.70801504635153
 21
645.10000000000093
  0
LINE
  8
_0-1_計細線
  6
CONTINUOUS
 62
    3
 10
217.66328124999362
 20
710.30000000000018
 11
800.66328124999359
 21
710.30000000000018
  0
LINE
  8
_0-1_計細線
  6
CONTINUOUS
 62
    3
 10
217.66328124999362
 20
698.89999999999975
 11
800.66328124999359
 21
698.89999999999975
  0
LINE
  8
_0-1_計細線
  6
CONTINUOUS
 62
    3
 10
217.66328124999362
 20
710.30000000000018
 11
217.66328124999362
 21
698.89999999999975
  0
LINE
  8
_0-1_計細線
  6
CONTINUOUS
 62
    3
 10
800.66328124999359
 20
710.30000000000018
 11
800.66328124999359
 21
698.89999999999975
  0
LINE
  8
_0-0_計極細
  6
CONTINUOUS
 62
    2
 10
217.66328124999362
 20
702.09999999999991
 11
800.66328124999359
 21
702.09999999999991
  0
LINE
  8
_0-0_計極細
  6
CONTINUOUS
 62
    2
 10
217.66328124999362
 20
707.09999999999991
 11
800.66328124999359
 21
707.09999999999991
  0
LINE
  8
_0-1_計細線
  6
CONTINUOUS
 62
    3
 10
217.66328124999362
 20
727.70000000000084
 11
800.66328124999359
 21
727.70000000000084
  0
LINE
  8
_0-1_計細線
  6
CONTINUOUS
 62
    3
 10
217.66328124999362
 20
716.30000000000018
 11
800.66328124999359
 21
716.30000000000018
  0
LINE
  8
_0-1_計細線
  6
CONTINUOUS
 62
    3
 10
217.66328124999362
 20
727.70000000000084
 11
217.66328124999362
 21
716.30000000000018
  0
LINE
  8
_0-1_計細線
  6
CONTINUOUS
 62
    3
 10
800.66328124999359
 20
727.70000000000084
 11
800.66328124999359
 21
716.30000000000018
  0
LINE
  8
_0-0_計極細
  6
CONTINUOUS
 62
    2
 10
217.66328124999362
 20
719.50000000000045
 11
800.66328124999359
 21
719.50000000000045
  0
LINE
  8
_0-0_計極細
  6
CONTINUOUS
 62
    2
 10
217.66328124999362
 20
724.50000000000045
 11
800.66328124999359
 21
724.50000000000045
  0
LINE
  8
_0-1_計細線
  6
CONTINUOUS
 62
    3
 10
217.66328124999362
 20
745.10000000000093
 11
800.66328124999359
 21
745.10000000000093
  0
LINE
  8
_0-1_計細線
  6
CONTINUOUS
 62
    3
 10
217.66328124999362
 20
733.70000000000027
 11
800.66328124999359
 21
733.70000000000027
  0
LINE
  8
_0-1_計細線
  6
CONTINUOUS
 62
    3
 10
217.66328124999362
 20
745.10000000000093
 11
217.66328124999362
 21
733.70000000000027
  0
LINE
  8
_0-1_計細線
  6
CONTINUOUS
 62
    3
 10
800.66328124999359
 20
745.10000000000093
 11
800.66328124999359
 21
733.70000000000027
  0
LINE
  8
_0-0_計極細
  6
CONTINUOUS
 62
    2
 10
217.66328124999362
 20
736.90000000000055
 11
800.66328124999359
 21
736.90000000000055
  0
LINE
  8
_0-0_計極細
  6
CONTINUOUS
 62
    2
 10
217.66328124999362
 20
741.90000000000055
 11
800.66328124999359
 21
741.90000000000055
  0
LINE
  8
_0-1_計細線
  6
CONTINUOUS
 62
    3
 10
217.66328124999362
 20
676.30000000000018
 11
800.66328124999359
 21
676.30000000000018
  0
LINE
  8
_0-1_計細線
  6
CONTINUOUS
 62
    3
 10
217.66328124999362
 20
664.89999999999964
 11
800.66328124999359
 21
664.89999999999964
  0
LINE
  8
_0-1_計細線
  6
CONTINUOUS
 62
    3
 10
217.66328124999362
 20
676.30000000000018
 11
217.66328124999362
 21
664.89999999999964
  0
LINE
  8
_0-1_計細線
  6
CONTINUOUS
 62
    3
 10
800.66328124999359
 20
676.30000000000018
 11
800.66328124999359
 21
664.89999999999964
  0
LINE
  8
_0-0_計極細
  6
CONTINUOUS
 62
    2
 10
217.66328124999362
 20
668.09999999999991
 11
800.66328124999359
 21
668.09999999999991
  0
LINE
  8
_0-0_計極細
  6
CONTINUOUS
 62
    2
 10
217.66328124999362
 20
673.09999999999991
 11
800.66328124999359
 21
673.09999999999991
  0
LINE
  8
_0-1_計細線
  6
CONTINUOUS
 62
    3
 10
217.66328124999362
 20
693.30000000000109
 11
800.66328124999359
 21
693.30000000000109
  0
LINE
  8
_0-1_計細線
  6
CONTINUOUS
 62
    3
 10
217.66328124999362
 20
681.90000000000055
 11
800.66328124999359
 21
681.90000000000055
  0
LINE
  8
_0-1_計細線
  6
CONTINUOUS
 62
    3
 10
217.66328124999362
 20
693.30000000000109
 11
217.66328124999362
 21
681.90000000000055
  0
LINE
  8
_0-1_計細線
  6
CONTINUOUS
 62
    3
 10
800.66328124999359
 20
693.30000000000109
 11
800.66328124999359
 21
681.90000000000055
  0
LINE
  8
_0-0_計極細
  6
CONTINUOUS
 62
    2
 10
217.66328124999362
 20
685.10000000000036
 11
800.66328124999359
 21
685.10000000000036
  0
LINE
  8
_0-0_計極細
  6
CONTINUOUS
 62
    2
 10
217.66328124999362
 20
690.10000000000036
 11
800.66328124999359
 21
690.10000000000036
  0
LINE
  8
_0-1_計細線
  6
CONTINUOUS
 62
    3
 10
217.66328124999362
 20
562.5
 11
800.66328124999359
 21
562.5
  0
LINE
  8
_0-1_計細線
  6
CONTINUOUS
 62
    3
 10
217.66328124999362
 20
573.90000000000055
 11
800.66328124999359
 21
573.90000000000055
  0
LINE
  8
_0-1_計細線
  6
CONTINUOUS
 62
    3
 10
217.66328124999362
 20
562.5
 11
217.66328124999362
 21
573.90000000000055
  0
LINE
  8
_0-1_計細線
  6
CONTINUOUS
 62
    3
 10
800.66328124999359
 20
562.5
 11
800.66328124999359
 21
573.90000000000055
  0
LINE
  8
_0-0_計極細
  6
CONTINUOUS
 62
    2
 10
217.66328124999362
 20
570.70000000000073
 11
800.66328124999359
 21
570.70000000000073
  0
LINE
  8
_0-0_計極細
  6
CONTINUOUS
 62
    2
 10
217.66328124999362
 20
565.70000000000073
 11
800.66328124999359
 21
565.70000000000073
  0
LINE
  8
_0-1_計細線
  6
CONTINUOUS
 62
    3
 10
217.66328124999362
 20
545.10000000000082
 11
800.66328124999359
 21
545.10000000000082
  0
LINE
  8
_0-1_計細線
  6
CONTINUOUS
 62
    3
 10
217.66328124999362
 20
556.50000000000136
 11
800.66328124999359
 21
556.50000000000136
  0
LINE
  8
_0-1_計細線
  6
CONTINUOUS
 62
    3
 10
217.66328124999362
 20
545.10000000000082
 11
217.66328124999362
 21
556.50000000000136
  0
LINE
  8
_0-1_計細線
  6
CONTINUOUS
 62
    3
 10
800.66328124999359
 20
545.10000000000082
 11
800.66328124999359
 21
556.50000000000136
  0
LINE
  8
_0-0_計極細
  6
CONTINUOUS
 62
    2
 10
217.66328124999362
 20
553.30000000000109
 11
800.66328124999359
 21
553.30000000000109
  0
LINE
  8
_0-0_計極細
  6
CONTINUOUS
 62
    2
 10
217.66328124999362
 20
548.30000000000109
 11
800.66328124999359
 21
548.30000000000109
  0
LINE
  8
_0-1_計細線
  6
CONTINUOUS
 62
    3
 10
196.16328124999228
 20
750.09999999999991
 11
822.16328124999359
 21
750.09999999999991
  0
LINE
  8
_0-1_計細線
  6
CONTINUOUS
 62
    3
 10
822.16328124999359
 20
540.10000000000127
 11
196.16328124999242
 21
540.10000000000127
  0
LINE
  8
_0-1_計細線
  6
CONTINUOUS
 62
    3
 10
194.24906555161988
 20
747.09999999999991
 11
820.24906555162102
 21
747.09999999999991
  0
LINE
  8
_0-1_計細線
  6
CONTINUOUS
 62
    3
 10
824.07749694836809
 20
543.10000000000127
 11
198.07749694836843
 21
543.10000000000127
  0
LINE
  8
_0-0_計極細
  6
CONTINUOUS
 62
    2
 10
226.16328124999356
 20
591.30000000000109
 11
226.16328124999356
 21
596.90000000000146
  0
LINE
  8
_0-0_計極細
  6
CONTINUOUS
 62
    2
 10
239.16328124999359
 20
591.30000000000109
 11
239.16328124999359
 21
596.90000000000146
  0
LINE
  8
_0-0_計極細
  6
CONTINUOUS
 62
    2
 10
226.16328124999356
 20
608.300000000002
 11
226.16328124999356
 21
613.90000000000236
  0
LINE
  8
_0-0_計極細
  6
CONTINUOUS
 62
    2
 10
239.16328124999359
 20
608.300000000002
 11
239.16328124999359
 21
613.90000000000236
  0
LINE
  8
_0-0_計極細
  6
CONTINUOUS
 62
    2
 10
226.16328124999356
 20
630.89999999999827
 11
226.16328124999356
 21
625.29999999999836
  0
LINE
  8
_0-0_計極細
  6
CONTINUOUS
 62
    2
 10
239.16328124999359
 20
630.89999999999827
 11
239.16328124999359
 21
625.29999999999836
  0
LINE
  8
_0-0_計極細
  6
CONTINUOUS
 62
    2
 10
226.16328124999356
 20
647.89999999999873
 11
226.16328124999356
 21
642.29999999999893
  0
LINE
  8
_0-0_計極細
  6
CONTINUOUS
 62
    2
 10
239.16328124999359
 20
647.89999999999873
 11
239.16328124999359
 21
642.29999999999893
  0
LINE
  8
_0-0_計極細
  6
CONTINUOUS
 62
    2
 10
226.16328124999356
 20
716.30000000000018
 11
226.16328124999356
 21
710.30000000000018
  0
LINE
  8
_0-0_計極細
  6
CONTINUOUS
 62
    2
 10
239.16328124999359
 20
716.30000000000018
 11
239.16328124999359
 21
710.30000000000018
  0
LINE
  8
_0-0_計極細
  6
CONTINUOUS
 62
    2
 10
226.16328124999356
 20
733.70000000000027
 11
226.16328124999356
 21
727.69999999999982
  0
LINE
  8
_0-0_計極細
  6
CONTINUOUS
 62
    2
 10
239.16328124999359
 20
733.70000000000027
 11
239.16328124999359
 21
727.69999999999982
  0
LINE
  8
_0-0_計極細
  6
CONTINUOUS
 62
    2
 10
226.16328124999356
 20
664.89999999999964
 11
226.16328124999356
 21
659.29999999999939
  0
LINE
  8
_0-0_計極細
  6
CONTINUOUS
 62
    2
 10
239.16328124999359
 20
664.89999999999964
 11
239.16328124999359
 21
659.29999999999939
  0
LINE
  8
_0-0_計極細
  6
CONTINUOUS
 62
    2
 10
226.16328124999356
 20
681.90000000000055
 11
226.16328124999356
 21
676.30000000000018
  0
LINE
  8
_0-0_計極細
  6
CONTINUOUS
 62
    2
 10
239.16328124999359
 20
681.90000000000055
 11
239.16328124999359
 21
676.30000000000018
  0
LINE
  8
_0-0_計極細
  6
CONTINUOUS
 62
    2
 10
226.16328124999356
 20
698.900000000001
 11
226.16328124999356
 21
693.30000000000109
  0
LINE
  8
_0-0_計極細
  6
CONTINUOUS
 62
    2
 10
239.16328124999359
 20
698.900000000001
 11
239.16328124999359
 21
693.30000000000109
  0
LINE
  8
_0-0_計極細
  6
CONTINUOUS
 62
    2
 10
226.16328124999356
 20
573.90000000000055
 11
226.16328124999356
 21
579.90000000000055
  0
LINE
  8
_0-0_計極細
  6
CONTINUOUS
 62
    2
 10
239.16328124999359
 20
573.90000000000055
 11
239.16328124999359
 21
579.90000000000055
  0
LINE
  8
_0-0_計極細
  6
CENTER1
 62
    2
 10
232.66328124999362
 20
753.85071942446302
 11
232.66328124999362
 21
537.34217625898873
  0
LINE
  8
_0-0_計極細
  6
CONTINUOUS
 62
    2
 10
226.16328124999356
 20
556.5
 11
226.16328124999356
 21
562.5
  0
LINE
  8
_0-0_計極細
  6
CONTINUOUS
 62
    2
 10
239.16328124999359
 20
556.5
 11
239.16328124999359
 21
562.5
  0
LINE
  8
_0-0_計極細
  6
CONTINUOUS
 62
    2
 10
779.1632812499937
 20
591.30000000000109
 11
779.1632812499937
 21
596.90000000000146
  0
LINE
  8
_0-0_計極細
  6
CONTINUOUS
 62
    2
 10
792.16328124999359
 20
591.30000000000109
 11
792.16328124999359
 21
596.90000000000146
  0
LINE
  8
_0-0_計極細
  6
CONTINUOUS
 62
    2
 10
779.1632812499937
 20
608.300000000002
 11
779.1632812499937
 21
613.90000000000236
  0
LINE
  8
_0-0_計極細
  6
CONTINUOUS
 62
    2
 10
792.16328124999359
 20
608.300000000002
 11
792.16328124999359
 21
613.90000000000236
  0
LINE
  8
_0-0_計極細
  6
CONTINUOUS
 62
    2
 10
779.1632812499937
 20
630.89999999999827
 11
779.1632812499937
 21
625.29999999999836
  0
LINE
  8
_0-0_計極細
  6
CONTINUOUS
 62
    2
 10
792.16328124999359
 20
630.89999999999827
 11
792.16328124999359
 21
625.29999999999836
  0
LINE
  8
_0-0_計極細
  6
CONTINUOUS
 62
    2
 10
779.1632812499937
 20
647.89999999999873
 11
779.1632812499937
 21
642.29999999999893
  0
LINE
  8
_0-0_計極細
  6
CONTINUOUS
 62
    2
 10
792.16328124999359
 20
647.89999999999873
 11
792.16328124999359
 21
642.29999999999893
  0
LINE
  8
_0-0_計極細
  6
CONTINUOUS
 62
    2
 10
779.1632812499937
 20
716.30000000000018
 11
779.1632812499937
 21
710.30000000000018
  0
LINE
  8
_0-0_計極細
  6
CONTINUOUS
 62
    2
 10
792.16328124999359
 20
716.30000000000018
 11
792.16328124999359
 21
710.30000000000018
  0
LINE
  8
_0-0_計極細
  6
CONTINUOUS
 62
    2
 10
779.1632812499937
 20
733.70000000000027
 11
779.1632812499937
 21
727.69999999999982
  0
LINE
  8
_0-0_計極細
  6
CONTINUOUS
 62
    2
 10
792.16328124999359
 20
733.70000000000027
 11
792.16328124999359
 21
727.69999999999982
  0
LINE
  8
_0-0_計極細
  6
CONTINUOUS
 62
    2
 10
779.1632812499937
 20
664.89999999999964
 11
779.1632812499937
 21
659.29999999999939
  0
LINE
  8
_0-0_計極細
  6
CONTINUOUS
 62
    2
 10
792.16328124999359
 20
664.89999999999964
 11
792.16328124999359
 21
659.29999999999939
  0
LINE
  8
_0-0_計極細
  6
CONTINUOUS
 62
    2
 10
779.1632812499937
 20
681.90000000000055
 11
779.1632812499937
 21
676.30000000000018
  0
LINE
  8
_0-0_計極細
  6
CONTINUOUS
 62
    2
 10
792.16328124999359
 20
681.90000000000055
 11
792.16328124999359
 21
676.30000000000018
  0
LINE
  8
_0-0_計極細
  6
CONTINUOUS
 62
    2
 10
779.1632812499937
 20
698.900000000001
 11
779.1632812499937
 21
693.30000000000109
  0
LINE
  8
_0-0_計極細
  6
CONTINUOUS
 62
    2
 10
792.16328124999359
 20
698.900000000001
 11
792.16328124999359
 21
693.30000000000109
  0
LINE
  8
_0-0_計極細
  6
CONTINUOUS
 62
    2
 10
779.1632812499937
 20
573.90000000000055
 11
779.1632812499937
 21
579.90000000000055
  0
LINE
  8
_0-0_計極細
  6
CONTINUOUS
 62
    2
 10
792.16328124999359
 20
573.90000000000055
 11
792.16328124999359
 21
579.90000000000055
  0
LINE
  8
_0-0_計極細
  6
CENTER1
 62
    2
 10
785.66328124999359
 20
753.85071942446302
 11
785.66328124999359
 21
537.34217625898873
  0
LINE
  8
_0-0_計極細
  6
CONTINUOUS
 62
    2
 10
779.1632812499937
 20
556.5
 11
779.1632812499937
 21
562.5
  0
LINE
  8
_0-0_計極細
  6
CONTINUOUS
 62
    2
 10
792.16328124999359
 20
556.5
 11
792.16328124999359
 21
562.5
  0
LINE
  8
_0-0_計極細
  6
CONTINUOUS
 62
    2
 10
323.16328124999359
 20
591.30000000000109
 11
323.16328124999359
 21
596.90000000000146
  0
LINE
  8
_0-0_計極細
  6
CONTINUOUS
 62
    2
 10
336.16328124999364
 20
591.30000000000109
 11
336.16328124999364
 21
596.90000000000146
  0
LINE
  8
_0-0_計極細
  6
CONTINUOUS
 62
    2
 10
323.16328124999359
 20
608.300000000002
 11
323.16328124999359
 21
613.90000000000236
  0
LINE
  8
_0-0_計極細
  6
CONTINUOUS
 62
    2
 10
336.16328124999364
 20
608.300000000002
 11
336.16328124999364
 21
613.90000000000236
  0
LINE
  8
_0-0_計極細
  6
CONTINUOUS
 62
    2
 10
323.16328124999359
 20
630.89999999999827
 11
323.16328124999359
 21
625.29999999999836
  0
LINE
  8
_0-0_計極細
  6
CONTINUOUS
 62
    2
 10
336.16328124999364
 20
630.89999999999827
 11
336.16328124999364
 21
625.29999999999836
  0
LINE
  8
_0-0_計極細
  6
CONTINUOUS
 62
    2
 10
323.16328124999359
 20
716.30000000000018
 11
323.16328124999359
 21
710.30000000000018
  0
LINE
  8
_0-0_計極細
  6
CONTINUOUS
 62
    2
 10
336.16328124999364
 20
716.30000000000018
 11
336.16328124999364
 21
710.30000000000018
  0
LINE
  8
_0-0_計極細
  6
CONTINUOUS
 62
    2
 10
323.16328124999359
 20
733.70000000000027
 11
323.16328124999359
 21
727.69999999999982
  0
LINE
  8
_0-0_計極細
  6
CONTINUOUS
 62
    2
 10
336.16328124999364
 20
733.70000000000027
 11
336.16328124999364
 21
727.69999999999982
  0
LINE
  8
_0-0_計極細
  6
CONTINUOUS
 62
    2
 10
323.16328124999359
 20
664.89999999999964
 11
323.16328124999359
 21
659.29999999999939
  0
LINE
  8
_0-0_計極細
  6
CONTINUOUS
 62
    2
 10
336.16328124999364
 20
664.89999999999964
 11
336.16328124999364
 21
659.29999999999939
  0
LINE
  8
_0-0_計極細
  6
CONTINUOUS
 62
    2
 10
323.16328124999359
 20
681.90000000000055
 11
323.16328124999359
 21
676.30000000000018
  0
LINE
  8
_0-0_計極細
  6
CONTINUOUS
 62
    2
 10
336.16328124999364
 20
681.90000000000055
 11
336.16328124999364
 21
676.30000000000018
  0
LINE
  8
_0-0_計極細
  6
CONTINUOUS
 62
    2
 10
323.16328124999359
 20
698.900000000001
 11
323.16328124999359
 21
693.30000000000109
  0
LINE
  8
_0-0_計極細
  6
CONTINUOUS
 62
    2
 10
336.16328124999364
 20
698.900000000001
 11
336.16328124999364
 21
693.30000000000109
  0
LINE
  8
_0-0_計極細
  6
CONTINUOUS
 62
    2
 10
323.16328124999359
 20
573.90000000000055
 11
323.16328124999359
 21
579.90000000000055
  0
LINE
  8
_0-0_計極細
  6
CONTINUOUS
 62
    2
 10
336.16328124999364
 20
573.90000000000055
 11
336.16328124999364
 21
579.90000000000055
  0
LINE
  8
_0-0_計極細
  6
CENTER1
 62
    2
 10
329.66328124999359
 20
753.85071942446302
 11
329.66328124999359
 21
537.34217625898873
  0
LINE
  8
_0-0_計極細
  6
CONTINUOUS
 62
    2
 10
323.16328124999359
 20
556.5
 11
323.16328124999359
 21
562.5
  0
LINE
  8
_0-0_計極細
  6
CONTINUOUS
 62
    2
 10
336.16328124999364
 20
556.5
 11
336.16328124999364
 21
562.5
  0
LINE
  8
_0-0_計極細
  6
CONTINUOUS
 62
    2
 10
420.16328124999359
 20
591.30000000000109
 11
420.16328124999359
 21
596.90000000000146
  0
LINE
  8
_0-0_計極細
  6
CONTINUOUS
 62
    2
 10
433.16328124999359
 20
591.30000000000109
 11
433.16328124999359
 21
596.90000000000146
  0
LINE
  8
_0-0_計極細
  6
CONTINUOUS
 62
    2
 10
420.16328124999359
 20
608.300000000002
 11
420.16328124999359
 21
613.90000000000236
  0
LINE
  8
_0-0_計極細
  6
CONTINUOUS
 62
    2
 10
433.16328124999359
 20
608.300000000002
 11
433.16328124999359
 21
613.90000000000236
  0
LINE
  8
_0-0_計極細
  6
CONTINUOUS
 62
    2
 10
420.16328124999359
 20
630.89999999999827
 11
420.16328124999359
 21
625.29999999999836
  0
LINE
  8
_0-0_計極細
  6
CONTINUOUS
 62
    2
 10
433.16328124999359
 20
630.89999999999827
 11
433.16328124999359
 21
625.29999999999836
  0
LINE
  8
_0-0_計極細
  6
CONTINUOUS
 62
    2
 10
420.16328124999359
 20
647.89999999999873
 11
420.16328124999359
 21
642.29999999999893
  0
LINE
  8
_0-0_計極細
  6
CONTINUOUS
 62
    2
 10
433.16328124999359
 20
647.89999999999873
 11
433.16328124999359
 21
642.29999999999893
  0
LINE
  8
_0-0_計極細
  6
CONTINUOUS
 62
    2
 10
420.16328124999359
 20
716.30000000000018
 11
420.16328124999359
 21
710.30000000000018
  0
LINE
  8
_0-0_計極細
  6
CONTINUOUS
 62
    2
 10
433.16328124999359
 20
716.30000000000018
 11
433.16328124999359
 21
710.30000000000018
  0
LINE
  8
_0-0_計極細
  6
CONTINUOUS
 62
    2
 10
420.16328124999359
 20
733.70000000000027
 11
420.16328124999359
 21
727.69999999999982
  0
LINE
  8
_0-0_計極細
  6
CONTINUOUS
 62
    2
 10
433.16328124999359
 20
733.70000000000027
 11
433.16328124999359
 21
727.69999999999982
  0
LINE
  8
_0-0_計極細
  6
CONTINUOUS
 62
    2
 10
420.16328124999359
 20
664.89999999999964
 11
420.16328124999359
 21
659.29999999999939
  0
LINE
  8
_0-0_計極細
  6
CONTINUOUS
 62
    2
 10
433.16328124999359
 20
664.89999999999964
 11
433.16328124999359
 21
659.29999999999939
  0
LINE
  8
_0-0_計極細
  6
CONTINUOUS
 62
    2
 10
420.16328124999359
 20
681.90000000000055
 11
420.16328124999359
 21
676.30000000000018
  0
LINE
  8
_0-0_計極細
  6
CONTINUOUS
 62
    2
 10
433.16328124999359
 20
681.90000000000055
 11
433.16328124999359
 21
676.30000000000018
  0
LINE
  8
_0-0_計極細
  6
CONTINUOUS
 62
    2
 10
420.16328124999359
 20
698.900000000001
 11
420.16328124999359
 21
693.30000000000109
  0
LINE
  8
_0-0_計極細
  6
CONTINUOUS
 62
    2
 10
433.16328124999359
 20
698.900000000001
 11
433.16328124999359
 21
693.30000000000109
  0
LINE
  8
_0-0_計極細
  6
CONTINUOUS
 62
    2
 10
420.16328124999359
 20
573.90000000000055
 11
420.16328124999359
 21
579.90000000000055
  0
LINE
  8
_0-0_計極細
  6
CONTINUOUS
 62
    2
 10
433.16328124999359
 20
573.90000000000055
 11
433.16328124999359
 21
579.90000000000055
  0
LINE
  8
_0-0_計極細
  6
CENTER1
 62
    2
 10
426.66328124999359
 20
753.85071942446302
 11
426.66328124999359
 21
537.34217625898873
  0
LINE
  8
_0-0_計極細
  6
CONTINUOUS
 62
    2
 10
420.16328124999359
 20
556.5
 11
420.16328124999359
 21
562.5
  0
LINE
  8
_0-0_計極細
  6
CONTINUOUS
 62
    2
 10
433.16328124999359
 20
556.5
 11
433.16328124999359
 21
562.5
  0
LINE
  8
_0-0_計極細
  6
CONTINUOUS
 62
    2
 10
517.16328124999336
 20
591.30000000000109
 11
517.16328124999336
 21
596.90000000000146
  0
LINE
  8
_0-0_計極細
  6
CONTINUOUS
 62
    2
 10
530.16328124999359
 20
591.30000000000109
 11
530.16328124999359
 21
596.90000000000146
  0
LINE
  8
_0-0_計極細
  6
CONTINUOUS
 62
    2
 10
517.16328124999336
 20
608.300000000002
 11
517.16328124999336
 21
613.90000000000236
  0
LINE
  8
_0-0_計極細
  6
CONTINUOUS
 62
    2
 10
530.16328124999359
 20
608.300000000002
 11
530.16328124999359
 21
613.90000000000236
  0
LINE
  8
_0-0_計極細
  6
CONTINUOUS
 62
    2
 10
517.16328124999336
 20
630.89999999999827
 11
517.16328124999336
 21
625.29999999999836
  0
LINE
  8
_0-0_計極細
  6
CONTINUOUS
 62
    2
 10
530.16328124999359
 20
630.89999999999827
 11
530.16328124999359
 21
625.29999999999836
  0
LINE
  8
_0-0_計極細
  6
CONTINUOUS
 62
    2
 10
517.16328124999336
 20
647.89999999999873
 11
517.16328124999336
 21
642.29999999999893
  0
LINE
  8
_0-0_計極細
  6
CONTINUOUS
 62
    2
 10
530.16328124999359
 20
647.89999999999873
 11
530.16328124999359
 21
642.29999999999893
  0
LINE
  8
_0-0_計極細
  6
CONTINUOUS
 62
    2
 10
517.16328124999336
 20
716.30000000000018
 11
517.16328124999336
 21
710.30000000000018
  0
LINE
  8
_0-0_計極細
  6
CONTINUOUS
 62
    2
 10
530.16328124999359
 20
716.30000000000018
 11
530.16328124999359
 21
710.30000000000018
  0
LINE
  8
_0-0_計極細
  6
CONTINUOUS
 62
    2
 10
517.16328124999336
 20
733.70000000000027
 11
517.16328124999336
 21
727.69999999999982
  0
LINE
  8
_0-0_計極細
  6
CONTINUOUS
 62
    2
 10
530.16328124999359
 20
733.70000000000027
 11
530.16328124999359
 21
727.69999999999982
  0
LINE
  8
_0-0_計極細
  6
CONTINUOUS
 62
    2
 10
517.16328124999336
 20
664.89999999999964
 11
517.16328124999336
 21
659.29999999999939
  0
LINE
  8
_0-0_計極細
  6
CONTINUOUS
 62
    2
 10
530.16328124999359
 20
664.89999999999964
 11
530.16328124999359
 21
659.29999999999939
  0
LINE
  8
_0-0_計極細
  6
CONTINUOUS
 62
    2
 10
517.16328124999336
 20
681.90000000000055
 11
517.16328124999336
 21
676.30000000000018
  0
LINE
  8
_0-0_計極細
  6
CONTINUOUS
 62
    2
 10
530.16328124999359
 20
681.90000000000055
 11
530.16328124999359
 21
676.30000000000018
  0
LINE
  8
_0-0_計極細
  6
CONTINUOUS
 62
    2
 10
517.16328124999336
 20
698.900000000001
 11
517.16328124999336
 21
693.30000000000109
  0
LINE
  8
_0-0_計極細
  6
CONTINUOUS
 62
    2
 10
530.16328124999359
 20
698.900000000001
 11
530.16328124999359
 21
693.30000000000109
  0
LINE
  8
_0-0_計極細
  6
CONTINUOUS
 62
    2
 10
517.16328124999336
 20
573.90000000000055
 11
517.16328124999336
 21
579.90000000000055
  0
LINE
  8
_0-0_計極細
  6
CONTINUOUS
 62
    2
 10
530.16328124999359
 20
573.90000000000055
 11
530.16328124999359
 21
579.90000000000055
  0
LINE
  8
_0-0_計極細
  6
CENTER1
 62
    2
 10
523.66328124999359
 20
753.85071942446302
 11
523.66328124999359
 21
537.34217625898873
  0
LINE
  8
_0-0_計極細
  6
CONTINUOUS
 62
    2
 10
517.16328124999336
 20
556.5
 11
517.16328124999336
 21
562.5
  0
LINE
  8
_0-0_計極細
  6
CONTINUOUS
 62
    2
 10
530.16328124999359
 20
556.5
 11
530.16328124999359
 21
562.5
  0
LINE
  8
_0-0_計極細
  6
CONTINUOUS
 62
    2
 10
682.16328124999359
 20
591.30000000000109
 11
682.16328124999359
 21
596.90000000000146
  0
LINE
  8
_0-0_計極細
  6
CONTINUOUS
 62
    2
 10
695.16328124999359
 20
591.30000000000109
 11
695.16328124999359
 21
596.90000000000146
  0
LINE
  8
_0-0_計極細
  6
CONTINUOUS
 62
    2
 10
682.16328124999359
 20
608.300000000002
 11
682.16328124999359
 21
613.90000000000236
  0
LINE
  8
_0-0_計極細
  6
CONTINUOUS
 62
    2
 10
695.16328124999359
 20
608.300000000002
 11
695.16328124999359
 21
613.90000000000236
  0
LINE
  8
_0-0_計極細
  6
CONTINUOUS
 62
    2
 10
682.16328124999359
 20
630.89999999999827
 11
682.16328124999359
 21
625.29999999999836
  0
LINE
  8
_0-0_計極細
  6
CONTINUOUS
 62
    2
 10
695.16328124999359
 20
630.89999999999827
 11
695.16328124999359
 21
625.29999999999836
  0
LINE
  8
_0-0_計極細
  6
CONTINUOUS
 62
    2
 10
682.16328124999359
 20
647.89999999999873
 11
682.16328124999359
 21
642.29999999999893
  0
LINE
  8
_0-0_計極細
  6
CONTINUOUS
 62
    2
 10
695.16328124999359
 20
647.89999999999873
 11
695.16328124999359
 21
642.29999999999893
  0
LINE
  8
_0-0_計極細
  6
CONTINUOUS
 62
    2
 10
682.16328124999359
 20
716.30000000000018
 11
682.16328124999359
 21
710.30000000000018
  0
LINE
  8
_0-0_計極細
  6
CONTINUOUS
 62
    2
 10
695.16328124999359
 20
716.30000000000018
 11
695.16328124999359
 21
710.30000000000018
  0
LINE
  8
_0-0_計極細
  6
CONTINUOUS
 62
    2
 10
682.16328124999359
 20
733.70000000000027
 11
682.16328124999359
 21
727.69999999999982
  0
LINE
  8
_0-0_計極細
  6
CONTINUOUS
 62
    2
 10
695.16328124999359
 20
733.70000000000027
 11
695.16328124999359
 21
727.69999999999982
  0
LINE
  8
_0-0_計極細
  6
CONTINUOUS
 62
    2
 10
682.16328124999359
 20
664.89999999999964
 11
682.16328124999359
 21
659.29999999999939
  0
LINE
  8
_0-0_計極細
  6
CONTINUOUS
 62
    2
 10
695.16328124999359
 20
664.89999999999964
 11
695.16328124999359
 21
659.29999999999939
  0
LINE
  8
_0-0_計極細
  6
CONTINUOUS
 62
    2
 10
682.16328124999359
 20
681.90000000000055
 11
682.16328124999359
 21
676.30000000000018
  0
LINE
  8
_0-0_計極細
  6
CONTINUOUS
 62
    2
 10
695.16328124999359
 20
681.90000000000055
 11
695.16328124999359
 21
676.30000000000018
  0
LINE
  8
_0-0_計極細
  6
CONTINUOUS
 62
    2
 10
682.16328124999359
 20
698.900000000001
 11
682.16328124999359
 21
693.30000000000109
  0
LINE
  8
_0-0_計極細
  6
CONTINUOUS
 62
    2
 10
695.16328124999359
 20
698.900000000001
 11
695.16328124999359
 21
693.30000000000109
  0
LINE
  8
_0-0_計極細
  6
CONTINUOUS
 62
    2
 10
682.16328124999359
 20
573.90000000000055
 11
682.16328124999359
 21
579.90000000000055
  0
LINE
  8
_0-0_計極細
  6
CONTINUOUS
 62
    2
 10
695.16328124999359
 20
573.90000000000055
 11
695.16328124999359
 21
579.90000000000055
  0
LINE
  8
_0-0_計極細
  6
CENTER1
 62
    2
 10
688.66328124999359
 20
753.85071942446302
 11
688.66328124999359
 21
537.34217625898873
  0
LINE
  8
_0-0_計極細
  6
CONTINUOUS
 62
    2
 10
682.16328124999359
 20
556.5
 11
682.16328124999359
 21
562.5
  0
LINE
  8
_0-0_計極細
  6
CONTINUOUS
 62
    2
 10
695.16328124999359
 20
556.5
 11
695.16328124999359
 21
562.5
  0
LINE
  8
_0-0_計極細
  6
CONTINUOUS
 62
    2
 10
585.16328124999359
 20
591.30000000000109
 11
585.16328124999359
 21
596.90000000000146
  0
LINE
  8
_0-0_計極細
  6
CONTINUOUS
 62
    2
 10
598.16328124999359
 20
591.30000000000109
 11
598.16328124999359
 21
596.90000000000146
  0
LINE
  8
_0-0_計極細
  6
CONTINUOUS
 62
    2
 10
585.16328124999359
 20
608.300000000002
 11
585.16328124999359
 21
613.90000000000236
  0
LINE
  8
_0-0_計極細
  6
CONTINUOUS
 62
    2
 10
598.16328124999359
 20
608.300000000002
 11
598.16328124999359
 21
613.90000000000236
  0
LINE
  8
_0-0_計極細
  6
CONTINUOUS
 62
    2
 10
585.16328124999359
 20
630.89999999999827
 11
585.16328124999359
 21
625.29999999999836
  0
LINE
  8
_0-0_計極細
  6
CONTINUOUS
 62
    2
 10
598.16328124999359
 20
630.89999999999827
 11
598.16328124999359
 21
625.29999999999836
  0
LINE
  8
_0-0_計極細
  6
CONTINUOUS
 62
    2
 10
585.16328124999359
 20
647.89999999999873
 11
585.16328124999359
 21
642.29999999999893
  0
LINE
  8
_0-0_計極細
  6
CONTINUOUS
 62
    2
 10
598.16328124999359
 20
647.89999999999873
 11
598.16328124999359
 21
642.29999999999893
  0
LINE
  8
_0-0_計極細
  6
CONTINUOUS
 62
    2
 10
585.16328124999359
 20
716.30000000000018
 11
585.16328124999359
 21
710.30000000000018
  0
LINE
  8
_0-0_計極細
  6
CONTINUOUS
 62
    2
 10
598.16328124999359
 20
716.30000000000018
 11
598.16328124999359
 21
710.30000000000018
  0
LINE
  8
_0-0_計極細
  6
CONTINUOUS
 62
    2
 10
585.16328124999359
 20
733.70000000000027
 11
585.16328124999359
 21
727.69999999999982
  0
LINE
  8
_0-0_計極細
  6
CONTINUOUS
 62
    2
 10
598.16328124999359
 20
733.70000000000027
 11
598.16328124999359
 21
727.69999999999982
  0
LINE
  8
_0-0_計極細
  6
CONTINUOUS
 62
    2
 10
585.16328124999359
 20
664.89999999999964
 11
585.16328124999359
 21
659.29999999999939
  0
LINE
  8
_0-0_計極細
  6
CONTINUOUS
 62
    2
 10
598.16328124999359
 20
664.89999999999964
 11
598.16328124999359
 21
659.29999999999939
  0
LINE
  8
_0-0_計極細
  6
CONTINUOUS
 62
    2
 10
585.16328124999359
 20
681.90000000000055
 11
585.16328124999359
 21
676.30000000000018
  0
LINE
  8
_0-0_計極細
  6
CONTINUOUS
 62
    2
 10
598.16328124999359
 20
681.90000000000055
 11
598.16328124999359
 21
676.30000000000018
  0
LINE
  8
_0-0_計極細
  6
CONTINUOUS
 62
    2
 10
585.16328124999359
 20
698.900000000001
 11
585.16328124999359
 21
693.30000000000109
  0
LINE
  8
_0-0_計極細
  6
CONTINUOUS
 62
    2
 10
598.16328124999359
 20
698.900000000001
 11
598.16328124999359
 21
693.30000000000109
  0
LINE
  8
_0-0_計極細
  6
CONTINUOUS
 62
    2
 10
585.16328124999359
 20
573.90000000000055
 11
585.16328124999359
 21
579.90000000000055
  0
LINE
  8
_0-0_計極細
  6
CONTINUOUS
 62
    2
 10
598.16328124999359
 20
573.90000000000055
 11
598.16328124999359
 21
579.90000000000055
  0
LINE
  8
_0-0_計極細
  6
CENTER1
 62
    2
 10
591.66328124999359
 20
753.85071942446302
 11
591.66328124999359
 21
537.34217625898873
  0
LINE
  8
_0-0_計極細
  6
CONTINUOUS
 62
    2
 10
585.16328124999359
 20
556.5
 11
585.16328124999359
 21
562.5
  0
LINE
  8
_0-0_計極細
  6
CONTINUOUS
 62
    2
 10
598.16328124999359
 20
556.5
 11
598.16328124999359
 21
562.5
  0
LINE
  8
_0-5_寸法線
  6
CONTINUOUS
 62
    7
 10
186.16328124999228
 20
750.09999999999991
 11
141.16328124999697
 21
750.09999999999991
  0
LINE
  8
_0-5_寸法線
  6
CONTINUOUS
 62
    7
 10
146.16328124999697
 20
750.09999999999991
 11
148.75147170102218
 21
740.44074173710919
  0
LINE
  8
_0-5_寸法線
  6
CONTINUOUS
 62
    7
 10
146.16328124999697
 20
750.09999999999991
 11
143.57509079897176
 21
740.44074173710919
  0
LINE
  8
_0-5_寸法線
  6
CONTINUOUS
 62
    7
 10
186.1632812499947
 20
720.09999999999991
 11
141.16328124999725
 21
720.09999999999991
  0
LINE
  8
_0-5_寸法線
  6
CONTINUOUS
 62
    7
 10
146.16328124999725
 20
720.09999999999991
 11
143.57509079897198
 21
729.75925826289074
  0
LINE
  8
_0-5_寸法線
  6
CONTINUOUS
 62
    7
 10
146.16328124999725
 20
720.09999999999991
 11
148.75147170102238
 21
729.75925826289074
  0
LINE
  8
_0-5_寸法線
  6
CONTINUOUS
 62
    7
 10
146.16328124999697
 20
750.09999999999991
 11
146.16328124999725
 21
720.09999999999991
  0
TEXT
  8
_0-5_寸法線
 62
    7
 10
146.16328124999697
 20
727.59999999999991
 40
15
 41
1
 50
90
  1
30
  0
LINE
  8
_0-5_寸法線
  6
CONTINUOUS
 62
    7
 10
146.16328124999725
 20
720.09999999999991
 11
148.75147170102238
 21
710.44074173710919
  0
LINE
  8
_0-5_寸法線
  6
CONTINUOUS
 62
    7
 10
146.16328124999725
 20
720.09999999999991
 11
143.57509079897198
 21
710.44074173710919
  0
LINE
  8
_0-5_寸法線
  6
CONTINUOUS
 62
    7
 10
186.16328124999242
 20
570.10000000000036
 11
141.16328124999745
 21
570.10000000000036
  0
LINE
  8
_0-5_寸法線
  6
CONTINUOUS
 62
    7
 10
146.16328124999745
 20
570.10000000000036
 11
143.57509079897227
 21
579.75925826289108
  0
LINE
  8
_0-5_寸法線
  6
CONTINUOUS
 62
    7
 10
146.16328124999745
 20
570.10000000000036
 11
148.75147170102267
 21
579.75925826289108
  0
LINE
  8
_0-5_寸法線
  6
CONTINUOUS
 62
    7
 10
146.16328124999725
 20
720.09999999999991
 11
146.16328124999745
 21
570.10000000000036
  0
TEXT
  8
_0-5_寸法線
 62
    7
 10
146.16328124999717
 20
633.85000000000036
 40
15
 41
1
 50
89.999999999999815
  1
150
  0
LINE
  8
_0-5_寸法線
  6
CONTINUOUS
 62
    7
 10
146.16328124999745
 20
570.10000000000036
 11
148.75147170102267
 21
560.44074173710965
  0
LINE
  8
_0-5_寸法線
  6
CONTINUOUS
 62
    7
 10
146.16328124999745
 20
570.10000000000036
 11
143.57509079897227
 21
560.44074173710965
  0
LINE
  8
_0-5_寸法線
  6
CONTINUOUS
 62
    7
 10
186.16328124999745
 20
540.10000000000309
 11
141.16328124999745
 21
540.10000000000309
  0
LINE
  8
_0-5_寸法線
  6
CONTINUOUS
 62
    7
 10
146.16328124999745
 20
540.10000000000309
 11
143.57509079897227
 21
549.75925826289381
  0
LINE
  8
_0-5_寸法線
  6
CONTINUOUS
 62
    7
 10
146.16328124999745
 20
540.10000000000309
 11
148.75147170102267
 21
549.75925826289381
  0
LINE
  8
_0-5_寸法線
  6
CONTINUOUS
 62
    7
 10
146.16328124999745
 20
570.10000000000036
 11
146.16328124999745
 21
540.10000000000309
  0
TEXT
  8
_0-5_寸法線
 62
    7
 10
146.16328124999734
 20
547.60000000000173
 40
15
 41
1
 50
90
  1
30
  0
LINE
  8
_0-5_寸法線
  6
CONTINUOUS
 62
    7
 10
217.66328124999362
 20
760.09999999999991
 11
217.66328124999362
 21
805.099999999999
  0
LINE
  8
_0-5_寸法線
  6
CONTINUOUS
 62
    7
 10
217.66328124999362
 20
800.099999999999
 11
227.32253951288428
 21
802.68819045102418
  0
LINE
  8
_0-5_寸法線
  6
CONTINUOUS
 62
    7
 10
217.66328124999362
 20
800.099999999999
 11
227.32253951288428
 21
797.51180954897393
  0
LINE
  8
_0-5_寸法線
  6
CONTINUOUS
 62
    7
 10
232.66328124999362
 20
760.09999999999991
 11
232.66328124999362
 21
805.099999999999
  0
LINE
  8
_0-5_寸法線
  6
CONTINUOUS
 62
    7
 10
232.66328124999362
 20
800.099999999999
 11
223.00402298710296
 21
797.51180954897393
  0
LINE
  8
_0-5_寸法線
  6
CONTINUOUS
 62
    7
 10
232.66328124999362
 20
800.099999999999
 11
223.00402298710296
 21
802.68819045102418
  0
LINE
  8
_0-5_寸法線
  6
CONTINUOUS
 62
    7
 10
217.66328124999362
 20
800.099999999999
 11
232.66328124999362
 21
800.099999999999
  0
TEXT
  8
_0-5_寸法線
 62
    7
 10
217.66328124999362
 20
800.09999999999923
 40
15
 41
1
 50
0
  1
Ａ
  0
LINE
  8
_0-5_寸法線
  6
CONTINUOUS
 62
    7
 10
329.66328124999359
 20
760.09999999999991
 11
329.66328124999359
 21
805.099999999999
  0
LINE
  8
_0-5_寸法線
  6
CONTINUOUS
 62
    7
 10
329.66328124999359
 20
800.099999999999
 11
339.32253951288425
 21
802.68819045102418
  0
LINE
  8
_0-5_寸法線
  6
CONTINUOUS
 62
    7
 10
329.66328124999359
 20
800.099999999999
 11
339.32253951288425
 21
797.51180954897393
  0
LINE
  8
_0-5_寸法線
  6
CONTINUOUS
 62
    7
 10
426.66328124999359
 20
760.09999999999991
 11
426.6632812499937
 21
805.099999999999
  0
LINE
  8
_0-5_寸法線
  6
CONTINUOUS
 62
    7
 10
426.6632812499937
 20
800.099999999999
 11
417.00402298710293
 21
797.51180954897393
  0
LINE
  8
_0-5_寸法線
  6
CONTINUOUS
 62
    7
 10
426.6632812499937
 20
800.099999999999
 11
417.00402298710299
 21
802.68819045102418
  0
LINE
  8
_0-5_寸法線
  6
CONTINUOUS
 62
    7
 10
329.66328124999359
 20
800.099999999999
 11
426.6632812499937
 21
800.099999999999
  0
TEXT
  8
_0-5_寸法線
 62
    7
 10
370.66328124999359
 20
800.09999999999923
 40
15
 41
1
 50
0
  1
97
  0
LINE
  8
_0-5_寸法線
  6
CONTINUOUS
 62
    7
 10
426.6632812499937
 20
800.099999999999
 11
436.32253951288442
 21
802.68819045102418
  0
LINE
  8
_0-5_寸法線
  6
CONTINUOUS
 62
    7
 10
426.6632812499937
 20
800.099999999999
 11
436.3225395128843
 21
797.51180954897382
  0
LINE
  8
_0-5_寸法線
  6
CONTINUOUS
 62
    7
 10
523.66328124999359
 20
760.09999999999991
 11
523.6632812499937
 21
805.099999999999
  0
LINE
  8
_0-5_寸法線
  6
CONTINUOUS
 62
    7
 10
523.6632812499937
 20
800.099999999999
 11
514.0040229871031
 21
797.51180954897393
  0
LINE
  8
_0-5_寸法線
  6
CONTINUOUS
 62
    7
 10
523.6632812499937
 20
800.099999999999
 11
514.0040229871031
 21
802.68819045102418
  0
LINE
  8
_0-5_寸法線
  6
CONTINUOUS
 62
    7
 10
426.6632812499937
 20
800.099999999999
 11
523.6632812499937
 21
800.099999999999
  0
TEXT
  8
_0-5_寸法線
 62
    7
 10
467.66328124999382
 20
800.09999999999923
 40
15
 41
1
 50
0
  1
97
  0
LINE
  8
_0-5_寸法線
  6
CONTINUOUS
 62
    7
 10
523.6632812499937
 20
800.099999999999
 11
533.32253951288442
 21
802.68819045102418
  0
LINE
  8
_0-5_寸法線
  6
CONTINUOUS
 62
    7
 10
523.6632812499937
 20
800.099999999999
 11
533.32253951288442
 21
797.51180954897382
  0
LINE
  8
_0-5_寸法線
  6
CONTINUOUS
 62
    7
 10
591.66328124999359
 20
760.09999999999991
 11
591.6632812499937
 21
805.099999999999
  0
LINE
  8
_0-5_寸法線
  6
CONTINUOUS
 62
    7
 10
591.6632812499937
 20
800.099999999999
 11
582.00402298710299
 21
797.51180954897393
  0
LINE
  8
_0-5_寸法線
  6
CONTINUOUS
 62
    7
 10
591.6632812499937
 20
800.099999999999
 11
582.00402298710299
 21
802.68819045102418
  0
LINE
  8
_0-5_寸法線
  6
CONTINUOUS
 62
    7
 10
523.6632812499937
 20
800.099999999999
 11
591.6632812499937
 21
800.099999999999
  0
TEXT
  8
_0-5_寸法線
 62
    7
 10
550.16328124999382
 20
800.09999999999923
 40
15
 41
1
 50
0
  1
Ｂ
  0
LINE
  8
_0-5_寸法線
  6
CONTINUOUS
 62
    7
 10
568.04419131073678
 20
584.79642948171613
 11
573.04419129863481
 21
576.13617543688474
  0
LINE
  8
_0-5_寸法線
  6
CONTINUOUS
 62
    7
 10
568.04419131073678
 20
584.79642948171613
 11
568.04419129676262
 21
574.79642948171613
  0
LINE
  8
_0-5_寸法線
  6
CONTINUOUS
 62
    7
 10
568.04419131073678
 20
584.79642948171613
 11
591.40167430023098
 21
497.62511574074097
  0
LINE
  8
_0-5_寸法線
  6
CONTINUOUS
 62
    7
 10
591.40167430023098
 20
497.62511574074097
 11
723.40167430023098
 21
497.62511574074097
  0
TEXT
  8
_0-5_寸法線
 62
    7
 10
591.40167430023098
 20
497.62511574074097
 40
15
 41
0.8000000000000001
 50
0
  1
セーフティグレーチング
  0
TEXT
  8
_0-5_寸法線
 62
    7
 10
591.63692024015359
 20
482.75381944444513
 40
15
 41
0.8000000000000001
 50
0
  1
ＧＲＳ－２０Ｗ２００
  0
LINE
  8
_0-7_枠細線
  6
CONTINUOUS
 62
    5
 10
359.80510875443821
 20
803.64116852818722
 11
352.30510875443821
 21
818.64116852818722
  0
LINE
  8
_0-7_枠細線
  6
CONTINUOUS
 62
    5
 10
344.80510875443821
 20
803.64116852818722
 11
359.80510875443821
 21
803.64116852818722
  0
LINE
  8
_0-7_枠細線
  6
CONTINUOUS
 62
    5
 10
352.30510875443821
 20
818.64116852818722
 11
344.80510875443821
 21
803.64116852818722
  0
TEXT
  8
_0-7_枠細線
 62
    5
 10
347.17026002258626
 20
803.33416628280679
 40
12.5
 41
0.8
 50
0
  1
１
  0
LINE
  8
_0-1_計細線
  6
CONTINUOUS
 62
    3
 10
217.66328124999362
 20
659.29999999999939
 11
800.66328124999359
 21
659.29999999999939
  0
LINE
  8
_0-1_計細線
  6
CONTINUOUS
 62
    3
 10
800.66328124999359
 20
659.29999999999939
 11
800.66328124999359
 21
647.89999999999873
  0
LINE
  8
_0-0_計極細
  6
CONTINUOUS
 62
    2
 10
217.66328124999362
 20
651.09999999999945
 11
800.66328124999359
 21
651.09999999999945
  0
LINE
  8
_0-0_計極細
  6
CONTINUOUS
 62
    2
 10
217.66328124999362
 20
656.09999999999945
 11
800.66328124999359
 21
656.09999999999945
  0
LINE
  8
_0-1_計細線
  6
CONTINUOUS
 62
    3
 10
217.66328124999362
 20
647.89999999999873
 11
800.66328124999359
 21
647.89999999999873
  0
LINE
  8
_0-1_計細線
  6
CONTINUOUS
 62
    3
 10
217.66328124999362
 20
659.29999999999939
 11
217.66328124999362
 21
647.89999999999873
  0
LINE
  8
_0-1_計細線
  6
CONTINUOUS
 62
    3
 10
217.66328124999362
 20
630.89999999999827
 11
800.66328124999359
 21
630.89999999999827
  0
LINE
  8
_0-1_計細線
  6
CONTINUOUS
 62
    3
 10
800.66328124999359
 20
642.29999999999893
 11
800.66328124999359
 21
630.89999999999827
  0
LINE
  8
_0-0_計極細
  6
CONTINUOUS
 62
    2
 10
217.66328124999362
 20
634.09999999999854
 11
800.66328124999359
 21
634.09999999999854
  0
LINE
  8
_0-0_計極細
  6
CONTINUOUS
 62
    2
 10
217.66328124999362
 20
639.09999999999854
 11
800.66328124999359
 21
639.09999999999854
  0
LINE
  8
_0-1_計細線
  6
CONTINUOUS
 62
    3
 10
217.66328124999362
 20
642.29999999999893
 11
217.66328124999362
 21
630.89999999999827
  0
LINE
  8
_0-1_計細線
  6
CONTINUOUS
 62
    3
 10
217.66328124999362
 20
642.29999999999893
 11
800.66328124999359
 21
642.29999999999893
  0
LINE
  8
_0-0_計極細
  6
CONTINUOUS
 62
    2
 10
323.16328124999359
 20
647.89999999999873
 11
323.16328124999359
 21
647.45000000000073
  0
LINE
  8
_0-0_計極細
  6
CONTINUOUS
 62
    2
 10
323.16328124999359
 20
642.75000000000091
 11
323.16328124999359
 21
642.29999999999893
  0
LINE
  8
_0-0_計極細
  6
CONTINUOUS
 62
    2
 10
336.16328124999364
 20
647.89999999999873
 11
336.16328124999364
 21
647.45000000000073
  0
LINE
  8
_0-0_計極細
  6
CONTINUOUS
 62
    2
 10
336.16328124999364
 20
642.75000000000091
 11
336.16328124999364
 21
642.29999999999893
  0
LINE
  8
_0-5_寸法線
  6
CONTINUOUS
 62
    7
 10
435.50709108463241
 20
542.07500000000164
 11
440.50709109575683
 21
533.41474596857995
  0
LINE
  8
_0-5_寸法線
  6
CONTINUOUS
 62
    7
 10
435.50709108463241
 20
542.07500000000164
 11
435.50709109747788
 21
532.07500000000164
  0
LINE
  8
_0-5_寸法線
  6
CONTINUOUS
 62
    7
 10
435.50709108463241
 20
542.07500000000164
 11
447.34846064209825
 21
497.88240740740918
  0
LINE
  8
_0-5_寸法線
  6
CONTINUOUS
 62
    7
 10
447.34846064209825
 20
497.88240740740918
 11
555.34846064209819
 21
497.88240740740918
  0
TEXT
  8
_0-5_寸法線
 62
    7
 10
447.34846064209825
 20
498.48240740740903
 40
15
 41
0.8000000000000001
 50
0
  1
ＳＵＳアングル受枠
  0
TEXT
  8
_0-5_寸法線
 62
    7
 10
447.34846064209825
 20
482.88240740740918
 40
15
 41
0.8000000000000001
 50
0
  1
ＧＳＬ－２０
  0
TEXT
  8
_0-7_枠細線
 62
    5
 10
938.85037037037023
 20
840
 40
12.5
 41
1
 50
0
  1
アンカー材質･厚み変更
  0
LINE
  8
_0-7_枠細線
  6
CONTINUOUS
 62
    5
 10
1425
 20
820
 11
890
 21
820
  0
TEXT
  8
_0-7_枠細線
 62
    5
 10
938.85037037037023
 20
822.5
 40
12.5
 41
1
 50
0
  1
取外具形状変更
  0
LINE
  8
_0-7_枠細線
  6
CONTINUOUS
 62
    5
 10
907.5
 20
836.44233397174685
 11
900
 21
821.44233397174685
  0
LINE
  8
_0-7_枠細線
  6
CONTINUOUS
 62
    5
 10
900
 20
821.44233397174685
 11
915
 21
821.44233397174685
  0
LINE
  8
_0-7_枠細線
  6
CONTINUOUS
 62
    5
 10
915
 20
821.44233397174685
 11
907.5
 21
836.44233397174685
  0
TEXT
  8
_0-7_枠細線
 62
    5
 10
902.36515126814822
 20
821.13533172636664
 40
12.5
 41
0.8
 50
0
  1
６
  0
TEXT
  8
_0-7_枠細線
 62
    5
 10
1180
 20
822.5
 40
12.5
 41
0.7199999999999999
 50
0
  1
２０２１．０５．０６
  0
LINE
  8
_0-7_枠細線
  6
CONTINUOUS
 62
    5
 10
890
 20
820
 11
890
 21
959.99999999999909
  0
LINE
  8
_0-7_枠細線
  6
CONTINUOUS
 62
    5
 10
925
 20
820
 11
925
 21
959.99999999999909
  0
LINE
  8
_0-7_枠細線
  6
CONTINUOUS
 62
    5
 10
1175
 20
820
 11
1175
 21
959.99999999999909
  0
LINE
  8
_0-7_枠細線
  6
CONTINUOUS
 62
    5
 10
1275
 20
820
 11
1275
 21
959.99999999999909
  0
LINE
  8
_0-7_枠細線
  6
CONTINUOUS
 62
    5
 10
1225.0000000000018
 20
777.45837512859055
 11
1225.0000000000018
 21
702.45837512859043
  0
TEXT
  8
_0-7_枠細線
 62
    5
 10
1174.000000000003
 20
732.45837512859043
 40
15
 41
0.5999999999999999
 50
0
  1
９９９
  0
TEXT
  8
_0-7_枠細線
 62
    5
 10
1181.500000000003
 20
757.45837512859043
 40
15
 41
0.8000000000000001
 50
0
  1
Ｌ
  0
LINE
  8
_0-7_枠細線
  6
CONTINUOUS
 62
    5
 10
1150.0000000000018
 20
777.45837512859055
 11
1150.0000000000018
 21
702.45837512859043
  0
TEXT
  8
_0-7_枠細線
 62
    5
 10
1094.5000000000016
 20
757.45837512859043
 40
15
 41
0.8000000000000001
 50
0
  1
種　別
  0
TEXT
  8
_0-7_枠細線
 62
    5
 10
1094.5000000000011
 20
732.45837512859043
 40
15
 41
0.8000000000000001
 50
0
  1
定尺品
  0
TEXT
  8
_0-7_枠細線
 62
    5
 10
1094.5000000000011
 20
707.45837512859043
 40
15
 41
0.8000000000000001
 50
0
  1
特寸品
  0
LINE
  8
_0-7_枠細線
  6
CONTINUOUS
 62
    5
 10
1075.0000000000002
 20
777.45837512859055
 11
1075.0000000000002
 21
702.45837512859043
  0
LINE
  8
_0-7_枠細線
  6
CONTINUOUS
 62
    5
 10
1300.000000000002
 20
777.45837512859055
 11
1300.000000000002
 21
702.45837512859043
  0
TEXT
  8
_0-7_枠細線
 62
    5
 10
1256.500000000003
 20
757.45837512859043
 40
15
 41
0.8000000000000001
 50
0
  1
Ａ
  0
TEXT
  8
_0-7_枠細線
 62
    5
 10
1244.5000000000023
 20
732.45837512859043
 40
15
 41
0.5999999999999999
 50
0
  1
１４．５
  0
TEXT
  8
_0-7_枠細線
 62
    5
 10
1151.500000000002
 20
707.45837512859043
 40
15
 41
0.5999999999999999
 50
0
  1
３０５～１３０５
  0
LINE
  8
_0-7_枠細線
  6
CONTINUOUS
 62
    5
 10
1375.0000000000025
 20
777.45837512859055
 11
1375.0000000000025
 21
702.45837512859043
  0
LINE
  8
_0-7_枠細線
  6
CONTINUOUS
 62
    5
 10
1075.0000000000002
 20
777.45837512859055
 11
1375.0000000000025
 21
777.45837512859055
  0
LINE
  8
_0-7_枠細線
  6
CONTINUOUS
 62
    5
 10
1075.0000000000002
 20
752.45837512859043
 11
1375.0000000000025
 21
752.45837512859043
  0
LINE
  8
_0-7_枠細線
  6
CONTINUOUS
 62
    5
 10
1075.0000000000002
 20
727.45837512859043
 11
1375.0000000000025
 21
727.45837512859043
  0
LINE
  8
_0-7_枠細線
  6
CONTINUOUS
 62
    5
 10
1075.0000000000002
 20
702.45837512859043
 11
1375.0000000000025
 21
702.45837512859043
  0
TEXT
  8
_0-7_枠細線
 62
    5
 10
1331.5000000000027
 20
757.45837512859043
 40
15
 41
0.8000000000000001
 50
0
  1
Ｂ
  0
TEXT
  8
_0-7_枠細線
 62
    5
 10
1328.5000000000025
 20
732.45837512859043
 40
15
 41
0.5999999999999999
 50
0
  1
９７
  0
TEXT
  8
_0-7_枠細線
 62
    5
 10
1163.0053911613959
 20
782.45837512859055
 40
17.5
 41
1
 50
0
  1
寸法表
  0
TEXT
  8
_0-7_枠細線
 62
    5
 10
1244.5000000000023
 20
707.45837512859043
 40
15
 41
0.5999999999999999
 50
0
  1
７～２０
  0
TEXT
  8
_0-7_枠細線
 62
    5
 10
1077.0482061696202
 20
681.73280458415547
 40
15
 41
0.8000000000000001
 50
0
  1
※ 特寸品はAが20以下となるようBにて調整
  0
TEXT
  8
_0-7_枠細線
 62
    5
 10
1315.0000000000025
 20
707.45837512859043
 40
15
 41
0.5999999999999999
 50
0
  1
２７～９７
  0
LINE
  8
_0-5_寸法線
  6
CONTINUOUS
 62
    7
 10
217.66328124999376
 20
760.099999999999
 11
217.66328124999504
 21
840.099999999999
  0
LINE
  8
_0-5_寸法線
  6
CONTINUOUS
 62
    7
 10
217.66328124999495
 20
835.099999999999
 11
224.90772494716296
 21
837.041142838268
  0
LINE
  8
_0-5_寸法線
  6
CONTINUOUS
 62
    7
 10
217.66328124999495
 20
835.099999999999
 11
224.90772494716296
 21
833.15885716173011
  0
LINE
  8
_0-5_寸法線
  6
CONTINUOUS
 62
    7
 10
800.6632812499937
 20
760.09999999999991
 11
800.66328124999518
 21
840.099999999999
  0
LINE
  8
_0-5_寸法線
  6
CONTINUOUS
 62
    7
 10
800.66328124999495
 20
835.099999999999
 11
793.41883755282709
 21
833.15885716173011
  0
LINE
  8
_0-5_寸法線
  6
CONTINUOUS
 62
    7
 10
800.66328124999495
 20
835.099999999999
 11
793.41883755282709
 21
837.041142838268
  0
LINE
  8
_0-5_寸法線
  6
CONTINUOUS
 62
    7
 10
217.66328124999495
 20
835.099999999999
 11
800.66328124999495
 21
835.099999999999
  0
TEXT
  8
_0-5_寸法線
 62
    7
 10
501.66328124999524
 20
835.09999999999923
 40
15
 41
1
 50
0
  1
Ｌ
  0
LINE
  8
_0-5_寸法線
  6
CONTINUOUS
 62
    7
 10
785.66328124999359
 20
760.09999999999991
 11
785.66328124999359
 21
805.099999999999
  0
LINE
  8
_0-5_寸法線
  6
CONTINUOUS
 62
    7
 10
785.66328124999359
 20
800.099999999999
 11
795.32253951288442
 21
802.68819045102418
  0
LINE
  8
_0-5_寸法線
  6
CONTINUOUS
 62
    7
 10
785.66328124999359
 20
800.099999999999
 11
795.32253951288442
 21
797.51180954897393
  0
LINE
  8
_0-5_寸法線
  6
CONTINUOUS
 62
    7
 10
800.66328124999359
 20
760.10000000000093
 11
800.66328124999359
 21
805.099999999999
  0
LINE
  8
_0-5_寸法線
  6
CONTINUOUS
 62
    7
 10
800.66328124999359
 20
800.099999999999
 11
791.00402298710287
 21
797.51180954897393
  0
LINE
  8
_0-5_寸法線
  6
CONTINUOUS
 62
    7
 10
800.66328124999359
 20
800.099999999999
 11
791.00402298710287
 21
802.68819045102418
  0
LINE
  8
_0-5_寸法線
  6
CONTINUOUS
 62
    7
 10
785.66328124999359
 20
800.099999999999
 11
800.66328124999359
 21
800.099999999999
  0
TEXT
  8
_0-5_寸法線
 62
    7
 10
785.66328124999359
 20
800.09999999999923
 40
15
 41
1
 50
0
  1
Ａ
  0
LINE
  8
_0-1_計細線
  6
CONTINUOUS
 62
    3
 10
290.6096914115069
 20
642.75000000000091
 11
343.6096914115069
 21
642.75000000000091
  0
LINE
  8
_0-1_計細線
  6
CONTINUOUS
 62
    3
 10
343.6096914115069
 20
647.45000000000073
 11
290.6096914115069
 21
647.45000000000073
  0
LINE
  8
_0-1_計細線
  6
CONTINUOUS
 62
    3
 10
290.6096914115069
 20
647.45000000000073
 11
290.6096914115069
 21
642.75000000000091
  0
LINE
  8
_0-1_計細線
  6
CONTINUOUS
 62
    3
 10
333.6096914115069
 20
647.45000000000073
 11
333.6096914115069
 21
642.75000000000091
  0
LINE
  8
_0-1_計細線
  6
CONTINUOUS
 62
    3
 10
341.60969141150696
 20
647.45000000000073
 11
341.60969141150696
 21
642.75000000000091
  0
LINE
  8
_0-1_計細線
  6
CONTINUOUS
 62
    3
 10
343.6096914115069
 20
647.45000000000073
 11
343.6096914115069
 21
642.75000000000091
  0
LINE
  8
_0-1_計細線
  6
CONTINUOUS
 62
    3
 10
339.6096914115069
 20
647.45000000000073
 11
339.6096914115069
 21
642.75000000000091
  0
LINE
  8
_0-1_計細線
  6
CONTINUOUS
 62
    3
 10
337.6096914115069
 20
647.45000000000073
 11
337.6096914115069
 21
642.75000000000091
  0
LINE
  8
_0-1_計細線
  6
CONTINUOUS
 62
    3
 10
335.6096914115069
 20
647.45000000000073
 11
335.6096914115069
 21
642.75000000000091
  0
LINE
  8
_0-5_寸法線
  6
CONTINUOUS
 62
    7
 10
832.16328124999563
 20
750.09999999999991
 11
912.16328124999575
 21
750.09999999999991
  0
LINE
  8
_0-5_寸法線
  6
CONTINUOUS
 62
    7
 10
907.16328124999575
 20
750.09999999999991
 11
909.75147170102105
 21
740.44074173710919
  0
LINE
  8
_0-5_寸法線
  6
CONTINUOUS
 62
    7
 10
907.16328124999575
 20
750.09999999999991
 11
904.57509079897045
 21
740.44074173710919
  0
LINE
  8
_0-5_寸法線
  6
CONTINUOUS
 62
    7
 10
832.16328124999677
 20
540.10000000000127
 11
912.1632812499962
 21
540.10000000000127
  0
LINE
  8
_0-5_寸法線
  6
CONTINUOUS
 62
    7
 10
907.1632812499962
 20
540.10000000000127
 11
904.57509079897113
 21
549.75925826289199
  0
LINE
  8
_0-5_寸法線
  6
CONTINUOUS
 62
    7
 10
907.1632812499962
 20
540.10000000000127
 11
909.7514717010215
 21
549.75925826289199
  0
LINE
  8
_0-5_寸法線
  6
CONTINUOUS
 62
    7
 10
907.16328124999575
 20
750.09999999999991
 11
907.1632812499962
 21
540.10000000000127
  0
TEXT
  8
_0-5_寸法線
 62
    7
 10
907.16328124999586
 20
633.84999999999854
 40
15
 41
1
 50
90
  1
210
  0
LINE
  8
_0-5_寸法線
  6
CONTINUOUS
 62
    7
 10
872.16328124999575
 20
750.09999999999991
 11
869.57509079897068
 21
759.75925826289074
  0
LINE
  8
_0-5_寸法線
  6
CONTINUOUS
 62
    7
 10
872.16328124999575
 20
750.09999999999991
 11
874.75147170102105
 21
759.75925826289074
  0
LINE
  8
_0-5_寸法線
  6
CONTINUOUS
 62
    7
 10
832.16328124999563
 20
747.09999999999991
 11
877.16328124999575
 21
747.09999999999991
  0
CIRCLE
  8
_0-5_寸法線
  6
CONTINUOUS
 62
    1
 10
872.16328124999575
 20
747.09999999999991
 40
1.5000000000000002
  0
LINE
  8
_0-5_寸法線
  6
CONTINUOUS
 62
    7
 10
872.16328124999575
 20
775.09999999999991
 11
872.16328124999575
 21
747.09999999999991
  0
TEXT
  8
_0-5_寸法線
 62
    7
 10
872.16328124999575
 20
763.53547364248925
 40
15
 41
1
 50
90
  1
3
  0
LINE
  8
_0-5_寸法線
  6
CONTINUOUS
 62
    7
 10
832.16328124999563
 20
745.10000000000082
 11
877.16328124999575
 21
745.10000000000082
  0
LINE
  8
_0-5_寸法線
  6
CONTINUOUS
 62
    7
 10
872.16328124999575
 20
747.09999999999991
 11
872.16328124999575
 21
745.10000000000082
  0
TEXT
  8
_0-5_寸法線
 62
    7
 10
892.25190469899474
 20
739.59999999999991
 40
15
 41
1
 50
90
  1
2
  0
LINE
  8
_0-5_寸法線
  6
CONTINUOUS
 62
    7
 10
872.16328124999575
 20
745.10000000000082
 11
874.75147170102105
 21
735.44074173710999
  0
LINE
  8
_0-5_寸法線
  6
CONTINUOUS
 62
    7
 10
872.16328124999575
 20
745.10000000000082
 11
869.57509079897045
 21
735.44074173710999
  0
LINE
  8
_0-5_寸法線
  6
CONTINUOUS
 62
    7
 10
832.16328124999563
 20
545.10000000000127
 11
877.1632812499962
 21
545.10000000000127
  0
LINE
  8
_0-5_寸法線
  6
CONTINUOUS
 62
    7
 10
872.1632812499962
 20
545.10000000000127
 11
869.57509079897113
 21
554.75925826289199
  0
LINE
  8
_0-5_寸法線
  6
CONTINUOUS
 62
    7
 10
872.1632812499962
 20
545.10000000000127
 11
874.7514717010215
 21
554.75925826289199
  0
LINE
  8
_0-5_寸法線
  6
CONTINUOUS
 62
    7
 10
872.16328124999575
 20
745.10000000000082
 11
872.1632812499962
 21
545.10000000000127
  0
TEXT
  8
_0-5_寸法線
 62
    7
 10
872.16328124999586
 20
633.85000000000082
 40
15
 41
1
 50
90
  1
200
  0
LINE
  8
_0-5_寸法線
  6
CONTINUOUS
 62
    7
 10
832.16328124999563
 20
543.10000000000127
 11
877.1632812499962
 21
543.10000000000127
  0
CIRCLE
  8
_0-5_寸法線
  6
CONTINUOUS
 62
    1
 10
872.1632812499962
 20
543.10000000000127
 40
1.5000000000000002
  0
LINE
  8
_0-5_寸法線
  6
CONTINUOUS
 62
    7
 10
872.1632812499962
 20
545.10000000000127
 11
872.1632812499962
 21
543.10000000000127
  0
TEXT
  8
_0-5_寸法線
 62
    7
 10
892.99947152860739
 20
543.72085455782087
 40
15
 41
1
 50
90
  1
2
  0
LINE
  8
_0-5_寸法線
  6
CONTINUOUS
 62
    7
 10
872.1632812499962
 20
540.10000000000127
 11
874.7514717010215
 21
530.44074173711056
  0
LINE
  8
_0-5_寸法線
  6
CONTINUOUS
 62
    7
 10
872.1632812499962
 20
540.10000000000127
 11
869.5750907989709
 21
530.44074173711056
  0
LINE
  8
_0-5_寸法線
  6
CONTINUOUS
 62
    7
 10
872.1632812499962
 20
543.10000000000127
 11
872.1632812499962
 21
515.10000000000127
  0
TEXT
  8
_0-5_寸法線
 62
    7
 10
872.1632812499962
 20
519.7966486105604
 40
15
 41
1
 50
90
  1
3
  0
LINE
  8
_0-b_細線3
  6
CONTINUOUS
 62
    7
 10
496.95508651983459
 20
276.71245819900633
 11
496.95508651983459
 21
245.04579153233925
  0
LINE
  8
_0-b_細線3
  6
CONTINUOUS
 62
    7
 10
489.12175318650065
 20
245.04579153233925
 11
489.12175318650065
 21
276.71245819900633
  0
LINE
  8
_0-b_細線3
  6
CONTINUOUS
 62
    7
 10
496.95508651983459
 20
245.04579153233925
 11
489.12175318650065
 21
245.04579153233925
  0
LINE
  8
_0-b_細線3
  6
CONTINUOUS
 62
    7
 10
489.12175318650065
 20
276.71245819900633
 11
496.95508651983459
 21
276.71245819900633
  0
LINE
  8
_0-b_細線3
  6
DASHED2
 62
    7
 10
489.12175318650065
 20
250.04579153233925
 11
496.95508651983459
 21
250.04579153233925
  0
LINE
  8
_0-b_細線3
  6
DASHED2
 62
    7
 10
489.12175318650065
 20
272.54579153233971
 11
496.95508651983459
 21
272.54579153233971
  0
LINE
  8
_0-d_寸法3
  6
CONTINUOUS
 62
    7
 10
484.84742105574549
 20
249.4482225625197
 11
449.49507933005998
 21
274.20219873221049
  0
LINE
  8
_0-d_寸法3
  6
CONTINUOUS
 62
    7
 10
453.59083955150487
 20
271.33431655045524
 11
451.00264910047969
 21
280.99357481334596
  0
LINE
  8
_0-d_寸法3
  6
CONTINUOUS
 62
    7
 10
453.59083955150487
 20
271.33431655045524
 11
456.17903000253017
 21
280.99357481334596
  0
LINE
  8
_0-d_寸法3
  6
CONTINUOUS
 62
    7
 10
484.84742105574549
 20
282.78155589585322
 11
449.49507933005998
 21
307.53553206554398
  0
LINE
  8
_0-d_寸法3
  6
CONTINUOUS
 62
    7
 10
453.59083955150487
 20
304.66764988378873
 11
456.17903000253011
 21
295.00839162089801
  0
LINE
  8
_0-d_寸法3
  6
CONTINUOUS
 62
    7
 10
453.59083955150487
 20
304.66764988378873
 11
451.00264910047969
 21
295.00839162089807
  0
LINE
  8
_0-d_寸法3
  6
CONTINUOUS
 62
    7
 10
453.59083955150487
 20
271.33431655045524
 11
453.59083955150487
 21
304.66764988378873
  0
TEXT
  8
_0-d_寸法3
 62
    7
 10
453.59083955150487
 20
280.50098321712176
 40
15
 41
1
 50
90
  1
20
  0
LINE
  8
_0-d_寸法3
  6
CONTINUOUS
 62
    7
 10
535.53841985437316
 20
287.04579153234272
 11
535.53841985437316
 21
332.04615653402107
  0
LINE
  8
_0-d_寸法3
  6
CONTINUOUS
 62
    7
 10
535.53841985437316
 20
327.04615653402107
 11
545.19767811726388
 21
329.63434698504625
  0
LINE
  8
_0-d_寸法3
  6
CONTINUOUS
 62
    7
 10
535.53841985437316
 20
327.04615653402107
 11
545.19767811726388
 21
324.45796608299588
  0
LINE
  8
_0-d_寸法3
  6
CONTINUOUS
 62
    7
 10
563.87175318830964
 20
287.04579153234272
 11
563.87175318830964
 21
332.04615653402107
  0
LINE
  8
_0-d_寸法3
  6
CONTINUOUS
 62
    7
 10
563.87175318830964
 20
327.04615653402107
 11
554.21249492541892
 21
324.45796608299588
  0
LINE
  8
_0-d_寸法3
  6
CONTINUOUS
 62
    7
 10
563.87175318830964
 20
327.04615653402107
 11
554.21249492541892
 21
329.63434698504636
  0
LINE
  8
_0-d_寸法3
  6
CONTINUOUS
 62
    7
 10
535.53841985437316
 20
327.04615653402107
 11
563.87175318830964
 21
327.04615653402107
  0
TEXT
  8
_0-d_寸法3
 62
    7
 10
533.54910922873637
 20
312.04615653402107
 40
15
 41
1
 50
0
  1
(17)
  0
LINE
  8
_0-d_寸法3
  6
CONTINUOUS
 62
    7
 10
563.87175318830964
 20
327.04615653402107
 11
573.53101145120036
 21
329.63434698504619
  0
LINE
  8
_0-d_寸法3
  6
CONTINUOUS
 62
    7
 10
563.87175318830964
 20
327.04615653402107
 11
573.53101145120036
 21
324.45796608299582
  0
LINE
  8
_0-d_寸法3
  6
CONTINUOUS
 62
    7
 10
592.20508652224612
 20
287.04579153234272
 11
592.20508652224612
 21
332.04615653402107
  0
LINE
  8
_0-d_寸法3
  6
CONTINUOUS
 62
    7
 10
592.20508652224612
 20
327.04615653402107
 11
582.5458282593554
 21
324.45796608299588
  0
LINE
  8
_0-d_寸法3
  6
CONTINUOUS
 62
    7
 10
592.20508652224612
 20
327.04615653402107
 11
582.5458282593554
 21
329.63434698504636
  0
LINE
  8
_0-d_寸法3
  6
CONTINUOUS
 62
    7
 10
563.87175318830964
 20
327.04615653402107
 11
592.20508652224612
 21
327.04615653402107
  0
TEXT
  8
_0-d_寸法3
 62
    7
 10
563.94910922873646
 20
327.04615653402107
 40
15
 41
1
 50
0
  1
(17)
  0
LINE
  8
_0-d_寸法3
  6
CONTINUOUS
 62
    7
 10
403.37175318285313
 20
287.04615653402107
 11
403.37175318285318
 21
332.04615653402107
  0
LINE
  8
_0-d_寸法3
  6
CONTINUOUS
 62
    7
 10
403.37175318285318
 20
327.04615653402107
 11
393.71249491996247
 21
324.45796608299588
  0
LINE
  8
_0-d_寸法3
  6
CONTINUOUS
 62
    7
 10
403.37175318285318
 20
327.04615653402107
 11
393.71249491996252
 21
329.63434698504636
  0
LINE
  8
_0-d_寸法3
  6
CONTINUOUS
 62
    7
 10
412.70508652046766
 20
287.04615653402107
 11
412.70508652046772
 21
332.04615653402107
  0
LINE
  8
_0-d_寸法3
  6
CONTINUOUS
 62
    7
 10
363.9977974996857
 20
327.04615653402107
 11
412.70508652046772
 21
327.04615653402107
  0
TEXT
  8
_0-d_寸法3
 62
    7
 10
363.99779749968565
 20
312.04615653402107
 40
15
 41
1
 50
0
  1
(5.6)
  0
LINE
  8
_0-d_寸法3
  6
CONTINUOUS
 62
    7
 10
412.70508652046772
 20
327.04615653402107
 11
422.36434478335838
 21
329.63434698504625
  0
LINE
  8
_0-d_寸法3
  6
CONTINUOUS
 62
    7
 10
412.70508652046772
 20
327.04615653402107
 11
422.36434478335838
 21
324.45796608299588
  0
LINE
  8
_0-d_寸法3
  6
CONTINUOUS
 62
    7
 10
431.70508651618593
 20
287.04615653402107
 11
431.70508651618599
 21
332.04615653402107
  0
LINE
  8
_0-d_寸法3
  6
CONTINUOUS
 62
    7
 10
431.70508651618599
 20
327.04615653402107
 11
422.04582825329521
 21
324.45796608299588
  0
LINE
  8
_0-d_寸法3
  6
CONTINUOUS
 62
    7
 10
431.70508651618599
 20
327.04615653402107
 11
422.04582825329533
 21
329.63434698504636
  0
LINE
  8
_0-d_寸法3
  6
CONTINUOUS
 62
    7
 10
412.70508652046772
 20
327.04615653402107
 11
431.70508651618599
 21
327.04615653402107
  0
TEXT
  8
_0-d_寸法3
 62
    7
 10
403.44039009227822
 20
327.04615653402107
 40
15
 41
1
 50
0
  1
11.4
  0
LINE
  8
_0-d_寸法3
  6
CONTINUOUS
 62
    7
 10
318.03841985316723
 20
282.04615653402107
 11
318.03841985316723
 21
402.04615653402107
  0
LINE
  8
_0-d_寸法3
  6
CONTINUOUS
 62
    7
 10
318.03841985316723
 20
397.04615653402107
 11
327.69767811605783
 21
399.63434698504625
  0
LINE
  8
_0-d_寸法3
  6
CONTINUOUS
 62
    7
 10
318.03841985316723
 20
397.04615653402107
 11
327.69767811605783
 21
394.45796608299588
  0
LINE
  8
_0-d_寸法3
  6
CONTINUOUS
 62
    7
 10
668.0384198531674
 20
282.04615653402107
 11
668.03841985316762
 21
402.04615653402107
  0
LINE
  8
_0-d_寸法3
  6
CONTINUOUS
 62
    7
 10
668.03841985316762
 20
397.04615653402107
 11
658.37916159027702
 21
394.45796608299588
  0
LINE
  8
_0-d_寸法3
  6
CONTINUOUS
 62
    7
 10
668.03841985316762
 20
397.04615653402107
 11
658.37916159027702
 21
399.63434698504636
  0
LINE
  8
_0-d_寸法3
  6
CONTINUOUS
 62
    7
 10
318.03841985316723
 20
397.04615653402107
 11
668.03841985316762
 21
397.04615653402107
  0
TEXT
  8
_0-d_寸法3
 62
    7
 10
481.78841985316757
 20
397.04615653402107
 40
15
 41
1
 50
0
  1
210
  0
LINE
  8
_0-d_寸法3
  6
CONTINUOUS
 62
    7
 10
318.03841985316723
 20
362.04615653402107
 11
308.37916159027645
 21
359.45796608299588
  0
LINE
  8
_0-d_寸法3
  6
CONTINUOUS
 62
    7
 10
318.03841985316723
 20
362.04615653402107
 11
308.37916159027657
 21
364.63434698504636
  0
LINE
  8
_0-d_寸法3
  6
CONTINUOUS
 62
    7
 10
323.03841985316717
 20
282.04615653402107
 11
323.03841985316728
 21
367.04615653402107
  0
CIRCLE
  8
_0-d_寸法3
  6
CONTINUOUS
 62
    1
 10
323.03841985316728
 20
362.04615653402107
 40
1.5000000000000002
  0
LINE
  8
_0-d_寸法3
  6
CONTINUOUS
 62
    7
 10
293.03841985316723
 20
362.04615653402107
 11
323.03841985316728
 21
362.04615653402107
  0
TEXT
  8
_0-d_寸法3
 62
    7
 10
299.30468088646433
 20
362.04615653402107
 40
15
 41
1
 50
0
  1
3
  0
LINE
  8
_0-d_寸法3
  6
CONTINUOUS
 62
    7
 10
326.3717531865006
 20
282.04615653402107
 11
326.37175318650065
 21
367.04615653402107
  0
LINE
  8
_0-d_寸法3
  6
CONTINUOUS
 62
    7
 10
323.03841985316728
 20
362.04615653402107
 11
326.37175318650065
 21
362.04615653402107
  0
TEXT
  8
_0-d_寸法3
 62
    7
 10
320.95508651983374
 20
362.04615653402107
 40
15
 41
1
 50
0
  1
2
  0
LINE
  8
_0-d_寸法3
  6
CONTINUOUS
 62
    7
 10
326.37175318650065
 20
362.04615653402107
 11
336.03101144939131
 21
364.63434698504625
  0
LINE
  8
_0-d_寸法3
  6
CONTINUOUS
 62
    7
 10
326.37175318650065
 20
362.04615653402107
 11
336.03101144939131
 21
359.45796608299588
  0
LINE
  8
_0-d_寸法3
  6
CONTINUOUS
 62
    7
 10
659.70508652040667
 20
282.04615653402107
 11
659.70508652040678
 21
367.04615653402107
  0
LINE
  8
_0-d_寸法3
  6
CONTINUOUS
 62
    7
 10
659.70508652040678
 20
362.04615653402107
 11
650.04582825751618
 21
359.45796608299588
  0
LINE
  8
_0-d_寸法3
  6
CONTINUOUS
 62
    7
 10
659.70508652040678
 20
362.04615653402107
 11
650.04582825751618
 21
364.63434698504636
  0
LINE
  8
_0-d_寸法3
  6
CONTINUOUS
 62
    7
 10
326.37175318650065
 20
362.04615653402107
 11
659.70508652040678
 21
362.04615653402107
  0
TEXT
  8
_0-d_寸法3
 62
    7
 10
481.78841985316757
 20
362.04615653402107
 40
15
 41
1
 50
0
  1
200
  0
LINE
  8
_0-d_寸法3
  6
CONTINUOUS
 62
    7
 10
663.03841985374004
 20
282.04615653402107
 11
663.03841985374015
 21
367.04615653402107
  0
CIRCLE
  8
_0-d_寸法3
  6
CONTINUOUS
 62
    1
 10
663.03841985374015
 20
362.04615653402107
 40
1.5000000000000002
  0
LINE
  8
_0-d_寸法3
  6
CONTINUOUS
 62
    7
 10
659.70508652040678
 20
362.04615653402107
 11
663.03841985374015
 21
362.04615653402107
  0
TEXT
  8
_0-d_寸法3
 62
    7
 10
657.62175318650111
 20
362.04615653402107
 40
15
 41
1
 50
0
  1
2
  0
LINE
  8
_0-d_寸法3
  6
CONTINUOUS
 62
    7
 10
668.03841985316762
 20
362.04615653402107
 11
677.69767811605834
 21
364.63434698504619
  0
LINE
  8
_0-d_寸法3
  6
CONTINUOUS
 62
    7
 10
668.03841985316762
 20
362.04615653402107
 11
677.69767811605834
 21
359.45796608299582
  0
LINE
  8
_0-d_寸法3
  6
CONTINUOUS
 62
    7
 10
663.03841985374015
 20
362.04615653402107
 11
693.03841985316762
 21
362.04615653402107
  0
TEXT
  8
_0-d_寸法3
 62
    7
 10
681.1275769097158
 20
362.04615653402107
 40
15
 41
1
 50
0
  1
3
  0
TEXT
  8
_0-7_枠細線
 62
    5
 10
558.06534196310224
 20
96.24691427212241
 40
20
 41
0.6
 50
0
  1
Ｓ＝１：３
  0
LINE
  8
_0-d_寸法3
  6
CONTINUOUS
 62
    7
 10
308.03841985316723
 20
277.04615653402118
 11
259.2050865198338
 21
277.04615653402107
  0
LINE
  8
_0-d_寸法3
  6
CONTINUOUS
 62
    7
 10
264.2050865198338
 20
277.04615653402107
 11
266.7932769708591
 21
267.38689827113035
  0
LINE
  8
_0-d_寸法3
  6
CONTINUOUS
 62
    7
 10
264.2050865198338
 20
277.04615653402107
 11
261.61689606880861
 21
267.38689827113041
  0
LINE
  8
_0-d_寸法3
  6
CONTINUOUS
 62
    7
 10
304.2050865198338
 20
238.71282320068758
 11
259.20508651983397
 21
238.71282320068755
  0
LINE
  8
_0-d_寸法3
  6
CONTINUOUS
 62
    7
 10
264.20508651983397
 20
238.71282320068755
 11
261.61689606880873
 21
248.37208146357824
  0
LINE
  8
_0-d_寸法3
  6
CONTINUOUS
 62
    7
 10
264.20508651983397
 20
238.71282320068755
 11
266.79327697085915
 21
248.37208146357824
  0
LINE
  8
_0-d_寸法3
  6
CONTINUOUS
 62
    7
 10
264.2050865198338
 20
277.04615653402107
 11
264.20508651983397
 21
238.71282320068755
  0
TEXT
  8
_0-d_寸法3
 62
    7
 10
264.20508651983397
 20
250.37948986735432
 40
15
 41
1
 50
90
  1
23
  0
LINE
  8
_0-d_寸法3
  6
CONTINUOUS
 62
    7
 10
304.2050865198338
 20
238.71282320068758
 11
259.20508651983397
 21
238.71282320068755
  0
LINE
  8
_0-d_寸法3
  6
CONTINUOUS
 62
    7
 10
264.20508651983397
 20
238.71282320068755
 11
266.79327697085915
 21
229.05356493779686
  0
LINE
  8
_0-d_寸法3
  6
CONTINUOUS
 62
    7
 10
264.20508651983397
 20
238.71282320068755
 11
261.61689606880873
 21
229.05356493779689
  0
LINE
  8
_0-d_寸法3
  6
CONTINUOUS
 62
    7
 10
304.2050865198338
 20
200.37948986735429
 11
259.20508651983414
 21
200.37948986735429
  0
LINE
  8
_0-d_寸法3
  6
CONTINUOUS
 62
    7
 10
264.20508651983414
 20
200.37948986735429
 11
261.61689606880884
 21
210.03874813024495
  0
LINE
  8
_0-d_寸法3
  6
CONTINUOUS
 62
    7
 10
264.20508651983414
 20
200.37948986735429
 11
266.79327697085921
 21
210.03874813024495
  0
LINE
  8
_0-d_寸法3
  6
CONTINUOUS
 62
    7
 10
264.20508651983397
 20
238.71282320068755
 11
264.20508651983414
 21
200.37948986735429
  0
TEXT
  8
_0-d_寸法3
 62
    7
 10
264.20508651983403
 20
212.04615653402087
 40
15
 41
1
 50
90
  1
23
  0
LINE
  8
_0-5_寸法線
  6
CONTINUOUS
 62
    7
 10
302.22639708498593
 20
643.8671556737869
 11
307.22639707778484
 21
635.20690163178483
  0
LINE
  8
_0-5_寸法線
  6
CONTINUOUS
 62
    7
 10
302.22639708498593
 20
643.8671556737869
 11
302.22639707667088
 21
633.86715567378678
  0
LINE
  8
_0-5_寸法線
  6
CONTINUOUS
 62
    7
 10
302.22639708498593
 20
643.8671556737869
 11
341.41183345419279
 21
497.62511574074097
  0
LINE
  8
_0-5_寸法線
  6
CONTINUOUS
 62
    7
 10
341.41183345419279
 20
497.62511574074097
 11
401.41183345419279
 21
497.62511574074097
  0
TEXT
  8
_0-5_寸法線
 62
    7
 10
341.41183345419279
 20
497.62511574074097
 40
15
 41
0.8000000000000001
 50
0
  1
取　外　具
  0
TEXT
  8
_0-5_寸法線
 62
    7
 10
341.41183345419279
 20
482.62511574074097
 40
15
 41
0.8000000000000001
 50
0
  1
(標準付属)
  0
TEXT
  8
_0-7_枠細線
 62
    5
 10
346.09162081562204
 20
515.08987978569303
 40
12.5
 41
0.8
 50
0
  1
２
  0
LINE
  8
_0-7_枠細線
  6
CONTINUOUS
 62
    5
 10
358.72646954747393
 20
515.39688203107357
 11
351.22646954747393
 21
530.39688203107357
  0
LINE
  8
_0-7_枠細線
  6
CONTINUOUS
 62
    5
 10
343.72646954747393
 20
515.39688203107357
 11
358.72646954747393
 21
515.39688203107357
  0
LINE
  8
_0-7_枠細線
  6
CONTINUOUS
 62
    5
 10
351.22646954747393
 20
530.39688203107357
 11
343.72646954747393
 21
515.39688203107357
  0
LINE
  8
_0-7_枠細線
  6
CONTINUOUS
 62
    5
 10
377.4404534621703
 20
515.39688203107357
 11
369.9404534621703
 21
530.39688203107357
  0
LINE
  8
_0-7_枠細線
  6
CONTINUOUS
 62
    5
 10
362.4404534621703
 20
515.39688203107357
 11
377.4404534621703
 21
515.39688203107357
  0
LINE
  8
_0-7_枠細線
  6
CONTINUOUS
 62
    5
 10
369.9404534621703
 20
530.39688203107357
 11
362.4404534621703
 21
515.39688203107357
  0
TEXT
  8
_0-7_枠細線
 62
    5
 10
364.80560473031835
 20
514.84919814089221
 40
12.5
 41
0.8
 50
0
  1
３
  0
LINE
  8
_0-7_枠細線
  6
CONTINUOUS
 62
    5
 10
396.15443737686661
 20
515.39688203107357
 11
388.65443737686661
 21
530.39688203107357
  0
LINE
  8
_0-7_枠細線
  6
CONTINUOUS
 62
    5
 10
381.15443737686655
 20
515.39688203107357
 11
396.15443737686661
 21
515.39688203107357
  0
LINE
  8
_0-7_枠細線
  6
CONTINUOUS
 62
    5
 10
388.65443737686661
 20
530.39688203107357
 11
381.15443737686655
 21
515.39688203107357
  0
TEXT
  8
_0-7_枠細線
 62
    5
 10
383.51958864501466
 20
514.84919814089221
 40
12.5
 41
0.8
 50
0
  1
６
  0
TEXT
  8
_0-7_枠細線
 62
    5
 10
1183.7499999999998
 20
498.75000000000028
 40
15
 41
1
 50
0
  1
2.4kg/m
  0
TEXT
  8
_0-7_枠細線
 62
    5
 10
1266.2499999999998
 20
498.75000000000028
 40
15
 41
1
 50
0
  1
2.4kg/m組
  0
LINE
  8
_0-a_極細3
  6
CENTER1
 62
    7
 10
666.15869448189483
 20
258.37912486567603
 11
320.51178540146702
 21
258.37912486567603
  0
LINE
  8
_0-b_細線3
  6
CONTINUOUS
 62
    7
 10
330.53841985182765
 20
258.37912486567564
 11
325.53089318516095
 21
258.37912486567564
  0
LINE
  8
_0-b_細線3
  6
CONTINUOUS
 62
    7
 10
330.53841985182765
 20
252.54579153234303
 11
325.53087318516185
 21
252.54579153234303
  0
ARC
  8
_0-b_細線3
  6
CONTINUOUS
 62
    7
 10
325.53087318516185
 20
252.87912486567606
 40
0.3333333333333334
 50
179.99999999999983
 51
269.99999999999977
  0
ARC
  8
_0-b_細線3
  6
CONTINUOUS
 62
    7
 10
338.1275065184945
 20
255.4622148656766
 40
12.929926666666667
 50
166.96197800000505
 51
193.03566999999961
  0
ARC
  8
_0-b_細線3
  6
CONTINUOUS
 62
    7
 10
325.53087318516185
 20
263.87912486567649
 40
0.3333333333333334
 50
89.999999999999915
 51
179.99999999999983
  0
ARC
  8
_0-b_細線3
  6
CONTINUOUS
 62
    7
 10
338.1275065184945
 20
261.29603153234245
 40
12.929926666666667
 50
166.96433000000002
 51
193.03802199999851
  0
LINE
  8
_0-b_細線3
  6
CONTINUOUS
 62
    7
 10
330.53841985182765
 20
264.21245819900952
 11
325.53087318516185
 21
264.21245819900952
  0
LINE
  8
_0-b_細線3
  6
CONTINUOUS
 62
    7
 10
325.19753985182797
 20
252.87912486567606
 11
325.19753985182797
 21
263.87912486567649
  0
ARC
  8
_0-b_細線3
  6
CONTINUOUS
 62
    7
 10
330.87175318516137
 20
247.87912486567603
 40
0.3333333333333334
 50
179.99999999999983
 51
269.99999999999977
  0
ARC
  8
_0-b_細線3
  6
CONTINUOUS
 62
    7
 10
330.87175318516137
 20
268.87912486567558
 40
0.3333333333333334
 50
89.999999999999915
 51
179.99999999999983
  0
LINE
  8
_0-b_細線3
  6
CONTINUOUS
 62
    7
 10
330.53841985182765
 20
257.54579153234255
 11
330.53841985182765
 21
247.87912486567603
  0
LINE
  8
_0-b_細線3
  6
CONTINUOUS
 62
    7
 10
330.53841985182765
 20
268.87912486567558
 11
330.53841985182765
 21
257.54579153234255
  0
LINE
  8
_0-b_細線3
  6
CONTINUOUS
 62
    7
 10
333.03841985103588
 20
247.54579153234255
 11
330.87175318516137
 21
247.54579153234255
  0
LINE
  8
_0-b_細線3
  6
CONTINUOUS
 62
    7
 10
333.03841985261948
 20
269.21245819900952
 11
330.87175318516137
 21
269.21245819900952
  0
LINE
  8
_0-b_細線3
  6
CONTINUOUS
 62
    7
 10
655.53841985450754
 20
258.37912486567564
 11
660.5459465211743
 21
258.37912486567564
  0
LINE
  8
_0-b_細線3
  6
CONTINUOUS
 62
    7
 10
655.53841985450754
 20
252.54579153234303
 11
660.54596652117334
 21
252.54579153234303
  0
ARC
  8
_0-b_細線3
  6
CONTINUOUS
 62
    7
 10
660.54596652117334
 20
252.87912486567606
 40
0.3333333333333334
 50
269.99999999999977
 51
359.99999999999966
  0
ARC
  8
_0-b_細線3
  6
CONTINUOUS
 62
    7
 10
647.94933318784069
 20
255.4622148656766
 40
12.929926666666667
 50
346.96432999999968
 51
13.038021999994573
  0
ARC
  8
_0-b_細線3
  6
CONTINUOUS
 62
    7
 10
660.54596652117334
 20
263.87912486567649
 40
0.3333333333333334
 50
0
 51
89.999999999999915
  0
ARC
  8
_0-b_細線3
  6
CONTINUOUS
 62
    7
 10
647.94933318784069
 20
261.29603153234245
 40
12.929926666666667
 50
346.96197800000073
 51
13.035669999999625
  0
LINE
  8
_0-b_細線3
  6
CONTINUOUS
 62
    7
 10
655.53841985450754
 20
264.21245819900952
 11
660.54596652117334
 21
264.21245819900952
  0
LINE
  8
_0-b_細線3
  6
CONTINUOUS
 62
    7
 10
660.87929985450728
 20
252.87912486567606
 11
660.87929985450728
 21
263.87912486567649
  0
ARC
  8
_0-b_細線3
  6
CONTINUOUS
 62
    7
 10
655.20508652117383
 20
247.87912486567603
 40
0.3333333333333334
 50
269.99999999999977
 51
359.99999999999966
  0
ARC
  8
_0-b_細線3
  6
CONTINUOUS
 62
    7
 10
655.20508652117383
 20
268.87912486567558
 40
0.3333333333333334
 50
0
 51
89.999999999999915
  0
LINE
  8
_0-b_細線3
  6
CONTINUOUS
 62
    7
 10
655.53841985450754
 20
257.54579153234255
 11
655.53841985450754
 21
247.87912486567603
  0
LINE
  8
_0-b_細線3
  6
CONTINUOUS
 62
    7
 10
655.53841985450754
 20
268.87912486567558
 11
655.53841985450754
 21
257.54579153234255
  0
LINE
  8
_0-b_細線3
  6
CONTINUOUS
 62
    7
 10
653.03841985529925
 20
247.54579153234255
 11
655.20508652117383
 21
247.54579153234255
  0
LINE
  8
_0-b_細線3
  6
CONTINUOUS
 62
    7
 10
653.0384198537156
 20
269.21245819900952
 11
655.20508652117383
 21
269.21245819900952
  0
ENDSEC
  0
EOF
