  0
SECTION
  2
HEADER
  9
$ACADVER
  1
AC1009
  9
$INSBASE
 10
0
 20
0
 30
0
  9
$EXTMIN
 10
0
 20
0
  9
$EXTMAX
 10
1485
 20
1050
  9
$LIMMIN
 10
0
 20
0
  9
$LIMMAX
 10
1485
 20
1050
  9
$LTSCALE
 40
5
  0
ENDSEC
  0
SECTION
  2
TABLES
  0
TABLE
  2
LTYPE
 70
     9
  0
LTYPE
  2
CONTINUOUS
 70
    64
  3
実線
 72
    65
 73
     0
 40
0.0
  0
LTYPE
  2
DASHED1
 70
    64
  3
--  --  --  --  --  --  --  --  
 72
    65
 73
     2
 40
2.5
 49
1.25
 49
-1.25
  0
LTYPE
  2
DASHED2
 70
    64
  3
----    ----    ----    ----    
 72
    65
 73
     2
 40
5.0
 49
2.5
 49
-2.5
  0
LTYPE
  2
DASHED3
 70
    64
  3
------  ------  ------  ------  
 72
    65
 73
     2
 40
5.0
 49
3.75
 49
-1.25
  0
LTYPE
  2
CENTER1
 70
    64
  3
----- - ----- - ----- - ----- - 
 72
    65
 73
     4
 40
10.0
 49
6.25
 49
-1.25
 49
1.25
 49
-1.25
  0
LTYPE
  2
CENTER2
 70
    64
  3
----------  --  ----------  --  
 72
    65
 73
     4
 40
20.0
 49
12.5
 49
-2.5
 49
2.5
 49
-2.5
  0
LTYPE
  2
PHANTOM1
 70
    64
  3
--- - - --- - - --- - - --- - - 
 72
    65
 73
     6
 40
10.0
 49
3.25
 49
-1.25
 49
1.25
 49
-1.25
 49
1.25
 49
-1.25
  0
LTYPE
  2
PHANTOM2
 70
    64
  3
--------  -  -  --------  -  -  
 72
    65
 73
     6
 40
20.0
 49
10.0
 49
-2.5
 49
1.25
 49
-2.5
 49
1.25
 49
-2.5
  0
LTYPE
  2
DOT
 70
    64
  3
-   -   -   -   -   -   -   -   
 72
    65
 73
     2
 40
2.5
 49
0.625
 49
-1.875
  0
LTYPE
  2
DUMMY
 70
    64
  3
ダミー
 72
    65
 73
     0
 40
0.0
  0
LTYPE
  2
RAND1
 70
    64
  3
ランダム線1
 72
    65
 73
     4
 40
10.0
 49
1.0
 49
-2.0
 49
3.0
 49
-4.0
  0
LTYPE
  2
RAND2
 70
    64
  3
ランダム線2
 72
    65
 73
     4
 40
14.0
 49
2.0
 49
-3.0
 49
4.0
 49
-5.0
  0
LTYPE
  2
RAND3
 70
    64
  3
ランダム線3
 72
    65
 73
     4
 40
18.0
 49
3.0
 49
-4.0
 49
5.0
 49
-6.0
  0
LTYPE
  2
RAND4
 70
    64
  3
ランダム線4
 72
    65
 73
     4
 40
22.0
 49
4.0
 49
-5.0
 49
6.0
 49
-7.0
  0
LTYPE
  2
RAND5
 70
    64
  3
ランダム線5
 72
    65
 73
     4
 40
26.0
 49
5.0
 49
-6.0
 49
7.0
 49
-8.0
  0
LTYPE
  2
LONG1
 70
    64
  3
----------  --  ----------  --  
 72
    65
 73
     4
 40
40.0
 49
32.5
 49
-2.5
 49
2.5
 49
-2.5
  0
LTYPE
  2
LONG2
 70
    64
  3
--------  -  -  --------  -  -  
 72
    65
 73
     6
 40
40.0
 49
30.0
 49
-2.5
 49
1.25
 49
-2.5
 49
1.25
 49
-2.5
  0
LTYPE
  2
LONG3
 70
    64
  3
+++++++++++++++..+++++++++++++++
 72
    65
 73
     2
 40
40.0
 49
37.5
 49
-2.5
  0
LTYPE
  2
LONG4
 70
    64
  3
+++++++++++++++..+++++++++++++++
 72
    65
 73
     2
 40
80.0
 49
75.0
 49
-5.0
  0
LTYPE
  2
LONG5
 70
    64
  3
----------  --  ----------  --  
 72
    65
 73
     4
 40
60.0
 49
37.5
 49
-7.5
 49
7.5
 49
-7.5
  0
LTYPE
  2
dashed
 70
   64
  3
-------   -------------   ------
 72
   65
 73
    2
 40
7.5
 49
6
 49
-1.5
  0
LTYPE
  2
dashed_spaced
 70
   64
  3
----        --------        ----
 72
   65
 73
    2
 40
12
 49
6
 49
-6
  0
LTYPE
  2
long_dashed_dotted
 70
   64
  3
------------- --- --------------
 72
   65
 73
    4
 40
15.25
 49
12
 49
-1.5
 49
0.25
 49
-1.5
  0
LTYPE
  2
long_dashed_double-dotted
 70
   64
  3
----------- --- --- ------------
 72
   65
 73
    6
 40
17
 49
12
 49
-1.5
 49
0.25
 49
-1.5
 49
0.25
 49
-1.5
  0
LTYPE
  2
long_dashed_triplicate-dotted
 70
   64
  3
--------- --- --- --- ----------
 72
   65
 73
    8
 40
18.75
 49
12
 49
-1.5
 49
0.25
 49
-1.5
 49
0.25
 49
-1.5
 49
0.25
 49
-1.5
  0
LTYPE
  2
dotted
 70
   64
  3
   -       -       -       -    
 72
   65
 73
    2
 40
1.75
 49
0.25
 49
-1.5
  0
LTYPE
  2
chain
 70
   64
  3
-------------- -- --------------
 72
   65
 73
    4
 40
18.5
 49
12
 49
-1.5
 49
3.5
 49
-1.5
  0
LTYPE
  2
chain_double_dash
 70
   64
  3
------------ -- -- -------------
 72
   65
 73
    6
 40
23.5
 49
12
 49
-1.5
 49
3.5
 49
-1.5
 49
3.5
 49
-1.5
  0
LTYPE
  2
dashed_dotted
 70
   64
  3
-----------     -     ----------
 72
   65
 73
    4
 40
9.25
 49
6
 49
-1.5
 49
0.25
 49
-1.5
  0
LTYPE
  2
double-dashed_dotted
 70
   64
  3
------   -----------   -   -----
 72
   65
 73
    6
 40
16.75
 49
6
 49
-1.5
 49
6
 49
-1.5
 49
0.25
 49
-1.5
  0
LTYPE
  2
dashed_double-dotted
 70
   64
  3
---------    -    -    ---------
 72
   65
 73
    6
 40
11
 49
6
 49
-1.5
 49
0.25
 49
-1.5
 49
0.25
 49
-1.5
  0
LTYPE
  2
double-dashed_double-dotted
 70
   64
  3
-----   ---------   -   -   ----
 72
   65
 73
    8
 40
18.5
 49
6
 49
-1.5
 49
6
 49
-1.5
 49
0.25
 49
-1.5
 49
0.25
 49
-1.5
  0
LTYPE
  2
dashed_triplicate-dotted
 70
   64
  3
-------    -    -    -    ------
 72
   65
 73
    8
 40
12.75
 49
6
 49
-1.5
 49
0.25
 49
-1.5
 49
0.25
 49
-1.5
 49
0.25
 49
-1.5
  0
LTYPE
  2
double-dashed_triplicate-dotted
 70
   64
  3
-----  ---------  -  -  -  -----
 72
   65
 73
   10
 40
20.25
 49
6
 49
-1.5
 49
6
 49
-1.5
 49
0.25
 49
-1.5
 49
0.25
 49
-1.5
 49
0.25
 49
-1.5
  0
LTYPE
  2
undefined
 70
   64
  3
--------------------------------
 72
   65
 73
    0
 40
0
  0
ENDTAB
  0
TABLE
  2
STYLE
  5
3
100
AcDbSymbolTable
 70
     1
  0
STYLE
  5
10
100
AcDbSymbolTableRecord
100
AcDbTextStyleTableRecord
  2
STANDARD
 70
     0
 40
0.0
 41
1.0
 50
0.0
 71
     0
 42
0.2
  3
txt
  4
bigfont.shx
  0
STYLE
  5
26
100
AcDbSymbolTableRecord
100
AcDbTextStyleTableRecord
  2
TATEGAKI
 70
    68
 40
0.0
 41
1.0
 50
0.0
 71
     0
 42
1.0
  3
txt
  4
bigfont.shx
  0
ENDTAB
  0
TABLE
  2
LAYER
 70
   10
  0
LAYER
  2
_0-0_計極細
 70
   64
 62
    7
  6
CONTINUOUS
  0
LAYER
  2
_0-1_計細線
 70
   64
 62
    7
  6
CONTINUOUS
  0
LAYER
  2
_0-5_寸法線
 70
   64
 62
    7
  6
CONTINUOUS
  0
LAYER
  2
_0-7_枠細線
 70
   64
 62
    7
  6
CONTINUOUS
  0
LAYER
  2
_0-8_枠中線
 70
   64
 62
    7
  6
CONTINUOUS
  0
LAYER
  2
_0-9_枠極太
 70
   64
 62
    7
  6
CONTINUOUS
  0
LAYER
  2
_0-a_極細3
 70
   64
 62
    7
  6
CONTINUOUS
  0
LAYER
  2
_0-b_細線3
 70
   64
 62
    7
  6
CONTINUOUS
  0
LAYER
  2
_0-d_寸法3
 70
   64
 62
    7
  6
CONTINUOUS
  0
LAYER
  2
ADD_LINE
 70
   64
 62
    7
  6
CONTINUOUS
  0
ENDTAB
  0
ENDSEC
  0
SECTION
  2
BLOCKS
  0
ENDSEC
  0
SECTION
  2
ENTITIES
  0
LINE
  8
_0-7_枠細線
  6
CONTINUOUS
 62
    5
 10
1185
 20
180
 11
1185
 21
100
  0
TEXT
  8
_0-7_枠細線
 62
    5
 10
937.5
 20
97.5
 40
17.5
 41
1
 50
0
  1
備考
  7
TATEGAKI
  0
TEXT
  8
_0-7_枠細線
 62
    5
 10
937.5
 20
137.5
 40
17.5
 41
1
 50
0
  1
品番
  7
TATEGAKI
  0
TEXT
  8
_0-7_枠細線
 62
    5
 10
937.5
 20
177.5
 40
17.5
 41
1
 50
0
  1
品名
  7
TATEGAKI
  0
LINE
  8
_0-7_枠細線
  6
CONTINUOUS
 62
    5
 10
1185
 20
140
 11
925
 21
140
  0
LINE
  8
_0-7_枠細線
  6
CONTINUOUS
 62
    5
 10
950
 20
180
 11
950
 21
60
  0
LINE
  8
_0-8_枠中線
  6
CONTINUOUS
 62
    5
 10
1425
 20
180
 11
925
 21
180
  0
LINE
  8
_0-8_枠中線
  6
CONTINUOUS
 62
    5
 10
925
 20
180
 11
925
 21
60
  0
LINE
  8
_0-7_枠細線
  6
CONTINUOUS
 62
    5
 10
1245
 20
180
 11
1245
 21
60
  0
TEXT
  8
_0-7_枠細線
 62
    5
 10
1192.5
 20
160
 40
15
 41
1
 50
0
  1
縮　尺
  0
TEXT
  8
_0-7_枠細線
 62
    5
 10
1194
 20
117.5
 40
20
 41
0.7
 50
0
  1
１：５
  0
LINE
  8
_0-7_枠細線
  6
CONTINUOUS
 62
    5
 10
1185
 20
155
 11
1245
 21
155
  0
LINE
  8
_0-7_枠細線
  6
CONTINUOUS
 62
    5
 10
1245
 20
100
 11
925
 21
100
  0
LINE
  8
_0-7_枠細線
  6
CONTINUOUS
 62
    5
 10
1425
 20
90
 11
1245
 21
90
  0
LINE
  8
_0-7_枠細線
  6
CONTINUOUS
 62
    5
 10
1245
 20
120
 11
1425
 21
120
  0
LINE
  8
_0-7_枠細線
  6
CONTINUOUS
 62
    5
 10
1425
 20
140
 11
1245
 21
140
  0
TEXT
  8
_0-7_枠細線
 62
    5
 10
1252.5
 20
60
 40
15
 41
1
 50
0
  1
年月日
  0
TEXT
  8
_0-7_枠細線
 62
    5
 10
1252.5
 20
75
 40
15
 41
1
 50
0
  1
作　成
  0
TEXT
  8
_0-7_枠細線
 62
    5
 10
1250
 20
95
 40
20
 41
1
 50
0
  1
島 英
  0
TEXT
  8
_0-7_枠細線
 62
    5
 10
1256.25
 20
122.5
 40
15
 41
1
 50
0
  1
承 認
  0
LINE
  8
_0-7_枠細線
  6
CONTINUOUS
 62
    5
 10
1305
 20
140
 11
1305
 21
60
  0
TEXT
  8
_0-7_枠細線
 62
    5
 10
1315
 20
95
 40
20
 41
1
 50
0
  1
隠塚
  0
TEXT
  8
_0-7_枠細線
 62
    5
 10
1316.25
 20
122.5
 40
15
 41
1
 50
0
  1
検 図
  0
LINE
  8
_0-7_枠細線
  6
CONTINUOUS
 62
    5
 10
1365
 20
140
 11
1365
 21
90
  0
TEXT
  8
_0-7_枠細線
 62
    5
 10
1375
 20
95
 40
20
 41
1
 50
0
  1
藤戸
  0
TEXT
  8
_0-7_枠細線
 62
    5
 10
1376.25
 20
122.5
 40
15
 41
1
 50
0
  1
設 計
  0
TEXT
  8
_0-7_枠細線
 62
    5
 10
965.50000000000011
 20
150
 40
20
 41
0.6
 50
0
  1
セーフティグレーチングＨ２０タイプ
  0
LINE
  8
_0-a_極細3
  6
CENTER1
 62
    7
 10
493.03841985316757
 20
227.52662871355963
 11
493.03841985316757
 21
290.97662871356579
  0
LINE
  8
_0-a_極細3
  6
CONTINUOUS
 62
    7
 10
209.70508651983366
 20
232.04579153234275
 11
209.70508651983366
 21
163.71245819900921
  0
LINE
  8
_0-a_極細3
  6
CONTINUOUS
 62
    7
 10
293.03841985316762
 20
163.71245819900921
 11
209.70508651983366
 21
163.71245819900921
  0
LINE
  8
_0-a_極細3
  6
CONTINUOUS
 62
    7
 10
209.70508651983366
 20
232.04579153234275
 11
178.86067270805256
 21
232.04579153234275
  0
LINE
  8
_0-a_極細3
  6
CONTINUOUS
 62
    7
 10
293.03841985316762
 20
163.71245819900921
 11
293.03841985316762
 21
137.47085790423034
  0
LINE
  8
_0-a_極細3
  6
CONTINUOUS
 62
    7
 10
255.6164452881778
 20
137.47085802066707
 11
281.85804546652008
 21
163.71245819900921
  0
LINE
  8
_0-a_極細3
  6
CONTINUOUS
 62
    7
 10
184.90576738953607
 20
137.47085824068017
 11
211.14736734786518
 21
163.71245819900921
  0
LINE
  8
_0-a_極細3
  6
CONTINUOUS
 62
    7
 10
178.86067270805256
 20
202.13644167785148
 11
208.77002256254428
 21
232.04579153234275
  0
LINE
  8
_0-a_極細3
  6
CONTINUOUS
 62
    7
 10
248.54537749831366
 20
137.4708580426686
 11
274.78697765465427
 21
163.71245819900921
  0
LINE
  8
_0-a_極細3
  6
CONTINUOUS
 62
    7
 10
178.86067270805256
 20
138.4968313710624
 11
209.70508651983366
 21
169.34124518284349
  0
LINE
  8
_0-a_極細3
  6
CONTINUOUS
 62
    7
 10
178.86067270805256
 20
209.2075094897173
 11
201.69895475067847
 21
232.04579153234275
  0
LINE
  8
_0-a_極細3
  6
CONTINUOUS
 62
    7
 10
241.47430970844951
 20
137.47085806466976
 11
267.71590984278942
 21
163.71245819900921
  0
LINE
  8
_0-a_極細3
  6
CONTINUOUS
 62
    7
 10
178.86067270805256
 20
145.5678991829277
 11
209.70508651983366
 21
176.41231299470931
  0
LINE
  8
_0-a_極細3
  6
CONTINUOUS
 62
    7
 10
178.86067270805256
 20
216.27857730158257
 11
194.62788693881271
 21
232.04579153234275
  0
CIRCLE
  8
_0-a_極細3
  6
CONTINUOUS
 62
    7
 10
196.75656055122019
 20
247.24920194900278
 40
0.5530864197530718
  0
CIRCLE
  8
_0-a_極細3
  6
CONTINUOUS
 62
    7
 10
186.42569635368929
 20
237.29364639344752
 40
0.5530864197530718
  0
CIRCLE
  8
_0-a_極細3
  6
CONTINUOUS
 62
    7
 10
197.03310376109698
 20
238.36031306011409
 40
0.5530864197530718
  0
CIRCLE
  8
_0-a_極細3
  6
CONTINUOUS
 62
    7
 10
209.65532598331924
 20
240.31586861566939
 40
0.5530864197530718
  0
CIRCLE
  8
_0-a_極細3
  6
CONTINUOUS
 62
    7
 10
238.09977042776268
 20
252.04920194900254
 40
0.5530864197530718
  0
CIRCLE
  8
_0-a_極細3
  6
CONTINUOUS
 62
    7
 10
262.98865931665136
 20
262.00475750455826
 40
0.5530864197530718
  0
CIRCLE
  8
_0-a_極細3
  6
CONTINUOUS
 62
    7
 10
268.67754820554023
 20
245.82697972678034
 40
0.5530864197530718
  0
CIRCLE
  8
_0-a_極細3
  6
CONTINUOUS
 62
    7
 10
243.7886593166516
 20
245.29364639344706
 40
0.5530864197530718
  0
CIRCLE
  8
_0-a_極細3
  6
CONTINUOUS
 62
    7
 10
232.05532598331885
 20
260.22697972677997
 40
0.5530864197530718
  0
CIRCLE
  8
_0-a_極細3
  6
CONTINUOUS
 62
    7
 10
216.59977042776362
 20
233.06031306011391
 40
0.5530864197530718
  0
CIRCLE
  8
_0-a_極細3
  6
CONTINUOUS
 62
    7
 10
237.04421487220699
 20
231.81586861566942
 40
0.5530864197530718
  0
CIRCLE
  8
_0-a_極細3
  6
CONTINUOUS
 62
    7
 10
262.11088153887363
 20
228.08253528233581
 40
0.5530864197530718
  0
CIRCLE
  8
_0-a_極細3
  6
CONTINUOUS
 62
    7
 10
249.48865931665139
 20
222.39364639344697
 40
0.5530864197530718
  0
CIRCLE
  8
_0-a_極細3
  6
CONTINUOUS
 62
    7
 10
234.7331037610968
 20
208.88253528233602
 40
0.5530864197530718
  0
CIRCLE
  8
_0-a_極細3
  6
CONTINUOUS
 62
    7
 10
262.11088153887363
 20
216.17142417122523
 40
0.5530864197530718
  0
CIRCLE
  8
_0-a_極細3
  6
CONTINUOUS
 62
    7
 10
220.99977042776322
 20
189.06031306011391
 40
0.5530864197530718
  0
CIRCLE
  8
_0-a_極細3
  6
CONTINUOUS
 62
    7
 10
215.31088153887438
 20
171.10475750455862
 40
0.5530864197530718
  0
CIRCLE
  8
_0-a_極細3
  6
CONTINUOUS
 62
    7
 10
224.02199264998515
 20
177.86031306011409
 40
0.5530864197530718
  0
CIRCLE
  8
_0-a_極細3
  6
CONTINUOUS
 62
    7
 10
230.24421487220778
 20
169.32697972678127
 40
0.5530864197530718
  0
CIRCLE
  8
_0-a_極細3
  6
CONTINUOUS
 62
    7
 10
269.54421487220702
 20
187.2158686156699
 40
0.5530864197530718
  0
CIRCLE
  8
_0-a_極細3
  6
CONTINUOUS
 62
    7
 10
258.3442148722072
 20
181.70475750455898
 40
0.5530864197530718
  0
CIRCLE
  8
_0-a_極細3
  6
CONTINUOUS
 62
    7
 10
264.56643709442983
 20
179.21586861566993
 40
0.5530864197530718
  0
CIRCLE
  8
_0-a_極細3
  6
CONTINUOUS
 62
    7
 10
261.01088153887417
 20
169.97142417122546
 40
0.5530864197530718
  0
CIRCLE
  8
_0-a_極細3
  6
CONTINUOUS
 62
    7
 10
280.92199264998476
 20
171.03809083789201
 40
0.5530864197530718
  0
CIRCLE
  8
_0-a_極細3
  6
CONTINUOUS
 62
    7
 10
293.89977042776286
 20
174.2380908378918
 40
0.5530864197530718
  0
CIRCLE
  8
_0-a_極細3
  6
CONTINUOUS
 62
    7
 10
307.58865931665173
 20
159.30475750455889
 40
0.5530864197530718
  0
CIRCLE
  8
_0-a_極細3
  6
CONTINUOUS
 62
    7
 10
300.65532598331833
 20
144.37142417122595
 40
0.5530864197530718
  0
CIRCLE
  8
_0-a_極細3
  6
CONTINUOUS
 62
    7
 10
283.98865931665142
 20
187.98623898604006
 40
0.5530864197530718
  0
CIRCLE
  8
_0-a_極細3
  6
CONTINUOUS
 62
    7
 10
298.74421487220684
 20
222.11957231937322
 40
0.5530864197530718
  0
CIRCLE
  8
_0-a_極細3
  6
CONTINUOUS
 62
    7
 10
313.85532598331821
 20
212.16401676381793
 40
0.5530864197530718
  0
CIRCLE
  8
_0-a_極細3
  6
CONTINUOUS
 62
    7
 10
314.38865931665106
 20
194.20846120826269
 40
0.5530864197530718
  0
CIRCLE
  8
_0-a_極細3
  6
CONTINUOUS
 62
    7
 10
279.14421487220739
 20
223.9417945415953
 40
0.5530864197530718
  0
CIRCLE
  8
_0-a_極細3
  6
CONTINUOUS
 62
    7
 10
258.85532598331821
 20
245.92574515887918
 40
1.825531472681392
  0
CIRCLE
  8
_0-a_極細3
  6
CONTINUOUS
 62
    7
 10
207.09320628188308
 20
252.85535943357718
 40
1.825531472681392
  0
CIRCLE
  8
_0-a_極細3
  6
CONTINUOUS
 62
    7
 10
256.03310376109607
 20
212.99241182554624
 40
1.825531472681392
  0
CIRCLE
  8
_0-a_極細3
  6
CONTINUOUS
 62
    7
 10
233.63310376109644
 20
223.12574515887945
 40
1.825531472681392
  0
CIRCLE
  8
_0-a_極細3
  6
CONTINUOUS
 62
    7
 10
214.03310376109607
 20
185.12574515887991
 40
1.825531472681392
  0
CIRCLE
  8
_0-a_極細3
  6
CONTINUOUS
 62
    7
 10
267.23310376109595
 20
172.32574515887976
 40
1.825531472681392
  0
CIRCLE
  8
_0-a_極細3
  6
CONTINUOUS
 62
    7
 10
303.21088153887308
 20
168.72574515888033
 40
1.825531472681392
  0
CIRCLE
  8
_0-a_極細3
  6
CONTINUOUS
 62
    7
 10
308.01088153887326
 20
150.05907849221373
 40
1.825531472681392
  0
CIRCLE
  8
_0-a_極細3
  6
CONTINUOUS
 62
    7
 10
186.89612674080422
 20
253.74796738110126
 40
1.825531472681392
  0
LINE
  8
_0-a_極細3
  6
CONTINUOUS
 62
    7
 10
325.53841985316762
 20
238.71245819900923
 11
326.37175318650065
 21
238.71245819900923
  0
LINE
  8
_0-a_極細3
  6
CONTINUOUS
 62
    7
 10
326.37175318650065
 20
238.71245819900923
 11
326.37175318650065
 21
137.47085790423034
  0
CIRCLE
  8
_0-a_極細3
  6
CONTINUOUS
 62
    7
 10
319.48431903887217
 20
222.72574515887982
 40
1.825531472681392
  0
CIRCLE
  8
_0-a_極細3
  6
CONTINUOUS
 62
    7
 10
318.49236302035507
 20
168.01586861567017
 40
0.5530864197530718
  0
CIRCLE
  8
_0-a_極細3
  6
CONTINUOUS
 62
    7
 10
319.82569635368895
 20
145.35979758250008
 40
0.5530864197530718
  0
CIRCLE
  8
_0-a_極細3
  6
CONTINUOUS
 62
    7
 10
307.45532598331397
 20
203.61463404776899
 40
1.825531472681392
  0
LINE
  8
_0-a_極細3
  6
CONTINUOUS
 62
    7
 10
268.03841985316762
 20
277.04579153234272
 11
268.03841985316762
 21
265.3791248656762
  0
LINE
  8
_0-a_極細3
  6
CONTINUOUS
 62
    7
 10
268.03841985316762
 20
277.04579153234272
 11
178.86067270805256
 21
277.04579153234272
  0
LINE
  8
_0-a_極細3
  6
CONTINUOUS
 62
    7
 10
276.37175318650065
 20
265.3791248656762
 11
178.86067270805256
 21
265.3791248656762
  0
LINE
  8
_0-a_極細3
  6
CONTINUOUS
 62
    7
 10
276.37175318650065
 20
277.04579153234272
 11
268.03841985316762
 21
277.04579153234272
  0
LINE
  8
_0-a_極細3
  6
CONTINUOUS
 62
    7
 10
276.37175318650065
 20
276.21245819900923
 11
276.37175318650065
 21
277.04579153234272
  0
LINE
  8
_0-a_極細3
  6
CONTINUOUS
 62
    7
 10
276.17366293014157
 20
265.3791248656762
 11
276.37175318650065
 21
265.57721512203534
  0
LINE
  8
_0-a_極細3
  6
CONTINUOUS
 62
    7
 10
271.93102224302243
 20
265.3791248656762
 11
276.37175318650065
 21
269.81985580915443
  0
LINE
  8
_0-a_極細3
  6
CONTINUOUS
 62
    7
 10
268.03841985316762
 20
265.72916316294049
 11
276.37175318650065
 21
274.06249649627352
  0
LINE
  8
_0-a_極細3
  6
CONTINUOUS
 62
    7
 10
268.03841985316762
 20
269.97180385005959
 11
275.1124075354503
 21
277.04579153234272
  0
LINE
  8
_0-a_極細3
  6
CONTINUOUS
 62
    7
 10
268.03841985316762
 20
274.21444453717913
 11
270.86976684833121
 21
277.04579153234272
  0
LINE
  8
_0-a_極細3
  6
CONTINUOUS
 62
    7
 10
276.37175318650065
 20
274.76482466008383
 11
274.09078631424222
 21
277.04579153234272
  0
LINE
  8
_0-a_極細3
  6
CONTINUOUS
 62
    7
 10
276.37175318650065
 20
270.52218397296474
 11
269.84814562712313
 21
277.04579153234272
  0
LINE
  8
_0-a_極細3
  6
CONTINUOUS
 62
    7
 10
268.03841985316762
 20
274.61287661917868
 11
276.37175318650065
 21
266.27954328584565
  0
LINE
  8
_0-a_極細3
  6
CONTINUOUS
 62
    7
 10
268.03841985316762
 20
270.37023593205959
 11
273.02953091955101
 21
265.3791248656762
  0
LINE
  8
_0-a_極細3
  6
CONTINUOUS
 62
    7
 10
268.03841985316762
 20
266.12759524494049
 11
268.78689023243197
 21
265.3791248656762
  0
LINE
  8
_0-a_極細3
  6
CONTINUOUS
 62
    7
 10
259.20310017553703
 20
265.37912485954894
 11
268.03841985316762
 21
274.21444453717913
  0
LINE
  8
_0-a_極細3
  6
CONTINUOUS
 62
    7
 10
237.9898967252295
 20
265.37912484483741
 11
249.65656341273487
 21
277.04579153234226
  0
LINE
  8
_0-a_極細3
  6
CONTINUOUS
 62
    7
 10
216.77669327492117
 20
265.37912483012587
 11
228.44335997713756
 21
277.04579153234272
  0
LINE
  8
_0-a_極細3
  6
CONTINUOUS
 62
    7
 10
195.56348982461373
 20
265.3791248154148
 11
207.23015654154125
 21
277.04579153234272
  0
LINE
  8
_0-a_極細3
  6
CONTINUOUS
 62
    7
 10
178.86067270805256
 20
269.88951113445
 11
186.01695310594479
 21
277.04579153234226
  0
LINE
  8
_0-a_極細3
  6
DASHED2
 62
    7
 10
248.59649845038277
 20
265.37912485219294
 11
260.26316513053303
 21
277.04579153234272
  0
LINE
  8
_0-a_極細3
  6
DASHED2
 62
    7
 10
227.38329500007538
 20
265.37912483748187
 11
239.04996169493671
 21
277.04579153234272
  0
LINE
  8
_0-a_極細3
  6
DASHED2
 62
    7
 10
206.1700915497679
 20
265.37912482277079
 11
217.8367582593394
 21
277.04579153234272
  0
LINE
  8
_0-a_極細3
  6
DASHED2
 62
    7
 10
184.9568880994596
 20
265.37912480805926
 11
196.62355482374301
 21
277.04579153234272
  0
ARC
  8
_0-b_細線3
  6
CONTINUOUS
 62
    7
 10
281.37175318650065
 20
243.71245819900923
 40
5
 50
179.99999999999983
 51
269.99999999999977
  0
LINE
  8
_0-b_細線3
  6
CONTINUOUS
 62
    7
 10
276.37175318650065
 20
243.71245819900923
 11
276.37175318650065
 21
276.21245819900923
  0
LINE
  8
_0-b_細線3
  6
CONTINUOUS
 62
    7
 10
281.37175318650065
 20
238.71245819900923
 11
325.53841985316762
 21
238.71245819900923
  0
LINE
  8
_0-b_細線3
  6
CONTINUOUS
 62
    7
 10
326.37175318650065
 20
239.54579153234275
 11
325.53841985316762
 21
238.71245819900923
  0
LINE
  8
_0-b_細線3
  6
CONTINUOUS
 62
    7
 10
326.37175318650065
 20
242.8791248656762
 11
326.37175318650065
 21
239.54579153234275
  0
LINE
  8
_0-b_細線3
  6
CONTINUOUS
 62
    7
 10
325.53841985316762
 20
243.71245819900923
 11
326.37175318650065
 21
242.8791248656762
  0
LINE
  8
_0-b_細線3
  6
CONTINUOUS
 62
    7
 10
281.37175318650065
 20
243.71245819900923
 11
325.53841985316762
 21
243.71245819900923
  0
LINE
  8
_0-b_細線3
  6
CONTINUOUS
 62
    7
 10
277.20508651983369
 20
277.04579153234272
 11
276.37175318650065
 21
276.21245819900923
  0
LINE
  8
_0-b_細線3
  6
CONTINUOUS
 62
    7
 10
280.53841985316762
 20
277.04579153234272
 11
277.20508651983369
 21
277.04579153234272
  0
LINE
  8
_0-b_細線3
  6
CONTINUOUS
 62
    7
 10
281.37175318650065
 20
276.21245819900923
 11
280.53841985316762
 21
277.04579153234272
  0
LINE
  8
_0-b_細線3
  6
CONTINUOUS
 62
    7
 10
281.37175318650065
 20
243.71245819900923
 11
281.37175318650065
 21
276.21245819900923
  0
CIRCLE
  8
_0-a_極細3
  6
CONTINUOUS
 62
    7
 10
246.55162227961526
 20
257.43685626998877
 40
1.825531472681392
  0
LINE
  8
_0-a_極細3
  6
CONTINUOUS
 62
    7
 10
776.37175318650122
 20
232.04579153234275
 11
776.37175318650122
 21
163.71245819900921
  0
LINE
  8
_0-a_極細3
  6
CONTINUOUS
 62
    7
 10
693.03841985316762
 20
163.71245819900921
 11
776.37175318650122
 21
163.71245819900921
  0
LINE
  8
_0-a_極細3
  6
CONTINUOUS
 62
    7
 10
776.37175318650122
 20
232.04579153234275
 11
807.21616699828235
 21
232.04579153234275
  0
LINE
  8
_0-a_極細3
  6
CONTINUOUS
 62
    7
 10
693.03841985316762
 20
163.71245819900921
 11
693.03841985316762
 21
137.47085790423034
  0
LINE
  8
_0-a_極細3
  6
CONTINUOUS
 62
    7
 10
784.661755601094
 20
137.47085790423034
 11
807.21616703982306
 21
160.02526934295929
  0
LINE
  8
_0-a_極細3
  6
CONTINUOUS
 62
    7
 10
713.95107748243913
 20
137.47085790423034
 11
740.19267777721802
 21
163.71245819900921
  0
LINE
  8
_0-a_極細3
  6
CONTINUOUS
 62
    7
 10
776.37175318650122
 20
199.89153360829192
 11
807.21616699903802
 21
230.73594742082878
  0
LINE
  8
_0-a_極細3
  6
CONTINUOUS
 62
    7
 10
777.59068778922824
 20
137.47085790423034
 11
807.21616703574443
 21
167.09633715074602
  0
LINE
  8
_0-a_極細3
  6
CONTINUOUS
 62
    7
 10
706.88000967057337
 20
137.47085790423034
 11
733.12160996535272
 21
163.71245819900921
  0
LINE
  8
_0-a_極細3
  6
CONTINUOUS
 62
    7
 10
776.37175318650122
 20
206.96260142015763
 11
801.45494311913569
 21
232.04579135279258
  0
LINE
  8
_0-a_極細3
  6
CONTINUOUS
 62
    7
 10
770.51961997736294
 20
137.47085790423034
 11
807.21616703166569
 21
174.1674049585331
  0
LINE
  8
_0-a_極細3
  6
CONTINUOUS
 62
    7
 10
699.80894185870807
 20
137.47085790423034
 11
726.05054215348741
 21
163.71245819900921
  0
LINE
  8
_0-a_極細3
  6
CONTINUOUS
 62
    7
 10
776.37175318650122
 20
214.03366923202296
 11
794.3838753578865
 21
232.04579140340869
  0
CIRCLE
  8
_0-a_極細3
  6
CONTINUOUS
 62
    7
 10
679.44421487220541
 20
222.5667945415953
 40
0.5530864197530718
  0
CIRCLE
  8
_0-a_極細3
  6
CONTINUOUS
 62
    7
 10
689.39977042776059
 20
227.36679454159548
 40
0.5530864197530718
  0
CIRCLE
  8
_0-a_極細3
  6
CONTINUOUS
 62
    7
 10
685.31088153887208
 20
202.38901676381786
 40
0.5530864197530718
  0
CIRCLE
  8
_0-a_極細3
  6
CONTINUOUS
 62
    7
 10
702.84421487220493
 20
185.36679454159554
 40
0.5530864197530718
  0
CIRCLE
  8
_0-a_極細3
  6
CONTINUOUS
 62
    7
 10
685.0108815388719
 20
162.06679454159627
 40
0.5530864197530718
  0
CIRCLE
  8
_0-a_極細3
  6
CONTINUOUS
 62
    7
 10
675.67754820553887
 20
144.20012787492942
 40
0.5530864197530718
  0
CIRCLE
  8
_0-a_極細3
  6
CONTINUOUS
 62
    7
 10
687.14421487220523
 20
174.06679454159621
 40
0.5530864197530718
  0
CIRCLE
  8
_0-a_極細3
  6
CONTINUOUS
 62
    7
 10
701.01088153887144
 20
169.26679454159603
 40
0.5530864197530718
  0
CIRCLE
  8
_0-a_極細3
  6
CONTINUOUS
 62
    7
 10
727.94421487220484
 20
169.53346120826245
 40
0.5530864197530718
  0
CIRCLE
  8
_0-a_極細3
  6
CONTINUOUS
 62
    7
 10
715.94421487220484
 20
178.60012787492906
 40
0.5530864197530718
  0
CIRCLE
  8
_0-a_極細3
  6
CONTINUOUS
 62
    7
 10
727.14421487220466
 20
184.20012787492942
 40
0.5530864197530718
  0
CIRCLE
  8
_0-a_極細3
  6
CONTINUOUS
 62
    7
 10
717.65532598331561
 20
258.22235009715041
 40
0.5530864197530718
  0
CIRCLE
  8
_0-a_極細3
  6
CONTINUOUS
 62
    7
 10
715.16643709442701
 20
238.48901676381774
 40
0.5530864197530718
  0
CIRCLE
  8
_0-a_極細3
  6
CONTINUOUS
 62
    7
 10
735.69977042775986
 20
237.77790565270607
 40
0.5530864197530718
  0
CIRCLE
  8
_0-a_極細3
  6
CONTINUOUS
 62
    7
 10
724.09977042775995
 20
223.77790565270655
 40
0.5530864197530718
  0
CIRCLE
  8
_0-a_極細3
  6
CONTINUOUS
 62
    7
 10
763.29977042775977
 20
170.57790565270722
 40
0.5530864197530718
  0
CIRCLE
  8
_0-a_極細3
  6
CONTINUOUS
 62
    7
 10
770.49977042775959
 20
184.57790565270713
 40
0.5530864197530718
  0
CIRCLE
  8
_0-a_極細3
  6
CONTINUOUS
 62
    7
 10
768.89977042775968
 20
205.37790565270643
 40
0.5530864197530718
  0
CIRCLE
  8
_0-a_極細3
  6
CONTINUOUS
 62
    7
 10
750.89977042775968
 20
226.57790565270628
 40
0.5530864197530718
  0
CIRCLE
  8
_0-a_極細3
  6
CONTINUOUS
 62
    7
 10
767.69977042775952
 20
246.17790565270616
 40
0.5530864197530718
  0
CIRCLE
  8
_0-a_極細3
  6
CONTINUOUS
 62
    7
 10
764.89977042775979
 20
219.37790565270646
 40
0.5530864197530718
  0
CIRCLE
  8
_0-a_極細3
  6
CONTINUOUS
 62
    7
 10
794.49977042775913
 20
240.57790565270625
 40
0.5530864197530718
  0
CIRCLE
  8
_0-a_極細3
  6
CONTINUOUS
 62
    7
 10
789.69977042775895
 20
254.34796738110165
 40
1.825531472681392
  0
CIRCLE
  8
_0-a_極細3
  6
CONTINUOUS
 62
    7
 10
774.0553259833149
 20
238.88130071443496
 40
1.825531472681392
  0
CIRCLE
  8
_0-a_極細3
  6
CONTINUOUS
 62
    7
 10
718.63310376109325
 20
245.45907849221251
 40
1.825531472681392
  0
CIRCLE
  8
_0-a_極細3
  6
CONTINUOUS
 62
    7
 10
750.6331037610928
 20
213.45907849221294
 40
1.825531472681392
  0
CIRCLE
  8
_0-a_極細3
  6
CONTINUOUS
 62
    7
 10
680.23865931665
 20
168.90907849221364
 40
1.825531472681392
  0
CIRCLE
  8
_0-a_極細3
  6
CONTINUOUS
 62
    7
 10
690.46088153887172
 20
198.77574515887957
 40
1.825531472681392
  0
CIRCLE
  8
_0-a_極細3
  6
CONTINUOUS
 62
    7
 10
725.66088153887108
 20
176.37574515887991
 40
1.825531472681392
  0
CIRCLE
  8
_0-a_極細3
  6
CONTINUOUS
 62
    7
 10
771.92607417415491
 20
166.18869276691021
 40
1.825531472681392
  0
CIRCLE
  8
_0-a_極細3
  6
CONTINUOUS
 62
    7
 10
721.26088153887099
 20
219.57574515887973
 40
1.825531472681392
  0
CIRCLE
  8
_0-a_極細3
  6
CONTINUOUS
 62
    7
 10
673.79483215615596
 20
214.15253975184353
 40
0.5530864197530718
  0
CIRCLE
  8
_0-a_極細3
  6
CONTINUOUS
 62
    7
 10
673.99483215615669
 20
190.19698419628781
 40
0.5530864197530718
  0
CIRCLE
  8
_0-a_極細3
  6
CONTINUOUS
 62
    7
 10
781.6997704277594
 20
262.31123898603937
 40
0.5530864197530718
  0
CIRCLE
  8
_0-a_極細3
  6
CONTINUOUS
 62
    7
 10
750.89977042775968
 20
257.24457231937322
 40
0.5530864197530718
  0
CIRCLE
  8
_0-a_極細3
  6
CONTINUOUS
 62
    7
 10
751.03310376109289
 20
250.92574515887918
 40
1.825531472681392
  0
CIRCLE
  8
_0-a_極細3
  6
CONTINUOUS
 62
    7
 10
729.69977042775997
 20
263.24457231937276
 40
0.5530864197530718
  0
LINE
  8
_0-a_極細3
  6
CONTINUOUS
 62
    7
 10
660.53841985316717
 20
238.71245819900923
 11
659.70508651983425
 21
238.71245819900923
  0
LINE
  8
_0-a_極細3
  6
CONTINUOUS
 62
    7
 10
659.70508651983425
 20
238.71245819900923
 11
659.70508651983425
 21
137.47085790423034
  0
CIRCLE
  8
_0-a_極細3
  6
CONTINUOUS
 62
    7
 10
665.68948236191761
 20
198.65568343048471
 40
0.5530864197530718
  0
CIRCLE
  8
_0-a_極細3
  6
CONTINUOUS
 62
    7
 10
666.9960667240573
 20
159.40012787492924
 40
0.5530864197530718
  0
CIRCLE
  8
_0-a_極細3
  6
CONTINUOUS
 62
    7
 10
666.3571778351677
 20
225.35352293665801
 40
1.825531472681392
  0
CIRCLE
  8
_0-a_極細3
  6
CONTINUOUS
 62
    7
 10
669.3053259833157
 20
152.73130071443532
 40
1.825531472681392
  0
LINE
  8
_0-a_極細3
  6
CONTINUOUS
 62
    7
 10
718.03841985316762
 20
277.04579153234272
 11
718.03841985316762
 21
265.3791248656762
  0
LINE
  8
_0-a_極細3
  6
CONTINUOUS
 62
    7
 10
718.03841985316762
 20
277.04579153234272
 11
807.21616699828235
 21
277.04579153234272
  0
LINE
  8
_0-a_極細3
  6
CONTINUOUS
 62
    7
 10
709.70508651983425
 20
265.3791248656762
 11
807.21616699828235
 21
265.3791248656762
  0
LINE
  8
_0-a_極細3
  6
CONTINUOUS
 62
    7
 10
709.70508651983425
 20
277.04579153234272
 11
718.03841985316762
 21
277.04579153234272
  0
LINE
  8
_0-a_極細3
  6
CONTINUOUS
 62
    7
 10
709.70508651983425
 20
276.21245819900923
 11
709.70508651983425
 21
277.04579153234272
  0
LINE
  8
_0-a_極細3
  6
CONTINUOUS
 62
    7
 10
718.03841985316762
 20
269.04821114640072
 11
714.36933357244266
 21
265.3791248656762
  0
LINE
  8
_0-a_極細3
  6
CONTINUOUS
 62
    7
 10
718.03841985316762
 20
273.29085183351981
 11
710.12669288532368
 21
265.3791248656762
  0
LINE
  8
_0-a_極細3
  6
CONTINUOUS
 62
    7
 10
709.70508651983425
 20
269.20015918730587
 11
717.55071886487099
 21
277.04579153234272
  0
LINE
  8
_0-a_極細3
  6
CONTINUOUS
 62
    7
 10
709.70508651983425
 20
273.44279987442496
 11
713.30807817775155
 21
277.04579153234226
  0
LINE
  8
_0-a_極細3
  6
CONTINUOUS
 62
    7
 10
718.03841985316762
 20
275.53646932283709
 11
716.529097643662
 21
277.04579153234272
  0
LINE
  8
_0-a_極細3
  6
CONTINUOUS
 62
    7
 10
718.03841985316762
 20
271.29382863571755
 11
712.28645695654291
 21
277.04579153234272
  0
LINE
  8
_0-a_極細3
  6
CONTINUOUS
 62
    7
 10
718.03841985316762
 20
267.05118794859845
 11
709.70508651983425
 21
275.38452128193194
  0
LINE
  8
_0-a_極細3
  6
CONTINUOUS
 62
    7
 10
715.46784224897078
 20
265.3791248656762
 11
709.70508651983425
 21
271.14188059481239
  0
LINE
  8
_0-a_極細3
  6
CONTINUOUS
 62
    7
 10
711.22520156185169
 20
265.3791248656762
 11
709.70508651983425
 21
266.8992399076933
  0
LINE
  8
_0-a_極細3
  6
CONTINUOUS
 62
    7
 10
786.49422525347086
 20
265.3791248656762
 11
798.1608912933483
 21
277.04579090555399
  0
LINE
  8
_0-a_極細3
  6
CONTINUOUS
 62
    7
 10
765.28102181787403
 20
265.3791248656762
 11
776.94768802370049
 21
277.04579107150221
  0
LINE
  8
_0-a_極細3
  6
CONTINUOUS
 62
    7
 10
744.06781838227766
 20
265.3791248656762
 11
755.73448475405246
 21
277.04579123745043
  0
LINE
  8
_0-a_極細3
  6
CONTINUOUS
 62
    7
 10
722.85461494668129
 20
265.3791248656762
 11
734.52128148440465
 21
277.04579140339911
  0
LINE
  8
_0-a_極細3
  6
DASHED2
 62
    7
 10
797.10082697126904
 20
265.3791248656762
 11
807.21616699828235
 21
275.49446489268939
  0
LINE
  8
_0-a_極細3
  6
DASHED2
 62
    7
 10
775.88762353567233
 20
265.3791248656762
 11
787.55428965852457
 21
277.0457909885281
  0
LINE
  8
_0-a_極細3
  6
DASHED2
 62
    7
 10
754.67442010007585
 20
265.3791248656762
 11
766.34108638887642
 21
277.04579115447632
  0
LINE
  8
_0-a_極細3
  6
DASHED2
 62
    7
 10
733.46121666447959
 20
265.3791248656762
 11
745.12788311922827
 21
277.04579132042454
  0
LINE
  8
_0-a_極細3
  6
DASHED2
 62
    7
 10
718.03841985316762
 20
271.16953148996026
 11
723.91467984958058
 21
277.04579148637322
  0
ARC
  8
_0-b_細線3
  6
CONTINUOUS
 62
    7
 10
704.70508651983425
 20
243.71245819900923
 40
5
 50
269.99999999999977
 51
359.99999999999966
  0
LINE
  8
_0-b_細線3
  6
CONTINUOUS
 62
    7
 10
709.70508651983425
 20
243.71245819900923
 11
709.70508651983425
 21
276.21245819900923
  0
LINE
  8
_0-b_細線3
  6
CONTINUOUS
 62
    7
 10
704.70508651983425
 20
238.71245819900923
 11
660.53841985316717
 21
238.71245819900923
  0
LINE
  8
_0-b_細線3
  6
CONTINUOUS
 62
    7
 10
659.70508651983425
 20
239.54579153234275
 11
660.53841985316717
 21
238.71245819900923
  0
LINE
  8
_0-b_細線3
  6
CONTINUOUS
 62
    7
 10
659.70508651983425
 20
242.8791248656762
 11
659.70508651983425
 21
239.54579153234275
  0
LINE
  8
_0-b_細線3
  6
CONTINUOUS
 62
    7
 10
660.53841985316717
 20
243.71245819900923
 11
659.70508651983425
 21
242.8791248656762
  0
LINE
  8
_0-b_細線3
  6
CONTINUOUS
 62
    7
 10
704.70508651983425
 20
243.71245819900923
 11
660.53841985316717
 21
243.71245819900923
  0
LINE
  8
_0-b_細線3
  6
CONTINUOUS
 62
    7
 10
708.87175318650111
 20
277.04579153234272
 11
709.70508651983425
 21
276.21245819900923
  0
LINE
  8
_0-b_細線3
  6
CONTINUOUS
 62
    7
 10
705.53841985316762
 20
277.04579153234272
 11
708.87175318650111
 21
277.04579153234272
  0
LINE
  8
_0-b_細線3
  6
CONTINUOUS
 62
    7
 10
704.70508651983425
 20
276.21245819900923
 11
705.53841985316762
 21
277.04579153234272
  0
LINE
  8
_0-b_細線3
  6
CONTINUOUS
 62
    7
 10
704.70508651983425
 20
243.71245819900923
 11
704.70508651983425
 21
276.21245819900923
  0
ARC
  8
_0-b_細線3
  6
CONTINUOUS
 62
    7
 10
570.20508652348212
 20
273.71245819900923
 40
1.666666666666667
 50
89.999999999999915
 51
179.99999999999983
  0
ARC
  8
_0-b_細線3
  6
CONTINUOUS
 62
    7
 10
570.9850018423615
 20
277.04579153234272
 40
1.666666666666667
 50
269.99999999999977
 51
329.99999999999523
  0
ARC
  8
_0-b_細線3
  6
CONTINUOUS
 62
    7
 10
573.87175318830964
 20
275.3791248656762
 40
1.666666666666667
 50
89.999999999999915
 51
150.00000000000915
  0
LINE
  8
_0-b_細線3
  6
CONTINUOUS
 62
    7
 10
570.20508652348212
 20
275.3791248656762
 11
570.9850018423615
 21
275.3791248656762
  0
ARC
  8
_0-b_細線3
  6
CONTINUOUS
 62
    7
 10
585.87175318647064
 20
273.71245819900923
 40
1.666666666666667
 50
0
 51
89.999999999999915
  0
ARC
  8
_0-b_細線3
  6
CONTINUOUS
 62
    7
 10
585.09183786759127
 20
277.04579153234272
 40
1.666666666666667
 50
210.00000000000404
 51
269.99999999999977
  0
ARC
  8
_0-b_細線3
  6
CONTINUOUS
 62
    7
 10
582.20508652164312
 20
275.3791248656762
 40
1.666666666666667
 50
29.999999999990862
 51
89.999999999999901
  0
LINE
  8
_0-b_細線3
  6
CONTINUOUS
 62
    7
 10
585.87175318647064
 20
275.3791248656762
 11
585.09183786759127
 21
275.3791248656762
  0
ARC
  8
_0-b_細線3
  6
CONTINUOUS
 62
    7
 10
569.37175319014909
 20
271.3791248656762
 40
0.8333333333333334
 50
179.99999999999983
 51
269.99999999999977
  0
LINE
  8
_0-b_細線3
  6
CONTINUOUS
 62
    7
 10
568.53841985681561
 20
273.71245819900923
 11
568.53841985681561
 21
271.3791248656762
  0
ARC
  8
_0-b_細線3
  6
CONTINUOUS
 62
    7
 10
586.70508651980367
 20
271.3791248656762
 40
0.8333333333333334
 50
269.99999999999977
 51
359.99999999999966
  0
LINE
  8
_0-b_細線3
  6
CONTINUOUS
 62
    7
 10
587.53841985313716
 20
273.71245819900923
 11
587.53841985313716
 21
271.3791248656762
  0
ARC
  8
_0-b_細線3
  6
CONTINUOUS
 62
    7
 10
573.53841985681561
 20
268.8791248656762
 40
1.666666666666667
 50
0
 51
89.999999999999915
  0
LINE
  8
_0-b_細線3
  6
CONTINUOUS
 62
    7
 10
573.53841985681561
 20
270.54579153234272
 11
569.37175319014909
 21
270.54579153234272
  0
ARC
  8
_0-b_細線3
  6
CONTINUOUS
 62
    7
 10
582.53841985681561
 20
268.8791248656762
 40
1.666666666666667
 50
89.999999999999915
 51
179.99999999999983
  0
LINE
  8
_0-b_細線3
  6
CONTINUOUS
 62
    7
 10
582.5384198531367
 20
270.54579153234272
 11
586.70508651980367
 21
270.54579153234272
  0
LINE
  8
_0-b_細線3
  6
CONTINUOUS
 62
    7
 10
582.20508652164312
 20
277.04579153234272
 11
573.87175318830964
 21
277.04579153234272
  0
LINE
  8
_0-b_細線3
  6
CONTINUOUS
 62
    7
 10
575.20508652164312
 20
243.71245819900923
 11
575.20508652348212
 21
268.8791248656762
  0
LINE
  8
_0-b_細線3
  6
CONTINUOUS
 62
    7
 10
580.87175318830964
 20
243.71245819900923
 11
580.87175319014909
 21
268.8791248656762
  0
LINE
  8
_0-b_細線3
  6
CONTINUOUS
 62
    7
 10
580.87175318830964
 20
243.71245819900923
 11
575.20508652164312
 21
243.71245819900923
  0
ARC
  8
_0-b_細線3
  6
CONTINUOUS
 62
    7
 10
541.8717531895461
 20
273.71245819900923
 40
1.666666666666667
 50
89.999999999999915
 51
179.99999999999983
  0
ARC
  8
_0-b_細線3
  6
CONTINUOUS
 62
    7
 10
542.65166850842547
 20
277.04579153234272
 40
1.666666666666667
 50
269.99999999999977
 51
329.99999999999523
  0
ARC
  8
_0-b_細線3
  6
CONTINUOUS
 62
    7
 10
545.53841985437361
 20
275.3791248656762
 40
1.666666666666667
 50
89.999999999999915
 51
150.00000000000915
  0
LINE
  8
_0-b_細線3
  6
CONTINUOUS
 62
    7
 10
541.8717531895461
 20
275.3791248656762
 11
542.65166850842547
 21
275.3791248656762
  0
ARC
  8
_0-b_細線3
  6
CONTINUOUS
 62
    7
 10
557.53841985253371
 20
273.71245819900923
 40
1.666666666666667
 50
0
 51
89.999999999999915
  0
ARC
  8
_0-b_細線3
  6
CONTINUOUS
 62
    7
 10
556.75850453365479
 20
277.04579153234272
 40
1.666666666666667
 50
210.00000000000404
 51
269.99999999999977
  0
ARC
  8
_0-b_細線3
  6
CONTINUOUS
 62
    7
 10
553.87175318770664
 20
275.3791248656762
 40
1.666666666666667
 50
29.999999999990862
 51
89.999999999999901
  0
LINE
  8
_0-b_細線3
  6
CONTINUOUS
 62
    7
 10
557.53841985253371
 20
275.3791248656762
 11
556.75850453365479
 21
275.3791248656762
  0
ARC
  8
_0-b_細線3
  6
CONTINUOUS
 62
    7
 10
541.03841985621261
 20
271.3791248656762
 40
0.8333333333333334
 50
179.99999999999983
 51
269.99999999999977
  0
LINE
  8
_0-b_細線3
  6
CONTINUOUS
 62
    7
 10
540.20508652287958
 20
273.71245819900923
 11
540.20508652287958
 21
271.3791248656762
  0
ARC
  8
_0-b_細線3
  6
CONTINUOUS
 62
    7
 10
558.37175318586765
 20
271.3791248656762
 40
0.8333333333333334
 50
269.99999999999977
 51
359.99999999999966
  0
LINE
  8
_0-b_細線3
  6
CONTINUOUS
 62
    7
 10
559.20508651920068
 20
273.71245819900923
 11
559.20508651920068
 21
271.3791248656762
  0
ARC
  8
_0-b_細線3
  6
CONTINUOUS
 62
    7
 10
545.20508652287958
 20
268.8791248656762
 40
1.666666666666667
 50
0
 51
89.999999999999915
  0
LINE
  8
_0-b_細線3
  6
CONTINUOUS
 62
    7
 10
545.20508652287958
 20
270.54579153234272
 11
541.03841985621261
 21
270.54579153234272
  0
ARC
  8
_0-b_細線3
  6
CONTINUOUS
 62
    7
 10
554.20508652287958
 20
268.8791248656762
 40
1.666666666666667
 50
89.999999999999915
 51
179.99999999999983
  0
LINE
  8
_0-b_細線3
  6
CONTINUOUS
 62
    7
 10
554.20508651920068
 20
270.54579153234272
 11
558.37175318586765
 21
270.54579153234272
  0
LINE
  8
_0-b_細線3
  6
CONTINUOUS
 62
    7
 10
553.87175318770664
 20
277.04579153234272
 11
545.53841985437361
 21
277.04579153234272
  0
LINE
  8
_0-b_細線3
  6
CONTINUOUS
 62
    7
 10
546.87175318770664
 20
243.71245819900923
 11
546.8717531895461
 21
268.8791248656762
  0
LINE
  8
_0-b_細線3
  6
CONTINUOUS
 62
    7
 10
552.53841985437361
 20
243.71245819900923
 11
552.53841985621261
 21
268.8791248656762
  0
LINE
  8
_0-b_細線3
  6
CONTINUOUS
 62
    7
 10
552.53841985437361
 20
243.71245819900923
 11
546.87175318770664
 21
243.71245819900923
  0
ARC
  8
_0-b_細線3
  6
CONTINUOUS
 62
    7
 10
513.53841985560962
 20
273.71245819900923
 40
1.666666666666667
 50
89.999999999999915
 51
179.99999999999983
  0
ARC
  8
_0-b_細線3
  6
CONTINUOUS
 62
    7
 10
514.31833517448899
 20
277.04579153234272
 40
1.666666666666667
 50
269.99999999999977
 51
329.99999999999523
  0
ARC
  8
_0-b_細線3
  6
CONTINUOUS
 62
    7
 10
517.20508652043713
 20
275.3791248656762
 40
1.666666666666667
 50
89.999999999999915
 51
150.00000000000915
  0
LINE
  8
_0-b_細線3
  6
CONTINUOUS
 62
    7
 10
513.53841985560962
 20
275.3791248656762
 11
514.31833517448899
 21
275.3791248656762
  0
ARC
  8
_0-b_細線3
  6
CONTINUOUS
 62
    7
 10
529.20508651859768
 20
273.71245819900923
 40
1.666666666666667
 50
0
 51
89.999999999999915
  0
ARC
  8
_0-b_細線3
  6
CONTINUOUS
 62
    7
 10
528.42517119971831
 20
277.04579153234272
 40
1.666666666666667
 50
210.00000000000404
 51
269.99999999999977
  0
ARC
  8
_0-b_細線3
  6
CONTINUOUS
 62
    7
 10
525.53841985377016
 20
275.3791248656762
 40
1.666666666666667
 50
29.999999999990862
 51
89.999999999984354
  0
LINE
  8
_0-b_細線3
  6
CONTINUOUS
 62
    7
 10
529.20508651859768
 20
275.3791248656762
 11
528.42517119971831
 21
275.3791248656762
  0
ARC
  8
_0-b_細線3
  6
CONTINUOUS
 62
    7
 10
512.70508652227613
 20
271.3791248656762
 40
0.8333333333333334
 50
179.99999999999983
 51
269.99999999999977
  0
LINE
  8
_0-b_細線3
  6
CONTINUOUS
 62
    7
 10
511.87175318894305
 20
273.71245819900923
 11
511.87175318894305
 21
271.3791248656762
  0
ARC
  8
_0-b_細線3
  6
CONTINUOUS
 62
    7
 10
530.03841985193117
 20
271.3791248656762
 40
0.8333333333333334
 50
269.99999999999977
 51
359.99999999999966
  0
LINE
  8
_0-b_細線3
  6
CONTINUOUS
 62
    7
 10
530.8717531852642
 20
273.71245819900923
 11
530.8717531852642
 21
271.3791248656762
  0
ARC
  8
_0-b_細線3
  6
CONTINUOUS
 62
    7
 10
516.8717531889431
 20
268.8791248656762
 40
1.666666666666667
 50
0
 51
89.999999999999915
  0
LINE
  8
_0-b_細線3
  6
CONTINUOUS
 62
    7
 10
516.8717531889431
 20
270.54579153234272
 11
512.70508652227613
 21
270.54579153234272
  0
ARC
  8
_0-b_細線3
  6
CONTINUOUS
 62
    7
 10
525.8717531889431
 20
268.8791248656762
 40
1.666666666666667
 50
89.999999999999915
 51
179.99999999999983
  0
LINE
  8
_0-b_細線3
  6
CONTINUOUS
 62
    7
 10
525.8717531852642
 20
270.54579153234272
 11
530.03841985193117
 21
270.54579153234272
  0
LINE
  8
_0-b_細線3
  6
CONTINUOUS
 62
    7
 10
525.53841985377016
 20
277.04579153234272
 11
517.20508652043713
 21
277.04579153234272
  0
LINE
  8
_0-b_細線3
  6
CONTINUOUS
 62
    7
 10
518.53841985377016
 20
243.71245819900923
 11
518.53841985560962
 21
268.8791248656762
  0
LINE
  8
_0-b_細線3
  6
CONTINUOUS
 62
    7
 10
524.20508652043713
 20
243.71245819900923
 11
524.20508652227659
 21
268.8791248656762
  0
LINE
  8
_0-b_細線3
  6
CONTINUOUS
 62
    7
 10
524.20508652043713
 20
243.71245819900923
 11
518.53841985377016
 21
243.71245819900923
  0
ARC
  8
_0-b_細線3
  6
CONTINUOUS
 62
    7
 10
456.87175318773711
 20
273.71245819900923
 40
1.666666666666667
 50
89.999999999999915
 51
179.99999999999983
  0
ARC
  8
_0-b_細線3
  6
CONTINUOUS
 62
    7
 10
457.65166850661643
 20
277.04579153234272
 40
1.666666666666667
 50
269.99999999999977
 51
329.99999999999523
  0
ARC
  8
_0-b_細線3
  6
CONTINUOUS
 62
    7
 10
460.53841985256463
 20
275.3791248656762
 40
1.666666666666667
 50
89.999999999999915
 51
150.00000000000915
  0
LINE
  8
_0-b_細線3
  6
CONTINUOUS
 62
    7
 10
456.87175318773711
 20
275.3791248656762
 11
457.65166850661643
 21
275.3791248656762
  0
ARC
  8
_0-b_細線3
  6
CONTINUOUS
 62
    7
 10
472.53841985072512
 20
273.71245819900923
 40
1.666666666666667
 50
0
 51
89.999999999999915
  0
ARC
  8
_0-b_細線3
  6
CONTINUOUS
 62
    7
 10
471.75850453184626
 20
277.04579153234272
 40
1.666666666666667
 50
209.99999999999622
 51
269.99999999999977
  0
ARC
  8
_0-b_細線3
  6
CONTINUOUS
 62
    7
 10
468.8717531858976
 20
275.3791248656762
 40
1.666666666666667
 50
29.999999999990862
 51
89.999999999984354
  0
LINE
  8
_0-b_細線3
  6
CONTINUOUS
 62
    7
 10
472.53841985072512
 20
275.3791248656762
 11
471.75850453184626
 21
275.3791248656762
  0
ARC
  8
_0-b_細線3
  6
CONTINUOUS
 62
    7
 10
456.03841985440363
 20
271.3791248656762
 40
0.8333333333333334
 50
179.99999999999983
 51
269.99999999999977
  0
LINE
  8
_0-b_細線3
  6
CONTINUOUS
 62
    7
 10
455.20508652107054
 20
273.71245819900923
 11
455.20508652107054
 21
271.3791248656762
  0
ARC
  8
_0-b_細線3
  6
CONTINUOUS
 62
    7
 10
473.3717531840586
 20
271.3791248656762
 40
0.8333333333333334
 50
269.99999999999977
 51
359.99999999999966
  0
LINE
  8
_0-b_細線3
  6
CONTINUOUS
 62
    7
 10
474.20508651739215
 20
273.71245819900923
 11
474.20508651739215
 21
271.3791248656762
  0
ARC
  8
_0-b_細線3
  6
CONTINUOUS
 62
    7
 10
460.20508652107054
 20
268.8791248656762
 40
1.666666666666667
 50
0
 51
89.999999999999915
  0
LINE
  8
_0-b_細線3
  6
CONTINUOUS
 62
    7
 10
460.20508652107054
 20
270.54579153234272
 11
456.03841985440363
 21
270.54579153234272
  0
ARC
  8
_0-b_細線3
  6
CONTINUOUS
 62
    7
 10
469.2050865210706
 20
268.8791248656762
 40
1.666666666666667
 50
89.999999999999915
 51
179.99999999999983
  0
LINE
  8
_0-b_細線3
  6
CONTINUOUS
 62
    7
 10
469.20508651739169
 20
270.54579153234272
 11
473.3717531840586
 21
270.54579153234272
  0
LINE
  8
_0-b_細線3
  6
CONTINUOUS
 62
    7
 10
468.8717531858976
 20
277.04579153234272
 11
460.53841985256463
 21
277.04579153234272
  0
LINE
  8
_0-b_細線3
  6
CONTINUOUS
 62
    7
 10
461.87175318589811
 20
243.71245819900923
 11
461.87175318773711
 21
268.8791248656762
  0
LINE
  8
_0-b_細線3
  6
CONTINUOUS
 62
    7
 10
467.53841985256457
 20
243.71245819900923
 11
467.53841985440403
 21
268.8791248656762
  0
LINE
  8
_0-b_細線3
  6
CONTINUOUS
 62
    7
 10
467.53841985256457
 20
243.71245819900923
 11
461.87175318589811
 21
243.71245819900923
  0
ARC
  8
_0-b_細線3
  6
CONTINUOUS
 62
    7
 10
428.53841985380058
 20
273.71245819900923
 40
1.666666666666667
 50
89.999999999999915
 51
179.99999999999983
  0
ARC
  8
_0-b_細線3
  6
CONTINUOUS
 62
    7
 10
429.31833517267995
 20
277.04579153234272
 40
1.666666666666667
 50
269.99999999999977
 51
329.99999999999523
  0
ARC
  8
_0-b_細線3
  6
CONTINUOUS
 62
    7
 10
432.20508651862815
 20
275.3791248656762
 40
1.666666666666667
 50
89.999999999999915
 51
150.00000000000915
  0
LINE
  8
_0-b_細線3
  6
CONTINUOUS
 62
    7
 10
428.53841985380058
 20
275.3791248656762
 11
429.31833517267995
 21
275.3791248656762
  0
ARC
  8
_0-b_細線3
  6
CONTINUOUS
 62
    7
 10
444.20508651678864
 20
273.71245819900923
 40
1.666666666666667
 50
0
 51
89.999999999999915
  0
ARC
  8
_0-b_細線3
  6
CONTINUOUS
 62
    7
 10
443.42517119790926
 20
277.04579153234272
 40
1.666666666666667
 50
210.00000000000404
 51
269.99999999999977
  0
ARC
  8
_0-b_細線3
  6
CONTINUOUS
 62
    7
 10
440.53841985196158
 20
275.3791248656762
 40
1.666666666666667
 50
29.999999999998682
 51
89.999999999999915
  0
LINE
  8
_0-b_細線3
  6
CONTINUOUS
 62
    7
 10
444.20508651678864
 20
275.3791248656762
 11
443.42517119790926
 21
275.3791248656762
  0
ARC
  8
_0-b_細線3
  6
CONTINUOUS
 62
    7
 10
427.7050865204676
 20
271.3791248656762
 40
0.8333333333333334
 50
179.99999999999983
 51
269.99999999999977
  0
LINE
  8
_0-b_細線3
  6
CONTINUOUS
 62
    7
 10
426.87175318713406
 20
273.71245819900923
 11
426.87175318713406
 21
271.3791248656762
  0
ARC
  8
_0-b_細線3
  6
CONTINUOUS
 62
    7
 10
445.03841985012218
 20
271.3791248656762
 40
0.8333333333333334
 50
269.99999999999977
 51
359.99999999999966
  0
LINE
  8
_0-b_細線3
  6
CONTINUOUS
 62
    7
 10
445.87175318345516
 20
273.71245819900923
 11
445.87175318345516
 21
271.3791248656762
  0
ARC
  8
_0-b_細線3
  6
CONTINUOUS
 62
    7
 10
431.87175318713406
 20
268.8791248656762
 40
1.666666666666667
 50
0
 51
89.999999999999915
  0
LINE
  8
_0-b_細線3
  6
CONTINUOUS
 62
    7
 10
431.87175318713406
 20
270.54579153234272
 11
427.7050865204676
 21
270.54579153234272
  0
ARC
  8
_0-b_細線3
  6
CONTINUOUS
 62
    7
 10
440.87175318713406
 20
268.8791248656762
 40
1.666666666666667
 50
89.999999999999915
 51
179.99999999999983
  0
LINE
  8
_0-b_細線3
  6
CONTINUOUS
 62
    7
 10
440.87175318345516
 20
270.54579153234272
 11
445.03841985012218
 21
270.54579153234272
  0
LINE
  8
_0-b_細線3
  6
CONTINUOUS
 62
    7
 10
440.53841985196158
 20
277.04579153234272
 11
432.20508651862815
 21
277.04579153234272
  0
LINE
  8
_0-b_細線3
  6
CONTINUOUS
 62
    7
 10
433.53841985196112
 20
243.71245819900923
 11
433.53841985380058
 21
268.8791248656762
  0
LINE
  8
_0-b_細線3
  6
CONTINUOUS
 62
    7
 10
439.20508651862809
 20
243.71245819900923
 11
439.20508652046755
 21
268.8791248656762
  0
LINE
  8
_0-b_細線3
  6
CONTINUOUS
 62
    7
 10
439.20508651862809
 20
243.71245819900923
 11
433.53841985196112
 21
243.71245819900923
  0
ARC
  8
_0-b_細線3
  6
CONTINUOUS
 62
    7
 10
400.2050865198641
 20
273.71245819900923
 40
1.666666666666667
 50
89.999999999999915
 51
179.99999999999983
  0
ARC
  8
_0-b_細線3
  6
CONTINUOUS
 62
    7
 10
400.98500183874353
 20
277.04579153234272
 40
1.666666666666667
 50
269.99999999999977
 51
329.99999999999523
  0
ARC
  8
_0-b_細線3
  6
CONTINUOUS
 62
    7
 10
403.87175318469161
 20
275.3791248656762
 40
1.666666666666667
 50
89.999999999999915
 51
150.00000000000915
  0
LINE
  8
_0-b_細線3
  6
CONTINUOUS
 62
    7
 10
400.2050865198641
 20
275.3791248656762
 11
400.98500183874353
 21
275.3791248656762
  0
ARC
  8
_0-b_細線3
  6
CONTINUOUS
 62
    7
 10
415.87175318285222
 20
273.71245819900923
 40
1.666666666666667
 50
0
 51
89.999999999999915
  0
ARC
  8
_0-b_細線3
  6
CONTINUOUS
 62
    7
 10
415.0918378639733
 20
277.04579153234272
 40
1.666666666666667
 50
209.99999999999622
 51
269.99999999999977
  0
ARC
  8
_0-b_細線3
  6
CONTINUOUS
 62
    7
 10
412.2050865180247
 20
275.3791248656762
 40
1.666666666666667
 50
29.999999999990862
 51
89.999999999984354
  0
LINE
  8
_0-b_細線3
  6
CONTINUOUS
 62
    7
 10
415.87175318285222
 20
275.3791248656762
 11
415.0918378639733
 21
275.3791248656762
  0
ARC
  8
_0-b_細線3
  6
CONTINUOUS
 62
    7
 10
399.37175318653112
 20
271.3791248656762
 40
0.8333333333333334
 50
179.99999999999983
 51
269.99999999999977
  0
LINE
  8
_0-b_細線3
  6
CONTINUOUS
 62
    7
 10
398.53841985319764
 20
273.71245819900923
 11
398.53841985319764
 21
271.3791248656762
  0
ARC
  8
_0-b_細線3
  6
CONTINUOUS
 62
    7
 10
416.7050865161857
 20
271.3791248656762
 40
0.8333333333333334
 50
269.99999999999977
 51
359.99999999999966
  0
LINE
  8
_0-b_細線3
  6
CONTINUOUS
 62
    7
 10
417.53841984951919
 20
273.71245819900923
 11
417.53841984951919
 21
271.3791248656762
  0
ARC
  8
_0-b_細線3
  6
CONTINUOUS
 62
    7
 10
403.53841985319764
 20
268.8791248656762
 40
1.666666666666667
 50
0
 51
89.999999999999915
  0
LINE
  8
_0-b_細線3
  6
CONTINUOUS
 62
    7
 10
403.53841985319764
 20
270.54579153234272
 11
399.37175318653112
 21
270.54579153234272
  0
ARC
  8
_0-b_細線3
  6
CONTINUOUS
 62
    7
 10
412.53841985319758
 20
268.8791248656762
 40
1.666666666666667
 50
89.999999999999915
 51
179.99999999999983
  0
LINE
  8
_0-b_細線3
  6
CONTINUOUS
 62
    7
 10
412.53841984951868
 20
270.54579153234272
 11
416.7050865161857
 21
270.54579153234272
  0
LINE
  8
_0-b_細線3
  6
CONTINUOUS
 62
    7
 10
412.2050865180247
 20
277.04579153234272
 11
403.87175318469161
 21
277.04579153234272
  0
LINE
  8
_0-b_細線3
  6
CONTINUOUS
 62
    7
 10
405.20508651802515
 20
243.71245819900923
 11
405.2050865198641
 21
268.8791248656762
  0
LINE
  8
_0-b_細線3
  6
CONTINUOUS
 62
    7
 10
410.87175318469167
 20
243.71245819900923
 11
410.87175318653112
 21
268.8791248656762
  0
LINE
  8
_0-b_細線3
  6
CONTINUOUS
 62
    7
 10
410.87175318469167
 20
243.71245819900923
 11
405.20508651802515
 21
243.71245819900923
  0
ARC
  8
_0-b_細線3
  6
CONTINUOUS
 62
    7
 10
598.5384198574186
 20
273.71245819900923
 40
1.666666666666667
 50
89.999999999999915
 51
179.99999999999983
  0
ARC
  8
_0-b_細線3
  6
CONTINUOUS
 62
    7
 10
599.31833517629798
 20
277.04579153234272
 40
1.666666666666667
 50
269.99999999999977
 51
329.99999999999523
  0
ARC
  8
_0-b_細線3
  6
CONTINUOUS
 62
    7
 10
602.20508652224567
 20
275.3791248656762
 40
1.666666666666667
 50
89.999999999999915
 51
150.00000000000134
  0
LINE
  8
_0-b_細線3
  6
CONTINUOUS
 62
    7
 10
598.5384198574186
 20
275.3791248656762
 11
599.31833517629798
 21
275.3791248656762
  0
ARC
  8
_0-b_細線3
  6
CONTINUOUS
 62
    7
 10
614.20508652040689
 20
273.71245819900923
 40
1.666666666666667
 50
0
 51
89.999999999999915
  0
ARC
  8
_0-b_細線3
  6
CONTINUOUS
 62
    7
 10
613.42517120152752
 20
277.04579153234272
 40
1.666666666666667
 50
210.00000000000404
 51
269.99999999999977
  0
ARC
  8
_0-b_細線3
  6
CONTINUOUS
 62
    7
 10
610.53841985557938
 20
275.3791248656762
 40
1.666666666666667
 50
29.999999999990862
 51
89.999999999992184
  0
LINE
  8
_0-b_細線3
  6
CONTINUOUS
 62
    7
 10
614.20508652040689
 20
275.3791248656762
 11
613.42517120152752
 21
275.3791248656762
  0
ARC
  8
_0-b_細線3
  6
CONTINUOUS
 62
    7
 10
597.70508652408557
 20
271.3791248656762
 40
0.8333333333333334
 50
179.99999999999983
 51
269.99999999999977
  0
LINE
  8
_0-b_細線3
  6
CONTINUOUS
 62
    7
 10
596.87175319075209
 20
273.71245819900923
 11
596.87175319075209
 21
271.3791248656762
  0
ARC
  8
_0-b_細線3
  6
CONTINUOUS
 62
    7
 10
615.03841985374015
 20
271.3791248656762
 40
0.8333333333333334
 50
269.99999999999977
 51
359.99999999999966
  0
LINE
  8
_0-b_細線3
  6
CONTINUOUS
 62
    7
 10
615.87175318707341
 20
273.71245819900923
 11
615.87175318707341
 21
271.3791248656762
  0
ARC
  8
_0-b_細線3
  6
CONTINUOUS
 62
    7
 10
601.87175319075209
 20
268.8791248656762
 40
1.666666666666667
 50
0
 51
89.999999999999915
  0
LINE
  8
_0-b_細線3
  6
CONTINUOUS
 62
    7
 10
601.87175319075209
 20
270.54579153234272
 11
597.70508652408557
 21
270.54579153234272
  0
ARC
  8
_0-b_細線3
  6
CONTINUOUS
 62
    7
 10
610.87175319075209
 20
268.8791248656762
 40
1.666666666666667
 50
89.999999999999915
 51
179.99999999999983
  0
LINE
  8
_0-b_細線3
  6
CONTINUOUS
 62
    7
 10
610.87175318707318
 20
270.54579153234272
 11
615.03841985374015
 21
270.54579153234272
  0
LINE
  8
_0-b_細線3
  6
CONTINUOUS
 62
    7
 10
610.53841985557938
 20
277.04579153234272
 11
602.20508652224567
 21
277.04579153234272
  0
LINE
  8
_0-b_細線3
  6
CONTINUOUS
 62
    7
 10
603.5384198555796
 20
243.71245819900923
 11
603.5384198574186
 21
268.8791248656762
  0
LINE
  8
_0-b_細線3
  6
CONTINUOUS
 62
    7
 10
609.20508652224612
 20
243.71245819900923
 11
609.20508652408557
 21
268.8791248656762
  0
LINE
  8
_0-b_細線3
  6
CONTINUOUS
 62
    7
 10
609.20508652224612
 20
243.71245819900923
 11
603.5384198555796
 21
243.71245819900923
  0
ARC
  8
_0-b_細線3
  6
CONTINUOUS
 62
    7
 10
626.87175319135508
 20
273.71245819900923
 40
1.666666666666667
 50
89.999999999999915
 51
179.99999999999983
  0
ARC
  8
_0-b_細線3
  6
CONTINUOUS
 62
    7
 10
627.65166851023446
 20
277.04579153234272
 40
1.666666666666667
 50
269.99999999999977
 51
329.99999999999523
  0
ARC
  8
_0-b_細線3
  6
CONTINUOUS
 62
    7
 10
630.53841985618214
 20
275.3791248656762
 40
1.666666666666667
 50
89.999999999999915
 51
150.00000000000134
  0
LINE
  8
_0-b_細線3
  6
CONTINUOUS
 62
    7
 10
626.87175319135508
 20
275.3791248656762
 11
627.65166851023446
 21
275.3791248656762
  0
ARC
  8
_0-b_細線3
  6
CONTINUOUS
 62
    7
 10
642.53841985434315
 20
273.71245819900923
 40
1.666666666666667
 50
0
 51
89.999999999999915
  0
ARC
  8
_0-b_細線3
  6
CONTINUOUS
 62
    7
 10
641.75850453546377
 20
277.04579153234272
 40
1.666666666666667
 50
210.00000000000404
 51
269.99999999999977
  0
ARC
  8
_0-b_細線3
  6
CONTINUOUS
 62
    7
 10
638.87175318951563
 20
275.3791248656762
 40
1.666666666666667
 50
29.999999999990862
 51
89.999999999984354
  0
LINE
  8
_0-b_細線3
  6
CONTINUOUS
 62
    7
 10
642.53841985434315
 20
275.3791248656762
 11
641.75850453546377
 21
275.3791248656762
  0
ARC
  8
_0-b_細線3
  6
CONTINUOUS
 62
    7
 10
626.0384198580216
 20
271.3791248656762
 40
0.8333333333333334
 50
179.99999999999983
 51
269.99999999999977
  0
LINE
  8
_0-b_細線3
  6
CONTINUOUS
 62
    7
 10
625.20508652468857
 20
273.71245819900923
 11
625.20508652468857
 21
271.3791248656762
  0
ARC
  8
_0-b_細線3
  6
CONTINUOUS
 62
    7
 10
643.37175318767663
 20
271.3791248656762
 40
0.8333333333333334
 50
269.99999999999977
 51
359.99999999999966
  0
LINE
  8
_0-b_細線3
  6
CONTINUOUS
 62
    7
 10
644.20508652100966
 20
273.71245819900923
 11
644.20508652100966
 21
271.3791248656762
  0
ARC
  8
_0-b_細線3
  6
CONTINUOUS
 62
    7
 10
630.20508652468857
 20
268.8791248656762
 40
1.666666666666667
 50
0
 51
89.999999999999915
  0
LINE
  8
_0-b_細線3
  6
CONTINUOUS
 62
    7
 10
630.20508652468857
 20
270.54579153234272
 11
626.0384198580216
 21
270.54579153234272
  0
ARC
  8
_0-b_細線3
  6
CONTINUOUS
 62
    7
 10
639.20508652468857
 20
268.8791248656762
 40
1.666666666666667
 50
89.999999999999915
 51
179.99999999999983
  0
LINE
  8
_0-b_細線3
  6
CONTINUOUS
 62
    7
 10
639.20508652100966
 20
270.54579153234272
 11
643.37175318767663
 21
270.54579153234272
  0
LINE
  8
_0-b_細線3
  6
CONTINUOUS
 62
    7
 10
638.87175318951563
 20
277.04579153234272
 11
630.53841985618214
 21
277.04579153234272
  0
LINE
  8
_0-b_細線3
  6
CONTINUOUS
 62
    7
 10
631.87175318951563
 20
243.71245819900923
 11
631.87175319135508
 21
268.8791248656762
  0
LINE
  8
_0-b_細線3
  6
CONTINUOUS
 62
    7
 10
637.5384198561826
 20
243.71245819900923
 11
637.53841985802205
 21
268.8791248656762
  0
LINE
  8
_0-b_細線3
  6
CONTINUOUS
 62
    7
 10
637.5384198561826
 20
243.71245819900923
 11
631.87175318951563
 21
243.71245819900923
  0
ARC
  8
_0-b_細線3
  6
CONTINUOUS
 62
    7
 10
655.20508652529134
 20
273.71245819900923
 40
1.666666666666667
 50
89.999999999999915
 51
179.99999999999983
  0
ARC
  8
_0-b_細線3
  6
CONTINUOUS
 62
    7
 10
655.98500184417071
 20
277.04579153234272
 40
1.666666666666667
 50
269.99999999999977
 51
329.99999999999523
  0
ARC
  8
_0-b_細線3
  6
CONTINUOUS
 62
    7
 10
658.87175319011862
 20
275.3791248656762
 40
1.666666666666667
 50
89.999999999999915
 51
150.00000000000523
  0
LINE
  8
_0-b_細線3
  6
CONTINUOUS
 62
    7
 10
655.20508652529134
 20
275.3791248656762
 11
655.98500184417071
 21
275.3791248656762
  0
ARC
  8
_0-b_細線3
  6
CONTINUOUS
 62
    7
 10
670.87175318827963
 20
273.71245819900923
 40
1.666666666666667
 50
0
 51
89.999999999999915
  0
ARC
  8
_0-b_細線3
  6
CONTINUOUS
 62
    7
 10
670.09183786940025
 20
277.04579153234272
 40
1.666666666666667
 50
210.00000000000404
 51
269.99999999999977
  0
ARC
  8
_0-b_細線3
  6
CONTINUOUS
 62
    7
 10
667.20508652345211
 20
275.3791248656762
 40
1.666666666666667
 50
29.999999999990862
 51
89.999999999992184
  0
LINE
  8
_0-b_細線3
  6
CONTINUOUS
 62
    7
 10
670.87175318827963
 20
275.3791248656762
 11
670.09183786940025
 21
275.3791248656762
  0
ARC
  8
_0-b_細線3
  6
CONTINUOUS
 62
    7
 10
654.37175319195819
 20
271.3791248656762
 40
0.8333333333333334
 50
179.99999999999983
 51
269.99999999999977
  0
LINE
  8
_0-b_細線3
  6
CONTINUOUS
 62
    7
 10
653.53841985862482
 20
273.71245819900923
 11
653.53841985862482
 21
271.3791248656762
  0
ARC
  8
_0-b_細線3
  6
CONTINUOUS
 62
    7
 10
671.70508652161288
 20
271.3791248656762
 40
0.8333333333333334
 50
269.99999999999977
 51
359.99999999999966
  0
LINE
  8
_0-b_細線3
  6
CONTINUOUS
 62
    7
 10
672.53841985494614
 20
273.71245819900923
 11
672.53841985494614
 21
271.3791248656762
  0
ARC
  8
_0-b_細線3
  6
CONTINUOUS
 62
    7
 10
658.53841985862482
 20
268.8791248656762
 40
1.666666666666667
 50
0
 51
89.999999999999915
  0
LINE
  8
_0-b_細線3
  6
CONTINUOUS
 62
    7
 10
658.53841985862482
 20
270.54579153234272
 11
654.37175319195819
 21
270.54579153234272
  0
ARC
  8
_0-b_細線3
  6
CONTINUOUS
 62
    7
 10
667.53841985862482
 20
268.8791248656762
 40
1.666666666666667
 50
89.999999999999915
 51
179.99999999999983
  0
LINE
  8
_0-b_細線3
  6
CONTINUOUS
 62
    7
 10
667.53841985494591
 20
270.54579153234272
 11
671.70508652161288
 21
270.54579153234272
  0
LINE
  8
_0-b_細線3
  6
CONTINUOUS
 62
    7
 10
667.20508652345211
 20
277.04579153234272
 11
658.87175319011862
 21
277.04579153234272
  0
LINE
  8
_0-b_細線3
  6
CONTINUOUS
 62
    7
 10
660.20508652345211
 20
243.71245819900923
 11
660.20508652529134
 21
268.8791248656762
  0
LINE
  8
_0-b_細線3
  6
CONTINUOUS
 62
    7
 10
665.87175319011885
 20
243.71245819900923
 11
665.87175319195831
 21
268.8791248656762
  0
LINE
  8
_0-b_細線3
  6
CONTINUOUS
 62
    7
 10
665.87175319011885
 20
243.71245819900923
 11
660.20508652345211
 21
243.71245819900923
  0
ARC
  8
_0-b_細線3
  6
CONTINUOUS
 62
    7
 10
371.87175318561111
 20
273.71245819900923
 40
1.666666666666667
 50
89.999999999999915
 51
179.99999999999983
  0
ARC
  8
_0-b_細線3
  6
CONTINUOUS
 62
    7
 10
372.651668504491
 20
277.04579153234272
 40
1.666666666666667
 50
269.99999999999977
 51
329.99999999999523
  0
ARC
  8
_0-b_細線3
  6
CONTINUOUS
 62
    7
 10
375.53841985043908
 20
275.3791248656762
 40
1.666666666666667
 50
89.999999999999915
 51
150.00000000000915
  0
LINE
  8
_0-b_細線3
  6
CONTINUOUS
 62
    7
 10
371.87175318561111
 20
275.3791248656762
 11
372.651668504491
 21
275.3791248656762
  0
ARC
  8
_0-b_細線3
  6
CONTINUOUS
 62
    7
 10
387.53841984859918
 20
273.71245819900923
 40
1.666666666666667
 50
0
 51
89.999999999999915
  0
ARC
  8
_0-b_細線3
  6
CONTINUOUS
 62
    7
 10
386.75850452972031
 20
277.04579153234272
 40
1.666666666666667
 50
210.00000000000404
 51
269.99999999999977
  0
ARC
  8
_0-b_細線3
  6
CONTINUOUS
 62
    7
 10
383.87175318377211
 20
275.3791248656762
 40
1.666666666666667
 50
29.999999999990862
 51
89.999999999999901
  0
LINE
  8
_0-b_細線3
  6
CONTINUOUS
 62
    7
 10
387.53841984859918
 20
275.3791248656762
 11
386.75850452972031
 21
275.3791248656762
  0
ARC
  8
_0-b_細線3
  6
CONTINUOUS
 62
    7
 10
371.03841985227808
 20
271.3791248656762
 40
0.8333333333333334
 50
179.99999999999983
 51
269.99999999999977
  0
LINE
  8
_0-b_細線3
  6
CONTINUOUS
 62
    7
 10
370.20508651894511
 20
273.71245819900923
 11
370.20508651894511
 21
271.3791248656762
  0
ARC
  8
_0-b_細線3
  6
CONTINUOUS
 62
    7
 10
388.37175318193317
 20
271.3791248656762
 40
0.8333333333333334
 50
269.99999999999977
 51
359.99999999999966
  0
LINE
  8
_0-b_細線3
  6
CONTINUOUS
 62
    7
 10
389.2050865152662
 20
273.71245819900923
 11
389.2050865152662
 21
271.3791248656762
  0
ARC
  8
_0-b_細線3
  6
CONTINUOUS
 62
    7
 10
375.20508651894511
 20
268.8791248656762
 40
1.666666666666667
 50
0
 51
89.999999999999915
  0
LINE
  8
_0-b_細線3
  6
CONTINUOUS
 62
    7
 10
375.20508651894511
 20
270.54579153234272
 11
371.03841985227808
 21
270.54579153234272
  0
ARC
  8
_0-b_細線3
  6
CONTINUOUS
 62
    7
 10
384.20508651894511
 20
268.8791248656762
 40
1.666666666666667
 50
89.999999999999915
 51
179.99999999999983
  0
LINE
  8
_0-b_細線3
  6
CONTINUOUS
 62
    7
 10
384.2050865152662
 20
270.54579153234272
 11
388.37175318193317
 21
270.54579153234272
  0
LINE
  8
_0-b_細線3
  6
CONTINUOUS
 62
    7
 10
383.87175318377211
 20
277.04579153234272
 11
375.53841985043908
 21
277.04579153234272
  0
LINE
  8
_0-b_細線3
  6
CONTINUOUS
 62
    7
 10
376.87175318377217
 20
243.71245819900923
 11
376.87175318561111
 21
268.8791248656762
  0
LINE
  8
_0-b_細線3
  6
CONTINUOUS
 62
    7
 10
382.53841985043914
 20
243.71245819900923
 11
382.53841985227808
 21
268.8791248656762
  0
LINE
  8
_0-b_細線3
  6
CONTINUOUS
 62
    7
 10
382.53841985043914
 20
243.71245819900923
 11
376.87175318377217
 21
243.71245819900923
  0
ARC
  8
_0-b_細線3
  6
CONTINUOUS
 62
    7
 10
343.53841985135858
 20
273.71245819900923
 40
1.666666666666667
 50
89.999999999999915
 51
179.99999999999983
  0
ARC
  8
_0-b_細線3
  6
CONTINUOUS
 62
    7
 10
344.31833517023796
 20
277.04579153234272
 40
1.666666666666667
 50
269.99999999999977
 51
329.99999999999523
  0
ARC
  8
_0-b_細線3
  6
CONTINUOUS
 62
    7
 10
347.2050865161861
 20
275.3791248656762
 40
1.666666666666667
 50
89.999999999999915
 51
150.00000000000915
  0
LINE
  8
_0-b_細線3
  6
CONTINUOUS
 62
    7
 10
343.53841985135858
 20
275.3791248656762
 11
344.31833517023796
 21
275.3791248656762
  0
ARC
  8
_0-b_細線3
  6
CONTINUOUS
 62
    7
 10
359.20508651434665
 20
273.71245819900923
 40
1.666666666666667
 50
0
 51
89.999999999999915
  0
ARC
  8
_0-b_細線3
  6
CONTINUOUS
 62
    7
 10
358.42517119546778
 20
277.04579153234272
 40
1.666666666666667
 50
209.99999999999622
 51
269.99999999999977
  0
ARC
  8
_0-b_細線3
  6
CONTINUOUS
 62
    7
 10
355.53841984951919
 20
275.3791248656762
 40
1.666666666666667
 50
29.999999999990862
 51
89.999999999984354
  0
LINE
  8
_0-b_細線3
  6
CONTINUOUS
 62
    7
 10
359.20508651434665
 20
275.3791248656762
 11
358.42517119546778
 21
275.3791248656762
  0
ARC
  8
_0-b_細線3
  6
CONTINUOUS
 62
    7
 10
342.70508651802561
 20
271.3791248656762
 40
0.8333333333333334
 50
179.99999999999983
 51
269.99999999999977
  0
LINE
  8
_0-b_細線3
  6
CONTINUOUS
 62
    7
 10
341.87175318469207
 20
273.71245819900923
 11
341.87175318469207
 21
271.3791248656762
  0
ARC
  8
_0-b_細線3
  6
CONTINUOUS
 62
    7
 10
360.03841984768019
 20
271.3791248656762
 40
0.8333333333333334
 50
269.99999999999977
 51
359.99999999999966
  0
LINE
  8
_0-b_細線3
  6
CONTINUOUS
 62
    7
 10
360.87175318101367
 20
273.71245819900923
 11
360.87175318101367
 21
271.3791248656762
  0
ARC
  8
_0-b_細線3
  6
CONTINUOUS
 62
    7
 10
346.87175318469207
 20
268.8791248656762
 40
1.666666666666667
 50
0
 51
89.999999999999915
  0
LINE
  8
_0-b_細線3
  6
CONTINUOUS
 62
    7
 10
346.87175318469207
 20
270.54579153234272
 11
342.70508651802561
 21
270.54579153234272
  0
ARC
  8
_0-b_細線3
  6
CONTINUOUS
 62
    7
 10
355.87175318469207
 20
268.8791248656762
 40
1.666666666666667
 50
89.999999999999915
 51
179.99999999999983
  0
LINE
  8
_0-b_細線3
  6
CONTINUOUS
 62
    7
 10
355.87175318101316
 20
270.54579153234272
 11
360.03841984768019
 21
270.54579153234272
  0
LINE
  8
_0-b_細線3
  6
CONTINUOUS
 62
    7
 10
355.53841984951919
 20
277.04579153234272
 11
347.2050865161861
 21
277.04579153234272
  0
LINE
  8
_0-b_細線3
  6
CONTINUOUS
 62
    7
 10
348.53841984951964
 20
243.71245819900923
 11
348.53841985135858
 21
268.8791248656762
  0
LINE
  8
_0-b_細線3
  6
CONTINUOUS
 62
    7
 10
354.2050865161861
 20
243.71245819900923
 11
354.20508651802555
 21
268.8791248656762
  0
LINE
  8
_0-b_細線3
  6
CONTINUOUS
 62
    7
 10
354.2050865161861
 20
243.71245819900923
 11
348.53841984951964
 21
243.71245819900923
  0
ARC
  8
_0-b_細線3
  6
CONTINUOUS
 62
    7
 10
315.20508651710611
 20
273.71245819900923
 40
1.666666666666667
 50
89.999999999999915
 51
179.99999999999983
  0
ARC
  8
_0-b_細線3
  6
CONTINUOUS
 62
    7
 10
315.98500183598503
 20
277.04579153234272
 40
1.666666666666667
 50
269.99999999999977
 51
329.99999999999523
  0
ARC
  8
_0-b_細線3
  6
CONTINUOUS
 62
    7
 10
318.87175318193317
 20
275.3791248656762
 40
1.666666666666667
 50
89.999999999999915
 51
150.00000000000915
  0
LINE
  8
_0-b_細線3
  6
CONTINUOUS
 62
    7
 10
315.20508651710611
 20
275.3791248656762
 11
315.98500183598503
 21
275.3791248656762
  0
ARC
  8
_0-b_細線3
  6
CONTINUOUS
 62
    7
 10
330.87175318009423
 20
273.71245819900923
 40
1.666666666666667
 50
0
 51
89.999999999999915
  0
ARC
  8
_0-b_細線3
  6
CONTINUOUS
 62
    7
 10
330.09183786121525
 20
277.04579153234272
 40
1.666666666666667
 50
209.9999999999884
 51
269.99999999999977
  0
ARC
  8
_0-b_細線3
  6
CONTINUOUS
 62
    7
 10
327.2050865152662
 20
275.3791248656762
 40
1.666666666666667
 50
29.999999999990862
 51
89.999999999968722
  0
LINE
  8
_0-b_細線3
  6
CONTINUOUS
 62
    7
 10
330.87175318009423
 20
275.3791248656762
 11
330.09183786121525
 21
275.3791248656762
  0
ARC
  8
_0-b_細線3
  6
CONTINUOUS
 62
    7
 10
314.37175318377314
 20
271.3791248656762
 40
0.8333333333333334
 50
179.99999999999983
 51
269.99999999999977
  0
LINE
  8
_0-b_細線3
  6
CONTINUOUS
 62
    7
 10
313.53841985043914
 20
273.71245819900923
 11
313.53841985043914
 21
271.3791248656762
  0
ARC
  8
_0-b_細線3
  6
CONTINUOUS
 62
    7
 10
331.7050865134272
 20
271.3791248656762
 40
0.8333333333333334
 50
269.99999999999977
 51
359.99999999999966
  0
LINE
  8
_0-b_細線3
  6
CONTINUOUS
 62
    7
 10
332.53841984676114
 20
273.71245819900923
 11
332.53841984676114
 21
271.3791248656762
  0
ARC
  8
_0-b_細線3
  6
CONTINUOUS
 62
    7
 10
318.53841985043914
 20
268.8791248656762
 40
1.666666666666667
 50
0
 51
89.999999999999915
  0
LINE
  8
_0-b_細線3
  6
CONTINUOUS
 62
    7
 10
318.53841985043914
 20
270.54579153234272
 11
314.37175318377314
 21
270.54579153234272
  0
ARC
  8
_0-b_細線3
  6
CONTINUOUS
 62
    7
 10
327.53841985043914
 20
268.8791248656762
 40
1.666666666666667
 50
89.999999999999915
 51
179.99999999999983
  0
LINE
  8
_0-b_細線3
  6
CONTINUOUS
 62
    7
 10
327.53841984676023
 20
270.54579153234272
 11
331.7050865134272
 21
270.54579153234272
  0
LINE
  8
_0-b_細線3
  6
CONTINUOUS
 62
    7
 10
327.2050865152662
 20
277.04579153234272
 11
318.87175318193317
 21
277.04579153234272
  0
LINE
  8
_0-b_細線3
  6
CONTINUOUS
 62
    7
 10
320.20508651526711
 20
243.71245819900923
 11
320.20508651710611
 21
268.8791248656762
  0
LINE
  8
_0-b_細線3
  6
CONTINUOUS
 62
    7
 10
325.87175318193317
 20
243.71245819900923
 11
325.87175318377314
 21
268.8791248656762
  0
LINE
  8
_0-b_細線3
  6
CONTINUOUS
 62
    7
 10
325.87175318193317
 20
243.71245819900923
 11
320.20508651526711
 21
243.71245819900923
  0
ARC
  8
_0-b_細線3
  6
CONTINUOUS
 62
    7
 10
286.37175318592813
 20
273.71245819900923
 40
1.666666666666667
 50
89.999999999999915
 51
179.99999999999983
  0
ARC
  8
_0-b_細線3
  6
CONTINUOUS
 62
    7
 10
287.15166850480705
 20
277.04579153234272
 40
1.666666666666667
 50
269.99999999999977
 51
329.99999999999523
  0
ARC
  8
_0-b_細線3
  6
CONTINUOUS
 62
    7
 10
290.03841985075525
 20
275.3791248656762
 40
1.666666666666667
 50
89.999999999999915
 51
150.00000000000915
  0
LINE
  8
_0-b_細線3
  6
CONTINUOUS
 62
    7
 10
286.37175318592813
 20
275.3791248656762
 11
287.15166850480705
 21
275.3791248656762
  0
ARC
  8
_0-b_細線3
  6
CONTINUOUS
 62
    7
 10
302.03841984891625
 20
273.71245819900923
 40
1.666666666666667
 50
0
 51
89.999999999999915
  0
ARC
  8
_0-b_細線3
  6
CONTINUOUS
 62
    7
 10
301.25850453003682
 20
277.04579153234272
 40
1.666666666666667
 50
210.00000000000404
 51
269.99999999999977
  0
ARC
  8
_0-b_細線3
  6
CONTINUOUS
 62
    7
 10
298.37175318408867
 20
275.3791248656762
 40
1.666666666666667
 50
29.999999999990862
 51
89.999999999999901
  0
LINE
  8
_0-b_細線3
  6
CONTINUOUS
 62
    7
 10
302.03841984891625
 20
275.3791248656762
 11
301.25850453003682
 21
275.3791248656762
  0
ARC
  8
_0-b_細線3
  6
CONTINUOUS
 62
    7
 10
285.53841985259464
 20
271.3791248656762
 40
0.8333333333333334
 50
179.99999999999983
 51
269.99999999999977
  0
LINE
  8
_0-b_細線3
  6
CONTINUOUS
 62
    7
 10
284.70508651926116
 20
273.71245819900923
 11
284.70508651926116
 21
271.3791248656762
  0
ARC
  8
_0-b_細線3
  6
CONTINUOUS
 62
    7
 10
302.87175318224968
 20
271.3791248656762
 40
0.8333333333333334
 50
269.99999999999977
 51
359.99999999999966
  0
LINE
  8
_0-b_細線3
  6
CONTINUOUS
 62
    7
 10
303.70508651558271
 20
273.71245819900923
 11
303.70508651558271
 21
271.3791248656762
  0
ARC
  8
_0-b_細線3
  6
CONTINUOUS
 62
    7
 10
289.70508651926116
 20
268.8791248656762
 40
1.666666666666667
 50
0
 51
89.999999999999915
  0
LINE
  8
_0-b_細線3
  6
CONTINUOUS
 62
    7
 10
289.70508651926116
 20
270.54579153234272
 11
285.53841985259464
 21
270.54579153234272
  0
ARC
  8
_0-b_細線3
  6
CONTINUOUS
 62
    7
 10
298.70508651926161
 20
268.8791248656762
 40
1.666666666666667
 50
89.999999999999915
 51
179.99999999999983
  0
LINE
  8
_0-b_細線3
  6
CONTINUOUS
 62
    7
 10
298.70508651558271
 20
270.54579153234272
 11
302.87175318224968
 21
270.54579153234272
  0
LINE
  8
_0-b_細線3
  6
CONTINUOUS
 62
    7
 10
298.37175318408867
 20
277.04579153234272
 11
290.03841985075525
 21
277.04579153234272
  0
LINE
  8
_0-b_細線3
  6
CONTINUOUS
 62
    7
 10
291.37175318408867
 20
243.71245819900923
 11
291.37175318592813
 21
268.8791248656762
  0
LINE
  8
_0-b_細線3
  6
CONTINUOUS
 62
    7
 10
297.03841985075519
 20
243.71245819900923
 11
297.03841985259464
 21
268.8791248656762
  0
LINE
  8
_0-b_細線3
  6
CONTINUOUS
 62
    7
 10
297.03841985075519
 20
243.71245819900923
 11
291.37175318408867
 21
243.71245819900923
  0
ARC
  8
_0-b_細線3
  6
CONTINUOUS
 62
    7
 10
684.0384198574186
 20
273.71245819900923
 40
1.666666666666667
 50
89.999999999999915
 51
179.99999999999983
  0
ARC
  8
_0-b_細線3
  6
CONTINUOUS
 62
    7
 10
684.81833517629798
 20
277.04579153234272
 40
1.666666666666667
 50
269.99999999999977
 51
329.99999999999523
  0
ARC
  8
_0-b_細線3
  6
CONTINUOUS
 62
    7
 10
687.70508652224567
 20
275.3791248656762
 40
1.666666666666667
 50
89.999999999999915
 51
150.00000000000134
  0
LINE
  8
_0-b_細線3
  6
CONTINUOUS
 62
    7
 10
684.0384198574186
 20
275.3791248656762
 11
684.81833517629798
 21
275.3791248656762
  0
ARC
  8
_0-b_細線3
  6
CONTINUOUS
 62
    7
 10
699.70508652040667
 20
273.71245819900923
 40
1.666666666666667
 50
0
 51
89.999999999999915
  0
ARC
  8
_0-b_細線3
  6
CONTINUOUS
 62
    7
 10
698.92517120152729
 20
277.04579153234272
 40
1.666666666666667
 50
210.00000000000404
 51
269.99999999999977
  0
ARC
  8
_0-b_細線3
  6
CONTINUOUS
 62
    7
 10
696.03841985557915
 20
275.3791248656762
 40
1.666666666666667
 50
29.999999999990862
 51
89.999999999999901
  0
LINE
  8
_0-b_細線3
  6
CONTINUOUS
 62
    7
 10
699.70508652040667
 20
275.3791248656762
 11
698.92517120152729
 21
275.3791248656762
  0
ARC
  8
_0-b_細線3
  6
CONTINUOUS
 62
    7
 10
683.20508652408523
 20
271.3791248656762
 40
0.8333333333333334
 50
179.99999999999983
 51
269.99999999999977
  0
LINE
  8
_0-b_細線3
  6
CONTINUOUS
 62
    7
 10
682.37175319075209
 20
273.71245819900923
 11
682.37175319075209
 21
271.3791248656762
  0
ARC
  8
_0-b_細線3
  6
CONTINUOUS
 62
    7
 10
700.53841985374015
 20
271.3791248656762
 40
0.8333333333333334
 50
269.99999999999977
 51
359.99999999999966
  0
LINE
  8
_0-b_細線3
  6
CONTINUOUS
 62
    7
 10
701.37175318707318
 20
273.71245819900923
 11
701.37175318707318
 21
271.3791248656762
  0
ARC
  8
_0-b_細線3
  6
CONTINUOUS
 62
    7
 10
687.37175319075209
 20
268.8791248656762
 40
1.666666666666667
 50
0
 51
89.999999999999915
  0
LINE
  8
_0-b_細線3
  6
CONTINUOUS
 62
    7
 10
687.37175319075209
 20
270.54579153234272
 11
683.20508652408523
 21
270.54579153234272
  0
ARC
  8
_0-b_細線3
  6
CONTINUOUS
 62
    7
 10
696.37175319075209
 20
268.8791248656762
 40
1.666666666666667
 50
89.999999999999915
 51
179.99999999999983
  0
LINE
  8
_0-b_細線3
  6
CONTINUOUS
 62
    7
 10
696.37175318707318
 20
270.54579153234272
 11
700.53841985374015
 21
270.54579153234272
  0
LINE
  8
_0-b_細線3
  6
CONTINUOUS
 62
    7
 10
696.03841985557915
 20
277.04579153234272
 11
687.70508652224567
 21
277.04579153234272
  0
LINE
  8
_0-b_細線3
  6
CONTINUOUS
 62
    7
 10
689.03841985557915
 20
243.71245819900923
 11
689.0384198574186
 21
268.8791248656762
  0
LINE
  8
_0-b_細線3
  6
CONTINUOUS
 62
    7
 10
694.70508652224612
 20
243.71245819900923
 11
694.70508652408557
 21
268.8791248656762
  0
LINE
  8
_0-b_細線3
  6
CONTINUOUS
 62
    7
 10
694.70508652224612
 20
243.71245819900923
 11
689.03841985557915
 21
243.71245819900923
  0
LINE
  8
_0-d_寸法3
  6
CONTINUOUS
 62
    7
 10
484.84689941027727
 20
249.4482225625197
 11
449.49455768459177
 21
274.20219873221049
  0
LINE
  8
_0-d_寸法3
  6
CONTINUOUS
 62
    7
 10
453.59031790603666
 20
271.33431655045524
 11
451.00212745501153
 21
280.99357481334596
  0
LINE
  8
_0-d_寸法3
  6
CONTINUOUS
 62
    7
 10
453.59031790603666
 20
271.33431655045524
 11
456.1785083570619
 21
280.99357481334596
  0
LINE
  8
_0-d_寸法3
  6
CONTINUOUS
 62
    7
 10
484.84689941027727
 20
282.78155589585322
 11
449.49455768459177
 21
307.53553206554398
  0
LINE
  8
_0-d_寸法3
  6
CONTINUOUS
 62
    7
 10
453.59031790603666
 20
304.66764988378873
 11
456.17850835706184
 21
295.00839162089801
  0
LINE
  8
_0-d_寸法3
  6
CONTINUOUS
 62
    7
 10
453.59031790603666
 20
304.66764988378873
 11
451.00212745501148
 21
295.00839162089807
  0
LINE
  8
_0-d_寸法3
  6
CONTINUOUS
 62
    7
 10
453.59031790603666
 20
271.33431655045524
 11
453.59031790603666
 21
304.66764988378873
  0
TEXT
  8
_0-d_寸法3
 62
    7
 10
453.59031790603666
 20
280.50098321712176
 40
15
 41
1
 50
90
  1
20
  0
LINE
  8
_0-d_寸法3
  6
CONTINUOUS
 62
    7
 10
326.37175318650065
 20
233.71245819900923
 11
326.37175318650065
 21
173.23443296477038
  0
LINE
  8
_0-d_寸法3
  6
CONTINUOUS
 62
    7
 10
326.37175318650065
 20
178.23443296477038
 11
336.03101144939131
 21
180.82262341579559
  0
LINE
  8
_0-d_寸法3
  6
CONTINUOUS
 62
    7
 10
326.37175318650065
 20
178.23443296477038
 11
336.03101144939131
 21
175.64624251374511
  0
LINE
  8
_0-d_寸法3
  6
CONTINUOUS
 62
    7
 10
659.70508651983425
 20
233.71245819900923
 11
659.70508651983425
 21
173.23443296477038
  0
LINE
  8
_0-d_寸法3
  6
CONTINUOUS
 62
    7
 10
659.70508651983425
 20
178.23443296477038
 11
650.04582825694342
 21
175.64624251374516
  0
LINE
  8
_0-d_寸法3
  6
CONTINUOUS
 62
    7
 10
659.70508651983425
 20
178.23443296477038
 11
650.04582825694342
 21
180.82262341579565
  0
LINE
  8
_0-d_寸法3
  6
CONTINUOUS
 62
    7
 10
326.37175318650065
 20
178.23443296477038
 11
659.70508651983425
 21
178.23443296477038
  0
TEXT
  8
_0-d_寸法3
 62
    7
 10
481.78841985316757
 20
178.23443296477038
 40
15
 41
1
 50
0
  1
200
  0
LINE
  8
_0-a_極細3
  6
CONTINUOUS
 62
    7
 10
232.73168496601542
 20
188.59415936151251
 11
227.60138281613024
 21
202.68954867330152
  0
LINE
  8
_0-a_極細3
  6
CONTINUOUS
 62
    7
 10
282.72572763981191
 20
222.75316937254775
 11
287.85602978969666
 21
208.65778006075882
  0
LINE
  8
_0-a_極細3
  6
CONTINUOUS
 62
    7
 10
227.60138281613024
 20
202.68954867330152
 11
282.72572763981191
 21
222.75316937254775
  0
LINE
  8
_0-a_極細3
  6
CONTINUOUS
 62
    7
 10
232.73168496601542
 20
188.59415936151251
 11
287.85602978969666
 21
208.65778006075882
  0
LINE
  8
_0-a_極細3
  6
CENTER1
 62
    7
 10
225.21110049908003
 20
193.83822397737731
 11
289.24212098164588
 21
217.14360946241231
  0
LINE
  8
_0-a_極細3
  6
CONTINUOUS
 62
    7
 10
251.37175318650071
 20
163.71245819900921
 11
251.37175318650071
 21
207.79801954732511
  0
LINE
  8
_0-a_極細3
  6
CONTINUOUS
 62
    7
 10
251.37175318650071
 20
207.79801954732511
 11
236.37175318650071
 21
207.79801954732511
  0
LINE
  8
_0-a_極細3
  6
CONTINUOUS
 62
    7
 10
236.37175318650071
 20
207.79801954732511
 11
236.37175318650071
 21
163.71245819900921
  0
LINE
  8
_0-a_極細3
  6
CENTER1
 62
    7
 10
243.87175318650071
 20
155.43571791455634
 11
243.87175318650071
 21
212.07373971193465
  0
LINE
  8
_0-d_寸法3
  6
CONTINUOUS
 62
    7
 10
276.37175318650054
 20
190.3791248656762
 11
276.37175318650037
 21
173.23443296477038
  0
LINE
  8
_0-d_寸法3
  6
CONTINUOUS
 62
    7
 10
276.37175318650043
 20
178.23443296477038
 11
286.03101144939109
 21
180.82262341579559
  0
LINE
  8
_0-d_寸法3
  6
CONTINUOUS
 62
    7
 10
276.37175318650043
 20
178.23443296477038
 11
286.03101144939109
 21
175.64624251374511
  0
LINE
  8
_0-d_寸法3
  6
CONTINUOUS
 62
    7
 10
326.3717531865006
 20
228.71245819900923
 11
326.37175318650003
 21
173.23443296477038
  0
LINE
  8
_0-d_寸法3
  6
CONTINUOUS
 62
    7
 10
326.37175318650009
 20
178.23443296477038
 11
316.71249492360943
 21
175.64624251374516
  0
LINE
  8
_0-d_寸法3
  6
CONTINUOUS
 62
    7
 10
326.37175318650009
 20
178.23443296477038
 11
316.71249492360943
 21
180.82262341579565
  0
LINE
  8
_0-d_寸法3
  6
CONTINUOUS
 62
    7
 10
276.37175318650043
 20
178.23443296477038
 11
326.37175318650009
 21
178.23443296477038
  0
TEXT
  8
_0-d_寸法3
 62
    7
 10
293.8717531865002
 20
178.23443296477038
 40
15
 41
1
 50
0
  1
30
  0
LINE
  8
_0-a_極細3
  6
CONTINUOUS
 62
    7
 10
753.34515474031957
 20
188.59415936151251
 11
758.47545689020478
 21
202.68954867330152
  0
LINE
  8
_0-a_極細3
  6
CONTINUOUS
 62
    7
 10
703.35111206652311
 20
222.75316937254775
 11
698.22080991663836
 21
208.65778006075882
  0
LINE
  8
_0-a_極細3
  6
CONTINUOUS
 62
    7
 10
758.47545689020478
 20
202.68954867330152
 11
703.35111206652311
 21
222.75316937254775
  0
LINE
  8
_0-a_極細3
  6
CONTINUOUS
 62
    7
 10
753.34515474031957
 20
188.59415936151251
 11
698.22080991663836
 21
208.65778006075882
  0
LINE
  8
_0-a_極細3
  6
CENTER1
 62
    7
 10
760.86573920725505
 20
193.83822397737731
 11
696.83471872468908
 21
217.14360946241231
  0
LINE
  8
_0-a_極細3
  6
CONTINUOUS
 62
    7
 10
734.70508651983425
 20
163.71245819900921
 11
734.70508651983425
 21
207.79801954732511
  0
LINE
  8
_0-a_極細3
  6
CONTINUOUS
 62
    7
 10
749.70508651983425
 20
207.79801954732511
 11
749.70508651983425
 21
163.71245819900921
  0
LINE
  8
_0-a_極細3
  6
CENTER1
 62
    7
 10
742.20508651983425
 20
155.43571791455634
 11
742.20508651983425
 21
212.07373971193465
  0
LINE
  8
_0-d_寸法3
  6
CONTINUOUS
 62
    7
 10
709.70508651983448
 20
190.3791248656762
 11
709.70508651983459
 21
173.23443296477038
  0
LINE
  8
_0-d_寸法3
  6
CONTINUOUS
 62
    7
 10
709.70508651983459
 20
178.23443296477038
 11
700.04582825694388
 21
175.64624251374511
  0
LINE
  8
_0-d_寸法3
  6
CONTINUOUS
 62
    7
 10
709.70508651983459
 20
178.23443296477038
 11
700.04582825694388
 21
180.82262341579559
  0
LINE
  8
_0-d_寸法3
  6
CONTINUOUS
 62
    7
 10
659.70508651983448
 20
228.71245819900923
 11
659.70508651983482
 21
173.23443296477038
  0
LINE
  8
_0-d_寸法3
  6
CONTINUOUS
 62
    7
 10
659.70508651983482
 20
178.23443296477038
 11
669.36434478272554
 21
180.82262341579565
  0
LINE
  8
_0-d_寸法3
  6
CONTINUOUS
 62
    7
 10
659.70508651983482
 20
178.23443296477038
 11
669.36434478272554
 21
175.64624251374516
  0
LINE
  8
_0-d_寸法3
  6
CONTINUOUS
 62
    7
 10
709.70508651983459
 20
178.23443296477038
 11
659.70508651983482
 21
178.23443296477038
  0
TEXT
  8
_0-d_寸法3
 62
    7
 10
677.20508651983482
 20
178.23443296477038
 40
15
 41
1
 50
0
  1
30
  0
LINE
  8
_0-a_極細3
  6
CONTINUOUS
 62
    7
 10
734.70508651983425
 20
207.79801954732511
 11
749.70508651983425
 21
207.79801954732511
  0
CIRCLE
  8
_0-a_極細3
  6
CONTINUOUS
 62
    7
 10
757.53296658688225
 20
213.14964776518948
 40
0.5530864197530718
  0
CIRCLE
  8
_0-a_極細3
  6
CONTINUOUS
 62
    7
 10
737.93296658688234
 20
218.74964776518937
 40
0.5530864197530718
  0
TEXT
  8
_0-7_枠細線
 62
    5
 10
965.49999999999977
 20
70
 40
20
 41
0.5999999999999998
 50
0
  1
色については品番表参照のこと
  0
TEXT
  8
_0-7_枠細線
 62
    5
 10
443.11637221393426
 20
93.712093197330901
 40
25
 41
0.8
 50
0
  1
断面詳細図
  0
TEXT
  8
_0-7_枠細線
 62
    5
 10
1310
 20
67.5
 40
15
 41
0.6666666666666666
 50
0
  1
２００９年０１月３０日
  0
TEXT
  8
_0-7_枠細線
 62
    5
 10
1255
 20
147.5
 40
25
 41
0.8
 50
0
  1
株式会社シマブン
  0
TEXT
  8
_0-7_枠細線
 62
    5
 10
965.50000000000011
 20
110
 40
20
 41
0.6
 50
0
  1
ＧＲＳ－２０Ｗ２５０　ＳＥＴ
  0
LINE
  8
_0-b_細線3
  6
CONTINUOUS
 62
    7
 10
552.53841985529334
 20
247.54579153234258
 11
575.20508652196031
 21
247.54579153234258
  0
LINE
  8
_0-b_細線3
  6
CONTINUOUS
 62
    7
 10
524.20508652135641
 20
247.54579153234258
 11
546.87175318802338
 21
247.54579153234258
  0
LINE
  8
_0-b_細線3
  6
CONTINUOUS
 62
    7
 10
467.53841985348396
 20
247.54579153234258
 11
490.20508652015047
 21
247.54579153234258
  0
LINE
  8
_0-b_細線3
  6
CONTINUOUS
 62
    7
 10
439.20508651954788
 20
247.54579153234258
 11
461.87175318621439
 21
247.54579153234258
  0
LINE
  8
_0-b_細線3
  6
CONTINUOUS
 62
    7
 10
410.87175318561094
 20
247.54579153234258
 11
433.53841985227797
 21
247.54579153234258
  0
LINE
  8
_0-b_細線3
  6
CONTINUOUS
 62
    7
 10
580.87175318922937
 20
247.54579153234258
 11
603.53841985589634
 21
247.54579153234258
  0
LINE
  8
_0-b_細線3
  6
CONTINUOUS
 62
    7
 10
609.20508652316585
 20
247.54579153234258
 11
631.87175318983236
 21
247.54579153234258
  0
LINE
  8
_0-b_細線3
  6
CONTINUOUS
 62
    7
 10
637.53841985710233
 20
247.54579153234258
 11
660.2050865237693
 21
247.54579153234258
  0
LINE
  8
_0-b_細線3
  6
CONTINUOUS
 62
    7
 10
382.53841985135841
 20
247.54579153234258
 11
405.20508651802544
 21
247.54579153234258
  0
LINE
  8
_0-b_細線3
  6
CONTINUOUS
 62
    7
 10
354.20508651710543
 20
247.54579153234258
 11
376.8717531837724
 21
247.54579153234258
  0
LINE
  8
_0-b_細線3
  6
CONTINUOUS
 62
    7
 10
325.8717531828529
 20
247.54579153234258
 11
348.53841984951941
 21
247.54579153234258
  0
LINE
  8
_0-b_細線3
  6
CONTINUOUS
 62
    7
 10
297.03841984828387
 20
247.54579153234258
 11
320.20508651495084
 21
247.54579153234258
  0
LINE
  8
_0-b_細線3
  6
CONTINUOUS
 62
    7
 10
665.87175319103835
 20
247.54579153234258
 11
689.03841985770543
 21
247.54579153234258
  0
LINE
  8
_0-b_細線3
  6
CONTINUOUS
 62
    7
 10
552.53841985529311
 20
269.21245819900906
 11
575.20508652196008
 21
269.21245819900906
  0
LINE
  8
_0-b_細線3
  6
CONTINUOUS
 62
    7
 10
524.20508652135663
 20
269.21245819900906
 11
546.87175318802315
 21
269.21245819900906
  0
LINE
  8
_0-b_細線3
  6
CONTINUOUS
 62
    7
 10
467.53841985348407
 20
269.21245819900906
 11
490.20508652015059
 21
269.21245819900906
  0
LINE
  8
_0-b_細線3
  6
CONTINUOUS
 62
    7
 10
439.20508651954805
 20
269.21245819900906
 11
461.87175318621456
 21
269.21245819900906
  0
LINE
  8
_0-b_細線3
  6
CONTINUOUS
 62
    7
 10
410.87175318561117
 20
269.21245819900906
 11
433.53841985227808
 21
269.21245819900906
  0
LINE
  8
_0-b_細線3
  6
CONTINUOUS
 62
    7
 10
580.87175318922959
 20
269.21245819900906
 11
603.53841985589611
 21
269.21245819900906
  0
LINE
  8
_0-b_細線3
  6
CONTINUOUS
 62
    7
 10
609.20508652316585
 20
269.21245819900906
 11
631.87175318983259
 21
269.21245819900906
  0
LINE
  8
_0-b_細線3
  6
CONTINUOUS
 62
    7
 10
637.5384198571021
 20
269.21245819900906
 11
660.20508652376907
 21
269.21245819900906
  0
LINE
  8
_0-b_細線3
  6
CONTINUOUS
 62
    7
 10
382.53841985135858
 20
269.21245819900906
 11
405.20508651802561
 21
269.21245819900906
  0
LINE
  8
_0-b_細線3
  6
CONTINUOUS
 62
    7
 10
354.20508651710571
 20
269.21245819900906
 11
376.87175318377257
 21
269.21245819900906
  0
LINE
  8
_0-b_細線3
  6
CONTINUOUS
 62
    7
 10
325.87175318285267
 20
269.21245819900906
 11
348.53841984951964
 21
269.21245819900906
  0
LINE
  8
_0-b_細線3
  6
CONTINUOUS
 62
    7
 10
297.03841984828364
 20
269.21245819900906
 11
320.20508651495061
 21
269.21245819900906
  0
LINE
  8
_0-b_細線3
  6
CONTINUOUS
 62
    7
 10
665.87175319103858
 20
269.21245819900906
 11
689.03841985770555
 21
269.21245819900906
  0
ARC
  8
_0-b_細線3
  6
CONTINUOUS
 62
    7
 10
485.20508652167308
 20
273.71245819900923
 40
1.666666666666667
 50
89.999999999999915
 51
179.99999999999983
  0
ARC
  8
_0-b_細線3
  6
CONTINUOUS
 62
    7
 10
485.98500184055246
 20
277.04579153234272
 40
1.666666666666667
 50
269.99999999999977
 51
329.99999999999523
  0
ARC
  8
_0-b_細線3
  6
CONTINUOUS
 62
    7
 10
488.87175318650065
 20
275.3791248656762
 40
1.666666666666667
 50
89.999999999999915
 51
150.00000000000915
  0
LINE
  8
_0-b_細線3
  6
CONTINUOUS
 62
    7
 10
485.20508652167308
 20
275.3791248656762
 11
485.98500184055246
 21
275.3791248656762
  0
ARC
  8
_0-b_細線3
  6
CONTINUOUS
 62
    7
 10
500.87175318466166
 20
273.71245819900923
 40
1.666666666666667
 50
0
 51
89.999999999999915
  0
ARC
  8
_0-b_細線3
  6
CONTINUOUS
 62
    7
 10
500.09183786578228
 20
277.04579153234272
 40
1.666666666666667
 50
210.00000000000404
 51
269.99999999999977
  0
ARC
  8
_0-b_細線3
  6
CONTINUOUS
 62
    7
 10
497.20508651983408
 20
275.3791248656762
 40
1.666666666666667
 50
29.999999999990862
 51
89.999999999999901
  0
LINE
  8
_0-b_細線3
  6
CONTINUOUS
 62
    7
 10
500.87175318466166
 20
275.3791248656762
 11
500.09183786578228
 21
275.3791248656762
  0
ARC
  8
_0-b_細線3
  6
CONTINUOUS
 62
    7
 10
484.37175318834011
 20
271.3791248656762
 40
0.8333333333333334
 50
179.99999999999983
 51
269.99999999999977
  0
LINE
  8
_0-b_細線3
  6
CONTINUOUS
 62
    7
 10
483.53841985500657
 20
273.71245819900923
 11
483.53841985500657
 21
271.3791248656762
  0
ARC
  8
_0-b_細線3
  6
CONTINUOUS
 62
    7
 10
501.70508651799508
 20
271.3791248656762
 40
0.8333333333333334
 50
269.99999999999977
 51
359.99999999999966
  0
LINE
  8
_0-b_細線3
  6
CONTINUOUS
 62
    7
 10
502.53841985132817
 20
273.71245819900923
 11
502.53841985132817
 21
271.3791248656762
  0
ARC
  8
_0-b_細線3
  6
CONTINUOUS
 62
    7
 10
488.53841985500657
 20
268.8791248656762
 40
1.666666666666667
 50
0
 51
89.999999999999915
  0
LINE
  8
_0-b_細線3
  6
CONTINUOUS
 62
    7
 10
488.53841985500657
 20
270.54579153234272
 11
484.37175318834011
 21
270.54579153234272
  0
ARC
  8
_0-b_細線3
  6
CONTINUOUS
 62
    7
 10
497.53841985500657
 20
268.8791248656762
 40
1.666666666666667
 50
89.999999999999915
 51
179.99999999999983
  0
LINE
  8
_0-b_細線3
  6
CONTINUOUS
 62
    7
 10
497.53841985132766
 20
270.54579153234272
 11
501.70508651799508
 21
270.54579153234272
  0
LINE
  8
_0-b_細線3
  6
CONTINUOUS
 62
    7
 10
497.20508651983408
 20
277.04579153234272
 11
488.87175318650065
 21
277.04579153234272
  0
LINE
  8
_0-b_細線3
  6
CONTINUOUS
 62
    7
 10
490.20508651983414
 20
243.71245819900923
 11
490.20508652167308
 21
268.8791248656762
  0
LINE
  8
_0-b_細線3
  6
CONTINUOUS
 62
    7
 10
495.8717531865006
 20
243.71245819900923
 11
495.87175318834005
 21
268.8791248656762
  0
LINE
  8
_0-b_細線3
  6
CONTINUOUS
 62
    7
 10
495.8717531865006
 20
243.71245819900923
 11
490.20508651983414
 21
243.71245819900923
  0
LINE
  8
_0-7_枠細線
  6
CONTINUOUS
 62
    5
 10
1074.9999999999998
 20
480.00000000000028
 11
1074.9999999999998
 21
560.00000000000023
  0
TEXT
  8
_0-7_枠細線
 62
    5
 10
1097.4999999999998
 20
537.50000000000023
 40
15
 41
1
 50
0
  1
耐荷重
  0
TEXT
  8
_0-7_枠細線
 62
    5
 10
1089.9999999999998
 20
507.50000000000028
 40
15
 41
1
 50
0
  1
3.5kN/㎡
  0
TEXT
  8
_0-7_枠細線
 62
    5
 10
1082.4999999999998
 20
487.50000000000028
 40
15
 41
1
 50
0
  1
（歩道用）
  0
LINE
  8
_0-7_枠細線
  6
CONTINUOUS
 62
    5
 10
1164.9999999999998
 20
480.00000000000028
 11
1164.9999999999998
 21
560.00000000000023
  0
TEXT
  8
_0-7_枠細線
 62
    5
 10
1187.4999999999998
 20
537.50000000000023
 40
15
 41
1
 50
0
  1
蓋重量
  0
LINE
  8
_0-7_枠細線
  6
CONTINUOUS
 62
    5
 10
1254.9999999999998
 20
480.00000000000028
 11
1254.9999999999998
 21
560.00000000000023
  0
TEXT
  8
_0-7_枠細線
 62
    5
 10
1277.4999999999998
 20
537.50000000000023
 40
15
 41
1
 50
0
  1
枠重量
  0
LINE
  8
_0-7_枠細線
  6
CONTINUOUS
 62
    5
 10
1074.9999999999998
 20
530.00000000000023
 11
1344.9999999999998
 21
530.00000000000023
  0
LINE
  8
_0-7_枠細線
  6
CONTINUOUS
 62
    5
 10
1074.9999999999998
 20
560.00000000000023
 11
1344.9999999999998
 21
560.00000000000023
  0
LINE
  8
_0-7_枠細線
  6
CONTINUOUS
 62
    5
 10
1074.9999999999998
 20
480.00000000000028
 11
1344.9999999999998
 21
480.00000000000028
  0
LINE
  8
_0-7_枠細線
  6
CONTINUOUS
 62
    5
 10
1344.9999999999998
 20
480.00000000000028
 11
1344.9999999999998
 21
560.00000000000023
  0
LINE
  8
_0-7_枠細線
  6
CONTINUOUS
 62
    5
 10
1074.9999999999995
 20
300.00000000000034
 11
1374.9999999999998
 21
300.00000000000034
  0
LINE
  8
_0-7_枠細線
  6
CONTINUOUS
 62
    5
 10
1074.9999999999995
 20
325.00000000000034
 11
1374.9999999999998
 21
325.00000000000034
  0
LINE
  8
_0-7_枠細線
  6
CONTINUOUS
 62
    5
 10
1074.9999999999995
 20
350.00000000000034
 11
1374.9999999999998
 21
350.00000000000034
  0
LINE
  8
_0-7_枠細線
  6
CONTINUOUS
 62
    5
 10
1074.9999999999995
 20
375.00000000000051
 11
1374.9999999999998
 21
375.00000000000051
  0
TEXT
  8
_0-7_枠細線
 62
    5
 10
1198
 20
380.00000000000051
 40
15
 41
0.5999999999999999
 50
0
  1
ライトグレー
  0
LINE
  8
_0-7_枠細線
  6
CONTINUOUS
 62
    5
 10
1074.9999999999995
 20
400.00000000000034
 11
1374.9999999999998
 21
400.00000000000034
  0
TEXT
  8
_0-7_枠細線
 62
    5
 10
1207
 20
405.00000000000028
 40
15
 41
0.5999999999999999
 50
0
  1
ベージュ
  0
LINE
  8
_0-7_枠細線
  6
CONTINUOUS
 62
    5
 10
1074.9999999999995
 20
425.00000000000028
 11
1374.9999999999998
 21
425.00000000000028
  0
TEXT
  8
_0-7_枠細線
 62
    5
 10
1219
 20
430.00000000000028
 40
15
 41
0.8000000000000001
 50
0
  1
色
  0
TEXT
  8
_0-7_枠細線
 62
    5
 10
1100.9999999999998
 20
430.00000000000028
 40
15
 41
0.8000000000000001
 50
0
  1
品　　番
  0
TEXT
  8
_0-7_枠細線
 62
    5
 10
1301
 20
430.00000000000028
 40
15
 41
0.8000000000000001
 50
0
  1
備　　考
  0
LINE
  8
_0-7_枠細線
  6
CONTINUOUS
 62
    5
 10
1074.9999999999995
 20
450.00000000000028
 11
1374.9999999999998
 21
450.00000000000028
  0
TEXT
  8
_0-7_枠細線
 62
    5
 10
1163.7499999999995
 20
455.00000000000028
 40
17.5
 41
1
 50
0
  1
品番表
  0
LINE
  8
_0-7_枠細線
  6
CONTINUOUS
 62
    5
 10
1074.9999999999995
 20
225.00000000000014
 11
1374.9999999999998
 21
225.00000000000014
  0
LINE
  8
_0-7_枠細線
  6
CONTINUOUS
 62
    5
 10
1074.9999999999995
 20
250.0000000000004
 11
1374.9999999999998
 21
250.0000000000004
  0
LINE
  8
_0-7_枠細線
  6
CONTINUOUS
 62
    5
 10
1074.9999999999995
 20
275.00000000000045
 11
1374.9999999999998
 21
275.00000000000045
  0
TEXT
  8
_0-7_枠細線
 62
    5
 10
1207.0000000000005
 20
355.00000000000051
 40
15
 41
0.5999999999999999
 50
0
  1
ホワイト
  0
TEXT
  8
_0-7_枠細線
 62
    5
 10
1211.4999999999998
 20
330.00000000000034
 40
15
 41
0.5999999999999999
 50
0
  1
ピンク
  0
TEXT
  8
_0-7_枠細線
 62
    5
 10
1211.4999999999998
 20
305.00000000000034
 40
15
 41
0.5999999999999999
 50
0
  1
ブルー
  0
TEXT
  8
_0-7_枠細線
 62
    5
 10
1197.9999999999995
 20
280.00000000000034
 40
15
 41
0.5999999999999999
 50
0
  1
ダークグレー
  0
TEXT
  8
_0-7_枠細線
 62
    5
 10
1079.9999999999998
 20
405.00000000000028
 40
15
 41
0.5
 50
0
  1
ＧＲＳ－２０Ｗ２５０－Ｂ
  0
TEXT
  8
_0-7_枠細線
 62
    5
 10
1079.9999999999998
 20
380.00000000000034
 40
15
 41
0.5
 50
0
  1
ＧＲＳ－２０Ｗ２５０－Ｇ
  0
TEXT
  8
_0-7_枠細線
 62
    5
 10
1079.9999999999998
 20
355.00000000000051
 40
15
 41
0.5
 50
0
  1
ＧＲＳ－２０Ｗ２５０－Ｓ
  0
TEXT
  8
_0-7_枠細線
 62
    5
 10
1079.9999999999998
 20
330.00000000000034
 40
15
 41
0.5
 50
0
  1
ＧＲＳ－２０Ｗ２５０－Ｐ
  0
TEXT
  8
_0-7_枠細線
 62
    5
 10
1079.9999999999998
 20
305.00000000000034
 40
15
 41
0.5
 50
0
  1
ＧＲＳ－２０Ｗ２５０－Ａ
  0
TEXT
  8
_0-7_枠細線
 62
    5
 10
1079.9999999999998
 20
280.00000000000034
 40
15
 41
0.5
 50
0
  1
ＧＲＳ－２０Ｗ２５０－Ｄ
  0
TEXT
  8
_0-7_枠細線
 62
    5
 10
1079.9999999999998
 20
255.00000000000043
 40
15
 41
0.5
 50
0
  1
ＧＲＳ－２０Ｗ２５０－Ｍ
  0
TEXT
  8
_0-7_枠細線
 62
    5
 10
1211.4999999999998
 20
255.00000000000043
 40
15
 41
0.5999999999999999
 50
0
  1
ウッド
  0
LINE
  8
_0-7_枠細線
  6
CONTINUOUS
 62
    5
 10
1074.9999999999995
 20
199.99999999999986
 11
1374.9999999999998
 21
199.99999999999986
  0
TEXT
  8
_0-7_枠細線
 62
    5
 10
1207.0000000000005
 20
204.99999999999994
 40
15
 41
0.5999999999999999
 50
0
  1
ブラック
  0
TEXT
  8
_0-7_枠細線
 62
    5
 10
1079.9999999999998
 20
204.99999999999994
 40
15
 41
0.5
 50
0
  1
ＧＲＳ－２０Ｗ２５０－Ｋ
  0
LINE
  8
_0-7_枠細線
  6
CONTINUOUS
 62
    5
 10
1374.9999999999998
 20
450.00000000000028
 11
1374.9999999999998
 21
199.99999999999986
  0
LINE
  8
_0-7_枠細線
  6
CONTINUOUS
 62
    5
 10
1274.9999999999995
 20
450.00000000000028
 11
1274.9999999999995
 21
199.99999999999986
  0
LINE
  8
_0-7_枠細線
  6
CONTINUOUS
 62
    5
 10
1175
 20
450.00000000000028
 11
1175
 21
199.99999999999986
  0
LINE
  8
_0-7_枠細線
  6
CONTINUOUS
 62
    5
 10
1074.9999999999995
 20
450.00000000000028
 11
1074.9999999999995
 21
199.99999999999986
  0
TEXT
  8
_0-7_枠細線
 62
    5
 10
1079.9999999999998
 20
230.00000000000017
 40
15
 41
0.5
 50
0
  1
ＧＲＳ－２０Ｗ２５０－Ｃ
  0
TEXT
  8
_0-7_枠細線
 62
    5
 10
1207
 20
230.00000000000017
 40
15
 41
0.5999999999999999
 50
0
  1
ブラウン
  0
LINE
  8
_0-7_枠細線
  6
CONTINUOUS
 62
    5
 10
1425
 20
942.5
 11
890
 21
942.5
  0
TEXT
  8
_0-7_枠細線
 62
    5
 10
895
 20
945
 40
12.5
 41
1
 50
0
  1
記号
  0
TEXT
  8
_0-7_枠細線
 62
    5
 10
996.875
 20
945
 40
12.5
 41
1
 50
0
  1
訂　 正　 記　 事
  0
TEXT
  8
_0-7_枠細線
 62
    5
 10
1181.25
 20
945
 40
12.5
 41
1
 50
0
  1
訂 正 年 月 日
  0
TEXT
  8
_0-7_枠細線
 62
    5
 10
1306.25
 20
945
 40
12.5
 41
1
 50
0
  1
備　　　　　考
  0
LINE
  8
_0-7_枠細線
  6
CONTINUOUS
 62
    5
 10
1425
 20
925
 11
890
 21
925
  0
TEXT
  8
_0-7_枠細線
 62
    5
 10
938.85037037037023
 20
927.5
 40
12.5
 41
1
 50
0
  1
品番・色記号変更
  0
TEXT
  8
_0-7_枠細線
 62
    5
 10
1180
 20
927.5
 40
12.5
 41
0.7199999999999999
 50
0
  1
２０１３．０３．１３
  0
LINE
  8
_0-7_枠細線
  6
CONTINUOUS
 62
    5
 10
1425
 20
907.5
 11
890
 21
907.5
  0
LINE
  8
_0-7_枠細線
  6
CONTINUOUS
 62
    5
 10
1425
 20
890
 11
890
 21
890
  0
TEXT
  8
_0-7_枠細線
 62
    5
 10
938.85037037037023
 20
910
 40
12.5
 41
1
 50
0
  1
クロスバーピッチ変更
  0
TEXT
  8
_0-7_枠細線
 62
    5
 10
938.85037037037023
 20
892.5
 40
12.5
 41
1
 50
0
  1
取外具形状変更
  0
TEXT
  8
_0-7_枠細線
 62
    5
 10
1180
 20
910
 40
12.5
 41
0.7199999999999999
 50
0
  1
２０１５．１１．２０
  0
LINE
  8
_0-7_枠細線
  6
CONTINUOUS
 62
    5
 10
915
 20
908.94233397174685
 11
907.5
 21
923.94233397174685
  0
LINE
  8
_0-7_枠細線
  6
CONTINUOUS
 62
    5
 10
900
 20
908.94233397174685
 11
915
 21
908.94233397174685
  0
LINE
  8
_0-7_枠細線
  6
CONTINUOUS
 62
    5
 10
907.5
 20
923.94233397174685
 11
900
 21
908.94233397174685
  0
TEXT
  8
_0-7_枠細線
 62
    5
 10
902.36515126814822
 20
908.63533172636664
 40
12.5
 41
0.8
 50
0
  1
１
  0
TEXT
  8
_0-7_枠細線
 62
    5
 10
902.36515126814822
 20
891.13533172636664
 40
12.5
 41
0.8
 50
0
  1
２
  0
LINE
  8
_0-7_枠細線
  6
CONTINUOUS
 62
    5
 10
1425
 20
872.5
 11
890
 21
872.5
  0
LINE
  8
_0-7_枠細線
  6
CONTINUOUS
 62
    5
 10
907.5
 20
906.44233397174685
 11
900
 21
891.44233397174685
  0
LINE
  8
_0-7_枠細線
  6
CONTINUOUS
 62
    5
 10
900
 20
891.44233397174685
 11
915
 21
891.44233397174685
  0
LINE
  8
_0-7_枠細線
  6
CONTINUOUS
 62
    5
 10
915
 20
891.44233397174685
 11
907.5
 21
906.44233397174685
  0
TEXT
  8
_0-7_枠細線
 62
    5
 10
902.36515126814822
 20
873.39465008156549
 40
12.5
 41
0.8
 50
0
  1
３
  0
TEXT
  8
_0-7_枠細線
 62
    5
 10
1180
 20
875
 40
12.5
 41
0.7199999999999999
 50
0
  1
２０１７．０４．０１
  0
LINE
  8
_0-7_枠細線
  6
CONTINUOUS
 62
    5
 10
915
 20
856.44233397174685
 11
907.5
 21
871.44233397174685
  0
LINE
  8
_0-7_枠細線
  6
CONTINUOUS
 62
    5
 10
900
 20
856.44233397174685
 11
915
 21
856.44233397174685
  0
LINE
  8
_0-7_枠細線
  6
CONTINUOUS
 62
    5
 10
907.5
 20
871.44233397174685
 11
900
 21
856.44233397174685
  0
TEXT
  8
_0-7_枠細線
 62
    5
 10
1180
 20
857.5
 40
12.5
 41
0.7199999999999999
 50
0
  1
２０１７．０４．０１
  0
TEXT
  8
_0-7_枠細線
 62
    5
 10
938.85037037037023
 20
857.5
 40
12.5
 41
1
 50
0
  1
ブラウン色（Ｃ）追加
  0
LINE
  8
_0-7_枠細線
  6
CONTINUOUS
 62
    5
 10
1425
 20
855
 11
890
 21
855
  0
LINE
  8
_0-7_枠細線
  6
CONTINUOUS
 62
    5
 10
907.5
 20
888.94233397174685
 11
900
 21
873.94233397174685
  0
LINE
  8
_0-7_枠細線
  6
CONTINUOUS
 62
    5
 10
900
 20
873.94233397174685
 11
915
 21
873.94233397174685
  0
LINE
  8
_0-7_枠細線
  6
CONTINUOUS
 62
    5
 10
915
 20
873.94233397174685
 11
907.5
 21
888.94233397174685
  0
TEXT
  8
_0-7_枠細線
 62
    5
 10
902.36515126814822
 20
855.49351400689704
 40
12.5
 41
0.8
 50
0
  1
４
  0
TEXT
  8
_0-7_枠細線
 62
    5
 10
938.85037037037023
 20
875
 40
12.5
 41
1
 50
0
  1
取外具形状変更
  0
TEXT
  8
_0-7_枠細線
 62
    5
 10
1180
 20
892.5
 40
12.5
 41
0.7199999999999999
 50
0
  1
２０１５．１１．２０
  0
LINE
  8
_0-b_細線3
  6
CONTINUOUS
 62
    7
 10
495.87175318675645
 20
247.54579153234258
 11
503.28841985438817
 21
247.54579153234258
  0
LINE
  8
_0-b_細線3
  6
CONTINUOUS
 62
    7
 10
495.87175318836444
 20
269.21245819900906
 11
503.28841985438817
 21
269.21245819900906
  0
LINE
  8
_0-b_細線3
  6
CONTINUOUS
 62
    7
 10
511.12175318772211
 20
247.54579153234258
 11
518.53841985408735
 21
247.54579153234258
  0
LINE
  8
_0-b_細線3
  6
CONTINUOUS
 62
    7
 10
511.12175318772211
 20
269.21245819900906
 11
518.53841985408712
 21
269.21245819900906
  0
LINE
  8
_0-7_枠細線
  6
CONTINUOUS
 62
    5
 10
1068.5276246655549
 20
230.57604122127344
 11
1061.0276246655549
 21
245.57604122127344
  0
LINE
  8
_0-7_枠細線
  6
CONTINUOUS
 62
    5
 10
1053.5276246655549
 20
230.57604122127344
 11
1068.5276246655549
 21
230.57604122127344
  0
LINE
  8
_0-7_枠細線
  6
CONTINUOUS
 62
    5
 10
1061.0276246655549
 20
245.57604122127344
 11
1053.5276246655549
 21
230.57604122127344
  0
TEXT
  8
_0-7_枠細線
 62
    5
 10
1055.8927759337028
 20
229.62722125642355
 40
12.5
 41
0.8
 50
0
  1
４
  0
LINE
  8
_0-9_枠極太
  6
CONTINUOUS
 62
    5
 10
60
 20
60
 11
60
 21
960
  0
LINE
  8
_0-9_枠極太
  6
CONTINUOUS
 62
    5
 10
60
 20
960
 11
1425
 21
960
  0
LINE
  8
_0-9_枠極太
  6
CONTINUOUS
 62
    5
 10
1425
 20
960
 11
1425
 21
60
  0
LINE
  8
_0-9_枠極太
  6
CONTINUOUS
 62
    5
 10
1425
 20
60
 11
60
 21
60
  0
LINE
  8
_0-7_枠細線
  6
CONTINUOUS
 62
    5
 10
915
 20
838.94233397174685
 11
907.5
 21
853.94233397174685
  0
LINE
  8
_0-7_枠細線
  6
CONTINUOUS
 62
    5
 10
900
 20
838.94233397174685
 11
915
 21
838.94233397174685
  0
LINE
  8
_0-7_枠細線
  6
CONTINUOUS
 62
    5
 10
907.5
 20
853.94233397174685
 11
900
 21
838.94233397174685
  0
LINE
  8
_0-7_枠細線
  6
CONTINUOUS
 62
    5
 10
1425
 20
837.5
 11
890
 21
837.5
  0
TEXT
  8
_0-7_枠細線
 62
    5
 10
902.36515126814822
 20
837.99351400689704
 40
12.5
 41
0.8
 50
0
  1
５
  0
TEXT
  8
_0-7_枠細線
 62
    5
 10
1180
 20
840
 40
12.5
 41
0.7199999999999999
 50
0
  1
２０１９．０９．０１
  0
LINE
  8
_0-b_細線3
  6
CONTINUOUS
 62
    7
 10
276.37175318650065
 20
258.71245819900923
 11
276.37175318650065
 21
200.37912486567598
  0
LINE
  8
_0-b_細線3
  6
CONTINUOUS
 62
    7
 10
276.37175318650065
 20
200.37912486567598
 11
272.5384198531674
 21
200.37912486567598
  0
LINE
  8
_0-b_細線3
  6
CONTINUOUS
 62
    7
 10
272.5384198531674
 20
200.37912486567598
 11
272.5384198531674
 21
258.71245819900923
  0
LINE
  8
_0-b_細線3
  6
CONTINUOUS
 62
    7
 10
272.5384198531674
 20
258.71245819900923
 11
276.37175318650065
 21
258.71245819900923
  0
LINE
  8
_0-a_極細3
  6
CONTINUOUS
 62
    7
 10
272.5384198531674
 20
232.04579153234263
 11
276.37175318650065
 21
232.04579153234263
  0
LINE
  8
_0-a_極細3
  6
CONTINUOUS
 62
    7
 10
272.5384198531674
 20
235.37912486567598
 11
276.37175318650065
 21
235.37912486567598
  0
LINE
  8
_0-a_極細3
  6
CONTINUOUS
 62
    7
 10
272.5384198531674
 20
228.71245819900923
 11
276.37175318650065
 21
228.71245819900923
  0
LINE
  8
_0-a_極細3
  6
CONTINUOUS
 62
    7
 10
272.5384198531674
 20
238.71245819900923
 11
276.37175318650065
 21
238.71245819900923
  0
LINE
  8
_0-a_極細3
  6
CONTINUOUS
 62
    7
 10
276.37175318650065
 20
205.37912486567598
 11
272.5384198531674
 21
205.37912486567598
  0
LINE
  8
_0-a_極細3
  6
CONTINUOUS
 62
    7
 10
272.5384198531674
 20
255.37912486567598
 11
276.37175318650065
 21
255.37912486567598
  0
LINE
  8
_0-b_細線3
  6
CONTINUOUS
 62
    7
 10
709.70508651983437
 20
258.71245819900923
 11
709.70508651983437
 21
200.37912486567598
  0
LINE
  8
_0-b_細線3
  6
CONTINUOUS
 62
    7
 10
709.70508651983437
 20
200.37912486567598
 11
713.53841985316774
 21
200.37912486567598
  0
LINE
  8
_0-b_細線3
  6
CONTINUOUS
 62
    7
 10
713.53841985316774
 20
200.37912486567598
 11
713.53841985316774
 21
258.71245819900923
  0
LINE
  8
_0-b_細線3
  6
CONTINUOUS
 62
    7
 10
713.53841985316774
 20
258.71245819900923
 11
709.70508651983437
 21
258.71245819900923
  0
LINE
  8
_0-a_極細3
  6
CONTINUOUS
 62
    7
 10
713.53841985316774
 20
232.04579153234263
 11
709.70508651983437
 21
232.04579153234263
  0
LINE
  8
_0-a_極細3
  6
CONTINUOUS
 62
    7
 10
713.53841985316774
 20
235.37912486567598
 11
709.70508651983437
 21
235.37912486567598
  0
LINE
  8
_0-a_極細3
  6
CONTINUOUS
 62
    7
 10
713.53841985316774
 20
228.71245819900923
 11
709.70508651983437
 21
228.71245819900923
  0
LINE
  8
_0-a_極細3
  6
CONTINUOUS
 62
    7
 10
713.53841985316774
 20
238.71245819900923
 11
709.70508651983437
 21
238.71245819900923
  0
LINE
  8
_0-a_極細3
  6
CONTINUOUS
 62
    7
 10
709.70508651983437
 20
205.37912486567598
 11
713.53841985316774
 21
205.37912486567598
  0
LINE
  8
_0-a_極細3
  6
CONTINUOUS
 62
    7
 10
713.53841985316774
 20
255.37912486567598
 11
709.70508651983437
 21
255.37912486567598
  0
LINE
  8
_0-7_枠細線
  6
CONTINUOUS
 62
    5
 10
731.46913669379001
 20
248.04577999894917
 11
723.96913669379001
 21
263.04577999894911
  0
LINE
  8
_0-7_枠細線
  6
CONTINUOUS
 62
    5
 10
716.46913669379001
 20
248.04577999894917
 11
731.46913669379001
 21
248.04577999894917
  0
LINE
  8
_0-7_枠細線
  6
CONTINUOUS
 62
    5
 10
723.96913669379001
 20
263.04577999894911
 11
716.46913669379001
 21
248.04577999894917
  0
TEXT
  8
_0-7_枠細線
 62
    5
 10
718.83428796193812
 20
247.09696003409925
 40
12.5
 41
0.8
 50
0
  1
５
  0
ARC
  8
_0-0_計極細
  6
CONTINUOUS
 62
    2
 10
218.01171226959161
 20
767.60000000000036
 40
11.295514677412786
 50
138.39585046827494
 51
221.60414953172469
  0
ARC
  8
_0-0_計極細
  6
CONTINUOUS
 62
    2
 10
201.11926995622105
 20
752.599999999999
 40
11.295514677412786
 50
318.39585046827455
 51
41.604149531723962
  0
ARC
  8
_0-0_計極細
  6
CONTINUOUS
 62
    2
 10
218.01171226959161
 20
537.60000000000036
 40
11.295514677412786
 50
138.39585046827494
 51
221.60414953172469
  0
ARC
  8
_0-0_計極細
  6
CONTINUOUS
 62
    2
 10
201.11926995622127
 20
522.599999999999
 40
11.295514677412786
 50
318.39585046827455
 51
41.604149531724723
  0
LINE
  8
_0-5_寸法線
  6
CONTINUOUS
 62
    7
 10
199.56549111290576
 20
775.10000000000048
 11
154.56549111291076
 21
775.10000000000048
  0
LINE
  8
_0-5_寸法線
  6
CONTINUOUS
 62
    7
 10
159.56549111291076
 20
775.10000000000048
 11
162.15368156393595
 21
765.44074173710965
  0
LINE
  8
_0-5_寸法線
  6
CONTINUOUS
 62
    7
 10
159.56549111291076
 20
775.10000000000048
 11
156.97730066188555
 21
765.44074173710965
  0
LINE
  8
_0-5_寸法線
  6
CONTINUOUS
 62
    7
 10
199.56549111290826
 20
745.10000000000036
 11
154.56549111291076
 21
745.10000000000036
  0
LINE
  8
_0-5_寸法線
  6
CONTINUOUS
 62
    7
 10
159.56549111291076
 20
745.10000000000036
 11
156.97730066188555
 21
754.75925826289108
  0
LINE
  8
_0-5_寸法線
  6
CONTINUOUS
 62
    7
 10
159.56549111291076
 20
745.10000000000036
 11
162.15368156393595
 21
754.75925826289108
  0
LINE
  8
_0-5_寸法線
  6
CONTINUOUS
 62
    7
 10
159.56549111291076
 20
775.10000000000048
 11
159.56549111291076
 21
745.10000000000036
  0
TEXT
  8
_0-5_寸法線
 62
    7
 10
159.56549111291076
 20
752.60000000000036
 40
15
 41
1
 50
90
  1
30
  0
LINE
  8
_0-5_寸法線
  6
CONTINUOUS
 62
    7
 10
159.56549111291076
 20
745.10000000000036
 11
162.15368156393595
 21
735.44074173710965
  0
LINE
  8
_0-5_寸法線
  6
CONTINUOUS
 62
    7
 10
159.56549111291076
 20
745.10000000000036
 11
156.97730066188555
 21
735.44074173710965
  0
LINE
  8
_0-5_寸法線
  6
CONTINUOUS
 62
    7
 10
199.56549111290599
 20
545.10000000000036
 11
154.56549111291096
 21
545.10000000000036
  0
LINE
  8
_0-5_寸法線
  6
CONTINUOUS
 62
    7
 10
159.56549111291096
 20
545.10000000000036
 11
156.97730066188575
 21
554.75925826289108
  0
LINE
  8
_0-5_寸法線
  6
CONTINUOUS
 62
    7
 10
159.56549111291096
 20
545.10000000000036
 11
162.15368156393623
 21
554.75925826289108
  0
LINE
  8
_0-5_寸法線
  6
CONTINUOUS
 62
    7
 10
159.56549111291076
 20
745.10000000000036
 11
159.56549111291096
 21
545.10000000000036
  0
TEXT
  8
_0-5_寸法線
 62
    7
 10
159.56549111291096
 20
633.85000000000036
 40
15
 41
1
 50
89.999999999999815
  1
200
  0
LINE
  8
_0-5_寸法線
  6
CONTINUOUS
 62
    7
 10
159.56549111291096
 20
545.10000000000036
 11
162.15368156393623
 21
535.44074173710965
  0
LINE
  8
_0-5_寸法線
  6
CONTINUOUS
 62
    7
 10
159.56549111291096
 20
545.10000000000036
 11
156.97730066188575
 21
535.44074173710965
  0
LINE
  8
_0-5_寸法線
  6
CONTINUOUS
 62
    7
 10
199.56549111291096
 20
515.10000000000355
 11
154.56549111291096
 21
515.10000000000355
  0
LINE
  8
_0-5_寸法線
  6
CONTINUOUS
 62
    7
 10
159.56549111291096
 20
515.10000000000355
 11
156.97730066188575
 21
524.75925826289426
  0
LINE
  8
_0-5_寸法線
  6
CONTINUOUS
 62
    7
 10
159.56549111291096
 20
515.10000000000355
 11
162.15368156393623
 21
524.75925826289426
  0
LINE
  8
_0-5_寸法線
  6
CONTINUOUS
 62
    7
 10
159.56549111291096
 20
545.10000000000036
 11
159.56549111291096
 21
515.10000000000355
  0
TEXT
  8
_0-5_寸法線
 62
    7
 10
159.56549111291096
 20
522.60000000000173
 40
15
 41
1
 50
90
  1
30
  0
LINE
  8
_0-1_計細線
  6
CONTINUOUS
 62
    3
 10
209.56549111290576
 20
745.10000000000036
 11
231.06549111290718
 21
745.10000000000036
  0
LINE
  8
_0-1_計細線
  6
CONTINUOUS
 62
    3
 10
209.56549111290599
 20
545.10000000000173
 11
231.06549111290718
 21
545.10000000000173
  0
ARC
  8
_0-0_計極細
  6
CONTINUOUS
 62
    2
 10
844.01171226959218
 20
767.60000000000036
 40
11.295514677412786
 50
138.39585046827415
 51
221.60414953172548
  0
ARC
  8
_0-0_計極細
  6
CONTINUOUS
 62
    2
 10
827.11926995622196
 20
752.599999999999
 40
11.295514677412786
 50
318.39585046827534
 51
41.604149531723962
  0
ARC
  8
_0-0_計極細
  6
CONTINUOUS
 62
    2
 10
844.01171226959218
 20
537.60000000000036
 40
11.295514677412786
 50
138.39585046827415
 51
221.60414953172548
  0
ARC
  8
_0-0_計極細
  6
CONTINUOUS
 62
    2
 10
827.11926995622196
 20
522.599999999999
 40
11.295514677412786
 50
318.39585046827534
 51
41.604149531723962
  0
LINE
  8
_0-1_計細線
  6
CONTINUOUS
 62
    3
 10
814.06549111290701
 20
545.10000000000173
 11
835.56549111290701
 21
545.10000000000173
  0
LINE
  8
_0-1_計細線
  6
CONTINUOUS
 62
    3
 10
814.06549111290701
 20
745.10000000000036
 11
835.56549111290701
 21
745.10000000000036
  0
LINE
  8
_0-1_計細線
  6
CONTINUOUS
 62
    3
 10
231.06549111290718
 20
605.40000000000146
 11
814.06549111290701
 21
605.40000000000146
  0
LINE
  8
_0-1_計細線
  6
CONTINUOUS
 62
    3
 10
231.06549111290718
 20
616.800000000002
 11
814.06549111290701
 21
616.800000000002
  0
LINE
  8
_0-1_計細線
  6
CONTINUOUS
 62
    3
 10
231.06549111290718
 20
605.40000000000146
 11
231.06549111290718
 21
616.800000000002
  0
LINE
  8
_0-1_計細線
  6
CONTINUOUS
 62
    3
 10
814.06549111290701
 20
605.40000000000146
 11
814.06549111290701
 21
616.800000000002
  0
LINE
  8
_0-0_計極細
  6
CONTINUOUS
 62
    2
 10
231.06549111290718
 20
613.60000000000173
 11
814.06549111290701
 21
613.60000000000173
  0
LINE
  8
_0-0_計極細
  6
CONTINUOUS
 62
    2
 10
231.06549111290718
 20
608.60000000000173
 11
814.06549111290701
 21
608.60000000000173
  0
LINE
  8
_0-1_計細線
  6
CONTINUOUS
 62
    3
 10
231.06549111290718
 20
622.40000000000191
 11
814.06549111290701
 21
622.40000000000191
  0
LINE
  8
_0-1_計細線
  6
CONTINUOUS
 62
    3
 10
231.06549111290718
 20
633.80000000000246
 11
814.06549111290701
 21
633.80000000000246
  0
LINE
  8
_0-1_計細線
  6
CONTINUOUS
 62
    3
 10
231.06549111290718
 20
622.40000000000191
 11
231.06549111290718
 21
633.80000000000246
  0
LINE
  8
_0-1_計細線
  6
CONTINUOUS
 62
    3
 10
814.06549111290701
 20
622.40000000000191
 11
814.06549111290701
 21
633.80000000000246
  0
LINE
  8
_0-0_計極細
  6
CONTINUOUS
 62
    2
 10
231.06549111290718
 20
630.60000000000264
 11
814.06549111290701
 21
630.60000000000264
  0
LINE
  8
_0-0_計極細
  6
CONTINUOUS
 62
    2
 10
231.06549111290718
 20
625.60000000000264
 11
814.06549111290701
 21
625.60000000000264
  0
LINE
  8
_0-1_計細線
  6
CONTINUOUS
 62
    3
 10
231.06549111290718
 20
684.80000000000018
 11
814.06549111290701
 21
684.80000000000018
  0
LINE
  8
_0-1_計細線
  6
CONTINUOUS
 62
    3
 10
231.06549111290718
 20
673.39999999999964
 11
814.06549111290701
 21
673.39999999999964
  0
LINE
  8
_0-1_計細線
  6
CONTINUOUS
 62
    3
 10
231.06549111290718
 20
684.80000000000018
 11
231.06549111290718
 21
673.39999999999964
  0
LINE
  8
_0-1_計細線
  6
CONTINUOUS
 62
    3
 10
814.06549111290701
 20
684.80000000000018
 11
814.06549111290701
 21
673.39999999999964
  0
LINE
  8
_0-0_計極細
  6
CONTINUOUS
 62
    2
 10
231.06549111290718
 20
676.59999999999991
 11
814.06549111290701
 21
676.59999999999991
  0
LINE
  8
_0-0_計極細
  6
CONTINUOUS
 62
    2
 10
231.06549111290718
 20
681.59999999999991
 11
814.06549111290701
 21
681.59999999999991
  0
LINE
  8
_0-0_計極細
  6
CENTER2
 62
    2
 10
215.17689157588833
 20
645.10000000000093
 11
830.11022490926496
 21
645.10000000000093
  0
LINE
  8
_0-1_計細線
  6
CONTINUOUS
 62
    3
 10
231.06549111290718
 20
752.80000000000075
 11
814.06549111290701
 21
752.80000000000075
  0
LINE
  8
_0-1_計細線
  6
CONTINUOUS
 62
    3
 10
231.06549111290718
 20
741.40000000000009
 11
814.06549111290701
 21
741.40000000000009
  0
LINE
  8
_0-1_計細線
  6
CONTINUOUS
 62
    3
 10
231.06549111290718
 20
752.80000000000075
 11
231.06549111290718
 21
741.40000000000009
  0
LINE
  8
_0-1_計細線
  6
CONTINUOUS
 62
    3
 10
814.06549111290701
 20
752.80000000000075
 11
814.06549111290701
 21
741.40000000000009
  0
LINE
  8
_0-0_計極細
  6
CONTINUOUS
 62
    2
 10
231.06549111290718
 20
744.60000000000036
 11
814.06549111290701
 21
744.60000000000036
  0
LINE
  8
_0-0_計極細
  6
CONTINUOUS
 62
    2
 10
231.06549111290718
 20
749.60000000000036
 11
814.06549111290701
 21
749.60000000000036
  0
LINE
  8
_0-1_計細線
  6
CONTINUOUS
 62
    3
 10
231.06549111290718
 20
770.10000000000093
 11
814.06549111290701
 21
770.10000000000093
  0
LINE
  8
_0-1_計細線
  6
CONTINUOUS
 62
    3
 10
231.06549111290718
 20
758.70000000000027
 11
814.06549111290701
 21
758.70000000000027
  0
LINE
  8
_0-1_計細線
  6
CONTINUOUS
 62
    3
 10
231.06549111290718
 20
770.10000000000093
 11
231.06549111290718
 21
758.70000000000027
  0
LINE
  8
_0-1_計細線
  6
CONTINUOUS
 62
    3
 10
814.06549111290701
 20
770.10000000000093
 11
814.06549111290701
 21
758.70000000000027
  0
LINE
  8
_0-0_計極細
  6
CONTINUOUS
 62
    2
 10
231.06549111290718
 20
761.90000000000055
 11
814.06549111290701
 21
761.90000000000055
  0
LINE
  8
_0-0_計極細
  6
CONTINUOUS
 62
    2
 10
231.06549111290718
 20
766.90000000000055
 11
814.06549111290701
 21
766.90000000000055
  0
LINE
  8
_0-1_計細線
  6
CONTINUOUS
 62
    3
 10
231.06549111290718
 20
537.400000000001
 11
814.06549111290701
 21
537.400000000001
  0
LINE
  8
_0-1_計細線
  6
CONTINUOUS
 62
    3
 10
231.06549111290718
 20
548.80000000000155
 11
814.06549111290701
 21
548.80000000000155
  0
LINE
  8
_0-1_計細線
  6
CONTINUOUS
 62
    3
 10
231.06549111290718
 20
537.400000000001
 11
231.06549111290718
 21
548.80000000000155
  0
LINE
  8
_0-1_計細線
  6
CONTINUOUS
 62
    3
 10
814.06549111290701
 20
537.400000000001
 11
814.06549111290701
 21
548.80000000000155
  0
LINE
  8
_0-0_計極細
  6
CONTINUOUS
 62
    2
 10
231.06549111290718
 20
545.60000000000127
 11
814.06549111290701
 21
545.60000000000127
  0
LINE
  8
_0-0_計極細
  6
CONTINUOUS
 62
    2
 10
231.06549111290718
 20
540.60000000000127
 11
814.06549111290701
 21
540.60000000000127
  0
LINE
  8
_0-1_計細線
  6
CONTINUOUS
 62
    3
 10
231.06549111290718
 20
520.10000000000082
 11
814.06549111290701
 21
520.10000000000082
  0
LINE
  8
_0-1_計細線
  6
CONTINUOUS
 62
    3
 10
231.06549111290718
 20
531.50000000000136
 11
814.06549111290701
 21
531.50000000000136
  0
LINE
  8
_0-1_計細線
  6
CONTINUOUS
 62
    3
 10
231.06549111290718
 20
520.10000000000082
 11
231.06549111290718
 21
531.50000000000136
  0
LINE
  8
_0-1_計細線
  6
CONTINUOUS
 62
    3
 10
814.06549111290701
 20
520.10000000000082
 11
814.06549111290701
 21
531.50000000000136
  0
LINE
  8
_0-0_計極細
  6
CONTINUOUS
 62
    2
 10
231.06549111290718
 20
528.30000000000109
 11
814.06549111290701
 21
528.30000000000109
  0
LINE
  8
_0-0_計極細
  6
CONTINUOUS
 62
    2
 10
231.06549111290718
 20
523.30000000000109
 11
814.06549111290701
 21
523.30000000000109
  0
LINE
  8
_0-1_計細線
  6
CONTINUOUS
 62
    3
 10
231.06549111290718
 20
701.80000000000064
 11
814.06549111290701
 21
701.80000000000064
  0
LINE
  8
_0-1_計細線
  6
CONTINUOUS
 62
    3
 10
231.06549111290718
 20
690.40000000000009
 11
814.06549111290701
 21
690.40000000000009
  0
LINE
  8
_0-1_計細線
  6
CONTINUOUS
 62
    3
 10
231.06549111290718
 20
701.80000000000064
 11
231.06549111290718
 21
690.40000000000009
  0
LINE
  8
_0-1_計細線
  6
CONTINUOUS
 62
    3
 10
814.06549111290701
 20
701.80000000000064
 11
814.06549111290701
 21
690.40000000000009
  0
LINE
  8
_0-0_計極細
  6
CONTINUOUS
 62
    2
 10
231.06549111290718
 20
693.60000000000082
 11
814.06549111290701
 21
693.60000000000082
  0
LINE
  8
_0-0_計極細
  6
CONTINUOUS
 62
    2
 10
231.06549111290718
 20
698.60000000000082
 11
814.06549111290701
 21
698.60000000000082
  0
LINE
  8
_0-1_計細線
  6
CONTINUOUS
 62
    3
 10
231.06549111290718
 20
718.80000000000155
 11
814.06549111290701
 21
718.80000000000155
  0
LINE
  8
_0-1_計細線
  6
CONTINUOUS
 62
    3
 10
231.06549111290718
 20
707.40000000000111
 11
814.06549111290701
 21
707.40000000000111
  0
LINE
  8
_0-1_計細線
  6
CONTINUOUS
 62
    3
 10
231.06549111290718
 20
718.80000000000155
 11
231.06549111290718
 21
707.40000000000111
  0
LINE
  8
_0-1_計細線
  6
CONTINUOUS
 62
    3
 10
814.06549111290701
 20
718.80000000000155
 11
814.06549111290701
 21
707.40000000000111
  0
LINE
  8
_0-0_計極細
  6
CONTINUOUS
 62
    2
 10
231.06549111290718
 20
710.60000000000127
 11
814.06549111290701
 21
710.60000000000127
  0
LINE
  8
_0-0_計極細
  6
CONTINUOUS
 62
    2
 10
231.06549111290718
 20
715.60000000000127
 11
814.06549111290701
 21
715.60000000000127
  0
LINE
  8
_0-1_計細線
  6
CONTINUOUS
 62
    3
 10
231.06549111290718
 20
735.80000000000257
 11
814.06549111290701
 21
735.80000000000257
  0
LINE
  8
_0-1_計細線
  6
CONTINUOUS
 62
    3
 10
231.06549111290718
 20
724.40000000000191
 11
814.06549111290701
 21
724.40000000000191
  0
LINE
  8
_0-1_計細線
  6
CONTINUOUS
 62
    3
 10
231.06549111290718
 20
735.80000000000257
 11
231.06549111290718
 21
724.40000000000191
  0
LINE
  8
_0-1_計細線
  6
CONTINUOUS
 62
    3
 10
814.06549111290701
 20
735.80000000000257
 11
814.06549111290701
 21
724.40000000000191
  0
LINE
  8
_0-0_計極細
  6
CONTINUOUS
 62
    2
 10
231.06549111290718
 20
727.60000000000173
 11
814.06549111290701
 21
727.60000000000173
  0
LINE
  8
_0-0_計極細
  6
CONTINUOUS
 62
    2
 10
231.06549111290718
 20
732.60000000000173
 11
814.06549111290701
 21
732.60000000000173
  0
LINE
  8
_0-1_計細線
  6
CONTINUOUS
 62
    3
 10
231.06549111290718
 20
588.400000000001
 11
814.06549111290701
 21
588.400000000001
  0
LINE
  8
_0-1_計細線
  6
CONTINUOUS
 62
    3
 10
231.06549111290718
 20
599.80000000000155
 11
814.06549111290701
 21
599.80000000000155
  0
LINE
  8
_0-1_計細線
  6
CONTINUOUS
 62
    3
 10
231.06549111290718
 20
588.400000000001
 11
231.06549111290718
 21
599.80000000000155
  0
LINE
  8
_0-1_計細線
  6
CONTINUOUS
 62
    3
 10
814.06549111290701
 20
588.400000000001
 11
814.06549111290701
 21
599.80000000000155
  0
LINE
  8
_0-0_計極細
  6
CONTINUOUS
 62
    2
 10
231.06549111290718
 20
596.60000000000082
 11
814.06549111290701
 21
596.60000000000082
  0
LINE
  8
_0-0_計極細
  6
CONTINUOUS
 62
    2
 10
231.06549111290718
 20
591.60000000000082
 11
814.06549111290701
 21
591.60000000000082
  0
LINE
  8
_0-1_計細線
  6
CONTINUOUS
 62
    3
 10
231.06549111290718
 20
571.40000000000009
 11
814.06549111290701
 21
571.40000000000009
  0
LINE
  8
_0-1_計細線
  6
CONTINUOUS
 62
    3
 10
231.06549111290718
 20
582.80000000000064
 11
814.06549111290701
 21
582.80000000000064
  0
LINE
  8
_0-1_計細線
  6
CONTINUOUS
 62
    3
 10
231.06549111290718
 20
571.40000000000009
 11
231.06549111290718
 21
582.80000000000064
  0
LINE
  8
_0-1_計細線
  6
CONTINUOUS
 62
    3
 10
814.06549111290701
 20
571.40000000000009
 11
814.06549111290701
 21
582.80000000000064
  0
LINE
  8
_0-0_計極細
  6
CONTINUOUS
 62
    2
 10
231.06549111290718
 20
579.60000000000036
 11
814.06549111290701
 21
579.60000000000036
  0
LINE
  8
_0-0_計極細
  6
CONTINUOUS
 62
    2
 10
231.06549111290718
 20
574.60000000000036
 11
814.06549111290701
 21
574.60000000000036
  0
LINE
  8
_0-1_計細線
  6
CONTINUOUS
 62
    3
 10
231.06549111290718
 20
554.39999999999918
 11
814.06549111290701
 21
554.39999999999918
  0
LINE
  8
_0-1_計細線
  6
CONTINUOUS
 62
    3
 10
231.06549111290718
 20
565.79999999999973
 11
814.06549111290701
 21
565.79999999999973
  0
LINE
  8
_0-1_計細線
  6
CONTINUOUS
 62
    3
 10
231.06549111290718
 20
554.39999999999918
 11
231.06549111290718
 21
565.79999999999973
  0
LINE
  8
_0-1_計細線
  6
CONTINUOUS
 62
    3
 10
814.06549111290701
 20
554.39999999999918
 11
814.06549111290701
 21
565.79999999999973
  0
LINE
  8
_0-0_計極細
  6
CONTINUOUS
 62
    2
 10
231.06549111290718
 20
562.59999999999991
 11
814.06549111290701
 21
562.59999999999991
  0
LINE
  8
_0-0_計極細
  6
CONTINUOUS
 62
    2
 10
231.06549111290718
 20
557.59999999999991
 11
814.06549111290701
 21
557.59999999999991
  0
LINE
  8
_0-1_計細線
  6
CONTINUOUS
 62
    3
 10
209.56549111290576
 20
775.10000000000048
 11
835.56549111290701
 21
775.10000000000048
  0
LINE
  8
_0-1_計細線
  6
CONTINUOUS
 62
    3
 10
835.56549111290701
 20
515.10000000000173
 11
209.56549111290599
 21
515.10000000000173
  0
LINE
  8
_0-1_計細線
  6
CONTINUOUS
 62
    3
 10
207.65127541453339
 20
772.10000000000036
 11
833.65127541453444
 21
772.10000000000036
  0
LINE
  8
_0-1_計細線
  6
CONTINUOUS
 62
    3
 10
837.47970681128152
 20
518.10000000000173
 11
211.479706811282
 21
518.10000000000173
  0
LINE
  8
_0-0_計極細
  6
CONTINUOUS
 62
    2
 10
239.56549111290713
 20
616.800000000002
 11
239.56549111290713
 21
622.40000000000191
  0
LINE
  8
_0-0_計極細
  6
CONTINUOUS
 62
    2
 10
252.5654911129071
 20
616.800000000002
 11
252.5654911129071
 21
622.40000000000191
  0
LINE
  8
_0-0_計極細
  6
CONTINUOUS
 62
    2
 10
239.56549111290713
 20
639.39999999999827
 11
239.56549111290713
 21
633.79999999999791
  0
LINE
  8
_0-0_計極細
  6
CONTINUOUS
 62
    2
 10
252.5654911129071
 20
639.39999999999827
 11
252.5654911129071
 21
633.79999999999791
  0
LINE
  8
_0-0_計極細
  6
CONTINUOUS
 62
    2
 10
239.56549111290713
 20
656.39999999999918
 11
239.56549111290713
 21
650.79999999999882
  0
LINE
  8
_0-0_計極細
  6
CONTINUOUS
 62
    2
 10
252.5654911129071
 20
656.39999999999918
 11
252.5654911129071
 21
650.79999999999882
  0
LINE
  8
_0-0_計極細
  6
CONTINUOUS
 62
    2
 10
239.56549111290713
 20
673.39999999999964
 11
239.56549111290713
 21
667.79999999999973
  0
LINE
  8
_0-0_計極細
  6
CONTINUOUS
 62
    2
 10
252.5654911129071
 20
673.39999999999964
 11
252.5654911129071
 21
667.79999999999973
  0
LINE
  8
_0-0_計極細
  6
CONTINUOUS
 62
    2
 10
239.56549111290713
 20
758.70000000000027
 11
239.56549111290713
 21
752.80000000000018
  0
LINE
  8
_0-0_計極細
  6
CONTINUOUS
 62
    2
 10
252.5654911129071
 20
758.70000000000027
 11
252.5654911129071
 21
752.80000000000018
  0
LINE
  8
_0-0_計極細
  6
CONTINUOUS
 62
    2
 10
239.56549111290713
 20
531.50000000000136
 11
239.56549111290713
 21
537.40000000000146
  0
LINE
  8
_0-0_計極細
  6
CONTINUOUS
 62
    2
 10
252.5654911129071
 20
531.50000000000136
 11
252.5654911129071
 21
537.40000000000146
  0
LINE
  8
_0-0_計極細
  6
CENTER1
 62
    2
 10
246.06549111290718
 20
778.85071942446302
 11
246.06549111290718
 21
512.34217625898873
  0
LINE
  8
_0-0_計極細
  6
CONTINUOUS
 62
    2
 10
239.56549111290713
 20
690.40000000000009
 11
239.56549111290713
 21
684.80000000000018
  0
LINE
  8
_0-0_計極細
  6
CONTINUOUS
 62
    2
 10
252.5654911129071
 20
690.40000000000009
 11
252.5654911129071
 21
684.80000000000018
  0
LINE
  8
_0-0_計極細
  6
CONTINUOUS
 62
    2
 10
239.56549111290713
 20
707.40000000000111
 11
239.56549111290713
 21
701.80000000000064
  0
LINE
  8
_0-0_計極細
  6
CONTINUOUS
 62
    2
 10
252.5654911129071
 20
707.40000000000111
 11
252.5654911129071
 21
701.80000000000064
  0
LINE
  8
_0-0_計極細
  6
CONTINUOUS
 62
    2
 10
239.56549111290713
 20
724.40000000000191
 11
239.56549111290713
 21
718.80000000000155
  0
LINE
  8
_0-0_計極細
  6
CONTINUOUS
 62
    2
 10
252.5654911129071
 20
724.40000000000191
 11
252.5654911129071
 21
718.80000000000155
  0
LINE
  8
_0-0_計極細
  6
CONTINUOUS
 62
    2
 10
239.56549111290713
 20
741.40000000000236
 11
239.56549111290713
 21
735.80000000000257
  0
LINE
  8
_0-0_計極細
  6
CONTINUOUS
 62
    2
 10
252.5654911129071
 20
741.40000000000236
 11
252.5654911129071
 21
735.80000000000257
  0
LINE
  8
_0-0_計極細
  6
CONTINUOUS
 62
    2
 10
239.56549111290713
 20
599.80000000000155
 11
239.56549111290713
 21
605.40000000000146
  0
LINE
  8
_0-0_計極細
  6
CONTINUOUS
 62
    2
 10
252.5654911129071
 20
599.80000000000155
 11
252.5654911129071
 21
605.40000000000146
  0
LINE
  8
_0-0_計極細
  6
CONTINUOUS
 62
    2
 10
239.56549111290713
 20
582.80000000000064
 11
239.56549111290713
 21
588.400000000001
  0
LINE
  8
_0-0_計極細
  6
CONTINUOUS
 62
    2
 10
252.5654911129071
 20
582.80000000000064
 11
252.5654911129071
 21
588.400000000001
  0
LINE
  8
_0-0_計極細
  6
CONTINUOUS
 62
    2
 10
239.56549111290713
 20
565.79999999999973
 11
239.56549111290713
 21
571.40000000000009
  0
LINE
  8
_0-0_計極細
  6
CONTINUOUS
 62
    2
 10
252.5654911129071
 20
565.79999999999973
 11
252.5654911129071
 21
571.40000000000009
  0
LINE
  8
_0-0_計極細
  6
CONTINUOUS
 62
    2
 10
239.56549111290713
 20
548.79999999999927
 11
239.56549111290713
 21
554.39999999999918
  0
LINE
  8
_0-0_計極細
  6
CONTINUOUS
 62
    2
 10
252.5654911129071
 20
548.79999999999927
 11
252.5654911129071
 21
554.39999999999918
  0
LINE
  8
_0-0_計極細
  6
CONTINUOUS
 62
    2
 10
792.56549111290713
 20
616.800000000002
 11
792.56549111290713
 21
622.40000000000191
  0
LINE
  8
_0-0_計極細
  6
CONTINUOUS
 62
    2
 10
805.56549111290701
 20
616.800000000002
 11
805.56549111290701
 21
622.40000000000191
  0
LINE
  8
_0-0_計極細
  6
CONTINUOUS
 62
    2
 10
792.56549111290713
 20
639.39999999999827
 11
792.56549111290713
 21
633.79999999999791
  0
LINE
  8
_0-0_計極細
  6
CONTINUOUS
 62
    2
 10
805.56549111290701
 20
639.39999999999827
 11
805.56549111290701
 21
633.79999999999791
  0
LINE
  8
_0-0_計極細
  6
CONTINUOUS
 62
    2
 10
792.56549111290713
 20
656.39999999999918
 11
792.56549111290713
 21
650.79999999999882
  0
LINE
  8
_0-0_計極細
  6
CONTINUOUS
 62
    2
 10
805.56549111290701
 20
656.39999999999918
 11
805.56549111290701
 21
650.79999999999882
  0
LINE
  8
_0-0_計極細
  6
CONTINUOUS
 62
    2
 10
792.56549111290713
 20
673.39999999999964
 11
792.56549111290713
 21
667.79999999999973
  0
LINE
  8
_0-0_計極細
  6
CONTINUOUS
 62
    2
 10
805.56549111290701
 20
673.39999999999964
 11
805.56549111290701
 21
667.79999999999973
  0
LINE
  8
_0-0_計極細
  6
CONTINUOUS
 62
    2
 10
792.56549111290713
 20
758.70000000000027
 11
792.56549111290713
 21
752.80000000000018
  0
LINE
  8
_0-0_計極細
  6
CONTINUOUS
 62
    2
 10
805.56549111290701
 20
758.70000000000027
 11
805.56549111290701
 21
752.80000000000018
  0
LINE
  8
_0-0_計極細
  6
CONTINUOUS
 62
    2
 10
792.56549111290713
 20
531.50000000000136
 11
792.56549111290713
 21
537.40000000000146
  0
LINE
  8
_0-0_計極細
  6
CONTINUOUS
 62
    2
 10
805.56549111290701
 20
531.50000000000136
 11
805.56549111290701
 21
537.40000000000146
  0
LINE
  8
_0-0_計極細
  6
CENTER1
 62
    2
 10
799.06549111290701
 20
778.85071942446302
 11
799.06549111290701
 21
512.34217625898873
  0
LINE
  8
_0-0_計極細
  6
CONTINUOUS
 62
    2
 10
792.56549111290713
 20
690.40000000000009
 11
792.56549111290713
 21
684.80000000000018
  0
LINE
  8
_0-0_計極細
  6
CONTINUOUS
 62
    2
 10
805.56549111290701
 20
690.40000000000009
 11
805.56549111290701
 21
684.80000000000018
  0
LINE
  8
_0-0_計極細
  6
CONTINUOUS
 62
    2
 10
792.56549111290713
 20
707.40000000000111
 11
792.56549111290713
 21
701.80000000000064
  0
LINE
  8
_0-0_計極細
  6
CONTINUOUS
 62
    2
 10
805.56549111290701
 20
707.40000000000111
 11
805.56549111290701
 21
701.80000000000064
  0
LINE
  8
_0-0_計極細
  6
CONTINUOUS
 62
    2
 10
792.56549111290713
 20
724.40000000000191
 11
792.56549111290713
 21
718.80000000000155
  0
LINE
  8
_0-0_計極細
  6
CONTINUOUS
 62
    2
 10
805.56549111290701
 20
724.40000000000191
 11
805.56549111290701
 21
718.80000000000155
  0
LINE
  8
_0-0_計極細
  6
CONTINUOUS
 62
    2
 10
792.56549111290713
 20
741.40000000000236
 11
792.56549111290713
 21
735.80000000000257
  0
LINE
  8
_0-0_計極細
  6
CONTINUOUS
 62
    2
 10
805.56549111290701
 20
741.40000000000236
 11
805.56549111290701
 21
735.80000000000257
  0
LINE
  8
_0-0_計極細
  6
CONTINUOUS
 62
    2
 10
792.56549111290713
 20
599.80000000000155
 11
792.56549111290713
 21
605.40000000000146
  0
LINE
  8
_0-0_計極細
  6
CONTINUOUS
 62
    2
 10
805.56549111290701
 20
599.80000000000155
 11
805.56549111290701
 21
605.40000000000146
  0
LINE
  8
_0-0_計極細
  6
CONTINUOUS
 62
    2
 10
792.56549111290713
 20
582.80000000000064
 11
792.56549111290713
 21
588.400000000001
  0
LINE
  8
_0-0_計極細
  6
CONTINUOUS
 62
    2
 10
805.56549111290701
 20
582.80000000000064
 11
805.56549111290701
 21
588.400000000001
  0
LINE
  8
_0-0_計極細
  6
CONTINUOUS
 62
    2
 10
792.56549111290713
 20
565.79999999999973
 11
792.56549111290713
 21
571.40000000000009
  0
LINE
  8
_0-0_計極細
  6
CONTINUOUS
 62
    2
 10
805.56549111290701
 20
565.79999999999973
 11
805.56549111290701
 21
571.40000000000009
  0
LINE
  8
_0-0_計極細
  6
CONTINUOUS
 62
    2
 10
792.56549111290713
 20
548.79999999999927
 11
792.56549111290713
 21
554.39999999999918
  0
LINE
  8
_0-0_計極細
  6
CONTINUOUS
 62
    2
 10
805.56549111290701
 20
548.79999999999927
 11
805.56549111290701
 21
554.39999999999918
  0
LINE
  8
_0-0_計極細
  6
CONTINUOUS
 62
    2
 10
336.56549111290713
 20
616.800000000002
 11
336.56549111290713
 21
622.40000000000191
  0
LINE
  8
_0-0_計極細
  6
CONTINUOUS
 62
    2
 10
349.56549111290713
 20
616.800000000002
 11
349.56549111290713
 21
622.40000000000191
  0
LINE
  8
_0-0_計極細
  6
CONTINUOUS
 62
    2
 10
336.56549111290713
 20
639.39999999999827
 11
336.56549111290713
 21
633.79999999999791
  0
LINE
  8
_0-0_計極細
  6
CONTINUOUS
 62
    2
 10
349.56549111290713
 20
639.39999999999827
 11
349.56549111290713
 21
633.79999999999791
  0
LINE
  8
_0-0_計極細
  6
CONTINUOUS
 62
    2
 10
336.56549111290713
 20
673.39999999999964
 11
336.56549111290713
 21
667.79999999999973
  0
LINE
  8
_0-0_計極細
  6
CONTINUOUS
 62
    2
 10
349.56549111290713
 20
673.39999999999964
 11
349.56549111290713
 21
667.79999999999973
  0
LINE
  8
_0-0_計極細
  6
CONTINUOUS
 62
    2
 10
336.56549111290713
 20
758.70000000000027
 11
336.56549111290713
 21
752.80000000000018
  0
LINE
  8
_0-0_計極細
  6
CONTINUOUS
 62
    2
 10
349.56549111290713
 20
758.70000000000027
 11
349.56549111290713
 21
752.80000000000018
  0
LINE
  8
_0-0_計極細
  6
CONTINUOUS
 62
    2
 10
336.56549111290713
 20
531.50000000000136
 11
336.56549111290713
 21
537.40000000000146
  0
LINE
  8
_0-0_計極細
  6
CONTINUOUS
 62
    2
 10
349.56549111290713
 20
531.50000000000136
 11
349.56549111290713
 21
537.40000000000146
  0
LINE
  8
_0-0_計極細
  6
CENTER1
 62
    2
 10
343.06549111290713
 20
778.85071942446302
 11
343.06549111290713
 21
512.34217625898873
  0
LINE
  8
_0-0_計極細
  6
CONTINUOUS
 62
    2
 10
336.56549111290713
 20
690.40000000000009
 11
336.56549111290713
 21
684.80000000000018
  0
LINE
  8
_0-0_計極細
  6
CONTINUOUS
 62
    2
 10
349.56549111290713
 20
690.40000000000009
 11
349.56549111290713
 21
684.80000000000018
  0
LINE
  8
_0-0_計極細
  6
CONTINUOUS
 62
    2
 10
336.56549111290713
 20
707.40000000000111
 11
336.56549111290713
 21
701.80000000000064
  0
LINE
  8
_0-0_計極細
  6
CONTINUOUS
 62
    2
 10
349.56549111290713
 20
707.40000000000111
 11
349.56549111290713
 21
701.80000000000064
  0
LINE
  8
_0-0_計極細
  6
CONTINUOUS
 62
    2
 10
336.56549111290713
 20
724.40000000000191
 11
336.56549111290713
 21
718.80000000000155
  0
LINE
  8
_0-0_計極細
  6
CONTINUOUS
 62
    2
 10
349.56549111290713
 20
724.40000000000191
 11
349.56549111290713
 21
718.80000000000155
  0
LINE
  8
_0-0_計極細
  6
CONTINUOUS
 62
    2
 10
336.56549111290713
 20
741.40000000000236
 11
336.56549111290713
 21
735.80000000000257
  0
LINE
  8
_0-0_計極細
  6
CONTINUOUS
 62
    2
 10
349.56549111290713
 20
741.40000000000236
 11
349.56549111290713
 21
735.80000000000257
  0
LINE
  8
_0-0_計極細
  6
CONTINUOUS
 62
    2
 10
336.56549111290713
 20
599.80000000000155
 11
336.56549111290713
 21
605.40000000000146
  0
LINE
  8
_0-0_計極細
  6
CONTINUOUS
 62
    2
 10
349.56549111290713
 20
599.80000000000155
 11
349.56549111290713
 21
605.40000000000146
  0
LINE
  8
_0-0_計極細
  6
CONTINUOUS
 62
    2
 10
336.56549111290713
 20
582.80000000000064
 11
336.56549111290713
 21
588.400000000001
  0
LINE
  8
_0-0_計極細
  6
CONTINUOUS
 62
    2
 10
349.56549111290713
 20
582.80000000000064
 11
349.56549111290713
 21
588.400000000001
  0
LINE
  8
_0-0_計極細
  6
CONTINUOUS
 62
    2
 10
336.56549111290713
 20
565.79999999999973
 11
336.56549111290713
 21
571.40000000000009
  0
LINE
  8
_0-0_計極細
  6
CONTINUOUS
 62
    2
 10
349.56549111290713
 20
565.79999999999973
 11
349.56549111290713
 21
571.40000000000009
  0
LINE
  8
_0-0_計極細
  6
CONTINUOUS
 62
    2
 10
336.56549111290713
 20
548.79999999999927
 11
336.56549111290713
 21
554.39999999999918
  0
LINE
  8
_0-0_計極細
  6
CONTINUOUS
 62
    2
 10
349.56549111290713
 20
548.79999999999927
 11
349.56549111290713
 21
554.39999999999918
  0
LINE
  8
_0-0_計極細
  6
CONTINUOUS
 62
    2
 10
433.56549111290718
 20
616.800000000002
 11
433.56549111290718
 21
622.40000000000191
  0
LINE
  8
_0-0_計極細
  6
CONTINUOUS
 62
    2
 10
446.56549111290713
 20
616.800000000002
 11
446.56549111290713
 21
622.40000000000191
  0
LINE
  8
_0-0_計極細
  6
CONTINUOUS
 62
    2
 10
433.56549111290718
 20
639.39999999999827
 11
433.56549111290718
 21
633.79999999999791
  0
LINE
  8
_0-0_計極細
  6
CONTINUOUS
 62
    2
 10
446.56549111290713
 20
639.39999999999827
 11
446.56549111290713
 21
633.79999999999791
  0
LINE
  8
_0-0_計極細
  6
CONTINUOUS
 62
    2
 10
433.56549111290718
 20
656.39999999999918
 11
433.56549111290718
 21
650.79999999999882
  0
LINE
  8
_0-0_計極細
  6
CONTINUOUS
 62
    2
 10
446.56549111290713
 20
656.39999999999918
 11
446.56549111290713
 21
650.79999999999882
  0
LINE
  8
_0-0_計極細
  6
CONTINUOUS
 62
    2
 10
433.56549111290718
 20
673.39999999999964
 11
433.56549111290718
 21
667.79999999999973
  0
LINE
  8
_0-0_計極細
  6
CONTINUOUS
 62
    2
 10
446.56549111290713
 20
673.39999999999964
 11
446.56549111290713
 21
667.79999999999973
  0
LINE
  8
_0-0_計極細
  6
CONTINUOUS
 62
    2
 10
433.56549111290718
 20
758.70000000000027
 11
433.56549111290718
 21
752.80000000000018
  0
LINE
  8
_0-0_計極細
  6
CONTINUOUS
 62
    2
 10
446.56549111290713
 20
758.70000000000027
 11
446.56549111290713
 21
752.80000000000018
  0
LINE
  8
_0-0_計極細
  6
CONTINUOUS
 62
    2
 10
433.56549111290718
 20
531.50000000000136
 11
433.56549111290718
 21
537.40000000000146
  0
LINE
  8
_0-0_計極細
  6
CONTINUOUS
 62
    2
 10
446.56549111290713
 20
531.50000000000136
 11
446.56549111290713
 21
537.40000000000146
  0
LINE
  8
_0-0_計極細
  6
CENTER1
 62
    2
 10
440.06549111290718
 20
778.85071942446302
 11
440.06549111290718
 21
512.34217625898873
  0
LINE
  8
_0-0_計極細
  6
CONTINUOUS
 62
    2
 10
433.56549111290718
 20
690.40000000000009
 11
433.56549111290718
 21
684.80000000000018
  0
LINE
  8
_0-0_計極細
  6
CONTINUOUS
 62
    2
 10
446.56549111290713
 20
690.40000000000009
 11
446.56549111290713
 21
684.80000000000018
  0
LINE
  8
_0-0_計極細
  6
CONTINUOUS
 62
    2
 10
433.56549111290718
 20
707.40000000000111
 11
433.56549111290718
 21
701.80000000000064
  0
LINE
  8
_0-0_計極細
  6
CONTINUOUS
 62
    2
 10
446.56549111290713
 20
707.40000000000111
 11
446.56549111290713
 21
701.80000000000064
  0
LINE
  8
_0-0_計極細
  6
CONTINUOUS
 62
    2
 10
433.56549111290718
 20
724.40000000000191
 11
433.56549111290718
 21
718.80000000000155
  0
LINE
  8
_0-0_計極細
  6
CONTINUOUS
 62
    2
 10
446.56549111290713
 20
724.40000000000191
 11
446.56549111290713
 21
718.80000000000155
  0
LINE
  8
_0-0_計極細
  6
CONTINUOUS
 62
    2
 10
433.56549111290718
 20
741.40000000000236
 11
433.56549111290718
 21
735.80000000000257
  0
LINE
  8
_0-0_計極細
  6
CONTINUOUS
 62
    2
 10
446.56549111290713
 20
741.40000000000236
 11
446.56549111290713
 21
735.80000000000257
  0
LINE
  8
_0-0_計極細
  6
CONTINUOUS
 62
    2
 10
433.56549111290718
 20
599.80000000000155
 11
433.56549111290718
 21
605.40000000000146
  0
LINE
  8
_0-0_計極細
  6
CONTINUOUS
 62
    2
 10
446.56549111290713
 20
599.80000000000155
 11
446.56549111290713
 21
605.40000000000146
  0
LINE
  8
_0-0_計極細
  6
CONTINUOUS
 62
    2
 10
433.56549111290718
 20
582.80000000000064
 11
433.56549111290718
 21
588.400000000001
  0
LINE
  8
_0-0_計極細
  6
CONTINUOUS
 62
    2
 10
446.56549111290713
 20
582.80000000000064
 11
446.56549111290713
 21
588.400000000001
  0
LINE
  8
_0-0_計極細
  6
CONTINUOUS
 62
    2
 10
433.56549111290718
 20
565.79999999999973
 11
433.56549111290718
 21
571.40000000000009
  0
LINE
  8
_0-0_計極細
  6
CONTINUOUS
 62
    2
 10
446.56549111290713
 20
565.79999999999973
 11
446.56549111290713
 21
571.40000000000009
  0
LINE
  8
_0-0_計極細
  6
CONTINUOUS
 62
    2
 10
433.56549111290718
 20
548.79999999999927
 11
433.56549111290718
 21
554.39999999999918
  0
LINE
  8
_0-0_計極細
  6
CONTINUOUS
 62
    2
 10
446.56549111290713
 20
548.79999999999927
 11
446.56549111290713
 21
554.39999999999918
  0
LINE
  8
_0-5_寸法線
  6
CONTINUOUS
 62
    7
 10
231.06549111290718
 20
785.09999999999991
 11
231.06549111290718
 21
830.099999999999
  0
LINE
  8
_0-5_寸法線
  6
CONTINUOUS
 62
    7
 10
231.06549111290718
 20
825.099999999999
 11
240.72474937579784
 21
827.68819045102418
  0
LINE
  8
_0-5_寸法線
  6
CONTINUOUS
 62
    7
 10
231.06549111290718
 20
825.099999999999
 11
240.72474937579784
 21
822.51180954897393
  0
LINE
  8
_0-5_寸法線
  6
CONTINUOUS
 62
    7
 10
246.06549111290718
 20
785.09999999999991
 11
246.06549111290718
 21
830.099999999999
  0
LINE
  8
_0-5_寸法線
  6
CONTINUOUS
 62
    7
 10
246.06549111290718
 20
825.099999999999
 11
236.40623285001647
 21
822.51180954897393
  0
LINE
  8
_0-5_寸法線
  6
CONTINUOUS
 62
    7
 10
246.06549111290718
 20
825.099999999999
 11
236.40623285001652
 21
827.68819045102418
  0
LINE
  8
_0-5_寸法線
  6
CONTINUOUS
 62
    7
 10
231.06549111290718
 20
825.099999999999
 11
246.06549111290718
 21
825.099999999999
  0
TEXT
  8
_0-5_寸法線
 62
    7
 10
231.06549111290718
 20
825.099999999999
 40
15
 41
1
 50
0
  1
Ａ
  0
LINE
  8
_0-5_寸法線
  6
CONTINUOUS
 62
    7
 10
343.06549111290713
 20
785.10000000000048
 11
343.0654911129073
 21
830.099999999999
  0
LINE
  8
_0-5_寸法線
  6
CONTINUOUS
 62
    7
 10
343.0654911129073
 20
825.099999999999
 11
352.72474937579796
 21
827.68819045102418
  0
LINE
  8
_0-5_寸法線
  6
CONTINUOUS
 62
    7
 10
343.0654911129073
 20
825.099999999999
 11
352.72474937579796
 21
822.51180954897393
  0
LINE
  8
_0-5_寸法線
  6
CONTINUOUS
 62
    7
 10
440.06549111290718
 20
785.10000000000048
 11
440.06549111290724
 21
830.099999999999
  0
LINE
  8
_0-5_寸法線
  6
CONTINUOUS
 62
    7
 10
440.06549111290724
 20
825.099999999999
 11
430.40623285001658
 21
822.51180954897393
  0
LINE
  8
_0-5_寸法線
  6
CONTINUOUS
 62
    7
 10
440.06549111290724
 20
825.099999999999
 11
430.40623285001658
 21
827.68819045102418
  0
LINE
  8
_0-5_寸法線
  6
CONTINUOUS
 62
    7
 10
343.0654911129073
 20
825.099999999999
 11
440.06549111290724
 21
825.099999999999
  0
TEXT
  8
_0-5_寸法線
 62
    7
 10
384.0654911129073
 20
825.099999999999
 40
15
 41
1
 50
0
  1
97
  0
LINE
  8
_0-5_寸法線
  6
CONTINUOUS
 62
    7
 10
440.06549111290724
 20
825.099999999999
 11
449.72474937579796
 21
827.68819045102418
  0
LINE
  8
_0-5_寸法線
  6
CONTINUOUS
 62
    7
 10
440.06549111290724
 20
825.099999999999
 11
449.7247493757979
 21
822.51180954897382
  0
LINE
  8
_0-5_寸法線
  6
CONTINUOUS
 62
    7
 10
537.06549111290713
 20
785.10000000000048
 11
537.06549111290724
 21
830.099999999999
  0
LINE
  8
_0-5_寸法線
  6
CONTINUOUS
 62
    7
 10
537.06549111290724
 20
825.099999999999
 11
527.40623285001652
 21
822.51180954897393
  0
LINE
  8
_0-5_寸法線
  6
CONTINUOUS
 62
    7
 10
537.06549111290724
 20
825.099999999999
 11
527.40623285001652
 21
827.68819045102418
  0
LINE
  8
_0-5_寸法線
  6
CONTINUOUS
 62
    7
 10
440.06549111290724
 20
825.099999999999
 11
537.06549111290724
 21
825.099999999999
  0
TEXT
  8
_0-5_寸法線
 62
    7
 10
481.06549111290724
 20
825.099999999999
 40
15
 41
1
 50
0
  1
97
  0
LINE
  8
_0-5_寸法線
  6
CONTINUOUS
 62
    7
 10
537.06549111290724
 20
825.099999999999
 11
546.72474937579796
 21
827.68819045102418
  0
LINE
  8
_0-5_寸法線
  6
CONTINUOUS
 62
    7
 10
537.06549111290724
 20
825.099999999999
 11
546.72474937579796
 21
822.51180954897382
  0
LINE
  8
_0-5_寸法線
  6
CONTINUOUS
 62
    7
 10
605.06549111290701
 20
785.10000000000048
 11
605.06549111290713
 21
830.099999999999
  0
LINE
  8
_0-5_寸法線
  6
CONTINUOUS
 62
    7
 10
605.06549111290713
 20
825.099999999999
 11
595.40623285001641
 21
822.51180954897393
  0
LINE
  8
_0-5_寸法線
  6
CONTINUOUS
 62
    7
 10
605.06549111290713
 20
825.099999999999
 11
595.40623285001641
 21
827.68819045102418
  0
LINE
  8
_0-5_寸法線
  6
CONTINUOUS
 62
    7
 10
537.06549111290724
 20
825.099999999999
 11
605.06549111290713
 21
825.099999999999
  0
TEXT
  8
_0-5_寸法線
 62
    7
 10
563.56549111290724
 20
825.099999999999
 40
15
 41
1
 50
0
  1
Ｂ
  0
LINE
  8
_0-7_枠細線
  6
CONTINUOUS
 62
    5
 10
373.29236910249426
 20
828.27092351284034
 11
365.79236910249426
 21
843.27092351284034
  0
LINE
  8
_0-7_枠細線
  6
CONTINUOUS
 62
    5
 10
358.29236910249426
 20
828.27092351284034
 11
373.29236910249426
 21
828.27092351284034
  0
LINE
  8
_0-7_枠細線
  6
CONTINUOUS
 62
    5
 10
365.79236910249426
 20
843.27092351284034
 11
358.29236910249426
 21
828.27092351284034
  0
TEXT
  8
_0-7_枠細線
 62
    5
 10
360.65752037064237
 20
827.96392126745991
 40
12.5
 41
0.8
 50
0
  1
１
  0
LINE
  8
_0-1_計細線
  6
CONTINUOUS
 62
    3
 10
231.06549111290718
 20
667.79999999999973
 11
814.06549111290701
 21
667.79999999999973
  0
LINE
  8
_0-1_計細線
  6
CONTINUOUS
 62
    3
 10
814.06549111290701
 20
667.79999999999973
 11
814.06549111290701
 21
656.39999999999918
  0
LINE
  8
_0-0_計極細
  6
CONTINUOUS
 62
    2
 10
231.06549111290718
 20
659.59999999999911
 11
814.06549111290701
 21
659.59999999999911
  0
LINE
  8
_0-0_計極細
  6
CONTINUOUS
 62
    2
 10
231.06549111290718
 20
664.59999999999911
 11
814.06549111290701
 21
664.59999999999911
  0
LINE
  8
_0-1_計細線
  6
CONTINUOUS
 62
    3
 10
231.06549111290718
 20
656.39999999999918
 11
814.06549111290701
 21
656.39999999999918
  0
LINE
  8
_0-1_計細線
  6
CONTINUOUS
 62
    3
 10
231.06549111290718
 20
667.79999999999973
 11
231.06549111290718
 21
656.39999999999918
  0
LINE
  8
_0-1_計細線
  6
CONTINUOUS
 62
    3
 10
231.06549111290718
 20
639.39999999999827
 11
814.06549111290701
 21
639.39999999999827
  0
LINE
  8
_0-1_計細線
  6
CONTINUOUS
 62
    3
 10
814.06549111290701
 20
650.79999999999882
 11
814.06549111290701
 21
639.39999999999827
  0
LINE
  8
_0-0_計極細
  6
CONTINUOUS
 62
    2
 10
231.06549111290718
 20
642.59999999999866
 11
814.06549111290701
 21
642.59999999999866
  0
LINE
  8
_0-0_計極細
  6
CONTINUOUS
 62
    2
 10
231.06549111290718
 20
647.59999999999866
 11
814.06549111290701
 21
647.59999999999866
  0
LINE
  8
_0-1_計細線
  6
CONTINUOUS
 62
    3
 10
231.06549111290718
 20
650.79999999999882
 11
231.06549111290718
 21
639.39999999999827
  0
LINE
  8
_0-1_計細線
  6
CONTINUOUS
 62
    3
 10
231.06549111290718
 20
650.79999999999882
 11
814.06549111290701
 21
650.79999999999882
  0
LINE
  8
_0-0_計極細
  6
CONTINUOUS
 62
    2
 10
336.56549111290713
 20
656.39999999999918
 11
336.56549111290713
 21
655.94999999999902
  0
LINE
  8
_0-0_計極細
  6
CONTINUOUS
 62
    2
 10
336.56549111290713
 20
651.24999999999909
 11
336.56549111290713
 21
650.79999999999882
  0
LINE
  8
_0-0_計極細
  6
CONTINUOUS
 62
    2
 10
349.56549111290713
 20
656.39999999999918
 11
349.56549111290713
 21
655.94999999999902
  0
LINE
  8
_0-0_計極細
  6
CONTINUOUS
 62
    2
 10
349.56549111290713
 20
651.24999999999909
 11
349.56549111290713
 21
650.79999999999882
  0
TEXT
  8
_0-7_枠細線
 62
    5
 10
938.85037037037023
 20
840
 40
12.5
 41
1
 50
0
  1
アンカー材質･厚み変更
  0
LINE
  8
_0-0_計極細
  6
CONTINUOUS
 62
    2
 10
530.56549111290713
 20
616.800000000002
 11
530.56549111290713
 21
622.40000000000191
  0
LINE
  8
_0-0_計極細
  6
CONTINUOUS
 62
    2
 10
543.56549111290724
 20
616.800000000002
 11
543.56549111290724
 21
622.40000000000191
  0
LINE
  8
_0-0_計極細
  6
CONTINUOUS
 62
    2
 10
530.56549111290713
 20
639.39999999999827
 11
530.56549111290713
 21
633.79999999999791
  0
LINE
  8
_0-0_計極細
  6
CONTINUOUS
 62
    2
 10
543.56549111290724
 20
639.39999999999827
 11
543.56549111290724
 21
633.79999999999791
  0
LINE
  8
_0-0_計極細
  6
CONTINUOUS
 62
    2
 10
530.56549111290713
 20
656.39999999999918
 11
530.56549111290713
 21
650.79999999999882
  0
LINE
  8
_0-0_計極細
  6
CONTINUOUS
 62
    2
 10
543.56549111290724
 20
656.39999999999918
 11
543.56549111290724
 21
650.79999999999882
  0
LINE
  8
_0-0_計極細
  6
CONTINUOUS
 62
    2
 10
530.56549111290713
 20
673.39999999999964
 11
530.56549111290713
 21
667.79999999999973
  0
LINE
  8
_0-0_計極細
  6
CONTINUOUS
 62
    2
 10
543.56549111290724
 20
673.39999999999964
 11
543.56549111290724
 21
667.79999999999973
  0
LINE
  8
_0-0_計極細
  6
CONTINUOUS
 62
    2
 10
530.56549111290713
 20
758.70000000000027
 11
530.56549111290713
 21
752.80000000000018
  0
LINE
  8
_0-0_計極細
  6
CONTINUOUS
 62
    2
 10
543.56549111290724
 20
758.70000000000027
 11
543.56549111290724
 21
752.80000000000018
  0
LINE
  8
_0-0_計極細
  6
CONTINUOUS
 62
    2
 10
530.56549111290713
 20
531.50000000000136
 11
530.56549111290713
 21
537.40000000000146
  0
LINE
  8
_0-0_計極細
  6
CONTINUOUS
 62
    2
 10
543.56549111290724
 20
531.50000000000136
 11
543.56549111290724
 21
537.40000000000146
  0
LINE
  8
_0-0_計極細
  6
CENTER1
 62
    2
 10
537.06549111290713
 20
778.85071942446302
 11
537.06549111290713
 21
512.34217625898873
  0
LINE
  8
_0-0_計極細
  6
CONTINUOUS
 62
    2
 10
530.56549111290713
 20
690.40000000000009
 11
530.56549111290713
 21
684.80000000000018
  0
LINE
  8
_0-0_計極細
  6
CONTINUOUS
 62
    2
 10
543.56549111290724
 20
690.40000000000009
 11
543.56549111290724
 21
684.80000000000018
  0
LINE
  8
_0-0_計極細
  6
CONTINUOUS
 62
    2
 10
530.56549111290713
 20
707.40000000000111
 11
530.56549111290713
 21
701.80000000000064
  0
LINE
  8
_0-0_計極細
  6
CONTINUOUS
 62
    2
 10
543.56549111290724
 20
707.40000000000111
 11
543.56549111290724
 21
701.80000000000064
  0
LINE
  8
_0-0_計極細
  6
CONTINUOUS
 62
    2
 10
530.56549111290713
 20
724.40000000000191
 11
530.56549111290713
 21
718.80000000000155
  0
LINE
  8
_0-0_計極細
  6
CONTINUOUS
 62
    2
 10
543.56549111290724
 20
724.40000000000191
 11
543.56549111290724
 21
718.80000000000155
  0
LINE
  8
_0-0_計極細
  6
CONTINUOUS
 62
    2
 10
530.56549111290713
 20
741.40000000000236
 11
530.56549111290713
 21
735.80000000000257
  0
LINE
  8
_0-0_計極細
  6
CONTINUOUS
 62
    2
 10
543.56549111290724
 20
741.40000000000236
 11
543.56549111290724
 21
735.80000000000257
  0
LINE
  8
_0-0_計極細
  6
CONTINUOUS
 62
    2
 10
530.56549111290713
 20
599.80000000000155
 11
530.56549111290713
 21
605.40000000000146
  0
LINE
  8
_0-0_計極細
  6
CONTINUOUS
 62
    2
 10
543.56549111290724
 20
599.80000000000155
 11
543.56549111290724
 21
605.40000000000146
  0
LINE
  8
_0-0_計極細
  6
CONTINUOUS
 62
    2
 10
530.56549111290713
 20
582.80000000000064
 11
530.56549111290713
 21
588.400000000001
  0
LINE
  8
_0-0_計極細
  6
CONTINUOUS
 62
    2
 10
543.56549111290724
 20
582.80000000000064
 11
543.56549111290724
 21
588.400000000001
  0
LINE
  8
_0-0_計極細
  6
CONTINUOUS
 62
    2
 10
530.56549111290713
 20
565.79999999999973
 11
530.56549111290713
 21
571.40000000000009
  0
LINE
  8
_0-0_計極細
  6
CONTINUOUS
 62
    2
 10
543.56549111290724
 20
565.79999999999973
 11
543.56549111290724
 21
571.40000000000009
  0
LINE
  8
_0-0_計極細
  6
CONTINUOUS
 62
    2
 10
530.56549111290713
 20
548.79999999999927
 11
530.56549111290713
 21
554.39999999999918
  0
LINE
  8
_0-0_計極細
  6
CONTINUOUS
 62
    2
 10
543.56549111290724
 20
548.79999999999927
 11
543.56549111290724
 21
554.39999999999918
  0
LINE
  8
_0-0_計極細
  6
CONTINUOUS
 62
    2
 10
598.56549111290724
 20
616.800000000002
 11
598.56549111290724
 21
622.40000000000191
  0
LINE
  8
_0-0_計極細
  6
CONTINUOUS
 62
    2
 10
611.56549111290713
 20
616.800000000002
 11
611.56549111290713
 21
622.40000000000191
  0
LINE
  8
_0-0_計極細
  6
CONTINUOUS
 62
    2
 10
598.56549111290724
 20
639.39999999999827
 11
598.56549111290724
 21
633.79999999999791
  0
LINE
  8
_0-0_計極細
  6
CONTINUOUS
 62
    2
 10
611.56549111290713
 20
639.39999999999827
 11
611.56549111290713
 21
633.79999999999791
  0
LINE
  8
_0-0_計極細
  6
CONTINUOUS
 62
    2
 10
598.56549111290724
 20
656.39999999999918
 11
598.56549111290724
 21
650.79999999999882
  0
LINE
  8
_0-0_計極細
  6
CONTINUOUS
 62
    2
 10
611.56549111290713
 20
656.39999999999918
 11
611.56549111290713
 21
650.79999999999882
  0
LINE
  8
_0-0_計極細
  6
CONTINUOUS
 62
    2
 10
598.56549111290724
 20
673.39999999999964
 11
598.56549111290724
 21
667.79999999999973
  0
LINE
  8
_0-0_計極細
  6
CONTINUOUS
 62
    2
 10
611.56549111290713
 20
673.39999999999964
 11
611.56549111290713
 21
667.79999999999973
  0
LINE
  8
_0-0_計極細
  6
CONTINUOUS
 62
    2
 10
598.56549111290724
 20
758.70000000000027
 11
598.56549111290724
 21
752.80000000000018
  0
LINE
  8
_0-0_計極細
  6
CONTINUOUS
 62
    2
 10
611.56549111290713
 20
758.70000000000027
 11
611.56549111290713
 21
752.80000000000018
  0
LINE
  8
_0-0_計極細
  6
CONTINUOUS
 62
    2
 10
598.56549111290724
 20
531.50000000000136
 11
598.56549111290724
 21
537.40000000000146
  0
LINE
  8
_0-0_計極細
  6
CONTINUOUS
 62
    2
 10
611.56549111290713
 20
531.50000000000136
 11
611.56549111290713
 21
537.40000000000146
  0
LINE
  8
_0-0_計極細
  6
CENTER1
 62
    2
 10
605.06549111290713
 20
778.85071942446302
 11
605.06549111290713
 21
512.34217625898873
  0
LINE
  8
_0-0_計極細
  6
CONTINUOUS
 62
    2
 10
598.56549111290724
 20
690.40000000000009
 11
598.56549111290724
 21
684.80000000000018
  0
LINE
  8
_0-0_計極細
  6
CONTINUOUS
 62
    2
 10
611.56549111290713
 20
690.40000000000009
 11
611.56549111290713
 21
684.80000000000018
  0
LINE
  8
_0-0_計極細
  6
CONTINUOUS
 62
    2
 10
598.56549111290724
 20
707.40000000000111
 11
598.56549111290724
 21
701.80000000000064
  0
LINE
  8
_0-0_計極細
  6
CONTINUOUS
 62
    2
 10
611.56549111290713
 20
707.40000000000111
 11
611.56549111290713
 21
701.80000000000064
  0
LINE
  8
_0-0_計極細
  6
CONTINUOUS
 62
    2
 10
598.56549111290724
 20
724.40000000000191
 11
598.56549111290724
 21
718.80000000000155
  0
LINE
  8
_0-0_計極細
  6
CONTINUOUS
 62
    2
 10
611.56549111290713
 20
724.40000000000191
 11
611.56549111290713
 21
718.80000000000155
  0
LINE
  8
_0-0_計極細
  6
CONTINUOUS
 62
    2
 10
598.56549111290724
 20
741.40000000000236
 11
598.56549111290724
 21
735.80000000000257
  0
LINE
  8
_0-0_計極細
  6
CONTINUOUS
 62
    2
 10
611.56549111290713
 20
741.40000000000236
 11
611.56549111290713
 21
735.80000000000257
  0
LINE
  8
_0-0_計極細
  6
CONTINUOUS
 62
    2
 10
598.56549111290724
 20
599.80000000000155
 11
598.56549111290724
 21
605.40000000000146
  0
LINE
  8
_0-0_計極細
  6
CONTINUOUS
 62
    2
 10
611.56549111290713
 20
599.80000000000155
 11
611.56549111290713
 21
605.40000000000146
  0
LINE
  8
_0-0_計極細
  6
CONTINUOUS
 62
    2
 10
598.56549111290724
 20
582.80000000000064
 11
598.56549111290724
 21
588.400000000001
  0
LINE
  8
_0-0_計極細
  6
CONTINUOUS
 62
    2
 10
611.56549111290713
 20
582.80000000000064
 11
611.56549111290713
 21
588.400000000001
  0
LINE
  8
_0-0_計極細
  6
CONTINUOUS
 62
    2
 10
598.56549111290724
 20
565.79999999999973
 11
598.56549111290724
 21
571.40000000000009
  0
LINE
  8
_0-0_計極細
  6
CONTINUOUS
 62
    2
 10
611.56549111290713
 20
565.79999999999973
 11
611.56549111290713
 21
571.40000000000009
  0
LINE
  8
_0-0_計極細
  6
CONTINUOUS
 62
    2
 10
598.56549111290724
 20
548.79999999999927
 11
598.56549111290724
 21
554.39999999999918
  0
LINE
  8
_0-0_計極細
  6
CONTINUOUS
 62
    2
 10
611.56549111290713
 20
548.79999999999927
 11
611.56549111290713
 21
554.39999999999918
  0
LINE
  8
_0-0_計極細
  6
CONTINUOUS
 62
    2
 10
695.56549111290724
 20
616.800000000002
 11
695.56549111290724
 21
622.40000000000191
  0
LINE
  8
_0-0_計極細
  6
CONTINUOUS
 62
    2
 10
708.56549111290724
 20
616.800000000002
 11
708.56549111290724
 21
622.40000000000191
  0
LINE
  8
_0-0_計極細
  6
CONTINUOUS
 62
    2
 10
695.56549111290724
 20
639.39999999999827
 11
695.56549111290724
 21
633.79999999999791
  0
LINE
  8
_0-0_計極細
  6
CONTINUOUS
 62
    2
 10
708.56549111290724
 20
639.39999999999827
 11
708.56549111290724
 21
633.79999999999791
  0
LINE
  8
_0-0_計極細
  6
CONTINUOUS
 62
    2
 10
695.56549111290724
 20
656.39999999999918
 11
695.56549111290724
 21
650.79999999999882
  0
LINE
  8
_0-0_計極細
  6
CONTINUOUS
 62
    2
 10
708.56549111290724
 20
656.39999999999918
 11
708.56549111290724
 21
650.79999999999882
  0
LINE
  8
_0-0_計極細
  6
CONTINUOUS
 62
    2
 10
695.56549111290724
 20
673.39999999999964
 11
695.56549111290724
 21
667.79999999999973
  0
LINE
  8
_0-0_計極細
  6
CONTINUOUS
 62
    2
 10
708.56549111290724
 20
673.39999999999964
 11
708.56549111290724
 21
667.79999999999973
  0
LINE
  8
_0-0_計極細
  6
CONTINUOUS
 62
    2
 10
695.56549111290724
 20
758.70000000000027
 11
695.56549111290724
 21
752.80000000000018
  0
LINE
  8
_0-0_計極細
  6
CONTINUOUS
 62
    2
 10
708.56549111290724
 20
758.70000000000027
 11
708.56549111290724
 21
752.80000000000018
  0
LINE
  8
_0-0_計極細
  6
CONTINUOUS
 62
    2
 10
695.56549111290724
 20
531.50000000000136
 11
695.56549111290724
 21
537.40000000000146
  0
LINE
  8
_0-0_計極細
  6
CONTINUOUS
 62
    2
 10
708.56549111290724
 20
531.50000000000136
 11
708.56549111290724
 21
537.40000000000146
  0
LINE
  8
_0-0_計極細
  6
CENTER1
 62
    2
 10
702.06549111290713
 20
778.85071942446302
 11
702.06549111290713
 21
512.34217625898873
  0
LINE
  8
_0-0_計極細
  6
CONTINUOUS
 62
    2
 10
695.56549111290724
 20
690.40000000000009
 11
695.56549111290724
 21
684.80000000000018
  0
LINE
  8
_0-0_計極細
  6
CONTINUOUS
 62
    2
 10
708.56549111290724
 20
690.40000000000009
 11
708.56549111290724
 21
684.80000000000018
  0
LINE
  8
_0-0_計極細
  6
CONTINUOUS
 62
    2
 10
695.56549111290724
 20
707.40000000000111
 11
695.56549111290724
 21
701.80000000000064
  0
LINE
  8
_0-0_計極細
  6
CONTINUOUS
 62
    2
 10
708.56549111290724
 20
707.40000000000111
 11
708.56549111290724
 21
701.80000000000064
  0
LINE
  8
_0-0_計極細
  6
CONTINUOUS
 62
    2
 10
695.56549111290724
 20
724.40000000000191
 11
695.56549111290724
 21
718.80000000000155
  0
LINE
  8
_0-0_計極細
  6
CONTINUOUS
 62
    2
 10
708.56549111290724
 20
724.40000000000191
 11
708.56549111290724
 21
718.80000000000155
  0
LINE
  8
_0-0_計極細
  6
CONTINUOUS
 62
    2
 10
695.56549111290724
 20
741.40000000000236
 11
695.56549111290724
 21
735.80000000000257
  0
LINE
  8
_0-0_計極細
  6
CONTINUOUS
 62
    2
 10
708.56549111290724
 20
741.40000000000236
 11
708.56549111290724
 21
735.80000000000257
  0
LINE
  8
_0-0_計極細
  6
CONTINUOUS
 62
    2
 10
695.56549111290724
 20
599.80000000000155
 11
695.56549111290724
 21
605.40000000000146
  0
LINE
  8
_0-0_計極細
  6
CONTINUOUS
 62
    2
 10
708.56549111290724
 20
599.80000000000155
 11
708.56549111290724
 21
605.40000000000146
  0
LINE
  8
_0-0_計極細
  6
CONTINUOUS
 62
    2
 10
695.56549111290724
 20
582.80000000000064
 11
695.56549111290724
 21
588.400000000001
  0
LINE
  8
_0-0_計極細
  6
CONTINUOUS
 62
    2
 10
708.56549111290724
 20
582.80000000000064
 11
708.56549111290724
 21
588.400000000001
  0
LINE
  8
_0-0_計極細
  6
CONTINUOUS
 62
    2
 10
695.56549111290724
 20
565.79999999999973
 11
695.56549111290724
 21
571.40000000000009
  0
LINE
  8
_0-0_計極細
  6
CONTINUOUS
 62
    2
 10
708.56549111290724
 20
565.79999999999973
 11
708.56549111290724
 21
571.40000000000009
  0
LINE
  8
_0-0_計極細
  6
CONTINUOUS
 62
    2
 10
695.56549111290724
 20
548.79999999999927
 11
695.56549111290724
 21
554.39999999999918
  0
LINE
  8
_0-0_計極細
  6
CONTINUOUS
 62
    2
 10
708.56549111290724
 20
548.79999999999927
 11
708.56549111290724
 21
554.39999999999918
  0
TEXT
  8
_0-7_枠細線
 62
    5
 10
938.85037037037023
 20
822.5
 40
12.5
 41
1
 50
0
  1
取外具形状変更
  0
LINE
  8
_0-7_枠細線
  6
CONTINUOUS
 62
    5
 10
907.5
 20
836.44233397174685
 11
900
 21
821.44233397174685
  0
LINE
  8
_0-7_枠細線
  6
CONTINUOUS
 62
    5
 10
900
 20
821.44233397174685
 11
915
 21
821.44233397174685
  0
LINE
  8
_0-7_枠細線
  6
CONTINUOUS
 62
    5
 10
915
 20
821.44233397174685
 11
907.5
 21
836.44233397174685
  0
TEXT
  8
_0-7_枠細線
 62
    5
 10
902.36515126814822
 20
821.13533172636664
 40
12.5
 41
0.8
 50
0
  1
６
  0
TEXT
  8
_0-7_枠細線
 62
    5
 10
1180
 20
822.5
 40
12.5
 41
0.7199999999999999
 50
0
  1
２０２１．０５．０６
  0
LINE
  8
_0-7_枠細線
  6
CONTINUOUS
 62
    5
 10
1425
 20
820
 11
890
 21
820
  0
LINE
  8
_0-7_枠細線
  6
CONTINUOUS
 62
    5
 10
890
 20
820
 11
890
 21
959.99999999999909
  0
LINE
  8
_0-7_枠細線
  6
CONTINUOUS
 62
    5
 10
925
 20
820
 11
925
 21
959.99999999999909
  0
LINE
  8
_0-7_枠細線
  6
CONTINUOUS
 62
    5
 10
1175
 20
820
 11
1175
 21
959.99999999999909
  0
LINE
  8
_0-7_枠細線
  6
CONTINUOUS
 62
    5
 10
1275
 20
820
 11
1275
 21
959.99999999999909
  0
LINE
  8
_0-7_枠細線
  6
CONTINUOUS
 62
    5
 10
1225.0000000000014
 20
777.45837512859055
 11
1225.0000000000014
 21
702.45837512859043
  0
TEXT
  8
_0-7_枠細線
 62
    5
 10
1174.0000000000027
 20
732.45837512859043
 40
15
 41
0.5999999999999999
 50
0
  1
９９９
  0
TEXT
  8
_0-7_枠細線
 62
    5
 10
1181.5000000000027
 20
757.45837512859043
 40
15
 41
0.8000000000000001
 50
0
  1
Ｌ
  0
LINE
  8
_0-7_枠細線
  6
CONTINUOUS
 62
    5
 10
1150.0000000000014
 20
777.45837512859055
 11
1150.0000000000014
 21
702.45837512859043
  0
TEXT
  8
_0-7_枠細線
 62
    5
 10
1094.5000000000014
 20
757.45837512859043
 40
15
 41
0.8000000000000001
 50
0
  1
種　別
  0
TEXT
  8
_0-7_枠細線
 62
    5
 10
1094.5000000000009
 20
732.45837512859043
 40
15
 41
0.8000000000000001
 50
0
  1
定尺品
  0
TEXT
  8
_0-7_枠細線
 62
    5
 10
1094.5000000000009
 20
707.45837512859043
 40
15
 41
0.8000000000000001
 50
0
  1
特寸品
  0
LINE
  8
_0-7_枠細線
  6
CONTINUOUS
 62
    5
 10
1075
 20
777.45837512859055
 11
1075
 21
702.45837512859043
  0
LINE
  8
_0-7_枠細線
  6
CONTINUOUS
 62
    5
 10
1300.000000000002
 20
777.45837512859055
 11
1300.000000000002
 21
702.45837512859043
  0
TEXT
  8
_0-7_枠細線
 62
    5
 10
1256.5000000000027
 20
757.45837512859043
 40
15
 41
0.8000000000000001
 50
0
  1
Ａ
  0
TEXT
  8
_0-7_枠細線
 62
    5
 10
1244.5000000000018
 20
732.45837512859043
 40
15
 41
0.5999999999999999
 50
0
  1
１４．５
  0
TEXT
  8
_0-7_枠細線
 62
    5
 10
1151.5000000000018
 20
707.45837512859043
 40
15
 41
0.5999999999999999
 50
0
  1
３０５～１３０５
  0
LINE
  8
_0-7_枠細線
  6
CONTINUOUS
 62
    5
 10
1375.0000000000023
 20
777.45837512859055
 11
1375.0000000000023
 21
702.45837512859043
  0
LINE
  8
_0-7_枠細線
  6
CONTINUOUS
 62
    5
 10
1075
 20
777.45837512859055
 11
1375.0000000000023
 21
777.45837512859055
  0
LINE
  8
_0-7_枠細線
  6
CONTINUOUS
 62
    5
 10
1075
 20
752.45837512859043
 11
1375.0000000000023
 21
752.45837512859043
  0
LINE
  8
_0-7_枠細線
  6
CONTINUOUS
 62
    5
 10
1075
 20
727.45837512859043
 11
1375.0000000000023
 21
727.45837512859043
  0
LINE
  8
_0-7_枠細線
  6
CONTINUOUS
 62
    5
 10
1075
 20
702.45837512859043
 11
1375.0000000000023
 21
702.45837512859043
  0
TEXT
  8
_0-7_枠細線
 62
    5
 10
1331.5000000000023
 20
757.45837512859043
 40
15
 41
0.8000000000000001
 50
0
  1
Ｂ
  0
TEXT
  8
_0-7_枠細線
 62
    5
 10
1328.5000000000023
 20
732.45837512859043
 40
15
 41
0.5999999999999999
 50
0
  1
９７
  0
TEXT
  8
_0-7_枠細線
 62
    5
 10
1163.0053911613957
 20
782.45837512859055
 40
17.5
 41
1
 50
0
  1
寸法表
  0
TEXT
  8
_0-7_枠細線
 62
    5
 10
1244.5000000000018
 20
707.45837512859043
 40
15
 41
0.5999999999999999
 50
0
  1
７～２０
  0
TEXT
  8
_0-7_枠細線
 62
    5
 10
1077.04820616962
 20
681.73280458415547
 40
15
 41
0.8000000000000001
 50
0
  1
※ 特寸品はAが20以下となるようBにて調整
  0
TEXT
  8
_0-7_枠細線
 62
    5
 10
1315.0000000000023
 20
707.45837512859043
 40
15
 41
0.5999999999999999
 50
0
  1
２７～９７
  0
LINE
  8
_0-5_寸法線
  6
CONTINUOUS
 62
    7
 10
231.06549111290732
 20
785.099999999999
 11
231.0654911129086
 21
865.099999999999
  0
LINE
  8
_0-5_寸法線
  6
CONTINUOUS
 62
    7
 10
231.06549111290846
 20
860.099999999999
 11
238.30993481007653
 21
862.041142838268
  0
LINE
  8
_0-5_寸法線
  6
CONTINUOUS
 62
    7
 10
231.06549111290846
 20
860.099999999999
 11
238.30993481007653
 21
858.15885716173011
  0
LINE
  8
_0-5_寸法線
  6
CONTINUOUS
 62
    7
 10
814.06549111290713
 20
785.10000000000048
 11
814.0654911129086
 21
865.099999999999
  0
LINE
  8
_0-5_寸法線
  6
CONTINUOUS
 62
    7
 10
814.06549111290838
 20
860.099999999999
 11
806.82104741574051
 21
858.15885716173011
  0
LINE
  8
_0-5_寸法線
  6
CONTINUOUS
 62
    7
 10
814.06549111290838
 20
860.099999999999
 11
806.82104741574051
 21
862.041142838268
  0
LINE
  8
_0-5_寸法線
  6
CONTINUOUS
 62
    7
 10
231.06549111290846
 20
860.099999999999
 11
814.06549111290838
 21
860.099999999999
  0
TEXT
  8
_0-5_寸法線
 62
    7
 10
515.06549111290849
 20
860.099999999999
 40
15
 41
1
 50
0
  1
Ｌ
  0
LINE
  8
_0-5_寸法線
  6
CONTINUOUS
 62
    7
 10
799.06549111290701
 20
785.10000000000048
 11
799.06549111290701
 21
830.099999999999
  0
LINE
  8
_0-5_寸法線
  6
CONTINUOUS
 62
    7
 10
799.06549111290701
 20
825.099999999999
 11
808.72474937579784
 21
827.68819045102418
  0
LINE
  8
_0-5_寸法線
  6
CONTINUOUS
 62
    7
 10
799.06549111290701
 20
825.099999999999
 11
808.72474937579784
 21
822.51180954897393
  0
LINE
  8
_0-5_寸法線
  6
CONTINUOUS
 62
    7
 10
814.06549111290701
 20
785.10000000000127
 11
814.06549111290701
 21
830.099999999999
  0
LINE
  8
_0-5_寸法線
  6
CONTINUOUS
 62
    7
 10
814.06549111290701
 20
825.099999999999
 11
804.40623285001629
 21
822.51180954897393
  0
LINE
  8
_0-5_寸法線
  6
CONTINUOUS
 62
    7
 10
814.06549111290701
 20
825.099999999999
 11
804.40623285001629
 21
827.68819045102418
  0
LINE
  8
_0-5_寸法線
  6
CONTINUOUS
 62
    7
 10
799.06549111290701
 20
825.099999999999
 11
814.06549111290701
 21
825.099999999999
  0
TEXT
  8
_0-5_寸法線
 62
    7
 10
799.06549111290701
 20
825.099999999999
 40
15
 41
1
 50
0
  1
Ａ
  0
LINE
  8
_0-5_寸法線
  6
CONTINUOUS
 62
    7
 10
845.56549111291019
 20
775.10000000000048
 11
925.56549111290883
 21
775.10000000000048
  0
LINE
  8
_0-5_寸法線
  6
CONTINUOUS
 62
    7
 10
920.56549111290883
 20
775.10000000000048
 11
923.1536815639339
 21
765.44074173710987
  0
LINE
  8
_0-5_寸法線
  6
CONTINUOUS
 62
    7
 10
920.56549111290883
 20
775.10000000000048
 11
917.97730066188353
 21
765.44074173710987
  0
LINE
  8
_0-5_寸法線
  6
CONTINUOUS
 62
    7
 10
845.56549111290917
 20
515.09999999999684
 11
925.56549111290917
 21
515.09999999999684
  0
LINE
  8
_0-5_寸法線
  6
CONTINUOUS
 62
    7
 10
920.56549111290917
 20
515.09999999999684
 11
917.9773006618841
 21
524.75925826288756
  0
LINE
  8
_0-5_寸法線
  6
CONTINUOUS
 62
    7
 10
920.56549111290917
 20
515.09999999999684
 11
923.15368156393447
 21
524.75925826288756
  0
LINE
  8
_0-5_寸法線
  6
CONTINUOUS
 62
    7
 10
920.56549111290883
 20
775.10000000000048
 11
920.56549111290917
 21
515.09999999999684
  0
TEXT
  8
_0-5_寸法線
 62
    7
 10
920.56549111290917
 20
633.84999999999866
 40
15
 41
1
 50
90
  1
260
  0
LINE
  8
_0-5_寸法線
  6
CONTINUOUS
 62
    7
 10
885.56549111290883
 20
775.10000000000048
 11
882.97730066188365
 21
784.75925826289131
  0
LINE
  8
_0-5_寸法線
  6
CONTINUOUS
 62
    7
 10
885.56549111290883
 20
775.10000000000048
 11
888.1536815639339
 21
784.75925826289131
  0
LINE
  8
_0-5_寸法線
  6
CONTINUOUS
 62
    7
 10
845.56549111291019
 20
772.10000000000048
 11
890.56549111290883
 21
772.10000000000048
  0
CIRCLE
  8
_0-5_寸法線
  6
CONTINUOUS
 62
    1
 10
885.56549111290883
 20
772.10000000000048
 40
1.5000000000000002
  0
LINE
  8
_0-5_寸法線
  6
CONTINUOUS
 62
    7
 10
885.56549111290883
 20
800.10000000000048
 11
885.56549111290883
 21
772.10000000000048
  0
TEXT
  8
_0-5_寸法線
 62
    7
 10
885.56549111290883
 20
788.44923004653492
 40
15
 41
1
 50
90
  1
3
  0
LINE
  8
_0-5_寸法線
  6
CONTINUOUS
 62
    7
 10
845.56549111291019
 20
770.1000000000015
 11
890.56549111290883
 21
770.1000000000015
  0
LINE
  8
_0-5_寸法線
  6
CONTINUOUS
 62
    7
 10
885.56549111290883
 20
772.10000000000048
 11
885.56549111290883
 21
770.1000000000015
  0
TEXT
  8
_0-5_寸法線
 62
    7
 10
904.35169771436358
 20
763.68583109466999
 40
15
 41
1
 50
90
  1
2
  0
LINE
  8
_0-5_寸法線
  6
CONTINUOUS
 62
    7
 10
885.56549111290883
 20
770.1000000000015
 11
888.1536815639339
 21
760.44074173711067
  0
LINE
  8
_0-5_寸法線
  6
CONTINUOUS
 62
    7
 10
885.56549111290883
 20
770.1000000000015
 11
882.97730066188353
 21
760.44074173711067
  0
LINE
  8
_0-5_寸法線
  6
CONTINUOUS
 62
    7
 10
845.56549111291019
 20
520.10000000000093
 11
890.56549111290917
 21
520.10000000000093
  0
LINE
  8
_0-5_寸法線
  6
CONTINUOUS
 62
    7
 10
885.56549111290917
 20
520.10000000000093
 11
882.9773006618841
 21
529.75925826289176
  0
LINE
  8
_0-5_寸法線
  6
CONTINUOUS
 62
    7
 10
885.56549111290917
 20
520.10000000000093
 11
888.15368156393447
 21
529.75925826289176
  0
LINE
  8
_0-5_寸法線
  6
CONTINUOUS
 62
    7
 10
885.56549111290883
 20
770.1000000000015
 11
885.56549111290917
 21
520.10000000000093
  0
TEXT
  8
_0-5_寸法線
 62
    7
 10
885.56549111290906
 20
633.85000000000139
 40
15
 41
1
 50
90
  1
250
  0
LINE
  8
_0-5_寸法線
  6
CONTINUOUS
 62
    7
 10
845.56549111291019
 20
518.10000000000184
 11
890.56549111290917
 21
518.10000000000184
  0
CIRCLE
  8
_0-5_寸法線
  6
CONTINUOUS
 62
    1
 10
885.56549111290917
 20
518.10000000000184
 40
1.5000000000000002
  0
LINE
  8
_0-5_寸法線
  6
CONTINUOUS
 62
    7
 10
885.56549111290917
 20
520.10000000000093
 11
885.56549111290917
 21
518.10000000000184
  0
TEXT
  8
_0-5_寸法線
 62
    7
 10
904.454456041458
 20
520.10000000000093
 40
15
 41
1
 50
90
  1
2
  0
LINE
  8
_0-5_寸法線
  6
CONTINUOUS
 62
    7
 10
885.56549111290917
 20
515.09999999999684
 11
888.15368156393447
 21
505.44074173710612
  0
LINE
  8
_0-5_寸法線
  6
CONTINUOUS
 62
    7
 10
885.56549111290917
 20
515.09999999999684
 11
882.97730066188387
 21
505.44074173710618
  0
LINE
  8
_0-5_寸法線
  6
CONTINUOUS
 62
    7
 10
885.56549111290917
 20
518.10000000000184
 11
885.56549111290917
 21
490.09999999999684
  0
TEXT
  8
_0-5_寸法線
 62
    7
 10
885.56549111290917
 20
494.35625578015589
 40
15
 41
1
 50
90
  1
3
  0
LINE
  8
_0-1_計細線
  6
CONTINUOUS
 62
    3
 10
304.06549111290673
 20
651.24999999999909
 11
357.06549111290667
 21
651.24999999999909
  0
LINE
  8
_0-1_計細線
  6
CONTINUOUS
 62
    3
 10
357.06549111290667
 20
655.94999999999902
 11
304.06549111290673
 21
655.94999999999902
  0
LINE
  8
_0-1_計細線
  6
CONTINUOUS
 62
    3
 10
304.06549111290673
 20
655.94999999999902
 11
304.06549111290673
 21
651.24999999999909
  0
LINE
  8
_0-1_計細線
  6
CONTINUOUS
 62
    3
 10
347.06549111290667
 20
655.94999999999902
 11
347.06549111290667
 21
651.24999999999909
  0
LINE
  8
_0-1_計細線
  6
CONTINUOUS
 62
    3
 10
355.06549111290667
 20
655.94999999999902
 11
355.06549111290667
 21
651.24999999999909
  0
LINE
  8
_0-1_計細線
  6
CONTINUOUS
 62
    3
 10
357.06549111290667
 20
655.94999999999902
 11
357.06549111290667
 21
651.24999999999909
  0
LINE
  8
_0-1_計細線
  6
CONTINUOUS
 62
    3
 10
353.06549111290673
 20
655.94999999999902
 11
353.06549111290673
 21
651.24999999999909
  0
LINE
  8
_0-1_計細線
  6
CONTINUOUS
 62
    3
 10
351.06549111290667
 20
655.94999999999902
 11
351.06549111290667
 21
651.24999999999909
  0
LINE
  8
_0-1_計細線
  6
CONTINUOUS
 62
    3
 10
349.06549111290667
 20
655.94999999999902
 11
349.06549111290667
 21
651.24999999999909
  0
LINE
  8
_0-b_細線3
  6
CONTINUOUS
 62
    7
 10
511.12175318772216
 20
276.71245819900633
 11
511.12175318772216
 21
245.04579153233925
  0
LINE
  8
_0-b_細線3
  6
CONTINUOUS
 62
    7
 10
503.28841985438822
 20
245.04579153233925
 11
503.28841985438822
 21
276.71245819900633
  0
LINE
  8
_0-b_細線3
  6
CONTINUOUS
 62
    7
 10
511.12175318772216
 20
245.04579153233925
 11
503.28841985438822
 21
245.04579153233925
  0
LINE
  8
_0-b_細線3
  6
CONTINUOUS
 62
    7
 10
503.28841985438822
 20
276.71245819900633
 11
511.12175318772216
 21
276.71245819900633
  0
LINE
  8
_0-b_細線3
  6
DASHED2
 62
    7
 10
503.28841985438822
 20
250.04579153233925
 11
511.12175318772216
 21
250.04579153233925
  0
LINE
  8
_0-b_細線3
  6
DASHED2
 62
    7
 10
503.28841985438822
 20
272.54579153233971
 11
511.12175318772216
 21
272.54579153233971
  0
TEXT
  8
_0-7_枠細線
 62
    5
 10
558.06534196310224
 20
96.304590249217625
 40
20
 41
0.6
 50
0
  1
Ｓ＝１：３
  0
LINE
  8
_0-d_寸法3
  6
CONTINUOUS
 62
    7
 10
578.03841985497615
 20
287.04579153234272
 11
578.03841985497615
 21
332.04579153226598
  0
LINE
  8
_0-d_寸法3
  6
CONTINUOUS
 62
    7
 10
578.03841985497615
 20
327.04579153226598
 11
587.69767811786687
 21
329.63398198329116
  0
LINE
  8
_0-d_寸法3
  6
CONTINUOUS
 62
    7
 10
578.03841985497615
 20
327.04579153226598
 11
587.69767811786687
 21
324.45760108124085
  0
LINE
  8
_0-d_寸法3
  6
CONTINUOUS
 62
    7
 10
606.37175318891263
 20
287.04579153234272
 11
606.37175318891263
 21
332.04579153226598
  0
LINE
  8
_0-d_寸法3
  6
CONTINUOUS
 62
    7
 10
606.37175318891263
 20
327.04579153226598
 11
596.71249492602192
 21
324.45760108124085
  0
LINE
  8
_0-d_寸法3
  6
CONTINUOUS
 62
    7
 10
606.37175318891263
 20
327.04579153226598
 11
596.71249492602192
 21
329.63398198329122
  0
LINE
  8
_0-d_寸法3
  6
CONTINUOUS
 62
    7
 10
578.03841985497615
 20
327.04579153226598
 11
606.37175318891263
 21
327.04579153226598
  0
TEXT
  8
_0-d_寸法3
 62
    7
 10
576.04910922933982
 20
312.04579153226598
 40
15
 41
1
 50
0
  1
(17)
  0
LINE
  8
_0-d_寸法3
  6
CONTINUOUS
 62
    7
 10
606.37175318891263
 20
327.04579153226598
 11
616.03101145180335
 21
329.63398198329111
  0
LINE
  8
_0-d_寸法3
  6
CONTINUOUS
 62
    7
 10
606.37175318891263
 20
327.04579153226598
 11
616.03101145180335
 21
324.4576010812408
  0
LINE
  8
_0-d_寸法3
  6
CONTINUOUS
 62
    7
 10
634.70508652284911
 20
287.04579153234272
 11
634.70508652284911
 21
332.04579153226598
  0
LINE
  8
_0-d_寸法3
  6
CONTINUOUS
 62
    7
 10
634.70508652284911
 20
327.04579153226598
 11
625.0458282599584
 21
324.45760108124085
  0
LINE
  8
_0-d_寸法3
  6
CONTINUOUS
 62
    7
 10
634.70508652284911
 20
327.04579153226598
 11
625.0458282599584
 21
329.63398198329122
  0
LINE
  8
_0-d_寸法3
  6
CONTINUOUS
 62
    7
 10
606.37175318891263
 20
327.04579153226598
 11
634.70508652284911
 21
327.04579153226598
  0
TEXT
  8
_0-d_寸法3
 62
    7
 10
606.44910922933991
 20
327.04579153226598
 40
15
 41
1
 50
0
  1
(17)
  0
LINE
  8
_0-d_寸法3
  6
CONTINUOUS
 62
    7
 10
389.2050865152662
 20
287.04579153234272
 11
389.20508651526626
 21
332.04579153226598
  0
LINE
  8
_0-d_寸法3
  6
CONTINUOUS
 62
    7
 10
389.20508651526626
 20
327.04579153226598
 11
379.54582825237549
 21
324.45760108124085
  0
LINE
  8
_0-d_寸法3
  6
CONTINUOUS
 62
    7
 10
389.20508651526626
 20
327.04579153226598
 11
379.5458282523756
 21
329.63398198329122
  0
LINE
  8
_0-d_寸法3
  6
CONTINUOUS
 62
    7
 10
398.53841984859946
 20
287.04579153234272
 11
398.53841984859957
 21
332.04579153226598
  0
LINE
  8
_0-d_寸法3
  6
CONTINUOUS
 62
    7
 10
349.83113083241562
 20
327.04579153226598
 11
398.53841984859957
 21
327.04579153226598
  0
TEXT
  8
_0-d_寸法3
 62
    7
 10
349.83113083241568
 20
312.04579153226598
 40
15
 41
1
 50
0
  1
(5.6)
  0
LINE
  8
_0-d_寸法3
  6
CONTINUOUS
 62
    7
 10
398.53841984859957
 20
327.04579153226598
 11
408.19767811149018
 21
329.63398198329116
  0
LINE
  8
_0-d_寸法3
  6
CONTINUOUS
 62
    7
 10
398.53841984859957
 20
327.04579153226598
 11
408.19767811149018
 21
324.45760108124085
  0
LINE
  8
_0-d_寸法3
  6
CONTINUOUS
 62
    7
 10
417.53841984859946
 20
287.04579153234272
 11
417.53841984859952
 21
332.04579153226598
  0
LINE
  8
_0-d_寸法3
  6
CONTINUOUS
 62
    7
 10
417.53841984859952
 20
327.04579153226598
 11
407.8791615857088
 21
324.45760108124085
  0
LINE
  8
_0-d_寸法3
  6
CONTINUOUS
 62
    7
 10
417.53841984859952
 20
327.04579153226598
 11
407.87916158570886
 21
329.63398198329122
  0
LINE
  8
_0-d_寸法3
  6
CONTINUOUS
 62
    7
 10
398.53841984859957
 20
327.04579153226598
 11
417.53841984859952
 21
327.04579153226598
  0
TEXT
  8
_0-d_寸法3
 62
    7
 10
389.27372342500826
 20
327.04579153226598
 40
15
 41
1
 50
0
  1
11.4
  0
LINE
  8
_0-d_寸法3
  6
CONTINUOUS
 62
    7
 10
276.37175318650065
 20
282.04579153234272
 11
276.37175318650065
 21
402.04579153234278
  0
LINE
  8
_0-d_寸法3
  6
CONTINUOUS
 62
    7
 10
276.37175318650065
 20
397.04579153234278
 11
286.03101144939131
 21
399.6339819833679
  0
LINE
  8
_0-d_寸法3
  6
CONTINUOUS
 62
    7
 10
276.37175318650065
 20
397.04579153234278
 11
286.03101144939131
 21
394.45760108131759
  0
LINE
  8
_0-d_寸法3
  6
CONTINUOUS
 62
    7
 10
709.70508651983425
 20
282.04579153234272
 11
709.70508651983459
 21
402.04579153234278
  0
LINE
  8
_0-d_寸法3
  6
CONTINUOUS
 62
    7
 10
709.70508651983459
 20
397.04579153234278
 11
700.04582825694388
 21
394.45760108131759
  0
LINE
  8
_0-d_寸法3
  6
CONTINUOUS
 62
    7
 10
709.70508651983459
 20
397.04579153234278
 11
700.04582825694388
 21
399.63398198336796
  0
LINE
  8
_0-d_寸法3
  6
CONTINUOUS
 62
    7
 10
276.37175318650065
 20
397.04579153234278
 11
709.70508651983459
 21
397.04579153234278
  0
TEXT
  8
_0-d_寸法3
 62
    7
 10
481.78841985316757
 20
397.04579153234278
 40
15
 41
1
 50
0
  1
260
  0
LINE
  8
_0-d_寸法3
  6
CONTINUOUS
 62
    7
 10
276.37175318650065
 20
362.04579153234272
 11
266.71249492361
 21
359.45760108131759
  0
LINE
  8
_0-d_寸法3
  6
CONTINUOUS
 62
    7
 10
276.37175318650065
 20
362.04579153234272
 11
266.71249492361
 21
364.63398198336796
  0
LINE
  8
_0-d_寸法3
  6
CONTINUOUS
 62
    7
 10
281.37175318650065
 20
282.04579153234272
 11
281.37175318650071
 21
367.04579153234272
  0
CIRCLE
  8
_0-d_寸法3
  6
CONTINUOUS
 62
    1
 10
281.37175318650071
 20
362.04579153234272
 40
1.5000000000000002
  0
LINE
  8
_0-d_寸法3
  6
CONTINUOUS
 62
    7
 10
251.37175318650065
 20
362.04579153234272
 11
281.37175318650071
 21
362.04579153234272
  0
TEXT
  8
_0-d_寸法3
 62
    7
 10
257.10783018452378
 20
362.04579153234272
 40
15
 41
1
 50
0
  1
3
  0
LINE
  8
_0-d_寸法3
  6
CONTINUOUS
 62
    7
 10
284.70508651983408
 20
282.04579153234272
 11
284.70508651983414
 21
367.04579153234272
  0
LINE
  8
_0-d_寸法3
  6
CONTINUOUS
 62
    7
 10
281.37175318650071
 20
362.04579153234272
 11
284.70508651983414
 21
362.04579153234272
  0
TEXT
  8
_0-d_寸法3
 62
    7
 10
279.28841985316762
 20
362.04579153234272
 40
15
 41
1
 50
0
  1
2
  0
LINE
  8
_0-d_寸法3
  6
CONTINUOUS
 62
    7
 10
284.70508651983414
 20
362.04579153234272
 11
294.3643447827248
 21
364.6339819833679
  0
LINE
  8
_0-d_寸法3
  6
CONTINUOUS
 62
    7
 10
284.70508651983414
 20
362.04579153234272
 11
294.3643447827248
 21
359.45760108131759
  0
LINE
  8
_0-d_寸法3
  6
CONTINUOUS
 62
    7
 10
701.37175318707364
 20
282.04579153234272
 11
701.37175318707375
 21
367.04579153234272
  0
LINE
  8
_0-d_寸法3
  6
CONTINUOUS
 62
    7
 10
701.37175318707375
 20
362.04579153234272
 11
691.71249492418315
 21
359.45760108131759
  0
LINE
  8
_0-d_寸法3
  6
CONTINUOUS
 62
    7
 10
701.37175318707375
 20
362.04579153234272
 11
691.71249492418315
 21
364.63398198336796
  0
LINE
  8
_0-d_寸法3
  6
CONTINUOUS
 62
    7
 10
284.70508651983414
 20
362.04579153234272
 11
701.37175318707375
 21
362.04579153234272
  0
TEXT
  8
_0-d_寸法3
 62
    7
 10
481.78841985316757
 20
362.04579153234272
 40
15
 41
1
 50
0
  1
250
  0
LINE
  8
_0-d_寸法3
  6
CONTINUOUS
 62
    7
 10
704.70508652040667
 20
282.04579153234272
 11
704.70508652040667
 21
367.04579153234272
  0
CIRCLE
  8
_0-d_寸法3
  6
CONTINUOUS
 62
    1
 10
704.70508652040667
 20
362.04579153234272
 40
1.5000000000000002
  0
LINE
  8
_0-d_寸法3
  6
CONTINUOUS
 62
    7
 10
701.37175318707375
 20
362.04579153234272
 11
704.70508652040667
 21
362.04579153234272
  0
TEXT
  8
_0-d_寸法3
 62
    7
 10
699.28841985316797
 20
362.04579153234272
 40
15
 41
1
 50
0
  1
2
  0
LINE
  8
_0-d_寸法3
  6
CONTINUOUS
 62
    7
 10
709.70508651983459
 20
362.04579153234272
 11
719.36434478272531
 21
364.63398198336785
  0
LINE
  8
_0-d_寸法3
  6
CONTINUOUS
 62
    7
 10
709.70508651983459
 20
362.04579153234272
 11
719.36434478272531
 21
359.45760108131753
  0
LINE
  8
_0-d_寸法3
  6
CONTINUOUS
 62
    7
 10
704.70508652040667
 20
362.04579153234272
 11
734.70508651983459
 21
362.04579153234272
  0
TEXT
  8
_0-d_寸法3
 62
    7
 10
721.6888575720651
 20
362.04579153234272
 40
15
 41
1
 50
0
  1
3
  0
LINE
  8
_0-d_寸法3
  6
CONTINUOUS
 62
    7
 10
266.37175318650065
 20
277.04579153234278
 11
217.5384198531674
 21
277.04579153234272
  0
LINE
  8
_0-d_寸法3
  6
CONTINUOUS
 62
    7
 10
222.5384198531674
 20
277.04579153234272
 11
225.12661030419252
 21
267.386533269452
  0
LINE
  8
_0-d_寸法3
  6
CONTINUOUS
 62
    7
 10
222.5384198531674
 20
277.04579153234272
 11
219.95022940214213
 21
267.38653326945206
  0
LINE
  8
_0-d_寸法3
  6
CONTINUOUS
 62
    7
 10
262.5384198531674
 20
238.71245819900923
 11
217.53841985316754
 21
238.71245819900921
  0
LINE
  8
_0-d_寸法3
  6
CONTINUOUS
 62
    7
 10
222.53841985316754
 20
238.71245819900921
 11
219.95022940214227
 21
248.37171646189987
  0
LINE
  8
_0-d_寸法3
  6
CONTINUOUS
 62
    7
 10
222.53841985316754
 20
238.71245819900921
 11
225.12661030419267
 21
248.37171646189987
  0
LINE
  8
_0-d_寸法3
  6
CONTINUOUS
 62
    7
 10
222.5384198531674
 20
277.04579153234272
 11
222.53841985316754
 21
238.71245819900921
  0
TEXT
  8
_0-d_寸法3
 62
    7
 10
222.5384198531674
 20
250.37912486567578
 40
15
 41
1
 50
90
  1
23
  0
LINE
  8
_0-d_寸法3
  6
CONTINUOUS
 62
    7
 10
262.5384198531674
 20
238.71245819900923
 11
217.53841985316754
 21
238.71245819900921
  0
LINE
  8
_0-d_寸法3
  6
CONTINUOUS
 62
    7
 10
222.53841985316754
 20
238.71245819900921
 11
225.12661030419267
 21
229.05319993611852
  0
LINE
  8
_0-d_寸法3
  6
CONTINUOUS
 62
    7
 10
222.53841985316754
 20
238.71245819900921
 11
219.95022940214227
 21
229.05319993611855
  0
LINE
  8
_0-d_寸法3
  6
CONTINUOUS
 62
    7
 10
262.5384198531674
 20
200.37912486567598
 11
217.53841985316762
 21
200.37912486567592
  0
LINE
  8
_0-d_寸法3
  6
CONTINUOUS
 62
    7
 10
222.53841985316762
 20
200.37912486567592
 11
219.95022940214241
 21
210.03838312856661
  0
LINE
  8
_0-d_寸法3
  6
CONTINUOUS
 62
    7
 10
222.53841985316762
 20
200.37912486567592
 11
225.12661030419281
 21
210.03838312856661
  0
LINE
  8
_0-d_寸法3
  6
CONTINUOUS
 62
    7
 10
222.53841985316754
 20
238.71245819900921
 11
222.53841985316762
 21
200.37912486567592
  0
TEXT
  8
_0-d_寸法3
 62
    7
 10
222.53841985316754
 20
212.04579153234226
 40
15
 41
1
 50
90
  1
23
  0
LINE
  8
_0-5_寸法線
  6
CONTINUOUS
 62
    7
 10
568.42378139263508
 20
559.89689244468263
 11
573.42378139951666
 21
551.23663841081134
  0
LINE
  8
_0-5_寸法線
  6
CONTINUOUS
 62
    7
 10
568.42378139263508
 20
559.89689244468263
 11
568.42378140058122
 21
549.89689244468263
  0
LINE
  8
_0-5_寸法線
  6
CONTINUOUS
 62
    7
 10
568.42378139263508
 20
559.89689244468263
 11
591.78126458693021
 21
472.72557870370798
  0
LINE
  8
_0-5_寸法線
  6
CONTINUOUS
 62
    7
 10
591.78126458693021
 20
472.72557870370798
 11
723.78126458693032
 21
472.72557870370798
  0
TEXT
  8
_0-5_寸法線
 62
    7
 10
591.78126458693021
 20
472.72557870370798
 40
15
 41
0.8000000000000001
 50
0
  1
セーフティグレーチング
  0
TEXT
  8
_0-5_寸法線
 62
    7
 10
591.7812645357302
 20
457.72557870370798
 40
15
 41
0.8000000000000001
 50
0
  1
ＧＲＳ－２０Ｗ２５０
  0
LINE
  8
_0-5_寸法線
  6
CONTINUOUS
 62
    7
 10
314.90233402841938
 20
652.70959394528472
 11
319.90233402107094
 21
644.04933990319773
  0
LINE
  8
_0-5_寸法線
  6
CONTINUOUS
 62
    7
 10
314.90233402841938
 20
652.70959394528472
 11
314.90233401993413
 21
642.70959394528472
  0
LINE
  8
_0-5_寸法線
  6
CONTINUOUS
 62
    7
 10
314.90233402841938
 20
652.70959394528472
 11
363.12890539922614
 21
472.72557870370798
  0
LINE
  8
_0-5_寸法線
  6
CONTINUOUS
 62
    7
 10
363.12890539922614
 20
472.72557870370798
 11
423.1289053992262
 21
472.72557870370798
  0
TEXT
  8
_0-5_寸法線
 62
    7
 10
363.12890539922614
 20
472.72557870370798
 40
15
 41
0.8000000000000001
 50
0
  1
取　外　具
  0
TEXT
  8
_0-5_寸法線
 62
    7
 10
363.12890539922614
 20
457.72557870370798
 40
15
 41
0.8000000000000001
 50
0
  1
(標準付属)
  0
TEXT
  8
_0-7_枠細線
 62
    5
 10
367.76064958986558
 20
489.98126861190337
 40
12.5
 41
0.8
 50
0
  1
２
  0
LINE
  8
_0-7_枠細線
  6
CONTINUOUS
 62
    5
 10
380.39549832171753
 20
490.28827085728386
 11
372.89549832171753
 21
505.28827085728381
  0
LINE
  8
_0-7_枠細線
  6
CONTINUOUS
 62
    5
 10
365.39549832171753
 20
490.28827085728386
 11
380.39549832171753
 21
490.28827085728386
  0
LINE
  8
_0-7_枠細線
  6
CONTINUOUS
 62
    5
 10
372.89549832171753
 20
505.28827085728381
 11
365.39549832171753
 21
490.28827085728386
  0
LINE
  8
_0-5_寸法線
  6
CONTINUOUS
 62
    7
 10
442.52085581512301
 20
517.07500000000209
 11
447.5208558262475
 21
508.41474596858041
  0
LINE
  8
_0-5_寸法線
  6
CONTINUOUS
 62
    7
 10
442.52085581512301
 20
517.07500000000209
 11
442.52085582796849
 21
507.07500000000209
  0
LINE
  8
_0-5_寸法線
  6
CONTINUOUS
 62
    7
 10
442.52085581512301
 20
517.07500000000209
 11
454.36222537258891
 21
472.88240740740957
  0
LINE
  8
_0-5_寸法線
  6
CONTINUOUS
 62
    7
 10
454.36222537258891
 20
472.88240740740957
 11
562.36222537258891
 21
472.88240740740957
  0
TEXT
  8
_0-5_寸法線
 62
    7
 10
454.36222537258891
 20
473.48240740740948
 40
15
 41
0.8000000000000001
 50
0
  1
ＳＵＳアングル受枠
  0
LINE
  8
_0-7_枠細線
  6
CONTINUOUS
 62
    5
 10
399.1094822364139
 20
490.28827085728386
 11
391.6094822364139
 21
505.28827085728381
  0
LINE
  8
_0-7_枠細線
  6
CONTINUOUS
 62
    5
 10
384.1094822364139
 20
490.28827085728386
 11
399.1094822364139
 21
490.28827085728386
  0
LINE
  8
_0-7_枠細線
  6
CONTINUOUS
 62
    5
 10
391.6094822364139
 20
505.28827085728381
 11
384.1094822364139
 21
490.28827085728386
  0
TEXT
  8
_0-7_枠細線
 62
    5
 10
386.47463350456206
 20
489.7405869671025
 40
12.5
 41
0.8
 50
0
  1
３
  0
TEXT
  8
_0-5_寸法線
 62
    7
 10
454.36222537258891
 20
457.88240740740957
 40
15
 41
0.8000000000000001
 50
0
  1
ＧＳＬ－２０
  0
LINE
  8
_0-7_枠細線
  6
CONTINUOUS
 62
    5
 10
417.82346615111021
 20
490.28827085728386
 11
410.32346615111021
 21
505.28827085728386
  0
LINE
  8
_0-7_枠細線
  6
CONTINUOUS
 62
    5
 10
402.82346615111021
 20
490.28827085728386
 11
417.82346615111021
 21
490.28827085728386
  0
LINE
  8
_0-7_枠細線
  6
CONTINUOUS
 62
    5
 10
410.32346615111021
 20
505.28827085728386
 11
402.82346615111021
 21
490.28827085728386
  0
TEXT
  8
_0-7_枠細線
 62
    5
 10
405.18861741925832
 20
489.7405869671025
 40
12.5
 41
0.8
 50
0
  1
６
  0
LINE
  8
_0-a_極細3
  6
CENTER1
 62
    7
 10
707.352643743405
 20
258.37912486567603
 11
278.81388346553337
 21
258.37912486567603
  0
TEXT
  8
_0-7_枠細線
 62
    5
 10
1183.7499999999998
 20
498.75000000000028
 40
15
 41
1
 50
0
  1
3.0kg/m
  0
TEXT
  8
_0-7_枠細線
 62
    5
 10
1266.2499999999998
 20
498.75000000000028
 40
15
 41
1
 50
0
  1
2.4kg/m組
  0
LINE
  8
_0-b_細線3
  6
CONTINUOUS
 62
    7
 10
288.87175318516074
 20
258.37912486567592
 11
283.86422651849392
 21
258.37912486567592
  0
LINE
  8
_0-b_細線3
  6
CONTINUOUS
 62
    7
 10
288.87175318516074
 20
252.54579153234334
 11
283.86420651849494
 21
252.54579153234334
  0
ARC
  8
_0-b_細線3
  6
CONTINUOUS
 62
    7
 10
283.86420651849494
 20
252.87912486567637
 40
0.3333333333333334
 50
179.99999999999983
 51
269.99999999999977
  0
ARC
  8
_0-b_細線3
  6
CONTINUOUS
 62
    7
 10
296.46083985182759
 20
255.46221486567691
 40
12.929926666666667
 50
166.96197800000505
 51
193.03566999999961
  0
ARC
  8
_0-b_細線3
  6
CONTINUOUS
 62
    7
 10
283.86420651849494
 20
263.87912486567689
 40
0.3333333333333334
 50
89.999999999999915
 51
179.99999999999983
  0
ARC
  8
_0-b_細線3
  6
CONTINUOUS
 62
    7
 10
296.46083985182759
 20
261.29603153234274
 40
12.929926666666667
 50
166.96433000000002
 51
193.03802199999851
  0
LINE
  8
_0-b_細線3
  6
CONTINUOUS
 62
    7
 10
288.87175318516074
 20
264.21245819900992
 11
283.86420651849494
 21
264.21245819900992
  0
LINE
  8
_0-b_細線3
  6
CONTINUOUS
 62
    7
 10
283.53087318516094
 20
252.87912486567637
 11
283.53087318516094
 21
263.87912486567689
  0
ARC
  8
_0-b_細線3
  6
CONTINUOUS
 62
    7
 10
289.20508651849445
 20
247.87912486567635
 40
0.3333333333333334
 50
179.99999999999983
 51
269.99999999999977
  0
ARC
  8
_0-b_細線3
  6
CONTINUOUS
 62
    7
 10
289.20508651849445
 20
268.87912486567592
 40
0.3333333333333334
 50
89.999999999999915
 51
179.99999999999983
  0
LINE
  8
_0-b_細線3
  6
CONTINUOUS
 62
    7
 10
288.87175318516074
 20
257.54579153234289
 11
288.87175318516074
 21
247.87912486567635
  0
LINE
  8
_0-b_細線3
  6
CONTINUOUS
 62
    7
 10
288.87175318516074
 20
268.87912486567592
 11
288.87175318516074
 21
257.54579153234289
  0
LINE
  8
_0-b_細線3
  6
CONTINUOUS
 62
    7
 10
291.37175318436891
 20
247.54579153234289
 11
289.20508651849445
 21
247.54579153234289
  0
LINE
  8
_0-b_細線3
  6
CONTINUOUS
 62
    7
 10
291.37175318595257
 20
269.21245819900992
 11
289.20508651849445
 21
269.21245819900992
  0
LINE
  8
_0-b_細線3
  6
CONTINUOUS
 62
    7
 10
697.20508652117462
 20
258.37912486567592
 11
702.21261318784127
 21
258.37912486567592
  0
LINE
  8
_0-b_細線3
  6
CONTINUOUS
 62
    7
 10
697.20508652117462
 20
252.54579153234334
 11
702.21263318784042
 21
252.54579153234334
  0
ARC
  8
_0-b_細線3
  6
CONTINUOUS
 62
    7
 10
702.21263318784042
 20
252.87912486567637
 40
0.3333333333333334
 50
269.99999999999977
 51
359.99999999999966
  0
ARC
  8
_0-b_細線3
  6
CONTINUOUS
 62
    7
 10
689.61599985450778
 20
255.46221486567691
 40
12.929926666666667
 50
346.96432999999968
 51
13.038021999994573
  0
ARC
  8
_0-b_細線3
  6
CONTINUOUS
 62
    7
 10
702.21263318784042
 20
263.87912486567689
 40
0.3333333333333334
 50
0
 51
89.999999999999915
  0
ARC
  8
_0-b_細線3
  6
CONTINUOUS
 62
    7
 10
689.61599985450778
 20
261.29603153234274
 40
12.929926666666667
 50
346.96197800000073
 51
13.035669999999625
  0
LINE
  8
_0-b_細線3
  6
CONTINUOUS
 62
    7
 10
697.20508652117462
 20
264.21245819900992
 11
702.21263318784042
 21
264.21245819900992
  0
LINE
  8
_0-b_細線3
  6
CONTINUOUS
 62
    7
 10
702.54596652117425
 20
252.87912486567637
 11
702.54596652117425
 21
263.87912486567689
  0
ARC
  8
_0-b_細線3
  6
CONTINUOUS
 62
    7
 10
696.8717531878408
 20
247.87912486567635
 40
0.3333333333333334
 50
269.99999999999977
 51
359.99999999999966
  0
ARC
  8
_0-b_細線3
  6
CONTINUOUS
 62
    7
 10
696.8717531878408
 20
268.87912486567592
 40
0.3333333333333334
 50
0
 51
89.999999999999915
  0
LINE
  8
_0-b_細線3
  6
CONTINUOUS
 62
    7
 10
697.20508652117462
 20
257.54579153234289
 11
697.20508652117462
 21
247.87912486567635
  0
LINE
  8
_0-b_細線3
  6
CONTINUOUS
 62
    7
 10
697.20508652117462
 20
268.87912486567592
 11
697.20508652117462
 21
257.54579153234289
  0
LINE
  8
_0-b_細線3
  6
CONTINUOUS
 62
    7
 10
694.70508652196622
 20
247.54579153234289
 11
696.8717531878408
 21
247.54579153234289
  0
LINE
  8
_0-b_細線3
  6
CONTINUOUS
 62
    7
 10
694.70508652038257
 20
269.21245819900992
 11
696.8717531878408
 21
269.21245819900992
  0
ENDSEC
  0
EOF
