  0
SECTION
  2
HEADER
  9
$ACADVER
  1
AC1009
  9
$INSBASE
 10
0
 20
0
 30
0
  9
$EXTMIN
 10
0
 20
0
  9
$EXTMAX
 10
1485
 20
1050
  9
$LIMMIN
 10
0
 20
0
  9
$LIMMAX
 10
1485
 20
1050
  9
$LTSCALE
 40
5
  0
ENDSEC
  0
SECTION
  2
TABLES
  0
TABLE
  2
LTYPE
 70
     9
  0
LTYPE
  2
CONTINUOUS
 70
    64
  3
実線
 72
    65
 73
     0
 40
0.0
  0
LTYPE
  2
DASHED1
 70
    64
  3
--  --  --  --  --  --  --  --  
 72
    65
 73
     2
 40
2.5
 49
1.25
 49
-1.25
  0
LTYPE
  2
DASHED2
 70
    64
  3
----    ----    ----    ----    
 72
    65
 73
     2
 40
5.0
 49
2.5
 49
-2.5
  0
LTYPE
  2
DASHED3
 70
    64
  3
------  ------  ------  ------  
 72
    65
 73
     2
 40
5.0
 49
3.75
 49
-1.25
  0
LTYPE
  2
CENTER1
 70
    64
  3
----- - ----- - ----- - ----- - 
 72
    65
 73
     4
 40
10.0
 49
6.25
 49
-1.25
 49
1.25
 49
-1.25
  0
LTYPE
  2
CENTER2
 70
    64
  3
----------  --  ----------  --  
 72
    65
 73
     4
 40
20.0
 49
12.5
 49
-2.5
 49
2.5
 49
-2.5
  0
LTYPE
  2
PHANTOM1
 70
    64
  3
--- - - --- - - --- - - --- - - 
 72
    65
 73
     6
 40
10.0
 49
3.25
 49
-1.25
 49
1.25
 49
-1.25
 49
1.25
 49
-1.25
  0
LTYPE
  2
PHANTOM2
 70
    64
  3
--------  -  -  --------  -  -  
 72
    65
 73
     6
 40
20.0
 49
10.0
 49
-2.5
 49
1.25
 49
-2.5
 49
1.25
 49
-2.5
  0
LTYPE
  2
DOT
 70
    64
  3
-   -   -   -   -   -   -   -   
 72
    65
 73
     2
 40
2.5
 49
0.625
 49
-1.875
  0
LTYPE
  2
DUMMY
 70
    64
  3
ダミー
 72
    65
 73
     0
 40
0.0
  0
LTYPE
  2
RAND1
 70
    64
  3
ランダム線1
 72
    65
 73
     4
 40
10.0
 49
1.0
 49
-2.0
 49
3.0
 49
-4.0
  0
LTYPE
  2
RAND2
 70
    64
  3
ランダム線2
 72
    65
 73
     4
 40
14.0
 49
2.0
 49
-3.0
 49
4.0
 49
-5.0
  0
LTYPE
  2
RAND3
 70
    64
  3
ランダム線3
 72
    65
 73
     4
 40
18.0
 49
3.0
 49
-4.0
 49
5.0
 49
-6.0
  0
LTYPE
  2
RAND4
 70
    64
  3
ランダム線4
 72
    65
 73
     4
 40
22.0
 49
4.0
 49
-5.0
 49
6.0
 49
-7.0
  0
LTYPE
  2
RAND5
 70
    64
  3
ランダム線5
 72
    65
 73
     4
 40
26.0
 49
5.0
 49
-6.0
 49
7.0
 49
-8.0
  0
LTYPE
  2
LONG1
 70
    64
  3
----------  --  ----------  --  
 72
    65
 73
     4
 40
40.0
 49
32.5
 49
-2.5
 49
2.5
 49
-2.5
  0
LTYPE
  2
LONG2
 70
    64
  3
--------  -  -  --------  -  -  
 72
    65
 73
     6
 40
40.0
 49
30.0
 49
-2.5
 49
1.25
 49
-2.5
 49
1.25
 49
-2.5
  0
LTYPE
  2
LONG3
 70
    64
  3
+++++++++++++++..+++++++++++++++
 72
    65
 73
     2
 40
40.0
 49
37.5
 49
-2.5
  0
LTYPE
  2
LONG4
 70
    64
  3
+++++++++++++++..+++++++++++++++
 72
    65
 73
     2
 40
80.0
 49
75.0
 49
-5.0
  0
LTYPE
  2
LONG5
 70
    64
  3
----------  --  ----------  --  
 72
    65
 73
     4
 40
60.0
 49
37.5
 49
-7.5
 49
7.5
 49
-7.5
  0
LTYPE
  2
dashed
 70
   64
  3
-------   -------------   ------
 72
   65
 73
    2
 40
7.5
 49
6
 49
-1.5
  0
LTYPE
  2
dashed_spaced
 70
   64
  3
----        --------        ----
 72
   65
 73
    2
 40
12
 49
6
 49
-6
  0
LTYPE
  2
long_dashed_dotted
 70
   64
  3
------------- --- --------------
 72
   65
 73
    4
 40
15.25
 49
12
 49
-1.5
 49
0.25
 49
-1.5
  0
LTYPE
  2
long_dashed_double-dotted
 70
   64
  3
----------- --- --- ------------
 72
   65
 73
    6
 40
17
 49
12
 49
-1.5
 49
0.25
 49
-1.5
 49
0.25
 49
-1.5
  0
LTYPE
  2
long_dashed_triplicate-dotted
 70
   64
  3
--------- --- --- --- ----------
 72
   65
 73
    8
 40
18.75
 49
12
 49
-1.5
 49
0.25
 49
-1.5
 49
0.25
 49
-1.5
 49
0.25
 49
-1.5
  0
LTYPE
  2
dotted
 70
   64
  3
   -       -       -       -    
 72
   65
 73
    2
 40
1.75
 49
0.25
 49
-1.5
  0
LTYPE
  2
chain
 70
   64
  3
-------------- -- --------------
 72
   65
 73
    4
 40
18.5
 49
12
 49
-1.5
 49
3.5
 49
-1.5
  0
LTYPE
  2
chain_double_dash
 70
   64
  3
------------ -- -- -------------
 72
   65
 73
    6
 40
23.5
 49
12
 49
-1.5
 49
3.5
 49
-1.5
 49
3.5
 49
-1.5
  0
LTYPE
  2
dashed_dotted
 70
   64
  3
-----------     -     ----------
 72
   65
 73
    4
 40
9.25
 49
6
 49
-1.5
 49
0.25
 49
-1.5
  0
LTYPE
  2
double-dashed_dotted
 70
   64
  3
------   -----------   -   -----
 72
   65
 73
    6
 40
16.75
 49
6
 49
-1.5
 49
6
 49
-1.5
 49
0.25
 49
-1.5
  0
LTYPE
  2
dashed_double-dotted
 70
   64
  3
---------    -    -    ---------
 72
   65
 73
    6
 40
11
 49
6
 49
-1.5
 49
0.25
 49
-1.5
 49
0.25
 49
-1.5
  0
LTYPE
  2
double-dashed_double-dotted
 70
   64
  3
-----   ---------   -   -   ----
 72
   65
 73
    8
 40
18.5
 49
6
 49
-1.5
 49
6
 49
-1.5
 49
0.25
 49
-1.5
 49
0.25
 49
-1.5
  0
LTYPE
  2
dashed_triplicate-dotted
 70
   64
  3
-------    -    -    -    ------
 72
   65
 73
    8
 40
12.75
 49
6
 49
-1.5
 49
0.25
 49
-1.5
 49
0.25
 49
-1.5
 49
0.25
 49
-1.5
  0
LTYPE
  2
double-dashed_triplicate-dotted
 70
   64
  3
-----  ---------  -  -  -  -----
 72
   65
 73
   10
 40
20.25
 49
6
 49
-1.5
 49
6
 49
-1.5
 49
0.25
 49
-1.5
 49
0.25
 49
-1.5
 49
0.25
 49
-1.5
  0
LTYPE
  2
undefined
 70
   64
  3
--------------------------------
 72
   65
 73
    0
 40
0
  0
ENDTAB
  0
TABLE
  2
STYLE
  5
3
100
AcDbSymbolTable
 70
     1
  0
STYLE
  5
10
100
AcDbSymbolTableRecord
100
AcDbTextStyleTableRecord
  2
STANDARD
 70
     0
 40
0.0
 41
1.0
 50
0.0
 71
     0
 42
0.2
  3
txt
  4
bigfont.shx
  0
STYLE
  5
26
100
AcDbSymbolTableRecord
100
AcDbTextStyleTableRecord
  2
TATEGAKI
 70
    68
 40
0.0
 41
1.0
 50
0.0
 71
     0
 42
1.0
  3
txt
  4
bigfont.shx
  0
ENDTAB
  0
TABLE
  2
LAYER
 70
   10
  0
LAYER
  2
_0-0_計極細
 70
   64
 62
    7
  6
CONTINUOUS
  0
LAYER
  2
_0-1_計細線
 70
   64
 62
    7
  6
CONTINUOUS
  0
LAYER
  2
_0-5_寸法線
 70
   64
 62
    7
  6
CONTINUOUS
  0
LAYER
  2
_0-7_枠細線
 70
   64
 62
    7
  6
CONTINUOUS
  0
LAYER
  2
_0-8_枠中線
 70
   64
 62
    7
  6
CONTINUOUS
  0
LAYER
  2
_0-9_枠極太
 70
   64
 62
    7
  6
CONTINUOUS
  0
LAYER
  2
_0-a_極細3
 70
   64
 62
    7
  6
CONTINUOUS
  0
LAYER
  2
_0-b_細線3
 70
   64
 62
    7
  6
CONTINUOUS
  0
LAYER
  2
_0-d_寸法3
 70
   64
 62
    7
  6
CONTINUOUS
  0
LAYER
  2
ADD_LINE
 70
   64
 62
    7
  6
CONTINUOUS
  0
ENDTAB
  0
ENDSEC
  0
SECTION
  2
BLOCKS
  0
ENDSEC
  0
SECTION
  2
ENTITIES
  0
LINE
  8
_0-7_枠細線
  6
CONTINUOUS
 62
    5
 10
1185
 20
180
 11
1185
 21
100
  0
TEXT
  8
_0-7_枠細線
 62
    5
 10
937.5
 20
97.5
 40
17.5
 41
1
 50
0
  1
備考
  7
TATEGAKI
  0
TEXT
  8
_0-7_枠細線
 62
    5
 10
937.5
 20
137.5
 40
17.5
 41
1
 50
0
  1
品番
  7
TATEGAKI
  0
TEXT
  8
_0-7_枠細線
 62
    5
 10
937.5
 20
177.5
 40
17.5
 41
1
 50
0
  1
品名
  7
TATEGAKI
  0
LINE
  8
_0-7_枠細線
  6
CONTINUOUS
 62
    5
 10
1185
 20
140
 11
925
 21
140
  0
LINE
  8
_0-7_枠細線
  6
CONTINUOUS
 62
    5
 10
950
 20
180
 11
950
 21
60
  0
LINE
  8
_0-8_枠中線
  6
CONTINUOUS
 62
    5
 10
1425
 20
180
 11
925
 21
180
  0
LINE
  8
_0-8_枠中線
  6
CONTINUOUS
 62
    5
 10
925
 20
180
 11
925
 21
60
  0
LINE
  8
_0-7_枠細線
  6
CONTINUOUS
 62
    5
 10
1245
 20
180
 11
1245
 21
60
  0
TEXT
  8
_0-7_枠細線
 62
    5
 10
1192.5
 20
160
 40
15
 41
1
 50
0
  1
縮　尺
  0
LINE
  8
_0-7_枠細線
  6
CONTINUOUS
 62
    5
 10
1185
 20
155
 11
1245
 21
155
  0
LINE
  8
_0-7_枠細線
  6
CONTINUOUS
 62
    5
 10
1245
 20
100
 11
925
 21
100
  0
LINE
  8
_0-7_枠細線
  6
CONTINUOUS
 62
    5
 10
1425
 20
90
 11
1245
 21
90
  0
LINE
  8
_0-7_枠細線
  6
CONTINUOUS
 62
    5
 10
1245
 20
120
 11
1425
 21
120
  0
LINE
  8
_0-7_枠細線
  6
CONTINUOUS
 62
    5
 10
1425
 20
140
 11
1245
 21
140
  0
TEXT
  8
_0-7_枠細線
 62
    5
 10
1255
 20
147.5
 40
25
 41
0.8
 50
0
  1
株式会社シマブン
  0
TEXT
  8
_0-7_枠細線
 62
    5
 10
1252.5
 20
60
 40
15
 41
1
 50
0
  1
年月日
  0
TEXT
  8
_0-7_枠細線
 62
    5
 10
1252.5
 20
75
 40
15
 41
1
 50
0
  1
作　成
  0
TEXT
  8
_0-7_枠細線
 62
    5
 10
1256.25
 20
122.5
 40
15
 41
1
 50
0
  1
承 認
  0
LINE
  8
_0-7_枠細線
  6
CONTINUOUS
 62
    5
 10
1305
 20
140
 11
1305
 21
60
  0
TEXT
  8
_0-7_枠細線
 62
    5
 10
1316.25
 20
122.5
 40
15
 41
1
 50
0
  1
検 図
  0
LINE
  8
_0-7_枠細線
  6
CONTINUOUS
 62
    5
 10
1365
 20
140
 11
1365
 21
90
  0
TEXT
  8
_0-7_枠細線
 62
    5
 10
1375
 20
95
 40
20
 41
1
 50
0
  1
藤戸
  0
TEXT
  8
_0-7_枠細線
 62
    5
 10
1376.25
 20
122.5
 40
15
 41
1
 50
0
  1
設 計
  0
TEXT
  8
_0-7_枠細線
 62
    5
 10
1255
 20
95
 40
20
 41
1
 50
0
  1
隠塚
  0
TEXT
  8
_0-7_枠細線
 62
    5
 10
1315
 20
95
 40
20
 41
1
 50
0
  1
渋田
  0
TEXT
  8
_0-7_枠細線
 62
    5
 10
1193.9999999999998
 20
117.5
 40
20
 41
0.7000000000000001
 50
0
  1
１：５
  0
TEXT
  8
_0-7_枠細線
 62
    5
 10
960.5
 20
69.999999999999858
 40
20
 41
0.5999999999999998
 50
0
  1
品番・色については表参照のこと
  0
TEXT
  8
_0-7_枠細線
 62
    5
 10
1309.9999999999998
 20
67.499999999999929
 40
15.000000000000009
 41
0.6666666666666665
 50
0
  1
２０１０年０３月０１日
  0
TEXT
  8
_0-7_枠細線
 62
    5
 10
960.5
 20
158.74999999999994
 40
20.000000000000007
 41
0.5999999999999998
 50
0
  1
セーフティグレーチングＨ２５タイプ
  0
TEXT
  8
_0-7_枠細線
 62
    5
 10
1128.5
 20
141.25
 40
20.000000000000007
 41
0.5999999999999998
 50
0
  1
集水マス
  0
LINE
  8
_0-7_枠細線
  6
CONTINUOUS
 62
    5
 10
1425
 20
942.5
 11
890
 21
942.5
  0
TEXT
  8
_0-7_枠細線
 62
    5
 10
895
 20
945
 40
12.5
 41
1
 50
0
  1
記号
  0
TEXT
  8
_0-7_枠細線
 62
    5
 10
996.875
 20
945
 40
12.5
 41
1
 50
0
  1
訂　 正　 記　 事
  0
TEXT
  8
_0-7_枠細線
 62
    5
 10
1181.25
 20
945
 40
12.5
 41
1
 50
0
  1
訂 正 年 月 日
  0
TEXT
  8
_0-7_枠細線
 62
    5
 10
1306.25
 20
945
 40
12.5
 41
1
 50
0
  1
備　　　　　考
  0
LINE
  8
_0-7_枠細線
  6
CONTINUOUS
 62
    5
 10
1425
 20
925
 11
890
 21
925
  0
TEXT
  8
_0-7_枠細線
 62
    5
 10
938.85037037037023
 20
927.5
 40
12.5
 41
1
 50
0
  1
品番・色記号変更
  0
TEXT
  8
_0-7_枠細線
 62
    5
 10
1180
 20
927.5
 40
12.5
 41
0.7199999999999999
 50
0
  1
２０１３．０３．１３
  0
LINE
  8
_0-7_枠細線
  6
CONTINUOUS
 62
    5
 10
1425
 20
907.5
 11
890
 21
907.5
  0
LINE
  8
_0-7_枠細線
  6
CONTINUOUS
 62
    5
 10
1425
 20
890
 11
890
 21
890
  0
TEXT
  8
_0-7_枠細線
 62
    5
 10
938.85037037037023
 20
910
 40
12.5
 41
1
 50
0
  1
クロスバーピッチ変更
  0
TEXT
  8
_0-7_枠細線
 62
    5
 10
938.85037037037023
 20
892.5
 40
12.5
 41
1
 50
0
  1
取外具形状変更
  0
TEXT
  8
_0-7_枠細線
 62
    5
 10
1180
 20
910
 40
12.5
 41
0.7199999999999999
 50
0
  1
２０１５．１１．２０
  0
LINE
  8
_0-7_枠細線
  6
CONTINUOUS
 62
    5
 10
915
 20
908.94233397174685
 11
907.5
 21
923.94233397174685
  0
LINE
  8
_0-7_枠細線
  6
CONTINUOUS
 62
    5
 10
900
 20
908.94233397174685
 11
915
 21
908.94233397174685
  0
LINE
  8
_0-7_枠細線
  6
CONTINUOUS
 62
    5
 10
907.5
 20
923.94233397174685
 11
900
 21
908.94233397174685
  0
TEXT
  8
_0-7_枠細線
 62
    5
 10
902.36515126814822
 20
908.63533172636664
 40
12.5
 41
0.8
 50
0
  1
１
  0
TEXT
  8
_0-7_枠細線
 62
    5
 10
902.36515126814822
 20
891.13533172636664
 40
12.5
 41
0.8
 50
0
  1
２
  0
LINE
  8
_0-7_枠細線
  6
CONTINUOUS
 62
    5
 10
1425
 20
872.5
 11
890
 21
872.5
  0
LINE
  8
_0-7_枠細線
  6
CONTINUOUS
 62
    5
 10
907.5
 20
906.44233397174685
 11
900
 21
891.44233397174685
  0
LINE
  8
_0-7_枠細線
  6
CONTINUOUS
 62
    5
 10
900
 20
891.44233397174685
 11
915
 21
891.44233397174685
  0
LINE
  8
_0-7_枠細線
  6
CONTINUOUS
 62
    5
 10
915
 20
891.44233397174685
 11
907.5
 21
906.44233397174685
  0
TEXT
  8
_0-7_枠細線
 62
    5
 10
902.36515126814822
 20
873.39465008156549
 40
12.5
 41
0.8
 50
0
  1
３
  0
TEXT
  8
_0-7_枠細線
 62
    5
 10
1180
 20
875
 40
12.5
 41
0.7199999999999999
 50
0
  1
２０１７．０４．０１
  0
LINE
  8
_0-7_枠細線
  6
CONTINUOUS
 62
    5
 10
915
 20
856.44233397174685
 11
907.5
 21
871.44233397174685
  0
LINE
  8
_0-7_枠細線
  6
CONTINUOUS
 62
    5
 10
900
 20
856.44233397174685
 11
915
 21
856.44233397174685
  0
LINE
  8
_0-7_枠細線
  6
CONTINUOUS
 62
    5
 10
907.5
 20
871.44233397174685
 11
900
 21
856.44233397174685
  0
TEXT
  8
_0-7_枠細線
 62
    5
 10
1180
 20
857.5
 40
12.5
 41
0.7199999999999999
 50
0
  1
２０１７．０４．０１
  0
TEXT
  8
_0-7_枠細線
 62
    5
 10
938.85037037037023
 20
857.5
 40
12.5
 41
1
 50
0
  1
ブラウン色（Ｃ）追加
  0
LINE
  8
_0-7_枠細線
  6
CONTINUOUS
 62
    5
 10
1425
 20
855
 11
890
 21
855
  0
LINE
  8
_0-7_枠細線
  6
CONTINUOUS
 62
    5
 10
907.5
 20
888.94233397174685
 11
900
 21
873.94233397174685
  0
LINE
  8
_0-7_枠細線
  6
CONTINUOUS
 62
    5
 10
900
 20
873.94233397174685
 11
915
 21
873.94233397174685
  0
LINE
  8
_0-7_枠細線
  6
CONTINUOUS
 62
    5
 10
915
 20
873.94233397174685
 11
907.5
 21
888.94233397174685
  0
TEXT
  8
_0-7_枠細線
 62
    5
 10
902.36515126814822
 20
855.49351400689704
 40
12.5
 41
0.8
 50
0
  1
４
  0
TEXT
  8
_0-7_枠細線
 62
    5
 10
938.85037037037023
 20
875
 40
12.5
 41
1
 50
0
  1
取外具形状変更
  0
TEXT
  8
_0-7_枠細線
 62
    5
 10
1180
 20
892.5
 40
12.5
 41
0.7199999999999999
 50
0
  1
２０１５．１１．２０
  0
LINE
  8
_0-9_枠極太
  6
CONTINUOUS
 62
    5
 10
60
 20
60
 11
60
 21
960
  0
LINE
  8
_0-9_枠極太
  6
CONTINUOUS
 62
    5
 10
60
 20
960
 11
1425
 21
960
  0
LINE
  8
_0-9_枠極太
  6
CONTINUOUS
 62
    5
 10
1425
 20
960
 11
1425
 21
60
  0
LINE
  8
_0-9_枠極太
  6
CONTINUOUS
 62
    5
 10
1425
 20
60
 11
60
 21
60
  0
LINE
  8
_0-7_枠細線
  6
CONTINUOUS
 62
    5
 10
915
 20
838.94233397174685
 11
907.5
 21
853.94233397174685
  0
LINE
  8
_0-7_枠細線
  6
CONTINUOUS
 62
    5
 10
900
 20
838.94233397174685
 11
915
 21
838.94233397174685
  0
LINE
  8
_0-7_枠細線
  6
CONTINUOUS
 62
    5
 10
907.5
 20
853.94233397174685
 11
900
 21
838.94233397174685
  0
LINE
  8
_0-7_枠細線
  6
CONTINUOUS
 62
    5
 10
1425
 20
837.5
 11
890
 21
837.5
  0
TEXT
  8
_0-7_枠細線
 62
    5
 10
1180
 20
840
 40
12.5
 41
0.7199999999999999
 50
0
  1
２０１９．０９．０１
  0
TEXT
  8
_0-7_枠細線
 62
    5
 10
902.36515126814822
 20
837.99351400689704
 40
12.5
 41
0.8
 50
0
  1
５
  0
TEXT
  8
_0-7_枠細線
 62
    5
 10
938.85037037037023
 20
840
 40
12.5
 41
1
 50
0
  1
アンカー材質･厚み変更
  0
TEXT
  8
_0-7_枠細線
 62
    5
 10
960.5
 20
109.99999999999993
 40
20.000000000000007
 41
0.5999999999999998
 50
0
  1
ＧＲＳ－２５Ｋ１５０
  0
LINE
  8
_0-1_計細線
  6
CONTINUOUS
 62
    3
 10
373.5179582409711
 20
560.30583080107976
 11
373.5179582409711
 21
548.90583080107922
  0
LINE
  8
_0-1_計細線
  6
CONTINUOUS
 62
    3
 10
373.5179582409711
 20
548.90583080107922
 11
523.51795824097144
 21
548.90583080107922
  0
LINE
  8
_0-1_計細線
  6
CONTINUOUS
 62
    3
 10
523.51795824097144
 20
560.30583080107976
 11
523.51795824097144
 21
548.90583080107922
  0
LINE
  8
_0-0_計極細
  6
CONTINUOUS
 62
    2
 10
373.5179582409711
 20
552.10583080107949
 11
523.51795824097144
 21
552.10583080107949
  0
LINE
  8
_0-0_計極細
  6
CONTINUOUS
 62
    2
 10
373.5179582409711
 20
557.10583080107949
 11
523.51795824097144
 21
557.10583080107949
  0
LINE
  8
_0-1_計細線
  6
CONTINUOUS
 62
    3
 10
373.5179582409711
 20
560.30583080107976
 11
523.51795824097144
 21
560.30583080107976
  0
LINE
  8
_0-1_計細線
  6
CONTINUOUS
 62
    3
 10
373.5179582409711
 20
577.70583080108031
 11
373.5179582409711
 21
566.30583080107976
  0
LINE
  8
_0-0_計極細
  6
CONTINUOUS
 62
    2
 10
374.01795824097115
 20
566.30583080107976
 11
374.01795824097115
 21
560.30583080107976
  0
LINE
  8
_0-0_計極細
  6
CONTINUOUS
 62
    2
 10
387.0179582409711
 20
566.30583080107976
 11
387.0179582409711
 21
560.30583080107976
  0
LINE
  8
_0-1_計細線
  6
CONTINUOUS
 62
    3
 10
373.5179582409711
 20
577.70583080108031
 11
523.51795824097144
 21
577.70583080108031
  0
LINE
  8
_0-1_計細線
  6
CONTINUOUS
 62
    3
 10
523.51795824097144
 20
577.70583080108031
 11
523.51795824097144
 21
566.30583080107976
  0
LINE
  8
_0-0_計極細
  6
CONTINUOUS
 62
    2
 10
373.5179582409711
 20
569.50583080108004
 11
523.51795824097144
 21
569.50583080108004
  0
LINE
  8
_0-0_計極細
  6
CONTINUOUS
 62
    2
 10
373.5179582409711
 20
574.50583080108004
 11
523.51795824097144
 21
574.50583080108004
  0
LINE
  8
_0-1_計細線
  6
CONTINUOUS
 62
    3
 10
373.5179582409711
 20
566.30583080107976
 11
523.51795824097144
 21
566.30583080107976
  0
LINE
  8
_0-0_計極細
  6
CONTINUOUS
 62
    2
 10
510.01795824097115
 20
566.30583080107976
 11
510.01795824097115
 21
560.30583080107976
  0
LINE
  8
_0-0_計極細
  6
CONTINUOUS
 62
    2
 10
523.0179582409711
 20
566.30583080107976
 11
523.0179582409711
 21
560.30583080107976
  0
LINE
  8
_0-0_計極細
  6
CONTINUOUS
 62
    2
 10
471.0179582409711
 20
560.95583080107986
 11
471.0179582409711
 21
560.30583080107976
  0
LINE
  8
_0-0_計極細
  6
CONTINUOUS
 62
    2
 10
484.01795824097115
 20
560.95583080107986
 11
484.01795824097115
 21
560.30583080107976
  0
LINE
  8
_0-0_計極細
  6
CONTINUOUS
 62
    2
 10
471.0179582409711
 20
566.30583080107976
 11
471.0179582409711
 21
565.65583080107967
  0
LINE
  8
_0-0_計極細
  6
CONTINUOUS
 62
    2
 10
484.01795824097115
 20
566.30583080107976
 11
484.01795824097115
 21
565.65583080107967
  0
LINE
  8
_0-1_計細線
  6
CONTINUOUS
 62
    3
 10
373.5179582409711
 20
595.10583080107972
 11
523.51795824097144
 21
595.10583080107972
  0
LINE
  8
_0-1_計細線
  6
CONTINUOUS
 62
    3
 10
373.5179582409711
 20
583.70583080107917
 11
523.51795824097144
 21
583.70583080107917
  0
LINE
  8
_0-1_計細線
  6
CONTINUOUS
 62
    3
 10
373.5179582409711
 20
595.10583080107972
 11
373.5179582409711
 21
583.70583080107917
  0
LINE
  8
_0-1_計細線
  6
CONTINUOUS
 62
    3
 10
523.51795824097144
 20
595.10583080107972
 11
523.51795824097144
 21
583.70583080107917
  0
LINE
  8
_0-0_計極細
  6
CONTINUOUS
 62
    2
 10
373.5179582409711
 20
586.90583080107945
 11
523.51795824097144
 21
586.90583080107945
  0
LINE
  8
_0-0_計極細
  6
CONTINUOUS
 62
    2
 10
373.5179582409711
 20
591.90583080107945
 11
523.51795824097144
 21
591.90583080107945
  0
LINE
  8
_0-0_計極細
  6
CONTINUOUS
 62
    2
 10
374.01795824097115
 20
583.70583080107917
 11
374.01795824097115
 21
577.70583080108031
  0
LINE
  8
_0-0_計極細
  6
CONTINUOUS
 62
    2
 10
387.0179582409711
 20
583.70583080107917
 11
387.0179582409711
 21
577.70583080108031
  0
LINE
  8
_0-0_計極細
  6
CONTINUOUS
 62
    2
 10
471.0179582409711
 20
583.70583080107917
 11
471.0179582409711
 21
577.70583080108031
  0
LINE
  8
_0-0_計極細
  6
CONTINUOUS
 62
    2
 10
484.01795824097115
 20
583.70583080107917
 11
484.01795824097115
 21
577.70583080108031
  0
LINE
  8
_0-0_計極細
  6
CONTINUOUS
 62
    2
 10
510.01795824097115
 20
583.70583080107917
 11
510.01795824097115
 21
577.70583080108031
  0
LINE
  8
_0-0_計極細
  6
CONTINUOUS
 62
    2
 10
523.0179582409711
 20
583.70583080107917
 11
523.0179582409711
 21
577.70583080108031
  0
LINE
  8
_0-1_計細線
  6
CONTINUOUS
 62
    3
 10
373.5179582409711
 20
612.50583080108026
 11
523.51795824097144
 21
612.50583080108026
  0
LINE
  8
_0-1_計細線
  6
CONTINUOUS
 62
    3
 10
373.5179582409711
 20
601.10583080107972
 11
523.51795824097144
 21
601.10583080107972
  0
LINE
  8
_0-1_計細線
  6
CONTINUOUS
 62
    3
 10
373.5179582409711
 20
612.50583080108026
 11
373.5179582409711
 21
601.10583080107972
  0
LINE
  8
_0-1_計細線
  6
CONTINUOUS
 62
    3
 10
523.51795824097144
 20
612.50583080108026
 11
523.51795824097144
 21
601.10583080107972
  0
LINE
  8
_0-0_計極細
  6
CONTINUOUS
 62
    2
 10
373.5179582409711
 20
604.30583080107999
 11
523.51795824097144
 21
604.30583080107999
  0
LINE
  8
_0-0_計極細
  6
CONTINUOUS
 62
    2
 10
373.5179582409711
 20
609.30583080107999
 11
523.51795824097144
 21
609.30583080107999
  0
LINE
  8
_0-0_計極細
  6
CONTINUOUS
 62
    2
 10
374.01795824097115
 20
601.10583080107972
 11
374.01795824097115
 21
595.10583080107972
  0
LINE
  8
_0-0_計極細
  6
CONTINUOUS
 62
    2
 10
387.0179582409711
 20
601.10583080107972
 11
387.0179582409711
 21
595.10583080107972
  0
LINE
  8
_0-0_計極細
  6
CONTINUOUS
 62
    2
 10
471.0179582409711
 20
601.10583080107972
 11
471.0179582409711
 21
595.10583080107972
  0
LINE
  8
_0-0_計極細
  6
CONTINUOUS
 62
    2
 10
484.01795824097115
 20
601.10583080107972
 11
484.01795824097115
 21
595.10583080107972
  0
LINE
  8
_0-0_計極細
  6
CONTINUOUS
 62
    2
 10
510.01795824097115
 20
601.10583080107972
 11
510.01795824097115
 21
595.10583080107972
  0
LINE
  8
_0-0_計極細
  6
CONTINUOUS
 62
    2
 10
523.0179582409711
 20
601.10583080107972
 11
523.0179582409711
 21
595.10583080107972
  0
LINE
  8
_0-1_計細線
  6
CONTINUOUS
 62
    3
 10
373.5179582409711
 20
629.6058308010804
 11
523.51795824097144
 21
629.6058308010804
  0
LINE
  8
_0-1_計細線
  6
CONTINUOUS
 62
    3
 10
373.5179582409711
 20
618.20583080107986
 11
523.51795824097144
 21
618.20583080107986
  0
LINE
  8
_0-1_計細線
  6
CONTINUOUS
 62
    3
 10
373.5179582409711
 20
629.6058308010804
 11
373.5179582409711
 21
618.20583080107986
  0
LINE
  8
_0-1_計細線
  6
CONTINUOUS
 62
    3
 10
523.51795824097144
 20
629.6058308010804
 11
523.51795824097144
 21
618.20583080107986
  0
LINE
  8
_0-0_計極細
  6
CONTINUOUS
 62
    2
 10
373.5179582409711
 20
621.40583080108013
 11
523.51795824097144
 21
621.40583080108013
  0
LINE
  8
_0-0_計極細
  6
CONTINUOUS
 62
    2
 10
373.5179582409711
 20
626.40583080108013
 11
523.51795824097144
 21
626.40583080108013
  0
LINE
  8
_0-0_計極細
  6
CONTINUOUS
 62
    2
 10
374.01795824097115
 20
618.20583080108122
 11
374.01795824097115
 21
612.50583080108026
  0
LINE
  8
_0-0_計極細
  6
CONTINUOUS
 62
    2
 10
387.0179582409711
 20
618.20583080108122
 11
387.0179582409711
 21
612.50583080108026
  0
LINE
  8
_0-0_計極細
  6
CONTINUOUS
 62
    2
 10
471.0179582409711
 20
618.20583080108122
 11
471.0179582409711
 21
612.50583080108026
  0
LINE
  8
_0-0_計極細
  6
CONTINUOUS
 62
    2
 10
484.01795824097115
 20
618.20583080108122
 11
484.01795824097115
 21
612.50583080108026
  0
LINE
  8
_0-0_計極細
  6
CONTINUOUS
 62
    2
 10
510.01795824097115
 20
618.20583080108122
 11
510.01795824097115
 21
612.50583080108026
  0
LINE
  8
_0-0_計極細
  6
CONTINUOUS
 62
    2
 10
523.0179582409711
 20
618.20583080108122
 11
523.0179582409711
 21
612.50583080108026
  0
LINE
  8
_0-1_計細線
  6
CONTINUOUS
 62
    3
 10
525.51795824097189
 20
631.6058308010804
 11
371.51795824097115
 21
631.6058308010804
  0
LINE
  8
_0-0_計極細
  6
CONTINUOUS
 62
    2
 10
374.01795824097115
 20
548.90583080107922
 11
374.01795824097115
 21
542.90583080107467
  0
LINE
  8
_0-0_計極細
  6
CONTINUOUS
 62
    2
 10
387.0179582409711
 20
548.90583080107922
 11
387.0179582409711
 21
542.90583080107467
  0
LINE
  8
_0-0_計極細
  6
CONTINUOUS
 62
    2
 10
471.0179582409711
 20
548.90583080107922
 11
471.0179582409711
 21
542.90583080107467
  0
LINE
  8
_0-0_計極細
  6
CONTINUOUS
 62
    2
 10
484.01795824097115
 20
548.90583080107922
 11
484.01795824097115
 21
542.90583080107467
  0
LINE
  8
_0-1_計細線
  6
CONTINUOUS
 62
    3
 10
373.5179582409711
 20
531.50583080107867
 11
523.51795824097144
 21
531.50583080107867
  0
LINE
  8
_0-1_計細線
  6
CONTINUOUS
 62
    3
 10
373.5179582409711
 20
542.90583080107922
 11
523.51795824097144
 21
542.90583080107922
  0
LINE
  8
_0-1_計細線
  6
CONTINUOUS
 62
    3
 10
373.5179582409711
 20
531.50583080107867
 11
373.5179582409711
 21
542.90583080107922
  0
LINE
  8
_0-1_計細線
  6
CONTINUOUS
 62
    3
 10
523.51795824097144
 20
531.50583080107867
 11
523.51795824097144
 21
542.90583080107922
  0
LINE
  8
_0-0_計極細
  6
CONTINUOUS
 62
    2
 10
373.5179582409711
 20
539.70583080107895
 11
523.51795824097144
 21
539.70583080107895
  0
LINE
  8
_0-0_計極細
  6
CONTINUOUS
 62
    2
 10
373.5179582409711
 20
534.70583080107895
 11
523.51795824097144
 21
534.70583080107895
  0
LINE
  8
_0-0_計極細
  6
CONTINUOUS
 62
    2
 10
510.01795824097115
 20
548.90583080107922
 11
510.01795824097115
 21
542.90583080107467
  0
LINE
  8
_0-0_計極細
  6
CONTINUOUS
 62
    2
 10
523.0179582409711
 20
548.90583080107922
 11
523.0179582409711
 21
542.90583080107467
  0
LINE
  8
_0-1_計細線
  6
CONTINUOUS
 62
    3
 10
373.5179582409711
 20
514.10583080107926
 11
523.51795824097144
 21
514.10583080107926
  0
LINE
  8
_0-1_計細線
  6
CONTINUOUS
 62
    3
 10
373.5179582409711
 20
525.50583080107981
 11
523.51795824097144
 21
525.50583080107981
  0
LINE
  8
_0-1_計細線
  6
CONTINUOUS
 62
    3
 10
373.5179582409711
 20
514.10583080107926
 11
373.5179582409711
 21
525.50583080107981
  0
LINE
  8
_0-1_計細線
  6
CONTINUOUS
 62
    3
 10
523.51795824097144
 20
514.10583080107926
 11
523.51795824097144
 21
525.50583080107981
  0
LINE
  8
_0-0_計極細
  6
CONTINUOUS
 62
    2
 10
373.5179582409711
 20
522.30583080107908
 11
523.51795824097144
 21
522.30583080107908
  0
LINE
  8
_0-0_計極細
  6
CONTINUOUS
 62
    2
 10
373.5179582409711
 20
517.30583080107908
 11
523.51795824097144
 21
517.30583080107908
  0
LINE
  8
_0-0_計極細
  6
CONTINUOUS
 62
    2
 10
374.01795824097115
 20
525.50583080107981
 11
374.01795824097115
 21
531.50583080107867
  0
LINE
  8
_0-0_計極細
  6
CONTINUOUS
 62
    2
 10
387.0179582409711
 20
525.50583080107981
 11
387.0179582409711
 21
531.50583080107867
  0
LINE
  8
_0-0_計極細
  6
CONTINUOUS
 62
    2
 10
471.0179582409711
 20
525.50583080107981
 11
471.0179582409711
 21
531.50583080107867
  0
LINE
  8
_0-0_計極細
  6
CONTINUOUS
 62
    2
 10
484.01795824097115
 20
525.50583080107981
 11
484.01795824097115
 21
531.50583080107867
  0
LINE
  8
_0-0_計極細
  6
CONTINUOUS
 62
    2
 10
510.01795824097115
 20
525.50583080107981
 11
510.01795824097115
 21
531.50583080107867
  0
LINE
  8
_0-0_計極細
  6
CONTINUOUS
 62
    2
 10
523.0179582409711
 20
525.50583080107981
 11
523.0179582409711
 21
531.50583080107867
  0
LINE
  8
_0-1_計細線
  6
CONTINUOUS
 62
    3
 10
373.5179582409711
 20
496.70583080107946
 11
523.51795824097144
 21
496.70583080107946
  0
LINE
  8
_0-1_計細線
  6
CONTINUOUS
 62
    3
 10
373.5179582409711
 20
508.10583080107995
 11
523.51795824097144
 21
508.10583080107995
  0
LINE
  8
_0-1_計細線
  6
CONTINUOUS
 62
    3
 10
373.5179582409711
 20
496.70583080107946
 11
373.5179582409711
 21
508.10583080107995
  0
LINE
  8
_0-1_計細線
  6
CONTINUOUS
 62
    3
 10
523.51795824097144
 20
496.70583080107946
 11
523.51795824097144
 21
508.10583080107995
  0
LINE
  8
_0-0_計極細
  6
CONTINUOUS
 62
    2
 10
373.5179582409711
 20
504.90583080107967
 11
523.51795824097144
 21
504.90583080107967
  0
LINE
  8
_0-0_計極細
  6
CONTINUOUS
 62
    2
 10
373.5179582409711
 20
499.90583080107967
 11
523.51795824097144
 21
499.90583080107967
  0
LINE
  8
_0-0_計極細
  6
CONTINUOUS
 62
    2
 10
374.01795824097115
 20
508.10583080107995
 11
374.01795824097115
 21
514.10583080107926
  0
LINE
  8
_0-0_計極細
  6
CONTINUOUS
 62
    2
 10
387.0179582409711
 20
508.10583080107995
 11
387.0179582409711
 21
514.10583080107926
  0
LINE
  8
_0-0_計極細
  6
CONTINUOUS
 62
    2
 10
471.0179582409711
 20
508.10583080107995
 11
471.0179582409711
 21
514.10583080107926
  0
LINE
  8
_0-0_計極細
  6
CONTINUOUS
 62
    2
 10
484.01795824097115
 20
508.10583080107995
 11
484.01795824097115
 21
514.10583080107926
  0
LINE
  8
_0-0_計極細
  6
CONTINUOUS
 62
    2
 10
510.01795824097115
 20
508.10583080107995
 11
510.01795824097115
 21
514.10583080107926
  0
LINE
  8
_0-0_計極細
  6
CONTINUOUS
 62
    2
 10
523.0179582409711
 20
508.10583080107995
 11
523.0179582409711
 21
514.10583080107926
  0
LINE
  8
_0-1_計細線
  6
CONTINUOUS
 62
    3
 10
373.5179582409711
 20
479.60583080107858
 11
523.51795824097144
 21
479.60583080107858
  0
LINE
  8
_0-1_計細線
  6
CONTINUOUS
 62
    3
 10
373.5179582409711
 20
491.00583080107918
 11
523.51795824097144
 21
491.00583080107918
  0
LINE
  8
_0-1_計細線
  6
CONTINUOUS
 62
    3
 10
373.5179582409711
 20
479.60583080107858
 11
373.5179582409711
 21
491.00583080107918
  0
LINE
  8
_0-1_計細線
  6
CONTINUOUS
 62
    3
 10
523.51795824097144
 20
479.60583080107858
 11
523.51795824097144
 21
491.00583080107918
  0
LINE
  8
_0-0_計極細
  6
CONTINUOUS
 62
    2
 10
373.5179582409711
 20
487.80583080107886
 11
523.51795824097144
 21
487.80583080107886
  0
LINE
  8
_0-0_計極細
  6
CONTINUOUS
 62
    2
 10
373.5179582409711
 20
482.80583080107886
 11
523.51795824097144
 21
482.80583080107886
  0
LINE
  8
_0-0_計極細
  6
CONTINUOUS
 62
    2
 10
374.01795824097115
 20
491.00583080107782
 11
374.01795824097115
 21
496.70583080107986
  0
LINE
  8
_0-0_計極細
  6
CONTINUOUS
 62
    2
 10
387.0179582409711
 20
491.00583080107782
 11
387.0179582409711
 21
496.70583080107986
  0
LINE
  8
_0-0_計極細
  6
CONTINUOUS
 62
    2
 10
471.0179582409711
 20
491.00583080107782
 11
471.0179582409711
 21
496.70583080107986
  0
LINE
  8
_0-0_計極細
  6
CONTINUOUS
 62
    2
 10
484.01795824097115
 20
491.00583080107782
 11
484.01795824097115
 21
496.70583080107986
  0
LINE
  8
_0-0_計極細
  6
CONTINUOUS
 62
    2
 10
510.01795824097115
 20
491.00583080107782
 11
510.01795824097115
 21
496.70583080107986
  0
LINE
  8
_0-0_計極細
  6
CONTINUOUS
 62
    2
 10
523.0179582409711
 20
491.00583080107782
 11
523.0179582409711
 21
496.70583080107986
  0
LINE
  8
_0-1_計細線
  6
CONTINUOUS
 62
    3
 10
371.51795824097115
 20
477.60583080107864
 11
525.51795824097189
 21
477.60583080107864
  0
LINE
  8
_0-1_計細線
  6
CONTINUOUS
 62
    3
 10
371.51795824097115
 20
631.6058308010804
 11
371.51795824097115
 21
477.60583080107864
  0
LINE
  8
_0-0_計極細
  6
CENTER1
 62
    2
 10
380.5179582409711
 20
638.35655022554215
 11
380.5179582409711
 21
471.84800706006695
  0
LINE
  8
_0-0_計極細
  6
CENTER1
 62
    2
 10
477.51795824097115
 20
638.35655022554215
 11
477.51795824097115
 21
471.84800706006695
  0
LINE
  8
_0-1_計細線
  6
CONTINUOUS
 62
    3
 10
525.51795824097189
 20
477.60583080107864
 11
525.51795824097189
 21
631.6058308010804
  0
LINE
  8
_0-1_計細線
  6
CONTINUOUS
 62
    3
 10
368.5179582409711
 20
474.60583080107858
 11
368.5179582409711
 21
634.6058308010804
  0
LINE
  8
_0-1_計細線
  6
CONTINUOUS
 62
    3
 10
368.5179582409711
 20
634.6058308010804
 11
528.51795824097178
 21
634.6058308010804
  0
LINE
  8
_0-1_計細線
  6
CONTINUOUS
 62
    3
 10
528.51795824097178
 20
634.6058308010804
 11
528.51795824097178
 21
474.60583080107858
  0
LINE
  8
_0-1_計細線
  6
CONTINUOUS
 62
    3
 10
528.51795824097178
 20
474.60583080107858
 11
368.5179582409711
 21
474.60583080107858
  0
LINE
  8
_0-0_計極細
  6
CENTER1
 62
    2
 10
516.5179582409711
 20
638.35655022554215
 11
516.5179582409711
 21
471.84800706006695
  0
LINE
  8
_0-0_計極細
  6
CENTER2
 62
    2
 10
351.2200100230674
 20
554.60583080107949
 11
537.53619767512964
 21
554.60583080107949
  0
LINE
  8
_0-5_寸法線
  6
CONTINUOUS
 62
    7
 10
443.08707771761647
 20
564.58709186681745
 11
435.10773417312589
 21
570.61453548737495
  0
LINE
  8
_0-5_寸法線
  6
CONTINUOUS
 62
    7
 10
443.08707771761647
 20
564.58709186681745
 11
439.19048531284295
 21
573.79668293434383
  0
LINE
  8
_0-5_寸法線
  6
CONTINUOUS
 62
    7
 10
443.08707771761647
 20
564.58709186681745
 11
342.88019981867473
 21
693.15427857561554
  0
LINE
  8
_0-5_寸法線
  6
CONTINUOUS
 62
    7
 10
342.88019981867473
 20
693.15427857561554
 11
282.88019981867478
 21
693.15427857561554
  0
TEXT
  8
_0-5_寸法線
 62
    7
 10
282.88019981867478
 20
693.15427857561554
 40
15
 41
0.8000000000000001
 50
0
  1
取　外　具
  0
TEXT
  8
_0-5_寸法線
 62
    7
 10
278.97731624029802
 20
676.06779181405955
 40
15
 41
0.8000000000000001
 50
0
  1
(標準付属)
  0
TEXT
  8
_0-7_枠細線
 62
    5
 10
282.17046367576899
 20
710.00644557597082
 40
12.5
 41
0.8
 50
0
  1
２
  0
LINE
  8
_0-7_枠細線
  6
CONTINUOUS
 62
    5
 10
294.80531240762082
 20
710.31344782135136
 11
287.30531240762082
 21
725.31344782135136
  0
LINE
  8
_0-7_枠細線
  6
CONTINUOUS
 62
    5
 10
279.80531240762082
 20
710.31344782135136
 11
294.80531240762082
 21
710.31344782135136
  0
LINE
  8
_0-7_枠細線
  6
CONTINUOUS
 62
    5
 10
287.30531240762082
 20
725.31344782135136
 11
279.80531240762082
 21
710.31344782135136
  0
TEXT
  8
_0-7_枠細線
 62
    5
 10
301.06235750364522
 20
709.71330285390479
 40
12.5
 41
0.8
 50
0
  1
３
  0
LINE
  8
_0-7_枠細線
  6
CONTINUOUS
 62
    5
 10
306.19720623549711
 20
725.26098674408615
 11
298.69720623549711
 21
710.26098674408615
  0
LINE
  8
_0-7_枠細線
  6
CONTINUOUS
 62
    5
 10
298.69720623549711
 20
710.26098674408615
 11
313.69720623549711
 21
710.26098674408615
  0
LINE
  8
_0-7_枠細線
  6
CONTINUOUS
 62
    5
 10
313.69720623549711
 20
710.26098674408615
 11
306.19720623549711
 21
725.26098674408615
  0
LINE
  8
_0-7_枠細線
  6
CONTINUOUS
 62
    5
 10
925
 20
323.73000000000059
 11
1225.0000000000005
 21
323.73000000000059
  0
LINE
  8
_0-7_枠細線
  6
CONTINUOUS
 62
    5
 10
925
 20
348.73000000000047
 11
1225.0000000000005
 21
348.73000000000047
  0
LINE
  8
_0-7_枠細線
  6
CONTINUOUS
 62
    5
 10
925
 20
373.73000000000047
 11
1225.0000000000005
 21
373.73000000000047
  0
LINE
  8
_0-7_枠細線
  6
CONTINUOUS
 62
    5
 10
925
 20
398.73000000000076
 11
1225.0000000000005
 21
398.73000000000076
  0
TEXT
  8
_0-7_枠細線
 62
    5
 10
1048.0000000000005
 20
403.73000000000076
 40
15
 41
0.5999999999999999
 50
0
  1
ライトグレー
  0
LINE
  8
_0-7_枠細線
  6
CONTINUOUS
 62
    5
 10
925
 20
423.73000000000047
 11
1225.0000000000005
 21
423.73000000000047
  0
TEXT
  8
_0-7_枠細線
 62
    5
 10
1057.0000000000005
 20
428.73000000000047
 40
15
 41
0.5999999999999999
 50
0
  1
ベージュ
  0
LINE
  8
_0-7_枠細線
  6
CONTINUOUS
 62
    5
 10
925
 20
448.73000000000047
 11
1225.0000000000005
 21
448.73000000000047
  0
TEXT
  8
_0-7_枠細線
 62
    5
 10
1069.0000000000005
 20
453.73000000000047
 40
15
 41
0.8000000000000001
 50
0
  1
色
  0
TEXT
  8
_0-7_枠細線
 62
    5
 10
951.00000000000034
 20
453.73000000000047
 40
15
 41
0.8000000000000001
 50
0
  1
品　　番
  0
TEXT
  8
_0-7_枠細線
 62
    5
 10
1151.0000000000005
 20
453.73000000000047
 40
15
 41
0.8000000000000001
 50
0
  1
備　　考
  0
LINE
  8
_0-7_枠細線
  6
CONTINUOUS
 62
    5
 10
925
 20
473.73000000000047
 11
1225.0000000000005
 21
473.73000000000047
  0
TEXT
  8
_0-7_枠細線
 62
    5
 10
1013.75
 20
478.73000000000047
 40
17.5
 41
1
 50
0
  1
品番表
  0
LINE
  8
_0-7_枠細線
  6
CONTINUOUS
 62
    5
 10
925
 20
248.73000000000033
 11
1225.0000000000005
 21
248.73000000000033
  0
LINE
  8
_0-7_枠細線
  6
CONTINUOUS
 62
    5
 10
925
 20
273.73000000000059
 11
1225.0000000000005
 21
273.73000000000059
  0
LINE
  8
_0-7_枠細線
  6
CONTINUOUS
 62
    5
 10
925
 20
298.7300000000007
 11
1225.0000000000005
 21
298.7300000000007
  0
TEXT
  8
_0-7_枠細線
 62
    5
 10
1057.0000000000009
 20
378.7300000000007
 40
15
 41
0.5999999999999999
 50
0
  1
ホワイト
  0
TEXT
  8
_0-7_枠細線
 62
    5
 10
1061.5000000000005
 20
353.73000000000047
 40
15
 41
0.5999999999999999
 50
0
  1
ピンク
  0
TEXT
  8
_0-7_枠細線
 62
    5
 10
1061.5000000000005
 20
328.73000000000047
 40
15
 41
0.5999999999999999
 50
0
  1
ブルー
  0
TEXT
  8
_0-7_枠細線
 62
    5
 10
1048
 20
303.73000000000059
 40
15
 41
0.5999999999999999
 50
0
  1
ダークグレー
  0
TEXT
  8
_0-7_枠細線
 62
    5
 10
1061.5000000000005
 20
278.7300000000007
 40
15
 41
0.5999999999999999
 50
0
  1
ウッド
  0
LINE
  8
_0-7_枠細線
  6
CONTINUOUS
 62
    5
 10
925
 20
223.73000000000002
 11
1225.0000000000005
 21
223.73000000000002
  0
TEXT
  8
_0-7_枠細線
 62
    5
 10
1057.0000000000009
 20
228.73000000000013
 40
15
 41
0.5999999999999999
 50
0
  1
ブラック
  0
LINE
  8
_0-7_枠細線
  6
CONTINUOUS
 62
    5
 10
1225.0000000000005
 20
473.73000000000047
 11
1225.0000000000005
 21
223.73000000000002
  0
LINE
  8
_0-7_枠細線
  6
CONTINUOUS
 62
    5
 10
1125
 20
473.73000000000047
 11
1125
 21
223.73000000000002
  0
LINE
  8
_0-7_枠細線
  6
CONTINUOUS
 62
    5
 10
1025.0000000000005
 20
473.73000000000047
 11
1025.0000000000005
 21
223.73000000000002
  0
LINE
  8
_0-7_枠細線
  6
CONTINUOUS
 62
    5
 10
925
 20
473.73000000000047
 11
925
 21
223.73000000000002
  0
TEXT
  8
_0-7_枠細線
 62
    5
 10
1057.0000000000005
 20
253.73000000000033
 40
15
 41
0.5999999999999999
 50
0
  1
ブラウン
  0
LINE
  8
_0-7_枠細線
  6
CONTINUOUS
 62
    5
 10
918.52762466555532
 20
254.30604122127349
 11
911.02762466555532
 21
269.30604122127352
  0
LINE
  8
_0-7_枠細線
  6
CONTINUOUS
 62
    5
 10
903.52762466555532
 20
254.30604122127349
 11
918.52762466555532
 21
254.30604122127349
  0
LINE
  8
_0-7_枠細線
  6
CONTINUOUS
 62
    5
 10
911.02762466555532
 20
269.30604122127352
 11
903.52762466555532
 21
254.30604122127349
  0
TEXT
  8
_0-7_枠細線
 62
    5
 10
905.89277593370343
 20
253.3572212564236
 40
12.5
 41
0.8
 50
0
  1
４
  0
LINE
  8
_0-7_枠細線
  6
CONTINUOUS
 62
    5
 10
1270.7300000000005
 20
393.73000000000059
 11
1270.7300000000005
 21
473.73000000000059
  0
TEXT
  8
_0-7_枠細線
 62
    5
 10
1293.2300000000007
 20
451.23000000000059
 40
15
 41
1
 50
0
  1
耐荷重
  0
TEXT
  8
_0-7_枠細線
 62
    5
 10
1285.7300000000007
 20
421.23000000000059
 40
15
 41
1
 50
0
  1
3.5kN/㎡
  0
TEXT
  8
_0-7_枠細線
 62
    5
 10
1278.2300000000005
 20
401.23000000000059
 40
15
 41
1
 50
0
  1
（歩道用）
  0
LINE
  8
_0-7_枠細線
  6
CONTINUOUS
 62
    5
 10
1360.7300000000007
 20
393.73000000000059
 11
1360.7300000000007
 21
473.73000000000059
  0
LINE
  8
_0-7_枠細線
  6
CONTINUOUS
 62
    5
 10
1270.7300000000005
 20
393.73000000000059
 11
1360.7300000000007
 21
393.73000000000059
  0
LINE
  8
_0-7_枠細線
  6
CONTINUOUS
 62
    5
 10
1270.7300000000005
 20
443.73000000000059
 11
1360.7300000000007
 21
443.73000000000059
  0
LINE
  8
_0-7_枠細線
  6
CONTINUOUS
 62
    5
 10
1270.7300000000005
 20
473.73000000000059
 11
1360.7300000000007
 21
473.73000000000059
  0
TEXT
  8
_0-7_枠細線
 62
    5
 10
930.00000000000045
 20
428.73000000000047
 40
15
 41
0.5
 50
0
  1
ＧＲＳ－２５Ｋ１５０－Ｂ
  0
TEXT
  8
_0-7_枠細線
 62
    5
 10
930.00000000000045
 20
403.73000000000047
 40
15
 41
0.5
 50
0
  1
ＧＲＳ－２５Ｋ１５０－Ｇ
  0
TEXT
  8
_0-7_枠細線
 62
    5
 10
930.00000000000045
 20
378.7300000000007
 40
15
 41
0.5
 50
0
  1
ＧＲＳ－２５Ｋ１５０－Ｓ
  0
TEXT
  8
_0-7_枠細線
 62
    5
 10
930.00000000000045
 20
353.73000000000047
 40
15
 41
0.5
 50
0
  1
ＧＲＳ－２５Ｋ１５０－Ｐ
  0
TEXT
  8
_0-7_枠細線
 62
    5
 10
930.00000000000045
 20
328.73000000000047
 40
15
 41
0.5
 50
0
  1
ＧＲＳ－２５Ｋ１５０－Ａ
  0
TEXT
  8
_0-7_枠細線
 62
    5
 10
930.00000000000045
 20
303.73000000000059
 40
15
 41
0.5
 50
0
  1
ＧＲＳ－２５Ｋ１５０－Ｄ
  0
TEXT
  8
_0-7_枠細線
 62
    5
 10
930.00000000000045
 20
278.7300000000007
 40
15
 41
0.5
 50
0
  1
ＧＲＳ－２５Ｋ１５０－Ｍ
  0
TEXT
  8
_0-7_枠細線
 62
    5
 10
930.00000000000045
 20
253.73000000000036
 40
15
 41
0.5
 50
0
  1
ＧＲＳ－２５Ｋ１５０－Ｃ
  0
TEXT
  8
_0-7_枠細線
 62
    5
 10
930.00000000000045
 20
228.73000000000013
 40
15
 41
0.5
 50
0
  1
ＧＲＳ－２５Ｋ１５０－Ｋ
  0
LINE
  8
_0-7_枠細線
  6
CONTINUOUS
 62
    5
 10
539.62302206321544
 20
703.92835803928153
 11
532.12302206321544
 21
688.92835803928153
  0
LINE
  8
_0-7_枠細線
  6
CONTINUOUS
 62
    5
 10
532.12302206321544
 20
688.92835803928153
 11
547.12302206321544
 21
688.92835803928153
  0
LINE
  8
_0-7_枠細線
  6
CONTINUOUS
 62
    5
 10
547.12302206321544
 20
688.92835803928153
 11
539.62302206321544
 21
703.92835803928153
  0
TEXT
  8
_0-7_枠細線
 62
    5
 10
536.98817333136367
 20
688.38067414910017
 40
12.5
 41
0.8
 50
0
  1
1
  0
LINE
  8
_0-7_枠細線
  6
CONTINUOUS
 62
    5
 10
332.41119009899336
 20
710.26098674408615
 11
324.91119009899336
 21
725.26098674408615
  0
LINE
  8
_0-7_枠細線
  6
CONTINUOUS
 62
    5
 10
317.41119009899336
 20
710.26098674408615
 11
332.41119009899336
 21
710.26098674408615
  0
LINE
  8
_0-7_枠細線
  6
CONTINUOUS
 62
    5
 10
324.91119009899336
 20
725.26098674408615
 11
317.41119009899336
 21
710.26098674408615
  0
TEXT
  8
_0-7_枠細線
 62
    5
 10
319.77634136714141
 20
709.71330285390479
 40
12.5
 41
0.8
 50
0
  1
６
  0
TEXT
  8
_0-7_枠細線
 62
    5
 10
938.85037037037023
 20
822.5
 40
12.5
 41
1
 50
0
  1
取外具形状変更
  0
LINE
  8
_0-7_枠細線
  6
CONTINUOUS
 62
    5
 10
907.5
 20
836.44233397174673
 11
900
 21
821.44233397174673
  0
LINE
  8
_0-7_枠細線
  6
CONTINUOUS
 62
    5
 10
900
 20
821.44233397174673
 11
915
 21
821.44233397174673
  0
LINE
  8
_0-7_枠細線
  6
CONTINUOUS
 62
    5
 10
915
 20
821.44233397174673
 11
907.5
 21
836.44233397174673
  0
TEXT
  8
_0-7_枠細線
 62
    5
 10
902.36515126814822
 20
821.13533172636653
 40
12.5
 41
0.8
 50
0
  1
６
  0
TEXT
  8
_0-7_枠細線
 62
    5
 10
1180
 20
822.5
 40
12.5
 41
0.7199999999999999
 50
0
  1
２０２１．０５．０６
  0
LINE
  8
_0-7_枠細線
  6
CONTINUOUS
 62
    5
 10
1425
 20
820
 11
890
 21
820
  0
LINE
  8
_0-1_計細線
  6
CONTINUOUS
 62
    3
 10
1086.70000000039
 20
645.95999999999992
 11
1091.3277575233169
 21
645.95999999999992
  0
LINE
  8
_0-1_計細線
  6
CONTINUOUS
 62
    3
 10
1096.0277575233167
 20
645.95999999999992
 11
1100.7000000005519
 21
645.95999999999992
  0
LINE
  8
_0-1_計細線
  6
CONTINUOUS
 62
    3
 10
1096.0277575233167
 20
658.95999999999981
 11
1100.7000000005519
 21
658.95999999999981
  0
LINE
  8
_0-1_計細線
  6
CONTINUOUS
 62
    3
 10
1086.7000000011139
 20
658.95999999999981
 11
1091.3277575233169
 21
658.95999999999981
  0
ARC
  8
_0-1_計細線
  6
CONTINUOUS
 62
    3
 10
1080.3000000011025
 20
661.65999999999985
 40
1
 50
89.999999999999915
 51
179.99999999999983
  0
ARC
  8
_0-1_計細線
  6
CONTINUOUS
 62
    3
 10
1080.7679491924309
 20
663.65999999999985
 40
1
 50
269.99999999999977
 51
330.0000000000154
  0
ARC
  8
_0-1_計細線
  6
CONTINUOUS
 62
    3
 10
1082.5
 20
662.66000000000008
 40
1
 50
89.999999999999915
 51
149.99999999999534
  0
LINE
  8
_0-1_計細線
  6
CONTINUOUS
 62
    3
 10
1080.3000000011025
 20
662.66000000000008
 11
1080.7679491924309
 21
662.66000000000008
  0
ARC
  8
_0-1_計細線
  6
CONTINUOUS
 62
    3
 10
1089.6999999988957
 20
661.65999999999985
 40
1
 50
0
 51
89.999999999999915
  0
ARC
  8
_0-1_計細線
  6
CONTINUOUS
 62
    3
 10
1089.2320508075682
 20
663.65999999999985
 40
1
 50
210.00000000000995
 51
269.99999999999977
  0
ARC
  8
_0-1_計細線
  6
CONTINUOUS
 62
    3
 10
1087.4999999999991
 20
662.66000000000008
 40
1
 50
29.99999999997862
 51
89.999999999999915
  0
LINE
  8
_0-1_計細線
  6
CONTINUOUS
 62
    3
 10
1089.6999999988957
 20
662.66000000000008
 11
1089.2320508075682
 21
662.66000000000008
  0
ARC
  8
_0-1_計細線
  6
CONTINUOUS
 62
    3
 10
1079.8000000011025
 20
660.25999999999999
 40
0.5
 50
179.99999999999983
 51
269.99999999999977
  0
LINE
  8
_0-1_計細線
  6
CONTINUOUS
 62
    3
 10
1079.3000000011034
 20
661.65999999999985
 11
1079.3000000011034
 21
660.25999999999999
  0
ARC
  8
_0-1_計細線
  6
CONTINUOUS
 62
    3
 10
1090.1999999988957
 20
660.25999999999999
 40
0.5
 50
269.99999999999977
 51
359.99999999999966
  0
LINE
  8
_0-1_計細線
  6
CONTINUOUS
 62
    3
 10
1090.6999999988966
 20
661.65999999999985
 11
1090.6999999988966
 21
660.25999999999999
  0
ARC
  8
_0-1_計細線
  6
CONTINUOUS
 62
    3
 10
1082.3000000011034
 20
658.75999999999999
 40
1
 50
0
 51
89.999999999999915
  0
LINE
  8
_0-1_計細線
  6
CONTINUOUS
 62
    3
 10
1082.3000000011034
 20
659.75999999999988
 11
1079.8000000011025
 21
659.75999999999988
  0
ARC
  8
_0-1_計細線
  6
CONTINUOUS
 62
    3
 10
1087.700000001103
 20
658.75999999999999
 40
1
 50
89.999999999999915
 51
179.99999999999983
  0
LINE
  8
_0-1_計細線
  6
CONTINUOUS
 62
    3
 10
1087.6999999988966
 20
659.75999999999988
 11
1090.1999999988957
 21
659.75999999999988
  0
LINE
  8
_0-1_計細線
  6
CONTINUOUS
 62
    3
 10
1087.4999999999991
 20
663.65999999999985
 11
1082.5
 21
663.65999999999985
  0
LINE
  8
_0-1_計細線
  6
CONTINUOUS
 62
    3
 10
1083.2999999999993
 20
638.65999999999985
 11
1083.3000000011025
 21
658.75999999999999
  0
LINE
  8
_0-1_計細線
  6
CONTINUOUS
 62
    3
 10
1086.6999999999998
 20
638.65999999999985
 11
1086.700000001103
 21
658.75999999999999
  0
LINE
  8
_0-1_計細線
  6
CONTINUOUS
 62
    3
 10
1086.6999999999998
 20
638.65999999999985
 11
1083.2999999999993
 21
638.65999999999985
  0
LINE
  8
_0-1_計細線
  6
CONTINUOUS
 62
    3
 10
1121.5000000012751
 20
658.95999999999981
 11
1135.5000000012751
 21
658.95999999999981
  0
LINE
  8
_0-1_計細線
  6
CONTINUOUS
 62
    3
 10
1104.1000000009126
 20
658.95999999999981
 11
1118.1000000009126
 21
658.95999999999981
  0
LINE
  8
_0-1_計細線
  6
CONTINUOUS
 62
    3
 10
1069.3000000001903
 20
658.95999999999981
 11
1083.3000000001894
 21
658.95999999999981
  0
LINE
  8
_0-1_計細線
  6
CONTINUOUS
 62
    3
 10
1051.8999999998277
 20
658.95999999999981
 11
1065.8999999998277
 21
658.95999999999981
  0
LINE
  8
_0-1_計細線
  6
CONTINUOUS
 62
    3
 10
1034.4999999994652
 20
658.95999999999981
 11
1048.499999999467
 21
658.95999999999981
  0
LINE
  8
_0-1_計細線
  6
CONTINUOUS
 62
    3
 10
1138.9000000016367
 20
658.95999999999981
 11
1152.6000000016365
 21
658.95999999999981
  0
LINE
  8
_0-1_計細線
  6
CONTINUOUS
 62
    3
 10
1017.3999999991038
 20
658.95999999999981
 11
1031.0999999991045
 21
658.95999999999981
  0
LINE
  8
_0-1_計細線
  6
CONTINUOUS
 62
    3
 10
1121.5000000012751
 20
645.95999999999992
 11
1135.5000000012751
 21
645.95999999999992
  0
LINE
  8
_0-1_計細線
  6
CONTINUOUS
 62
    3
 10
1104.1000000009126
 20
645.95999999999992
 11
1118.1000000009126
 21
645.95999999999992
  0
LINE
  8
_0-1_計細線
  6
CONTINUOUS
 62
    3
 10
1069.3000000001903
 20
645.95999999999992
 11
1083.3000000001894
 21
645.95999999999992
  0
LINE
  8
_0-1_計細線
  6
CONTINUOUS
 62
    3
 10
1051.8999999998277
 20
645.95999999999992
 11
1065.8999999998277
 21
645.95999999999992
  0
LINE
  8
_0-1_計細線
  6
CONTINUOUS
 62
    3
 10
1034.4999999994652
 20
645.95999999999992
 11
1048.499999999467
 21
645.95999999999992
  0
LINE
  8
_0-1_計細線
  6
CONTINUOUS
 62
    3
 10
1138.9000000016367
 20
645.95999999999992
 11
1152.6000000016365
 21
645.95999999999992
  0
LINE
  8
_0-1_計細線
  6
CONTINUOUS
 62
    3
 10
1017.3999999991038
 20
645.95999999999992
 11
1031.0999999991045
 21
645.95999999999992
  0
ARC
  8
_0-1_計細線
  6
CONTINUOUS
 62
    3
 10
1149.6000000025506
 20
661.65999999999985
 40
1
 50
89.999999999999915
 51
179.99999999999983
  0
ARC
  8
_0-1_計細線
  6
CONTINUOUS
 62
    3
 10
1150.0679491938781
 20
663.65999999999985
 40
1
 50
269.99999999999977
 51
330.0000000000154
  0
ARC
  8
_0-1_計細線
  6
CONTINUOUS
 62
    3
 10
1151.8000000014472
 20
662.66000000000008
 40
1
 50
89.999999999999915
 51
149.99999999999534
  0
LINE
  8
_0-1_計細線
  6
CONTINUOUS
 62
    3
 10
1149.6000000025506
 20
662.66000000000008
 11
1150.0679491938781
 21
662.66000000000008
  0
ARC
  8
_0-1_計細線
  6
CONTINUOUS
 62
    3
 10
1159.0000000003429
 20
661.65999999999985
 40
1
 50
0
 51
89.999999999999915
  0
ARC
  8
_0-1_計細線
  6
CONTINUOUS
 62
    3
 10
1158.5320508090153
 20
663.65999999999985
 40
1
 50
210.00000000000995
 51
269.99999999999977
  0
ARC
  8
_0-1_計細線
  6
CONTINUOUS
 62
    3
 10
1156.8000000014463
 20
662.66000000000008
 40
1
 50
29.99999999997862
 51
89.999999999999915
  0
LINE
  8
_0-1_計細線
  6
CONTINUOUS
 62
    3
 10
1159.0000000003429
 20
662.66000000000008
 11
1158.5320508090153
 21
662.66000000000008
  0
ARC
  8
_0-1_計細線
  6
CONTINUOUS
 62
    3
 10
1149.1000000025497
 20
660.25999999999999
 40
0.5
 50
179.99999999999983
 51
269.99999999999977
  0
LINE
  8
_0-1_計細線
  6
CONTINUOUS
 62
    3
 10
1148.6000000025506
 20
661.65999999999985
 11
1148.6000000025506
 21
660.25999999999999
  0
ARC
  8
_0-1_計細線
  6
CONTINUOUS
 62
    3
 10
1159.5000000003429
 20
660.25999999999999
 40
0.5
 50
269.99999999999977
 51
359.99999999999966
  0
LINE
  8
_0-1_計細線
  6
CONTINUOUS
 62
    3
 10
1160.0000000003438
 20
661.65999999999985
 11
1160.0000000003438
 21
660.25999999999999
  0
ARC
  8
_0-1_計細線
  6
CONTINUOUS
 62
    3
 10
1151.6000000025506
 20
658.75999999999999
 40
1
 50
0
 51
89.999999999999915
  0
LINE
  8
_0-1_計細線
  6
CONTINUOUS
 62
    3
 10
1151.6000000025506
 20
659.75999999999988
 11
1149.1000000025497
 21
659.75999999999988
  0
ARC
  8
_0-1_計細線
  6
CONTINUOUS
 62
    3
 10
1157.0000000025502
 20
658.75999999999999
 40
1
 50
89.999999999999915
 51
179.99999999999983
  0
LINE
  8
_0-1_計細線
  6
CONTINUOUS
 62
    3
 10
1157.0000000003438
 20
659.75999999999988
 11
1159.5000000003429
 21
659.75999999999988
  0
LINE
  8
_0-1_計細線
  6
CONTINUOUS
 62
    3
 10
1156.8000000014463
 20
663.65999999999985
 11
1151.8000000014472
 21
663.65999999999985
  0
LINE
  8
_0-1_計細線
  6
CONTINUOUS
 62
    3
 10
1152.6000000014465
 20
638.65999999999985
 11
1152.6000000025506
 21
658.75999999999999
  0
LINE
  8
_0-1_計細線
  6
CONTINUOUS
 62
    3
 10
1156.000000001447
 20
638.65999999999985
 11
1156.0000000025502
 21
658.75999999999999
  0
LINE
  8
_0-1_計細線
  6
CONTINUOUS
 62
    3
 10
1156.000000001447
 20
638.65999999999985
 11
1152.6000000014465
 21
638.65999999999985
  0
ARC
  8
_0-1_計細線
  6
CONTINUOUS
 62
    3
 10
1132.5000000021882
 20
661.65999999999985
 40
1
 50
89.999999999999915
 51
179.99999999999983
  0
ARC
  8
_0-1_計細線
  6
CONTINUOUS
 62
    3
 10
1132.9679491935158
 20
663.65999999999985
 40
1
 50
269.99999999999977
 51
330.0000000000154
  0
ARC
  8
_0-1_計細線
  6
CONTINUOUS
 62
    3
 10
1134.7000000010848
 20
662.66000000000008
 40
1
 50
89.999999999999915
 51
149.99999999999534
  0
LINE
  8
_0-1_計細線
  6
CONTINUOUS
 62
    3
 10
1132.5000000021882
 20
662.66000000000008
 11
1132.9679491935158
 21
662.66000000000008
  0
ARC
  8
_0-1_計細線
  6
CONTINUOUS
 62
    3
 10
1141.8999999999814
 20
661.65999999999985
 40
1
 50
0
 51
89.999999999999915
  0
ARC
  8
_0-1_計細線
  6
CONTINUOUS
 62
    3
 10
1141.432050808653
 20
663.65999999999985
 40
1
 50
210.00000000000995
 51
269.99999999999977
  0
ARC
  8
_0-1_計細線
  6
CONTINUOUS
 62
    3
 10
1139.7000000010839
 20
662.66000000000008
 40
1
 50
29.99999999997862
 51
89.999999999947889
  0
LINE
  8
_0-1_計細線
  6
CONTINUOUS
 62
    3
 10
1141.8999999999814
 20
662.66000000000008
 11
1141.432050808653
 21
662.66000000000008
  0
ARC
  8
_0-1_計細線
  6
CONTINUOUS
 62
    3
 10
1132.0000000021882
 20
660.25999999999999
 40
0.5
 50
179.99999999999983
 51
269.99999999999977
  0
LINE
  8
_0-1_計細線
  6
CONTINUOUS
 62
    3
 10
1131.5000000021882
 20
661.65999999999985
 11
1131.5000000021882
 21
660.25999999999999
  0
ARC
  8
_0-1_計細線
  6
CONTINUOUS
 62
    3
 10
1142.3999999999814
 20
660.25999999999999
 40
0.5
 50
269.99999999999977
 51
359.99999999999966
  0
LINE
  8
_0-1_計細線
  6
CONTINUOUS
 62
    3
 10
1142.8999999999814
 20
661.65999999999985
 11
1142.8999999999814
 21
660.25999999999999
  0
ARC
  8
_0-1_計細線
  6
CONTINUOUS
 62
    3
 10
1134.5000000021882
 20
658.75999999999999
 40
1
 50
0
 51
89.999999999999915
  0
LINE
  8
_0-1_計細線
  6
CONTINUOUS
 62
    3
 10
1134.5000000021882
 20
659.75999999999988
 11
1132.0000000021882
 21
659.75999999999988
  0
ARC
  8
_0-1_計細線
  6
CONTINUOUS
 62
    3
 10
1139.9000000021879
 20
658.75999999999999
 40
1
 50
89.999999999999915
 51
179.99999999999983
  0
LINE
  8
_0-1_計細線
  6
CONTINUOUS
 62
    3
 10
1139.8999999999814
 20
659.75999999999988
 11
1142.3999999999814
 21
659.75999999999988
  0
LINE
  8
_0-1_計細線
  6
CONTINUOUS
 62
    3
 10
1139.7000000010839
 20
663.65999999999985
 11
1134.7000000010848
 21
663.65999999999985
  0
LINE
  8
_0-1_計細線
  6
CONTINUOUS
 62
    3
 10
1135.5000000010841
 20
638.65999999999985
 11
1135.5000000021882
 21
658.75999999999999
  0
LINE
  8
_0-1_計細線
  6
CONTINUOUS
 62
    3
 10
1138.9000000010847
 20
638.65999999999985
 11
1138.9000000021897
 21
658.75999999999999
  0
LINE
  8
_0-1_計細線
  6
CONTINUOUS
 62
    3
 10
1138.9000000010847
 20
638.65999999999985
 11
1135.5000000010841
 21
638.65999999999985
  0
ARC
  8
_0-1_計細線
  6
CONTINUOUS
 62
    3
 10
1115.1000000018266
 20
661.65999999999985
 40
1
 50
89.999999999999915
 51
179.99999999999983
  0
ARC
  8
_0-1_計細線
  6
CONTINUOUS
 62
    3
 10
1115.5679491931533
 20
663.65999999999985
 40
1
 50
269.99999999999977
 51
330.0000000000154
  0
ARC
  8
_0-1_計細線
  6
CONTINUOUS
 62
    3
 10
1117.3000000007223
 20
662.66000000000008
 40
1
 50
89.999999999999915
 51
149.99999999999534
  0
LINE
  8
_0-1_計細線
  6
CONTINUOUS
 62
    3
 10
1115.1000000018266
 20
662.66000000000008
 11
1115.5679491931533
 21
662.66000000000008
  0
ARC
  8
_0-1_計細線
  6
CONTINUOUS
 62
    3
 10
1124.4999999996189
 20
661.65999999999985
 40
1
 50
0
 51
89.999999999999915
  0
ARC
  8
_0-1_計細線
  6
CONTINUOUS
 62
    3
 10
1124.0320508082914
 20
663.65999999999985
 40
1
 50
210.00000000000995
 51
269.99999999999977
  0
ARC
  8
_0-1_計細線
  6
CONTINUOUS
 62
    3
 10
1122.3000000007232
 20
662.66000000000008
 40
1
 50
30.000000000004672
 51
89.999999999999915
  0
LINE
  8
_0-1_計細線
  6
CONTINUOUS
 62
    3
 10
1124.4999999996189
 20
662.66000000000008
 11
1124.0320508082914
 21
662.66000000000008
  0
ARC
  8
_0-1_計細線
  6
CONTINUOUS
 62
    3
 10
1114.6000000018266
 20
660.25999999999999
 40
0.5
 50
179.99999999999983
 51
269.99999999999977
  0
LINE
  8
_0-1_計細線
  6
CONTINUOUS
 62
    3
 10
1114.1000000018266
 20
661.65999999999985
 11
1114.1000000018266
 21
660.25999999999999
  0
ARC
  8
_0-1_計細線
  6
CONTINUOUS
 62
    3
 10
1124.9999999996198
 20
660.25999999999999
 40
0.5
 50
269.99999999999977
 51
359.99999999999966
  0
LINE
  8
_0-1_計細線
  6
CONTINUOUS
 62
    3
 10
1125.4999999996189
 20
661.65999999999985
 11
1125.4999999996189
 21
660.25999999999999
  0
ARC
  8
_0-1_計細線
  6
CONTINUOUS
 62
    3
 10
1117.1000000018266
 20
658.75999999999999
 40
1
 50
0
 51
89.999999999999915
  0
LINE
  8
_0-1_計細線
  6
CONTINUOUS
 62
    3
 10
1117.1000000018266
 20
659.75999999999988
 11
1114.6000000018266
 21
659.75999999999988
  0
ARC
  8
_0-1_計細線
  6
CONTINUOUS
 62
    3
 10
1122.5000000018263
 20
658.75999999999999
 40
1
 50
89.999999999999915
 51
179.99999999999983
  0
LINE
  8
_0-1_計細線
  6
CONTINUOUS
 62
    3
 10
1122.4999999996189
 20
659.75999999999988
 11
1124.9999999996198
 21
659.75999999999988
  0
LINE
  8
_0-1_計細線
  6
CONTINUOUS
 62
    3
 10
1122.3000000007232
 20
663.65999999999985
 11
1117.3000000007223
 21
663.65999999999985
  0
LINE
  8
_0-1_計細線
  6
CONTINUOUS
 62
    3
 10
1118.1000000007225
 20
638.65999999999985
 11
1118.1000000018266
 21
658.75999999999999
  0
LINE
  8
_0-1_計細線
  6
CONTINUOUS
 62
    3
 10
1121.5000000007221
 20
638.65999999999985
 11
1121.5000000018272
 21
658.75999999999999
  0
LINE
  8
_0-1_計細線
  6
CONTINUOUS
 62
    3
 10
1121.5000000007221
 20
638.65999999999985
 11
1118.1000000007225
 21
638.65999999999985
  0
ARC
  8
_0-1_計細線
  6
CONTINUOUS
 62
    3
 10
1097.700000001465
 20
661.65999999999985
 40
1
 50
89.999999999999915
 51
179.99999999999983
  0
ARC
  8
_0-1_計細線
  6
CONTINUOUS
 62
    3
 10
1098.1679491927925
 20
663.65999999999985
 40
1
 50
269.99999999999977
 51
329.99999999998937
  0
ARC
  8
_0-1_計細線
  6
CONTINUOUS
 62
    3
 10
1099.9000000003616
 20
662.66000000000008
 40
1
 50
89.999999999999915
 51
150.00000000002137
  0
LINE
  8
_0-1_計細線
  6
CONTINUOUS
 62
    3
 10
1097.700000001465
 20
662.66000000000008
 11
1098.1679491927925
 21
662.66000000000008
  0
ARC
  8
_0-1_計細線
  6
CONTINUOUS
 62
    3
 10
1107.0999999992582
 20
661.65999999999985
 40
1
 50
0
 51
89.999999999999915
  0
ARC
  8
_0-1_計細線
  6
CONTINUOUS
 62
    3
 10
1106.6320508079307
 20
663.65999999999985
 40
1
 50
209.99999999998388
 51
269.99999999999977
  0
ARC
  8
_0-1_計細線
  6
CONTINUOUS
 62
    3
 10
1104.9000000003616
 20
662.66000000000008
 40
1
 50
30.000000000004672
 51
89.999999999999915
  0
LINE
  8
_0-1_計細線
  6
CONTINUOUS
 62
    3
 10
1107.0999999992582
 20
662.66000000000008
 11
1106.6320508079307
 21
662.66000000000008
  0
ARC
  8
_0-1_計細線
  6
CONTINUOUS
 62
    3
 10
1097.200000001465
 20
660.25999999999999
 40
0.5
 50
179.99999999999983
 51
269.99999999999977
  0
LINE
  8
_0-1_計細線
  6
CONTINUOUS
 62
    3
 10
1096.700000001465
 20
661.65999999999985
 11
1096.700000001465
 21
660.25999999999999
  0
ARC
  8
_0-1_計細線
  6
CONTINUOUS
 62
    3
 10
1107.5999999992573
 20
660.25999999999999
 40
0.5
 50
269.99999999999977
 51
359.99999999999966
  0
LINE
  8
_0-1_計細線
  6
CONTINUOUS
 62
    3
 10
1108.0999999992573
 20
661.65999999999985
 11
1108.0999999992573
 21
660.25999999999999
  0
ARC
  8
_0-1_計細線
  6
CONTINUOUS
 62
    3
 10
1099.700000001465
 20
658.75999999999999
 40
1
 50
0
 51
89.999999999999915
  0
LINE
  8
_0-1_計細線
  6
CONTINUOUS
 62
    3
 10
1099.700000001465
 20
659.75999999999988
 11
1097.200000001465
 21
659.75999999999988
  0
ARC
  8
_0-1_計細線
  6
CONTINUOUS
 62
    3
 10
1105.1000000014656
 20
658.75999999999999
 40
1
 50
89.999999999999915
 51
179.99999999999983
  0
LINE
  8
_0-1_計細線
  6
CONTINUOUS
 62
    3
 10
1105.0999999992573
 20
659.75999999999988
 11
1107.5999999992573
 21
659.75999999999988
  0
LINE
  8
_0-1_計細線
  6
CONTINUOUS
 62
    3
 10
1104.9000000003616
 20
663.65999999999985
 11
1099.9000000003616
 21
663.65999999999985
  0
LINE
  8
_0-1_計細線
  6
CONTINUOUS
 62
    3
 10
1100.7000000003618
 20
638.65999999999985
 11
1100.700000001465
 21
658.75999999999999
  0
LINE
  8
_0-1_計細線
  6
CONTINUOUS
 62
    3
 10
1104.1000000003614
 20
638.65999999999985
 11
1104.1000000014647
 21
658.75999999999999
  0
LINE
  8
_0-1_計細線
  6
CONTINUOUS
 62
    3
 10
1104.1000000003614
 20
638.65999999999985
 11
1100.7000000003618
 21
638.65999999999985
  0
ARC
  8
_0-1_計細線
  6
CONTINUOUS
 62
    3
 10
1062.9000000007418
 20
661.65999999999985
 40
1
 50
89.999999999999915
 51
179.99999999999983
  0
ARC
  8
_0-1_計細線
  6
CONTINUOUS
 62
    3
 10
1063.3679491920684
 20
663.65999999999985
 40
1
 50
269.99999999999977
 51
330.0000000000154
  0
ARC
  8
_0-1_計細線
  6
CONTINUOUS
 62
    3
 10
1065.0999999996375
 20
662.66000000000008
 40
1
 50
89.999999999999915
 51
149.99999999999534
  0
LINE
  8
_0-1_計細線
  6
CONTINUOUS
 62
    3
 10
1062.9000000007418
 20
662.66000000000008
 11
1063.3679491920684
 21
662.66000000000008
  0
ARC
  8
_0-1_計細線
  6
CONTINUOUS
 62
    3
 10
1072.2999999985341
 20
661.65999999999985
 40
1
 50
0
 51
89.999999999999915
  0
ARC
  8
_0-1_計細線
  6
CONTINUOUS
 62
    3
 10
1071.8320508072065
 20
663.65999999999985
 40
1
 50
209.99999999998388
 51
269.99999999999977
  0
ARC
  8
_0-1_計細線
  6
CONTINUOUS
 62
    3
 10
1070.0999999996366
 20
662.66000000000008
 40
1
 50
29.99999999997862
 51
89.999999999895778
  0
LINE
  8
_0-1_計細線
  6
CONTINUOUS
 62
    3
 10
1072.2999999985341
 20
662.66000000000008
 11
1071.8320508072065
 21
662.66000000000008
  0
ARC
  8
_0-1_計細線
  6
CONTINUOUS
 62
    3
 10
1062.4000000007409
 20
660.25999999999999
 40
0.5
 50
179.99999999999983
 51
269.99999999999977
  0
LINE
  8
_0-1_計細線
  6
CONTINUOUS
 62
    3
 10
1061.9000000007409
 20
661.65999999999985
 11
1061.9000000007409
 21
660.25999999999999
  0
ARC
  8
_0-1_計細線
  6
CONTINUOUS
 62
    3
 10
1072.799999998535
 20
660.25999999999999
 40
0.5
 50
269.99999999999977
 51
359.99999999999966
  0
LINE
  8
_0-1_計細線
  6
CONTINUOUS
 62
    3
 10
1073.2999999985341
 20
661.65999999999985
 11
1073.2999999985341
 21
660.25999999999999
  0
ARC
  8
_0-1_計細線
  6
CONTINUOUS
 62
    3
 10
1064.9000000007409
 20
658.75999999999999
 40
1
 50
0
 51
89.999999999999915
  0
LINE
  8
_0-1_計細線
  6
CONTINUOUS
 62
    3
 10
1064.9000000007409
 20
659.75999999999988
 11
1062.4000000007409
 21
659.75999999999988
  0
ARC
  8
_0-1_計細線
  6
CONTINUOUS
 62
    3
 10
1070.3000000007405
 20
658.75999999999999
 40
1
 50
89.999999999999915
 51
179.99999999999983
  0
LINE
  8
_0-1_計細線
  6
CONTINUOUS
 62
    3
 10
1070.2999999985341
 20
659.75999999999988
 11
1072.799999998535
 21
659.75999999999988
  0
LINE
  8
_0-1_計細線
  6
CONTINUOUS
 62
    3
 10
1070.0999999996366
 20
663.65999999999985
 11
1065.0999999996375
 21
663.65999999999985
  0
LINE
  8
_0-1_計細線
  6
CONTINUOUS
 62
    3
 10
1065.8999999996377
 20
638.65999999999985
 11
1065.9000000007418
 21
658.75999999999999
  0
LINE
  8
_0-1_計細線
  6
CONTINUOUS
 62
    3
 10
1069.2999999996373
 20
638.65999999999985
 11
1069.3000000007414
 21
658.75999999999999
  0
LINE
  8
_0-1_計細線
  6
CONTINUOUS
 62
    3
 10
1069.2999999996373
 20
638.65999999999985
 11
1065.8999999996377
 21
638.65999999999985
  0
ARC
  8
_0-1_計細線
  6
CONTINUOUS
 62
    3
 10
1045.5000000003793
 20
661.65999999999985
 40
1
 50
89.999999999999915
 51
179.99999999999983
  0
ARC
  8
_0-1_計細線
  6
CONTINUOUS
 62
    3
 10
1045.9679491917068
 20
663.65999999999985
 40
1
 50
269.99999999999977
 51
329.99999999998937
  0
ARC
  8
_0-1_計細線
  6
CONTINUOUS
 62
    3
 10
1047.699999999275
 20
662.66000000000008
 40
1
 50
89.999999999999915
 51
149.99999999999534
  0
LINE
  8
_0-1_計細線
  6
CONTINUOUS
 62
    3
 10
1045.5000000003793
 20
662.66000000000008
 11
1045.9679491917068
 21
662.66000000000008
  0
ARC
  8
_0-1_計細線
  6
CONTINUOUS
 62
    3
 10
1054.8999999981734
 20
661.65999999999985
 40
1
 50
0
 51
89.999999999999915
  0
ARC
  8
_0-1_計細線
  6
CONTINUOUS
 62
    3
 10
1054.4320508068449
 20
663.65999999999985
 40
1
 50
209.99999999998388
 51
269.99999999999977
  0
ARC
  8
_0-1_計細線
  6
CONTINUOUS
 62
    3
 10
1052.6999999992759
 20
662.66000000000008
 40
1
 50
30.000000000004672
 51
89.999999999999915
  0
LINE
  8
_0-1_計細線
  6
CONTINUOUS
 62
    3
 10
1054.8999999981734
 20
662.66000000000008
 11
1054.4320508068449
 21
662.66000000000008
  0
ARC
  8
_0-1_計細線
  6
CONTINUOUS
 62
    3
 10
1045.0000000003802
 20
660.25999999999999
 40
0.5
 50
179.99999999999983
 51
269.99999999999977
  0
LINE
  8
_0-1_計細線
  6
CONTINUOUS
 62
    3
 10
1044.5000000003793
 20
661.65999999999985
 11
1044.5000000003793
 21
660.25999999999999
  0
ARC
  8
_0-1_計細線
  6
CONTINUOUS
 62
    3
 10
1055.3999999981725
 20
660.25999999999999
 40
0.5
 50
269.99999999999977
 51
359.99999999999966
  0
LINE
  8
_0-1_計細線
  6
CONTINUOUS
 62
    3
 10
1055.8999999981716
 20
661.65999999999985
 11
1055.8999999981716
 21
660.25999999999999
  0
ARC
  8
_0-1_計細線
  6
CONTINUOUS
 62
    3
 10
1047.5000000003793
 20
658.75999999999999
 40
1
 50
0
 51
89.999999999999915
  0
LINE
  8
_0-1_計細線
  6
CONTINUOUS
 62
    3
 10
1047.5000000003793
 20
659.75999999999988
 11
1045.0000000003802
 21
659.75999999999988
  0
ARC
  8
_0-1_計細線
  6
CONTINUOUS
 62
    3
 10
1052.9000000003798
 20
658.75999999999999
 40
1
 50
89.999999999999915
 51
179.99999999999983
  0
LINE
  8
_0-1_計細線
  6
CONTINUOUS
 62
    3
 10
1052.8999999981716
 20
659.75999999999988
 11
1055.3999999981725
 21
659.75999999999988
  0
LINE
  8
_0-1_計細線
  6
CONTINUOUS
 62
    3
 10
1052.6999999992759
 20
663.65999999999985
 11
1047.699999999275
 21
663.65999999999985
  0
LINE
  8
_0-1_計細線
  6
CONTINUOUS
 62
    3
 10
1048.499999999276
 20
638.65999999999985
 11
1048.5000000003793
 21
658.75999999999999
  0
LINE
  8
_0-1_計細線
  6
CONTINUOUS
 62
    3
 10
1051.8999999992757
 20
638.65999999999985
 11
1051.9000000003798
 21
658.75999999999999
  0
LINE
  8
_0-1_計細線
  6
CONTINUOUS
 62
    3
 10
1051.8999999992757
 20
638.65999999999985
 11
1048.499999999276
 21
638.65999999999985
  0
ARC
  8
_0-1_計細線
  6
CONTINUOUS
 62
    3
 10
1028.1000000000176
 20
661.65999999999985
 40
1
 50
89.999999999999915
 51
179.99999999999983
  0
ARC
  8
_0-1_計細線
  6
CONTINUOUS
 62
    3
 10
1028.5679491913452
 20
663.65999999999985
 40
1
 50
269.99999999999977
 51
329.99999999998937
  0
ARC
  8
_0-1_計細線
  6
CONTINUOUS
 62
    3
 10
1030.2999999989142
 20
662.66000000000008
 40
1
 50
89.999999999999915
 51
150.00000000002137
  0
LINE
  8
_0-1_計細線
  6
CONTINUOUS
 62
    3
 10
1028.1000000000176
 20
662.66000000000008
 11
1028.5679491913452
 21
662.66000000000008
  0
ARC
  8
_0-1_計細線
  6
CONTINUOUS
 62
    3
 10
1037.4999999978108
 20
661.65999999999985
 40
1
 50
0
 51
89.999999999999915
  0
ARC
  8
_0-1_計細線
  6
CONTINUOUS
 62
    3
 10
1037.0320508064833
 20
663.65999999999985
 40
1
 50
210.00000000000995
 51
269.99999999999977
  0
ARC
  8
_0-1_計細線
  6
CONTINUOUS
 62
    3
 10
1035.2999999989142
 20
662.66000000000008
 40
1
 50
29.99999999997862
 51
89.999999999999915
  0
LINE
  8
_0-1_計細線
  6
CONTINUOUS
 62
    3
 10
1037.4999999978108
 20
662.66000000000008
 11
1037.0320508064833
 21
662.66000000000008
  0
ARC
  8
_0-1_計細線
  6
CONTINUOUS
 62
    3
 10
1027.6000000000176
 20
660.25999999999999
 40
0.5
 50
179.99999999999983
 51
269.99999999999977
  0
LINE
  8
_0-1_計細線
  6
CONTINUOUS
 62
    3
 10
1027.1000000000186
 20
661.65999999999985
 11
1027.1000000000186
 21
660.25999999999999
  0
ARC
  8
_0-1_計細線
  6
CONTINUOUS
 62
    3
 10
1037.9999999978099
 20
660.25999999999999
 40
0.5
 50
269.99999999999977
 51
359.99999999999966
  0
LINE
  8
_0-1_計細線
  6
CONTINUOUS
 62
    3
 10
1038.4999999978099
 20
661.65999999999985
 11
1038.4999999978099
 21
660.25999999999999
  0
ARC
  8
_0-1_計細線
  6
CONTINUOUS
 62
    3
 10
1030.1000000000186
 20
658.75999999999999
 40
1
 50
0
 51
89.999999999999915
  0
LINE
  8
_0-1_計細線
  6
CONTINUOUS
 62
    3
 10
1030.1000000000186
 20
659.75999999999988
 11
1027.6000000000176
 21
659.75999999999988
  0
ARC
  8
_0-1_計細線
  6
CONTINUOUS
 62
    3
 10
1035.5000000000182
 20
658.75999999999999
 40
1
 50
89.999999999999915
 51
179.99999999999983
  0
LINE
  8
_0-1_計細線
  6
CONTINUOUS
 62
    3
 10
1035.4999999978099
 20
659.75999999999988
 11
1037.9999999978099
 21
659.75999999999988
  0
LINE
  8
_0-1_計細線
  6
CONTINUOUS
 62
    3
 10
1035.2999999989142
 20
663.65999999999985
 11
1030.2999999989142
 21
663.65999999999985
  0
LINE
  8
_0-1_計細線
  6
CONTINUOUS
 62
    3
 10
1031.0999999989144
 20
638.65999999999985
 11
1031.1000000000176
 21
658.75999999999999
  0
LINE
  8
_0-1_計細線
  6
CONTINUOUS
 62
    3
 10
1034.4999999989141
 20
638.65999999999985
 11
1034.5000000000173
 21
658.75999999999999
  0
LINE
  8
_0-1_計細線
  6
CONTINUOUS
 62
    3
 10
1034.4999999989141
 20
638.65999999999985
 11
1031.0999999989144
 21
638.65999999999985
  0
ARC
  8
_0-1_計細線
  6
CONTINUOUS
 62
    3
 10
1010.9999999996563
 20
661.65999999999985
 40
1
 50
89.999999999999915
 51
179.99999999999983
  0
ARC
  8
_0-1_計細線
  6
CONTINUOUS
 62
    3
 10
1011.4679491909839
 20
663.65999999999985
 40
1
 50
269.99999999999977
 51
330.0000000000154
  0
ARC
  8
_0-1_計細線
  6
CONTINUOUS
 62
    3
 10
1013.1999999985528
 20
662.66000000000008
 40
1
 50
89.999999999999915
 51
149.99999999999534
  0
LINE
  8
_0-1_計細線
  6
CONTINUOUS
 62
    3
 10
1010.9999999996563
 20
662.66000000000008
 11
1011.4679491909839
 21
662.66000000000008
  0
ARC
  8
_0-1_計細線
  6
CONTINUOUS
 62
    3
 10
1020.3999999974485
 20
661.65999999999985
 40
1
 50
0
 51
89.999999999999915
  0
ARC
  8
_0-1_計細線
  6
CONTINUOUS
 62
    3
 10
1019.932050806121
 20
663.65999999999985
 40
1
 50
210.00000000000995
 51
269.99999999999977
  0
ARC
  8
_0-1_計細線
  6
CONTINUOUS
 62
    3
 10
1018.199999998552
 20
662.66000000000008
 40
1
 50
29.99999999997862
 51
89.999999999999915
  0
LINE
  8
_0-1_計細線
  6
CONTINUOUS
 62
    3
 10
1020.3999999974485
 20
662.66000000000008
 11
1019.932050806121
 21
662.66000000000008
  0
ARC
  8
_0-1_計細線
  6
CONTINUOUS
 62
    3
 10
1010.4999999996562
 20
660.25999999999999
 40
0.5
 50
179.99999999999983
 51
269.99999999999977
  0
LINE
  8
_0-1_計細線
  6
CONTINUOUS
 62
    3
 10
1009.9999999996562
 20
661.65999999999985
 11
1009.9999999996562
 21
660.25999999999999
  0
ARC
  8
_0-1_計細線
  6
CONTINUOUS
 62
    3
 10
1020.8999999974486
 20
660.25999999999999
 40
0.5
 50
269.99999999999977
 51
359.99999999999966
  0
LINE
  8
_0-1_計細線
  6
CONTINUOUS
 62
    3
 10
1021.3999999974494
 20
661.65999999999985
 11
1021.3999999974494
 21
660.25999999999999
  0
ARC
  8
_0-1_計細線
  6
CONTINUOUS
 62
    3
 10
1012.9999999996562
 20
658.75999999999999
 40
1
 50
0
 51
89.999999999999915
  0
LINE
  8
_0-1_計細線
  6
CONTINUOUS
 62
    3
 10
1012.9999999996562
 20
659.75999999999988
 11
1010.4999999996562
 21
659.75999999999988
  0
ARC
  8
_0-1_計細線
  6
CONTINUOUS
 62
    3
 10
1018.3999999996558
 20
658.75999999999999
 40
1
 50
89.999999999999915
 51
179.99999999999983
  0
LINE
  8
_0-1_計細線
  6
CONTINUOUS
 62
    3
 10
1018.3999999974494
 20
659.75999999999988
 11
1020.8999999974486
 21
659.75999999999988
  0
LINE
  8
_0-1_計細線
  6
CONTINUOUS
 62
    3
 10
1018.199999998552
 20
663.65999999999985
 11
1013.1999999985528
 21
663.65999999999985
  0
LINE
  8
_0-1_計細線
  6
CONTINUOUS
 62
    3
 10
1013.9999999985521
 20
638.65999999999985
 11
1013.9999999996563
 21
658.75999999999999
  0
LINE
  8
_0-1_計細線
  6
CONTINUOUS
 62
    3
 10
1017.3999999985527
 20
638.65999999999985
 11
1017.3999999996558
 21
658.75999999999999
  0
LINE
  8
_0-1_計細線
  6
CONTINUOUS
 62
    3
 10
1017.3999999985527
 20
638.65999999999985
 11
1013.9999999985521
 21
638.65999999999985
  0
ARC
  8
_0-1_計細線
  6
CONTINUOUS
 62
    3
 10
1162
 20
638.65999999999985
 40
3.0000000000000004
 50
269.99999999999977
 51
359.99999999999966
  0
LINE
  8
_0-1_計細線
  6
CONTINUOUS
 62
    3
 10
1165
 20
638.65999999999985
 11
1165
 21
663.16000000000008
  0
LINE
  8
_0-1_計細線
  6
CONTINUOUS
 62
    3
 10
1162
 20
635.65999999999985
 11
1135.4999999999991
 21
635.65999999999985
  0
LINE
  8
_0-1_計細線
  6
CONTINUOUS
 62
    3
 10
1135
 20
636.15999999999997
 11
1135.4999999999991
 21
635.65999999999985
  0
LINE
  8
_0-1_計細線
  6
CONTINUOUS
 62
    3
 10
1135
 20
638.15999999999985
 11
1135
 21
636.15999999999997
  0
LINE
  8
_0-1_計細線
  6
CONTINUOUS
 62
    3
 10
1135.4999999999991
 20
638.65999999999985
 11
1135
 21
638.15999999999985
  0
LINE
  8
_0-1_計細線
  6
CONTINUOUS
 62
    3
 10
1162
 20
638.65999999999985
 11
1135.4999999999991
 21
638.65999999999985
  0
LINE
  8
_0-1_計細線
  6
CONTINUOUS
 62
    3
 10
1164.5
 20
663.65999999999985
 11
1165
 21
663.16000000000008
  0
LINE
  8
_0-1_計細線
  6
CONTINUOUS
 62
    3
 10
1162.4999999999991
 20
663.65999999999985
 11
1164.5
 21
663.65999999999985
  0
LINE
  8
_0-1_計細線
  6
CONTINUOUS
 62
    3
 10
1162
 20
663.16000000000008
 11
1162.4999999999991
 21
663.65999999999985
  0
LINE
  8
_0-1_計細線
  6
CONTINUOUS
 62
    3
 10
1162
 20
638.65999999999985
 11
1162
 21
663.16000000000008
  0
ARC
  8
_0-1_計細線
  6
CONTINUOUS
 62
    3
 10
1007.9999999999991
 20
638.65999999999985
 40
3.0000000000000004
 50
179.99999999999983
 51
269.99999999999977
  0
LINE
  8
_0-1_計細線
  6
CONTINUOUS
 62
    3
 10
1004.9999999999991
 20
638.65999999999985
 11
1004.9999999999991
 21
663.16000000000008
  0
LINE
  8
_0-1_計細線
  6
CONTINUOUS
 62
    3
 10
1007.9999999999991
 20
635.65999999999985
 11
1034.5
 21
635.65999999999985
  0
LINE
  8
_0-1_計細線
  6
CONTINUOUS
 62
    3
 10
1034.9999999999991
 20
636.15999999999997
 11
1034.5
 21
635.65999999999985
  0
LINE
  8
_0-1_計細線
  6
CONTINUOUS
 62
    3
 10
1034.9999999999991
 20
638.15999999999985
 11
1034.9999999999991
 21
636.15999999999997
  0
LINE
  8
_0-1_計細線
  6
CONTINUOUS
 62
    3
 10
1034.5
 20
638.65999999999985
 11
1034.9999999999991
 21
638.15999999999985
  0
LINE
  8
_0-1_計細線
  6
CONTINUOUS
 62
    3
 10
1007.9999999999991
 20
638.65999999999985
 11
1034.5
 21
638.65999999999985
  0
LINE
  8
_0-1_計細線
  6
CONTINUOUS
 62
    3
 10
1005.4999999999983
 20
663.65999999999985
 11
1004.9999999999991
 21
663.16000000000008
  0
LINE
  8
_0-1_計細線
  6
CONTINUOUS
 62
    3
 10
1007.5
 20
663.65999999999985
 11
1005.4999999999983
 21
663.65999999999985
  0
LINE
  8
_0-1_計細線
  6
CONTINUOUS
 62
    3
 10
1007.9999999999991
 20
663.16000000000008
 11
1007.5
 21
663.65999999999985
  0
LINE
  8
_0-1_計細線
  6
CONTINUOUS
 62
    3
 10
1007.9999999999991
 20
638.65999999999985
 11
1007.9999999999991
 21
663.16000000000008
  0
LINE
  8
_0-1_計細線
  6
CONTINUOUS
 62
    3
 10
1004.9999999999991
 20
647.65999999999985
 11
1004.9999999999991
 21
612.65999999999985
  0
LINE
  8
_0-1_計細線
  6
CONTINUOUS
 62
    3
 10
1004.9999999999991
 20
612.65999999999985
 11
1002.6999999999998
 21
612.65999999999985
  0
LINE
  8
_0-1_計細線
  6
CONTINUOUS
 62
    3
 10
1002.6999999999998
 20
612.65999999999985
 11
1002.6999999999998
 21
647.65999999999985
  0
LINE
  8
_0-1_計細線
  6
CONTINUOUS
 62
    3
 10
1002.6999999999998
 20
647.65999999999985
 11
1004.9999999999991
 21
647.65999999999985
  0
LINE
  8
_0-0_計極細
  6
CONTINUOUS
 62
    2
 10
1002.6999999999998
 20
631.65999999999997
 11
1004.9999999999991
 21
631.65999999999997
  0
LINE
  8
_0-0_計極細
  6
CONTINUOUS
 62
    2
 10
1002.6999999999998
 20
633.65999999999985
 11
1004.9999999999991
 21
633.65999999999985
  0
LINE
  8
_0-0_計極細
  6
CONTINUOUS
 62
    2
 10
1002.6999999999998
 20
629.65999999999985
 11
1004.9999999999991
 21
629.65999999999985
  0
LINE
  8
_0-0_計極細
  6
CONTINUOUS
 62
    2
 10
1002.6999999999998
 20
635.65999999999985
 11
1004.9999999999991
 21
635.65999999999985
  0
LINE
  8
_0-0_計極細
  6
CONTINUOUS
 62
    2
 10
1004.9999999999991
 20
615.65999999999985
 11
1002.6999999999998
 21
615.65999999999985
  0
LINE
  8
_0-0_計極細
  6
CONTINUOUS
 62
    2
 10
1002.6999999999998
 20
645.65999999999985
 11
1004.9999999999991
 21
645.65999999999985
  0
LINE
  8
_0-1_計細線
  6
CONTINUOUS
 62
    3
 10
1165
 20
647.65999999999985
 11
1165
 21
612.65999999999985
  0
LINE
  8
_0-1_計細線
  6
CONTINUOUS
 62
    3
 10
1165
 20
612.65999999999985
 11
1167.2999999999993
 21
612.65999999999985
  0
LINE
  8
_0-1_計細線
  6
CONTINUOUS
 62
    3
 10
1167.2999999999993
 20
612.65999999999985
 11
1167.2999999999993
 21
647.65999999999985
  0
LINE
  8
_0-1_計細線
  6
CONTINUOUS
 62
    3
 10
1167.2999999999993
 20
647.65999999999985
 11
1165
 21
647.65999999999985
  0
LINE
  8
_0-0_計極細
  6
CONTINUOUS
 62
    2
 10
1167.2999999999993
 20
631.65999999999997
 11
1165
 21
631.65999999999997
  0
LINE
  8
_0-0_計極細
  6
CONTINUOUS
 62
    2
 10
1167.2999999999993
 20
633.65999999999985
 11
1165
 21
633.65999999999985
  0
LINE
  8
_0-0_計極細
  6
CONTINUOUS
 62
    2
 10
1167.2999999999993
 20
629.65999999999985
 11
1165
 21
629.65999999999985
  0
LINE
  8
_0-0_計極細
  6
CONTINUOUS
 62
    2
 10
1167.2999999999993
 20
635.65999999999985
 11
1165
 21
635.65999999999985
  0
LINE
  8
_0-0_計極細
  6
CONTINUOUS
 62
    2
 10
1165
 20
615.65999999999985
 11
1167.2999999999993
 21
615.65999999999985
  0
LINE
  8
_0-0_計極細
  6
CONTINUOUS
 62
    2
 10
1167.2999999999993
 20
645.65999999999985
 11
1165
 21
645.65999999999985
  0
CIRCLE
  8
_0-0_計極細
  6
CONTINUOUS
 62
    2
 10
1181.5390325669778
 20
624.24593513888567
 40
0.3318518518518431
  0
CIRCLE
  8
_0-0_計極細
  6
CONTINUOUS
 62
    2
 10
1193.2990325669771
 20
620.88593513888577
 40
0.3318518518518431
  0
LINE
  8
_0-0_計極細
  6
CONTINUOUS
 62
    2
 10
1180
 20
617.11133680898956
 11
1189
 21
617.11133680898956
  0
LINE
  8
_0-0_計極細
  6
CENTER1
 62
    2
 10
1184.5
 20
585.69395582932816
 11
1184.5
 21
619.67676890775522
  0
LINE
  8
_0-0_計極細
  6
CONTINUOUS
 62
    2
 10
1189
 20
617.11133680898956
 11
1189
 21
590.65999999999985
  0
LINE
  8
_0-0_計極細
  6
CONTINUOUS
 62
    2
 10
1180
 20
590.65999999999985
 11
1180
 21
617.11133680898956
  0
LINE
  8
_0-0_計極細
  6
CENTER1
 62
    2
 10
1195.6963916124523
 20
608.73545946702075
 11
1157.2777793229125
 21
622.71869075804182
  0
LINE
  8
_0-0_計極細
  6
CONTINUOUS
 62
    2
 10
1191.1840409322904
 20
605.58902069750195
 11
1158.1094340380823
 21
617.62719311704973
  0
LINE
  8
_0-0_計極細
  6
CONTINUOUS
 62
    2
 10
1194.2622222222217
 20
614.04625428457518
 11
1161.1876153280127
 21
626.08442670412296
  0
LINE
  8
_0-0_計極細
  6
CONTINUOUS
 62
    2
 10
1161.1876153280127
 20
626.08442670412296
 11
1158.1094340380823
 21
617.62719311704973
  0
LINE
  8
_0-0_計極細
  6
CONTINUOUS
 62
    2
 10
1191.1840409322904
 20
605.58902069750195
 11
1194.2622222222217
 21
614.04625428457518
  0
LINE
  8
_0-0_計極細
  6
CENTER1
 62
    2
 10
985.49999999999909
 20
585.69395582932816
 11
985.49999999999909
 21
619.67676890775522
  0
LINE
  8
_0-0_計極細
  6
CONTINUOUS
 62
    2
 10
980.99999999999909
 20
617.11133680898956
 11
980.99999999999909
 21
590.65999999999985
  0
LINE
  8
_0-0_計極細
  6
CONTINUOUS
 62
    2
 10
989.99999999999909
 20
617.11133680898956
 11
980.99999999999909
 21
617.11133680898956
  0
LINE
  8
_0-0_計極細
  6
CONTINUOUS
 62
    2
 10
989.99999999999909
 20
590.65999999999985
 11
989.99999999999909
 21
617.11133680898956
  0
LINE
  8
_0-0_計極細
  6
CENTER1
 62
    2
 10
974.30360838754677
 20
608.73545946702075
 11
1012.7222206770866
 21
622.71869075804182
  0
LINE
  8
_0-0_計極細
  6
CONTINUOUS
 62
    2
 10
978.81595906770883
 20
605.58902069750195
 11
1011.8905659619168
 21
617.62719311704973
  0
LINE
  8
_0-0_計極細
  6
CONTINUOUS
 62
    2
 10
975.73777777777752
 20
614.04625428457518
 11
1008.8123846719864
 21
626.08442670412296
  0
LINE
  8
_0-0_計極細
  6
CONTINUOUS
 62
    2
 10
1008.8123846719864
 20
626.08442670412296
 11
1011.8905659619168
 21
617.62719311704973
  0
LINE
  8
_0-0_計極細
  6
CONTINUOUS
 62
    2
 10
978.81595906770883
 20
605.58902069750195
 11
975.73777777777752
 21
614.04625428457518
  0
CIRCLE
  8
_0-0_計極細
  6
CONTINUOUS
 62
    2
 10
1140.7601436780888
 20
584.07130550925547
 40
1.0953188836088352
  0
CIRCLE
  8
_0-0_計極細
  6
CONTINUOUS
 62
    2
 10
1138.9912547892
 20
627.64463884258907
 40
1.0953188836088352
  0
CIRCLE
  8
_0-0_計極細
  6
CONTINUOUS
 62
    2
 10
1139.3745881225341
 20
588.07260180555193
 40
0.3318518518518431
  0
CIRCLE
  8
_0-0_計極細
  6
CONTINUOUS
 62
    2
 10
1138.5906375052491
 20
611.6259351388851
 40
0.3318518518518431
  0
LINE
  8
_0-0_計極細
  6
CONTINUOUS
 62
    2
 10
1135
 20
635.65999999999985
 11
1135
 21
574.91503982313259
  0
LINE
  8
_0-0_計極細
  6
CONTINUOUS
 62
    2
 10
1135.4999999999991
 20
635.65999999999985
 11
1135
 21
635.65999999999985
  0
CIRCLE
  8
_0-0_計極細
  6
CONTINUOUS
 62
    2
 10
1176.9968103447545
 20
650.37926847221797
 40
0.3318518518518431
  0
CIRCLE
  8
_0-0_計極細
  6
CONTINUOUS
 62
    2
 10
1189.7968103447547
 20
642.98797217592198
 40
1.0953188836088352
  0
CIRCLE
  8
_0-0_計極細
  6
CONTINUOUS
 62
    2
 10
1189.7168103447548
 20
646.77926847221806
 40
0.3318518518518431
  0
CIRCLE
  8
_0-0_計極細
  6
CONTINUOUS
 62
    2
 10
1198.9168103447537
 20
650.34797217592177
 40
1.0953188836088352
  0
CIRCLE
  8
_0-0_計極細
  6
CONTINUOUS
 62
    2
 10
1192.1168103447544
 20
651.49926847221786
 40
0.3318518518518431
  0
CIRCLE
  8
_0-0_計極細
  6
CONTINUOUS
 62
    2
 10
1208.1968103447543
 20
649.81926847221803
 40
0.3318518518518431
  0
CIRCLE
  8
_0-0_計極細
  6
CONTINUOUS
 62
    2
 10
1218.2768103447543
 20
649.81926847221803
 40
0.3318518518518431
  0
LINE
  8
_0-0_計極細
  6
CONTINUOUS
 62
    2
 10
1211.0734832401813
 20
656.65999999999985
 11
1218.073482864108
 21
663.65999962392652
  0
LINE
  8
_0-0_計極細
  6
CONTINUOUS
 62
    2
 10
1198.3455611788231
 20
656.65999999999997
 11
1205.3455609023194
 21
663.65999972349573
  0
LINE
  8
_0-0_計極細
  6
CONTINUOUS
 62
    2
 10
1185.6176391174649
 20
656.65999999999985
 11
1192.61763894053
 21
663.65999982306471
  0
LINE
  8
_0-0_計極細
  6
CONTINUOUS
 62
    2
 10
1172.8897170561077
 20
656.65999999999985
 11
1179.8897169787415
 21
663.65999992263392
  0
LINE
  8
_0-0_計極細
  6
DASHED2
 62
    2
 10
1217.4374442708595
 20
656.65999999999997
 11
1223.5066482870679
 21
662.72920401620797
  0
LINE
  8
_0-0_計極細
  6
DASHED2
 62
    2
 10
1204.7095222095022
 20
656.65999999999985
 11
1211.7095218832128
 21
663.65999967371113
  0
LINE
  8
_0-0_計極細
  6
DASHED2
 62
    2
 10
1191.981600148144
 20
656.65999999999985
 11
1198.9815999214252
 21
663.65999977328033
  0
LINE
  8
_0-0_計極細
  6
DASHED2
 62
    2
 10
1179.2536780867867
 20
656.65999999999985
 11
1186.2536779596358
 21
663.65999987284931
  0
LINE
  8
_0-0_計極細
  6
DASHED2
 62
    2
 10
1169.9999999999991
 20
660.13424397457038
 11
1173.5257559978472
 21
663.65999997241829
  0
LINE
  8
_0-0_計極細
  6
CONTINUOUS
 62
    2
 10
1169.9999999999991
 20
658.86145176843468
 11
1167.7985482315644
 21
656.65999999999985
  0
LINE
  8
_0-0_計極細
  6
CONTINUOUS
 62
    2
 10
1169.9999999999991
 20
661.40703618070631
 11
1165.2529638192937
 21
656.65999999999985
  0
LINE
  8
_0-0_計極細
  6
CONTINUOUS
 62
    2
 10
1165
 20
658.95262059297795
 11
1169.7073794070211
 21
663.65999999999985
  0
LINE
  8
_0-0_計極細
  6
CONTINUOUS
 62
    2
 10
1165
 20
661.49820500524947
 11
1167.1617949947504
 21
663.65999999999985
  0
LINE
  8
_0-0_計極細
  6
CONTINUOUS
 62
    2
 10
1169.9999999999991
 20
662.75440667429666
 11
1169.0944066742959
 21
663.65999999999985
  0
LINE
  8
_0-0_計極細
  6
CONTINUOUS
 62
    2
 10
1169.9999999999991
 20
660.20882226202502
 11
1166.5488222620252
 21
663.65999999999985
  0
LINE
  8
_0-0_計極細
  6
CONTINUOUS
 62
    2
 10
1169.9999999999991
 20
657.66323784975361
 11
1165
 21
662.66323784975339
  0
LINE
  8
_0-0_計極細
  6
CONTINUOUS
 62
    2
 10
1168.4576534374819
 20
656.65999999999985
 11
1165
 21
660.11765343748198
  0
LINE
  8
_0-0_計極細
  6
CONTINUOUS
 62
    2
 10
1165.9120690252093
 20
656.65999999999985
 11
1165
 21
657.57206902521034
  0
LINE
  8
_0-0_計極細
  6
CONTINUOUS
 62
    2
 10
1165
 20
663.16000000000008
 11
1165
 21
663.65999999999985
  0
LINE
  8
_0-0_計極細
  6
CONTINUOUS
 62
    2
 10
1165
 20
663.65999999999985
 11
1169.9999999999991
 21
663.65999999999985
  0
LINE
  8
_0-0_計極細
  6
CONTINUOUS
 62
    2
 10
1165
 20
656.65999999999985
 11
1223.5066482870679
 21
656.65999999999985
  0
LINE
  8
_0-0_計極細
  6
CONTINUOUS
 62
    2
 10
1169.9999999999991
 20
663.65999999999985
 11
1223.5066482870679
 21
663.65999999999985
  0
LINE
  8
_0-0_計極細
  6
CONTINUOUS
 62
    2
 10
1169.9999999999991
 20
663.65999999999985
 11
1169.9999999999991
 21
656.65999999999985
  0
CIRCLE
  8
_0-0_計極細
  6
CONTINUOUS
 62
    2
 10
1143.5738473817928
 20
606.55071559836699
 40
0.3318518518518431
  0
CIRCLE
  8
_0-0_計極細
  6
CONTINUOUS
 62
    2
 10
1143.453847381792
 20
620.9240489317001
 40
0.3318518518518431
  0
CIRCLE
  8
_0-0_計極細
  6
CONTINUOUS
 62
    2
 10
1171.9334770114219
 20
624.17797217592215
 40
1.0953188836088352
  0
CIRCLE
  8
_0-0_計極細
  6
CONTINUOUS
 62
    2
 10
1202.3325925925919
 20
592.14574074074085
 40
1.0953188836088352
  0
CIRCLE
  8
_0-0_計極細
  6
CONTINUOUS
 62
    2
 10
1174.5734770114213
 20
598.2579721759223
 40
1.0953188836088352
  0
CIRCLE
  8
_0-0_計極細
  6
CONTINUOUS
 62
    2
 10
1153.4534770114224
 20
611.69797217592236
 40
1.0953188836088352
  0
CIRCLE
  8
_0-0_計極細
  6
CONTINUOUS
 62
    2
 10
1147.3201436780892
 20
593.77797217592229
 40
1.0953188836088352
  0
CIRCLE
  8
_0-0_計極細
  6
CONTINUOUS
 62
    2
 10
1189.5568103447549
 20
620.50797217592208
 40
1.0953188836088352
  0
CIRCLE
  8
_0-0_計極細
  6
CONTINUOUS
 62
    2
 10
1170.3568103447551
 20
639.70797217592178
 40
1.0953188836088352
  0
CIRCLE
  8
_0-0_計極細
  6
CONTINUOUS
 62
    2
 10
1203.6101436780882
 20
635.76130550925529
 40
1.0953188836088352
  0
CIRCLE
  8
_0-0_計極細
  6
CONTINUOUS
 62
    2
 10
1212.9968103447545
 20
645.04130550925527
 40
1.0953188836088352
  0
CIRCLE
  8
_0-0_計極細
  6
CONTINUOUS
 62
    2
 10
1215.8768103447537
 20
636.77926847221806
 40
0.3318518518518431
  0
CIRCLE
  8
_0-0_計極細
  6
CONTINUOUS
 62
    2
 10
1198.1168103447544
 20
624.05926847221826
 40
0.3318518518518431
  0
CIRCLE
  8
_0-0_計極細
  6
CONTINUOUS
 62
    2
 10
1199.7968103447547
 20
640.13926847221796
 40
0.3318518518518431
  0
CIRCLE
  8
_0-0_計極細
  6
CONTINUOUS
 62
    2
 10
1189.7168103447548
 20
628.3792684722182
 40
0.3318518518518431
  0
CIRCLE
  8
_0-0_計極細
  6
CONTINUOUS
 62
    2
 10
1200.516810344755
 20
615.6592684722184
 40
0.3318518518518431
  0
CIRCLE
  8
_0-0_計極細
  6
CONTINUOUS
 62
    2
 10
1201.476810344755
 20
603.17926847221861
 40
0.3318518518518431
  0
CIRCLE
  8
_0-0_計極細
  6
CONTINUOUS
 62
    2
 10
1197.1568103447544
 20
594.77926847221863
 40
0.3318518518518431
  0
CIRCLE
  8
_0-0_計極細
  6
CONTINUOUS
 62
    2
 10
1173.6368103447548
 20
626.69926847221836
 40
0.3318518518518431
  0
CIRCLE
  8
_0-0_計極細
  6
CONTINUOUS
 62
    2
 10
1168.2768103447543
 20
635.52593513888485
 40
0.3318518518518431
  0
CIRCLE
  8
_0-0_計極細
  6
CONTINUOUS
 62
    2
 10
1169.7701436780881
 20
647.36593513888465
 40
0.3318518518518431
  0
CIRCLE
  8
_0-0_計極細
  6
CONTINUOUS
 62
    2
 10
1175.4634770114217
 20
602.95260180555169
 40
0.3318518518518431
  0
CIRCLE
  8
_0-0_計極細
  6
CONTINUOUS
 62
    2
 10
1168.7434770114223
 20
599.59260180555179
 40
0.3318518518518431
  0
CIRCLE
  8
_0-0_計極細
  6
CONTINUOUS
 62
    2
 10
1175.9434770114212
 20
594.15260180555185
 40
0.3318518518518431
  0
CIRCLE
  8
_0-0_計極細
  6
CONTINUOUS
 62
    2
 10
1159.7834770114214
 20
593.992601805552
 40
0.3318518518518431
  0
CIRCLE
  8
_0-0_計極細
  6
CONTINUOUS
 62
    2
 10
1151.4634770114217
 20
596.87260180555177
 40
0.3318518518518431
  0
CIRCLE
  8
_0-0_計極細
  6
CONTINUOUS
 62
    2
 10
1144.5834770114225
 20
578.95260180555204
 40
0.3318518518518431
  0
CIRCLE
  8
_0-0_計極細
  6
CONTINUOUS
 62
    2
 10
1150.1834770114228
 20
589.67260180555206
 40
0.3318518518518431
  0
CIRCLE
  8
_0-0_計極細
  6
CONTINUOUS
 62
    2
 10
1160.8834770114217
 20
603.65260180555185
 40
0.3318518518518431
  0
CIRCLE
  8
_0-0_計極細
  6
CONTINUOUS
 62
    2
 10
1150.3634770114222
 20
613.86593513888499
 40
0.3318518518518431
  0
CIRCLE
  8
_0-0_計極細
  6
CONTINUOUS
 62
    2
 10
1152.8168103447551
 20
628.85260180555156
 40
0.3318518518518431
  0
CIRCLE
  8
_0-0_計極細
  6
CONTINUOUS
 62
    2
 10
1146.8434770114218
 20
625.97260180555168
 40
0.3318518518518431
  0
LINE
  8
_0-0_計極細
  6
CONTINUOUS
 62
    2
 10
1209.9740014487552
 20
574.91503982313259
 11
1223.5066483119926
 21
588.44768668636993
  0
LINE
  8
_0-0_計極細
  6
CONTINUOUS
 62
    2
 10
1167.5475945775634
 20
574.91503982313259
 11
1183.2925547544291
 21
590.65999999999985
  0
LINE
  8
_0-0_計極細
  6
CONTINUOUS
 62
    2
 10
1205
 20
612.36744524556946
 11
1223.5066482875209
 21
630.87409353309158
  0
LINE
  8
_0-0_計極細
  6
CONTINUOUS
 62
    2
 10
1205.7313607616361
 20
574.91503982313259
 11
1223.5066483095452
 21
592.69032737104214
  0
LINE
  8
_0-0_計極細
  6
CONTINUOUS
 62
    2
 10
1163.3049538904434
 20
574.91503982313259
 11
1179.049914067311
 21
590.65999999999985
  0
LINE
  8
_0-0_計極細
  6
CONTINUOUS
 62
    2
 10
1205
 20
616.61008593268889
 11
1220.0499139595804
 21
631.65999989226975
  0
LINE
  8
_0-0_計極細
  6
CONTINUOUS
 62
    2
 10
1201.4887200745161
 20
574.91503982313259
 11
1223.5066483070987
 21
596.93296805571424
  0
LINE
  8
_0-0_計極細
  6
CONTINUOUS
 62
    2
 10
1159.0623132033243
 20
574.91503982313259
 11
1174.807273380191
 21
590.65999999999985
  0
LINE
  8
_0-0_計極細
  6
CONTINUOUS
 62
    2
 10
1205
 20
620.8527266198081
 11
1215.8072733028312
 21
631.65999992263937
  0
LINE
  8
_0-0_計極細
  6
CONTINUOUS
 62
    2
 10
1154.9999999999991
 20
590.65999999999985
 11
1154.9999999999991
 21
574.91503982313259
  0
LINE
  8
_0-0_計極細
  6
CONTINUOUS
 62
    2
 10
1205
 20
631.65999999999997
 11
1223.5066482870679
 21
631.65999999999997
  0
LINE
  8
_0-0_計極細
  6
CONTINUOUS
 62
    2
 10
1154.9999999999991
 20
590.65999999999985
 11
1205
 21
590.65999999999985
  0
LINE
  8
_0-0_計極細
  6
CONTINUOUS
 62
    2
 10
1205
 20
631.65999999999997
 11
1205
 21
590.65999999999985
  0
CIRCLE
  8
_0-0_計極細
  6
CONTINUOUS
 62
    2
 10
1023.6501436780873
 20
614.60130550925567
 40
1.0953188836088352
  0
CIRCLE
  8
_0-0_計極細
  6
CONTINUOUS
 62
    2
 10
1031.0723659003115
 20
579.64840363009432
 40
0.3318518518518431
  0
CIRCLE
  8
_0-0_計極細
  6
CONTINUOUS
 62
    2
 10
1030.2723659003123
 20
593.24204624999641
 40
0.3318518518518431
  0
CIRCLE
  8
_0-0_計極細
  6
CONTINUOUS
 62
    2
 10
1030.8675395114215
 20
626.06797217592225
 40
1.0953188836088352
  0
LINE
  8
_0-0_計極細
  6
CONTINUOUS
 62
    2
 10
1034.9999999999991
 20
635.65999999999985
 11
1034.9999999999991
 21
574.91503982313259
  0
LINE
  8
_0-0_計極細
  6
CONTINUOUS
 62
    2
 10
1034.5
 20
635.65999999999985
 11
1034.9999999999991
 21
635.65999999999985
  0
CIRCLE
  8
_0-0_計極細
  6
CONTINUOUS
 62
    2
 10
951.31462413258214
 20
644.68130550925525
 40
1.0953188836088352
  0
CIRCLE
  8
_0-0_計極細
  6
CONTINUOUS
 62
    2
 10
986.81014367808984
 20
651.26797217592184
 40
1.0953188836088352
  0
CIRCLE
  8
_0-0_計極細
  6
CONTINUOUS
 62
    2
 10
987.26347701142288
 20
648.67537958332935
 40
0.3318518518518431
  0
CIRCLE
  8
_0-0_計極細
  6
CONTINUOUS
 62
    2
 10
960.06347701142386
 20
652.2487129166625
 40
0.3318518518518431
  0
CIRCLE
  8
_0-0_計極細
  6
CONTINUOUS
 62
    2
 10
951.03236590031338
 20
652.58056476851436
 40
0.3318518518518431
  0
LINE
  8
_0-0_計極細
  6
CONTINUOUS
 62
    2
 10
994.69880819342154
 20
656.65999999632345
 11
1000
 21
661.96119180290179
  0
LINE
  8
_0-0_計極細
  6
CONTINUOUS
 62
    2
 10
981.97088612323751
 20
656.65999998749669
 11
988.97088613573942
 21
663.65999999999985
  0
LINE
  8
_0-0_計極細
  6
CONTINUOUS
 62
    2
 10
969.24296405305188
 20
656.65999997866993
 11
976.24296407438123
 21
663.65999999999985
  0
LINE
  8
_0-0_計極細
  6
CONTINUOUS
 62
    2
 10
956.51504198286705
 20
656.65999996984328
 11
963.51504201302305
 21
663.65999999999985
  0
LINE
  8
_0-0_計極細
  6
CONTINUOUS
 62
    2
 10
946.49335171293035
 20
659.36623176126443
 11
950.78711995166486
 21
663.65999999999985
  0
LINE
  8
_0-0_計極細
  6
DASHED2
 62
    2
 10
988.33484715832867
 20
656.65999999191013
 11
995.33484716641851
 21
663.66000000000008
  0
LINE
  8
_0-0_計極細
  6
DASHED2
 62
    2
 10
975.60692508814464
 20
656.65999998308337
 11
982.60692510506135
 21
663.65999999999985
  0
LINE
  8
_0-0_計極細
  6
DASHED2
 62
    2
 10
962.8790030179598
 20
656.65999997425661
 11
969.87900304370214
 21
663.65999999999985
  0
LINE
  8
_0-0_計極細
  6
DASHED2
 62
    2
 10
950.15108094777497
 20
656.65999996542996
 11
957.15108098234396
 21
663.65999999999985
  0
LINE
  8
_0-0_計極細
  6
CONTINUOUS
 62
    2
 10
1004.8811458461842
 20
656.65999999999985
 11
1004.9999999999991
 21
656.77885415381547
  0
LINE
  8
_0-0_計極細
  6
CONTINUOUS
 62
    2
 10
1002.3355614339117
 20
656.65999999999985
 11
1004.9999999999991
 21
659.32443856608711
  0
LINE
  8
_0-0_計極細
  6
CONTINUOUS
 62
    2
 10
1000
 20
656.87002297835875
 11
1004.9999999999991
 21
661.87002297835863
  0
LINE
  8
_0-0_計極細
  6
CONTINUOUS
 62
    2
 10
1000
 20
659.41560739063016
 11
1004.2443926093683
 21
663.65999999999985
  0
LINE
  8
_0-0_計極細
  6
CONTINUOUS
 62
    2
 10
1000
 20
661.96119180290179
 11
1001.6988081970976
 21
663.65999999999985
  0
LINE
  8
_0-0_計極細
  6
CONTINUOUS
 62
    2
 10
1004.9999999999991
 20
662.2914198766448
 11
1003.631419876644
 21
663.65999999999985
  0
LINE
  8
_0-0_計極細
  6
CONTINUOUS
 62
    2
 10
1004.9999999999991
 20
659.74583546437327
 11
1001.0858354643724
 21
663.65999999999985
  0
LINE
  8
_0-0_計極細
  6
CONTINUOUS
 62
    2
 10
1000
 20
662.20025105210186
 11
1004.9999999999991
 21
657.20025105210175
  0
LINE
  8
_0-0_計極細
  6
CONTINUOUS
 62
    2
 10
1000
 20
659.65466663983011
 11
1002.9946666398291
 21
656.65999999999985
  0
LINE
  8
_0-0_計極細
  6
CONTINUOUS
 62
    2
 10
1000
 20
657.10908222755859
 11
1000.4490822275585
 21
656.65999999999985
  0
LINE
  8
_0-0_計極細
  6
CONTINUOUS
 62
    2
 10
1004.9999999999991
 20
663.16000000000008
 11
1004.9999999999991
 21
663.65999999999985
  0
LINE
  8
_0-0_計極細
  6
CONTINUOUS
 62
    2
 10
1004.9999999999991
 20
663.65999999999985
 11
1000
 21
663.65999999999985
  0
LINE
  8
_0-0_計極細
  6
CONTINUOUS
 62
    2
 10
1004.9999999999991
 20
656.65999999999985
 11
946.49335171293035
 21
656.65999999999985
  0
LINE
  8
_0-0_計極細
  6
CONTINUOUS
 62
    2
 10
1000
 20
663.65999999999985
 11
946.49335171293035
 21
663.65999999999985
  0
LINE
  8
_0-0_計極細
  6
CONTINUOUS
 62
    2
 10
1000
 20
663.65999999999985
 11
1000
 21
656.65999999999985
  0
CIRCLE
  8
_0-0_計極細
  6
CONTINUOUS
 62
    2
 10
1023.9834770114231
 20
582.46797217592257
 40
1.0953188836088352
  0
CIRCLE
  8
_0-0_計極細
  6
CONTINUOUS
 62
    2
 10
1021.103477011423
 20
593.6679721759225
 40
1.0953188836088352
  0
CIRCLE
  8
_0-0_計極細
  6
CONTINUOUS
 62
    2
 10
999.51681034475678
 20
595.82797217592247
 40
1.0953188836088352
  0
CIRCLE
  8
_0-0_計極細
  6
CONTINUOUS
 62
    2
 10
967.5968103447567
 20
603.5079721759223
 40
1.0953188836088352
  0
CIRCLE
  8
_0-0_計極細
  6
CONTINUOUS
 62
    2
 10
979.35681034475692
 20
626.30797217592203
 40
1.0953188836088352
  0
CIRCLE
  8
_0-0_計極細
  6
CONTINUOUS
 62
    2
 10
992.79681034475652
 20
620.2279721759221
 40
1.0953188836088352
  0
CIRCLE
  8
_0-0_計極細
  6
CONTINUOUS
 62
    2
 10
963.43287185722886
 20
644.14574074074062
 40
1.0953188836088352
  0
CIRCLE
  8
_0-0_計極細
  6
CONTINUOUS
 62
    2
 10
994.49014367808923
 20
639.98797217592187
 40
1.0953188836088352
  0
CIRCLE
  8
_0-0_計極細
  6
CONTINUOUS
 62
    2
 10
1006.6634770114234
 20
626.79760180555161
 40
0.3318518518518431
  0
CIRCLE
  8
_0-0_計極細
  6
CONTINUOUS
 62
    2
 10
1027.8101436780889
 20
608.95760180555158
 40
0.3318518518518431
  0
CIRCLE
  8
_0-0_計極細
  6
CONTINUOUS
 62
    2
 10
1027.4901436780892
 20
619.73093513888512
 40
0.3318518518518431
  0
CIRCLE
  8
_0-0_計極細
  6
CONTINUOUS
 62
    2
 10
1018.4234770114235
 20
625.70426847221825
 40
0.3318518518518431
  0
CIRCLE
  8
_0-0_計極細
  6
CONTINUOUS
 62
    2
 10
1009.5701436780901
 20
605.22426847221834
 40
0.3318518518518431
  0
CIRCLE
  8
_0-0_計極細
  6
CONTINUOUS
 62
    2
 10
1019.5701436780901
 20
579.05537958332968
 40
0.3318518518518431
  0
CIRCLE
  8
_0-0_計極細
  6
CONTINUOUS
 62
    2
 10
1023.730143678089
 20
588.01537958332972
 40
0.3318518518518431
  0
CIRCLE
  8
_0-0_計極細
  6
CONTINUOUS
 62
    2
 10
1015.5168103447568
 20
596.97537958332975
 40
0.3318518518518431
  0
CIRCLE
  8
_0-0_計極細
  6
CONTINUOUS
 62
    2
 10
1007.7301436780899
 20
595.05537958332957
 40
0.3318518518518431
  0
CIRCLE
  8
_0-0_計極細
  6
CONTINUOUS
 62
    2
 10
995.7834770114232
 20
594.41537958332958
 40
0.3318518518518431
  0
CIRCLE
  8
_0-0_計極細
  6
CONTINUOUS
 62
    2
 10
997.91681034475641
 20
599.96204624999632
 40
0.3318518518518431
  0
CIRCLE
  8
_0-0_計極細
  6
CONTINUOUS
 62
    2
 10
994.18347701142295
 20
601.45537958332943
 40
0.3318518518518431
  0
CIRCLE
  8
_0-0_計極細
  6
CONTINUOUS
 62
    2
 10
1000.9034770114232
 20
604.76204624999627
 40
0.3318518518518431
  0
CIRCLE
  8
_0-0_計極細
  6
CONTINUOUS
 62
    2
 10
977.32347701142317
 20
594.02871291666293
 40
0.3318518518518431
  0
CIRCLE
  8
_0-0_計極細
  6
CONTINUOUS
 62
    2
 10
973.5901436780897
 20
599.14871291666282
 40
0.3318518518518431
  0
CIRCLE
  8
_0-0_計極細
  6
CONTINUOUS
 62
    2
 10
968.36347701142313
 20
595.09537958332953
 40
0.3318518518518431
  0
CIRCLE
  8
_0-0_計極細
  6
CONTINUOUS
 62
    2
 10
971.77681034475711
 20
605.86871291666296
 40
0.3318518518518431
  0
CIRCLE
  8
_0-0_計極細
  6
CONTINUOUS
 62
    2
 10
996.44347701142226
 20
622.1353795833295
 40
0.3318518518518431
  0
CIRCLE
  8
_0-0_計極細
  6
CONTINUOUS
 62
    2
 10
980.01681034475678
 20
617.76204624999593
 40
0.3318518518518431
  0
CIRCLE
  8
_0-0_計極細
  6
CONTINUOUS
 62
    2
 10
988.87014367809024
 20
625.86871291666262
 40
0.3318518518518431
  0
CIRCLE
  8
_0-0_計極細
  6
CONTINUOUS
 62
    2
 10
996.44347701142226
 20
629.28204624999591
 40
0.3318518518518431
  0
CIRCLE
  8
_0-0_計極細
  6
CONTINUOUS
 62
    2
 10
981.40347701142321
 20
631.52204624999604
 40
0.3318518518518431
  0
CIRCLE
  8
_0-0_計極細
  6
CONTINUOUS
 62
    2
 10
969.13681034475667
 20
632.26871291666248
 40
0.3318518518518431
  0
CIRCLE
  8
_0-0_計極細
  6
CONTINUOUS
 62
    2
 10
978.41014367808941
 20
648.56871291666255
 40
0.3318518518518431
  0
CIRCLE
  8
_0-0_計極細
  6
CONTINUOUS
 62
    2
 10
985.45014367809017
 20
639.60871291666251
 40
0.3318518518518431
  0
CIRCLE
  8
_0-0_計極細
  6
CONTINUOUS
 62
    2
 10
1000.3834770114227
 20
639.92871291666256
 40
0.3318518518518431
  0
CIRCLE
  8
_0-0_計極細
  6
CONTINUOUS
 62
    2
 10
996.97014367809061
 20
649.63537958332927
 40
0.3318518518518431
  0
CIRCLE
  8
_0-0_計極細
  6
CONTINUOUS
 62
    2
 10
982.0368103447563
 20
643.6620462499958
 40
0.3318518518518431
  0
CIRCLE
  8
_0-0_計極細
  6
CONTINUOUS
 62
    2
 10
964.97014367809072
 20
636.62204624999595
 40
0.3318518518518431
  0
CIRCLE
  8
_0-0_計極細
  6
CONTINUOUS
 62
    2
 10
957.39681034475689
 20
635.44871291666266
 40
0.3318518518518431
  0
CIRCLE
  8
_0-0_計極細
  6
CONTINUOUS
 62
    2
 10
951.03236590031338
 20
634.80871291666267
 40
0.3318518518518431
  0
CIRCLE
  8
_0-0_計極細
  6
CONTINUOUS
 62
    2
 10
957.23088441883192
 20
640.7820462499958
 40
0.3318518518518431
  0
LINE
  8
_0-0_計極細
  6
CONTINUOUS
 62
    2
 10
992.54681526100649
 20
574.91503989299451
 11
1008.2917753680113
 21
590.65999999999985
  0
LINE
  8
_0-0_計極細
  6
CONTINUOUS
 62
    2
 10
950.12040852182156
 20
574.91504002500255
 11
965.86536849681761
 21
590.65999999999985
  0
LINE
  8
_0-0_計極細
  6
CONTINUOUS
 62
    2
 10
946.49335171293035
 20
613.71439008730522
 11
964.43896162562578
 21
631.65999999999997
  0
LINE
  8
_0-0_計極細
  6
CONTINUOUS
 62
    2
 10
988.3041745870878
 20
574.91503990619549
 11
1004.0491346808914
 21
590.65999999999985
  0
LINE
  8
_0-0_計極細
  6
CONTINUOUS
 62
    2
 10
946.49335171293035
 20
575.5306239032318
 11
964.99999999999829
 21
594.03727219030043
  0
LINE
  8
_0-0_計極細
  6
CONTINUOUS
 62
    2
 10
946.49335171293035
 20
617.95703077442465
 11
960.19632093850589
 21
631.65999999999997
  0
LINE
  8
_0-0_計極細
  6
CONTINUOUS
 62
    2
 10
984.06153391316923
 20
574.91503991939624
 11
999.80649399377228
 21
590.65999999999985
  0
LINE
  8
_0-0_計極細
  6
CONTINUOUS
 62
    2
 10
946.49335171293035
 20
579.773264590351
 11
964.99999999999829
 21
598.27991287741986
  0
LINE
  8
_0-0_計極細
  6
CONTINUOUS
 62
    2
 10
946.49335171293035
 20
622.19967146154386
 11
955.95368025138578
 21
631.65999999999997
  0
LINE
  8
_0-0_計極細
  6
CONTINUOUS
 62
    2
 10
1015
 20
590.65999999999985
 11
1015
 21
574.91503982313259
  0
LINE
  8
_0-0_計極細
  6
CONTINUOUS
 62
    2
 10
964.99999999999829
 20
631.65999999999997
 11
946.49335171293035
 21
631.65999999999997
  0
LINE
  8
_0-0_計極細
  6
CONTINUOUS
 62
    2
 10
1015
 20
590.65999999999985
 11
964.99999999999829
 21
590.65999999999985
  0
LINE
  8
_0-0_計極細
  6
CONTINUOUS
 62
    2
 10
964.99999999999829
 20
631.65999999999997
 11
964.99999999999829
 21
590.65999999999985
  0
LINE
  8
_0-0_計極細
  6
CENTER1
 62
    2
 10
1085
 20
628.9485023087301
 11
1085
 21
672.0185023087339
  0
LINE
  8
_0-7_枠細線
  6
CONTINUOUS
 62
    5
 10
1183.9140288208205
 20
632.80808383106432
 11
1176.4140288208205
 21
647.80808383106432
  0
LINE
  8
_0-7_枠細線
  6
CONTINUOUS
 62
    5
 10
1168.9140288208205
 20
632.80808383106432
 11
1183.9140288208205
 21
632.80808383106432
  0
LINE
  8
_0-7_枠細線
  6
CONTINUOUS
 62
    5
 10
1176.4140288208205
 20
647.80808383106432
 11
1168.9140288208205
 21
632.80808383106432
  0
TEXT
  8
_0-7_枠細線
 62
    5
 10
1171.2791800889686
 20
631.85926386621441
 40
12.5
 41
0.8
 50
0
  1
５
  0
LINE
  8
_0-5_寸法線
  6
CONTINUOUS
 62
    7
 10
1165
 20
602.65999999999985
 11
1165
 21
557.65999999999974
  0
LINE
  8
_0-5_寸法線
  6
CONTINUOUS
 62
    7
 10
1165
 20
562.65999999999974
 11
1155.3407417371093
 21
560.07180954897456
  0
LINE
  8
_0-5_寸法線
  6
CONTINUOUS
 62
    7
 10
1165
 20
562.65999999999974
 11
1155.3407417371093
 21
565.24819045102493
  0
LINE
  8
_0-5_寸法線
  6
CONTINUOUS
 62
    7
 10
1135
 20
625.65999999999985
 11
1135
 21
557.65999999999974
  0
LINE
  8
_0-5_寸法線
  6
CONTINUOUS
 62
    7
 10
1135
 20
562.65999999999974
 11
1144.6592582628907
 21
565.24819045102493
  0
LINE
  8
_0-5_寸法線
  6
CONTINUOUS
 62
    7
 10
1135
 20
562.65999999999974
 11
1144.6592582628907
 21
560.07180954897456
  0
LINE
  8
_0-5_寸法線
  6
CONTINUOUS
 62
    7
 10
1165
 20
562.65999999999974
 11
1135
 21
562.65999999999974
  0
TEXT
  8
_0-5_寸法線
 62
    7
 10
1142.5
 20
562.65999999999974
 40
15
 41
1
 50
0
  1
30
  0
LINE
  8
_0-5_寸法線
  6
CONTINUOUS
 62
    7
 10
1004.9999999999991
 20
602.65999999999985
 11
1004.9999999999991
 21
557.65999999999974
  0
LINE
  8
_0-5_寸法線
  6
CONTINUOUS
 62
    7
 10
1004.9999999999991
 20
562.65999999999974
 11
1014.6592582628898
 21
565.24819045102493
  0
LINE
  8
_0-5_寸法線
  6
CONTINUOUS
 62
    7
 10
1004.9999999999991
 20
562.65999999999974
 11
1014.6592582628898
 21
560.07180954897456
  0
LINE
  8
_0-5_寸法線
  6
CONTINUOUS
 62
    7
 10
1034.9999999999991
 20
625.65999999999985
 11
1034.9999999999991
 21
557.65999999999974
  0
LINE
  8
_0-5_寸法線
  6
CONTINUOUS
 62
    7
 10
1034.9999999999991
 20
562.65999999999974
 11
1025.3407417371086
 21
560.07180954897456
  0
LINE
  8
_0-5_寸法線
  6
CONTINUOUS
 62
    7
 10
1034.9999999999991
 20
562.65999999999974
 11
1025.3407417371086
 21
565.24819045102493
  0
LINE
  8
_0-5_寸法線
  6
CONTINUOUS
 62
    7
 10
1004.9999999999991
 20
562.65999999999974
 11
1034.9999999999991
 21
562.65999999999974
  0
TEXT
  8
_0-5_寸法線
 62
    7
 10
1012.4999999999991
 20
562.65999999999974
 40
15
 41
1
 50
0
  1
30
  0
LINE
  8
_0-5_寸法線
  6
CONTINUOUS
 62
    7
 10
1034.9999999999991
 20
630.65999999999985
 11
1034.9999999999991
 21
557.65999999999985
  0
LINE
  8
_0-5_寸法線
  6
CONTINUOUS
 62
    7
 10
1034.9999999999991
 20
562.65999999999985
 11
1044.6592582628898
 21
565.24819045102504
  0
LINE
  8
_0-5_寸法線
  6
CONTINUOUS
 62
    7
 10
1034.9999999999991
 20
562.65999999999985
 11
1044.6592582628898
 21
560.07180954897467
  0
LINE
  8
_0-5_寸法線
  6
CONTINUOUS
 62
    7
 10
1135
 20
630.65999999999985
 11
1135
 21
557.65999999999985
  0
LINE
  8
_0-5_寸法線
  6
CONTINUOUS
 62
    7
 10
1135
 20
562.65999999999985
 11
1125.3407417371093
 21
560.07180954897467
  0
LINE
  8
_0-5_寸法線
  6
CONTINUOUS
 62
    7
 10
1135
 20
562.65999999999985
 11
1125.3407417371093
 21
565.24819045102504
  0
LINE
  8
_0-5_寸法線
  6
CONTINUOUS
 62
    7
 10
1034.9999999999991
 20
562.65999999999985
 11
1135
 21
562.65999999999985
  0
TEXT
  8
_0-5_寸法線
 62
    7
 10
1073.75
 20
562.65999999999985
 40
15
 41
1
 50
0
  1
100
  0
TEXT
  8
_0-7_枠細線
 62
    5
 10
1035.6825687070714
 20
524.94207792640861
 40
25
 41
0.8
 50
0
  1
断面詳細図
  0
TEXT
  8
_0-7_枠細線
 62
    5
 10
1150.6315384562395
 20
527.45718700659745
 40
20
 41
0.6
 50
0
  1
Ｓ＝１：５
  0
LINE
  8
_0-7_枠細線
  6
CONTINUOUS
 62
    5
 10
890
 20
820
 11
890
 21
959.99999999999909
  0
LINE
  8
_0-7_枠細線
  6
CONTINUOUS
 62
    5
 10
925
 20
820
 11
925
 21
959.99999999999909
  0
LINE
  8
_0-7_枠細線
  6
CONTINUOUS
 62
    5
 10
1175
 20
820
 11
1175
 21
959.99999999999909
  0
LINE
  8
_0-7_枠細線
  6
CONTINUOUS
 62
    5
 10
1275
 20
820
 11
1275
 21
959.99999999999909
  0
LINE
  8
_0-1_計細線
  6
CONTINUOUS
 62
    3
 10
1096.0277575233167
 20
663.45999999999799
 11
1096.0277575233167
 21
644.45999999999754
  0
LINE
  8
_0-1_計細線
  6
CONTINUOUS
 62
    3
 10
1091.3277575233164
 20
644.45999999999754
 11
1091.3277575233164
 21
663.45999999999799
  0
LINE
  8
_0-1_計細線
  6
CONTINUOUS
 62
    3
 10
1096.0277575233167
 20
644.45999999999754
 11
1091.3277575233164
 21
644.45999999999754
  0
LINE
  8
_0-1_計細線
  6
CONTINUOUS
 62
    3
 10
1091.3277575233164
 20
663.45999999999799
 11
1096.0277575233167
 21
663.45999999999799
  0
LINE
  8
_0-1_計細線
  6
DASHED2
 62
    3
 10
1091.3277575233164
 20
647.45999999999754
 11
1096.0277575233167
 21
647.45999999999754
  0
LINE
  8
_0-1_計細線
  6
DASHED2
 62
    3
 10
1091.3277575233164
 20
660.95999999999788
 11
1096.0277575233167
 21
660.95999999999788
  0
LINE
  8
_0-1_計細線
  6
CONTINUOUS
 62
    3
 10
438.51795824097024
 20
560.95583080107986
 11
491.51795824097019
 21
560.95583080107986
  0
LINE
  8
_0-1_計細線
  6
CONTINUOUS
 62
    3
 10
491.51795824097019
 20
565.65583080107967
 11
438.51795824097024
 21
565.65583080107967
  0
LINE
  8
_0-1_計細線
  6
CONTINUOUS
 62
    3
 10
438.51795824097024
 20
565.65583080107967
 11
438.51795824097024
 21
560.95583080107986
  0
LINE
  8
_0-1_計細線
  6
CONTINUOUS
 62
    3
 10
481.51795824097019
 20
565.65583080107967
 11
481.51795824097019
 21
560.95583080107986
  0
LINE
  8
_0-1_計細線
  6
CONTINUOUS
 62
    3
 10
489.51795824097019
 20
565.65583080107967
 11
489.51795824097019
 21
560.95583080107986
  0
LINE
  8
_0-1_計細線
  6
CONTINUOUS
 62
    3
 10
491.51795824097019
 20
565.65583080107967
 11
491.51795824097019
 21
560.95583080107986
  0
LINE
  8
_0-1_計細線
  6
CONTINUOUS
 62
    3
 10
487.51795824097024
 20
565.65583080107967
 11
487.51795824097024
 21
560.95583080107986
  0
LINE
  8
_0-1_計細線
  6
CONTINUOUS
 62
    3
 10
485.51795824097019
 20
565.65583080107967
 11
485.51795824097019
 21
560.95583080107986
  0
LINE
  8
_0-1_計細線
  6
CONTINUOUS
 62
    3
 10
483.51795824097024
 20
565.65583080107967
 11
483.51795824097024
 21
560.95583080107986
  0
LINE
  8
_0-d_寸法3
  6
CONTINUOUS
 62
    7
 10
450.06150548286519
 20
229.09093285812048
 11
450.06150548286519
 21
270.75759952478705
  0
LINE
  8
_0-d_寸法3
  6
CONTINUOUS
 62
    7
 10
450.06150548286519
 20
265.75759952478705
 11
459.72076374575585
 21
268.34578997581224
  0
LINE
  8
_0-d_寸法3
  6
CONTINUOUS
 62
    7
 10
450.06150548286519
 20
265.75759952478705
 11
459.72076374575585
 21
263.16940907376187
  0
LINE
  8
_0-d_寸法3
  6
CONTINUOUS
 62
    7
 10
479.06150548346824
 20
229.09093285812048
 11
479.06150548346824
 21
270.75759952478705
  0
LINE
  8
_0-d_寸法3
  6
CONTINUOUS
 62
    7
 10
479.06150548346824
 20
265.75759952478705
 11
469.40224722057746
 21
263.16940907376187
  0
LINE
  8
_0-d_寸法3
  6
CONTINUOUS
 62
    7
 10
479.06150548346824
 20
265.75759952478705
 11
469.40224722057758
 21
268.34578997581229
  0
LINE
  8
_0-d_寸法3
  6
CONTINUOUS
 62
    7
 10
450.06150548286519
 20
265.75759952478705
 11
479.06150548346824
 21
265.75759952478705
  0
TEXT
  8
_0-d_寸法3
 62
    7
 10
438.51532757322389
 20
250.75759952478705
 40
15
 41
1
 50
0
  1
(17.4)
  0
LINE
  8
_0-d_寸法3
  6
CONTINUOUS
 62
    7
 10
479.06150548346824
 20
265.75759952478705
 11
488.72076374635895
 21
268.34578997581218
  0
LINE
  8
_0-d_寸法3
  6
CONTINUOUS
 62
    7
 10
479.06150548346824
 20
265.75759952478705
 11
488.7207637463589
 21
263.16940907376181
  0
LINE
  8
_0-d_寸法3
  6
CONTINUOUS
 62
    7
 10
508.06150548407118
 20
229.09093285812048
 11
508.06150548407118
 21
270.75759952478705
  0
LINE
  8
_0-d_寸法3
  6
CONTINUOUS
 62
    7
 10
508.06150548407118
 20
265.75759952478705
 11
498.40224722118052
 21
263.16940907376187
  0
LINE
  8
_0-d_寸法3
  6
CONTINUOUS
 62
    7
 10
508.06150548407118
 20
265.75759952478705
 11
498.40224722118052
 21
268.34578997581229
  0
LINE
  8
_0-d_寸法3
  6
CONTINUOUS
 62
    7
 10
479.06150548346824
 20
265.75759952478705
 11
508.06150548407118
 21
265.75759952478705
  0
TEXT
  8
_0-d_寸法3
 62
    7
 10
475.58199423989049
 20
265.75759952478705
 40
15
 41
1
 50
0
  1
(17.4)
  0
ARC
  8
_0-a_極細3
  6
CONTINUOUS
 62
    7
 10
538.89090880860135
 20
207.57765036643551
 40
17.558839598481345
 50
150.03871396148173
 51
205.23810402387875
  0
ARC
  8
_0-a_極細3
  6
CONTINUOUS
 62
    7
 10
507.12543361870331
 20
192.60414115380485
 40
17.558839598481345
 50
330.03871396148202
 51
25.238104023878119
  0
ARC
  8
_0-a_極細3
  6
CONTINUOUS
 62
    7
 10
393.97109337026745
 20
207.57765036643551
 40
17.558839598481345
 50
150.03871396148173
 51
205.23810402387861
  0
ARC
  8
_0-a_極細3
  6
CONTINUOUS
 62
    7
 10
362.20561818036936
 20
192.60414115380485
 40
17.558839598481345
 50
330.03871396148202
 51
25.238104023878119
  0
ARC
  8
_0-b_細線3
  6
CONTINUOUS
 62
    7
 10
442.22817215137104
 20
215.75759952478705
 40
1.666666666666667
 50
89.999999999999915
 51
179.99999999999983
  0
ARC
  8
_0-b_細線3
  6
CONTINUOUS
 62
    7
 10
443.00808747025008
 20
219.09093285812048
 40
1.666666666666667
 50
269.99999999999977
 51
330.00000000000279
  0
ARC
  8
_0-b_細線3
  6
CONTINUOUS
 62
    7
 10
445.8948388161981
 20
217.42426619145405
 40
1.666666666666667
 50
89.999999999999915
 51
150.00000000000134
  0
LINE
  8
_0-b_細線3
  6
CONTINUOUS
 62
    7
 10
442.22817215137104
 20
217.42426619145405
 11
443.00808747025008
 21
217.42426619145405
  0
ARC
  8
_0-b_細線3
  6
CONTINUOUS
 62
    7
 10
457.8948388143591
 20
215.75759952478705
 40
1.666666666666667
 50
0
 51
89.999999999999915
  0
ARC
  8
_0-b_細線3
  6
CONTINUOUS
 62
    7
 10
457.11492349547973
 20
219.09093285812048
 40
1.666666666666667
 50
210.00000000000236
 51
269.99999999999977
  0
ARC
  8
_0-b_細線3
  6
CONTINUOUS
 62
    7
 10
454.2281721495317
 20
217.42426619145405
 40
1.666666666666667
 50
29.999999999992824
 51
89.999999999988276
  0
LINE
  8
_0-b_細線3
  6
CONTINUOUS
 62
    7
 10
457.8948388143591
 20
217.42426619145405
 11
457.11492349547973
 21
217.42426619145405
  0
ARC
  8
_0-b_細線3
  6
CONTINUOUS
 62
    7
 10
441.39483881803767
 20
213.424266191454
 40
0.8333333333333334
 50
179.99999999999983
 51
269.99999999999977
  0
LINE
  8
_0-b_細線3
  6
CONTINUOUS
 62
    7
 10
440.56150548470418
 20
215.75759952478705
 11
440.56150548470418
 21
213.424266191454
  0
ARC
  8
_0-b_細線3
  6
CONTINUOUS
 62
    7
 10
458.72817214769225
 20
213.424266191454
 40
0.8333333333333334
 50
269.99999999999977
 51
359.99999999999966
  0
LINE
  8
_0-b_細線3
  6
CONTINUOUS
 62
    7
 10
459.56150548102562
 20
215.75759952478705
 11
459.56150548102562
 21
213.424266191454
  0
ARC
  8
_0-b_細線3
  6
CONTINUOUS
 62
    7
 10
445.56150548470418
 20
210.924266191454
 40
1.666666666666667
 50
0
 51
89.999999999999915
  0
LINE
  8
_0-b_細線3
  6
CONTINUOUS
 62
    7
 10
445.56150548470418
 20
212.59093285812057
 11
441.39483881803767
 21
212.59093285812057
  0
ARC
  8
_0-b_細線3
  6
CONTINUOUS
 62
    7
 10
454.56150548470453
 20
210.924266191454
 40
1.666666666666667
 50
89.999999999999915
 51
179.99999999999983
  0
LINE
  8
_0-b_細線3
  6
CONTINUOUS
 62
    7
 10
454.56150548102562
 20
212.59093285812057
 11
458.72817214769225
 21
212.59093285812057
  0
LINE
  8
_0-b_細線3
  6
CONTINUOUS
 62
    7
 10
454.2281721495317
 20
219.09093285812048
 11
445.8948388161981
 21
219.09093285812048
  0
LINE
  8
_0-b_細線3
  6
CONTINUOUS
 62
    7
 10
447.22817214953159
 20
177.42426619145405
 11
447.22817215137104
 21
210.924266191454
  0
LINE
  8
_0-b_細線3
  6
CONTINUOUS
 62
    7
 10
452.89483881619822
 20
177.42426619145405
 11
452.89483881803801
 21
210.924266191454
  0
LINE
  8
_0-b_細線3
  6
CONTINUOUS
 62
    7
 10
452.89483881619822
 20
177.42426619145405
 11
447.22817214953159
 21
177.42426619145405
  0
ARC
  8
_0-b_細線3
  6
CONTINUOUS
 62
    7
 10
471.22817215197415
 20
215.75759952478705
 40
1.666666666666667
 50
89.999999999999915
 51
179.99999999999983
  0
ARC
  8
_0-b_細線3
  6
CONTINUOUS
 62
    7
 10
472.00808747085296
 20
219.09093285812048
 40
1.666666666666667
 50
269.99999999999977
 51
329.99999999999886
  0
ARC
  8
_0-b_細線3
  6
CONTINUOUS
 62
    7
 10
474.89483881680115
 20
217.42426619145405
 40
1.666666666666667
 50
89.999999999999915
 51
150.00000000000719
  0
LINE
  8
_0-b_細線3
  6
CONTINUOUS
 62
    7
 10
471.22817215197415
 20
217.42426619145405
 11
472.00808747085296
 21
217.42426619145405
  0
ARC
  8
_0-b_細線3
  6
CONTINUOUS
 62
    7
 10
486.89483881496216
 20
215.75759952478705
 40
1.666666666666667
 50
0
 51
89.999999999999915
  0
ARC
  8
_0-b_細線3
  6
CONTINUOUS
 62
    7
 10
486.11492349608284
 20
219.09093285812048
 40
1.666666666666667
 50
209.99999999999451
 51
269.99999999999977
  0
ARC
  8
_0-b_細線3
  6
CONTINUOUS
 62
    7
 10
483.2281721501347
 20
217.42426619145405
 40
1.666666666666667
 50
29.999999999998682
 51
89.999999999999915
  0
LINE
  8
_0-b_細線3
  6
CONTINUOUS
 62
    7
 10
486.89483881496216
 20
217.42426619145405
 11
486.11492349608284
 21
217.42426619145405
  0
ARC
  8
_0-b_細線3
  6
CONTINUOUS
 62
    7
 10
470.39483881864112
 20
213.424266191454
 40
0.8333333333333334
 50
179.99999999999983
 51
269.99999999999977
  0
LINE
  8
_0-b_細線3
  6
CONTINUOUS
 62
    7
 10
469.56150548530707
 20
215.75759952478705
 11
469.56150548530707
 21
213.424266191454
  0
ARC
  8
_0-b_細線3
  6
CONTINUOUS
 62
    7
 10
487.72817214829513
 20
213.424266191454
 40
0.8333333333333334
 50
269.99999999999977
 51
359.99999999999966
  0
LINE
  8
_0-b_細線3
  6
CONTINUOUS
 62
    7
 10
488.56150548162873
 20
215.75759952478705
 11
488.56150548162873
 21
213.424266191454
  0
ARC
  8
_0-b_細線3
  6
CONTINUOUS
 62
    7
 10
474.56150548530724
 20
210.924266191454
 40
1.666666666666667
 50
0
 51
89.999999999999915
  0
LINE
  8
_0-b_細線3
  6
CONTINUOUS
 62
    7
 10
474.56150548530724
 20
212.59093285812057
 11
470.39483881864112
 21
212.59093285812057
  0
ARC
  8
_0-b_細線3
  6
CONTINUOUS
 62
    7
 10
483.56150548530763
 20
210.924266191454
 40
1.666666666666667
 50
89.999999999999915
 51
179.99999999999983
  0
LINE
  8
_0-b_細線3
  6
CONTINUOUS
 62
    7
 10
483.56150548162873
 20
212.59093285812057
 11
487.72817214829513
 21
212.59093285812057
  0
LINE
  8
_0-b_細線3
  6
CONTINUOUS
 62
    7
 10
483.2281721501347
 20
219.09093285812048
 11
474.89483881680115
 21
219.09093285812048
  0
LINE
  8
_0-b_細線3
  6
CONTINUOUS
 62
    7
 10
476.2281721501347
 20
177.42426619145405
 11
476.22817215197415
 21
210.924266191454
  0
LINE
  8
_0-b_細線3
  6
CONTINUOUS
 62
    7
 10
481.89483881680127
 20
177.42426619145405
 11
481.89483881864106
 21
210.924266191454
  0
LINE
  8
_0-b_細線3
  6
CONTINUOUS
 62
    7
 10
481.89483881680127
 20
177.42426619145405
 11
476.2281721501347
 21
177.42426619145405
  0
ARC
  8
_0-b_細線3
  6
CONTINUOUS
 62
    7
 10
500.22817215257714
 20
215.75759952478705
 40
1.666666666666667
 50
89.999999999999915
 51
179.99999999999983
  0
ARC
  8
_0-b_細線3
  6
CONTINUOUS
 62
    7
 10
501.00808747145607
 20
219.09093285812048
 40
1.666666666666667
 50
269.99999999999977
 51
329.99999999999693
  0
ARC
  8
_0-b_細線3
  6
CONTINUOUS
 62
    7
 10
503.89483881740426
 20
217.42426619145405
 40
1.666666666666667
 50
89.999999999999915
 51
150.00000000000915
  0
LINE
  8
_0-b_細線3
  6
CONTINUOUS
 62
    7
 10
500.22817215257714
 20
217.42426619145405
 11
501.00808747145607
 21
217.42426619145405
  0
ARC
  8
_0-b_細線3
  6
CONTINUOUS
 62
    7
 10
515.89483881556521
 20
215.75759952478705
 40
1.666666666666667
 50
0
 51
89.999999999999915
  0
ARC
  8
_0-b_細線3
  6
CONTINUOUS
 62
    7
 10
515.11492349668583
 20
219.09093285812048
 40
1.666666666666667
 50
210.00000000000236
 51
269.99999999999977
  0
ARC
  8
_0-b_細線3
  6
CONTINUOUS
 62
    7
 10
512.22817215073769
 20
217.42426619145405
 40
1.666666666666667
 50
29.999999999990862
 51
89.999999999984354
  0
LINE
  8
_0-b_細線3
  6
CONTINUOUS
 62
    7
 10
515.89483881556521
 20
217.42426619145405
 11
515.11492349668583
 21
217.42426619145405
  0
ARC
  8
_0-b_細線3
  6
CONTINUOUS
 62
    7
 10
499.39483881924366
 20
213.424266191454
 40
0.8333333333333334
 50
179.99999999999983
 51
269.99999999999977
  0
LINE
  8
_0-b_細線3
  6
CONTINUOUS
 62
    7
 10
498.56150548591017
 20
215.75759952478705
 11
498.56150548591017
 21
213.424266191454
  0
ARC
  8
_0-b_細線3
  6
CONTINUOUS
 62
    7
 10
516.72817214889824
 20
213.424266191454
 40
0.8333333333333334
 50
269.99999999999977
 51
359.99999999999966
  0
LINE
  8
_0-b_細線3
  6
CONTINUOUS
 62
    7
 10
517.56150548223172
 20
215.75759952478705
 11
517.56150548223172
 21
213.424266191454
  0
ARC
  8
_0-b_細線3
  6
CONTINUOUS
 62
    7
 10
503.56150548591017
 20
210.924266191454
 40
1.666666666666667
 50
0
 51
89.999999999999915
  0
LINE
  8
_0-b_細線3
  6
CONTINUOUS
 62
    7
 10
503.56150548591017
 20
212.59093285812057
 11
499.39483881924366
 21
212.59093285812057
  0
ARC
  8
_0-b_細線3
  6
CONTINUOUS
 62
    7
 10
512.56150548591017
 20
210.924266191454
 40
1.666666666666667
 50
89.999999999999915
 51
179.99999999999983
  0
LINE
  8
_0-b_細線3
  6
CONTINUOUS
 62
    7
 10
512.56150548223127
 20
212.59093285812057
 11
516.72817214889824
 21
212.59093285812057
  0
LINE
  8
_0-b_細線3
  6
CONTINUOUS
 62
    7
 10
512.22817215073769
 20
219.09093285812048
 11
503.89483881740426
 21
219.09093285812048
  0
LINE
  8
_0-b_細線3
  6
CONTINUOUS
 62
    7
 10
505.22817215073769
 20
177.42426619145405
 11
505.22817215257714
 21
210.924266191454
  0
LINE
  8
_0-b_細線3
  6
CONTINUOUS
 62
    7
 10
510.89483881740421
 20
177.42426619145405
 11
510.89483881924417
 21
210.924266191454
  0
LINE
  8
_0-b_細線3
  6
CONTINUOUS
 62
    7
 10
510.89483881740421
 20
177.42426619145405
 11
505.22817215073769
 21
177.42426619145405
  0
ARC
  8
_0-b_細線3
  6
CONTINUOUS
 62
    7
 10
384.22817214984809
 20
215.75759952478705
 40
1.666666666666667
 50
89.999999999999915
 51
179.99999999999983
  0
ARC
  8
_0-b_細線3
  6
CONTINUOUS
 62
    7
 10
385.00808746872713
 20
219.09093285812048
 40
1.666666666666667
 50
269.99999999999977
 51
330.00000000000279
  0
ARC
  8
_0-b_細線3
  6
CONTINUOUS
 62
    7
 10
387.89483881467532
 20
217.42426619145405
 40
1.666666666666667
 50
89.999999999999915
 51
150.0000000000033
  0
LINE
  8
_0-b_細線3
  6
CONTINUOUS
 62
    7
 10
384.22817214984809
 20
217.42426619145405
 11
385.00808746872713
 21
217.42426619145405
  0
ARC
  8
_0-b_細線3
  6
CONTINUOUS
 62
    7
 10
399.89483881283633
 20
215.75759952478705
 40
1.666666666666667
 50
0
 51
89.999999999999915
  0
ARC
  8
_0-b_細線3
  6
CONTINUOUS
 62
    7
 10
399.11492349395735
 20
219.09093285812048
 40
1.666666666666667
 50
209.99999999999451
 51
269.99999999999977
  0
ARC
  8
_0-b_細線3
  6
CONTINUOUS
 62
    7
 10
396.22817214800875
 20
217.42426619145405
 40
1.666666666666667
 50
29.999999999990862
 51
89.999999999988276
  0
LINE
  8
_0-b_細線3
  6
CONTINUOUS
 62
    7
 10
399.89483881283633
 20
217.42426619145405
 11
399.11492349395735
 21
217.42426619145405
  0
ARC
  8
_0-b_細線3
  6
CONTINUOUS
 62
    7
 10
383.39483881651518
 20
213.424266191454
 40
0.8333333333333334
 50
179.99999999999983
 51
269.99999999999977
  0
LINE
  8
_0-b_細線3
  6
CONTINUOUS
 62
    7
 10
382.56150548318124
 20
215.75759952478705
 11
382.56150548318124
 21
213.424266191454
  0
ARC
  8
_0-b_細線3
  6
CONTINUOUS
 62
    7
 10
400.7281721461693
 20
213.424266191454
 40
0.8333333333333334
 50
269.99999999999977
 51
359.99999999999966
  0
LINE
  8
_0-b_細線3
  6
CONTINUOUS
 62
    7
 10
401.56150547950324
 20
215.75759952478705
 11
401.56150547950324
 21
213.424266191454
  0
ARC
  8
_0-b_細線3
  6
CONTINUOUS
 62
    7
 10
387.56150548318124
 20
210.924266191454
 40
1.666666666666667
 50
0
 51
89.999999999999915
  0
LINE
  8
_0-b_細線3
  6
CONTINUOUS
 62
    7
 10
387.56150548318124
 20
212.59093285812057
 11
383.39483881651518
 21
212.59093285812057
  0
ARC
  8
_0-b_細線3
  6
CONTINUOUS
 62
    7
 10
396.56150548318158
 20
210.924266191454
 40
1.666666666666667
 50
89.999999999999915
 51
179.99999999999983
  0
LINE
  8
_0-b_細線3
  6
CONTINUOUS
 62
    7
 10
396.56150547950267
 20
212.59093285812057
 11
400.7281721461693
 21
212.59093285812057
  0
LINE
  8
_0-b_細線3
  6
CONTINUOUS
 62
    7
 10
396.22817214800875
 20
219.09093285812048
 11
387.89483881467532
 21
219.09093285812048
  0
LINE
  8
_0-b_細線3
  6
CONTINUOUS
 62
    7
 10
389.22817214800921
 20
177.42426619145405
 11
389.22817214984809
 21
210.924266191454
  0
LINE
  8
_0-b_細線3
  6
CONTINUOUS
 62
    7
 10
394.89483881467527
 20
177.42426619145405
 11
394.89483881651523
 21
210.924266191454
  0
LINE
  8
_0-b_細線3
  6
CONTINUOUS
 62
    7
 10
394.89483881467527
 20
177.42426619145405
 11
389.22817214800921
 21
177.42426619145405
  0
ARC
  8
_0-b_細線3
  6
CONTINUOUS
 62
    7
 10
413.2281721504512
 20
215.75759952478705
 40
1.666666666666667
 50
89.999999999999915
 51
179.99999999999983
  0
ARC
  8
_0-b_細線3
  6
CONTINUOUS
 62
    7
 10
414.00808746933058
 20
219.09093285812048
 40
1.666666666666667
 50
269.99999999999977
 51
329.99999999998909
  0
ARC
  8
_0-b_細線3
  6
CONTINUOUS
 62
    7
 10
416.89483881527826
 20
217.42426619145405
 40
1.666666666666667
 50
89.999999999999915
 51
150.00000000000915
  0
LINE
  8
_0-b_細線3
  6
CONTINUOUS
 62
    7
 10
413.2281721504512
 20
217.42426619145405
 11
414.00808746933058
 21
217.42426619145405
  0
ARC
  8
_0-b_細線3
  6
CONTINUOUS
 62
    7
 10
428.89483881343926
 20
215.75759952478705
 40
1.666666666666667
 50
0
 51
89.999999999999915
  0
ARC
  8
_0-b_細線3
  6
CONTINUOUS
 62
    7
 10
428.11492349455989
 20
219.09093285812048
 40
1.666666666666667
 50
210.00000000000236
 51
269.99999999999977
  0
ARC
  8
_0-b_細線3
  6
CONTINUOUS
 62
    7
 10
425.2281721486122
 20
217.42426619145405
 40
1.666666666666667
 50
29.999999999998682
 51
89.999999999999915
  0
LINE
  8
_0-b_細線3
  6
CONTINUOUS
 62
    7
 10
428.89483881343926
 20
217.42426619145405
 11
428.11492349455989
 21
217.42426619145405
  0
ARC
  8
_0-b_細線3
  6
CONTINUOUS
 62
    7
 10
412.39483881711817
 20
213.424266191454
 40
0.8333333333333334
 50
179.99999999999983
 51
269.99999999999977
  0
LINE
  8
_0-b_細線3
  6
CONTINUOUS
 62
    7
 10
411.56150548378469
 20
215.75759952478705
 11
411.56150548378469
 21
213.424266191454
  0
ARC
  8
_0-b_細線3
  6
CONTINUOUS
 62
    7
 10
429.72817214677218
 20
213.424266191454
 40
0.8333333333333334
 50
269.99999999999977
 51
359.99999999999966
  0
LINE
  8
_0-b_細線3
  6
CONTINUOUS
 62
    7
 10
430.56150548010578
 20
215.75759952478705
 11
430.56150548010578
 21
213.424266191454
  0
ARC
  8
_0-b_細線3
  6
CONTINUOUS
 62
    7
 10
416.56150548378469
 20
210.924266191454
 40
1.666666666666667
 50
0
 51
89.999999999999915
  0
LINE
  8
_0-b_細線3
  6
CONTINUOUS
 62
    7
 10
416.56150548378469
 20
212.59093285812057
 11
412.39483881711817
 21
212.59093285812057
  0
ARC
  8
_0-b_細線3
  6
CONTINUOUS
 62
    7
 10
425.56150548378469
 20
210.924266191454
 40
1.666666666666667
 50
89.999999999999915
 51
179.99999999999983
  0
LINE
  8
_0-b_細線3
  6
CONTINUOUS
 62
    7
 10
425.56150548010578
 20
212.59093285812057
 11
429.72817214677218
 21
212.59093285812057
  0
LINE
  8
_0-b_細線3
  6
CONTINUOUS
 62
    7
 10
425.2281721486122
 20
219.09093285812048
 11
416.89483881527826
 21
219.09093285812048
  0
LINE
  8
_0-b_細線3
  6
CONTINUOUS
 62
    7
 10
418.22817214861175
 20
177.42426619145405
 11
418.2281721504512
 21
210.924266191454
  0
LINE
  8
_0-b_細線3
  6
CONTINUOUS
 62
    7
 10
423.89483881527872
 20
177.42426619145405
 11
423.89483881711817
 21
210.924266191454
  0
LINE
  8
_0-b_細線3
  6
CONTINUOUS
 62
    7
 10
423.89483881527872
 20
177.42426619145405
 11
418.22817214861175
 21
177.42426619145405
  0
LINE
  8
_0-d_寸法3
  6
CONTINUOUS
 62
    7
 10
516.25302592727712
 20
183.16003055496452
 11
551.60536765296263
 21
207.91400672465528
  0
LINE
  8
_0-d_寸法3
  6
CONTINUOUS
 62
    7
 10
547.50960743151768
 20
205.0461245429
 11
544.92141698049249
 21
214.70538280579069
  0
LINE
  8
_0-d_寸法3
  6
CONTINUOUS
 62
    7
 10
547.50960743151768
 20
205.0461245429
 11
550.09779788254286
 21
214.70538280579069
  0
LINE
  8
_0-d_寸法3
  6
CONTINUOUS
 62
    7
 10
516.25302592727712
 20
224.82669722163098
 11
551.60536765296263
 21
249.58067339132182
  0
LINE
  8
_0-d_寸法3
  6
CONTINUOUS
 62
    7
 10
547.50960743151768
 20
246.71279120956655
 11
550.09779788254286
 21
237.05353294667589
  0
LINE
  8
_0-d_寸法3
  6
CONTINUOUS
 62
    7
 10
547.50960743151768
 20
246.71279120956655
 11
544.92141698049238
 21
237.05353294667589
  0
LINE
  8
_0-d_寸法3
  6
CONTINUOUS
 62
    7
 10
547.50960743151768
 20
205.0461245429
 11
547.50960743151768
 21
246.71279120956655
  0
TEXT
  8
_0-d_寸法3
 62
    7
 10
547.50960743151768
 20
218.37945787623437
 40
15
 41
1
 50
90
  1
25
  0
LINE
  8
_0-a_極細3
  6
CENTER1
 62
    7
 10
528.8602724731611
 20
200.42426619145374
 11
366.2817298452353
 21
200.42426619145374
  0
LINE
  8
_0-b_細線3
  6
CONTINUOUS
 62
    7
 10
452.89483881711817
 20
189.5909328581206
 11
476.2281721504516
 21
189.5909328581206
  0
LINE
  8
_0-b_細線3
  6
CONTINUOUS
 62
    7
 10
481.89483881772117
 20
189.5909328581206
 11
505.22817215105471
 21
189.5909328581206
  0
LINE
  8
_0-b_細線3
  6
CONTINUOUS
 62
    7
 10
394.89483881559522
 20
189.5909328581206
 11
418.22817214892871
 21
189.5909328581206
  0
LINE
  8
_0-b_細線3
  6
CONTINUOUS
 62
    7
 10
423.89483881619867
 20
189.5909328581206
 11
447.22817214953159
 21
189.5909328581206
  0
LINE
  8
_0-b_細線3
  6
CONTINUOUS
 62
    7
 10
452.89483881711817
 20
211.25759952478731
 11
476.2281721504516
 21
211.25759952478731
  0
LINE
  8
_0-b_細線3
  6
CONTINUOUS
 62
    7
 10
481.89483881772117
 20
211.25759952478731
 11
505.22817215105471
 21
211.25759952478731
  0
LINE
  8
_0-b_細線3
  6
CONTINUOUS
 62
    7
 10
394.89483881559522
 20
211.25759952478731
 11
418.22817214892871
 21
211.25759952478731
  0
LINE
  8
_0-b_細線3
  6
CONTINUOUS
 62
    7
 10
423.89483881619867
 20
211.25759952478731
 11
447.22817214953159
 21
211.25759952478731
  0
LINE
  8
_0-b_細線3
  6
CONTINUOUS
 62
    7
 10
510.89483881832422
 20
211.25759952478731
 11
521.65393520912426
 21
211.25759952478731
  0
LINE
  8
_0-b_細線3
  6
CONTINUOUS
 62
    7
 10
510.89483881832422
 20
189.5909328581206
 11
524.36240721818035
 21
189.5909328581206
  0
LINE
  8
_0-b_細線3
  6
CONTINUOUS
 62
    7
 10
376.73411977079036
 20
211.25759952478731
 11
389.22817214832577
 21
211.25759952478731
  0
LINE
  8
_0-b_細線3
  6
CONTINUOUS
 62
    7
 10
379.44259177984645
 20
189.5909328581206
 11
389.22817214832577
 21
189.5909328581206
  0
TEXT
  8
_0-7_枠細線
 62
    5
 10
410.32817214861132
 20
128.5404661036894
 40
25.000000000000007
 41
0.8
 50
0
  1
断面詳細
  0
TEXT
  8
_0-7_枠細線
 62
    5
 10
515.27714189777942
 20
131.49990592400917
 40
20.000000000000004
 41
0.5999999999999999
 50
0
  1
Ｓ＝１：３
  0
LINE
  8
_0-d_寸法3
  6
CONTINUOUS
 62
    7
 10
401.56150547950324
 20
229.09093285812048
 11
401.56150547950324
 21
270.75759952478705
  0
LINE
  8
_0-d_寸法3
  6
CONTINUOUS
 62
    7
 10
401.56150547950324
 20
265.75759952478705
 11
391.90224721661252
 21
263.16940907376187
  0
LINE
  8
_0-d_寸法3
  6
CONTINUOUS
 62
    7
 10
401.56150547950324
 20
265.75759952478705
 11
391.90224721661258
 21
268.34578997581229
  0
LINE
  8
_0-d_寸法3
  6
CONTINUOUS
 62
    7
 10
411.56150548378469
 20
229.09093285812048
 11
411.56150548378486
 21
270.75759952478705
  0
LINE
  8
_0-d_寸法3
  6
CONTINUOUS
 62
    7
 10
377.18754979633638
 20
265.75759952478705
 11
411.56150548378486
 21
265.75759952478705
  0
TEXT
  8
_0-d_寸法3
 62
    7
 10
377.18754979633627
 20
250.75759952478705
 40
15
 41
1
 50
0
  1
(6)
  0
LINE
  8
_0-d_寸法3
  6
CONTINUOUS
 62
    7
 10
411.56150548378486
 20
265.75759952478705
 11
421.22076374667552
 21
268.34578997581224
  0
LINE
  8
_0-d_寸法3
  6
CONTINUOUS
 62
    7
 10
411.56150548378486
 20
265.75759952478705
 11
421.22076374667552
 21
263.16940907376187
  0
LINE
  8
_0-d_寸法3
  6
CONTINUOUS
 62
    7
 10
430.56150548010578
 20
229.09093285812048
 11
430.56150548010589
 21
270.75759952478705
  0
LINE
  8
_0-d_寸法3
  6
CONTINUOUS
 62
    7
 10
430.56150548010589
 20
265.75759952478705
 11
420.90224721721518
 21
263.16940907376187
  0
LINE
  8
_0-d_寸法3
  6
CONTINUOUS
 62
    7
 10
430.56150548010589
 20
265.75759952478705
 11
420.90224721721529
 21
268.34578997581229
  0
LINE
  8
_0-d_寸法3
  6
CONTINUOUS
 62
    7
 10
411.56150548378486
 20
265.75759952478705
 11
430.56150548010589
 21
265.75759952478705
  0
TEXT
  8
_0-d_寸法3
 62
    7
 10
402.29680905559519
 20
265.75759952478705
 40
15
 41
1
 50
0
  1
11.4
  0
LINE
  8
_0-5_寸法線
  6
CONTINUOUS
 62
    7
 10
994.99999999999909
 20
663.65999999999997
 11
947.69999999999982
 21
663.66000000000031
  0
LINE
  8
_0-5_寸法線
  6
CONTINUOUS
 62
    7
 10
952.69999999999982
 20
663.66000000000031
 11
955.28819045102512
 21
654.00074173710948
  0
LINE
  8
_0-5_寸法線
  6
CONTINUOUS
 62
    7
 10
952.69999999999982
 20
663.66000000000031
 11
950.11180954897463
 21
654.00074173710948
  0
LINE
  8
_0-5_寸法線
  6
CONTINUOUS
 62
    7
 10
992.69999999999982
 20
635.65999999999985
 11
947.69999999999982
 21
635.65999999999985
  0
LINE
  8
_0-5_寸法線
  6
CONTINUOUS
 62
    7
 10
952.69999999999982
 20
635.65999999999985
 11
950.11180954897463
 21
645.31925826289057
  0
LINE
  8
_0-5_寸法線
  6
CONTINUOUS
 62
    7
 10
952.69999999999982
 20
635.65999999999985
 11
955.28819045102512
 21
645.31925826289057
  0
LINE
  8
_0-5_寸法線
  6
CONTINUOUS
 62
    7
 10
952.69999999999982
 20
663.66000000000031
 11
952.69999999999982
 21
635.65999999999985
  0
TEXT
  8
_0-5_寸法線
 62
    7
 10
952.69999999999982
 20
642.15999999999997
 40
15
 41
1
 50
90
  1
28
  0
LINE
  8
_0-5_寸法線
  6
CONTINUOUS
 62
    7
 10
992.69999999999982
 20
635.65999999999985
 11
947.69999999999982
 21
635.65999999999985
  0
LINE
  8
_0-5_寸法線
  6
CONTINUOUS
 62
    7
 10
952.69999999999982
 20
635.65999999999985
 11
955.28819045102512
 21
626.00074173710914
  0
LINE
  8
_0-5_寸法線
  6
CONTINUOUS
 62
    7
 10
952.69999999999982
 20
635.65999999999985
 11
950.11180954897463
 21
626.00074173710914
  0
LINE
  8
_0-5_寸法線
  6
CONTINUOUS
 62
    7
 10
992.69999999999982
 20
612.65999999999985
 11
947.69999999999982
 21
612.65999999999985
  0
LINE
  8
_0-5_寸法線
  6
CONTINUOUS
 62
    7
 10
952.69999999999982
 20
612.65999999999985
 11
950.11180954897463
 21
622.31925826289057
  0
LINE
  8
_0-5_寸法線
  6
CONTINUOUS
 62
    7
 10
952.69999999999982
 20
612.65999999999985
 11
955.28819045102512
 21
622.31925826289057
  0
LINE
  8
_0-5_寸法線
  6
CONTINUOUS
 62
    7
 10
952.69999999999982
 20
635.65999999999985
 11
952.69999999999982
 21
612.65999999999985
  0
TEXT
  8
_0-5_寸法線
 62
    7
 10
952.69999999999982
 20
616.65999999999997
 40
15
 41
1
 50
90
  1
23
  0
LINE
  8
_0-5_寸法線
  6
CONTINUOUS
 62
    7
 10
527.10724588699065
 20
503.26924286845434
 11
531.53585929939948
 21
512.23514400796239
  0
LINE
  8
_0-5_寸法線
  6
CONTINUOUS
 62
    7
 10
527.10724588699065
 20
503.26924286845434
 11
535.42548817543127
 21
508.81963431688376
  0
LINE
  8
_0-5_寸法線
  6
CONTINUOUS
 62
    7
 10
527.10724588699065
 20
503.26924286845434
 11
556.01982498168979
 21
536.19528105860718
  0
LINE
  8
_0-5_寸法線
  6
CONTINUOUS
 62
    7
 10
556.01982498168979
 20
536.19528105860718
 11
664.01982498168991
 21
536.19528105860718
  0
TEXT
  8
_0-5_寸法線
 62
    7
 10
556.01982498168979
 20
536.19528105860718
 40
15
 41
0.8000000000000001
 50
0
  1
ＳＵＳアングル受枠
  0
LINE
  8
_0-5_寸法線
  6
CONTINUOUS
 62
    7
 10
504.96760606765781
 20
571.83357000350952
 11
509.39621953221882
 21
580.79947111725778
  0
LINE
  8
_0-5_寸法線
  6
CONTINUOUS
 62
    7
 10
504.96760606765781
 20
571.83357000350952
 11
513.28584838838344
 21
577.38396140355405
  0
LINE
  8
_0-5_寸法線
  6
CONTINUOUS
 62
    7
 10
504.96760606765781
 20
571.83357000350952
 11
556.01982498168979
 21
629.97253036498853
  0
LINE
  8
_0-5_寸法線
  6
CONTINUOUS
 62
    7
 10
556.01982498168979
 20
629.97253036498853
 11
688.01982498169014
 21
629.97253036498853
  0
TEXT
  8
_0-5_寸法線
 62
    7
 10
556.01982498169014
 20
629.97253036498853
 40
15
 41
0.8000000000000001
 50
0
  1
セーフティグレーチング
  0
TEXT
  8
_0-5_寸法線
 62
    7
 10
555.99224833355834
 20
521.08554661289293
 40
15
 41
0.8000000000000001
 50
0
  1
ＧＳＬ－２５
  0
LINE
  8
_0-5_寸法線
  6
CONTINUOUS
 62
    7
 10
358.5179582409711
 20
474.60583080107887
 11
278.51795824097121
 21
474.60583080107915
  0
LINE
  8
_0-5_寸法線
  6
CONTINUOUS
 62
    7
 10
283.51795824097121
 20
474.60583080107915
 11
280.92976778994603
 21
484.26508906396981
  0
LINE
  8
_0-5_寸法線
  6
CONTINUOUS
 62
    7
 10
283.51795824097121
 20
474.60583080107915
 11
286.10614869199651
 21
484.26508906396981
  0
LINE
  8
_0-5_寸法線
  6
CONTINUOUS
 62
    7
 10
358.51795824097161
 20
634.60583080108086
 11
278.51795824097121
 21
634.6058308010812
  0
LINE
  8
_0-5_寸法線
  6
CONTINUOUS
 62
    7
 10
283.51795824097121
 20
634.6058308010812
 11
286.10614869199651
 21
624.94657253819048
  0
LINE
  8
_0-5_寸法線
  6
CONTINUOUS
 62
    7
 10
283.51795824097121
 20
634.6058308010812
 11
280.92976778994603
 21
624.94657253819048
  0
LINE
  8
_0-5_寸法線
  6
CONTINUOUS
 62
    7
 10
283.51795824097121
 20
474.60583080107915
 11
283.51795824097121
 21
634.6058308010812
  0
TEXT
  8
_0-5_寸法線
 62
    7
 10
283.51795824097115
 20
543.35583080108017
 40
15
 41
1
 50
90
  1
160
  0
LINE
  8
_0-5_寸法線
  6
CONTINUOUS
 62
    7
 10
318.51795824097098
 20
474.60583080107892
 11
321.10614869199617
 21
464.94657253818821
  0
LINE
  8
_0-5_寸法線
  6
CONTINUOUS
 62
    7
 10
318.51795824097098
 20
474.60583080107892
 11
315.92976778994574
 21
464.94657253818832
  0
LINE
  8
_0-5_寸法線
  6
CONTINUOUS
 62
    7
 10
358.5179582409711
 20
477.60583080107887
 11
313.51795824097098
 21
477.60583080107892
  0
CIRCLE
  8
_0-5_寸法線
  6
CONTINUOUS
 62
    1
 10
318.51795824097098
 20
477.60583080107892
 40
1.5000000000000002
  0
LINE
  8
_0-5_寸法線
  6
CONTINUOUS
 62
    7
 10
318.51795824097098
 20
449.60583080107892
 11
318.51795824097098
 21
477.60583080107892
  0
TEXT
  8
_0-5_寸法線
 62
    7
 10
318.51795824097098
 20
452.95918897220901
 40
15
 41
1
 50
90
  1
3
  0
LINE
  8
_0-5_寸法線
  6
CONTINUOUS
 62
    7
 10
358.5179582409711
 20
479.60583080107887
 11
313.51795824097098
 21
479.60583080107881
  0
LINE
  8
_0-5_寸法線
  6
CONTINUOUS
 62
    7
 10
318.51795824097098
 20
477.60583080107892
 11
318.51795824097098
 21
479.60583080107881
  0
TEXT
  8
_0-5_寸法線
 62
    7
 10
337.37442687766367
 20
481.98004898146905
 40
15
 41
1
 50
90
  1
2
  0
LINE
  8
_0-5_寸法線
  6
CONTINUOUS
 62
    7
 10
318.51795824097098
 20
479.60583080107881
 11
315.9297677899458
 21
489.26508906396947
  0
LINE
  8
_0-5_寸法線
  6
CONTINUOUS
 62
    7
 10
318.51795824097098
 20
479.60583080107881
 11
321.10614869199622
 21
489.26508906396947
  0
LINE
  8
_0-5_寸法線
  6
CONTINUOUS
 62
    7
 10
358.5179582409711
 20
629.6058308010804
 11
313.51795824097098
 21
629.6058308010804
  0
LINE
  8
_0-5_寸法線
  6
CONTINUOUS
 62
    7
 10
318.51795824097098
 20
629.6058308010804
 11
321.10614869199617
 21
619.94657253818968
  0
LINE
  8
_0-5_寸法線
  6
CONTINUOUS
 62
    7
 10
318.51795824097098
 20
629.6058308010804
 11
315.92976778994574
 21
619.94657253818968
  0
LINE
  8
_0-5_寸法線
  6
CONTINUOUS
 62
    7
 10
318.51795824097098
 20
479.60583080107881
 11
318.51795824097098
 21
629.6058308010804
  0
TEXT
  8
_0-5_寸法線
 62
    7
 10
318.51795824097098
 20
543.35583080107972
 40
15
 41
1
 50
90
  1
150
  0
LINE
  8
_0-5_寸法線
  6
CONTINUOUS
 62
    7
 10
358.51795824097161
 20
631.60583080108086
 11
313.51795824097098
 21
631.60583080108097
  0
CIRCLE
  8
_0-5_寸法線
  6
CONTINUOUS
 62
    1
 10
318.51795824097098
 20
631.60583080108097
 40
1.5000000000000002
  0
LINE
  8
_0-5_寸法線
  6
CONTINUOUS
 62
    7
 10
318.51795824097098
 20
629.6058308010804
 11
318.51795824097098
 21
631.60583080108097
  0
TEXT
  8
_0-5_寸法線
 62
    7
 10
336.88118690761036
 20
619.10076065628334
 40
15
 41
1
 50
90
  1
2
  0
LINE
  8
_0-5_寸法線
  6
CONTINUOUS
 62
    7
 10
318.51795824097098
 20
634.60583080108097
 11
315.9297677899458
 21
644.2650890639718
  0
LINE
  8
_0-5_寸法線
  6
CONTINUOUS
 62
    7
 10
318.51795824097098
 20
634.60583080108097
 11
321.10614869199622
 21
644.2650890639718
  0
LINE
  8
_0-5_寸法線
  6
CONTINUOUS
 62
    7
 10
318.51795824097098
 20
631.60583080108097
 11
318.51795824097098
 21
659.60583080108097
  0
TEXT
  8
_0-5_寸法線
 62
    7
 10
318.51795824097098
 20
648.87159773133271
 40
15
 41
1
 50
90
  1
3
  0
LINE
  8
_0-5_寸法線
  6
CONTINUOUS
 62
    7
 10
368.51795824097132
 20
644.6058308010804
 11
368.51795824097155
 21
794.60583080108051
  0
LINE
  8
_0-5_寸法線
  6
CONTINUOUS
 62
    7
 10
368.51795824097155
 20
789.60583080108051
 11
378.17721650386216
 21
792.19402125210559
  0
LINE
  8
_0-5_寸法線
  6
CONTINUOUS
 62
    7
 10
368.51795824097155
 20
789.60583080108051
 11
378.17721650386216
 21
787.01764035005522
  0
LINE
  8
_0-5_寸法線
  6
CONTINUOUS
 62
    7
 10
528.51795824097178
 20
644.6058308010804
 11
528.51795824097212
 21
794.60583080108051
  0
LINE
  8
_0-5_寸法線
  6
CONTINUOUS
 62
    7
 10
528.51795824097212
 20
789.60583080108051
 11
518.8586999780814
 21
787.01764035005522
  0
LINE
  8
_0-5_寸法線
  6
CONTINUOUS
 62
    7
 10
528.51795824097212
 20
789.60583080108051
 11
518.8586999780814
 21
792.19402125210559
  0
LINE
  8
_0-5_寸法線
  6
CONTINUOUS
 62
    7
 10
368.51795824097155
 20
789.60583080108051
 11
528.51795824097212
 21
789.60583080108051
  0
TEXT
  8
_0-5_寸法線
 62
    7
 10
437.26795824097167
 20
789.6058308010804
 40
15
 41
1
 50
0
  1
160
  0
LINE
  8
_0-5_寸法線
  6
CONTINUOUS
 62
    7
 10
368.51795824097144
 20
754.6058308010804
 11
358.85869997808072
 21
752.01764035005522
  0
LINE
  8
_0-5_寸法線
  6
CONTINUOUS
 62
    7
 10
368.51795824097144
 20
754.6058308010804
 11
358.85869997808078
 21
757.19402125210559
  0
LINE
  8
_0-5_寸法線
  6
CONTINUOUS
 62
    7
 10
371.51795824097127
 20
644.6058308010804
 11
371.51795824097144
 21
759.6058308010804
  0
LINE
  8
_0-5_寸法線
  6
CONTINUOUS
 62
    7
 10
343.51795824097144
 20
754.6058308010804
 11
371.51795824097144
 21
754.6058308010804
  0
TEXT
  8
_0-5_寸法線
 62
    7
 10
347.41188198170454
 20
754.6058308010804
 40
15
 41
1
 50
0
  1
3
  0
LINE
  8
_0-5_寸法線
  6
CONTINUOUS
 62
    7
 10
371.51795824097144
 20
754.6058308010804
 11
381.17721650386216
 21
757.19402125210559
  0
LINE
  8
_0-5_寸法線
  6
CONTINUOUS
 62
    7
 10
371.51795824097144
 20
754.6058308010804
 11
381.1772165038621
 21
752.0176403500551
  0
LINE
  8
_0-5_寸法線
  6
CONTINUOUS
 62
    7
 10
525.51795824097189
 20
644.6058308010804
 11
525.51795824097212
 21
759.6058308010804
  0
LINE
  8
_0-5_寸法線
  6
CONTINUOUS
 62
    7
 10
525.51795824097212
 20
754.6058308010804
 11
515.8586999780814
 21
752.01764035005522
  0
LINE
  8
_0-5_寸法線
  6
CONTINUOUS
 62
    7
 10
525.51795824097212
 20
754.6058308010804
 11
515.8586999780814
 21
757.19402125210559
  0
LINE
  8
_0-5_寸法線
  6
CONTINUOUS
 62
    7
 10
371.51795824097144
 20
754.6058308010804
 11
525.51795824097212
 21
754.6058308010804
  0
TEXT
  8
_0-5_寸法線
 62
    7
 10
437.26795824097167
 20
754.6058308010804
 40
15
 41
1
 50
0
  1
154
  0
LINE
  8
_0-5_寸法線
  6
CONTINUOUS
 62
    7
 10
528.51795824097212
 20
754.6058308010804
 11
538.17721650386284
 21
757.19402125210559
  0
LINE
  8
_0-5_寸法線
  6
CONTINUOUS
 62
    7
 10
528.51795824097212
 20
754.6058308010804
 11
538.17721650386284
 21
752.0176403500551
  0
LINE
  8
_0-5_寸法線
  6
CONTINUOUS
 62
    7
 10
525.51795824097212
 20
754.6058308010804
 11
553.51795824097212
 21
754.6058308010804
  0
TEXT
  8
_0-5_寸法線
 62
    7
 10
542.68560460944173
 20
754.6058308010804
 40
15
 41
1
 50
0
  1
3
  0
LINE
  8
_0-5_寸法線
  6
CONTINUOUS
 62
    7
 10
373.51795824097132
 20
644.6058308010804
 11
373.51795824097138
 21
724.6058308010804
  0
LINE
  8
_0-5_寸法線
  6
CONTINUOUS
 62
    7
 10
373.51795824097138
 20
719.6058308010804
 11
383.17721650386204
 21
722.19402125210559
  0
LINE
  8
_0-5_寸法線
  6
CONTINUOUS
 62
    7
 10
373.51795824097138
 20
719.6058308010804
 11
383.17721650386204
 21
717.01764035005522
  0
LINE
  8
_0-5_寸法線
  6
CONTINUOUS
 62
    7
 10
523.51795824097144
 20
644.6058308010804
 11
523.51795824097144
 21
724.6058308010804
  0
LINE
  8
_0-5_寸法線
  6
CONTINUOUS
 62
    7
 10
523.51795824097144
 20
719.6058308010804
 11
513.85869997808072
 21
717.01764035005522
  0
LINE
  8
_0-5_寸法線
  6
CONTINUOUS
 62
    7
 10
523.51795824097144
 20
719.6058308010804
 11
513.85869997808072
 21
722.19402125210559
  0
LINE
  8
_0-5_寸法線
  6
CONTINUOUS
 62
    7
 10
373.51795824097138
 20
719.6058308010804
 11
523.51795824097144
 21
719.6058308010804
  0
TEXT
  8
_0-5_寸法線
 62
    7
 10
437.26795824097144
 20
719.6058308010804
 40
15
 41
1
 50
0
  1
150
  0
LINE
  8
_0-5_寸法線
  6
CONTINUOUS
 62
    7
 10
373.51795824097132
 20
644.6058308010804
 11
373.51795824097132
 21
689.6058308010804
  0
LINE
  8
_0-5_寸法線
  6
CONTINUOUS
 62
    7
 10
373.51795824097132
 20
684.6058308010804
 11
383.17721650386198
 21
687.19402125210559
  0
LINE
  8
_0-5_寸法線
  6
CONTINUOUS
 62
    7
 10
373.51795824097132
 20
684.6058308010804
 11
383.17721650386198
 21
682.01764035005522
  0
LINE
  8
_0-5_寸法線
  6
CONTINUOUS
 62
    7
 10
380.51795824097127
 20
644.6058308010804
 11
380.51795824097127
 21
689.6058308010804
  0
LINE
  8
_0-5_寸法線
  6
CONTINUOUS
 62
    7
 10
380.51795824097127
 20
684.6058308010804
 11
370.85869997808055
 21
682.01764035005522
  0
LINE
  8
_0-5_寸法線
  6
CONTINUOUS
 62
    7
 10
380.51795824097127
 20
684.6058308010804
 11
370.85869997808061
 21
687.19402125210559
  0
LINE
  8
_0-5_寸法線
  6
CONTINUOUS
 62
    7
 10
373.51795824097132
 20
684.6058308010804
 11
380.51795824097127
 21
684.6058308010804
  0
TEXT
  8
_0-5_寸法線
 62
    7
 10
374.73708208215561
 20
684.6058308010804
 40
15
 41
1
 50
0
  1
7
  0
LINE
  8
_0-5_寸法線
  6
CONTINUOUS
 62
    7
 10
380.51795824097127
 20
684.6058308010804
 11
390.17721650386198
 21
687.19402125210559
  0
LINE
  8
_0-5_寸法線
  6
CONTINUOUS
 62
    7
 10
380.51795824097127
 20
684.6058308010804
 11
390.17721650386193
 21
682.0176403500551
  0
LINE
  8
_0-5_寸法線
  6
CONTINUOUS
 62
    7
 10
477.51795824097132
 20
644.6058308010804
 11
477.51795824097132
 21
689.6058308010804
  0
LINE
  8
_0-5_寸法線
  6
CONTINUOUS
 62
    7
 10
477.51795824097132
 20
684.6058308010804
 11
467.85869997808055
 21
682.01764035005522
  0
LINE
  8
_0-5_寸法線
  6
CONTINUOUS
 62
    7
 10
477.51795824097132
 20
684.6058308010804
 11
467.85869997808061
 21
687.19402125210559
  0
LINE
  8
_0-5_寸法線
  6
CONTINUOUS
 62
    7
 10
380.51795824097127
 20
684.6058308010804
 11
477.51795824097132
 21
684.6058308010804
  0
TEXT
  8
_0-5_寸法線
 62
    7
 10
421.51795824097127
 20
684.6058308010804
 40
15
 41
1
 50
0
  1
97
  0
LINE
  8
_0-5_寸法線
  6
CONTINUOUS
 62
    7
 10
477.51795824097132
 20
684.6058308010804
 11
487.17721650386204
 21
687.19402125210559
  0
LINE
  8
_0-5_寸法線
  6
CONTINUOUS
 62
    7
 10
477.51795824097132
 20
684.6058308010804
 11
487.17721650386193
 21
682.0176403500551
  0
LINE
  8
_0-5_寸法線
  6
CONTINUOUS
 62
    7
 10
516.51795824097132
 20
644.6058308010804
 11
516.51795824097132
 21
689.6058308010804
  0
LINE
  8
_0-5_寸法線
  6
CONTINUOUS
 62
    7
 10
516.51795824097132
 20
684.6058308010804
 11
506.85869997808061
 21
682.01764035005522
  0
LINE
  8
_0-5_寸法線
  6
CONTINUOUS
 62
    7
 10
516.51795824097132
 20
684.6058308010804
 11
506.85869997808072
 21
687.19402125210559
  0
LINE
  8
_0-5_寸法線
  6
CONTINUOUS
 62
    7
 10
477.51795824097132
 20
684.6058308010804
 11
516.51795824097132
 21
684.6058308010804
  0
TEXT
  8
_0-5_寸法線
 62
    7
 10
489.51795824097132
 20
684.6058308010804
 40
15
 41
1
 50
0
  1
39
  0
LINE
  8
_0-5_寸法線
  6
CONTINUOUS
 62
    7
 10
516.51795824097132
 20
684.6058308010804
 11
526.17721650386204
 21
687.19402125210559
  0
LINE
  8
_0-5_寸法線
  6
CONTINUOUS
 62
    7
 10
516.51795824097132
 20
684.6058308010804
 11
526.17721650386204
 21
682.0176403500551
  0
LINE
  8
_0-5_寸法線
  6
CONTINUOUS
 62
    7
 10
523.51795824097144
 20
644.6058308010804
 11
523.51795824097144
 21
689.6058308010804
  0
LINE
  8
_0-5_寸法線
  6
CONTINUOUS
 62
    7
 10
523.51795824097144
 20
684.6058308010804
 11
513.85869997808061
 21
682.01764035005522
  0
LINE
  8
_0-5_寸法線
  6
CONTINUOUS
 62
    7
 10
523.51795824097144
 20
684.6058308010804
 11
513.85869997808061
 21
687.19402125210559
  0
LINE
  8
_0-5_寸法線
  6
CONTINUOUS
 62
    7
 10
516.51795824097132
 20
684.6058308010804
 11
523.51795824097144
 21
684.6058308010804
  0
TEXT
  8
_0-5_寸法線
 62
    7
 10
515.1384484960588
 20
684.6058308010804
 40
15
 41
1
 50
0
  1
7
  0
LINE
  8
_0-5_寸法線
  6
CONTINUOUS
 62
    7
 10
1004.9999999999991
 20
673.65999999999985
 11
1004.9999999999993
 21
788.65999999999985
  0
LINE
  8
_0-5_寸法線
  6
CONTINUOUS
 62
    7
 10
1004.9999999999993
 20
783.65999999999985
 11
1014.6592582628899
 21
786.24819045102515
  0
LINE
  8
_0-5_寸法線
  6
CONTINUOUS
 62
    7
 10
1004.9999999999993
 20
783.65999999999985
 11
1014.6592582628899
 21
781.07180954897467
  0
LINE
  8
_0-5_寸法線
  6
CONTINUOUS
 62
    7
 10
1164.9999999999991
 20
673.65999999999985
 11
1164.9999999999995
 21
788.65999999999985
  0
LINE
  8
_0-5_寸法線
  6
CONTINUOUS
 62
    7
 10
1164.9999999999995
 20
783.65999999999985
 11
1155.3407417371086
 21
781.07180954897467
  0
LINE
  8
_0-5_寸法線
  6
CONTINUOUS
 62
    7
 10
1164.9999999999995
 20
783.65999999999985
 11
1155.3407417371086
 21
786.24819045102515
  0
LINE
  8
_0-5_寸法線
  6
CONTINUOUS
 62
    7
 10
1004.9999999999993
 20
783.65999999999985
 11
1164.9999999999995
 21
783.65999999999985
  0
TEXT
  8
_0-5_寸法線
 62
    7
 10
1073.7499999999995
 20
783.65999999999985
 40
15
 41
1
 50
0
  1
160
  0
LINE
  8
_0-5_寸法線
  6
CONTINUOUS
 62
    7
 10
1004.9999999999991
 20
673.65999999999985
 11
1004.9999999999994
 21
753.65999999999985
  0
LINE
  8
_0-5_寸法線
  6
CONTINUOUS
 62
    7
 10
1004.9999999999994
 20
748.65999999999985
 11
995.3407417371086
 21
746.07180954897467
  0
LINE
  8
_0-5_寸法線
  6
CONTINUOUS
 62
    7
 10
1004.9999999999994
 20
748.65999999999985
 11
995.3407417371086
 21
751.24819045102515
  0
LINE
  8
_0-5_寸法線
  6
CONTINUOUS
 62
    7
 10
1007.9999999999991
 20
673.65999999999985
 11
1007.9999999999994
 21
753.65999999999985
  0
CIRCLE
  8
_0-5_寸法線
  6
CONTINUOUS
 62
    1
 10
1007.9999999999994
 20
748.65999999999985
 40
1.5000000000000002
  0
LINE
  8
_0-5_寸法線
  6
CONTINUOUS
 62
    7
 10
979.99999999999943
 20
748.65999999999985
 11
1007.9999999999994
 21
748.65999999999985
  0
TEXT
  8
_0-5_寸法線
 62
    7
 10
983.71703085595936
 20
748.65999999999985
 40
15
 41
1
 50
0
  1
3
  0
LINE
  8
_0-5_寸法線
  6
CONTINUOUS
 62
    7
 10
1009.9999999996554
 20
673.65999999999985
 11
1009.9999999996555
 21
753.65999999999985
  0
LINE
  8
_0-5_寸法線
  6
CONTINUOUS
 62
    7
 10
1007.9999999999994
 20
748.65999999999985
 11
1009.9999999996555
 21
748.65999999999985
  0
TEXT
  8
_0-5_寸法線
 62
    7
 10
1010.2291420665666
 20
748.65999999999985
 40
15
 41
1
 50
0
  1
2
  0
LINE
  8
_0-5_寸法線
  6
CONTINUOUS
 62
    7
 10
1009.9999999996555
 20
748.65999999999985
 11
1019.6592582625464
 21
751.24819045102515
  0
LINE
  8
_0-5_寸法線
  6
CONTINUOUS
 62
    7
 10
1009.9999999996555
 20
748.65999999999985
 11
1019.6592582625464
 21
746.07180954897456
  0
LINE
  8
_0-5_寸法線
  6
CONTINUOUS
 62
    7
 10
1160.0000000003429
 20
673.65999999999985
 11
1160.0000000003429
 21
753.65999999999985
  0
LINE
  8
_0-5_寸法線
  6
CONTINUOUS
 62
    7
 10
1160.0000000003429
 20
748.65999999999985
 11
1150.3407417374522
 21
746.07180954897467
  0
LINE
  8
_0-5_寸法線
  6
CONTINUOUS
 62
    7
 10
1160.0000000003429
 20
748.65999999999985
 11
1150.3407417374522
 21
751.24819045102515
  0
LINE
  8
_0-5_寸法線
  6
CONTINUOUS
 62
    7
 10
1009.9999999996555
 20
748.65999999999985
 11
1160.0000000003429
 21
748.65999999999985
  0
TEXT
  8
_0-5_寸法線
 62
    7
 10
1073.7499999999991
 20
748.65999999999985
 40
15
 41
1
 50
0
  1
150
  0
LINE
  8
_0-5_寸法線
  6
CONTINUOUS
 62
    7
 10
1161.9999999999991
 20
673.65999999999985
 11
1161.9999999999991
 21
753.65999999999985
  0
CIRCLE
  8
_0-5_寸法線
  6
CONTINUOUS
 62
    1
 10
1161.9999999999991
 20
748.65999999999985
 40
1.5000000000000002
  0
LINE
  8
_0-5_寸法線
  6
CONTINUOUS
 62
    7
 10
1160.0000000003429
 20
748.65999999999985
 11
1161.9999999999991
 21
748.65999999999985
  0
TEXT
  8
_0-5_寸法線
 62
    7
 10
1150.0935010748033
 20
748.65999999999985
 40
15
 41
1
 50
0
  1
2
  0
LINE
  8
_0-5_寸法線
  6
CONTINUOUS
 62
    7
 10
1164.9999999999991
 20
673.65999999999985
 11
1164.9999999999991
 21
753.65999999999985
  0
LINE
  8
_0-5_寸法線
  6
CONTINUOUS
 62
    7
 10
1164.9999999999991
 20
748.65999999999985
 11
1174.6592582628898
 21
751.24819045102515
  0
LINE
  8
_0-5_寸法線
  6
CONTINUOUS
 62
    7
 10
1164.9999999999991
 20
748.65999999999985
 11
1174.6592582628898
 21
746.07180954897456
  0
LINE
  8
_0-5_寸法線
  6
CONTINUOUS
 62
    7
 10
1161.9999999999991
 20
748.65999999999985
 11
1189.9999999999991
 21
748.65999999999985
  0
TEXT
  8
_0-5_寸法線
 62
    7
 10
1179.8208061642765
 20
748.65999999999985
 40
15
 41
1
 50
0
  1
3
  0
LINE
  8
_0-5_寸法線
  6
CONTINUOUS
 62
    7
 10
1038.4999999978104
 20
673.65999999999985
 11
1038.4999999978104
 21
718.65999999999985
  0
LINE
  8
_0-5_寸法線
  6
CONTINUOUS
 62
    7
 10
1038.4999999978104
 20
713.65999999999985
 11
1028.8407417349197
 21
711.07180954897467
  0
LINE
  8
_0-5_寸法線
  6
CONTINUOUS
 62
    7
 10
1038.4999999978104
 20
713.65999999999985
 11
1028.8407417349197
 21
716.24819045102515
  0
LINE
  8
_0-5_寸法線
  6
CONTINUOUS
 62
    7
 10
1044.500000000379
 20
673.65999999999985
 11
1044.500000000379
 21
718.65999999999985
  0
LINE
  8
_0-5_寸法線
  6
CONTINUOUS
 62
    7
 10
1010.8614557817602
 20
713.65999999999985
 11
1044.500000000379
 21
713.65999999999985
  0
TEXT
  8
_0-5_寸法線
 62
    7
 10
1010.8614557817602
 20
698.65999999999985
 40
15
 41
1
 50
0
  1
(6)
  0
LINE
  8
_0-5_寸法線
  6
CONTINUOUS
 62
    7
 10
1044.500000000379
 20
713.65999999999985
 11
1054.1592582632697
 21
716.24819045102515
  0
LINE
  8
_0-5_寸法線
  6
CONTINUOUS
 62
    7
 10
1044.500000000379
 20
713.65999999999985
 11
1054.1592582632697
 21
711.07180954897456
  0
LINE
  8
_0-5_寸法線
  6
CONTINUOUS
 62
    7
 10
1055.8999999981722
 20
673.65999999999985
 11
1055.8999999981722
 21
718.65999999999985
  0
LINE
  8
_0-5_寸法線
  6
CONTINUOUS
 62
    7
 10
1055.8999999981722
 20
713.65999999999985
 11
1046.2407417352815
 21
711.07180954897467
  0
LINE
  8
_0-5_寸法線
  6
CONTINUOUS
 62
    7
 10
1055.8999999981722
 20
713.65999999999985
 11
1046.2407417352815
 21
716.24819045102515
  0
LINE
  8
_0-5_寸法線
  6
CONTINUOUS
 62
    7
 10
1044.500000000379
 20
713.65999999999985
 11
1055.8999999981722
 21
713.65999999999985
  0
TEXT
  8
_0-5_寸法線
 62
    7
 10
1035.1999999992759
 20
713.65999999999985
 40
15
 41
1
 50
0
  1
11.4
  0
LINE
  8
_0-5_寸法線
  6
CONTINUOUS
 62
    7
 10
1102.4000000003607
 20
673.65999999999985
 11
1102.4000000003607
 21
718.65999999999985
  0
LINE
  8
_0-5_寸法線
  6
CONTINUOUS
 62
    7
 10
1102.4000000003607
 20
713.65999999999985
 11
1112.0592582632514
 21
716.24819045102515
  0
LINE
  8
_0-5_寸法線
  6
CONTINUOUS
 62
    7
 10
1102.4000000003607
 20
713.65999999999985
 11
1112.0592582632514
 21
711.07180954897467
  0
LINE
  8
_0-5_寸法線
  6
CONTINUOUS
 62
    7
 10
1119.8000000007228
 20
673.65999999999985
 11
1119.8000000007228
 21
718.65999999999985
  0
LINE
  8
_0-5_寸法線
  6
CONTINUOUS
 62
    7
 10
1119.8000000007228
 20
713.65999999999985
 11
1110.1407417378321
 21
711.07180954897467
  0
LINE
  8
_0-5_寸法線
  6
CONTINUOUS
 62
    7
 10
1119.8000000007228
 20
713.65999999999985
 11
1110.1407417378321
 21
716.24819045102515
  0
LINE
  8
_0-5_寸法線
  6
CONTINUOUS
 62
    7
 10
1102.4000000003607
 20
713.65999999999985
 11
1119.8000000007228
 21
713.65999999999985
  0
TEXT
  8
_0-5_寸法線
 62
    7
 10
1085.0538220905989
 20
698.65999999999985
 40
15
 41
1
 50
0
  1
(17.4)
  0
LINE
  8
_0-5_寸法線
  6
CONTINUOUS
 62
    7
 10
1119.8000000007228
 20
713.65999999999985
 11
1129.4592582636137
 21
716.24819045102515
  0
LINE
  8
_0-5_寸法線
  6
CONTINUOUS
 62
    7
 10
1119.8000000007228
 20
713.65999999999985
 11
1129.4592582636137
 21
711.07180954897456
  0
LINE
  8
_0-5_寸法線
  6
CONTINUOUS
 62
    7
 10
1137.2000000010844
 20
673.65999999999985
 11
1137.2000000010844
 21
718.65999999999985
  0
LINE
  8
_0-5_寸法線
  6
CONTINUOUS
 62
    7
 10
1137.2000000010844
 20
713.65999999999985
 11
1127.5407417381937
 21
711.07180954897467
  0
LINE
  8
_0-5_寸法線
  6
CONTINUOUS
 62
    7
 10
1137.2000000010844
 20
713.65999999999985
 11
1127.5407417381937
 21
716.24819045102515
  0
LINE
  8
_0-5_寸法線
  6
CONTINUOUS
 62
    7
 10
1119.8000000007228
 20
713.65999999999985
 11
1137.2000000010844
 21
713.65999999999985
  0
TEXT
  8
_0-5_寸法線
 62
    7
 10
1110.5204887570244
 20
713.65999999999985
 40
15
 41
1
 50
0
  1
(17.4)
  0
LINE
  8
_0-5_寸法線
  6
CONTINUOUS
 62
    7
 10
1076.8084795571101
 20
644.39576436351081
 11
1053.2916847515469
 21
660.86240136089702
  0
LINE
  8
_0-5_寸法線
  6
CONTINUOUS
 62
    7
 10
1057.3874449729919
 20
657.99451917914166
 11
1054.7992545219668
 21
667.65377744203238
  0
LINE
  8
_0-5_寸法線
  6
CONTINUOUS
 62
    7
 10
1057.3874449729919
 20
657.99451917914166
 11
1059.9756354240171
 21
667.65377744203238
  0
LINE
  8
_0-5_寸法線
  6
CONTINUOUS
 62
    7
 10
1076.8084795571101
 20
669.39576436351047
 11
1053.2916847515469
 21
685.86240136089668
  0
LINE
  8
_0-5_寸法線
  6
CONTINUOUS
 62
    7
 10
1057.3874449729919
 20
682.99451917914143
 11
1059.9756354240171
 21
673.33526091625072
  0
LINE
  8
_0-5_寸法線
  6
CONTINUOUS
 62
    7
 10
1057.3874449729919
 20
682.99451917914143
 11
1054.7992545219668
 21
673.33526091625072
  0
LINE
  8
_0-5_寸法線
  6
CONTINUOUS
 62
    7
 10
1057.3874449729919
 20
657.99451917914166
 11
1057.3874449729919
 21
682.99451917914143
  0
TEXT
  8
_0-5_寸法線
 62
    7
 10
1057.3874449729922
 20
662.99451917914166
 40
15
 41
1
 50
90
  1
25
  0
LINE
  8
_0-1_計細線
  6
CONTINUOUS
 62
    3
 10
1012.4999999991041
 20
652.45999999999981
 11
1009.4954839991033
 21
652.45999999999981
  0
LINE
  8
_0-1_計細線
  6
CONTINUOUS
 62
    3
 10
1012.4999999991041
 20
648.96000000000026
 11
1009.4954719991039
 21
648.96000000000026
  0
ARC
  8
_0-1_計細線
  6
CONTINUOUS
 62
    3
 10
1009.4954719991039
 20
649.16000000000008
 40
0.2000000000000001
 50
179.99999999999983
 51
269.99999999999977
  0
ARC
  8
_0-1_計細線
  6
CONTINUOUS
 62
    3
 10
1017.0534519991043
 20
650.7098540000004
 40
7.7579560000000001
 50
166.96197800000581
 51
193.03566999999887
  0
ARC
  8
_0-1_計細線
  6
CONTINUOUS
 62
    3
 10
1009.4954719991039
 20
655.76000000000045
 40
0.2000000000000001
 50
89.999999999999915
 51
179.99999999999983
  0
ARC
  8
_0-1_計細線
  6
CONTINUOUS
 62
    3
 10
1017.0534519991043
 20
654.2101439999999
 40
7.7579560000000001
 50
166.96433000000079
 51
193.03802199999708
  0
LINE
  8
_0-1_計細線
  6
CONTINUOUS
 62
    3
 10
1012.4999999991041
 20
655.96000000000026
 11
1009.4954719991039
 21
655.96000000000026
  0
LINE
  8
_0-1_計細線
  6
CONTINUOUS
 62
    3
 10
1009.2954719991048
 20
649.16000000000008
 11
1009.2954719991048
 21
655.76000000000045
  0
ARC
  8
_0-1_計細線
  6
CONTINUOUS
 62
    3
 10
1012.699999999104
 20
646.16000000000008
 40
0.2000000000000001
 50
179.99999999999983
 51
269.99999999999977
  0
ARC
  8
_0-1_計細線
  6
CONTINUOUS
 62
    3
 10
1012.699999999104
 20
658.75999999999988
 40
0.2000000000000001
 50
89.999999999999915
 51
179.99999999999983
  0
LINE
  8
_0-1_計細線
  6
CONTINUOUS
 62
    3
 10
1012.4999999991041
 20
651.96000000000015
 11
1012.4999999991041
 21
646.16000000000008
  0
LINE
  8
_0-1_計細線
  6
CONTINUOUS
 62
    3
 10
1012.4999999991041
 20
658.75999999999988
 11
1012.4999999991041
 21
651.96000000000015
  0
LINE
  8
_0-1_計細線
  6
CONTINUOUS
 62
    3
 10
1013.9999999989533
 20
645.96000000000004
 11
1012.699999999104
 21
645.96000000000004
  0
LINE
  8
_0-1_計細線
  6
CONTINUOUS
 62
    3
 10
1013.9999999996674
 20
658.96000000000026
 11
1012.699999999104
 21
658.96000000000026
  0
LINE
  8
_0-1_計細線
  6
CONTINUOUS
 62
    3
 10
1157.5000000008959
 20
652.45999999999981
 11
1160.5045160008967
 21
652.45999999999981
  0
LINE
  8
_0-1_計細線
  6
CONTINUOUS
 62
    3
 10
1157.5000000008959
 20
648.96000000000026
 11
1160.5045280008962
 21
648.96000000000026
  0
ARC
  8
_0-1_計細線
  6
CONTINUOUS
 62
    3
 10
1160.5045280008962
 20
649.16000000000008
 40
0.2000000000000001
 50
269.99999999999977
 51
359.99999999999966
  0
ARC
  8
_0-1_計細線
  6
CONTINUOUS
 62
    3
 10
1152.9465480008957
 20
650.7098540000004
 40
7.7579560000000001
 50
346.96433000000042
 51
13.038021999993861
  0
ARC
  8
_0-1_計細線
  6
CONTINUOUS
 62
    3
 10
1160.5045280008962
 20
655.76000000000045
 40
0.2000000000000001
 50
0
 51
89.999999999999915
  0
ARC
  8
_0-1_計細線
  6
CONTINUOUS
 62
    3
 10
1152.9465480008957
 20
654.2101439999999
 40
7.7579560000000001
 50
346.96197800000215
 51
13.035669999998861
  0
LINE
  8
_0-1_計細線
  6
CONTINUOUS
 62
    3
 10
1157.5000000008959
 20
655.96000000000026
 11
1160.5045280008962
 21
655.96000000000026
  0
LINE
  8
_0-1_計細線
  6
CONTINUOUS
 62
    3
 10
1160.7045280008952
 20
649.16000000000008
 11
1160.7045280008952
 21
655.76000000000045
  0
ARC
  8
_0-1_計細線
  6
CONTINUOUS
 62
    3
 10
1157.300000000896
 20
646.16000000000008
 40
0.2000000000000001
 50
269.99999999999977
 51
359.99999999999966
  0
ARC
  8
_0-1_計細線
  6
CONTINUOUS
 62
    3
 10
1157.300000000896
 20
658.75999999999988
 40
0.2000000000000001
 50
0
 51
89.999999999999915
  0
LINE
  8
_0-1_計細線
  6
CONTINUOUS
 62
    3
 10
1157.5000000008959
 20
651.96000000000015
 11
1157.5000000008959
 21
646.16000000000008
  0
LINE
  8
_0-1_計細線
  6
CONTINUOUS
 62
    3
 10
1157.5000000008959
 20
658.75999999999988
 11
1157.5000000008959
 21
651.96000000000015
  0
LINE
  8
_0-1_計細線
  6
CONTINUOUS
 62
    3
 10
1156.0000000010468
 20
645.96000000000004
 11
1157.300000000896
 21
645.96000000000004
  0
LINE
  8
_0-1_計細線
  6
CONTINUOUS
 62
    3
 10
1156.0000000003329
 20
658.96000000000026
 11
1157.300000000896
 21
658.96000000000026
  0
LINE
  8
_0-0_計極細
  6
CENTER1
 62
    2
 10
1163.8721647772363
 20
652.45999999999981
 11
1006.3784159263735
 21
652.45999999999981
  0
TEXT
  8
_0-5_寸法線
 62
    7
 10
555.99224833355834
 20
614.28734928754557
 40
15
 41
0.8000000000000001
 50
0
  1
ＧＲＳ－２５Ｋ１５０
  0
ENDSEC
  0
EOF
