  0
SECTION
  2
HEADER
  9
$ACADVER
  1
AC1009
  9
$INSBASE
 10
0
 20
0
 30
0
  9
$EXTMIN
 10
0
 20
0
  9
$EXTMAX
 10
1485
 20
1050
  9
$LIMMIN
 10
0
 20
0
  9
$LIMMAX
 10
1485
 20
1050
  9
$LTSCALE
 40
5
  0
ENDSEC
  0
SECTION
  2
TABLES
  0
TABLE
  2
LTYPE
 70
     9
  0
LTYPE
  2
CONTINUOUS
 70
    64
  3
実線
 72
    65
 73
     0
 40
0.0
  0
LTYPE
  2
DASHED1
 70
    64
  3
--  --  --  --  --  --  --  --  
 72
    65
 73
     2
 40
2.5
 49
1.25
 49
-1.25
  0
LTYPE
  2
DASHED2
 70
    64
  3
----    ----    ----    ----    
 72
    65
 73
     2
 40
5.0
 49
2.5
 49
-2.5
  0
LTYPE
  2
DASHED3
 70
    64
  3
------  ------  ------  ------  
 72
    65
 73
     2
 40
5.0
 49
3.75
 49
-1.25
  0
LTYPE
  2
CENTER1
 70
    64
  3
----- - ----- - ----- - ----- - 
 72
    65
 73
     4
 40
10.0
 49
6.25
 49
-1.25
 49
1.25
 49
-1.25
  0
LTYPE
  2
CENTER2
 70
    64
  3
----------  --  ----------  --  
 72
    65
 73
     4
 40
20.0
 49
12.5
 49
-2.5
 49
2.5
 49
-2.5
  0
LTYPE
  2
PHANTOM1
 70
    64
  3
--- - - --- - - --- - - --- - - 
 72
    65
 73
     6
 40
10.0
 49
3.25
 49
-1.25
 49
1.25
 49
-1.25
 49
1.25
 49
-1.25
  0
LTYPE
  2
PHANTOM2
 70
    64
  3
--------  -  -  --------  -  -  
 72
    65
 73
     6
 40
20.0
 49
10.0
 49
-2.5
 49
1.25
 49
-2.5
 49
1.25
 49
-2.5
  0
LTYPE
  2
DOT
 70
    64
  3
-   -   -   -   -   -   -   -   
 72
    65
 73
     2
 40
2.5
 49
0.625
 49
-1.875
  0
LTYPE
  2
DUMMY
 70
    64
  3
ダミー
 72
    65
 73
     0
 40
0.0
  0
LTYPE
  2
RAND1
 70
    64
  3
ランダム線1
 72
    65
 73
     4
 40
10.0
 49
1.0
 49
-2.0
 49
3.0
 49
-4.0
  0
LTYPE
  2
RAND2
 70
    64
  3
ランダム線2
 72
    65
 73
     4
 40
14.0
 49
2.0
 49
-3.0
 49
4.0
 49
-5.0
  0
LTYPE
  2
RAND3
 70
    64
  3
ランダム線3
 72
    65
 73
     4
 40
18.0
 49
3.0
 49
-4.0
 49
5.0
 49
-6.0
  0
LTYPE
  2
RAND4
 70
    64
  3
ランダム線4
 72
    65
 73
     4
 40
22.0
 49
4.0
 49
-5.0
 49
6.0
 49
-7.0
  0
LTYPE
  2
RAND5
 70
    64
  3
ランダム線5
 72
    65
 73
     4
 40
26.0
 49
5.0
 49
-6.0
 49
7.0
 49
-8.0
  0
LTYPE
  2
LONG1
 70
    64
  3
----------  --  ----------  --  
 72
    65
 73
     4
 40
40.0
 49
32.5
 49
-2.5
 49
2.5
 49
-2.5
  0
LTYPE
  2
LONG2
 70
    64
  3
--------  -  -  --------  -  -  
 72
    65
 73
     6
 40
40.0
 49
30.0
 49
-2.5
 49
1.25
 49
-2.5
 49
1.25
 49
-2.5
  0
LTYPE
  2
LONG3
 70
    64
  3
+++++++++++++++..+++++++++++++++
 72
    65
 73
     2
 40
40.0
 49
37.5
 49
-2.5
  0
LTYPE
  2
LONG4
 70
    64
  3
+++++++++++++++..+++++++++++++++
 72
    65
 73
     2
 40
80.0
 49
75.0
 49
-5.0
  0
LTYPE
  2
LONG5
 70
    64
  3
----------  --  ----------  --  
 72
    65
 73
     4
 40
60.0
 49
37.5
 49
-7.5
 49
7.5
 49
-7.5
  0
LTYPE
  2
dashed
 70
   64
  3
-------   -------------   ------
 72
   65
 73
    2
 40
7.5
 49
6
 49
-1.5
  0
LTYPE
  2
dashed_spaced
 70
   64
  3
----        --------        ----
 72
   65
 73
    2
 40
12
 49
6
 49
-6
  0
LTYPE
  2
long_dashed_dotted
 70
   64
  3
------------- --- --------------
 72
   65
 73
    4
 40
15.25
 49
12
 49
-1.5
 49
0.25
 49
-1.5
  0
LTYPE
  2
long_dashed_double-dotted
 70
   64
  3
----------- --- --- ------------
 72
   65
 73
    6
 40
17
 49
12
 49
-1.5
 49
0.25
 49
-1.5
 49
0.25
 49
-1.5
  0
LTYPE
  2
long_dashed_triplicate-dotted
 70
   64
  3
--------- --- --- --- ----------
 72
   65
 73
    8
 40
18.75
 49
12
 49
-1.5
 49
0.25
 49
-1.5
 49
0.25
 49
-1.5
 49
0.25
 49
-1.5
  0
LTYPE
  2
dotted
 70
   64
  3
   -       -       -       -    
 72
   65
 73
    2
 40
1.75
 49
0.25
 49
-1.5
  0
LTYPE
  2
chain
 70
   64
  3
-------------- -- --------------
 72
   65
 73
    4
 40
18.5
 49
12
 49
-1.5
 49
3.5
 49
-1.5
  0
LTYPE
  2
chain_double_dash
 70
   64
  3
------------ -- -- -------------
 72
   65
 73
    6
 40
23.5
 49
12
 49
-1.5
 49
3.5
 49
-1.5
 49
3.5
 49
-1.5
  0
LTYPE
  2
dashed_dotted
 70
   64
  3
-----------     -     ----------
 72
   65
 73
    4
 40
9.25
 49
6
 49
-1.5
 49
0.25
 49
-1.5
  0
LTYPE
  2
double-dashed_dotted
 70
   64
  3
------   -----------   -   -----
 72
   65
 73
    6
 40
16.75
 49
6
 49
-1.5
 49
6
 49
-1.5
 49
0.25
 49
-1.5
  0
LTYPE
  2
dashed_double-dotted
 70
   64
  3
---------    -    -    ---------
 72
   65
 73
    6
 40
11
 49
6
 49
-1.5
 49
0.25
 49
-1.5
 49
0.25
 49
-1.5
  0
LTYPE
  2
double-dashed_double-dotted
 70
   64
  3
-----   ---------   -   -   ----
 72
   65
 73
    8
 40
18.5
 49
6
 49
-1.5
 49
6
 49
-1.5
 49
0.25
 49
-1.5
 49
0.25
 49
-1.5
  0
LTYPE
  2
dashed_triplicate-dotted
 70
   64
  3
-------    -    -    -    ------
 72
   65
 73
    8
 40
12.75
 49
6
 49
-1.5
 49
0.25
 49
-1.5
 49
0.25
 49
-1.5
 49
0.25
 49
-1.5
  0
LTYPE
  2
double-dashed_triplicate-dotted
 70
   64
  3
-----  ---------  -  -  -  -----
 72
   65
 73
   10
 40
20.25
 49
6
 49
-1.5
 49
6
 49
-1.5
 49
0.25
 49
-1.5
 49
0.25
 49
-1.5
 49
0.25
 49
-1.5
  0
LTYPE
  2
undefined
 70
   64
  3
--------------------------------
 72
   65
 73
    0
 40
0
  0
ENDTAB
  0
TABLE
  2
STYLE
  5
3
100
AcDbSymbolTable
 70
     1
  0
STYLE
  5
10
100
AcDbSymbolTableRecord
100
AcDbTextStyleTableRecord
  2
STANDARD
 70
     0
 40
0.0
 41
1.0
 50
0.0
 71
     0
 42
0.2
  3
txt
  4
bigfont.shx
  0
STYLE
  5
26
100
AcDbSymbolTableRecord
100
AcDbTextStyleTableRecord
  2
TATEGAKI
 70
    68
 40
0.0
 41
1.0
 50
0.0
 71
     0
 42
1.0
  3
txt
  4
bigfont.shx
  0
ENDTAB
  0
TABLE
  2
LAYER
 70
   10
  0
LAYER
  2
_0-0_計極細
 70
   64
 62
    7
  6
CONTINUOUS
  0
LAYER
  2
_0-1_計細線
 70
   64
 62
    7
  6
CONTINUOUS
  0
LAYER
  2
_0-5_寸法線
 70
   64
 62
    7
  6
CONTINUOUS
  0
LAYER
  2
_0-7_枠細線
 70
   64
 62
    7
  6
CONTINUOUS
  0
LAYER
  2
_0-8_枠中線
 70
   64
 62
    7
  6
CONTINUOUS
  0
LAYER
  2
_0-9_枠極太
 70
   64
 62
    7
  6
CONTINUOUS
  0
LAYER
  2
_0-a_極細3
 70
   64
 62
    7
  6
CONTINUOUS
  0
LAYER
  2
_0-b_細線3
 70
   64
 62
    7
  6
CONTINUOUS
  0
LAYER
  2
_0-d_寸法3
 70
   64
 62
    7
  6
CONTINUOUS
  0
LAYER
  2
ADD_LINE
 70
   64
 62
    7
  6
CONTINUOUS
  0
ENDTAB
  0
ENDSEC
  0
SECTION
  2
BLOCKS
  0
ENDSEC
  0
SECTION
  2
ENTITIES
  0
LINE
  8
_0-7_枠細線
  6
CONTINUOUS
 62
    5
 10
1185
 20
180
 11
1185
 21
100
  0
TEXT
  8
_0-7_枠細線
 62
    5
 10
937.5
 20
97.5
 40
17.5
 41
1
 50
0
  1
備考
  7
TATEGAKI
  0
TEXT
  8
_0-7_枠細線
 62
    5
 10
937.5
 20
137.5
 40
17.5
 41
1
 50
0
  1
品番
  7
TATEGAKI
  0
TEXT
  8
_0-7_枠細線
 62
    5
 10
937.5
 20
177.5
 40
17.5
 41
1
 50
0
  1
品名
  7
TATEGAKI
  0
LINE
  8
_0-7_枠細線
  6
CONTINUOUS
 62
    5
 10
1185
 20
140
 11
925
 21
140
  0
LINE
  8
_0-7_枠細線
  6
CONTINUOUS
 62
    5
 10
950
 20
180
 11
950
 21
60
  0
LINE
  8
_0-8_枠中線
  6
CONTINUOUS
 62
    5
 10
1425
 20
180
 11
925
 21
180
  0
LINE
  8
_0-8_枠中線
  6
CONTINUOUS
 62
    5
 10
925
 20
180
 11
925
 21
60
  0
LINE
  8
_0-7_枠細線
  6
CONTINUOUS
 62
    5
 10
1245
 20
180
 11
1245
 21
60
  0
TEXT
  8
_0-7_枠細線
 62
    5
 10
1192.5
 20
160
 40
15
 41
1
 50
0
  1
縮　尺
  0
LINE
  8
_0-7_枠細線
  6
CONTINUOUS
 62
    5
 10
1185
 20
155
 11
1245
 21
155
  0
LINE
  8
_0-7_枠細線
  6
CONTINUOUS
 62
    5
 10
1245
 20
100
 11
925
 21
100
  0
LINE
  8
_0-7_枠細線
  6
CONTINUOUS
 62
    5
 10
1425
 20
90
 11
1245
 21
90
  0
LINE
  8
_0-7_枠細線
  6
CONTINUOUS
 62
    5
 10
1245
 20
120
 11
1425
 21
120
  0
LINE
  8
_0-7_枠細線
  6
CONTINUOUS
 62
    5
 10
1425
 20
140
 11
1245
 21
140
  0
TEXT
  8
_0-7_枠細線
 62
    5
 10
1255
 20
147.5
 40
25
 41
0.8
 50
0
  1
株式会社シマブン
  0
TEXT
  8
_0-7_枠細線
 62
    5
 10
1252.5
 20
60
 40
15
 41
1
 50
0
  1
年月日
  0
TEXT
  8
_0-7_枠細線
 62
    5
 10
1252.5
 20
75
 40
15
 41
1
 50
0
  1
作　成
  0
TEXT
  8
_0-7_枠細線
 62
    5
 10
1256.25
 20
122.5
 40
15
 41
1
 50
0
  1
承 認
  0
LINE
  8
_0-7_枠細線
  6
CONTINUOUS
 62
    5
 10
1305
 20
140
 11
1305
 21
60
  0
TEXT
  8
_0-7_枠細線
 62
    5
 10
1316.25
 20
122.5
 40
15
 41
1
 50
0
  1
検 図
  0
LINE
  8
_0-7_枠細線
  6
CONTINUOUS
 62
    5
 10
1365
 20
140
 11
1365
 21
90
  0
TEXT
  8
_0-7_枠細線
 62
    5
 10
1375
 20
95
 40
20
 41
1
 50
0
  1
藤戸
  0
TEXT
  8
_0-7_枠細線
 62
    5
 10
1376.25
 20
122.5
 40
15
 41
1
 50
0
  1
設 計
  0
TEXT
  8
_0-7_枠細線
 62
    5
 10
1255
 20
95
 40
20
 41
1
 50
0
  1
隠塚
  0
TEXT
  8
_0-7_枠細線
 62
    5
 10
1315
 20
95
 40
20
 41
1
 50
0
  1
渋田
  0
TEXT
  8
_0-7_枠細線
 62
    5
 10
1193.9999999999998
 20
117.5
 40
20
 41
0.7000000000000001
 50
0
  1
１：５
  0
TEXT
  8
_0-7_枠細線
 62
    5
 10
960.5
 20
69.999999999999858
 40
20
 41
0.5999999999999998
 50
0
  1
品番・色については表参照のこと
  0
TEXT
  8
_0-7_枠細線
 62
    5
 10
1309.9999999999998
 20
67.499999999999929
 40
15.000000000000009
 41
0.6666666666666665
 50
0
  1
２０１０年０３月０１日
  0
TEXT
  8
_0-7_枠細線
 62
    5
 10
960.5
 20
158.74999999999994
 40
20.000000000000007
 41
0.5999999999999998
 50
0
  1
セーフティグレーチングＨ２５タイプ
  0
TEXT
  8
_0-7_枠細線
 62
    5
 10
1128.5
 20
141.25
 40
20.000000000000007
 41
0.5999999999999998
 50
0
  1
集水マス
  0
LINE
  8
_0-7_枠細線
  6
CONTINUOUS
 62
    5
 10
1425
 20
942.5
 11
890
 21
942.5
  0
TEXT
  8
_0-7_枠細線
 62
    5
 10
895
 20
945
 40
12.5
 41
1
 50
0
  1
記号
  0
TEXT
  8
_0-7_枠細線
 62
    5
 10
996.875
 20
945
 40
12.5
 41
1
 50
0
  1
訂　 正　 記　 事
  0
TEXT
  8
_0-7_枠細線
 62
    5
 10
1181.25
 20
945
 40
12.5
 41
1
 50
0
  1
訂 正 年 月 日
  0
TEXT
  8
_0-7_枠細線
 62
    5
 10
1306.25
 20
945
 40
12.5
 41
1
 50
0
  1
備　　　　　考
  0
LINE
  8
_0-7_枠細線
  6
CONTINUOUS
 62
    5
 10
1425
 20
925
 11
890
 21
925
  0
TEXT
  8
_0-7_枠細線
 62
    5
 10
938.85037037037023
 20
927.5
 40
12.5
 41
1
 50
0
  1
品番・色記号変更
  0
TEXT
  8
_0-7_枠細線
 62
    5
 10
1180
 20
927.5
 40
12.5
 41
0.7199999999999999
 50
0
  1
２０１３．０３．１３
  0
LINE
  8
_0-7_枠細線
  6
CONTINUOUS
 62
    5
 10
1425
 20
907.5
 11
890
 21
907.5
  0
LINE
  8
_0-7_枠細線
  6
CONTINUOUS
 62
    5
 10
1425
 20
890
 11
890
 21
890
  0
TEXT
  8
_0-7_枠細線
 62
    5
 10
938.85037037037023
 20
910
 40
12.5
 41
1
 50
0
  1
クロスバーピッチ変更
  0
TEXT
  8
_0-7_枠細線
 62
    5
 10
938.85037037037023
 20
892.5
 40
12.5
 41
1
 50
0
  1
取外具形状変更
  0
TEXT
  8
_0-7_枠細線
 62
    5
 10
1180
 20
910
 40
12.5
 41
0.7199999999999999
 50
0
  1
２０１５．１１．２０
  0
LINE
  8
_0-7_枠細線
  6
CONTINUOUS
 62
    5
 10
915
 20
908.94233397174685
 11
907.5
 21
923.94233397174685
  0
LINE
  8
_0-7_枠細線
  6
CONTINUOUS
 62
    5
 10
900
 20
908.94233397174685
 11
915
 21
908.94233397174685
  0
LINE
  8
_0-7_枠細線
  6
CONTINUOUS
 62
    5
 10
907.5
 20
923.94233397174685
 11
900
 21
908.94233397174685
  0
TEXT
  8
_0-7_枠細線
 62
    5
 10
902.36515126814822
 20
908.63533172636664
 40
12.5
 41
0.8
 50
0
  1
１
  0
TEXT
  8
_0-7_枠細線
 62
    5
 10
902.36515126814822
 20
891.13533172636664
 40
12.5
 41
0.8
 50
0
  1
２
  0
LINE
  8
_0-7_枠細線
  6
CONTINUOUS
 62
    5
 10
1425
 20
872.5
 11
890
 21
872.5
  0
LINE
  8
_0-7_枠細線
  6
CONTINUOUS
 62
    5
 10
907.5
 20
906.44233397174685
 11
900
 21
891.44233397174685
  0
LINE
  8
_0-7_枠細線
  6
CONTINUOUS
 62
    5
 10
900
 20
891.44233397174685
 11
915
 21
891.44233397174685
  0
LINE
  8
_0-7_枠細線
  6
CONTINUOUS
 62
    5
 10
915
 20
891.44233397174685
 11
907.5
 21
906.44233397174685
  0
TEXT
  8
_0-7_枠細線
 62
    5
 10
902.36515126814822
 20
873.39465008156549
 40
12.5
 41
0.8
 50
0
  1
３
  0
TEXT
  8
_0-7_枠細線
 62
    5
 10
1180
 20
875
 40
12.5
 41
0.7199999999999999
 50
0
  1
２０１７．０４．０１
  0
LINE
  8
_0-7_枠細線
  6
CONTINUOUS
 62
    5
 10
915
 20
856.44233397174685
 11
907.5
 21
871.44233397174685
  0
LINE
  8
_0-7_枠細線
  6
CONTINUOUS
 62
    5
 10
900
 20
856.44233397174685
 11
915
 21
856.44233397174685
  0
LINE
  8
_0-7_枠細線
  6
CONTINUOUS
 62
    5
 10
907.5
 20
871.44233397174685
 11
900
 21
856.44233397174685
  0
TEXT
  8
_0-7_枠細線
 62
    5
 10
1180
 20
857.5
 40
12.5
 41
0.7199999999999999
 50
0
  1
２０１７．０４．０１
  0
TEXT
  8
_0-7_枠細線
 62
    5
 10
938.85037037037023
 20
857.5
 40
12.5
 41
1
 50
0
  1
ブラウン色（Ｃ）追加
  0
LINE
  8
_0-7_枠細線
  6
CONTINUOUS
 62
    5
 10
1425
 20
855
 11
890
 21
855
  0
LINE
  8
_0-7_枠細線
  6
CONTINUOUS
 62
    5
 10
907.5
 20
888.94233397174685
 11
900
 21
873.94233397174685
  0
LINE
  8
_0-7_枠細線
  6
CONTINUOUS
 62
    5
 10
900
 20
873.94233397174685
 11
915
 21
873.94233397174685
  0
LINE
  8
_0-7_枠細線
  6
CONTINUOUS
 62
    5
 10
915
 20
873.94233397174685
 11
907.5
 21
888.94233397174685
  0
TEXT
  8
_0-7_枠細線
 62
    5
 10
902.36515126814822
 20
855.49351400689704
 40
12.5
 41
0.8
 50
0
  1
４
  0
TEXT
  8
_0-7_枠細線
 62
    5
 10
938.85037037037023
 20
875
 40
12.5
 41
1
 50
0
  1
取外具形状変更
  0
TEXT
  8
_0-7_枠細線
 62
    5
 10
1180
 20
892.5
 40
12.5
 41
0.7199999999999999
 50
0
  1
２０１５．１１．２０
  0
LINE
  8
_0-9_枠極太
  6
CONTINUOUS
 62
    5
 10
60
 20
60
 11
60
 21
960
  0
LINE
  8
_0-9_枠極太
  6
CONTINUOUS
 62
    5
 10
60
 20
960
 11
1425
 21
960
  0
LINE
  8
_0-9_枠極太
  6
CONTINUOUS
 62
    5
 10
1425
 20
960
 11
1425
 21
60
  0
LINE
  8
_0-9_枠極太
  6
CONTINUOUS
 62
    5
 10
1425
 20
60
 11
60
 21
60
  0
LINE
  8
_0-7_枠細線
  6
CONTINUOUS
 62
    5
 10
915
 20
838.94233397174685
 11
907.5
 21
853.94233397174685
  0
LINE
  8
_0-7_枠細線
  6
CONTINUOUS
 62
    5
 10
900
 20
838.94233397174685
 11
915
 21
838.94233397174685
  0
LINE
  8
_0-7_枠細線
  6
CONTINUOUS
 62
    5
 10
907.5
 20
853.94233397174685
 11
900
 21
838.94233397174685
  0
LINE
  8
_0-7_枠細線
  6
CONTINUOUS
 62
    5
 10
1425
 20
837.5
 11
890
 21
837.5
  0
TEXT
  8
_0-7_枠細線
 62
    5
 10
1180
 20
840
 40
12.5
 41
0.7199999999999999
 50
0
  1
２０１９．０９．０１
  0
TEXT
  8
_0-7_枠細線
 62
    5
 10
902.36515126814822
 20
837.99351400689704
 40
12.5
 41
0.8
 50
0
  1
５
  0
TEXT
  8
_0-7_枠細線
 62
    5
 10
938.85037037037023
 20
840
 40
12.5
 41
1
 50
0
  1
アンカー材質･厚み変更
  0
TEXT
  8
_0-7_枠細線
 62
    5
 10
960.5
 20
109.99999999999993
 40
20.000000000000007
 41
0.5999999999999998
 50
0
  1
ＧＲＳ－２５Ｋ２００
  0
LINE
  8
_0-1_計細線
  6
CONTINUOUS
 62
    3
 10
550.51795824097189
 20
656.60583080108051
 11
346.51795824097115
 21
656.60583080108051
  0
LINE
  8
_0-1_計細線
  6
CONTINUOUS
 62
    3
 10
346.51795824097115
 20
656.60583080108051
 11
346.51795824097115
 21
452.60583080107892
  0
LINE
  8
_0-1_計細線
  6
CONTINUOUS
 62
    3
 10
346.51795824097115
 20
452.60583080107892
 11
550.51795824097189
 21
452.60583080107892
  0
LINE
  8
_0-1_計細線
  6
CONTINUOUS
 62
    3
 10
550.51795824097189
 20
452.60583080107892
 11
550.51795824097189
 21
656.60583080108051
  0
LINE
  8
_0-1_計細線
  6
CONTINUOUS
 62
    3
 10
343.5179582409711
 20
449.60583080107892
 11
343.5179582409711
 21
659.60583080108051
  0
LINE
  8
_0-1_計細線
  6
CONTINUOUS
 62
    3
 10
343.5179582409711
 20
659.60583080108051
 11
553.51795824097178
 21
659.60583080108051
  0
LINE
  8
_0-1_計細線
  6
CONTINUOUS
 62
    3
 10
553.51795824097178
 20
659.60583080108051
 11
553.51795824097178
 21
449.60583080107892
  0
LINE
  8
_0-1_計細線
  6
CONTINUOUS
 62
    3
 10
553.51795824097178
 20
449.60583080107892
 11
343.5179582409711
 21
449.60583080107892
  0
LINE
  8
_0-0_計極細
  6
CONTINUOUS
 62
    2
 10
349.01795824097115
 20
500.80583080108221
 11
349.01795824097115
 21
506.40583080108257
  0
LINE
  8
_0-0_計極細
  6
CONTINUOUS
 62
    2
 10
362.0179582409711
 20
500.80583080108221
 11
362.0179582409711
 21
506.40583080108257
  0
LINE
  8
_0-0_計極細
  6
CONTINUOUS
 62
    2
 10
349.01795824097115
 20
517.80583080108306
 11
349.01795824097115
 21
523.40583080108343
  0
LINE
  8
_0-0_計極細
  6
CONTINUOUS
 62
    2
 10
362.0179582409711
 20
517.80583080108306
 11
362.0179582409711
 21
523.40583080108343
  0
LINE
  8
_0-0_計極細
  6
CONTINUOUS
 62
    2
 10
349.01795824097115
 20
540.40583080107899
 11
349.01795824097115
 21
534.80583080107954
  0
LINE
  8
_0-0_計極細
  6
CONTINUOUS
 62
    2
 10
362.0179582409711
 20
540.40583080107899
 11
362.0179582409711
 21
534.80583080107954
  0
LINE
  8
_0-0_計極細
  6
CONTINUOUS
 62
    2
 10
349.01795824097115
 20
557.40583080107979
 11
349.01795824097115
 21
551.80583080107942
  0
LINE
  8
_0-0_計極細
  6
CONTINUOUS
 62
    2
 10
362.0179582409711
 20
557.40583080107979
 11
362.0179582409711
 21
551.80583080107942
  0
LINE
  8
_0-0_計極細
  6
CONTINUOUS
 62
    2
 10
349.01795824097115
 20
625.8058308010809
 11
349.01795824097115
 21
619.80583080108079
  0
LINE
  8
_0-0_計極細
  6
CONTINUOUS
 62
    2
 10
362.0179582409711
 20
625.8058308010809
 11
362.0179582409711
 21
619.80583080108079
  0
LINE
  8
_0-0_計極細
  6
CONTINUOUS
 62
    2
 10
349.01795824097115
 20
643.20583080108099
 11
349.01795824097115
 21
637.20583080108042
  0
LINE
  8
_0-0_計極細
  6
CONTINUOUS
 62
    2
 10
362.0179582409711
 20
643.20583080108099
 11
362.0179582409711
 21
637.20583080108042
  0
LINE
  8
_0-0_計極細
  6
CONTINUOUS
 62
    2
 10
349.01795824097115
 20
574.4058308010807
 11
349.01795824097115
 21
568.80583080108045
  0
LINE
  8
_0-0_計極細
  6
CONTINUOUS
 62
    2
 10
362.0179582409711
 20
574.4058308010807
 11
362.0179582409711
 21
568.80583080108045
  0
LINE
  8
_0-0_計極細
  6
CONTINUOUS
 62
    2
 10
349.01795824097115
 20
591.40583080108115
 11
349.01795824097115
 21
585.8058308010809
  0
LINE
  8
_0-0_計極細
  6
CONTINUOUS
 62
    2
 10
362.0179582409711
 20
591.40583080108115
 11
362.0179582409711
 21
585.8058308010809
  0
LINE
  8
_0-0_計極細
  6
CONTINUOUS
 62
    2
 10
349.01795824097115
 20
608.40583080108161
 11
349.01795824097115
 21
602.8058308010817
  0
LINE
  8
_0-0_計極細
  6
CONTINUOUS
 62
    2
 10
362.0179582409711
 20
608.40583080108161
 11
362.0179582409711
 21
602.8058308010817
  0
LINE
  8
_0-0_計極細
  6
CONTINUOUS
 62
    2
 10
349.01795824097115
 20
483.40583080108161
 11
349.01795824097115
 21
489.40583080108161
  0
LINE
  8
_0-0_計極細
  6
CONTINUOUS
 62
    2
 10
362.0179582409711
 20
483.40583080108161
 11
362.0179582409711
 21
489.40583080108161
  0
LINE
  8
_0-0_計極細
  6
CENTER1
 62
    2
 10
355.5179582409711
 20
663.35655022554363
 11
355.5179582409711
 21
446.84800706006979
  0
LINE
  8
_0-0_計極細
  6
CONTINUOUS
 62
    2
 10
349.01795824097115
 20
466.00583080108106
 11
349.01795824097115
 21
472.00583080108112
  0
LINE
  8
_0-0_計極細
  6
CONTINUOUS
 62
    2
 10
362.0179582409711
 20
466.00583080108106
 11
362.0179582409711
 21
472.00583080108112
  0
LINE
  8
_0-0_計極細
  6
CONTINUOUS
 62
    2
 10
446.01795824097087
 20
500.80583080108221
 11
446.01795824097087
 21
506.40583080108257
  0
LINE
  8
_0-0_計極細
  6
CONTINUOUS
 62
    2
 10
459.01795824097093
 20
500.80583080108221
 11
459.01795824097093
 21
506.40583080108257
  0
LINE
  8
_0-0_計極細
  6
CONTINUOUS
 62
    2
 10
446.01795824097087
 20
517.80583080108306
 11
446.01795824097087
 21
523.40583080108343
  0
LINE
  8
_0-0_計極細
  6
CONTINUOUS
 62
    2
 10
459.01795824097093
 20
517.80583080108306
 11
459.01795824097093
 21
523.40583080108343
  0
LINE
  8
_0-0_計極細
  6
CONTINUOUS
 62
    2
 10
446.01795824097087
 20
540.40583080107899
 11
446.01795824097087
 21
534.80583080107954
  0
LINE
  8
_0-0_計極細
  6
CONTINUOUS
 62
    2
 10
459.01795824097093
 20
540.40583080107899
 11
459.01795824097093
 21
534.80583080107954
  0
LINE
  8
_0-0_計極細
  6
CONTINUOUS
 62
    2
 10
446.01795824097087
 20
625.8058308010809
 11
446.01795824097087
 21
619.80583080108079
  0
LINE
  8
_0-0_計極細
  6
CONTINUOUS
 62
    2
 10
459.01795824097093
 20
625.8058308010809
 11
459.01795824097093
 21
619.80583080108079
  0
LINE
  8
_0-0_計極細
  6
CONTINUOUS
 62
    2
 10
446.01795824097087
 20
643.20583080108099
 11
446.01795824097087
 21
637.20583080108042
  0
LINE
  8
_0-0_計極細
  6
CONTINUOUS
 62
    2
 10
459.01795824097093
 20
643.20583080108099
 11
459.01795824097093
 21
637.20583080108042
  0
LINE
  8
_0-0_計極細
  6
CONTINUOUS
 62
    2
 10
446.01795824097087
 20
574.4058308010807
 11
446.01795824097087
 21
568.80583080108045
  0
LINE
  8
_0-0_計極細
  6
CONTINUOUS
 62
    2
 10
459.01795824097093
 20
574.4058308010807
 11
459.01795824097093
 21
568.80583080108045
  0
LINE
  8
_0-0_計極細
  6
CONTINUOUS
 62
    2
 10
446.01795824097087
 20
591.40583080108115
 11
446.01795824097087
 21
585.8058308010809
  0
LINE
  8
_0-0_計極細
  6
CONTINUOUS
 62
    2
 10
459.01795824097093
 20
591.40583080108115
 11
459.01795824097093
 21
585.8058308010809
  0
LINE
  8
_0-0_計極細
  6
CONTINUOUS
 62
    2
 10
446.01795824097087
 20
608.40583080108161
 11
446.01795824097087
 21
602.8058308010817
  0
LINE
  8
_0-0_計極細
  6
CONTINUOUS
 62
    2
 10
459.01795824097093
 20
608.40583080108161
 11
459.01795824097093
 21
602.8058308010817
  0
LINE
  8
_0-0_計極細
  6
CONTINUOUS
 62
    2
 10
446.01795824097087
 20
483.40583080108161
 11
446.01795824097087
 21
489.40583080108161
  0
LINE
  8
_0-0_計極細
  6
CONTINUOUS
 62
    2
 10
459.01795824097093
 20
483.40583080108161
 11
459.01795824097093
 21
489.40583080108161
  0
LINE
  8
_0-0_計極細
  6
CENTER1
 62
    2
 10
452.51795824097087
 20
663.35655022554363
 11
452.51795824097087
 21
446.84800706006979
  0
LINE
  8
_0-0_計極細
  6
CONTINUOUS
 62
    2
 10
446.01795824097087
 20
466.00583080108106
 11
446.01795824097087
 21
472.00583080108112
  0
LINE
  8
_0-0_計極細
  6
CONTINUOUS
 62
    2
 10
459.01795824097093
 20
466.00583080108106
 11
459.01795824097093
 21
472.00583080108112
  0
LINE
  8
_0-0_計極細
  6
CONTINUOUS
 62
    2
 10
446.01795824097087
 20
557.40583080107979
 11
446.01795824097087
 21
556.95583080108179
  0
LINE
  8
_0-0_計極細
  6
CONTINUOUS
 62
    2
 10
446.01795824097087
 20
552.25583080108197
 11
446.01795824097087
 21
551.80583080107942
  0
LINE
  8
_0-0_計極細
  6
CONTINUOUS
 62
    2
 10
459.01795824097093
 20
557.40583080107979
 11
459.01795824097093
 21
556.95583080108179
  0
LINE
  8
_0-0_計極細
  6
CONTINUOUS
 62
    2
 10
459.01795824097093
 20
552.25583080108197
 11
459.01795824097093
 21
551.80583080107942
  0
LINE
  8
_0-0_計極細
  6
CONTINUOUS
 62
    2
 10
535.01795824097087
 20
500.80583080108221
 11
535.01795824097087
 21
506.40583080108257
  0
LINE
  8
_0-0_計極細
  6
CONTINUOUS
 62
    2
 10
548.01795824097087
 20
500.80583080108221
 11
548.01795824097087
 21
506.40583080108257
  0
LINE
  8
_0-0_計極細
  6
CONTINUOUS
 62
    2
 10
535.01795824097087
 20
517.80583080108306
 11
535.01795824097087
 21
523.40583080108343
  0
LINE
  8
_0-0_計極細
  6
CONTINUOUS
 62
    2
 10
548.01795824097087
 20
517.80583080108306
 11
548.01795824097087
 21
523.40583080108343
  0
LINE
  8
_0-0_計極細
  6
CONTINUOUS
 62
    2
 10
535.01795824097087
 20
540.40583080107899
 11
535.01795824097087
 21
534.80583080107954
  0
LINE
  8
_0-0_計極細
  6
CONTINUOUS
 62
    2
 10
548.01795824097087
 20
540.40583080107899
 11
548.01795824097087
 21
534.80583080107954
  0
LINE
  8
_0-0_計極細
  6
CONTINUOUS
 62
    2
 10
535.01795824097087
 20
557.40583080107979
 11
535.01795824097087
 21
551.80583080107942
  0
LINE
  8
_0-0_計極細
  6
CONTINUOUS
 62
    2
 10
548.01795824097087
 20
557.40583080107979
 11
548.01795824097087
 21
551.80583080107942
  0
LINE
  8
_0-0_計極細
  6
CONTINUOUS
 62
    2
 10
535.01795824097087
 20
625.8058308010809
 11
535.01795824097087
 21
619.80583080108079
  0
LINE
  8
_0-0_計極細
  6
CONTINUOUS
 62
    2
 10
548.01795824097087
 20
625.8058308010809
 11
548.01795824097087
 21
619.80583080108079
  0
LINE
  8
_0-0_計極細
  6
CONTINUOUS
 62
    2
 10
535.01795824097087
 20
643.20583080108099
 11
535.01795824097087
 21
637.20583080108042
  0
LINE
  8
_0-0_計極細
  6
CONTINUOUS
 62
    2
 10
548.01795824097087
 20
643.20583080108099
 11
548.01795824097087
 21
637.20583080108042
  0
LINE
  8
_0-0_計極細
  6
CONTINUOUS
 62
    2
 10
535.01795824097087
 20
574.4058308010807
 11
535.01795824097087
 21
568.80583080108045
  0
LINE
  8
_0-0_計極細
  6
CONTINUOUS
 62
    2
 10
548.01795824097087
 20
574.4058308010807
 11
548.01795824097087
 21
568.80583080108045
  0
LINE
  8
_0-0_計極細
  6
CONTINUOUS
 62
    2
 10
535.01795824097087
 20
591.40583080108115
 11
535.01795824097087
 21
585.8058308010809
  0
LINE
  8
_0-0_計極細
  6
CONTINUOUS
 62
    2
 10
548.01795824097087
 20
591.40583080108115
 11
548.01795824097087
 21
585.8058308010809
  0
LINE
  8
_0-0_計極細
  6
CONTINUOUS
 62
    2
 10
535.01795824097087
 20
608.40583080108161
 11
535.01795824097087
 21
602.8058308010817
  0
LINE
  8
_0-0_計極細
  6
CONTINUOUS
 62
    2
 10
548.01795824097087
 20
608.40583080108161
 11
548.01795824097087
 21
602.8058308010817
  0
LINE
  8
_0-0_計極細
  6
CONTINUOUS
 62
    2
 10
535.01795824097087
 20
483.40583080108161
 11
535.01795824097087
 21
489.40583080108161
  0
LINE
  8
_0-0_計極細
  6
CONTINUOUS
 62
    2
 10
548.01795824097087
 20
483.40583080108161
 11
548.01795824097087
 21
489.40583080108161
  0
LINE
  8
_0-0_計極細
  6
CENTER1
 62
    2
 10
541.51795824097098
 20
663.35655022554363
 11
541.51795824097098
 21
446.84800706006979
  0
LINE
  8
_0-0_計極細
  6
CONTINUOUS
 62
    2
 10
535.01795824097087
 20
466.00583080108106
 11
535.01795824097087
 21
472.00583080108112
  0
LINE
  8
_0-0_計極細
  6
CONTINUOUS
 62
    2
 10
548.01795824097087
 20
466.00583080108106
 11
548.01795824097087
 21
472.00583080108112
  0
LINE
  8
_0-1_計細線
  6
CONTINUOUS
 62
    3
 10
348.5179582409711
 20
489.40583080108161
 11
548.51795824097144
 21
489.40583080108161
  0
LINE
  8
_0-1_計細線
  6
CONTINUOUS
 62
    3
 10
348.5179582409711
 20
500.80583080108221
 11
548.51795824097144
 21
500.80583080108221
  0
LINE
  8
_0-1_計細線
  6
CONTINUOUS
 62
    3
 10
348.5179582409711
 20
489.40583080108161
 11
348.5179582409711
 21
500.80583080108221
  0
LINE
  8
_0-1_計細線
  6
CONTINUOUS
 62
    3
 10
548.51795824097144
 20
489.40583080108161
 11
548.51795824097144
 21
500.80583080108221
  0
LINE
  8
_0-0_計極細
  6
CONTINUOUS
 62
    2
 10
348.5179582409711
 20
497.60583080108233
 11
548.51795824097144
 21
497.60583080108233
  0
LINE
  8
_0-0_計極細
  6
CONTINUOUS
 62
    2
 10
348.5179582409711
 20
492.60583080108233
 11
548.51795824097144
 21
492.60583080108233
  0
LINE
  8
_0-1_計細線
  6
CONTINUOUS
 62
    3
 10
348.5179582409711
 20
506.40583080108257
 11
548.51795824097144
 21
506.40583080108257
  0
LINE
  8
_0-1_計細線
  6
CONTINUOUS
 62
    3
 10
348.5179582409711
 20
517.80583080108306
 11
548.51795824097144
 21
517.80583080108306
  0
LINE
  8
_0-1_計細線
  6
CONTINUOUS
 62
    3
 10
348.5179582409711
 20
506.40583080108257
 11
348.5179582409711
 21
517.80583080108306
  0
LINE
  8
_0-1_計細線
  6
CONTINUOUS
 62
    3
 10
548.51795824097144
 20
506.40583080108257
 11
548.51795824097144
 21
517.80583080108306
  0
LINE
  8
_0-0_計極細
  6
CONTINUOUS
 62
    2
 10
348.5179582409711
 20
514.60583080108233
 11
548.51795824097144
 21
514.60583080108233
  0
LINE
  8
_0-0_計極細
  6
CONTINUOUS
 62
    2
 10
348.5179582409711
 20
509.60583080108233
 11
548.51795824097144
 21
509.60583080108233
  0
LINE
  8
_0-1_計細線
  6
CONTINUOUS
 62
    3
 10
348.5179582409711
 20
523.40583080108343
 11
548.51795824097144
 21
523.40583080108343
  0
LINE
  8
_0-1_計細線
  6
CONTINUOUS
 62
    3
 10
348.5179582409711
 20
534.80583080108408
 11
548.51795824097144
 21
534.80583080108408
  0
LINE
  8
_0-1_計細線
  6
CONTINUOUS
 62
    3
 10
348.5179582409711
 20
523.40583080108343
 11
348.5179582409711
 21
534.80583080108408
  0
LINE
  8
_0-1_計細線
  6
CONTINUOUS
 62
    3
 10
548.51795824097144
 20
523.40583080108343
 11
548.51795824097144
 21
534.80583080108408
  0
LINE
  8
_0-0_計極細
  6
CONTINUOUS
 62
    2
 10
348.5179582409711
 20
531.60583080108324
 11
548.51795824097144
 21
531.60583080108324
  0
LINE
  8
_0-0_計極細
  6
CONTINUOUS
 62
    2
 10
348.5179582409711
 20
526.60583080108324
 11
548.51795824097144
 21
526.60583080108324
  0
LINE
  8
_0-1_計細線
  6
CONTINUOUS
 62
    3
 10
348.5179582409711
 20
619.80583080108079
 11
548.51795824097144
 21
619.80583080108079
  0
LINE
  8
_0-1_計細線
  6
CONTINUOUS
 62
    3
 10
348.5179582409711
 20
608.40583080108024
 11
548.51795824097144
 21
608.40583080108024
  0
LINE
  8
_0-1_計細線
  6
CONTINUOUS
 62
    3
 10
348.5179582409711
 20
619.80583080108079
 11
348.5179582409711
 21
608.40583080108024
  0
LINE
  8
_0-1_計細線
  6
CONTINUOUS
 62
    3
 10
548.51795824097144
 20
619.80583080108079
 11
548.51795824097144
 21
608.40583080108024
  0
LINE
  8
_0-0_計極細
  6
CONTINUOUS
 62
    2
 10
348.5179582409711
 20
611.60583080108051
 11
548.51795824097144
 21
611.60583080108051
  0
LINE
  8
_0-0_計極細
  6
CONTINUOUS
 62
    2
 10
348.5179582409711
 20
616.60583080108051
 11
548.51795824097144
 21
616.60583080108051
  0
LINE
  8
_0-1_計細線
  6
CONTINUOUS
 62
    3
 10
348.5179582409711
 20
637.20583080108133
 11
548.51795824097144
 21
637.20583080108133
  0
LINE
  8
_0-1_計細線
  6
CONTINUOUS
 62
    3
 10
348.5179582409711
 20
625.8058308010809
 11
548.51795824097144
 21
625.8058308010809
  0
LINE
  8
_0-1_計細線
  6
CONTINUOUS
 62
    3
 10
348.5179582409711
 20
637.20583080108133
 11
348.5179582409711
 21
625.8058308010809
  0
LINE
  8
_0-1_計細線
  6
CONTINUOUS
 62
    3
 10
548.51795824097144
 20
637.20583080108133
 11
548.51795824097144
 21
625.8058308010809
  0
LINE
  8
_0-0_計極細
  6
CONTINUOUS
 62
    2
 10
348.5179582409711
 20
629.00583080108106
 11
548.51795824097144
 21
629.00583080108106
  0
LINE
  8
_0-0_計極細
  6
CONTINUOUS
 62
    2
 10
348.5179582409711
 20
634.00583080108106
 11
548.51795824097144
 21
634.00583080108106
  0
LINE
  8
_0-1_計細線
  6
CONTINUOUS
 62
    3
 10
348.5179582409711
 20
654.60583080108154
 11
548.51795824097144
 21
654.60583080108154
  0
LINE
  8
_0-1_計細線
  6
CONTINUOUS
 62
    3
 10
348.5179582409711
 20
643.20583080108099
 11
548.51795824097144
 21
643.20583080108099
  0
LINE
  8
_0-1_計細線
  6
CONTINUOUS
 62
    3
 10
348.5179582409711
 20
654.60583080108154
 11
348.5179582409711
 21
643.20583080108099
  0
LINE
  8
_0-1_計細線
  6
CONTINUOUS
 62
    3
 10
548.51795824097144
 20
654.60583080108154
 11
548.51795824097144
 21
643.20583080108099
  0
LINE
  8
_0-0_計極細
  6
CONTINUOUS
 62
    2
 10
348.5179582409711
 20
646.40583080108115
 11
548.51795824097144
 21
646.40583080108115
  0
LINE
  8
_0-0_計極細
  6
CONTINUOUS
 62
    2
 10
348.5179582409711
 20
651.40583080108115
 11
548.51795824097144
 21
651.40583080108115
  0
LINE
  8
_0-1_計細線
  6
CONTINUOUS
 62
    3
 10
348.5179582409711
 20
585.8058308010809
 11
548.51795824097144
 21
585.8058308010809
  0
LINE
  8
_0-1_計細線
  6
CONTINUOUS
 62
    3
 10
348.5179582409711
 20
574.4058308010807
 11
548.51795824097144
 21
574.4058308010807
  0
LINE
  8
_0-1_計細線
  6
CONTINUOUS
 62
    3
 10
348.5179582409711
 20
585.8058308010809
 11
348.5179582409711
 21
574.4058308010807
  0
LINE
  8
_0-1_計細線
  6
CONTINUOUS
 62
    3
 10
548.51795824097144
 20
585.8058308010809
 11
548.51795824097144
 21
574.4058308010807
  0
LINE
  8
_0-0_計極細
  6
CONTINUOUS
 62
    2
 10
348.5179582409711
 20
577.60583080108051
 11
548.51795824097144
 21
577.60583080108051
  0
LINE
  8
_0-0_計極細
  6
CONTINUOUS
 62
    2
 10
348.5179582409711
 20
582.60583080108051
 11
548.51795824097144
 21
582.60583080108051
  0
LINE
  8
_0-1_計細線
  6
CONTINUOUS
 62
    3
 10
348.5179582409711
 20
602.8058308010817
 11
548.51795824097144
 21
602.8058308010817
  0
LINE
  8
_0-1_計細線
  6
CONTINUOUS
 62
    3
 10
348.5179582409711
 20
591.40583080108115
 11
548.51795824097144
 21
591.40583080108115
  0
LINE
  8
_0-1_計細線
  6
CONTINUOUS
 62
    3
 10
348.5179582409711
 20
602.8058308010817
 11
348.5179582409711
 21
591.40583080108115
  0
LINE
  8
_0-1_計細線
  6
CONTINUOUS
 62
    3
 10
548.51795824097144
 20
602.8058308010817
 11
548.51795824097144
 21
591.40583080108115
  0
LINE
  8
_0-0_計極細
  6
CONTINUOUS
 62
    2
 10
348.5179582409711
 20
594.60583080108097
 11
548.51795824097144
 21
594.60583080108097
  0
LINE
  8
_0-0_計極細
  6
CONTINUOUS
 62
    2
 10
348.5179582409711
 20
599.60583080108097
 11
548.51795824097144
 21
599.60583080108097
  0
LINE
  8
_0-1_計細線
  6
CONTINUOUS
 62
    3
 10
348.5179582409711
 20
472.00583080108112
 11
548.51795824097144
 21
472.00583080108112
  0
LINE
  8
_0-1_計細線
  6
CONTINUOUS
 62
    3
 10
348.5179582409711
 20
483.40583080108161
 11
548.51795824097144
 21
483.40583080108161
  0
LINE
  8
_0-1_計細線
  6
CONTINUOUS
 62
    3
 10
348.5179582409711
 20
472.00583080108112
 11
348.5179582409711
 21
483.40583080108161
  0
LINE
  8
_0-1_計細線
  6
CONTINUOUS
 62
    3
 10
548.51795824097144
 20
472.00583080108112
 11
548.51795824097144
 21
483.40583080108161
  0
LINE
  8
_0-0_計極細
  6
CONTINUOUS
 62
    2
 10
348.5179582409711
 20
480.20583080108179
 11
548.51795824097144
 21
480.20583080108179
  0
LINE
  8
_0-0_計極細
  6
CONTINUOUS
 62
    2
 10
348.5179582409711
 20
475.20583080108179
 11
548.51795824097144
 21
475.20583080108179
  0
LINE
  8
_0-1_計細線
  6
CONTINUOUS
 62
    3
 10
348.5179582409711
 20
454.60583080108142
 11
548.51795824097144
 21
454.60583080108142
  0
LINE
  8
_0-1_計細線
  6
CONTINUOUS
 62
    3
 10
348.5179582409711
 20
466.00583080108203
 11
548.51795824097144
 21
466.00583080108203
  0
LINE
  8
_0-1_計細線
  6
CONTINUOUS
 62
    3
 10
348.5179582409711
 20
454.60583080108142
 11
348.5179582409711
 21
466.00583080108203
  0
LINE
  8
_0-1_計細線
  6
CONTINUOUS
 62
    3
 10
548.51795824097144
 20
454.60583080108142
 11
548.51795824097144
 21
466.00583080108203
  0
LINE
  8
_0-0_計極細
  6
CONTINUOUS
 62
    2
 10
348.5179582409711
 20
462.80583080108215
 11
548.51795824097144
 21
462.80583080108215
  0
LINE
  8
_0-0_計極細
  6
CONTINUOUS
 62
    2
 10
348.5179582409711
 20
457.80583080108215
 11
548.51795824097144
 21
457.80583080108215
  0
LINE
  8
_0-1_計細線
  6
CONTINUOUS
 62
    3
 10
348.5179582409711
 20
568.80583080108045
 11
548.51795824097144
 21
568.80583080108045
  0
LINE
  8
_0-1_計細線
  6
CONTINUOUS
 62
    3
 10
548.51795824097144
 20
568.80583080108045
 11
548.51795824097144
 21
557.40583080107979
  0
LINE
  8
_0-0_計極細
  6
CONTINUOUS
 62
    2
 10
348.5179582409711
 20
560.60583080108051
 11
548.51795824097144
 21
560.60583080108051
  0
LINE
  8
_0-0_計極細
  6
CONTINUOUS
 62
    2
 10
348.5179582409711
 20
565.60583080108051
 11
548.51795824097144
 21
565.60583080108051
  0
LINE
  8
_0-1_計細線
  6
CONTINUOUS
 62
    3
 10
348.5179582409711
 20
557.40583080107979
 11
548.51795824097144
 21
557.40583080107979
  0
LINE
  8
_0-1_計細線
  6
CONTINUOUS
 62
    3
 10
348.5179582409711
 20
568.80583080108045
 11
348.5179582409711
 21
557.40583080107979
  0
LINE
  8
_0-1_計細線
  6
CONTINUOUS
 62
    3
 10
348.5179582409711
 20
540.40583080107899
 11
548.51795824097144
 21
540.40583080107899
  0
LINE
  8
_0-1_計細線
  6
CONTINUOUS
 62
    3
 10
548.51795824097144
 20
551.80583080107942
 11
548.51795824097144
 21
540.40583080107899
  0
LINE
  8
_0-0_計極細
  6
CONTINUOUS
 62
    2
 10
348.5179582409711
 20
543.60583080107961
 11
548.51795824097144
 21
543.60583080107961
  0
LINE
  8
_0-0_計極細
  6
CONTINUOUS
 62
    2
 10
348.5179582409711
 20
548.60583080107961
 11
548.51795824097144
 21
548.60583080107961
  0
LINE
  8
_0-1_計細線
  6
CONTINUOUS
 62
    3
 10
348.5179582409711
 20
551.80583080107942
 11
348.5179582409711
 21
540.40583080107899
  0
LINE
  8
_0-1_計細線
  6
CONTINUOUS
 62
    3
 10
348.5179582409711
 20
551.80583080107942
 11
548.51795824097144
 21
551.80583080107942
  0
LINE
  8
_0-0_計極細
  6
CENTER2
 62
    2
 10
332.62935870395279
 20
554.60583080108142
 11
565.19155644817772
 21
554.60583080108142
  0
LINE
  8
_0-5_寸法線
  6
CONTINUOUS
 62
    7
 10
418.03348787912967
 20
555.88709186681956
 11
410.0541443346392
 21
561.91453548737695
  0
LINE
  8
_0-5_寸法線
  6
CONTINUOUS
 62
    7
 10
418.03348787912967
 20
555.88709186681956
 11
414.13689547435627
 21
565.09668293434606
  0
LINE
  8
_0-5_寸法線
  6
CONTINUOUS
 62
    7
 10
418.03348787912967
 20
555.88709186681956
 11
291.35341261219435
 21
718.41985638976939
  0
LINE
  8
_0-5_寸法線
  6
CONTINUOUS
 62
    7
 10
291.35341261219435
 20
718.41985638976939
 11
231.35341261219438
 21
718.41985638976939
  0
TEXT
  8
_0-5_寸法線
 62
    7
 10
231.35341261219438
 20
718.41985638976939
 40
15
 41
0.8000000000000001
 50
0
  1
取　外　具
  0
TEXT
  8
_0-5_寸法線
 62
    7
 10
227.5148363385415
 20
700.86700644684754
 40
15
 41
0.8000000000000001
 50
0
  1
(標準付属)
  0
TEXT
  8
_0-7_枠細線
 62
    5
 10
230.70798377401246
 20
734.80566020875881
 40
12.5
 41
0.8
 50
0
  1
２
  0
LINE
  8
_0-7_枠細線
  6
CONTINUOUS
 62
    5
 10
243.34283250586429
 20
735.11266245413935
 11
235.84283250586429
 21
750.11266245413935
  0
LINE
  8
_0-7_枠細線
  6
CONTINUOUS
 62
    5
 10
228.34283250586429
 20
735.11266245413935
 11
243.34283250586429
 21
735.11266245413935
  0
LINE
  8
_0-7_枠細線
  6
CONTINUOUS
 62
    5
 10
235.84283250586429
 20
750.11266245413935
 11
228.34283250586429
 21
735.11266245413935
  0
TEXT
  8
_0-7_枠細線
 62
    5
 10
249.59987760188858
 20
734.51251748669279
 40
12.5
 41
0.8
 50
0
  1
３
  0
LINE
  8
_0-7_枠細線
  6
CONTINUOUS
 62
    5
 10
254.73472633374044
 20
750.06020137687415
 11
247.23472633374044
 21
735.06020137687415
  0
LINE
  8
_0-7_枠細線
  6
CONTINUOUS
 62
    5
 10
247.23472633374044
 20
735.06020137687415
 11
262.23472633374047
 21
735.06020137687415
  0
LINE
  8
_0-7_枠細線
  6
CONTINUOUS
 62
    5
 10
262.23472633374047
 20
735.06020137687415
 11
254.73472633374044
 21
750.06020137687415
  0
LINE
  8
_0-7_枠細線
  6
CONTINUOUS
 62
    5
 10
924.99999999999989
 20
323.73000000000059
 11
1225.0000000000005
 21
323.73000000000059
  0
LINE
  8
_0-7_枠細線
  6
CONTINUOUS
 62
    5
 10
924.99999999999989
 20
348.73000000000047
 11
1225.0000000000005
 21
348.73000000000047
  0
LINE
  8
_0-7_枠細線
  6
CONTINUOUS
 62
    5
 10
924.99999999999989
 20
373.73000000000047
 11
1225.0000000000005
 21
373.73000000000047
  0
LINE
  8
_0-7_枠細線
  6
CONTINUOUS
 62
    5
 10
924.99999999999989
 20
398.73000000000076
 11
1225.0000000000005
 21
398.73000000000076
  0
TEXT
  8
_0-7_枠細線
 62
    5
 10
1048.0000000000005
 20
403.73000000000076
 40
15.000000000000002
 41
0.5999999999999999
 50
0
  1
ライトグレー
  0
LINE
  8
_0-7_枠細線
  6
CONTINUOUS
 62
    5
 10
924.99999999999989
 20
423.73000000000047
 11
1225.0000000000005
 21
423.73000000000047
  0
TEXT
  8
_0-7_枠細線
 62
    5
 10
1057.0000000000005
 20
428.73000000000047
 40
15.000000000000002
 41
0.5999999999999999
 50
0
  1
ベージュ
  0
LINE
  8
_0-7_枠細線
  6
CONTINUOUS
 62
    5
 10
924.99999999999989
 20
448.73000000000047
 11
1225.0000000000005
 21
448.73000000000047
  0
TEXT
  8
_0-7_枠細線
 62
    5
 10
1069.0000000000005
 20
453.73000000000047
 40
15.000000000000002
 41
0.8
 50
0
  1
色
  0
TEXT
  8
_0-7_枠細線
 62
    5
 10
951.00000000000045
 20
453.73000000000047
 40
15.000000000000002
 41
0.8
 50
0
  1
品　　番
  0
TEXT
  8
_0-7_枠細線
 62
    5
 10
1151.0000000000009
 20
453.73000000000047
 40
15.000000000000002
 41
0.8
 50
0
  1
備　　考
  0
LINE
  8
_0-7_枠細線
  6
CONTINUOUS
 62
    5
 10
924.99999999999989
 20
473.73000000000047
 11
1225.0000000000005
 21
473.73000000000047
  0
TEXT
  8
_0-7_枠細線
 62
    5
 10
1013.75
 20
478.73000000000047
 40
17.5
 41
1
 50
0
  1
品番表
  0
LINE
  8
_0-7_枠細線
  6
CONTINUOUS
 62
    5
 10
924.99999999999989
 20
248.73000000000033
 11
1225.0000000000005
 21
248.73000000000033
  0
LINE
  8
_0-7_枠細線
  6
CONTINUOUS
 62
    5
 10
924.99999999999989
 20
273.73000000000059
 11
1225.0000000000005
 21
273.73000000000059
  0
LINE
  8
_0-7_枠細線
  6
CONTINUOUS
 62
    5
 10
924.99999999999989
 20
298.7300000000007
 11
1225.0000000000005
 21
298.7300000000007
  0
TEXT
  8
_0-7_枠細線
 62
    5
 10
1057.0000000000009
 20
378.7300000000007
 40
15.000000000000002
 41
0.5999999999999999
 50
0
  1
ホワイト
  0
TEXT
  8
_0-7_枠細線
 62
    5
 10
1061.5000000000005
 20
353.73000000000047
 40
15.000000000000002
 41
0.5999999999999999
 50
0
  1
ピンク
  0
TEXT
  8
_0-7_枠細線
 62
    5
 10
1061.5000000000005
 20
328.73000000000047
 40
15.000000000000002
 41
0.5999999999999999
 50
0
  1
ブルー
  0
TEXT
  8
_0-7_枠細線
 62
    5
 10
1048
 20
303.73000000000059
 40
15.000000000000002
 41
0.5999999999999999
 50
0
  1
ダークグレー
  0
TEXT
  8
_0-7_枠細線
 62
    5
 10
1061.5000000000005
 20
278.7300000000007
 40
15.000000000000002
 41
0.5999999999999999
 50
0
  1
ウッド
  0
LINE
  8
_0-7_枠細線
  6
CONTINUOUS
 62
    5
 10
924.99999999999989
 20
223.73000000000002
 11
1225.0000000000005
 21
223.73000000000002
  0
TEXT
  8
_0-7_枠細線
 62
    5
 10
1057.0000000000009
 20
228.73000000000008
 40
15.000000000000002
 41
0.5999999999999999
 50
0
  1
ブラック
  0
LINE
  8
_0-7_枠細線
  6
CONTINUOUS
 62
    5
 10
1225.0000000000005
 20
473.73000000000047
 11
1225.0000000000005
 21
223.73000000000002
  0
LINE
  8
_0-7_枠細線
  6
CONTINUOUS
 62
    5
 10
1125
 20
473.73000000000047
 11
1125
 21
223.73000000000002
  0
LINE
  8
_0-7_枠細線
  6
CONTINUOUS
 62
    5
 10
1025.0000000000005
 20
473.73000000000047
 11
1025.0000000000005
 21
223.73000000000002
  0
LINE
  8
_0-7_枠細線
  6
CONTINUOUS
 62
    5
 10
924.99999999999989
 20
473.73000000000047
 11
924.99999999999989
 21
223.73000000000002
  0
TEXT
  8
_0-7_枠細線
 62
    5
 10
1057.0000000000005
 20
253.73000000000033
 40
15.000000000000002
 41
0.5999999999999999
 50
0
  1
ブラウン
  0
LINE
  8
_0-7_枠細線
  6
CONTINUOUS
 62
    5
 10
918.52762466555521
 20
254.30604122127349
 11
911.02762466555521
 21
269.30604122127352
  0
LINE
  8
_0-7_枠細線
  6
CONTINUOUS
 62
    5
 10
903.52762466555521
 20
254.30604122127349
 11
918.52762466555521
 21
254.30604122127349
  0
LINE
  8
_0-7_枠細線
  6
CONTINUOUS
 62
    5
 10
911.02762466555521
 20
269.30604122127352
 11
903.52762466555521
 21
254.30604122127349
  0
TEXT
  8
_0-7_枠細線
 62
    5
 10
905.89277593370343
 20
253.3572212564236
 40
12.5
 41
0.8
 50
0
  1
４
  0
LINE
  8
_0-7_枠細線
  6
CONTINUOUS
 62
    5
 10
1270.7300000000005
 20
393.73000000000059
 11
1270.7300000000005
 21
473.7300000000007
  0
TEXT
  8
_0-7_枠細線
 62
    5
 10
1293.2300000000007
 20
451.2300000000007
 40
15.000000000000002
 41
1
 50
0
  1
耐荷重
  0
TEXT
  8
_0-7_枠細線
 62
    5
 10
1285.7300000000007
 20
421.23000000000059
 40
15.000000000000002
 41
1
 50
0
  1
3.5kN/㎡
  0
TEXT
  8
_0-7_枠細線
 62
    5
 10
1278.2300000000005
 20
401.23000000000059
 40
15.000000000000002
 41
1
 50
0
  1
（歩道用）
  0
LINE
  8
_0-7_枠細線
  6
CONTINUOUS
 62
    5
 10
1360.7300000000007
 20
393.73000000000059
 11
1360.7300000000007
 21
473.7300000000007
  0
LINE
  8
_0-7_枠細線
  6
CONTINUOUS
 62
    5
 10
1270.7300000000005
 20
393.73000000000059
 11
1360.7300000000007
 21
393.73000000000059
  0
LINE
  8
_0-7_枠細線
  6
CONTINUOUS
 62
    5
 10
1270.7300000000005
 20
443.7300000000007
 11
1360.7300000000007
 21
443.7300000000007
  0
LINE
  8
_0-7_枠細線
  6
CONTINUOUS
 62
    5
 10
1270.7300000000005
 20
473.7300000000007
 11
1360.7300000000007
 21
473.7300000000007
  0
TEXT
  8
_0-7_枠細線
 62
    5
 10
930.00000000000045
 20
428.73000000000047
 40
15.000000000000002
 41
0.5
 50
0
  1
ＧＲＳ－２５Ｋ２００－Ｂ
  0
TEXT
  8
_0-7_枠細線
 62
    5
 10
930.00000000000045
 20
403.73000000000047
 40
15.000000000000002
 41
0.5
 50
0
  1
ＧＲＳ－２５Ｋ２００－Ｇ
  0
TEXT
  8
_0-7_枠細線
 62
    5
 10
930.00000000000045
 20
378.7300000000007
 40
15.000000000000002
 41
0.5
 50
0
  1
ＧＲＳ－２５Ｋ２００－Ｓ
  0
TEXT
  8
_0-7_枠細線
 62
    5
 10
930.00000000000045
 20
353.73000000000047
 40
15.000000000000002
 41
0.5
 50
0
  1
ＧＲＳ－２５Ｋ２００－Ｐ
  0
TEXT
  8
_0-7_枠細線
 62
    5
 10
930.00000000000045
 20
328.73000000000047
 40
15.000000000000002
 41
0.5
 50
0
  1
ＧＲＳ－２５Ｋ２００－Ａ
  0
TEXT
  8
_0-7_枠細線
 62
    5
 10
930.00000000000045
 20
303.73000000000059
 40
15.000000000000002
 41
0.5
 50
0
  1
ＧＲＳ－２５Ｋ２００－Ｄ
  0
TEXT
  8
_0-7_枠細線
 62
    5
 10
930.00000000000045
 20
278.7300000000007
 40
15.000000000000002
 41
0.5
 50
0
  1
ＧＲＳ－２５Ｋ２００－Ｍ
  0
TEXT
  8
_0-7_枠細線
 62
    5
 10
930.00000000000045
 20
253.73000000000036
 40
15.000000000000002
 41
0.5
 50
0
  1
ＧＲＳ－２５Ｋ２００－Ｃ
  0
TEXT
  8
_0-7_枠細線
 62
    5
 10
930.00000000000045
 20
228.73000000000008
 40
15.000000000000002
 41
0.5
 50
0
  1
ＧＲＳ－２５Ｋ２００－Ｋ
  0
LINE
  8
_0-7_枠細線
  6
CONTINUOUS
 62
    5
 10
564.62302206321544
 20
728.92835803928176
 11
557.12302206321544
 21
713.92835803928176
  0
LINE
  8
_0-7_枠細線
  6
CONTINUOUS
 62
    5
 10
557.12302206321544
 20
713.92835803928176
 11
572.12302206321544
 21
713.92835803928176
  0
LINE
  8
_0-7_枠細線
  6
CONTINUOUS
 62
    5
 10
572.12302206321544
 20
713.92835803928176
 11
564.62302206321544
 21
728.92835803928176
  0
TEXT
  8
_0-7_枠細線
 62
    5
 10
561.98817333136367
 20
713.3806741491004
 40
12.5
 41
0.8
 50
0
  1
1
  0
LINE
  8
_0-5_寸法線
  6
CONTINUOUS
 62
    7
 10
343.5179582409711
 20
669.60583080108051
 11
343.51795824097138
 21
819.60583080108051
  0
LINE
  8
_0-5_寸法線
  6
CONTINUOUS
 62
    7
 10
343.51795824097138
 20
814.60583080108051
 11
353.17721650386204
 21
817.19402125210581
  0
LINE
  8
_0-5_寸法線
  6
CONTINUOUS
 62
    7
 10
343.51795824097138
 20
814.60583080108051
 11
353.17721650386204
 21
812.01764035005544
  0
LINE
  8
_0-5_寸法線
  6
CONTINUOUS
 62
    7
 10
553.51795824097178
 20
669.60583080108051
 11
553.51795824097178
 21
819.60583080108051
  0
LINE
  8
_0-5_寸法線
  6
CONTINUOUS
 62
    7
 10
553.51795824097178
 20
814.60583080108051
 11
543.85869997808106
 21
812.01764035005544
  0
LINE
  8
_0-5_寸法線
  6
CONTINUOUS
 62
    7
 10
553.51795824097178
 20
814.60583080108051
 11
543.85869997808106
 21
817.19402125210581
  0
LINE
  8
_0-5_寸法線
  6
CONTINUOUS
 62
    7
 10
343.51795824097138
 20
814.60583080108051
 11
553.51795824097178
 21
814.60583080108051
  0
TEXT
  8
_0-5_寸法線
 62
    7
 10
437.26795824097138
 20
814.60583080108051
 40
15
 41
1
 50
0
  1
210
  0
LINE
  8
_0-5_寸法線
  6
CONTINUOUS
 62
    7
 10
343.51795824097144
 20
779.60583080108051
 11
333.85869997808072
 21
777.01764035005544
  0
LINE
  8
_0-5_寸法線
  6
CONTINUOUS
 62
    7
 10
343.51795824097144
 20
779.60583080108051
 11
333.85869997808078
 21
782.19402125210581
  0
LINE
  8
_0-5_寸法線
  6
CONTINUOUS
 62
    7
 10
346.51795824097115
 20
669.60583080108051
 11
346.51795824097144
 21
784.60583080108051
  0
LINE
  8
_0-5_寸法線
  6
CONTINUOUS
 62
    7
 10
318.51795824097144
 20
779.60583080108051
 11
346.51795824097144
 21
779.60583080108051
  0
TEXT
  8
_0-5_寸法線
 62
    7
 10
322.41188198170448
 20
779.60583080108051
 40
15
 41
1
 50
0
  1
3
  0
LINE
  8
_0-5_寸法線
  6
CONTINUOUS
 62
    7
 10
346.51795824097144
 20
779.60583080108051
 11
356.17721650386216
 21
782.19402125210581
  0
LINE
  8
_0-5_寸法線
  6
CONTINUOUS
 62
    7
 10
346.51795824097144
 20
779.60583080108051
 11
356.1772165038621
 21
777.01764035005522
  0
LINE
  8
_0-5_寸法線
  6
CONTINUOUS
 62
    7
 10
550.51795824097189
 20
669.60583080108051
 11
550.51795824097189
 21
784.60583080108051
  0
LINE
  8
_0-5_寸法線
  6
CONTINUOUS
 62
    7
 10
550.51795824097189
 20
779.60583080108051
 11
540.85869997808106
 21
777.01764035005544
  0
LINE
  8
_0-5_寸法線
  6
CONTINUOUS
 62
    7
 10
550.51795824097189
 20
779.60583080108051
 11
540.85869997808106
 21
782.19402125210581
  0
LINE
  8
_0-5_寸法線
  6
CONTINUOUS
 62
    7
 10
346.51795824097144
 20
779.60583080108051
 11
550.51795824097189
 21
779.60583080108051
  0
TEXT
  8
_0-5_寸法線
 62
    7
 10
437.26795824097144
 20
779.60583080108051
 40
15
 41
1
 50
0
  1
204
  0
LINE
  8
_0-5_寸法線
  6
CONTINUOUS
 62
    7
 10
553.51795824097178
 20
779.60583080108051
 11
563.1772165038625
 21
782.19402125210581
  0
LINE
  8
_0-5_寸法線
  6
CONTINUOUS
 62
    7
 10
553.51795824097178
 20
779.60583080108051
 11
563.1772165038625
 21
777.01764035005522
  0
LINE
  8
_0-5_寸法線
  6
CONTINUOUS
 62
    7
 10
550.51795824097189
 20
779.60583080108051
 11
578.51795824097178
 21
779.60583080108051
  0
TEXT
  8
_0-5_寸法線
 62
    7
 10
567.68560460944161
 20
779.60583080108051
 40
15
 41
1
 50
0
  1
3
  0
LINE
  8
_0-5_寸法線
  6
CONTINUOUS
 62
    7
 10
348.5179582409711
 20
669.60583080108051
 11
348.51795824097121
 21
749.60583080108051
  0
LINE
  8
_0-5_寸法線
  6
CONTINUOUS
 62
    7
 10
348.51795824097121
 20
744.60583080108051
 11
358.17721650386193
 21
747.19402125210581
  0
LINE
  8
_0-5_寸法線
  6
CONTINUOUS
 62
    7
 10
348.51795824097121
 20
744.60583080108051
 11
358.17721650386193
 21
742.01764035005544
  0
LINE
  8
_0-5_寸法線
  6
CONTINUOUS
 62
    7
 10
548.51795824097144
 20
669.60583080108051
 11
548.51795824097144
 21
749.60583080108051
  0
LINE
  8
_0-5_寸法線
  6
CONTINUOUS
 62
    7
 10
548.51795824097144
 20
744.60583080108051
 11
538.85869997808072
 21
742.01764035005544
  0
LINE
  8
_0-5_寸法線
  6
CONTINUOUS
 62
    7
 10
548.51795824097144
 20
744.60583080108051
 11
538.85869997808072
 21
747.19402125210581
  0
LINE
  8
_0-5_寸法線
  6
CONTINUOUS
 62
    7
 10
348.51795824097121
 20
744.60583080108051
 11
548.51795824097144
 21
744.60583080108051
  0
TEXT
  8
_0-5_寸法線
 62
    7
 10
437.26795824097138
 20
744.60583080108051
 40
15
 41
1
 50
0
  1
200
  0
LINE
  8
_0-7_枠細線
  6
CONTINUOUS
 62
    5
 10
280.94871019723684
 20
735.06020137687415
 11
273.44871019723684
 21
750.06020137687415
  0
LINE
  8
_0-7_枠細線
  6
CONTINUOUS
 62
    5
 10
265.94871019723684
 20
735.06020137687415
 11
280.94871019723684
 21
735.06020137687415
  0
LINE
  8
_0-7_枠細線
  6
CONTINUOUS
 62
    5
 10
273.44871019723684
 20
750.06020137687415
 11
265.94871019723684
 21
735.06020137687415
  0
TEXT
  8
_0-7_枠細線
 62
    5
 10
268.31386146538489
 20
734.51251748669279
 40
12.5
 41
0.8
 50
0
  1
６
  0
TEXT
  8
_0-7_枠細線
 62
    5
 10
938.85037037037023
 20
822.5
 40
12.5
 41
1
 50
0
  1
取外具形状変更
  0
LINE
  8
_0-7_枠細線
  6
CONTINUOUS
 62
    5
 10
907.5
 20
836.44233397174673
 11
900
 21
821.44233397174673
  0
LINE
  8
_0-7_枠細線
  6
CONTINUOUS
 62
    5
 10
900
 20
821.44233397174673
 11
915
 21
821.44233397174673
  0
LINE
  8
_0-7_枠細線
  6
CONTINUOUS
 62
    5
 10
915
 20
821.44233397174673
 11
907.5
 21
836.44233397174673
  0
TEXT
  8
_0-7_枠細線
 62
    5
 10
902.36515126814822
 20
821.13533172636653
 40
12.5
 41
0.8
 50
0
  1
６
  0
TEXT
  8
_0-7_枠細線
 62
    5
 10
1180
 20
822.5
 40
12.5
 41
0.7199999999999999
 50
0
  1
２０２１．０５．０６
  0
LINE
  8
_0-7_枠細線
  6
CONTINUOUS
 62
    5
 10
1425
 20
820
 11
890
 21
820
  0
LINE
  8
_0-1_計細線
  6
CONTINUOUS
 62
    3
 10
1087.3500000000004
 20
645.95999999999958
 11
1091.8000000005518
 21
645.95999999999958
  0
LINE
  8
_0-1_計細線
  6
CONTINUOUS
 62
    3
 10
1078.20000000039
 20
645.95999999999958
 11
1082.6499999999999
 21
645.95999999999958
  0
LINE
  8
_0-1_計細線
  6
CONTINUOUS
 62
    3
 10
1087.3500000000004
 20
658.95999999999958
 11
1091.8000000005518
 21
658.95999999999958
  0
LINE
  8
_0-1_計細線
  6
CONTINUOUS
 62
    3
 10
1078.2000000011146
 20
658.95999999999958
 11
1082.6499999999999
 21
658.95999999999958
  0
ARC
  8
_0-1_計細線
  6
CONTINUOUS
 62
    3
 10
1071.8000000011034
 20
661.65999999999963
 40
1
 50
89.999999999999915
 51
179.99999999999983
  0
ARC
  8
_0-1_計細線
  6
CONTINUOUS
 62
    3
 10
1072.2679491924309
 20
663.65999999999974
 40
1
 50
269.99999999999977
 51
330.00000000000239
  0
ARC
  8
_0-1_計細線
  6
CONTINUOUS
 62
    3
 10
1074
 20
662.65999999999985
 40
1
 50
89.999999999999915
 51
150.00000000001401
  0
LINE
  8
_0-1_計細線
  6
CONTINUOUS
 62
    3
 10
1071.8000000011034
 20
662.65999999999985
 11
1072.2679491924309
 21
662.65999999999985
  0
ARC
  8
_0-1_計細線
  6
CONTINUOUS
 62
    3
 10
1081.1999999988966
 20
661.65999999999963
 40
1
 50
0
 51
89.999999999999915
  0
ARC
  8
_0-1_計細線
  6
CONTINUOUS
 62
    3
 10
1080.7320508075691
 20
663.65999999999974
 40
1
 50
209.9999999999969
 51
269.99999999999977
  0
ARC
  8
_0-1_計細線
  6
CONTINUOUS
 62
    3
 10
1079
 20
662.65999999999985
 40
1
 50
29.999999999986002
 51
89.999999999999901
  0
LINE
  8
_0-1_計細線
  6
CONTINUOUS
 62
    3
 10
1081.1999999988966
 20
662.65999999999985
 11
1080.7320508075691
 21
662.65999999999985
  0
ARC
  8
_0-1_計細線
  6
CONTINUOUS
 62
    3
 10
1071.3000000011036
 20
660.25999999999976
 40
0.5
 50
179.99999999999983
 51
269.99999999999977
  0
LINE
  8
_0-1_計細線
  6
CONTINUOUS
 62
    3
 10
1070.8000000011034
 20
661.65999999999963
 11
1070.8000000011034
 21
660.25999999999976
  0
ARC
  8
_0-1_計細線
  6
CONTINUOUS
 62
    3
 10
1081.6999999988966
 20
660.25999999999976
 40
0.5
 50
269.99999999999977
 51
359.99999999999966
  0
LINE
  8
_0-1_計細線
  6
CONTINUOUS
 62
    3
 10
1082.1999999988966
 20
661.65999999999963
 11
1082.1999999988966
 21
660.25999999999976
  0
ARC
  8
_0-1_計細線
  6
CONTINUOUS
 62
    3
 10
1073.8000000011034
 20
658.75999999999976
 40
1
 50
0
 51
89.999999999999915
  0
LINE
  8
_0-1_計細線
  6
CONTINUOUS
 62
    3
 10
1073.8000000011034
 20
659.75999999999988
 11
1071.3000000011036
 21
659.75999999999988
  0
ARC
  8
_0-1_計細線
  6
CONTINUOUS
 62
    3
 10
1079.2000000011035
 20
658.75999999999976
 40
1
 50
89.999999999999915
 51
179.99999999999983
  0
LINE
  8
_0-1_計細線
  6
CONTINUOUS
 62
    3
 10
1079.1999999988961
 20
659.75999999999988
 11
1081.6999999988966
 21
659.75999999999988
  0
LINE
  8
_0-1_計細線
  6
CONTINUOUS
 62
    3
 10
1079
 20
663.65999999999974
 11
1074
 21
663.65999999999974
  0
LINE
  8
_0-1_計細線
  6
CONTINUOUS
 62
    3
 10
1074.8000000000002
 20
638.65999999999985
 11
1074.8000000011034
 21
658.75999999999976
  0
LINE
  8
_0-1_計細線
  6
CONTINUOUS
 62
    3
 10
1078.1999999999998
 20
638.65999999999985
 11
1078.2000000011035
 21
658.75999999999976
  0
LINE
  8
_0-1_計細線
  6
CONTINUOUS
 62
    3
 10
1078.1999999999998
 20
638.65999999999985
 11
1074.8000000000002
 21
638.65999999999985
  0
LINE
  8
_0-1_計細線
  6
CONTINUOUS
 62
    3
 10
1163.6000000019803
 20
658.95999999999958
 11
1177.6000000019808
 21
658.95999999999958
  0
LINE
  8
_0-1_計細線
  6
CONTINUOUS
 62
    3
 10
1146.2000000018088
 20
658.95999999999958
 11
1160.2000000018088
 21
658.95999999999958
  0
LINE
  8
_0-1_計細線
  6
CONTINUOUS
 62
    3
 10
992.39999999910481
 20
658.95999999999958
 11
1006.3999999994664
 21
658.95999999999958
  0
LINE
  8
_0-1_計細線
  6
CONTINUOUS
 62
    3
 10
1009.7999999994664
 20
658.95999999999958
 11
1023.7999999994665
 21
658.95999999999958
  0
LINE
  8
_0-1_計細線
  6
CONTINUOUS
 62
    3
 10
1129.2000000014468
 20
658.95999999999958
 11
1142.8000000014472
 21
658.95999999999958
  0
LINE
  8
_0-1_計細線
  6
CONTINUOUS
 62
    3
 10
1027.1999999994664
 20
658.95999999999958
 11
1040.7999999994663
 21
658.95999999999958
  0
LINE
  8
_0-1_計細線
  6
CONTINUOUS
 62
    3
 10
1044.1999999998284
 20
658.95999999999958
 11
1057.7999999998283
 21
658.95999999999958
  0
LINE
  8
_0-1_計細線
  6
CONTINUOUS
 62
    3
 10
1061.2000000001899
 20
658.95999999999958
 11
1074.8000000001898
 21
658.95999999999958
  0
LINE
  8
_0-1_計細線
  6
CONTINUOUS
 62
    3
 10
1095.2000000009134
 20
658.95999999999958
 11
1108.8000000009133
 21
658.95999999999958
  0
LINE
  8
_0-1_計細線
  6
CONTINUOUS
 62
    3
 10
1112.2000000012754
 20
658.95999999999958
 11
1125.8000000012753
 21
658.95999999999958
  0
LINE
  8
_0-1_計細線
  6
CONTINUOUS
 62
    3
 10
1163.6000000019803
 20
645.95999999999958
 11
1177.6000000019808
 21
645.95999999999958
  0
LINE
  8
_0-1_計細線
  6
CONTINUOUS
 62
    3
 10
1146.2000000018088
 20
645.95999999999958
 11
1160.2000000018088
 21
645.95999999999958
  0
LINE
  8
_0-1_計細線
  6
CONTINUOUS
 62
    3
 10
992.39999999910481
 20
645.95999999999958
 11
1006.3999999994664
 21
645.95999999999958
  0
LINE
  8
_0-1_計細線
  6
CONTINUOUS
 62
    3
 10
1009.7999999994664
 20
645.95999999999958
 11
1023.7999999994665
 21
645.95999999999958
  0
LINE
  8
_0-1_計細線
  6
CONTINUOUS
 62
    3
 10
1129.2000000014468
 20
645.95999999999958
 11
1142.8000000014472
 21
645.95999999999958
  0
LINE
  8
_0-1_計細線
  6
CONTINUOUS
 62
    3
 10
1027.1999999994664
 20
645.95999999999958
 11
1040.7999999994663
 21
645.95999999999958
  0
LINE
  8
_0-1_計細線
  6
CONTINUOUS
 62
    3
 10
1044.1999999998284
 20
645.95999999999958
 11
1057.7999999998283
 21
645.95999999999958
  0
LINE
  8
_0-1_計細線
  6
CONTINUOUS
 62
    3
 10
1061.2000000001899
 20
645.95999999999958
 11
1074.8000000001898
 21
645.95999999999958
  0
LINE
  8
_0-1_計細線
  6
CONTINUOUS
 62
    3
 10
1095.2000000009134
 20
645.95999999999958
 11
1108.8000000009133
 21
645.95999999999958
  0
LINE
  8
_0-1_計細線
  6
CONTINUOUS
 62
    3
 10
1112.2000000012754
 20
645.95999999999958
 11
1125.8000000012753
 21
645.95999999999958
  0
ARC
  8
_0-1_計細線
  6
CONTINUOUS
 62
    3
 10
1174.6000000025506
 20
661.65999999999963
 40
1
 50
89.999999999999915
 51
179.99999999999983
  0
ARC
  8
_0-1_計細線
  6
CONTINUOUS
 62
    3
 10
1175.0679491938781
 20
663.65999999999974
 40
1
 50
269.99999999999977
 51
329.99999999998937
  0
ARC
  8
_0-1_計細線
  6
CONTINUOUS
 62
    3
 10
1176.8000000014467
 20
662.65999999999985
 40
1
 50
89.999999999999915
 51
150.00000000001401
  0
LINE
  8
_0-1_計細線
  6
CONTINUOUS
 62
    3
 10
1174.6000000025506
 20
662.65999999999985
 11
1175.0679491938781
 21
662.65999999999985
  0
ARC
  8
_0-1_計細線
  6
CONTINUOUS
 62
    3
 10
1184.0000000003433
 20
661.65999999999963
 40
1
 50
0
 51
89.999999999999915
  0
ARC
  8
_0-1_計細線
  6
CONTINUOUS
 62
    3
 10
1183.5320508090163
 20
663.65999999999974
 40
1
 50
209.99999999998388
 51
269.99999999999977
  0
ARC
  8
_0-1_計細線
  6
CONTINUOUS
 62
    3
 10
1181.8000000014472
 20
662.65999999999985
 40
1
 50
29.99999999999903
 51
89.999999999999901
  0
LINE
  8
_0-1_計細線
  6
CONTINUOUS
 62
    3
 10
1184.0000000003433
 20
662.65999999999985
 11
1183.5320508090163
 21
662.65999999999985
  0
ARC
  8
_0-1_計細線
  6
CONTINUOUS
 62
    3
 10
1174.1000000025506
 20
660.25999999999976
 40
0.5
 50
179.99999999999983
 51
269.99999999999977
  0
LINE
  8
_0-1_計細線
  6
CONTINUOUS
 62
    3
 10
1173.6000000025506
 20
661.65999999999963
 11
1173.6000000025506
 21
660.25999999999976
  0
ARC
  8
_0-1_計細線
  6
CONTINUOUS
 62
    3
 10
1184.5000000003433
 20
660.25999999999976
 40
0.5
 50
269.99999999999977
 51
359.99999999999966
  0
LINE
  8
_0-1_計細線
  6
CONTINUOUS
 62
    3
 10
1185.0000000003438
 20
661.65999999999963
 11
1185.0000000003438
 21
660.25999999999976
  0
ARC
  8
_0-1_計細線
  6
CONTINUOUS
 62
    3
 10
1176.6000000025506
 20
658.75999999999976
 40
1
 50
0
 51
89.999999999999915
  0
LINE
  8
_0-1_計細線
  6
CONTINUOUS
 62
    3
 10
1176.6000000025506
 20
659.75999999999988
 11
1174.1000000025506
 21
659.75999999999988
  0
ARC
  8
_0-1_計細線
  6
CONTINUOUS
 62
    3
 10
1182.0000000025502
 20
658.75999999999976
 40
1
 50
89.999999999999915
 51
179.99999999999983
  0
LINE
  8
_0-1_計細線
  6
CONTINUOUS
 62
    3
 10
1182.0000000003429
 20
659.75999999999988
 11
1184.5000000003433
 21
659.75999999999988
  0
LINE
  8
_0-1_計細線
  6
CONTINUOUS
 62
    3
 10
1181.8000000014472
 20
663.65999999999974
 11
1176.8000000014467
 21
663.65999999999974
  0
LINE
  8
_0-1_計細線
  6
CONTINUOUS
 62
    3
 10
1177.6000000014474
 20
638.65999999999985
 11
1177.6000000025506
 21
658.75999999999976
  0
LINE
  8
_0-1_計細線
  6
CONTINUOUS
 62
    3
 10
1181.000000001447
 20
638.65999999999985
 11
1181.0000000025507
 21
658.75999999999976
  0
LINE
  8
_0-1_計細線
  6
CONTINUOUS
 62
    3
 10
1181.000000001447
 20
638.65999999999985
 11
1177.6000000014474
 21
638.65999999999985
  0
ARC
  8
_0-1_計細線
  6
CONTINUOUS
 62
    3
 10
1157.2000000027224
 20
661.65999999999963
 40
1
 50
89.999999999999915
 51
179.99999999999983
  0
ARC
  8
_0-1_計細線
  6
CONTINUOUS
 62
    3
 10
1157.6679491940499
 20
663.65999999999974
 40
1
 50
269.99999999999977
 51
330.00000000000239
  0
ARC
  8
_0-1_計細線
  6
CONTINUOUS
 62
    3
 10
1159.4000000016185
 20
662.65999999999985
 40
1
 50
89.999999999999915
 51
150.00000000000097
  0
LINE
  8
_0-1_計細線
  6
CONTINUOUS
 62
    3
 10
1157.2000000027224
 20
662.65999999999985
 11
1157.6679491940499
 21
662.65999999999985
  0
ARC
  8
_0-1_計細線
  6
CONTINUOUS
 62
    3
 10
1166.6000000005151
 20
661.65999999999963
 40
1
 50
0
 51
89.999999999999915
  0
ARC
  8
_0-1_計細線
  6
CONTINUOUS
 62
    3
 10
1166.1320508091876
 20
663.65999999999974
 40
1
 50
209.9999999999969
 51
269.99999999999977
  0
ARC
  8
_0-1_計細線
  6
CONTINUOUS
 62
    3
 10
1164.4000000016185
 20
662.65999999999985
 40
1
 50
29.999999999986002
 51
89.999999999973952
  0
LINE
  8
_0-1_計細線
  6
CONTINUOUS
 62
    3
 10
1166.6000000005151
 20
662.65999999999985
 11
1166.1320508091876
 21
662.65999999999985
  0
ARC
  8
_0-1_計細線
  6
CONTINUOUS
 62
    3
 10
1156.7000000027219
 20
660.25999999999976
 40
0.5
 50
179.99999999999983
 51
269.99999999999977
  0
LINE
  8
_0-1_計細線
  6
CONTINUOUS
 62
    3
 10
1156.2000000027224
 20
661.65999999999963
 11
1156.2000000027224
 21
660.25999999999976
  0
ARC
  8
_0-1_計細線
  6
CONTINUOUS
 62
    3
 10
1167.1000000005151
 20
660.25999999999976
 40
0.5
 50
269.99999999999977
 51
359.99999999999966
  0
LINE
  8
_0-1_計細線
  6
CONTINUOUS
 62
    3
 10
1167.6000000005151
 20
661.65999999999963
 11
1167.6000000005151
 21
660.25999999999976
  0
ARC
  8
_0-1_計細線
  6
CONTINUOUS
 62
    3
 10
1159.2000000027224
 20
658.75999999999976
 40
1
 50
0
 51
89.999999999999915
  0
LINE
  8
_0-1_計細線
  6
CONTINUOUS
 62
    3
 10
1159.2000000027224
 20
659.75999999999988
 11
1156.7000000027219
 21
659.75999999999988
  0
ARC
  8
_0-1_計細線
  6
CONTINUOUS
 62
    3
 10
1164.6000000027225
 20
658.75999999999976
 40
1
 50
89.999999999999915
 51
179.99999999999983
  0
LINE
  8
_0-1_計細線
  6
CONTINUOUS
 62
    3
 10
1164.6000000005151
 20
659.75999999999988
 11
1167.1000000005151
 21
659.75999999999988
  0
LINE
  8
_0-1_計細線
  6
CONTINUOUS
 62
    3
 10
1164.4000000016185
 20
663.65999999999974
 11
1159.4000000016185
 21
663.65999999999974
  0
LINE
  8
_0-1_計細線
  6
CONTINUOUS
 62
    3
 10
1160.2000000016187
 20
638.65999999999985
 11
1160.2000000027224
 21
658.75999999999976
  0
LINE
  8
_0-1_計細線
  6
CONTINUOUS
 62
    3
 10
1163.6000000016188
 20
638.65999999999985
 11
1163.6000000027225
 21
658.75999999999976
  0
LINE
  8
_0-1_計細線
  6
CONTINUOUS
 62
    3
 10
1163.6000000016188
 20
638.65999999999985
 11
1160.2000000016187
 21
638.65999999999985
  0
ARC
  8
_0-1_計細線
  6
CONTINUOUS
 62
    3
 10
985.99999999965667
 20
661.65999999999963
 40
1
 50
89.999999999999915
 51
179.99999999999983
  0
ARC
  8
_0-1_計細線
  6
CONTINUOUS
 62
    3
 10
986.46794919098397
 20
663.65999999999974
 40
1
 50
269.99999999999977
 51
329.99999999999909
  0
ARC
  8
_0-1_計細線
  6
CONTINUOUS
 62
    3
 10
988.19999999855281
 20
662.65999999999985
 40
1
 50
89.999999999999915
 51
150.00000000001401
  0
LINE
  8
_0-1_計細線
  6
CONTINUOUS
 62
    3
 10
985.99999999965667
 20
662.65999999999985
 11
986.46794919098397
 21
662.65999999999985
  0
ARC
  8
_0-1_計細線
  6
CONTINUOUS
 62
    3
 10
995.39999999744953
 20
661.65999999999963
 40
1
 50
0
 51
89.999999999999915
  0
ARC
  8
_0-1_計細線
  6
CONTINUOUS
 62
    3
 10
994.93205080612188
 20
663.65999999999974
 40
1
 50
210.00000000000017
 51
269.99999999999977
  0
ARC
  8
_0-1_計細線
  6
CONTINUOUS
 62
    3
 10
993.19999999855281
 20
662.65999999999985
 40
1
 50
29.999999999986002
 51
89.999999999999901
  0
LINE
  8
_0-1_計細線
  6
CONTINUOUS
 62
    3
 10
995.39999999744953
 20
662.65999999999985
 11
994.93205080612188
 21
662.65999999999985
  0
ARC
  8
_0-1_計細線
  6
CONTINUOUS
 62
    3
 10
985.49999999965644
 20
660.25999999999976
 40
0.5
 50
179.99999999999983
 51
269.99999999999977
  0
LINE
  8
_0-1_計細線
  6
CONTINUOUS
 62
    3
 10
984.99999999965644
 20
661.65999999999963
 11
984.99999999965644
 21
660.25999999999976
  0
ARC
  8
_0-1_計細線
  6
CONTINUOUS
 62
    3
 10
995.89999999744941
 20
660.25999999999976
 40
0.5
 50
269.99999999999977
 51
359.99999999999966
  0
LINE
  8
_0-1_計細線
  6
CONTINUOUS
 62
    3
 10
996.3999999974493
 20
661.65999999999963
 11
996.3999999974493
 21
660.25999999999976
  0
ARC
  8
_0-1_計細線
  6
CONTINUOUS
 62
    3
 10
987.99999999965632
 20
658.75999999999976
 40
1
 50
0
 51
89.999999999999915
  0
LINE
  8
_0-1_計細線
  6
CONTINUOUS
 62
    3
 10
987.99999999965632
 20
659.75999999999988
 11
985.49999999965644
 21
659.75999999999988
  0
ARC
  8
_0-1_計細線
  6
CONTINUOUS
 62
    3
 10
993.39999999965676
 20
658.75999999999976
 40
1
 50
89.999999999999915
 51
179.99999999999983
  0
LINE
  8
_0-1_計細線
  6
CONTINUOUS
 62
    3
 10
993.3999999974493
 20
659.75999999999988
 11
995.89999999744941
 21
659.75999999999988
  0
LINE
  8
_0-1_計細線
  6
CONTINUOUS
 62
    3
 10
993.19999999855281
 20
663.65999999999974
 11
988.19999999855281
 21
663.65999999999974
  0
LINE
  8
_0-1_計細線
  6
CONTINUOUS
 62
    3
 10
988.99999999855299
 20
638.65999999999985
 11
988.99999999965655
 21
658.75999999999976
  0
LINE
  8
_0-1_計細線
  6
CONTINUOUS
 62
    3
 10
992.39999999855286
 20
638.65999999999985
 11
992.39999999965653
 21
658.75999999999976
  0
LINE
  8
_0-1_計細線
  6
CONTINUOUS
 62
    3
 10
992.39999999855286
 20
638.65999999999985
 11
988.99999999855299
 21
638.65999999999985
  0
ARC
  8
_0-1_計細線
  6
CONTINUOUS
 62
    3
 10
1003.4000000000181
 20
661.65999999999963
 40
1
 50
89.999999999999915
 51
179.99999999999983
  0
ARC
  8
_0-1_計細線
  6
CONTINUOUS
 62
    3
 10
1003.8679491913457
 20
663.65999999999974
 40
1
 50
269.99999999999977
 51
329.99999999999909
  0
ARC
  8
_0-1_計細線
  6
CONTINUOUS
 62
    3
 10
1005.5999999989147
 20
662.65999999999985
 40
1
 50
89.999999999999915
 51
150.00000000001074
  0
LINE
  8
_0-1_計細線
  6
CONTINUOUS
 62
    3
 10
1003.4000000000181
 20
662.65999999999985
 11
1003.8679491913457
 21
662.65999999999985
  0
ARC
  8
_0-1_計細線
  6
CONTINUOUS
 62
    3
 10
1012.799999997811
 20
661.65999999999963
 40
1
 50
0
 51
89.999999999999915
  0
ARC
  8
_0-1_計細線
  6
CONTINUOUS
 62
    3
 10
1012.3320508064836
 20
663.65999999999974
 40
1
 50
209.99999999999366
 51
269.99999999999977
  0
ARC
  8
_0-1_計細線
  6
CONTINUOUS
 62
    3
 10
1010.5999999989144
 20
662.65999999999985
 40
1
 50
29.99999999998926
 51
89.999999999986969
  0
LINE
  8
_0-1_計細線
  6
CONTINUOUS
 62
    3
 10
1012.799999997811
 20
662.65999999999985
 11
1012.3320508064836
 21
662.65999999999985
  0
ARC
  8
_0-1_計細線
  6
CONTINUOUS
 62
    3
 10
1002.9000000000184
 20
660.25999999999976
 40
0.5
 50
179.99999999999983
 51
269.99999999999977
  0
LINE
  8
_0-1_計細線
  6
CONTINUOUS
 62
    3
 10
1002.4000000000183
 20
661.65999999999963
 11
1002.4000000000183
 21
660.25999999999976
  0
ARC
  8
_0-1_計細線
  6
CONTINUOUS
 62
    3
 10
1013.299999997811
 20
660.25999999999976
 40
0.5
 50
269.99999999999977
 51
359.99999999999966
  0
LINE
  8
_0-1_計細線
  6
CONTINUOUS
 62
    3
 10
1013.799999997811
 20
661.65999999999963
 11
1013.799999997811
 21
660.25999999999976
  0
ARC
  8
_0-1_計細線
  6
CONTINUOUS
 62
    3
 10
1005.4000000000183
 20
658.75999999999976
 40
1
 50
0
 51
89.999999999999915
  0
LINE
  8
_0-1_計細線
  6
CONTINUOUS
 62
    3
 10
1005.4000000000183
 20
659.75999999999988
 11
1002.9000000000184
 21
659.75999999999988
  0
ARC
  8
_0-1_計細線
  6
CONTINUOUS
 62
    3
 10
1010.8000000000181
 20
658.75999999999976
 40
1
 50
89.999999999999915
 51
179.99999999999983
  0
LINE
  8
_0-1_計細線
  6
CONTINUOUS
 62
    3
 10
1010.7999999978108
 20
659.75999999999988
 11
1013.299999997811
 21
659.75999999999988
  0
LINE
  8
_0-1_計細線
  6
CONTINUOUS
 62
    3
 10
1010.5999999989144
 20
663.65999999999974
 11
1005.5999999989147
 21
663.65999999999974
  0
LINE
  8
_0-1_計細線
  6
CONTINUOUS
 62
    3
 10
1006.3999999989147
 20
638.65999999999985
 11
1006.4000000000181
 21
658.75999999999976
  0
LINE
  8
_0-1_計細線
  6
CONTINUOUS
 62
    3
 10
1009.7999999989146
 20
638.65999999999985
 11
1009.8000000000184
 21
658.75999999999976
  0
LINE
  8
_0-1_計細線
  6
CONTINUOUS
 62
    3
 10
1009.7999999989146
 20
638.65999999999985
 11
1006.3999999989147
 21
638.65999999999985
  0
ARC
  8
_0-1_計細線
  6
CONTINUOUS
 62
    3
 10
1139.8000000023608
 20
661.65999999999963
 40
1
 50
89.999999999999915
 51
179.99999999999983
  0
ARC
  8
_0-1_計細線
  6
CONTINUOUS
 62
    3
 10
1140.2679491936879
 20
663.65999999999974
 40
1
 50
269.99999999999977
 51
330.00000000000239
  0
ARC
  8
_0-1_計細線
  6
CONTINUOUS
 62
    3
 10
1142.0000000012569
 20
662.65999999999985
 40
1
 50
89.999999999999915
 51
150.00000000001401
  0
LINE
  8
_0-1_計細線
  6
CONTINUOUS
 62
    3
 10
1139.8000000023608
 20
662.65999999999985
 11
1140.2679491936879
 21
662.65999999999985
  0
ARC
  8
_0-1_計細線
  6
CONTINUOUS
 62
    3
 10
1149.2000000001535
 20
661.65999999999963
 40
1
 50
0
 51
89.999999999999915
  0
ARC
  8
_0-1_計細線
  6
CONTINUOUS
 62
    3
 10
1148.7320508088255
 20
663.65999999999974
 40
1
 50
209.9999999999969
 51
269.99999999999977
  0
ARC
  8
_0-1_計細線
  6
CONTINUOUS
 62
    3
 10
1147.0000000012569
 20
662.65999999999985
 40
1
 50
29.99999999999903
 51
89.999999999999901
  0
LINE
  8
_0-1_計細線
  6
CONTINUOUS
 62
    3
 10
1149.2000000001535
 20
662.65999999999985
 11
1148.7320508088255
 21
662.65999999999985
  0
ARC
  8
_0-1_計細線
  6
CONTINUOUS
 62
    3
 10
1139.3000000023608
 20
660.25999999999976
 40
0.5
 50
179.99999999999983
 51
269.99999999999977
  0
LINE
  8
_0-1_計細線
  6
CONTINUOUS
 62
    3
 10
1138.8000000023603
 20
661.65999999999963
 11
1138.8000000023603
 21
660.25999999999976
  0
ARC
  8
_0-1_計細線
  6
CONTINUOUS
 62
    3
 10
1149.7000000001535
 20
660.25999999999976
 40
0.5
 50
269.99999999999977
 51
359.99999999999966
  0
LINE
  8
_0-1_計細線
  6
CONTINUOUS
 62
    3
 10
1150.2000000001531
 20
661.65999999999963
 11
1150.2000000001531
 21
660.25999999999976
  0
ARC
  8
_0-1_計細線
  6
CONTINUOUS
 62
    3
 10
1141.8000000023603
 20
658.75999999999976
 40
1
 50
0
 51
89.999999999999915
  0
LINE
  8
_0-1_計細線
  6
CONTINUOUS
 62
    3
 10
1141.8000000023603
 20
659.75999999999988
 11
1139.3000000023608
 21
659.75999999999988
  0
ARC
  8
_0-1_計細線
  6
CONTINUOUS
 62
    3
 10
1147.2000000023604
 20
658.75999999999976
 40
1
 50
89.999999999999915
 51
179.99999999999983
  0
LINE
  8
_0-1_計細線
  6
CONTINUOUS
 62
    3
 10
1147.2000000001531
 20
659.75999999999988
 11
1149.7000000001535
 21
659.75999999999988
  0
LINE
  8
_0-1_計細線
  6
CONTINUOUS
 62
    3
 10
1147.0000000012569
 20
663.65999999999974
 11
1142.0000000012569
 21
663.65999999999974
  0
LINE
  8
_0-1_計細線
  6
CONTINUOUS
 62
    3
 10
1142.8000000012571
 20
638.65999999999985
 11
1142.8000000023608
 21
658.75999999999976
  0
LINE
  8
_0-1_計細線
  6
CONTINUOUS
 62
    3
 10
1146.2000000012567
 20
638.65999999999985
 11
1146.2000000023609
 21
658.75999999999976
  0
LINE
  8
_0-1_計細線
  6
CONTINUOUS
 62
    3
 10
1146.2000000012567
 20
638.65999999999985
 11
1142.8000000012571
 21
638.65999999999985
  0
ARC
  8
_0-1_計細線
  6
CONTINUOUS
 62
    3
 10
1020.800000000018
 20
661.65999999999963
 40
1
 50
89.999999999999915
 51
179.99999999999983
  0
ARC
  8
_0-1_計細線
  6
CONTINUOUS
 62
    3
 10
1021.2679491913457
 20
663.65999999999974
 40
1
 50
269.99999999999977
 51
329.99999999999909
  0
ARC
  8
_0-1_計細線
  6
CONTINUOUS
 62
    3
 10
1022.9999999989145
 20
662.65999999999985
 40
1
 50
89.999999999999915
 51
150.00000000001074
  0
LINE
  8
_0-1_計細線
  6
CONTINUOUS
 62
    3
 10
1020.800000000018
 20
662.65999999999985
 11
1021.2679491913457
 21
662.65999999999985
  0
ARC
  8
_0-1_計細線
  6
CONTINUOUS
 62
    3
 10
1030.1999999978109
 20
661.65999999999963
 40
1
 50
0
 51
89.999999999999915
  0
ARC
  8
_0-1_計細線
  6
CONTINUOUS
 62
    3
 10
1029.7320508064836
 20
663.65999999999974
 40
1
 50
209.99999999999039
 51
269.99999999999977
  0
ARC
  8
_0-1_計細線
  6
CONTINUOUS
 62
    3
 10
1027.9999999989145
 20
662.65999999999985
 40
1
 50
29.999999999992518
 51
89.999999999999901
  0
LINE
  8
_0-1_計細線
  6
CONTINUOUS
 62
    3
 10
1030.1999999978109
 20
662.65999999999985
 11
1029.7320508064836
 21
662.65999999999985
  0
ARC
  8
_0-1_計細線
  6
CONTINUOUS
 62
    3
 10
1020.3000000000184
 20
660.25999999999976
 40
0.5
 50
179.99999999999983
 51
269.99999999999977
  0
LINE
  8
_0-1_計細線
  6
CONTINUOUS
 62
    3
 10
1019.8000000000183
 20
661.65999999999963
 11
1019.8000000000183
 21
660.25999999999976
  0
ARC
  8
_0-1_計細線
  6
CONTINUOUS
 62
    3
 10
1030.6999999978111
 20
660.25999999999976
 40
0.5
 50
269.99999999999977
 51
359.99999999999966
  0
LINE
  8
_0-1_計細線
  6
CONTINUOUS
 62
    3
 10
1031.1999999978111
 20
661.65999999999963
 11
1031.1999999978111
 21
660.25999999999976
  0
ARC
  8
_0-1_計細線
  6
CONTINUOUS
 62
    3
 10
1022.8000000000181
 20
658.75999999999976
 40
1
 50
0
 51
89.999999999999915
  0
LINE
  8
_0-1_計細線
  6
CONTINUOUS
 62
    3
 10
1022.8000000000181
 20
659.75999999999988
 11
1020.3000000000184
 21
659.75999999999988
  0
ARC
  8
_0-1_計細線
  6
CONTINUOUS
 62
    3
 10
1028.200000000018
 20
658.75999999999976
 40
1
 50
89.999999999999915
 51
179.99999999999983
  0
LINE
  8
_0-1_計細線
  6
CONTINUOUS
 62
    3
 10
1028.1999999978107
 20
659.75999999999988
 11
1030.6999999978111
 21
659.75999999999988
  0
LINE
  8
_0-1_計細線
  6
CONTINUOUS
 62
    3
 10
1027.9999999989145
 20
663.65999999999974
 11
1022.9999999989145
 21
663.65999999999974
  0
LINE
  8
_0-1_計細線
  6
CONTINUOUS
 62
    3
 10
1023.7999999989147
 20
638.65999999999985
 11
1023.8000000000181
 21
658.75999999999976
  0
LINE
  8
_0-1_計細線
  6
CONTINUOUS
 62
    3
 10
1027.1999999989146
 20
638.65999999999985
 11
1027.2000000000182
 21
658.75999999999976
  0
LINE
  8
_0-1_計細線
  6
CONTINUOUS
 62
    3
 10
1027.1999999989146
 20
638.65999999999985
 11
1023.7999999989147
 21
638.65999999999985
  0
ARC
  8
_0-1_計細線
  6
CONTINUOUS
 62
    3
 10
1037.8000000003799
 20
661.65999999999963
 40
1
 50
89.999999999999915
 51
179.99999999999983
  0
ARC
  8
_0-1_計細線
  6
CONTINUOUS
 62
    3
 10
1038.2679491917074
 20
663.65999999999974
 40
1
 50
269.99999999999977
 51
330.00000000000239
  0
ARC
  8
_0-1_計細線
  6
CONTINUOUS
 62
    3
 10
1039.9999999992765
 20
662.65999999999985
 40
1
 50
89.999999999999915
 51
150.00000000001401
  0
LINE
  8
_0-1_計細線
  6
CONTINUOUS
 62
    3
 10
1037.8000000003799
 20
662.65999999999985
 11
1038.2679491917074
 21
662.65999999999985
  0
ARC
  8
_0-1_計細線
  6
CONTINUOUS
 62
    3
 10
1047.1999999981726
 20
661.65999999999963
 40
1
 50
0
 51
89.999999999999915
  0
ARC
  8
_0-1_計細線
  6
CONTINUOUS
 62
    3
 10
1046.7320508068451
 20
663.65999999999974
 40
1
 50
209.9999999999969
 51
269.99999999999977
  0
ARC
  8
_0-1_計細線
  6
CONTINUOUS
 62
    3
 10
1044.9999999992765
 20
662.65999999999985
 40
1
 50
29.99999999999903
 51
89.999999999999901
  0
LINE
  8
_0-1_計細線
  6
CONTINUOUS
 62
    3
 10
1047.1999999981726
 20
662.65999999999985
 11
1046.7320508068451
 21
662.65999999999985
  0
ARC
  8
_0-1_計細線
  6
CONTINUOUS
 62
    3
 10
1037.3000000003801
 20
660.25999999999976
 40
0.5
 50
179.99999999999983
 51
269.99999999999977
  0
LINE
  8
_0-1_計細線
  6
CONTINUOUS
 62
    3
 10
1036.8000000003799
 20
661.65999999999963
 11
1036.8000000003799
 21
660.25999999999976
  0
ARC
  8
_0-1_計細線
  6
CONTINUOUS
 62
    3
 10
1047.6999999981729
 20
660.25999999999976
 40
0.5
 50
269.99999999999977
 51
359.99999999999966
  0
LINE
  8
_0-1_計細線
  6
CONTINUOUS
 62
    3
 10
1048.1999999981726
 20
661.65999999999963
 11
1048.1999999981726
 21
660.25999999999976
  0
ARC
  8
_0-1_計細線
  6
CONTINUOUS
 62
    3
 10
1039.8000000003799
 20
658.75999999999976
 40
1
 50
0
 51
89.999999999999915
  0
LINE
  8
_0-1_計細線
  6
CONTINUOUS
 62
    3
 10
1039.8000000003799
 20
659.75999999999988
 11
1037.3000000003801
 21
659.75999999999988
  0
ARC
  8
_0-1_計細線
  6
CONTINUOUS
 62
    3
 10
1045.20000000038
 20
658.75999999999976
 40
1
 50
89.999999999999915
 51
179.99999999999983
  0
LINE
  8
_0-1_計細線
  6
CONTINUOUS
 62
    3
 10
1045.1999999981726
 20
659.75999999999988
 11
1047.6999999981729
 21
659.75999999999988
  0
LINE
  8
_0-1_計細線
  6
CONTINUOUS
 62
    3
 10
1044.9999999992765
 20
663.65999999999974
 11
1039.9999999992765
 21
663.65999999999974
  0
LINE
  8
_0-1_計細線
  6
CONTINUOUS
 62
    3
 10
1040.7999999992762
 20
638.65999999999985
 11
1040.8000000003799
 21
658.75999999999976
  0
LINE
  8
_0-1_計細線
  6
CONTINUOUS
 62
    3
 10
1044.1999999992763
 20
638.65999999999985
 11
1044.20000000038
 21
658.75999999999976
  0
LINE
  8
_0-1_計細線
  6
CONTINUOUS
 62
    3
 10
1044.1999999992763
 20
638.65999999999985
 11
1040.7999999992762
 21
638.65999999999985
  0
ARC
  8
_0-1_計細線
  6
CONTINUOUS
 62
    3
 10
1054.8000000007419
 20
661.65999999999963
 40
1
 50
89.999999999999915
 51
179.99999999999983
  0
ARC
  8
_0-1_計細線
  6
CONTINUOUS
 62
    3
 10
1055.2679491920694
 20
663.65999999999974
 40
1
 50
269.99999999999977
 51
330.00000000000239
  0
ARC
  8
_0-1_計細線
  6
CONTINUOUS
 62
    3
 10
1056.9999999996385
 20
662.65999999999985
 40
1
 50
89.999999999999915
 51
150.00000000001401
  0
LINE
  8
_0-1_計細線
  6
CONTINUOUS
 62
    3
 10
1054.8000000007419
 20
662.65999999999985
 11
1055.2679491920694
 21
662.65999999999985
  0
ARC
  8
_0-1_計細線
  6
CONTINUOUS
 62
    3
 10
1064.1999999985346
 20
661.65999999999963
 40
1
 50
0
 51
89.999999999999915
  0
ARC
  8
_0-1_計細線
  6
CONTINUOUS
 62
    3
 10
1063.7320508072073
 20
663.65999999999974
 40
1
 50
209.99999999999039
 51
269.99999999999977
  0
ARC
  8
_0-1_計細線
  6
CONTINUOUS
 62
    3
 10
1061.999999999638
 20
662.65999999999985
 40
1
 50
29.999999999986002
 51
89.999999999973952
  0
LINE
  8
_0-1_計細線
  6
CONTINUOUS
 62
    3
 10
1064.1999999985346
 20
662.65999999999985
 11
1063.7320508072073
 21
662.65999999999985
  0
ARC
  8
_0-1_計細線
  6
CONTINUOUS
 62
    3
 10
1054.3000000007419
 20
660.25999999999976
 40
0.5
 50
179.99999999999983
 51
269.99999999999977
  0
LINE
  8
_0-1_計細線
  6
CONTINUOUS
 62
    3
 10
1053.8000000007419
 20
661.65999999999963
 11
1053.8000000007419
 21
660.25999999999976
  0
ARC
  8
_0-1_計細線
  6
CONTINUOUS
 62
    3
 10
1064.6999999985346
 20
660.25999999999976
 40
0.5
 50
269.99999999999977
 51
359.99999999999966
  0
LINE
  8
_0-1_計細線
  6
CONTINUOUS
 62
    3
 10
1065.1999999985351
 20
661.65999999999963
 11
1065.1999999985351
 21
660.25999999999976
  0
ARC
  8
_0-1_計細線
  6
CONTINUOUS
 62
    3
 10
1056.8000000007419
 20
658.75999999999976
 40
1
 50
0
 51
89.999999999999915
  0
LINE
  8
_0-1_計細線
  6
CONTINUOUS
 62
    3
 10
1056.8000000007419
 20
659.75999999999988
 11
1054.3000000007419
 21
659.75999999999988
  0
ARC
  8
_0-1_計細線
  6
CONTINUOUS
 62
    3
 10
1062.200000000742
 20
658.75999999999976
 40
1
 50
89.999999999999915
 51
179.99999999999983
  0
LINE
  8
_0-1_計細線
  6
CONTINUOUS
 62
    3
 10
1062.1999999985346
 20
659.75999999999988
 11
1064.6999999985346
 21
659.75999999999988
  0
LINE
  8
_0-1_計細線
  6
CONTINUOUS
 62
    3
 10
1061.999999999638
 20
663.65999999999974
 11
1056.9999999996385
 21
663.65999999999974
  0
LINE
  8
_0-1_計細線
  6
CONTINUOUS
 62
    3
 10
1057.7999999996384
 20
638.65999999999985
 11
1057.8000000007419
 21
658.75999999999976
  0
LINE
  8
_0-1_計細線
  6
CONTINUOUS
 62
    3
 10
1061.1999999996383
 20
638.65999999999985
 11
1061.200000000742
 21
658.75999999999976
  0
LINE
  8
_0-1_計細線
  6
CONTINUOUS
 62
    3
 10
1061.1999999996383
 20
638.65999999999985
 11
1057.7999999996384
 21
638.65999999999985
  0
ARC
  8
_0-1_計細線
  6
CONTINUOUS
 62
    3
 10
1088.8000000014654
 20
661.65999999999963
 40
1
 50
89.999999999999915
 51
179.99999999999983
  0
ARC
  8
_0-1_計細線
  6
CONTINUOUS
 62
    3
 10
1089.2679491927929
 20
663.65999999999974
 40
1
 50
269.99999999999977
 51
330.00000000000239
  0
ARC
  8
_0-1_計細線
  6
CONTINUOUS
 62
    3
 10
1091.000000000362
 20
662.65999999999985
 40
1
 50
89.999999999999915
 51
150.00000000001401
  0
LINE
  8
_0-1_計細線
  6
CONTINUOUS
 62
    3
 10
1088.8000000014654
 20
662.65999999999985
 11
1089.2679491927929
 21
662.65999999999985
  0
ARC
  8
_0-1_計細線
  6
CONTINUOUS
 62
    3
 10
1098.1999999992581
 20
661.65999999999963
 40
1
 50
0
 51
89.999999999999915
  0
ARC
  8
_0-1_計細線
  6
CONTINUOUS
 62
    3
 10
1097.7320508079306
 20
663.65999999999974
 40
1
 50
209.9999999999969
 51
269.99999999999977
  0
ARC
  8
_0-1_計細線
  6
CONTINUOUS
 62
    3
 10
1096.0000000003615
 20
662.65999999999985
 40
1
 50
29.999999999986002
 51
89.999999999973952
  0
LINE
  8
_0-1_計細線
  6
CONTINUOUS
 62
    3
 10
1098.1999999992581
 20
662.65999999999985
 11
1097.7320508079306
 21
662.65999999999985
  0
ARC
  8
_0-1_計細線
  6
CONTINUOUS
 62
    3
 10
1088.3000000014654
 20
660.25999999999976
 40
0.5
 50
179.99999999999983
 51
269.99999999999977
  0
LINE
  8
_0-1_計細線
  6
CONTINUOUS
 62
    3
 10
1087.8000000014654
 20
661.65999999999963
 11
1087.8000000014654
 21
660.25999999999976
  0
ARC
  8
_0-1_計細線
  6
CONTINUOUS
 62
    3
 10
1098.6999999992581
 20
660.25999999999976
 40
0.5
 50
269.99999999999977
 51
359.99999999999966
  0
LINE
  8
_0-1_計細線
  6
CONTINUOUS
 62
    3
 10
1099.1999999992581
 20
661.65999999999963
 11
1099.1999999992581
 21
660.25999999999976
  0
ARC
  8
_0-1_計細線
  6
CONTINUOUS
 62
    3
 10
1090.8000000014654
 20
658.75999999999976
 40
1
 50
0
 51
89.999999999999915
  0
LINE
  8
_0-1_計細線
  6
CONTINUOUS
 62
    3
 10
1090.8000000014654
 20
659.75999999999988
 11
1088.3000000014654
 21
659.75999999999988
  0
ARC
  8
_0-1_計細線
  6
CONTINUOUS
 62
    3
 10
1096.2000000014655
 20
658.75999999999976
 40
1
 50
89.999999999999915
 51
179.99999999999983
  0
LINE
  8
_0-1_計細線
  6
CONTINUOUS
 62
    3
 10
1096.1999999992581
 20
659.75999999999988
 11
1098.6999999992581
 21
659.75999999999988
  0
LINE
  8
_0-1_計細線
  6
CONTINUOUS
 62
    3
 10
1096.0000000003615
 20
663.65999999999974
 11
1091.000000000362
 21
663.65999999999974
  0
LINE
  8
_0-1_計細線
  6
CONTINUOUS
 62
    3
 10
1091.8000000003617
 20
638.65999999999985
 11
1091.8000000014654
 21
658.75999999999976
  0
LINE
  8
_0-1_計細線
  6
CONTINUOUS
 62
    3
 10
1095.2000000003618
 20
638.65999999999985
 11
1095.2000000014655
 21
658.75999999999976
  0
LINE
  8
_0-1_計細線
  6
CONTINUOUS
 62
    3
 10
1095.2000000003618
 20
638.65999999999985
 11
1091.8000000003617
 21
638.65999999999985
  0
ARC
  8
_0-1_計細線
  6
CONTINUOUS
 62
    3
 10
1105.8000000018274
 20
661.65999999999963
 40
1
 50
89.999999999999915
 51
179.99999999999983
  0
ARC
  8
_0-1_計細線
  6
CONTINUOUS
 62
    3
 10
1106.2679491931544
 20
663.65999999999974
 40
1
 50
269.99999999999977
 51
330.00000000000239
  0
ARC
  8
_0-1_計細線
  6
CONTINUOUS
 62
    3
 10
1108.0000000007235
 20
662.65999999999985
 40
1
 50
89.999999999999915
 51
150.00000000001401
  0
LINE
  8
_0-1_計細線
  6
CONTINUOUS
 62
    3
 10
1105.8000000018274
 20
662.65999999999985
 11
1106.2679491931544
 21
662.65999999999985
  0
ARC
  8
_0-1_計細線
  6
CONTINUOUS
 62
    3
 10
1115.1999999996196
 20
661.65999999999963
 40
1
 50
0
 51
89.999999999999915
  0
ARC
  8
_0-1_計細線
  6
CONTINUOUS
 62
    3
 10
1114.7320508082926
 20
663.65999999999974
 40
1
 50
209.99999999998388
 51
269.99999999999977
  0
ARC
  8
_0-1_計細線
  6
CONTINUOUS
 62
    3
 10
1113.0000000007235
 20
662.65999999999985
 40
1
 50
29.99999999999903
 51
89.999999999999901
  0
LINE
  8
_0-1_計細線
  6
CONTINUOUS
 62
    3
 10
1115.1999999996196
 20
662.65999999999985
 11
1114.7320508082926
 21
662.65999999999985
  0
ARC
  8
_0-1_計細線
  6
CONTINUOUS
 62
    3
 10
1105.3000000018274
 20
660.25999999999976
 40
0.5
 50
179.99999999999983
 51
269.99999999999977
  0
LINE
  8
_0-1_計細線
  6
CONTINUOUS
 62
    3
 10
1104.8000000018269
 20
661.65999999999963
 11
1104.8000000018269
 21
660.25999999999976
  0
ARC
  8
_0-1_計細線
  6
CONTINUOUS
 62
    3
 10
1115.6999999996199
 20
660.25999999999976
 40
0.5
 50
269.99999999999977
 51
359.99999999999966
  0
LINE
  8
_0-1_計細線
  6
CONTINUOUS
 62
    3
 10
1116.1999999996201
 20
661.65999999999963
 11
1116.1999999996201
 21
660.25999999999976
  0
ARC
  8
_0-1_計細線
  6
CONTINUOUS
 62
    3
 10
1107.8000000018269
 20
658.75999999999976
 40
1
 50
0
 51
89.999999999999915
  0
LINE
  8
_0-1_計細線
  6
CONTINUOUS
 62
    3
 10
1107.8000000018269
 20
659.75999999999988
 11
1105.3000000018274
 21
659.75999999999988
  0
ARC
  8
_0-1_計細線
  6
CONTINUOUS
 62
    3
 10
1113.2000000018274
 20
658.75999999999976
 40
1
 50
89.999999999999915
 51
179.99999999999983
  0
LINE
  8
_0-1_計細線
  6
CONTINUOUS
 62
    3
 10
1113.1999999996201
 20
659.75999999999988
 11
1115.6999999996199
 21
659.75999999999988
  0
LINE
  8
_0-1_計細線
  6
CONTINUOUS
 62
    3
 10
1113.0000000007235
 20
663.65999999999974
 11
1108.0000000007235
 21
663.65999999999974
  0
LINE
  8
_0-1_計細線
  6
CONTINUOUS
 62
    3
 10
1108.8000000007237
 20
638.65999999999985
 11
1108.8000000018274
 21
658.75999999999976
  0
LINE
  8
_0-1_計細線
  6
CONTINUOUS
 62
    3
 10
1112.2000000007233
 20
638.65999999999985
 11
1112.200000001827
 21
658.75999999999976
  0
LINE
  8
_0-1_計細線
  6
CONTINUOUS
 62
    3
 10
1112.2000000007233
 20
638.65999999999985
 11
1108.8000000007237
 21
638.65999999999985
  0
ARC
  8
_0-1_計細線
  6
CONTINUOUS
 62
    3
 10
1122.8000000021889
 20
661.65999999999963
 40
1
 50
89.999999999999915
 51
179.99999999999983
  0
ARC
  8
_0-1_計細線
  6
CONTINUOUS
 62
    3
 10
1123.2679491935164
 20
663.65999999999974
 40
1
 50
269.99999999999977
 51
330.00000000000239
  0
ARC
  8
_0-1_計細線
  6
CONTINUOUS
 62
    3
 10
1125.000000001085
 20
662.65999999999985
 40
1
 50
89.999999999999915
 51
150.00000000000097
  0
LINE
  8
_0-1_計細線
  6
CONTINUOUS
 62
    3
 10
1122.8000000021889
 20
662.65999999999985
 11
1123.2679491935164
 21
662.65999999999985
  0
ARC
  8
_0-1_計細線
  6
CONTINUOUS
 62
    3
 10
1132.1999999999816
 20
661.65999999999963
 40
1
 50
0
 51
89.999999999999915
  0
ARC
  8
_0-1_計細線
  6
CONTINUOUS
 62
    3
 10
1131.7320508086545
 20
663.65999999999974
 40
1
 50
209.9999999999969
 51
269.99999999999977
  0
ARC
  8
_0-1_計細線
  6
CONTINUOUS
 62
    3
 10
1130.0000000010855
 20
662.65999999999985
 40
1
 50
29.999999999986002
 51
89.999999999999901
  0
LINE
  8
_0-1_計細線
  6
CONTINUOUS
 62
    3
 10
1132.1999999999816
 20
662.65999999999985
 11
1131.7320508086545
 21
662.65999999999985
  0
ARC
  8
_0-1_計細線
  6
CONTINUOUS
 62
    3
 10
1122.3000000021889
 20
660.25999999999976
 40
0.5
 50
179.99999999999983
 51
269.99999999999977
  0
LINE
  8
_0-1_計細線
  6
CONTINUOUS
 62
    3
 10
1121.8000000021889
 20
661.65999999999963
 11
1121.8000000021889
 21
660.25999999999976
  0
ARC
  8
_0-1_計細線
  6
CONTINUOUS
 62
    3
 10
1132.6999999999816
 20
660.25999999999976
 40
0.5
 50
269.99999999999977
 51
359.99999999999966
  0
LINE
  8
_0-1_計細線
  6
CONTINUOUS
 62
    3
 10
1133.1999999999821
 20
661.65999999999963
 11
1133.1999999999821
 21
660.25999999999976
  0
ARC
  8
_0-1_計細線
  6
CONTINUOUS
 62
    3
 10
1124.8000000021889
 20
658.75999999999976
 40
1
 50
0
 51
89.999999999999915
  0
LINE
  8
_0-1_計細線
  6
CONTINUOUS
 62
    3
 10
1124.8000000021889
 20
659.75999999999988
 11
1122.3000000021889
 21
659.75999999999988
  0
ARC
  8
_0-1_計細線
  6
CONTINUOUS
 62
    3
 10
1130.200000002189
 20
658.75999999999976
 40
1
 50
89.999999999999915
 51
179.99999999999983
  0
LINE
  8
_0-1_計細線
  6
CONTINUOUS
 62
    3
 10
1130.1999999999816
 20
659.75999999999988
 11
1132.6999999999816
 21
659.75999999999988
  0
LINE
  8
_0-1_計細線
  6
CONTINUOUS
 62
    3
 10
1130.0000000010855
 20
663.65999999999974
 11
1125.000000001085
 21
663.65999999999974
  0
LINE
  8
_0-1_計細線
  6
CONTINUOUS
 62
    3
 10
1125.8000000010852
 20
638.65999999999985
 11
1125.8000000021889
 21
658.75999999999976
  0
LINE
  8
_0-1_計細線
  6
CONTINUOUS
 62
    3
 10
1129.2000000010853
 20
638.65999999999985
 11
1129.200000002189
 21
658.75999999999976
  0
LINE
  8
_0-1_計細線
  6
CONTINUOUS
 62
    3
 10
1129.2000000010853
 20
638.65999999999985
 11
1125.8000000010852
 21
638.65999999999985
  0
ARC
  8
_0-1_計細線
  6
CONTINUOUS
 62
    3
 10
1187
 20
638.65999999999985
 40
3.0000000000000004
 50
269.99999999999977
 51
359.99999999999966
  0
LINE
  8
_0-1_計細線
  6
CONTINUOUS
 62
    3
 10
1190
 20
638.65999999999985
 11
1190
 21
663.15999999999985
  0
LINE
  8
_0-1_計細線
  6
CONTINUOUS
 62
    3
 10
1187
 20
635.65999999999985
 11
1160.4999999999995
 21
635.65999999999985
  0
LINE
  8
_0-1_計細線
  6
CONTINUOUS
 62
    3
 10
1159.9999999999995
 20
636.15999999999985
 11
1160.4999999999995
 21
635.65999999999985
  0
LINE
  8
_0-1_計細線
  6
CONTINUOUS
 62
    3
 10
1159.9999999999995
 20
638.16000000000008
 11
1159.9999999999995
 21
636.15999999999985
  0
LINE
  8
_0-1_計細線
  6
CONTINUOUS
 62
    3
 10
1160.4999999999995
 20
638.65999999999985
 11
1159.9999999999995
 21
638.16000000000008
  0
LINE
  8
_0-1_計細線
  6
CONTINUOUS
 62
    3
 10
1187
 20
638.65999999999985
 11
1160.4999999999995
 21
638.65999999999985
  0
LINE
  8
_0-1_計細線
  6
CONTINUOUS
 62
    3
 10
1189.5
 20
663.66000000000008
 11
1190
 21
663.15999999999985
  0
LINE
  8
_0-1_計細線
  6
CONTINUOUS
 62
    3
 10
1187.5
 20
663.66000000000008
 11
1189.5
 21
663.66000000000008
  0
LINE
  8
_0-1_計細線
  6
CONTINUOUS
 62
    3
 10
1187
 20
663.15999999999985
 11
1187.5
 21
663.66000000000008
  0
LINE
  8
_0-1_計細線
  6
CONTINUOUS
 62
    3
 10
1187
 20
638.65999999999985
 11
1187
 21
663.15999999999985
  0
ARC
  8
_0-1_計細線
  6
CONTINUOUS
 62
    3
 10
983
 20
638.65999999999985
 40
3.0000000000000004
 50
179.99999999999983
 51
269.99999999999977
  0
LINE
  8
_0-1_計細線
  6
CONTINUOUS
 62
    3
 10
980
 20
638.65999999999985
 11
980
 21
663.15999999999985
  0
LINE
  8
_0-1_計細線
  6
CONTINUOUS
 62
    3
 10
983
 20
635.65999999999985
 11
1009.4999999999999
 21
635.65999999999985
  0
LINE
  8
_0-1_計細線
  6
CONTINUOUS
 62
    3
 10
1010
 20
636.15999999999985
 11
1009.4999999999999
 21
635.65999999999985
  0
LINE
  8
_0-1_計細線
  6
CONTINUOUS
 62
    3
 10
1010
 20
638.16000000000008
 11
1010
 21
636.15999999999985
  0
LINE
  8
_0-1_計細線
  6
CONTINUOUS
 62
    3
 10
1009.4999999999999
 20
638.65999999999985
 11
1010
 21
638.16000000000008
  0
LINE
  8
_0-1_計細線
  6
CONTINUOUS
 62
    3
 10
983
 20
638.65999999999985
 11
1009.4999999999999
 21
638.65999999999985
  0
LINE
  8
_0-1_計細線
  6
CONTINUOUS
 62
    3
 10
980.49999999999977
 20
663.66000000000008
 11
980
 21
663.15999999999985
  0
LINE
  8
_0-1_計細線
  6
CONTINUOUS
 62
    3
 10
982.49999999999989
 20
663.66000000000008
 11
980.49999999999977
 21
663.66000000000008
  0
LINE
  8
_0-1_計細線
  6
CONTINUOUS
 62
    3
 10
983
 20
663.15999999999985
 11
982.49999999999989
 21
663.66000000000008
  0
LINE
  8
_0-1_計細線
  6
CONTINUOUS
 62
    3
 10
983
 20
638.65999999999985
 11
983
 21
663.15999999999985
  0
CIRCLE
  8
_0-0_計極細
  6
CONTINUOUS
 62
    2
 10
1206.9182918262377
 20
623.44000921295947
 40
0.3318518518518431
  0
CIRCLE
  8
_0-0_計極細
  6
CONTINUOUS
 62
    2
 10
1218.6782918262379
 20
620.08000921295957
 40
0.3318518518518431
  0
LINE
  8
_0-0_計極細
  6
CONTINUOUS
 62
    2
 10
1205
 20
617.11133680898934
 11
1214
 21
617.11133680898934
  0
LINE
  8
_0-0_計極細
  6
CENTER1
 62
    2
 10
1209.5
 20
585.69395582932816
 11
1209.5
 21
619.67676890775533
  0
LINE
  8
_0-0_計極細
  6
CONTINUOUS
 62
    2
 10
1214
 20
617.11133680898934
 11
1214
 21
590.65999999999985
  0
LINE
  8
_0-0_計極細
  6
CONTINUOUS
 62
    2
 10
1205
 20
590.65999999999985
 11
1205
 21
617.11133680898934
  0
LINE
  8
_0-0_計極細
  6
CENTER1
 62
    2
 10
1220.6963916124523
 20
608.73545946702075
 11
1182.2777793229129
 21
622.71869075804193
  0
LINE
  8
_0-0_計極細
  6
CONTINUOUS
 62
    2
 10
1216.1840409322913
 20
605.58902069750206
 11
1183.1094340380823
 21
617.62719311704973
  0
LINE
  8
_0-0_計極細
  6
CONTINUOUS
 62
    2
 10
1219.2622222222221
 20
614.04625428457507
 11
1186.1876153280132
 21
626.08442670412296
  0
LINE
  8
_0-0_計極細
  6
CONTINUOUS
 62
    2
 10
1186.1876153280132
 20
626.08442670412273
 11
1183.1094340380823
 21
617.62719311704973
  0
LINE
  8
_0-0_計極細
  6
CONTINUOUS
 62
    2
 10
1216.1840409322913
 20
605.58902069750206
 11
1219.2622222222221
 21
614.04625428457507
  0
LINE
  8
_0-0_計極細
  6
CENTER1
 62
    2
 10
960.5
 20
585.69395582932816
 11
960.5
 21
619.67676890775533
  0
LINE
  8
_0-0_計極細
  6
CONTINUOUS
 62
    2
 10
956
 20
617.11133680898934
 11
956
 21
590.65999999999985
  0
LINE
  8
_0-0_計極細
  6
CONTINUOUS
 62
    2
 10
965
 20
617.11133680898934
 11
956
 21
617.11133680898934
  0
LINE
  8
_0-0_計極細
  6
CONTINUOUS
 62
    2
 10
965
 20
590.65999999999985
 11
965
 21
617.11133680898934
  0
LINE
  8
_0-0_計極細
  6
CENTER1
 62
    2
 10
949.30360838754746
 20
608.73545946702075
 11
987.72222067708708
 21
622.71869075804193
  0
LINE
  8
_0-0_計極細
  6
CONTINUOUS
 62
    2
 10
953.81595906770883
 20
605.58902069750206
 11
986.89056596191745
 21
617.62719311704973
  0
LINE
  8
_0-0_計極細
  6
CONTINUOUS
 62
    2
 10
950.73777777777764
 20
614.04625428457507
 11
983.81238467198671
 21
626.08442670412296
  0
LINE
  8
_0-0_計極細
  6
CONTINUOUS
 62
    2
 10
983.81238467198671
 20
626.08442670412273
 11
986.89056596191745
 21
617.62719311704973
  0
LINE
  8
_0-0_計極細
  6
CONTINUOUS
 62
    2
 10
953.81595906770883
 20
605.58902069750206
 11
950.73777777777764
 21
614.04625428457507
  0
CIRCLE
  8
_0-0_計極細
  6
CONTINUOUS
 62
    2
 10
1165.7601436780888
 20
584.07130550925535
 40
1.0953188836088352
  0
CIRCLE
  8
_0-0_計極細
  6
CONTINUOUS
 62
    2
 10
1163.9912547892
 20
627.64463884258907
 40
1.0953188836088352
  0
CIRCLE
  8
_0-0_計極細
  6
CONTINUOUS
 62
    2
 10
1164.3745881225336
 20
588.07260180555227
 40
0.3318518518518431
  0
CIRCLE
  8
_0-0_計極細
  6
CONTINUOUS
 62
    2
 10
1163.5906375052496
 20
611.6259351388851
 40
0.3318518518518431
  0
LINE
  8
_0-0_計極細
  6
CONTINUOUS
 62
    2
 10
1159.9999999999995
 20
635.65999999999985
 11
1159.9999999999995
 21
574.91503982313247
  0
LINE
  8
_0-0_計極細
  6
CONTINUOUS
 62
    2
 10
1160.4999999999995
 20
635.65999999999985
 11
1159.9999999999995
 21
635.65999999999985
  0
CIRCLE
  8
_0-0_計極細
  6
CONTINUOUS
 62
    2
 10
1201.9968103447554
 20
650.37926847221797
 40
0.3318518518518431
  0
CIRCLE
  8
_0-0_計極細
  6
CONTINUOUS
 62
    2
 10
1214.7968103447552
 20
642.98797217592198
 40
1.0953188836088352
  0
CIRCLE
  8
_0-0_計極細
  6
CONTINUOUS
 62
    2
 10
1214.7168103447552
 20
646.77926847221829
 40
0.3318518518518431
  0
CIRCLE
  8
_0-0_計極細
  6
CONTINUOUS
 62
    2
 10
1223.916810344755
 20
650.34797217592154
 40
1.0953188836088352
  0
CIRCLE
  8
_0-0_計極細
  6
CONTINUOUS
 62
    2
 10
1217.1168103447553
 20
651.49926847221809
 40
0.3318518518518431
  0
CIRCLE
  8
_0-0_計極細
  6
CONTINUOUS
 62
    2
 10
1233.1968103447552
 20
649.8192684722178
 40
0.3318518518518431
  0
CIRCLE
  8
_0-0_計極細
  6
CONTINUOUS
 62
    2
 10
1243.2768103447547
 20
649.8192684722178
 40
0.3318518518518431
  0
LINE
  8
_0-0_計極細
  6
CONTINUOUS
 62
    2
 10
1236.0734832401818
 20
656.65999999999985
 11
1243.0734828641084
 21
663.65999962392652
  0
LINE
  8
_0-0_計極細
  6
CONTINUOUS
 62
    2
 10
1223.345561178824
 20
656.66000000000008
 11
1230.3455609023199
 21
663.65999972349573
  0
LINE
  8
_0-0_計極細
  6
CONTINUOUS
 62
    2
 10
1210.6176391174658
 20
656.65999999999985
 11
1217.6176389405309
 21
663.65999982306471
  0
LINE
  8
_0-0_計極細
  6
CONTINUOUS
 62
    2
 10
1197.8897170561081
 20
656.65999999999985
 11
1204.8897169787424
 21
663.65999992263392
  0
LINE
  8
_0-0_計極細
  6
DASHED2
 62
    2
 10
1242.4374442708609
 20
656.66000000000008
 11
1248.5066482870689
 21
662.72920401620809
  0
LINE
  8
_0-0_計極細
  6
DASHED2
 62
    2
 10
1229.7095222095027
 20
656.65999999999985
 11
1236.7095218832137
 21
663.6599996737109
  0
LINE
  8
_0-0_計極細
  6
DASHED2
 62
    2
 10
1216.9816001481449
 20
656.65999999999985
 11
1223.9815999214252
 21
663.65999977328011
  0
LINE
  8
_0-0_計極細
  6
DASHED2
 62
    2
 10
1204.2536780867872
 20
656.65999999999985
 11
1211.2536779596362
 21
663.65999987284931
  0
LINE
  8
_0-0_計極細
  6
DASHED2
 62
    2
 10
1195
 20
660.13424397457061
 11
1198.5257559978477
 21
663.65999997241829
  0
LINE
  8
_0-0_計極細
  6
CONTINUOUS
 62
    2
 10
1195
 20
658.86145176843479
 11
1192.7985482315648
 21
656.65999999999985
  0
LINE
  8
_0-0_計極細
  6
CONTINUOUS
 62
    2
 10
1195
 20
661.4070361807062
 11
1190.2529638192937
 21
656.65999999999985
  0
LINE
  8
_0-0_計極細
  6
CONTINUOUS
 62
    2
 10
1190
 20
658.95262059297795
 11
1194.707379407022
 21
663.66000000000008
  0
LINE
  8
_0-0_計極細
  6
CONTINUOUS
 62
    2
 10
1190
 20
661.4982050052497
 11
1192.1617949947504
 21
663.66000000000008
  0
LINE
  8
_0-0_計極細
  6
CONTINUOUS
 62
    2
 10
1195
 20
662.75440667429666
 11
1194.0944066742968
 21
663.66000000000008
  0
LINE
  8
_0-0_計極細
  6
CONTINUOUS
 62
    2
 10
1195
 20
660.20882226202525
 11
1191.5488222620252
 21
663.66000000000008
  0
LINE
  8
_0-0_計極細
  6
CONTINUOUS
 62
    2
 10
1195
 20
657.66323784975339
 11
1190
 21
662.66323784975373
  0
LINE
  8
_0-0_計極細
  6
CONTINUOUS
 62
    2
 10
1193.4576534374819
 20
656.65999999999985
 11
1190
 21
660.11765343748198
  0
LINE
  8
_0-0_計極細
  6
CONTINUOUS
 62
    2
 10
1190.9120690252103
 20
656.65999999999985
 11
1190
 21
657.57206902521034
  0
LINE
  8
_0-0_計極細
  6
CONTINUOUS
 62
    2
 10
1190
 20
663.15999999999985
 11
1190
 21
663.66000000000008
  0
LINE
  8
_0-0_計極細
  6
CONTINUOUS
 62
    2
 10
1190
 20
663.66000000000008
 11
1195
 21
663.66000000000008
  0
LINE
  8
_0-0_計極細
  6
CONTINUOUS
 62
    2
 10
1190
 20
656.65999999999985
 11
1248.5066482870689
 21
656.65999999999985
  0
LINE
  8
_0-0_計極細
  6
CONTINUOUS
 62
    2
 10
1195
 20
663.66000000000008
 11
1248.5066482870689
 21
663.66000000000008
  0
LINE
  8
_0-0_計極細
  6
CONTINUOUS
 62
    2
 10
1195
 20
663.66000000000008
 11
1195
 21
656.65999999999985
  0
CIRCLE
  8
_0-0_計極細
  6
CONTINUOUS
 62
    2
 10
1168.5738473817933
 20
606.55071559836711
 40
0.3318518518518431
  0
CIRCLE
  8
_0-0_計極細
  6
CONTINUOUS
 62
    2
 10
1168.4538473817929
 20
620.92404893170033
 40
0.3318518518518431
  0
CIRCLE
  8
_0-0_計極細
  6
CONTINUOUS
 62
    2
 10
1196.9334770114219
 20
624.17797217592215
 40
1.0953188836088352
  0
CIRCLE
  8
_0-0_計極細
  6
CONTINUOUS
 62
    2
 10
1227.3325925925924
 20
592.14574074074085
 40
1.0953188836088352
  0
CIRCLE
  8
_0-0_計極細
  6
CONTINUOUS
 62
    2
 10
1199.5734770114223
 20
598.25797217592253
 40
1.0953188836088352
  0
CIRCLE
  8
_0-0_計極細
  6
CONTINUOUS
 62
    2
 10
1178.4534770114224
 20
611.69797217592236
 40
1.0953188836088352
  0
CIRCLE
  8
_0-0_計極細
  6
CONTINUOUS
 62
    2
 10
1172.3201436780892
 20
593.77797217592251
 40
1.0953188836088352
  0
CIRCLE
  8
_0-0_計極細
  6
CONTINUOUS
 62
    2
 10
1214.5568103447549
 20
620.50797217592208
 40
1.0953188836088352
  0
CIRCLE
  8
_0-0_計極細
  6
CONTINUOUS
 62
    2
 10
1195.3568103447556
 20
639.70797217592167
 40
1.0953188836088352
  0
CIRCLE
  8
_0-0_計極細
  6
CONTINUOUS
 62
    2
 10
1228.6101436780882
 20
635.76130550925518
 40
1.0953188836088352
  0
CIRCLE
  8
_0-0_計極細
  6
CONTINUOUS
 62
    2
 10
1237.996810344755
 20
645.04130550925527
 40
1.0953188836088352
  0
CIRCLE
  8
_0-0_計極細
  6
CONTINUOUS
 62
    2
 10
1240.8768103447551
 20
636.77926847221806
 40
0.3318518518518431
  0
CIRCLE
  8
_0-0_計極細
  6
CONTINUOUS
 62
    2
 10
1223.1168103447549
 20
624.05926847221849
 40
0.3318518518518431
  0
CIRCLE
  8
_0-0_計極細
  6
CONTINUOUS
 62
    2
 10
1224.7968103447552
 20
640.13926847221796
 40
0.3318518518518431
  0
CIRCLE
  8
_0-0_計極細
  6
CONTINUOUS
 62
    2
 10
1214.7168103447552
 20
628.3792684722182
 40
0.3318518518518431
  0
CIRCLE
  8
_0-0_計極細
  6
CONTINUOUS
 62
    2
 10
1225.516810344755
 20
615.6592684722184
 40
0.3318518518518431
  0
CIRCLE
  8
_0-0_計極細
  6
CONTINUOUS
 62
    2
 10
1226.476810344755
 20
603.17926847221861
 40
0.3318518518518431
  0
CIRCLE
  8
_0-0_計極細
  6
CONTINUOUS
 62
    2
 10
1222.1568103447553
 20
594.77926847221875
 40
0.3318518518518431
  0
CIRCLE
  8
_0-0_計極細
  6
CONTINUOUS
 62
    2
 10
1198.6368103447553
 20
626.69926847221814
 40
0.3318518518518431
  0
CIRCLE
  8
_0-0_計極細
  6
CONTINUOUS
 62
    2
 10
1193.2768103447552
 20
635.52593513888496
 40
0.3318518518518431
  0
CIRCLE
  8
_0-0_計極細
  6
CONTINUOUS
 62
    2
 10
1194.770143678089
 20
647.36593513888488
 40
0.3318518518518431
  0
CIRCLE
  8
_0-0_計極細
  6
CONTINUOUS
 62
    2
 10
1200.4634770114221
 20
602.95260180555192
 40
0.3318518518518431
  0
CIRCLE
  8
_0-0_計極細
  6
CONTINUOUS
 62
    2
 10
1193.7434770114223
 20
599.59260180555202
 40
0.3318518518518431
  0
CIRCLE
  8
_0-0_計極細
  6
CONTINUOUS
 62
    2
 10
1200.9434770114221
 20
594.15260180555219
 40
0.3318518518518431
  0
CIRCLE
  8
_0-0_計極細
  6
CONTINUOUS
 62
    2
 10
1184.7834770114223
 20
593.99260180555189
 40
0.3318518518518431
  0
CIRCLE
  8
_0-0_計極細
  6
CONTINUOUS
 62
    2
 10
1176.4634770114221
 20
596.87260180555199
 40
0.3318518518518431
  0
CIRCLE
  8
_0-0_計極細
  6
CONTINUOUS
 62
    2
 10
1169.5834770114225
 20
578.95260180555192
 40
0.3318518518518431
  0
CIRCLE
  8
_0-0_計極細
  6
CONTINUOUS
 62
    2
 10
1175.1834770114224
 20
589.67260180555218
 40
0.3318518518518431
  0
CIRCLE
  8
_0-0_計極細
  6
CONTINUOUS
 62
    2
 10
1185.8834770114222
 20
603.65260180555174
 40
0.3318518518518431
  0
CIRCLE
  8
_0-0_計極細
  6
CONTINUOUS
 62
    2
 10
1175.3634770114222
 20
613.86593513888488
 40
0.3318518518518431
  0
CIRCLE
  8
_0-0_計極細
  6
CONTINUOUS
 62
    2
 10
1177.8168103447556
 20
628.85260180555156
 40
0.3318518518518431
  0
CIRCLE
  8
_0-0_計極細
  6
CONTINUOUS
 62
    2
 10
1171.8434770114222
 20
625.97260180555168
 40
0.3318518518518431
  0
LINE
  8
_0-0_計極細
  6
CONTINUOUS
 62
    2
 10
1234.9740014487556
 20
574.91503982313247
 11
1248.5066483119931
 21
588.44768668636993
  0
LINE
  8
_0-0_計極細
  6
CONTINUOUS
 62
    2
 10
1192.5475945775629
 20
574.91503982313247
 11
1208.2925547544301
 21
590.65999999999985
  0
LINE
  8
_0-0_計極細
  6
CONTINUOUS
 62
    2
 10
1230
 20
612.36744524556957
 11
1248.5066482875218
 21
630.87409353309158
  0
LINE
  8
_0-0_計極細
  6
CONTINUOUS
 62
    2
 10
1230.7313607616366
 20
574.91503982313247
 11
1248.5066483095461
 21
592.69032737104203
  0
LINE
  8
_0-0_計極細
  6
CONTINUOUS
 62
    2
 10
1188.3049538904434
 20
574.91503982313247
 11
1204.049914067311
 21
590.65999999999985
  0
LINE
  8
_0-0_計極細
  6
CONTINUOUS
 62
    2
 10
1230
 20
616.61008593268889
 11
1245.0499139595809
 21
631.65999989226975
  0
LINE
  8
_0-0_計極細
  6
CONTINUOUS
 62
    2
 10
1226.488720074517
 20
574.91503982313247
 11
1248.5066483070987
 21
596.93296805571413
  0
LINE
  8
_0-0_計極細
  6
CONTINUOUS
 62
    2
 10
1184.0623132033243
 20
574.91503982313247
 11
1199.8072733801919
 21
590.65999999999985
  0
LINE
  8
_0-0_計極細
  6
CONTINUOUS
 62
    2
 10
1230
 20
620.85272661980798
 11
1240.8072733028312
 21
631.65999992263937
  0
LINE
  8
_0-0_計極細
  6
CONTINUOUS
 62
    2
 10
1180
 20
590.65999999999985
 11
1180
 21
574.91503982313247
  0
LINE
  8
_0-0_計極細
  6
CONTINUOUS
 62
    2
 10
1230
 20
631.65999999999985
 11
1248.5066482870689
 21
631.65999999999985
  0
LINE
  8
_0-0_計極細
  6
CONTINUOUS
 62
    2
 10
1180
 20
590.65999999999985
 11
1230
 21
590.65999999999985
  0
LINE
  8
_0-0_計極細
  6
CONTINUOUS
 62
    2
 10
1230
 20
631.65999999999985
 11
1230
 21
590.65999999999985
  0
CIRCLE
  8
_0-0_計極細
  6
CONTINUOUS
 62
    2
 10
998.65014367808772
 20
614.60130550925555
 40
1.0953188836088352
  0
CIRCLE
  8
_0-0_計極細
  6
CONTINUOUS
 62
    2
 10
1006.0723659003128
 20
579.64840363009421
 40
0.3318518518518431
  0
CIRCLE
  8
_0-0_計極細
  6
CONTINUOUS
 62
    2
 10
1005.2723659003124
 20
593.24204624999652
 40
0.3318518518518431
  0
CIRCLE
  8
_0-0_計極細
  6
CONTINUOUS
 62
    2
 10
1005.8675395114227
 20
626.06797217592225
 40
1.0953188836088352
  0
LINE
  8
_0-0_計極細
  6
CONTINUOUS
 62
    2
 10
1010
 20
635.65999999999985
 11
1010
 21
574.91503982313247
  0
LINE
  8
_0-0_計極細
  6
CONTINUOUS
 62
    2
 10
1009.4999999999999
 20
635.65999999999985
 11
1010
 21
635.65999999999985
  0
CIRCLE
  8
_0-0_計極細
  6
CONTINUOUS
 62
    2
 10
926.31462413258191
 20
644.68130550925525
 40
1.0953188836088352
  0
CIRCLE
  8
_0-0_計極細
  6
CONTINUOUS
 62
    2
 10
961.81014367809053
 20
651.26797217592184
 40
1.0953188836088352
  0
CIRCLE
  8
_0-0_計極細
  6
CONTINUOUS
 62
    2
 10
962.26347701142402
 20
648.67537958332935
 40
0.3318518518518431
  0
CIRCLE
  8
_0-0_計極細
  6
CONTINUOUS
 62
    2
 10
935.0634770114242
 20
652.2487129166625
 40
0.3318518518518431
  0
CIRCLE
  8
_0-0_計極細
  6
CONTINUOUS
 62
    2
 10
926.03236590031315
 20
652.58056476851425
 40
0.3318518518518431
  0
LINE
  8
_0-0_計極細
  6
CONTINUOUS
 62
    2
 10
969.69880819342154
 20
656.65999999632345
 11
974.99999999999989
 21
661.96119180290179
  0
LINE
  8
_0-0_計極細
  6
CONTINUOUS
 62
    2
 10
956.97088612323694
 20
656.6599999874968
 11
963.9708861357401
 21
663.66000000000008
  0
LINE
  8
_0-0_計極細
  6
CONTINUOUS
 62
    2
 10
944.24296405305222
 20
656.65999997866993
 11
951.24296407438214
 21
663.66000000000008
  0
LINE
  8
_0-0_計極細
  6
CONTINUOUS
 62
    2
 10
931.51504198286761
 20
656.65999996984328
 11
938.51504201302419
 21
663.66000000000008
  0
LINE
  8
_0-0_計極細
  6
CONTINUOUS
 62
    2
 10
921.49335171293103
 20
659.36623176126432
 11
925.78711995166657
 21
663.66000000000008
  0
LINE
  8
_0-0_計極細
  6
DASHED2
 62
    2
 10
963.33484715832924
 20
656.65999999191013
 11
970.33484716641908
 21
663.66000000000008
  0
LINE
  8
_0-0_計極細
  6
DASHED2
 62
    2
 10
950.60692508814441
 20
656.65999998308348
 11
957.60692510506135
 21
663.66000000000008
  0
LINE
  8
_0-0_計極細
  6
DASHED2
 62
    2
 10
937.87900301796014
 20
656.65999997425661
 11
944.87900304370328
 21
663.66000000000008
  0
LINE
  8
_0-0_計極細
  6
DASHED2
 62
    2
 10
925.15108094777531
 20
656.65999996542996
 11
932.15108098234532
 21
663.66000000000008
  0
LINE
  8
_0-0_計極細
  6
CONTINUOUS
 62
    2
 10
979.88114584618415
 20
656.65999999999985
 11
979.99999999999977
 21
656.77885415381547
  0
LINE
  8
_0-0_計極細
  6
CONTINUOUS
 62
    2
 10
977.33556143391286
 20
656.65999999999985
 11
980
 21
659.32443856608711
  0
LINE
  8
_0-0_計極細
  6
CONTINUOUS
 62
    2
 10
974.99999999999989
 20
656.87002297835875
 11
980
 21
661.87002297835875
  0
LINE
  8
_0-0_計極細
  6
CONTINUOUS
 62
    2
 10
974.99999999999989
 20
659.41560739063016
 11
979.24439260936947
 21
663.66000000000008
  0
LINE
  8
_0-0_計極細
  6
CONTINUOUS
 62
    2
 10
974.99999999999989
 20
661.96119180290179
 11
976.69880819709806
 21
663.66000000000008
  0
LINE
  8
_0-0_計極細
  6
CONTINUOUS
 62
    2
 10
980
 20
662.29141987664502
 11
978.63141987664494
 21
663.66000000000008
  0
LINE
  8
_0-0_計極細
  6
CONTINUOUS
 62
    2
 10
980
 20
659.74583546437316
 11
976.08583546437319
 21
663.66000000000008
  0
LINE
  8
_0-0_計極細
  6
CONTINUOUS
 62
    2
 10
974.99999999999989
 20
662.20025105210186
 11
980
 21
657.20025105210186
  0
LINE
  8
_0-0_計極細
  6
CONTINUOUS
 62
    2
 10
974.99999999999989
 20
659.65466663983011
 11
977.9946666398298
 21
656.65999999999985
  0
LINE
  8
_0-0_計極細
  6
CONTINUOUS
 62
    2
 10
974.99999999999989
 20
657.1090822275587
 11
975.44908222755851
 21
656.65999999999985
  0
LINE
  8
_0-0_計極細
  6
CONTINUOUS
 62
    2
 10
980
 20
663.15999999999985
 11
980
 21
663.66000000000008
  0
LINE
  8
_0-0_計極細
  6
CONTINUOUS
 62
    2
 10
980
 20
663.66000000000008
 11
974.99999999999989
 21
663.66000000000008
  0
LINE
  8
_0-0_計極細
  6
CONTINUOUS
 62
    2
 10
980
 20
656.65999999999985
 11
921.49335171293103
 21
656.65999999999985
  0
LINE
  8
_0-0_計極細
  6
CONTINUOUS
 62
    2
 10
974.99999999999989
 20
663.66000000000008
 11
921.49335171293103
 21
663.66000000000008
  0
LINE
  8
_0-0_計極細
  6
CONTINUOUS
 62
    2
 10
974.99999999999989
 20
663.66000000000008
 11
974.99999999999989
 21
656.65999999999985
  0
CIRCLE
  8
_0-0_計極細
  6
CONTINUOUS
 62
    2
 10
998.98347701142325
 20
582.46797217592257
 40
1.0953188836088352
  0
CIRCLE
  8
_0-0_計極細
  6
CONTINUOUS
 62
    2
 10
996.10347701142348
 20
593.66797217592261
 40
1.0953188836088352
  0
CIRCLE
  8
_0-0_計極細
  6
CONTINUOUS
 62
    2
 10
974.51681034475678
 20
595.82797217592247
 40
1.0953188836088352
  0
CIRCLE
  8
_0-0_計極細
  6
CONTINUOUS
 62
    2
 10
942.59681034475716
 20
603.5079721759223
 40
1.0953188836088352
  0
CIRCLE
  8
_0-0_計極細
  6
CONTINUOUS
 62
    2
 10
954.35681034475715
 20
626.30797217592203
 40
1.0953188836088352
  0
CIRCLE
  8
_0-0_計極細
  6
CONTINUOUS
 62
    2
 10
967.79681034475732
 20
620.2279721759221
 40
1.0953188836088352
  0
CIRCLE
  8
_0-0_計極細
  6
CONTINUOUS
 62
    2
 10
938.43287185722943
 20
644.14574074074062
 40
1.0953188836088352
  0
CIRCLE
  8
_0-0_計極細
  6
CONTINUOUS
 62
    2
 10
969.49014367809036
 20
639.98797217592187
 40
1.0953188836088352
  0
CIRCLE
  8
_0-0_計極細
  6
CONTINUOUS
 62
    2
 10
981.66347701142377
 20
626.79760180555172
 40
0.3318518518518431
  0
CIRCLE
  8
_0-0_計極細
  6
CONTINUOUS
 62
    2
 10
1002.8101436780901
 20
608.95760180555203
 40
0.3318518518518431
  0
CIRCLE
  8
_0-0_計極細
  6
CONTINUOUS
 62
    2
 10
1002.4901436780902
 20
619.73093513888512
 40
0.3318518518518431
  0
CIRCLE
  8
_0-0_計極細
  6
CONTINUOUS
 62
    2
 10
993.42347701142376
 20
625.70426847221825
 40
0.3318518518518431
  0
CIRCLE
  8
_0-0_計極細
  6
CONTINUOUS
 62
    2
 10
984.5701436780904
 20
605.22426847221845
 40
0.3318518518518431
  0
CIRCLE
  8
_0-0_計極細
  6
CONTINUOUS
 62
    2
 10
994.5701436780904
 20
579.05537958332957
 40
0.3318518518518431
  0
CIRCLE
  8
_0-0_計極細
  6
CONTINUOUS
 62
    2
 10
998.73014367809037
 20
588.0153795833296
 40
0.3318518518518431
  0
CIRCLE
  8
_0-0_計極細
  6
CONTINUOUS
 62
    2
 10
990.516810344757
 20
596.97537958332964
 40
0.3318518518518431
  0
CIRCLE
  8
_0-0_計極細
  6
CONTINUOUS
 62
    2
 10
982.73014367809037
 20
595.0553795833298
 40
0.3318518518518431
  0
CIRCLE
  8
_0-0_計極細
  6
CONTINUOUS
 62
    2
 10
970.78347701142377
 20
594.4153795833297
 40
0.3318518518518431
  0
CIRCLE
  8
_0-0_計極細
  6
CONTINUOUS
 62
    2
 10
972.9168103447571
 20
599.96204624999632
 40
0.3318518518518431
  0
CIRCLE
  8
_0-0_計極細
  6
CONTINUOUS
 62
    2
 10
969.18347701142397
 20
601.45537958332966
 40
0.3318518518518431
  0
CIRCLE
  8
_0-0_計極細
  6
CONTINUOUS
 62
    2
 10
975.90347701142377
 20
604.76204624999627
 40
0.3318518518518431
  0
CIRCLE
  8
_0-0_計極細
  6
CONTINUOUS
 62
    2
 10
952.32347701142385
 20
594.02871291666293
 40
0.3318518518518431
  0
CIRCLE
  8
_0-0_計極細
  6
CONTINUOUS
 62
    2
 10
948.59014367809073
 20
599.14871291666304
 40
0.3318518518518431
  0
CIRCLE
  8
_0-0_計極細
  6
CONTINUOUS
 62
    2
 10
943.36347701142381
 20
595.09537958332976
 40
0.3318518518518431
  0
CIRCLE
  8
_0-0_計極細
  6
CONTINUOUS
 62
    2
 10
946.77681034475722
 20
605.86871291666307
 40
0.3318518518518431
  0
CIRCLE
  8
_0-0_計極細
  6
CONTINUOUS
 62
    2
 10
971.44347701142374
 20
622.1353795833295
 40
0.3318518518518431
  0
CIRCLE
  8
_0-0_計極細
  6
CONTINUOUS
 62
    2
 10
955.01681034475735
 20
617.76204624999605
 40
0.3318518518518431
  0
CIRCLE
  8
_0-0_計極細
  6
CONTINUOUS
 62
    2
 10
963.87014367809047
 20
625.86871291666262
 40
0.3318518518518431
  0
CIRCLE
  8
_0-0_計極細
  6
CONTINUOUS
 62
    2
 10
971.44347701142374
 20
629.28204624999603
 40
0.3318518518518431
  0
CIRCLE
  8
_0-0_計極細
  6
CONTINUOUS
 62
    2
 10
956.40347701142389
 20
631.52204624999581
 40
0.3318518518518431
  0
CIRCLE
  8
_0-0_計極細
  6
CONTINUOUS
 62
    2
 10
944.13681034475746
 20
632.26871291666271
 40
0.3318518518518431
  0
CIRCLE
  8
_0-0_計極細
  6
CONTINUOUS
 62
    2
 10
953.41014367809066
 20
648.56871291666255
 40
0.3318518518518431
  0
CIRCLE
  8
_0-0_計極細
  6
CONTINUOUS
 62
    2
 10
960.4501436780904
 20
639.6087129166624
 40
0.3318518518518431
  0
CIRCLE
  8
_0-0_計極細
  6
CONTINUOUS
 62
    2
 10
975.38347701142368
 20
639.92871291666256
 40
0.3318518518518431
  0
CIRCLE
  8
_0-0_計極細
  6
CONTINUOUS
 62
    2
 10
971.97014367809049
 20
649.63537958332938
 40
0.3318518518518431
  0
CIRCLE
  8
_0-0_計極細
  6
CONTINUOUS
 62
    2
 10
957.03681034475721
 20
643.66204624999568
 40
0.3318518518518431
  0
CIRCLE
  8
_0-0_計極細
  6
CONTINUOUS
 62
    2
 10
939.97014367809084
 20
636.62204624999595
 40
0.3318518518518431
  0
CIRCLE
  8
_0-0_計極細
  6
CONTINUOUS
 62
    2
 10
932.39681034475757
 20
635.44871291666277
 40
0.3318518518518431
  0
CIRCLE
  8
_0-0_計極細
  6
CONTINUOUS
 62
    2
 10
926.03236590031315
 20
634.80871291666267
 40
0.3318518518518431
  0
CIRCLE
  8
_0-0_計極細
  6
CONTINUOUS
 62
    2
 10
932.23088441883135
 20
640.78204624999603
 40
0.3318518518518431
  0
LINE
  8
_0-0_計極細
  6
CONTINUOUS
 62
    2
 10
967.54681526100603
 20
574.9150398929944
 11
983.29177536801149
 21
590.65999999999985
  0
LINE
  8
_0-0_計極細
  6
CONTINUOUS
 62
    2
 10
925.12040852182122
 20
574.91504002500255
 11
940.86536849681863
 21
590.65999999999985
  0
LINE
  8
_0-0_計極細
  6
CONTINUOUS
 62
    2
 10
921.49335171293103
 20
613.71439008730522
 11
939.43896162562578
 21
631.65999999999985
  0
LINE
  8
_0-0_計極細
  6
CONTINUOUS
 62
    2
 10
963.30417458708757
 20
574.91503990619526
 11
979.04913468089205
 21
590.65999999999985
  0
LINE
  8
_0-0_計極細
  6
CONTINUOUS
 62
    2
 10
921.49335171293103
 20
575.5306239032318
 11
939.99999999999989
 21
594.03727219030065
  0
LINE
  8
_0-0_計極細
  6
CONTINUOUS
 62
    2
 10
921.49335171293103
 20
617.95703077442454
 11
935.19632093850646
 21
631.65999999999985
  0
LINE
  8
_0-0_計極細
  6
CONTINUOUS
 62
    2
 10
959.06153391316934
 20
574.91503991939612
 11
974.80649399377285
 21
590.65999999999985
  0
LINE
  8
_0-0_計極細
  6
CONTINUOUS
 62
    2
 10
921.49335171293103
 20
579.77326459035089
 11
939.99999999999989
 21
598.27991287741975
  0
LINE
  8
_0-0_計極細
  6
CONTINUOUS
 62
    2
 10
921.49335171293103
 20
622.19967146154386
 11
930.95368025138725
 21
631.65999999999985
  0
LINE
  8
_0-0_計極細
  6
CONTINUOUS
 62
    2
 10
989.99999999999989
 20
590.65999999999985
 11
989.99999999999989
 21
574.91503982313247
  0
LINE
  8
_0-0_計極細
  6
CONTINUOUS
 62
    2
 10
939.99999999999989
 20
631.65999999999985
 11
921.49335171293103
 21
631.65999999999985
  0
LINE
  8
_0-0_計極細
  6
CONTINUOUS
 62
    2
 10
989.99999999999989
 20
590.65999999999985
 11
939.99999999999989
 21
590.65999999999985
  0
LINE
  8
_0-0_計極細
  6
CONTINUOUS
 62
    2
 10
939.99999999999989
 20
631.65999999999985
 11
939.99999999999989
 21
590.65999999999985
  0
LINE
  8
_0-1_計細線
  6
CONTINUOUS
 62
    3
 10
1190
 20
647.65999999999985
 11
1190
 21
612.65999999999985
  0
LINE
  8
_0-1_計細線
  6
CONTINUOUS
 62
    3
 10
1190
 20
612.65999999999985
 11
1192.3000000000002
 21
612.65999999999985
  0
LINE
  8
_0-1_計細線
  6
CONTINUOUS
 62
    3
 10
1192.3000000000002
 20
612.65999999999985
 11
1192.3000000000002
 21
647.65999999999985
  0
LINE
  8
_0-1_計細線
  6
CONTINUOUS
 62
    3
 10
1192.3000000000002
 20
647.65999999999985
 11
1190
 21
647.65999999999985
  0
LINE
  8
_0-0_計極細
  6
CONTINUOUS
 62
    2
 10
1192.3000000000002
 20
631.65999999999985
 11
1190
 21
631.65999999999985
  0
LINE
  8
_0-0_計極細
  6
CONTINUOUS
 62
    2
 10
1192.3000000000002
 20
633.65999999999985
 11
1190
 21
633.65999999999985
  0
LINE
  8
_0-0_計極細
  6
CONTINUOUS
 62
    2
 10
1192.3000000000002
 20
629.65999999999985
 11
1190
 21
629.65999999999985
  0
LINE
  8
_0-0_計極細
  6
CONTINUOUS
 62
    2
 10
1192.3000000000002
 20
635.65999999999985
 11
1190
 21
635.65999999999985
  0
LINE
  8
_0-0_計極細
  6
CONTINUOUS
 62
    2
 10
1190
 20
615.65999999999985
 11
1192.3000000000002
 21
615.65999999999985
  0
LINE
  8
_0-0_計極細
  6
CONTINUOUS
 62
    2
 10
1192.3000000000002
 20
645.65999999999985
 11
1190
 21
645.65999999999985
  0
LINE
  8
_0-7_枠細線
  6
CONTINUOUS
 62
    5
 10
1208.9140288208205
 20
632.80808383106432
 11
1201.4140288208205
 21
647.80808383106432
  0
LINE
  8
_0-7_枠細線
  6
CONTINUOUS
 62
    5
 10
1193.9140288208205
 20
632.80808383106432
 11
1208.9140288208205
 21
632.80808383106432
  0
LINE
  8
_0-7_枠細線
  6
CONTINUOUS
 62
    5
 10
1201.4140288208205
 20
647.80808383106432
 11
1193.9140288208205
 21
632.80808383106432
  0
TEXT
  8
_0-7_枠細線
 62
    5
 10
1196.2791800889686
 20
631.85926386621441
 40
12.5
 41
0.8
 50
0
  1
５
  0
LINE
  8
_0-1_計細線
  6
CONTINUOUS
 62
    3
 10
980
 20
647.65999999999985
 11
980
 21
612.65999999999985
  0
LINE
  8
_0-1_計細線
  6
CONTINUOUS
 62
    3
 10
980
 20
612.65999999999985
 11
977.69999999999993
 21
612.65999999999985
  0
LINE
  8
_0-1_計細線
  6
CONTINUOUS
 62
    3
 10
977.69999999999993
 20
612.65999999999985
 11
977.69999999999993
 21
647.65999999999985
  0
LINE
  8
_0-1_計細線
  6
CONTINUOUS
 62
    3
 10
977.69999999999993
 20
647.65999999999985
 11
980
 21
647.65999999999985
  0
LINE
  8
_0-0_計極細
  6
CONTINUOUS
 62
    2
 10
977.69999999999993
 20
631.65999999999985
 11
980
 21
631.65999999999985
  0
LINE
  8
_0-0_計極細
  6
CONTINUOUS
 62
    2
 10
977.69999999999993
 20
633.65999999999985
 11
980
 21
633.65999999999985
  0
LINE
  8
_0-0_計極細
  6
CONTINUOUS
 62
    2
 10
977.69999999999993
 20
629.65999999999985
 11
980
 21
629.65999999999985
  0
LINE
  8
_0-0_計極細
  6
CONTINUOUS
 62
    2
 10
977.69999999999993
 20
635.65999999999985
 11
980
 21
635.65999999999985
  0
LINE
  8
_0-0_計極細
  6
CONTINUOUS
 62
    2
 10
980
 20
615.65999999999985
 11
977.69999999999993
 21
615.65999999999985
  0
LINE
  8
_0-0_計極細
  6
CONTINUOUS
 62
    2
 10
977.69999999999993
 20
645.65999999999985
 11
980
 21
645.65999999999985
  0
LINE
  8
_0-5_寸法線
  6
CONTINUOUS
 62
    7
 10
1190
 20
602.65999999999985
 11
1190
 21
557.65999999999963
  0
LINE
  8
_0-5_寸法線
  6
CONTINUOUS
 62
    7
 10
1190
 20
562.65999999999963
 11
1180.3407417371093
 21
560.07180954897444
  0
LINE
  8
_0-5_寸法線
  6
CONTINUOUS
 62
    7
 10
1190
 20
562.65999999999963
 11
1180.3407417371093
 21
565.24819045102481
  0
LINE
  8
_0-5_寸法線
  6
CONTINUOUS
 62
    7
 10
1160
 20
625.65999999999985
 11
1160
 21
557.65999999999963
  0
LINE
  8
_0-5_寸法線
  6
CONTINUOUS
 62
    7
 10
1160
 20
562.65999999999963
 11
1169.6592582628907
 21
565.24819045102481
  0
LINE
  8
_0-5_寸法線
  6
CONTINUOUS
 62
    7
 10
1160
 20
562.65999999999963
 11
1169.6592582628907
 21
560.07180954897444
  0
LINE
  8
_0-5_寸法線
  6
CONTINUOUS
 62
    7
 10
1190
 20
562.65999999999963
 11
1160
 21
562.65999999999963
  0
TEXT
  8
_0-5_寸法線
 62
    7
 10
1167.5
 20
562.65999999999963
 40
15
 41
1
 50
0
  1
30
  0
LINE
  8
_0-5_寸法線
  6
CONTINUOUS
 62
    7
 10
979.99999999999989
 20
602.65999999999985
 11
979.99999999999943
 21
557.65999999999963
  0
LINE
  8
_0-5_寸法線
  6
CONTINUOUS
 62
    7
 10
979.99999999999943
 20
562.65999999999963
 11
989.65925826289003
 21
565.24819045102481
  0
LINE
  8
_0-5_寸法線
  6
CONTINUOUS
 62
    7
 10
979.99999999999943
 20
562.65999999999963
 11
989.65925826289003
 21
560.07180954897444
  0
LINE
  8
_0-5_寸法線
  6
CONTINUOUS
 62
    7
 10
1009.9999999999999
 20
625.65999999999985
 11
1009.9999999999994
 21
557.65999999999963
  0
LINE
  8
_0-5_寸法線
  6
CONTINUOUS
 62
    7
 10
1009.9999999999994
 20
562.65999999999963
 11
1000.3407417371088
 21
560.07180954897444
  0
LINE
  8
_0-5_寸法線
  6
CONTINUOUS
 62
    7
 10
1009.9999999999994
 20
562.65999999999963
 11
1000.3407417371088
 21
565.24819045102481
  0
LINE
  8
_0-5_寸法線
  6
CONTINUOUS
 62
    7
 10
979.99999999999943
 20
562.65999999999963
 11
1009.9999999999994
 21
562.65999999999963
  0
TEXT
  8
_0-5_寸法線
 62
    7
 10
987.49999999999932
 20
562.65999999999963
 40
15
 41
1
 50
0
  1
30
  0
LINE
  8
_0-5_寸法線
  6
CONTINUOUS
 62
    7
 10
1010
 20
630.65999999999985
 11
1010
 21
557.65999999999985
  0
LINE
  8
_0-5_寸法線
  6
CONTINUOUS
 62
    7
 10
1010
 20
562.65999999999985
 11
1019.6592582628907
 21
565.24819045102504
  0
LINE
  8
_0-5_寸法線
  6
CONTINUOUS
 62
    7
 10
1010
 20
562.65999999999985
 11
1019.6592582628907
 21
560.07180954897467
  0
LINE
  8
_0-5_寸法線
  6
CONTINUOUS
 62
    7
 10
1159.9999999999995
 20
630.65999999999985
 11
1159.9999999999995
 21
557.65999999999985
  0
LINE
  8
_0-5_寸法線
  6
CONTINUOUS
 62
    7
 10
1159.9999999999995
 20
562.65999999999985
 11
1150.3407417371088
 21
560.07180954897467
  0
LINE
  8
_0-5_寸法線
  6
CONTINUOUS
 62
    7
 10
1159.9999999999995
 20
562.65999999999985
 11
1150.3407417371088
 21
565.24819045102504
  0
LINE
  8
_0-5_寸法線
  6
CONTINUOUS
 62
    7
 10
1010
 20
562.65999999999985
 11
1159.9999999999995
 21
562.65999999999985
  0
TEXT
  8
_0-5_寸法線
 62
    7
 10
1073.75
 20
562.65999999999985
 40
15
 41
1
 50
0
  1
150
  0
LINE
  8
_0-0_計極細
  6
CENTER1
 62
    2
 10
1085
 20
633.62656971499985
 11
1085
 21
672.01850230873379
  0
TEXT
  8
_0-7_枠細線
 62
    5
 10
1035.6825687070714
 20
524.94207792640861
 40
25
 41
0.8
 50
0
  1
断面詳細図
  0
TEXT
  8
_0-7_枠細線
 62
    5
 10
1150.6315384562395
 20
527.45718700659745
 40
20
 41
0.6
 50
0
  1
Ｓ＝１：５
  0
LINE
  8
_0-7_枠細線
  6
CONTINUOUS
 62
    5
 10
890
 20
820
 11
890
 21
959.99999999999909
  0
LINE
  8
_0-7_枠細線
  6
CONTINUOUS
 62
    5
 10
925
 20
820
 11
925
 21
959.99999999999909
  0
LINE
  8
_0-7_枠細線
  6
CONTINUOUS
 62
    5
 10
1175
 20
820
 11
1175
 21
959.99999999999909
  0
LINE
  8
_0-7_枠細線
  6
CONTINUOUS
 62
    5
 10
1275
 20
820
 11
1275
 21
959.99999999999909
  0
LINE
  8
_0-1_計細線
  6
CONTINUOUS
 62
    3
 10
1087.3500000000004
 20
663.45999999999776
 11
1087.3500000000004
 21
644.45999999999731
  0
LINE
  8
_0-1_計細線
  6
CONTINUOUS
 62
    3
 10
1082.6500000000001
 20
644.45999999999731
 11
1082.6500000000001
 21
663.45999999999776
  0
LINE
  8
_0-1_計細線
  6
CONTINUOUS
 62
    3
 10
1087.3500000000004
 20
644.45999999999731
 11
1082.6500000000001
 21
644.45999999999731
  0
LINE
  8
_0-1_計細線
  6
CONTINUOUS
 62
    3
 10
1082.6500000000001
 20
663.45999999999776
 11
1087.3500000000004
 21
663.45999999999776
  0
LINE
  8
_0-1_計細線
  6
DASHED2
 62
    3
 10
1082.6500000000001
 20
647.45999999999742
 11
1087.3500000000004
 21
647.45999999999742
  0
LINE
  8
_0-1_計細線
  6
DASHED2
 62
    3
 10
1082.6500000000001
 20
660.95999999999765
 11
1087.3500000000004
 21
660.95999999999765
  0
LINE
  8
_0-1_計細線
  6
CONTINUOUS
 62
    3
 10
413.4643684024835
 20
552.25583080108197
 11
466.46436840248305
 21
552.25583080108197
  0
LINE
  8
_0-1_計細線
  6
CONTINUOUS
 62
    3
 10
466.46436840248305
 20
556.95583080108179
 11
413.4643684024835
 21
556.95583080108179
  0
LINE
  8
_0-1_計細線
  6
CONTINUOUS
 62
    3
 10
413.4643684024835
 20
556.95583080108179
 11
413.4643684024835
 21
552.25583080108197
  0
LINE
  8
_0-1_計細線
  6
CONTINUOUS
 62
    3
 10
456.46436840248305
 20
556.95583080108179
 11
456.46436840248305
 21
552.25583080108197
  0
LINE
  8
_0-1_計細線
  6
CONTINUOUS
 62
    3
 10
464.4643684024831
 20
556.95583080108179
 11
464.4643684024831
 21
552.25583080108197
  0
LINE
  8
_0-1_計細線
  6
CONTINUOUS
 62
    3
 10
466.46436840248305
 20
556.95583080108179
 11
466.46436840248305
 21
552.25583080108197
  0
LINE
  8
_0-1_計細線
  6
CONTINUOUS
 62
    3
 10
462.46436840248305
 20
556.95583080108179
 11
462.46436840248305
 21
552.25583080108197
  0
LINE
  8
_0-1_計細線
  6
CONTINUOUS
 62
    3
 10
460.46436840248305
 20
556.95583080108179
 11
460.46436840248305
 21
552.25583080108197
  0
LINE
  8
_0-1_計細線
  6
CONTINUOUS
 62
    3
 10
458.4643684024831
 20
556.95583080108179
 11
458.4643684024831
 21
552.25583080108197
  0
LINE
  8
_0-d_寸法3
  6
CONTINUOUS
 62
    7
 10
449.82934156777333
 20
229.09093285812048
 11
449.82934156777333
 21
270.75759952478705
  0
LINE
  8
_0-d_寸法3
  6
CONTINUOUS
 62
    7
 10
449.82934156777333
 20
265.75759952478705
 11
459.48859983066399
 21
268.34578997581224
  0
LINE
  8
_0-d_寸法3
  6
CONTINUOUS
 62
    7
 10
449.82934156777333
 20
265.75759952478705
 11
459.48859983066399
 21
263.16940907376187
  0
LINE
  8
_0-d_寸法3
  6
CONTINUOUS
 62
    7
 10
478.82934156837621
 20
229.09093285812048
 11
478.82934156837621
 21
270.75759952478705
  0
LINE
  8
_0-d_寸法3
  6
CONTINUOUS
 62
    7
 10
478.82934156837621
 20
265.75759952478705
 11
469.17008330548555
 21
263.16940907376187
  0
LINE
  8
_0-d_寸法3
  6
CONTINUOUS
 62
    7
 10
478.82934156837621
 20
265.75759952478705
 11
469.17008330548555
 21
268.34578997581229
  0
LINE
  8
_0-d_寸法3
  6
CONTINUOUS
 62
    7
 10
449.82934156777333
 20
265.75759952478705
 11
478.82934156837621
 21
265.75759952478705
  0
TEXT
  8
_0-d_寸法3
 62
    7
 10
438.28316365813191
 20
250.75759952478705
 40
15
 41
1
 50
0
  1
(17.4)
  0
LINE
  8
_0-d_寸法3
  6
CONTINUOUS
 62
    7
 10
478.82934156837621
 20
265.75759952478705
 11
488.48859983126692
 21
268.34578997581218
  0
LINE
  8
_0-d_寸法3
  6
CONTINUOUS
 62
    7
 10
478.82934156837621
 20
265.75759952478705
 11
488.48859983126687
 21
263.16940907376181
  0
LINE
  8
_0-d_寸法3
  6
CONTINUOUS
 62
    7
 10
507.8293415689792
 20
229.09093285812048
 11
507.8293415689792
 21
270.75759952478705
  0
LINE
  8
_0-d_寸法3
  6
CONTINUOUS
 62
    7
 10
507.8293415689792
 20
265.75759952478705
 11
498.17008330608849
 21
263.16940907376187
  0
LINE
  8
_0-d_寸法3
  6
CONTINUOUS
 62
    7
 10
507.8293415689792
 20
265.75759952478705
 11
498.1700833060886
 21
268.34578997581229
  0
LINE
  8
_0-d_寸法3
  6
CONTINUOUS
 62
    7
 10
478.82934156837621
 20
265.75759952478705
 11
507.8293415689792
 21
265.75759952478705
  0
TEXT
  8
_0-d_寸法3
 62
    7
 10
475.34983032479857
 20
265.75759952478705
 40
15
 41
1
 50
0
  1
(17.4)
  0
ARC
  8
_0-a_極細3
  6
CONTINUOUS
 62
    7
 10
538.65874489350949
 20
207.57765036643551
 40
17.558839598481345
 50
150.03871396148173
 51
205.23810402387861
  0
ARC
  8
_0-a_極細3
  6
CONTINUOUS
 62
    7
 10
506.8932697036114
 20
192.60414115380485
 40
17.558839598481345
 50
330.03871396148207
 51
25.238104023878069
  0
ARC
  8
_0-a_極細3
  6
CONTINUOUS
 62
    7
 10
393.73892945517554
 20
207.57765036643551
 40
17.558839598481345
 50
150.03871396148173
 51
205.23810402387869
  0
ARC
  8
_0-a_極細3
  6
CONTINUOUS
 62
    7
 10
361.97345426527738
 20
192.60414115380485
 40
17.558839598481345
 50
330.03871396148202
 51
25.238104023878119
  0
ARC
  8
_0-b_細線3
  6
CONTINUOUS
 62
    7
 10
441.99600823627918
 20
215.75759952478705
 40
1.666666666666667
 50
89.999999999999915
 51
179.99999999999983
  0
ARC
  8
_0-b_細線3
  6
CONTINUOUS
 62
    7
 10
442.77592355515822
 20
219.09093285812048
 40
1.666666666666667
 50
269.99999999999977
 51
330.00000000000279
  0
ARC
  8
_0-b_細線3
  6
CONTINUOUS
 62
    7
 10
445.66267490110619
 20
217.42426619145405
 40
1.666666666666667
 50
89.999999999999915
 51
150.00000000000134
  0
LINE
  8
_0-b_細線3
  6
CONTINUOUS
 62
    7
 10
441.99600823627918
 20
217.42426619145405
 11
442.77592355515822
 21
217.42426619145405
  0
ARC
  8
_0-b_細線3
  6
CONTINUOUS
 62
    7
 10
457.66267489926719
 20
215.75759952478705
 40
1.666666666666667
 50
0
 51
89.999999999999915
  0
ARC
  8
_0-b_細線3
  6
CONTINUOUS
 62
    7
 10
456.88275958038787
 20
219.09093285812048
 40
1.666666666666667
 50
210.00000000000236
 51
269.99999999999977
  0
ARC
  8
_0-b_細線3
  6
CONTINUOUS
 62
    7
 10
453.99600823443973
 20
217.42426619145405
 40
1.666666666666667
 50
29.999999999991843
 51
89.999999999986329
  0
LINE
  8
_0-b_細線3
  6
CONTINUOUS
 62
    7
 10
457.66267489926719
 20
217.42426619145405
 11
456.88275958038787
 21
217.42426619145405
  0
ARC
  8
_0-b_細線3
  6
CONTINUOUS
 62
    7
 10
441.16267490294575
 20
213.424266191454
 40
0.8333333333333334
 50
179.99999999999983
 51
269.99999999999977
  0
LINE
  8
_0-b_細線3
  6
CONTINUOUS
 62
    7
 10
440.32934156961232
 20
215.75759952478705
 11
440.32934156961232
 21
213.424266191454
  0
ARC
  8
_0-b_細線3
  6
CONTINUOUS
 62
    7
 10
458.49600823260033
 20
213.424266191454
 40
0.8333333333333334
 50
269.99999999999977
 51
359.99999999999966
  0
LINE
  8
_0-b_細線3
  6
CONTINUOUS
 62
    7
 10
459.32934156593376
 20
215.75759952478705
 11
459.32934156593376
 21
213.424266191454
  0
ARC
  8
_0-b_細線3
  6
CONTINUOUS
 62
    7
 10
445.32934156961232
 20
210.924266191454
 40
1.666666666666667
 50
0
 51
89.999999999999915
  0
LINE
  8
_0-b_細線3
  6
CONTINUOUS
 62
    7
 10
445.32934156961232
 20
212.59093285812057
 11
441.16267490294575
 21
212.59093285812057
  0
ARC
  8
_0-b_細線3
  6
CONTINUOUS
 62
    7
 10
454.32934156961267
 20
210.924266191454
 40
1.666666666666667
 50
89.999999999999915
 51
179.99999999999983
  0
LINE
  8
_0-b_細線3
  6
CONTINUOUS
 62
    7
 10
454.32934156593376
 20
212.59093285812057
 11
458.49600823260033
 21
212.59093285812057
  0
LINE
  8
_0-b_細線3
  6
CONTINUOUS
 62
    7
 10
453.99600823443973
 20
219.09093285812048
 11
445.66267490110619
 21
219.09093285812048
  0
LINE
  8
_0-b_細線3
  6
CONTINUOUS
 62
    7
 10
446.99600823443973
 20
177.42426619145405
 11
446.99600823627918
 21
210.924266191454
  0
LINE
  8
_0-b_細線3
  6
CONTINUOUS
 62
    7
 10
452.66267490110636
 20
177.42426619145405
 11
452.66267490294609
 21
210.924266191454
  0
LINE
  8
_0-b_細線3
  6
CONTINUOUS
 62
    7
 10
452.66267490110636
 20
177.42426619145405
 11
446.99600823443973
 21
177.42426619145405
  0
ARC
  8
_0-b_細線3
  6
CONTINUOUS
 62
    7
 10
470.99600823688218
 20
215.75759952478705
 40
1.666666666666667
 50
89.999999999999915
 51
179.99999999999983
  0
ARC
  8
_0-b_細線3
  6
CONTINUOUS
 62
    7
 10
471.7759235557611
 20
219.09093285812048
 40
1.666666666666667
 50
269.99999999999977
 51
329.9999999999979
  0
ARC
  8
_0-b_細線3
  6
CONTINUOUS
 62
    7
 10
474.66267490170924
 20
217.42426619145405
 40
1.666666666666667
 50
89.999999999999915
 51
150.00000000000819
  0
LINE
  8
_0-b_細線3
  6
CONTINUOUS
 62
    7
 10
470.99600823688218
 20
217.42426619145405
 11
471.7759235557611
 21
217.42426619145405
  0
ARC
  8
_0-b_細線3
  6
CONTINUOUS
 62
    7
 10
486.66267489987024
 20
215.75759952478705
 40
1.666666666666667
 50
0
 51
89.999999999999915
  0
ARC
  8
_0-b_細線3
  6
CONTINUOUS
 62
    7
 10
485.88275958099086
 20
219.09093285812048
 40
1.666666666666667
 50
209.99999999999451
 51
269.99999999999977
  0
ARC
  8
_0-b_細線3
  6
CONTINUOUS
 62
    7
 10
482.99600823504278
 20
217.42426619145405
 40
1.666666666666667
 50
29.999999999998682
 51
89.999999999999915
  0
LINE
  8
_0-b_細線3
  6
CONTINUOUS
 62
    7
 10
486.66267489987024
 20
217.42426619145405
 11
485.88275958099086
 21
217.42426619145405
  0
ARC
  8
_0-b_細線3
  6
CONTINUOUS
 62
    7
 10
470.1626749035492
 20
213.424266191454
 40
0.8333333333333334
 50
179.99999999999983
 51
269.99999999999977
  0
LINE
  8
_0-b_細線3
  6
CONTINUOUS
 62
    7
 10
469.32934157021521
 20
215.75759952478705
 11
469.32934157021521
 21
213.424266191454
  0
ARC
  8
_0-b_細線3
  6
CONTINUOUS
 62
    7
 10
487.49600823320321
 20
213.424266191454
 40
0.8333333333333334
 50
269.99999999999977
 51
359.99999999999966
  0
LINE
  8
_0-b_細線3
  6
CONTINUOUS
 62
    7
 10
488.32934156653675
 20
215.75759952478705
 11
488.32934156653675
 21
213.424266191454
  0
ARC
  8
_0-b_細線3
  6
CONTINUOUS
 62
    7
 10
474.32934157021521
 20
210.924266191454
 40
1.666666666666667
 50
0
 51
89.999999999999915
  0
LINE
  8
_0-b_細線3
  6
CONTINUOUS
 62
    7
 10
474.32934157021521
 20
212.59093285812057
 11
470.1626749035492
 21
212.59093285812057
  0
ARC
  8
_0-b_細線3
  6
CONTINUOUS
 62
    7
 10
483.32934157021566
 20
210.924266191454
 40
1.666666666666667
 50
89.999999999999915
 51
179.99999999999983
  0
LINE
  8
_0-b_細線3
  6
CONTINUOUS
 62
    7
 10
483.32934156653675
 20
212.59093285812057
 11
487.49600823320321
 21
212.59093285812057
  0
LINE
  8
_0-b_細線3
  6
CONTINUOUS
 62
    7
 10
482.99600823504278
 20
219.09093285812048
 11
474.66267490170924
 21
219.09093285812048
  0
LINE
  8
_0-b_細線3
  6
CONTINUOUS
 62
    7
 10
475.99600823504272
 20
177.42426619145405
 11
475.99600823688218
 21
210.924266191454
  0
LINE
  8
_0-b_細線3
  6
CONTINUOUS
 62
    7
 10
481.66267490170924
 20
177.42426619145405
 11
481.66267490354915
 21
210.924266191454
  0
LINE
  8
_0-b_細線3
  6
CONTINUOUS
 62
    7
 10
481.66267490170924
 20
177.42426619145405
 11
475.99600823504272
 21
177.42426619145405
  0
ARC
  8
_0-b_細線3
  6
CONTINUOUS
 62
    7
 10
499.99600823748523
 20
215.75759952478705
 40
1.666666666666667
 50
89.999999999999915
 51
179.99999999999983
  0
ARC
  8
_0-b_細線3
  6
CONTINUOUS
 62
    7
 10
500.77592355636409
 20
219.09093285812048
 40
1.666666666666667
 50
269.99999999999977
 51
329.9999999999979
  0
ARC
  8
_0-b_細線3
  6
CONTINUOUS
 62
    7
 10
503.66267490231223
 20
217.42426619145405
 40
1.666666666666667
 50
89.999999999999915
 51
150.00000000000819
  0
LINE
  8
_0-b_細線3
  6
CONTINUOUS
 62
    7
 10
499.99600823748523
 20
217.42426619145405
 11
500.77592355636409
 21
217.42426619145405
  0
ARC
  8
_0-b_細線3
  6
CONTINUOUS
 62
    7
 10
515.66267490047323
 20
215.75759952478705
 40
1.666666666666667
 50
0
 51
89.999999999999915
  0
ARC
  8
_0-b_細線3
  6
CONTINUOUS
 62
    7
 10
514.88275958159397
 20
219.09093285812048
 40
1.666666666666667
 50
210.0000000000004
 51
269.99999999999977
  0
ARC
  8
_0-b_細線3
  6
CONTINUOUS
 62
    7
 10
511.99600823564583
 20
217.42426619145405
 40
1.666666666666667
 50
29.999999999991843
 51
89.999999999984382
  0
LINE
  8
_0-b_細線3
  6
CONTINUOUS
 62
    7
 10
515.66267490047323
 20
217.42426619145405
 11
514.88275958159397
 21
217.42426619145405
  0
ARC
  8
_0-b_細線3
  6
CONTINUOUS
 62
    7
 10
499.1626749041518
 20
213.424266191454
 40
0.8333333333333334
 50
179.99999999999983
 51
269.99999999999977
  0
LINE
  8
_0-b_細線3
  6
CONTINUOUS
 62
    7
 10
498.3293415708182
 20
215.75759952478705
 11
498.3293415708182
 21
213.424266191454
  0
ARC
  8
_0-b_細線3
  6
CONTINUOUS
 62
    7
 10
516.49600823380638
 20
213.424266191454
 40
0.8333333333333334
 50
269.99999999999977
 51
359.99999999999966
  0
LINE
  8
_0-b_細線3
  6
CONTINUOUS
 62
    7
 10
517.32934156713986
 20
215.75759952478705
 11
517.32934156713986
 21
213.424266191454
  0
ARC
  8
_0-b_細線3
  6
CONTINUOUS
 62
    7
 10
503.3293415708182
 20
210.924266191454
 40
1.666666666666667
 50
0
 51
89.999999999999915
  0
LINE
  8
_0-b_細線3
  6
CONTINUOUS
 62
    7
 10
503.3293415708182
 20
212.59093285812057
 11
499.1626749041518
 21
212.59093285812057
  0
ARC
  8
_0-b_細線3
  6
CONTINUOUS
 62
    7
 10
512.32934157081831
 20
210.924266191454
 40
1.666666666666667
 50
89.999999999999915
 51
179.99999999999983
  0
LINE
  8
_0-b_細線3
  6
CONTINUOUS
 62
    7
 10
512.32934156713941
 20
212.59093285812057
 11
516.49600823380638
 21
212.59093285812057
  0
LINE
  8
_0-b_細線3
  6
CONTINUOUS
 62
    7
 10
511.99600823564583
 20
219.09093285812048
 11
503.66267490231223
 21
219.09093285812048
  0
LINE
  8
_0-b_細線3
  6
CONTINUOUS
 62
    7
 10
504.99600823564577
 20
177.42426619145405
 11
504.99600823748523
 21
210.924266191454
  0
LINE
  8
_0-b_細線3
  6
CONTINUOUS
 62
    7
 10
510.66267490231223
 20
177.42426619145405
 11
510.66267490415214
 21
210.924266191454
  0
LINE
  8
_0-b_細線3
  6
CONTINUOUS
 62
    7
 10
510.66267490231223
 20
177.42426619145405
 11
504.99600823564577
 21
177.42426619145405
  0
ARC
  8
_0-b_細線3
  6
CONTINUOUS
 62
    7
 10
383.99600823475618
 20
215.75759952478705
 40
1.666666666666667
 50
89.999999999999915
 51
179.99999999999983
  0
ARC
  8
_0-b_細線3
  6
CONTINUOUS
 62
    7
 10
384.77592355363521
 20
219.09093285812048
 40
1.666666666666667
 50
269.99999999999977
 51
330.00000000000375
  0
ARC
  8
_0-b_細線3
  6
CONTINUOUS
 62
    7
 10
387.66267489958329
 20
217.42426619145405
 40
1.666666666666667
 50
89.999999999999915
 51
150.0000000000023
  0
LINE
  8
_0-b_細線3
  6
CONTINUOUS
 62
    7
 10
383.99600823475618
 20
217.42426619145405
 11
384.77592355363521
 21
217.42426619145405
  0
ARC
  8
_0-b_細線3
  6
CONTINUOUS
 62
    7
 10
399.6626748977443
 20
215.75759952478705
 40
1.666666666666667
 50
0
 51
89.999999999999915
  0
ARC
  8
_0-b_細線3
  6
CONTINUOUS
 62
    7
 10
398.88275957886543
 20
219.09093285812048
 40
1.666666666666667
 50
209.99999999999451
 51
269.99999999999977
  0
ARC
  8
_0-b_細線3
  6
CONTINUOUS
 62
    7
 10
395.99600823291678
 20
217.42426619145405
 40
1.666666666666667
 50
29.999999999990862
 51
89.999999999986315
  0
LINE
  8
_0-b_細線3
  6
CONTINUOUS
 62
    7
 10
399.6626748977443
 20
217.42426619145405
 11
398.88275957886543
 21
217.42426619145405
  0
ARC
  8
_0-b_細線3
  6
CONTINUOUS
 62
    7
 10
383.1626749014232
 20
213.424266191454
 40
0.8333333333333334
 50
179.99999999999983
 51
269.99999999999977
  0
LINE
  8
_0-b_細線3
  6
CONTINUOUS
 62
    7
 10
382.32934156808932
 20
215.75759952478705
 11
382.32934156808932
 21
213.424266191454
  0
ARC
  8
_0-b_細線3
  6
CONTINUOUS
 62
    7
 10
400.49600823107738
 20
213.424266191454
 40
0.8333333333333334
 50
269.99999999999977
 51
359.99999999999966
  0
LINE
  8
_0-b_細線3
  6
CONTINUOUS
 62
    7
 10
401.32934156441132
 20
215.75759952478705
 11
401.32934156441132
 21
213.424266191454
  0
ARC
  8
_0-b_細線3
  6
CONTINUOUS
 62
    7
 10
387.32934156808932
 20
210.924266191454
 40
1.666666666666667
 50
0
 51
89.999999999999915
  0
LINE
  8
_0-b_細線3
  6
CONTINUOUS
 62
    7
 10
387.32934156808932
 20
212.59093285812057
 11
383.1626749014232
 21
212.59093285812057
  0
ARC
  8
_0-b_細線3
  6
CONTINUOUS
 62
    7
 10
396.32934156808972
 20
210.924266191454
 40
1.666666666666667
 50
89.999999999999915
 51
179.99999999999983
  0
LINE
  8
_0-b_細線3
  6
CONTINUOUS
 62
    7
 10
396.32934156441081
 20
212.59093285812057
 11
400.49600823107738
 21
212.59093285812057
  0
LINE
  8
_0-b_細線3
  6
CONTINUOUS
 62
    7
 10
395.99600823291678
 20
219.09093285812048
 11
387.66267489958329
 21
219.09093285812048
  0
LINE
  8
_0-b_細線3
  6
CONTINUOUS
 62
    7
 10
388.99600823291729
 20
177.42426619145405
 11
388.99600823475623
 21
210.924266191454
  0
LINE
  8
_0-b_細線3
  6
CONTINUOUS
 62
    7
 10
394.66267489958335
 20
177.42426619145405
 11
394.6626749014232
 21
210.924266191454
  0
LINE
  8
_0-b_細線3
  6
CONTINUOUS
 62
    7
 10
394.66267489958335
 20
177.42426619145405
 11
388.99600823291729
 21
177.42426619145405
  0
ARC
  8
_0-b_細線3
  6
CONTINUOUS
 62
    7
 10
412.99600823535923
 20
215.75759952478705
 40
1.666666666666667
 50
89.999999999999915
 51
179.99999999999983
  0
ARC
  8
_0-b_細線3
  6
CONTINUOUS
 62
    7
 10
413.77592355423872
 20
219.09093285812048
 40
1.666666666666667
 50
269.99999999999977
 51
329.99999999998812
  0
ARC
  8
_0-b_細線3
  6
CONTINUOUS
 62
    7
 10
416.6626749001864
 20
217.42426619145405
 40
1.666666666666667
 50
89.999999999999915
 51
150.00000000001012
  0
LINE
  8
_0-b_細線3
  6
CONTINUOUS
 62
    7
 10
412.99600823535923
 20
217.42426619145405
 11
413.77592355423872
 21
217.42426619145405
  0
ARC
  8
_0-b_細線3
  6
CONTINUOUS
 62
    7
 10
428.6626748983474
 20
215.75759952478705
 40
1.666666666666667
 50
0
 51
89.999999999999915
  0
ARC
  8
_0-b_細線3
  6
CONTINUOUS
 62
    7
 10
427.88275957946792
 20
219.09093285812048
 40
1.666666666666667
 50
210.00000000000333
 51
269.99999999999977
  0
ARC
  8
_0-b_細線3
  6
CONTINUOUS
 62
    7
 10
424.99600823352023
 20
217.42426619145405
 40
1.666666666666667
 50
29.999999999997708
 51
89.999999999999901
  0
LINE
  8
_0-b_細線3
  6
CONTINUOUS
 62
    7
 10
428.6626748983474
 20
217.42426619145405
 11
427.88275957946792
 21
217.42426619145405
  0
ARC
  8
_0-b_細線3
  6
CONTINUOUS
 62
    7
 10
412.16267490202625
 20
213.424266191454
 40
0.8333333333333334
 50
179.99999999999983
 51
269.99999999999977
  0
LINE
  8
_0-b_細線3
  6
CONTINUOUS
 62
    7
 10
411.32934156869283
 20
215.75759952478705
 11
411.32934156869283
 21
213.424266191454
  0
ARC
  8
_0-b_細線3
  6
CONTINUOUS
 62
    7
 10
429.49600823168026
 20
213.424266191454
 40
0.8333333333333334
 50
269.99999999999977
 51
359.99999999999966
  0
LINE
  8
_0-b_細線3
  6
CONTINUOUS
 62
    7
 10
430.32934156501381
 20
215.75759952478705
 11
430.32934156501381
 21
213.424266191454
  0
ARC
  8
_0-b_細線3
  6
CONTINUOUS
 62
    7
 10
416.32934156869283
 20
210.924266191454
 40
1.666666666666667
 50
0
 51
89.999999999999915
  0
LINE
  8
_0-b_細線3
  6
CONTINUOUS
 62
    7
 10
416.32934156869283
 20
212.59093285812057
 11
412.16267490202625
 21
212.59093285812057
  0
ARC
  8
_0-b_細線3
  6
CONTINUOUS
 62
    7
 10
425.32934156869271
 20
210.924266191454
 40
1.666666666666667
 50
89.999999999999915
 51
179.99999999999983
  0
LINE
  8
_0-b_細線3
  6
CONTINUOUS
 62
    7
 10
425.32934156501381
 20
212.59093285812057
 11
429.49600823168026
 21
212.59093285812057
  0
LINE
  8
_0-b_細線3
  6
CONTINUOUS
 62
    7
 10
424.99600823352023
 20
219.09093285812048
 11
416.6626749001864
 21
219.09093285812048
  0
LINE
  8
_0-b_細線3
  6
CONTINUOUS
 62
    7
 10
417.99600823351977
 20
177.42426619145405
 11
417.99600823535923
 21
210.924266191454
  0
LINE
  8
_0-b_細線3
  6
CONTINUOUS
 62
    7
 10
423.66267490018686
 20
177.42426619145405
 11
423.66267490202631
 21
210.924266191454
  0
LINE
  8
_0-b_細線3
  6
CONTINUOUS
 62
    7
 10
423.66267490018686
 20
177.42426619145405
 11
417.99600823351977
 21
177.42426619145405
  0
LINE
  8
_0-d_寸法3
  6
CONTINUOUS
 62
    7
 10
516.02086201218515
 20
183.16003055496452
 11
551.37320373787065
 21
207.91400672465528
  0
LINE
  8
_0-d_寸法3
  6
CONTINUOUS
 62
    7
 10
547.27744351642571
 20
205.0461245429
 11
544.68925306540064
 21
214.70538280579069
  0
LINE
  8
_0-d_寸法3
  6
CONTINUOUS
 62
    7
 10
547.27744351642571
 20
205.0461245429
 11
549.86563396745089
 21
214.70538280579069
  0
LINE
  8
_0-d_寸法3
  6
CONTINUOUS
 62
    7
 10
516.02086201218515
 20
224.82669722163098
 11
551.37320373787065
 21
249.58067339132182
  0
LINE
  8
_0-d_寸法3
  6
CONTINUOUS
 62
    7
 10
547.27744351642571
 20
246.71279120956655
 11
549.86563396745089
 21
237.05353294667589
  0
LINE
  8
_0-d_寸法3
  6
CONTINUOUS
 62
    7
 10
547.27744351642571
 20
246.71279120956655
 11
544.68925306540041
 21
237.05353294667589
  0
LINE
  8
_0-d_寸法3
  6
CONTINUOUS
 62
    7
 10
547.27744351642571
 20
205.0461245429
 11
547.27744351642571
 21
246.71279120956655
  0
TEXT
  8
_0-d_寸法3
 62
    7
 10
547.27744351642571
 20
218.37945787623437
 40
15
 41
1
 50
90
  1
25
  0
LINE
  8
_0-a_極細3
  6
CENTER1
 62
    7
 10
528.62810855806913
 20
200.42426619145374
 11
366.04956593014333
 21
200.42426619145374
  0
LINE
  8
_0-b_細線3
  6
CONTINUOUS
 62
    7
 10
452.6626749020262
 20
189.5909328581206
 11
475.99600823535968
 21
189.5909328581206
  0
LINE
  8
_0-b_細線3
  6
CONTINUOUS
 62
    7
 10
481.66267490262925
 20
189.5909328581206
 11
504.99600823596268
 21
189.5909328581206
  0
LINE
  8
_0-b_細線3
  6
CONTINUOUS
 62
    7
 10
394.66267490050325
 20
189.5909328581206
 11
417.99600823383685
 21
189.5909328581206
  0
LINE
  8
_0-b_細線3
  6
CONTINUOUS
 62
    7
 10
423.6626749011067
 20
189.5909328581206
 11
446.99600823443973
 21
189.5909328581206
  0
LINE
  8
_0-b_細線3
  6
CONTINUOUS
 62
    7
 10
452.6626749020262
 20
211.25759952478731
 11
475.99600823535968
 21
211.25759952478731
  0
LINE
  8
_0-b_細線3
  6
CONTINUOUS
 62
    7
 10
481.66267490262925
 20
211.25759952478731
 11
504.99600823596268
 21
211.25759952478731
  0
LINE
  8
_0-b_細線3
  6
CONTINUOUS
 62
    7
 10
394.66267490050325
 20
211.25759952478731
 11
417.99600823383685
 21
211.25759952478731
  0
LINE
  8
_0-b_細線3
  6
CONTINUOUS
 62
    7
 10
423.6626749011067
 20
211.25759952478731
 11
446.99600823443973
 21
211.25759952478731
  0
LINE
  8
_0-b_細線3
  6
CONTINUOUS
 62
    7
 10
510.6626749032323
 20
211.25759952478731
 11
521.4217712940324
 21
211.25759952478731
  0
LINE
  8
_0-b_細線3
  6
CONTINUOUS
 62
    7
 10
510.6626749032323
 20
189.5909328581206
 11
524.13024330308849
 21
189.5909328581206
  0
LINE
  8
_0-b_細線3
  6
CONTINUOUS
 62
    7
 10
376.50195585569838
 20
211.25759952478731
 11
388.99600823323374
 21
211.25759952478731
  0
LINE
  8
_0-b_細線3
  6
CONTINUOUS
 62
    7
 10
379.21042786475448
 20
189.5909328581206
 11
388.99600823323374
 21
189.5909328581206
  0
TEXT
  8
_0-7_枠細線
 62
    5
 10
410.0960082335194
 20
128.5404661036894
 40
25.000000000000007
 41
0.8
 50
0
  1
断面詳細
  0
TEXT
  8
_0-7_枠細線
 62
    5
 10
515.04497798268756
 20
131.49990592400917
 40
20.000000000000004
 41
0.5999999999999999
 50
0
  1
Ｓ＝１：３
  0
LINE
  8
_0-d_寸法3
  6
CONTINUOUS
 62
    7
 10
401.32934156441132
 20
229.09093285812048
 11
401.32934156441138
 21
270.75759952478705
  0
LINE
  8
_0-d_寸法3
  6
CONTINUOUS
 62
    7
 10
401.32934156441138
 20
265.75759952478705
 11
391.67008330152066
 21
263.16940907376187
  0
LINE
  8
_0-d_寸法3
  6
CONTINUOUS
 62
    7
 10
401.32934156441138
 20
265.75759952478705
 11
391.67008330152072
 21
268.34578997581229
  0
LINE
  8
_0-d_寸法3
  6
CONTINUOUS
 62
    7
 10
411.32934156869283
 20
229.09093285812048
 11
411.32934156869283
 21
270.75759952478705
  0
LINE
  8
_0-d_寸法3
  6
CONTINUOUS
 62
    7
 10
376.9553858812443
 20
265.75759952478705
 11
411.32934156869283
 21
265.75759952478705
  0
TEXT
  8
_0-d_寸法3
 62
    7
 10
376.9553858812443
 20
250.75759952478705
 40
15
 41
1
 50
0
  1
(6)
  0
LINE
  8
_0-d_寸法3
  6
CONTINUOUS
 62
    7
 10
411.32934156869283
 20
265.75759952478705
 11
420.98859983158349
 21
268.34578997581224
  0
LINE
  8
_0-d_寸法3
  6
CONTINUOUS
 62
    7
 10
411.32934156869283
 20
265.75759952478705
 11
420.98859983158349
 21
263.16940907376187
  0
LINE
  8
_0-d_寸法3
  6
CONTINUOUS
 62
    7
 10
430.32934156501381
 20
229.09093285812048
 11
430.32934156501398
 21
270.75759952478705
  0
LINE
  8
_0-d_寸法3
  6
CONTINUOUS
 62
    7
 10
430.32934156501398
 20
265.75759952478705
 11
420.67008330212326
 21
263.16940907376187
  0
LINE
  8
_0-d_寸法3
  6
CONTINUOUS
 62
    7
 10
430.32934156501398
 20
265.75759952478705
 11
420.67008330212332
 21
268.34578997581229
  0
LINE
  8
_0-d_寸法3
  6
CONTINUOUS
 62
    7
 10
411.32934156869283
 20
265.75759952478705
 11
430.32934156501398
 21
265.75759952478705
  0
TEXT
  8
_0-d_寸法3
 62
    7
 10
402.06464514050333
 20
265.75759952478705
 40
15
 41
1
 50
0
  1
11.4
  0
LINE
  8
_0-5_寸法線
  6
CONTINUOUS
 62
    7
 10
970
 20
663.65999999999997
 11
922.70000000000073
 21
663.66000000000031
  0
LINE
  8
_0-5_寸法線
  6
CONTINUOUS
 62
    7
 10
927.70000000000073
 20
663.66000000000031
 11
930.2881904510258
 21
654.00074173710948
  0
LINE
  8
_0-5_寸法線
  6
CONTINUOUS
 62
    7
 10
927.70000000000073
 20
663.66000000000031
 11
925.11180954897554
 21
654.00074173710948
  0
LINE
  8
_0-5_寸法線
  6
CONTINUOUS
 62
    7
 10
967.70000000000073
 20
635.65999999999985
 11
922.70000000000073
 21
635.65999999999985
  0
LINE
  8
_0-5_寸法線
  6
CONTINUOUS
 62
    7
 10
927.70000000000073
 20
635.65999999999985
 11
925.11180954897554
 21
645.31925826289057
  0
LINE
  8
_0-5_寸法線
  6
CONTINUOUS
 62
    7
 10
927.70000000000073
 20
635.65999999999985
 11
930.2881904510258
 21
645.31925826289057
  0
LINE
  8
_0-5_寸法線
  6
CONTINUOUS
 62
    7
 10
927.70000000000073
 20
663.66000000000031
 11
927.70000000000073
 21
635.65999999999985
  0
TEXT
  8
_0-5_寸法線
 62
    7
 10
927.70000000000073
 20
642.15999999999997
 40
15
 41
1
 50
90
  1
28
  0
LINE
  8
_0-5_寸法線
  6
CONTINUOUS
 62
    7
 10
967.70000000000073
 20
635.65999999999985
 11
922.70000000000073
 21
635.65999999999985
  0
LINE
  8
_0-5_寸法線
  6
CONTINUOUS
 62
    7
 10
927.70000000000073
 20
635.65999999999985
 11
930.2881904510258
 21
626.00074173710914
  0
LINE
  8
_0-5_寸法線
  6
CONTINUOUS
 62
    7
 10
927.70000000000073
 20
635.65999999999985
 11
925.11180954897543
 21
626.00074173710914
  0
LINE
  8
_0-5_寸法線
  6
CONTINUOUS
 62
    7
 10
967.70000000000073
 20
612.65999999999985
 11
922.70000000000073
 21
612.65999999999985
  0
LINE
  8
_0-5_寸法線
  6
CONTINUOUS
 62
    7
 10
927.70000000000073
 20
612.65999999999985
 11
925.11180954897554
 21
622.31925826289057
  0
LINE
  8
_0-5_寸法線
  6
CONTINUOUS
 62
    7
 10
927.70000000000073
 20
612.65999999999985
 11
930.2881904510258
 21
622.31925826289057
  0
LINE
  8
_0-5_寸法線
  6
CONTINUOUS
 62
    7
 10
927.70000000000073
 20
635.65999999999985
 11
927.70000000000073
 21
612.65999999999985
  0
TEXT
  8
_0-5_寸法線
 62
    7
 10
927.70000000000073
 20
616.65999999999997
 40
15
 41
1
 50
90
  1
23
  0
LINE
  8
_0-5_寸法線
  6
CONTINUOUS
 62
    7
 10
1190
 20
673.66000019501701
 11
1190
 21
788.66000019501712
  0
LINE
  8
_0-5_寸法線
  6
CONTINUOUS
 62
    7
 10
1190
 20
783.66000019501712
 11
1180.3407417371093
 21
781.07180974399182
  0
LINE
  8
_0-5_寸法線
  6
CONTINUOUS
 62
    7
 10
1190
 20
783.66000019501712
 11
1180.3407417371093
 21
786.2481906460423
  0
LINE
  8
_0-5_寸法線
  6
CONTINUOUS
 62
    7
 10
980
 20
673.66000019501701
 11
980.00000000000011
 21
788.66000019501712
  0
LINE
  8
_0-5_寸法線
  6
CONTINUOUS
 62
    7
 10
980.00000000000011
 20
783.66000019501712
 11
989.65925826289094
 21
786.2481906460423
  0
LINE
  8
_0-5_寸法線
  6
CONTINUOUS
 62
    7
 10
980.00000000000011
 20
783.66000019501712
 11
989.65925826289094
 21
781.07180974399182
  0
LINE
  8
_0-5_寸法線
  6
CONTINUOUS
 62
    7
 10
1190
 20
783.66000019501712
 11
980.00000000000011
 21
783.66000019501712
  0
TEXT
  8
_0-5_寸法線
 62
    7
 10
1073.75
 20
783.66000019501712
 40
15
 41
1
 50
0
  1
210
  0
LINE
  8
_0-5_寸法線
  6
CONTINUOUS
 62
    7
 10
980.00000051907
 20
673.66000019501701
 11
980.00000051907011
 21
753.66000019501701
  0
LINE
  8
_0-5_寸法線
  6
CONTINUOUS
 62
    7
 10
980.00000051907011
 20
748.66000019501701
 11
970.34074225617928
 21
746.07180974399182
  0
LINE
  8
_0-5_寸法線
  6
CONTINUOUS
 62
    7
 10
980.00000051907011
 20
748.66000019501701
 11
970.34074225617928
 21
751.2481906460423
  0
LINE
  8
_0-5_寸法線
  6
CONTINUOUS
 62
    7
 10
983
 20
673.66000019501701
 11
983.00000000000011
 21
753.66000019501701
  0
CIRCLE
  8
_0-5_寸法線
  6
CONTINUOUS
 62
    1
 10
983.00000000000011
 20
748.66000019501701
 40
1.5000000000000002
  0
LINE
  8
_0-5_寸法線
  6
CONTINUOUS
 62
    7
 10
955.00000051907011
 20
748.66000019501701
 11
983.00000000000011
 21
748.66000019501701
  0
TEXT
  8
_0-5_寸法線
 62
    7
 10
959.94596866275742
 20
748.66000019501701
 40
15
 41
1
 50
0
  1
3
  0
LINE
  8
_0-5_寸法線
  6
CONTINUOUS
 62
    7
 10
984.99999999965667
 20
673.66000019501701
 11
984.99999999965678
 21
753.66000019501701
  0
LINE
  8
_0-5_寸法線
  6
CONTINUOUS
 62
    7
 10
983.00000000000011
 20
748.66000019501701
 11
984.99999999965678
 21
748.66000019501701
  0
TEXT
  8
_0-5_寸法線
 62
    7
 10
985.63601325660909
 20
748.66000019501701
 40
15
 41
1
 50
0
  1
2
  0
LINE
  8
_0-5_寸法線
  6
CONTINUOUS
 62
    7
 10
984.99999999965678
 20
748.66000019501701
 11
994.65925826254761
 21
751.2481906460423
  0
LINE
  8
_0-5_寸法線
  6
CONTINUOUS
 62
    7
 10
984.99999999965678
 20
748.66000019501701
 11
994.65925826254761
 21
746.07180974399171
  0
LINE
  8
_0-5_寸法線
  6
CONTINUOUS
 62
    7
 10
1185.0000000003433
 20
673.65978119400995
 11
1185.0000000003438
 21
753.66000019501701
  0
LINE
  8
_0-5_寸法線
  6
CONTINUOUS
 62
    7
 10
1185.0000000003438
 20
748.66000019501701
 11
1175.3407417374531
 21
746.07180974399182
  0
LINE
  8
_0-5_寸法線
  6
CONTINUOUS
 62
    7
 10
1185.0000000003438
 20
748.66000019501701
 11
1175.3407417374531
 21
751.2481906460423
  0
LINE
  8
_0-5_寸法線
  6
CONTINUOUS
 62
    7
 10
984.99999999965678
 20
748.66000019501701
 11
1185.0000000003438
 21
748.66000019501701
  0
TEXT
  8
_0-5_寸法線
 62
    7
 10
1073.7500000000005
 20
748.66000019501701
 40
15
 41
1
 50
0
  1
200
  0
LINE
  8
_0-5_寸法線
  6
CONTINUOUS
 62
    7
 10
1187
 20
673.65978119400995
 11
1187
 21
753.66000019501701
  0
CIRCLE
  8
_0-5_寸法線
  6
CONTINUOUS
 62
    1
 10
1187
 20
748.66000019501701
 40
1.5000000000000002
  0
LINE
  8
_0-5_寸法線
  6
CONTINUOUS
 62
    7
 10
1185.0000000003438
 20
748.66000019501701
 11
1187
 21
748.66000019501701
  0
TEXT
  8
_0-5_寸法線
 62
    7
 10
1175.2959158156177
 20
748.66000019501701
 40
15
 41
1
 50
0
  1
2
  0
LINE
  8
_0-5_寸法線
  6
CONTINUOUS
 62
    7
 10
1190
 20
673.66000019501701
 11
1190
 21
753.66000019501701
  0
LINE
  8
_0-5_寸法線
  6
CONTINUOUS
 62
    7
 10
1190
 20
748.66000019501701
 11
1199.6592582628907
 21
751.2481906460423
  0
LINE
  8
_0-5_寸法線
  6
CONTINUOUS
 62
    7
 10
1190
 20
748.66000019501701
 11
1199.6592582628907
 21
746.07180974399171
  0
LINE
  8
_0-5_寸法線
  6
CONTINUOUS
 62
    7
 10
1187
 20
748.66000019501701
 11
1215
 21
748.66000019501701
  0
TEXT
  8
_0-5_寸法線
 62
    7
 10
1204.2559587294518
 20
748.66000019501701
 40
15
 41
1
 50
0
  1
3
  0
LINE
  8
_0-5_寸法線
  6
CONTINUOUS
 62
    7
 10
1110.500000000533
 20
673.65978119401007
 11
1110.5000000005334
 21
718.65978119401007
  0
LINE
  8
_0-5_寸法線
  6
CONTINUOUS
 62
    7
 10
1110.5000000005334
 20
713.65978119401007
 11
1120.1592582634244
 21
716.24797164503536
  0
LINE
  8
_0-5_寸法線
  6
CONTINUOUS
 62
    7
 10
1110.5000000005334
 20
713.65978119401007
 11
1120.1592582634244
 21
711.07159074298488
  0
LINE
  8
_0-5_寸法線
  6
CONTINUOUS
 62
    7
 10
1127.5000000008949
 20
673.65978119401007
 11
1127.5000000008949
 21
718.65978119401007
  0
LINE
  8
_0-5_寸法線
  6
CONTINUOUS
 62
    7
 10
1127.5000000008949
 20
713.65978119401007
 11
1117.8407417380045
 21
711.07159074298488
  0
LINE
  8
_0-5_寸法線
  6
CONTINUOUS
 62
    7
 10
1127.5000000008949
 20
713.65978119401007
 11
1117.8407417380045
 21
716.24797164503536
  0
LINE
  8
_0-5_寸法線
  6
CONTINUOUS
 62
    7
 10
1110.5000000005334
 20
713.65978119401007
 11
1127.5000000008949
 21
713.65978119401007
  0
TEXT
  8
_0-5_寸法線
 62
    7
 10
1102.8440227081092
 20
698.65978119401007
 40
15
 41
1
 50
0
  1
(17)
  0
LINE
  8
_0-5_寸法線
  6
CONTINUOUS
 62
    7
 10
1127.5000000008949
 20
713.65978119401007
 11
1137.1592582637857
 21
716.24797164503536
  0
LINE
  8
_0-5_寸法線
  6
CONTINUOUS
 62
    7
 10
1127.5000000008949
 20
713.65978119401007
 11
1137.1592582637857
 21
711.07159074298477
  0
LINE
  8
_0-5_寸法線
  6
CONTINUOUS
 62
    7
 10
1144.5000000012569
 20
673.65978119401007
 11
1144.5000000012569
 21
718.65978119401007
  0
LINE
  8
_0-5_寸法線
  6
CONTINUOUS
 62
    7
 10
1144.5000000012569
 20
713.65978119401007
 11
1134.8407417383664
 21
711.07159074298488
  0
LINE
  8
_0-5_寸法線
  6
CONTINUOUS
 62
    7
 10
1144.5000000012569
 20
713.65978119401007
 11
1134.8407417383664
 21
716.24797164503536
  0
LINE
  8
_0-5_寸法線
  6
CONTINUOUS
 62
    7
 10
1127.5000000008949
 20
713.65978119401007
 11
1144.5000000012569
 21
713.65978119401007
  0
TEXT
  8
_0-5_寸法線
 62
    7
 10
1121.9106893745347
 20
713.65978119401007
 40
15
 41
1
 50
0
  1
(17)
  0
LINE
  8
_0-5_寸法線
  6
CONTINUOUS
 62
    7
 10
1031.1999999978111
 20
673.65978119401007
 11
1031.1999999978116
 21
718.65978119401007
  0
LINE
  8
_0-5_寸法線
  6
CONTINUOUS
 62
    7
 10
1031.1999999978116
 20
713.65978119401007
 11
1021.5407417349209
 21
711.07159074298488
  0
LINE
  8
_0-5_寸法線
  6
CONTINUOUS
 62
    7
 10
1031.1999999978116
 20
713.65978119401007
 11
1021.5407417349209
 21
716.24797164503536
  0
LINE
  8
_0-5_寸法線
  6
CONTINUOUS
 62
    7
 10
1036.8000000003799
 20
673.65978119401007
 11
1036.8000000003799
 21
718.65978119401007
  0
LINE
  8
_0-5_寸法線
  6
CONTINUOUS
 62
    7
 10
991.82604431445372
 20
713.65978119401007
 11
1036.8000000003799
 21
713.65978119401007
  0
TEXT
  8
_0-5_寸法線
 62
    7
 10
991.82604431445372
 20
698.65978119401007
 40
15
 41
1
 50
0
  1
(5.6)
  0
LINE
  8
_0-5_寸法線
  6
CONTINUOUS
 62
    7
 10
1036.8000000003799
 20
713.65978119401007
 11
1046.4592582632708
 21
716.24797164503536
  0
LINE
  8
_0-5_寸法線
  6
CONTINUOUS
 62
    7
 10
1036.8000000003799
 20
713.65978119401007
 11
1046.4592582632708
 21
711.07159074298488
  0
LINE
  8
_0-5_寸法線
  6
CONTINUOUS
 62
    7
 10
1048.1999999981726
 20
673.65978119401007
 11
1048.1999999981726
 21
718.65978119401007
  0
LINE
  8
_0-5_寸法線
  6
CONTINUOUS
 62
    7
 10
1048.1999999981726
 20
713.65978119401007
 11
1038.5407417352822
 21
711.07159074298488
  0
LINE
  8
_0-5_寸法線
  6
CONTINUOUS
 62
    7
 10
1048.1999999981726
 20
713.65978119401007
 11
1038.5407417352822
 21
716.24797164503536
  0
LINE
  8
_0-5_寸法線
  6
CONTINUOUS
 62
    7
 10
1036.8000000003799
 20
713.65978119401007
 11
1048.1999999981726
 21
713.65978119401007
  0
TEXT
  8
_0-5_寸法線
 62
    7
 10
1023.7353035728565
 20
713.65978119401007
 40
15
 41
1
 50
0
  1
11.4
  0
LINE
  8
_0-5_寸法線
  6
CONTINUOUS
 62
    7
 10
1076.8084795571101
 20
644.39576436351092
 11
1047.9692648255009
 21
664.58919991463222
  0
LINE
  8
_0-5_寸法線
  6
CONTINUOUS
 62
    7
 10
1052.0650250469457
 20
661.72131773287697
 11
1049.4768345959205
 21
671.38057599576769
  0
LINE
  8
_0-5_寸法線
  6
CONTINUOUS
 62
    7
 10
1052.0650250469457
 20
661.72131773287697
 11
1054.6532154979709
 21
671.38057599576769
  0
LINE
  8
_0-5_寸法線
  6
CONTINUOUS
 62
    7
 10
1076.8084795571101
 20
669.39576436351058
 11
1047.9692648255009
 21
689.58919991463199
  0
LINE
  8
_0-5_寸法線
  6
CONTINUOUS
 62
    7
 10
1052.0650250469457
 20
686.72131773287674
 11
1054.6532154979709
 21
677.06205946998602
  0
LINE
  8
_0-5_寸法線
  6
CONTINUOUS
 62
    7
 10
1052.0650250469457
 20
686.72131773287674
 11
1049.4768345959205
 21
677.06205946998602
  0
LINE
  8
_0-5_寸法線
  6
CONTINUOUS
 62
    7
 10
1052.0650250469457
 20
661.72131773287697
 11
1052.0650250469457
 21
686.72131773287674
  0
TEXT
  8
_0-5_寸法線
 62
    7
 10
1052.0650250469459
 20
666.72131773287697
 40
15
 41
1
 50
90
  1
25
  0
LINE
  8
_0-1_計細線
  6
CONTINUOUS
 62
    3
 10
987.49999999910472
 20
652.45999999999981
 11
984.49548399910486
 21
652.45999999999981
  0
LINE
  8
_0-1_計細線
  6
CONTINUOUS
 62
    3
 10
987.49999999910472
 20
648.96000000000026
 11
984.49547199910523
 21
648.96000000000026
  0
ARC
  8
_0-1_計細線
  6
CONTINUOUS
 62
    3
 10
984.49547199910523
 20
649.16000000000008
 40
0.2000000000000001
 50
179.99999999999983
 51
269.99999999999977
  0
ARC
  8
_0-1_計細線
  6
CONTINUOUS
 62
    3
 10
992.05345199910482
 20
650.7098540000004
 40
7.7579560000000001
 50
166.96197800000505
 51
193.03566999999961
  0
ARC
  8
_0-1_計細線
  6
CONTINUOUS
 62
    3
 10
984.49547199910523
 20
655.76000000000022
 40
0.2000000000000001
 50
89.999999999999915
 51
179.99999999999983
  0
ARC
  8
_0-1_計細線
  6
CONTINUOUS
 62
    3
 10
992.05345199910482
 20
654.2101439999999
 40
7.7579560000000001
 50
166.96433000000002
 51
193.0380219999995
  0
LINE
  8
_0-1_計細線
  6
CONTINUOUS
 62
    3
 10
987.49999999910472
 20
655.96000000000004
 11
984.49547199910523
 21
655.96000000000004
  0
LINE
  8
_0-1_計細線
  6
CONTINUOUS
 62
    3
 10
984.29547199910508
 20
649.16000000000008
 11
984.29547199910508
 21
655.76000000000022
  0
ARC
  8
_0-1_計細線
  6
CONTINUOUS
 62
    3
 10
987.69999999910499
 20
646.16000000000008
 40
0.2000000000000001
 50
179.99999999999983
 51
269.99999999999977
  0
ARC
  8
_0-1_計細線
  6
CONTINUOUS
 62
    3
 10
987.69999999910499
 20
658.75999999999976
 40
0.2000000000000001
 50
89.999999999999915
 51
179.99999999999983
  0
LINE
  8
_0-1_計細線
  6
CONTINUOUS
 62
    3
 10
987.49999999910472
 20
651.95999999999981
 11
987.49999999910472
 21
646.16000000000008
  0
LINE
  8
_0-1_計細線
  6
CONTINUOUS
 62
    3
 10
987.49999999910472
 20
658.75999999999976
 11
987.49999999910472
 21
651.95999999999981
  0
LINE
  8
_0-1_計細線
  6
CONTINUOUS
 62
    3
 10
988.99999999895385
 20
645.95999999999992
 11
987.69999999910499
 21
645.95999999999992
  0
LINE
  8
_0-1_計細線
  6
CONTINUOUS
 62
    3
 10
988.99999999966769
 20
658.96000000000004
 11
987.69999999910499
 21
658.96000000000004
  0
LINE
  8
_0-1_計細線
  6
CONTINUOUS
 62
    3
 10
1182.5000000008954
 20
652.45999999999981
 11
1185.5045160008954
 21
652.45999999999981
  0
LINE
  8
_0-1_計細線
  6
CONTINUOUS
 62
    3
 10
1182.5000000008954
 20
648.96000000000026
 11
1185.5045280008949
 21
648.96000000000026
  0
ARC
  8
_0-1_計細線
  6
CONTINUOUS
 62
    3
 10
1185.5045280008949
 20
649.16000000000008
 40
0.2000000000000001
 50
269.99999999999977
 51
359.99999999999966
  0
ARC
  8
_0-1_計細線
  6
CONTINUOUS
 62
    3
 10
1177.9465480008953
 20
650.7098540000004
 40
7.7579560000000001
 50
346.96432999999968
 51
13.038021999994573
  0
ARC
  8
_0-1_計細線
  6
CONTINUOUS
 62
    3
 10
1185.5045280008949
 20
655.76000000000022
 40
0.2000000000000001
 50
0
 51
89.999999999999915
  0
ARC
  8
_0-1_計細線
  6
CONTINUOUS
 62
    3
 10
1177.9465480008953
 20
654.2101439999999
 40
7.7579560000000001
 50
346.96197799999976
 51
13.035669999999625
  0
LINE
  8
_0-1_計細線
  6
CONTINUOUS
 62
    3
 10
1182.5000000008954
 20
655.96000000000004
 11
1185.5045280008949
 21
655.96000000000004
  0
LINE
  8
_0-1_計細線
  6
CONTINUOUS
 62
    3
 10
1185.7045280008952
 20
649.16000000000008
 11
1185.7045280008952
 21
655.76000000000022
  0
ARC
  8
_0-1_計細線
  6
CONTINUOUS
 62
    3
 10
1182.3000000008951
 20
646.16000000000008
 40
0.2000000000000001
 50
269.99999999999977
 51
359.99999999999966
  0
ARC
  8
_0-1_計細線
  6
CONTINUOUS
 62
    3
 10
1182.3000000008951
 20
658.75999999999976
 40
0.2000000000000001
 50
0
 51
89.999999999999915
  0
LINE
  8
_0-1_計細線
  6
CONTINUOUS
 62
    3
 10
1182.5000000008954
 20
651.95999999999981
 11
1182.5000000008954
 21
646.16000000000008
  0
LINE
  8
_0-1_計細線
  6
CONTINUOUS
 62
    3
 10
1182.5000000008954
 20
658.75999999999976
 11
1182.5000000008954
 21
651.95999999999981
  0
LINE
  8
_0-1_計細線
  6
CONTINUOUS
 62
    3
 10
1181.0000000010461
 20
645.95999999999992
 11
1182.3000000008951
 21
645.95999999999992
  0
LINE
  8
_0-1_計細線
  6
CONTINUOUS
 62
    3
 10
1181.0000000003324
 20
658.96000000000004
 11
1182.3000000008951
 21
658.96000000000004
  0
LINE
  8
_0-0_計極細
  6
CENTER1
 62
    2
 10
1188.8721647772363
 20
652.45999999999981
 11
981.31398718715218
 21
652.45999999999981
  0
LINE
  8
_0-5_寸法線
  6
CONTINUOUS
 62
    7
 10
537.16915488615894
 20
580.03479103360178
 11
541.59776829856787
 21
589.00069217310988
  0
LINE
  8
_0-5_寸法線
  6
CONTINUOUS
 62
    7
 10
537.16915488615894
 20
580.03479103360178
 11
545.48739717459955
 21
585.5851824820312
  0
LINE
  8
_0-5_寸法線
  6
CONTINUOUS
 62
    7
 10
537.16915488615894
 20
580.03479103360178
 11
581.01982498168979
 21
629.97253036499046
  0
LINE
  8
_0-5_寸法線
  6
CONTINUOUS
 62
    7
 10
581.01982498168979
 20
629.97253036499046
 11
713.01982498169014
 21
629.97253036499046
  0
TEXT
  8
_0-5_寸法線
 62
    7
 10
581.01982498169014
 20
629.97253036499046
 40
15
 41
0.8000000000000001
 50
0
  1
セーフティグレーチング
  0
LINE
  8
_0-5_寸法線
  6
CONTINUOUS
 62
    7
 10
552.10724588699065
 20
503.26924286845622
 11
556.53585929939948
 21
512.23514400796432
  0
LINE
  8
_0-5_寸法線
  6
CONTINUOUS
 62
    7
 10
552.10724588699065
 20
503.26924286845622
 11
560.42548817543127
 21
508.8196343168857
  0
LINE
  8
_0-5_寸法線
  6
CONTINUOUS
 62
    7
 10
552.10724588699065
 20
503.26924286845622
 11
581.01982498168979
 21
536.19528105860911
  0
LINE
  8
_0-5_寸法線
  6
CONTINUOUS
 62
    7
 10
581.01982498168979
 20
536.19528105860911
 11
689.01982498168979
 21
536.19528105860911
  0
TEXT
  8
_0-5_寸法線
 62
    7
 10
581.01982498168979
 20
536.19528105860911
 40
15
 41
0.8000000000000001
 50
0
  1
ＳＵＳアングル受枠
  0
TEXT
  8
_0-5_寸法線
 62
    7
 10
580.99224833355834
 20
521.08554661289486
 40
15
 41
0.8000000000000001
 50
0
  1
ＧＳＬ－２５
  0
LINE
  8
_0-5_寸法線
  6
CONTINUOUS
 62
    7
 10
333.5179582409711
 20
449.60583080107904
 11
253.5179582409711
 21
449.60583080107932
  0
LINE
  8
_0-5_寸法線
  6
CONTINUOUS
 62
    7
 10
258.5179582409711
 20
449.60583080107932
 11
255.92976778994597
 21
459.26508906396998
  0
LINE
  8
_0-5_寸法線
  6
CONTINUOUS
 62
    7
 10
258.5179582409711
 20
449.60583080107932
 11
261.1061486919964
 21
459.26508906396998
  0
LINE
  8
_0-5_寸法線
  6
CONTINUOUS
 62
    7
 10
333.51795824097161
 20
659.60583080108097
 11
253.5179582409711
 21
659.60583080108131
  0
LINE
  8
_0-5_寸法線
  6
CONTINUOUS
 62
    7
 10
258.5179582409711
 20
659.60583080108131
 11
261.1061486919964
 21
649.94657253819059
  0
LINE
  8
_0-5_寸法線
  6
CONTINUOUS
 62
    7
 10
258.5179582409711
 20
659.60583080108131
 11
255.92976778994597
 21
649.94657253819059
  0
LINE
  8
_0-5_寸法線
  6
CONTINUOUS
 62
    7
 10
258.5179582409711
 20
449.60583080107932
 11
258.5179582409711
 21
659.60583080108131
  0
TEXT
  8
_0-5_寸法線
 62
    7
 10
258.51795824097098
 20
543.35583080108029
 40
15
 41
1
 50
90
  1
210
  0
LINE
  8
_0-5_寸法線
  6
CONTINUOUS
 62
    7
 10
293.5179582409711
 20
449.60583080107909
 11
296.10614869199628
 21
439.94657253818838
  0
LINE
  8
_0-5_寸法線
  6
CONTINUOUS
 62
    7
 10
293.5179582409711
 20
449.60583080107909
 11
290.9297677899458
 21
439.94657253818843
  0
LINE
  8
_0-5_寸法線
  6
CONTINUOUS
 62
    7
 10
333.5179582409711
 20
452.60583080107892
 11
288.5179582409711
 21
452.60583080107904
  0
CIRCLE
  8
_0-5_寸法線
  6
CONTINUOUS
 62
    1
 10
293.5179582409711
 20
452.60583080107904
 40
1.5000000000000002
  0
LINE
  8
_0-5_寸法線
  6
CONTINUOUS
 62
    7
 10
293.5179582409711
 20
424.60583080107909
 11
293.5179582409711
 21
452.60583080107904
  0
TEXT
  8
_0-5_寸法線
 62
    7
 10
293.5179582409711
 20
427.95918897220901
 40
15
 41
1
 50
90
  1
3
  0
LINE
  8
_0-5_寸法線
  6
CONTINUOUS
 62
    7
 10
333.5179582409711
 20
454.60583080108154
 11
288.5179582409711
 21
454.60583080108142
  0
LINE
  8
_0-5_寸法線
  6
CONTINUOUS
 62
    7
 10
293.5179582409711
 20
452.60583080107904
 11
293.5179582409711
 21
454.60583080108142
  0
TEXT
  8
_0-5_寸法線
 62
    7
 10
312.65857539987479
 20
456.6071150898693
 40
15
 41
1
 50
90
  1
2
  0
LINE
  8
_0-5_寸法線
  6
CONTINUOUS
 62
    7
 10
293.5179582409711
 20
454.60583080108142
 11
290.92976778994597
 21
464.26508906397208
  0
LINE
  8
_0-5_寸法線
  6
CONTINUOUS
 62
    7
 10
293.5179582409711
 20
454.60583080108142
 11
296.1061486919964
 21
464.26508906397208
  0
LINE
  8
_0-5_寸法線
  6
CONTINUOUS
 62
    7
 10
333.5179582409711
 20
654.60583080108154
 11
288.5179582409711
 21
654.60583080108154
  0
LINE
  8
_0-5_寸法線
  6
CONTINUOUS
 62
    7
 10
293.5179582409711
 20
654.60583080108154
 11
296.10614869199628
 21
644.94657253819071
  0
LINE
  8
_0-5_寸法線
  6
CONTINUOUS
 62
    7
 10
293.5179582409711
 20
654.60583080108154
 11
290.9297677899458
 21
644.94657253819071
  0
LINE
  8
_0-5_寸法線
  6
CONTINUOUS
 62
    7
 10
293.5179582409711
 20
454.60583080108142
 11
293.5179582409711
 21
654.60583080108154
  0
TEXT
  8
_0-5_寸法線
 62
    7
 10
293.5179582409711
 20
543.35583080108142
 40
15
 41
1
 50
90
  1
200
  0
LINE
  8
_0-5_寸法線
  6
CONTINUOUS
 62
    7
 10
333.51795824097161
 20
656.60583080108097
 11
288.5179582409711
 21
656.60583080108108
  0
CIRCLE
  8
_0-5_寸法線
  6
CONTINUOUS
 62
    1
 10
293.5179582409711
 20
656.60583080108108
 40
1.5000000000000002
  0
LINE
  8
_0-5_寸法線
  6
CONTINUOUS
 62
    7
 10
293.5179582409711
 20
654.60583080108154
 11
293.5179582409711
 21
656.60583080108108
  0
TEXT
  8
_0-5_寸法線
 62
    7
 10
312.7613337269691
 20
645.16864530815656
 40
15
 41
1
 50
90
  1
2
  0
LINE
  8
_0-5_寸法線
  6
CONTINUOUS
 62
    7
 10
293.5179582409711
 20
659.60583080108108
 11
290.92976778994597
 21
669.26508906397191
  0
LINE
  8
_0-5_寸法線
  6
CONTINUOUS
 62
    7
 10
293.5179582409711
 20
659.60583080108108
 11
296.1061486919964
 21
669.26508906397191
  0
LINE
  8
_0-5_寸法線
  6
CONTINUOUS
 62
    7
 10
293.5179582409711
 20
656.60583080108108
 11
293.5179582409711
 21
684.60583080108108
  0
TEXT
  8
_0-5_寸法線
 62
    7
 10
293.5179582409711
 20
673.87159773133294
 40
15
 41
1
 50
90
  1
3
  0
LINE
  8
_0-5_寸法線
  6
CONTINUOUS
 62
    7
 10
348.51795824097115
 20
669.60583080108051
 11
348.51795824097132
 21
714.60583080108051
  0
LINE
  8
_0-5_寸法線
  6
CONTINUOUS
 62
    7
 10
348.51795824097132
 20
709.60583080108051
 11
358.17721650386198
 21
712.19402125210581
  0
LINE
  8
_0-5_寸法線
  6
CONTINUOUS
 62
    7
 10
348.51795824097132
 20
709.60583080108051
 11
358.17721650386198
 21
707.01764035005544
  0
LINE
  8
_0-5_寸法線
  6
CONTINUOUS
 62
    7
 10
355.5179582409711
 20
669.60583080108051
 11
355.5179582409711
 21
714.60583080108051
  0
LINE
  8
_0-5_寸法線
  6
CONTINUOUS
 62
    7
 10
355.5179582409711
 20
709.60583080108051
 11
345.85869997808038
 21
707.01764035005544
  0
LINE
  8
_0-5_寸法線
  6
CONTINUOUS
 62
    7
 10
355.5179582409711
 20
709.60583080108051
 11
345.85869997808049
 21
712.19402125210581
  0
LINE
  8
_0-5_寸法線
  6
CONTINUOUS
 62
    7
 10
348.51795824097132
 20
709.60583080108051
 11
355.5179582409711
 21
709.60583080108051
  0
TEXT
  8
_0-5_寸法線
 62
    7
 10
349.99630216025247
 20
709.60583080108051
 40
15
 41
1
 50
0
  1
7
  0
LINE
  8
_0-5_寸法線
  6
CONTINUOUS
 62
    7
 10
355.5179582409711
 20
709.60583080108051
 11
365.17721650386187
 21
712.19402125210581
  0
LINE
  8
_0-5_寸法線
  6
CONTINUOUS
 62
    7
 10
355.5179582409711
 20
709.60583080108051
 11
365.17721650386181
 21
707.01764035005522
  0
LINE
  8
_0-5_寸法線
  6
CONTINUOUS
 62
    7
 10
452.51795824097138
 20
669.60583080108051
 11
452.51795824097138
 21
714.60583080108051
  0
LINE
  8
_0-5_寸法線
  6
CONTINUOUS
 62
    7
 10
452.51795824097138
 20
709.60583080108051
 11
442.85869997808061
 21
707.01764035005544
  0
LINE
  8
_0-5_寸法線
  6
CONTINUOUS
 62
    7
 10
452.51795824097138
 20
709.60583080108051
 11
442.85869997808072
 21
712.19402125210581
  0
LINE
  8
_0-5_寸法線
  6
CONTINUOUS
 62
    7
 10
355.5179582409711
 20
709.60583080108051
 11
452.51795824097138
 21
709.60583080108051
  0
TEXT
  8
_0-5_寸法線
 62
    7
 10
396.51795824097132
 20
709.6058308010804
 40
15
 41
1
 50
0
  1
97
  0
LINE
  8
_0-5_寸法線
  6
CONTINUOUS
 62
    7
 10
452.51795824097138
 20
709.60583080108051
 11
462.1772165038621
 21
712.19402125210581
  0
LINE
  8
_0-5_寸法線
  6
CONTINUOUS
 62
    7
 10
452.51795824097138
 20
709.60583080108051
 11
462.17721650386204
 21
707.01764035005522
  0
LINE
  8
_0-5_寸法線
  6
CONTINUOUS
 62
    7
 10
541.51795824097132
 20
669.60583080108051
 11
541.51795824097132
 21
714.60583080108051
  0
LINE
  8
_0-5_寸法線
  6
CONTINUOUS
 62
    7
 10
541.51795824097132
 20
709.60583080108051
 11
531.85869997808061
 21
707.01764035005544
  0
LINE
  8
_0-5_寸法線
  6
CONTINUOUS
 62
    7
 10
541.51795824097132
 20
709.60583080108051
 11
531.85869997808061
 21
712.19402125210581
  0
LINE
  8
_0-5_寸法線
  6
CONTINUOUS
 62
    7
 10
452.51795824097138
 20
709.60583080108051
 11
541.51795824097132
 21
709.60583080108051
  0
TEXT
  8
_0-5_寸法線
 62
    7
 10
489.51795824097132
 20
709.6058308010804
 40
15
 41
1
 50
0
  1
89
  0
LINE
  8
_0-5_寸法線
  6
CONTINUOUS
 62
    7
 10
541.51795824097132
 20
709.60583080108051
 11
551.17721650386204
 21
712.19402125210581
  0
LINE
  8
_0-5_寸法線
  6
CONTINUOUS
 62
    7
 10
541.51795824097132
 20
709.60583080108051
 11
551.17721650386204
 21
707.01764035005522
  0
LINE
  8
_0-5_寸法線
  6
CONTINUOUS
 62
    7
 10
548.51795824097144
 20
669.60583080108051
 11
548.51795824097144
 21
714.60583080108051
  0
LINE
  8
_0-5_寸法線
  6
CONTINUOUS
 62
    7
 10
548.51795824097144
 20
709.60583080108051
 11
538.85869997808061
 21
707.01764035005544
  0
LINE
  8
_0-5_寸法線
  6
CONTINUOUS
 62
    7
 10
548.51795824097144
 20
709.60583080108051
 11
538.85869997808061
 21
712.19402125210581
  0
LINE
  8
_0-5_寸法線
  6
CONTINUOUS
 62
    7
 10
541.51795824097132
 20
709.60583080108051
 11
548.51795824097144
 21
709.60583080108051
  0
TEXT
  8
_0-5_寸法線
 62
    7
 10
539.76555987772997
 20
709.60583080108051
 40
15
 41
1
 50
0
  1
7
  0
TEXT
  8
_0-5_寸法線
 62
    7
 10
580.99224833355834
 20
614.28734928754739
 40
15
 41
0.8000000000000001
 50
0
  1
ＧＲＳ－２５Ｋ２００
  0
ENDSEC
  0
EOF
