  0
SECTION
  2
HEADER
  9
$ACADVER
  1
AC1009
  9
$INSBASE
 10
0
 20
0
 30
0
  9
$EXTMIN
 10
0
 20
0
  9
$EXTMAX
 10
1485
 20
1050
  9
$LIMMIN
 10
0
 20
0
  9
$LIMMAX
 10
1485
 20
1050
  9
$LTSCALE
 40
5
  0
ENDSEC
  0
SECTION
  2
TABLES
  0
TABLE
  2
LTYPE
 70
     9
  0
LTYPE
  2
CONTINUOUS
 70
    64
  3
実線
 72
    65
 73
     0
 40
0.0
  0
LTYPE
  2
DASHED1
 70
    64
  3
--  --  --  --  --  --  --  --  
 72
    65
 73
     2
 40
2.5
 49
1.25
 49
-1.25
  0
LTYPE
  2
DASHED2
 70
    64
  3
----    ----    ----    ----    
 72
    65
 73
     2
 40
5.0
 49
2.5
 49
-2.5
  0
LTYPE
  2
DASHED3
 70
    64
  3
------  ------  ------  ------  
 72
    65
 73
     2
 40
5.0
 49
3.75
 49
-1.25
  0
LTYPE
  2
CENTER1
 70
    64
  3
----- - ----- - ----- - ----- - 
 72
    65
 73
     4
 40
10.0
 49
6.25
 49
-1.25
 49
1.25
 49
-1.25
  0
LTYPE
  2
CENTER2
 70
    64
  3
----------  --  ----------  --  
 72
    65
 73
     4
 40
20.0
 49
12.5
 49
-2.5
 49
2.5
 49
-2.5
  0
LTYPE
  2
PHANTOM1
 70
    64
  3
--- - - --- - - --- - - --- - - 
 72
    65
 73
     6
 40
10.0
 49
3.25
 49
-1.25
 49
1.25
 49
-1.25
 49
1.25
 49
-1.25
  0
LTYPE
  2
PHANTOM2
 70
    64
  3
--------  -  -  --------  -  -  
 72
    65
 73
     6
 40
20.0
 49
10.0
 49
-2.5
 49
1.25
 49
-2.5
 49
1.25
 49
-2.5
  0
LTYPE
  2
DOT
 70
    64
  3
-   -   -   -   -   -   -   -   
 72
    65
 73
     2
 40
2.5
 49
0.625
 49
-1.875
  0
LTYPE
  2
DUMMY
 70
    64
  3
ダミー
 72
    65
 73
     0
 40
0.0
  0
LTYPE
  2
RAND1
 70
    64
  3
ランダム線1
 72
    65
 73
     4
 40
10.0
 49
1.0
 49
-2.0
 49
3.0
 49
-4.0
  0
LTYPE
  2
RAND2
 70
    64
  3
ランダム線2
 72
    65
 73
     4
 40
14.0
 49
2.0
 49
-3.0
 49
4.0
 49
-5.0
  0
LTYPE
  2
RAND3
 70
    64
  3
ランダム線3
 72
    65
 73
     4
 40
18.0
 49
3.0
 49
-4.0
 49
5.0
 49
-6.0
  0
LTYPE
  2
RAND4
 70
    64
  3
ランダム線4
 72
    65
 73
     4
 40
22.0
 49
4.0
 49
-5.0
 49
6.0
 49
-7.0
  0
LTYPE
  2
RAND5
 70
    64
  3
ランダム線5
 72
    65
 73
     4
 40
26.0
 49
5.0
 49
-6.0
 49
7.0
 49
-8.0
  0
LTYPE
  2
LONG1
 70
    64
  3
----------  --  ----------  --  
 72
    65
 73
     4
 40
40.0
 49
32.5
 49
-2.5
 49
2.5
 49
-2.5
  0
LTYPE
  2
LONG2
 70
    64
  3
--------  -  -  --------  -  -  
 72
    65
 73
     6
 40
40.0
 49
30.0
 49
-2.5
 49
1.25
 49
-2.5
 49
1.25
 49
-2.5
  0
LTYPE
  2
LONG3
 70
    64
  3
+++++++++++++++..+++++++++++++++
 72
    65
 73
     2
 40
40.0
 49
37.5
 49
-2.5
  0
LTYPE
  2
LONG4
 70
    64
  3
+++++++++++++++..+++++++++++++++
 72
    65
 73
     2
 40
80.0
 49
75.0
 49
-5.0
  0
LTYPE
  2
LONG5
 70
    64
  3
----------  --  ----------  --  
 72
    65
 73
     4
 40
60.0
 49
37.5
 49
-7.5
 49
7.5
 49
-7.5
  0
LTYPE
  2
dashed
 70
   64
  3
-------   -------------   ------
 72
   65
 73
    2
 40
7.5
 49
6
 49
-1.5
  0
LTYPE
  2
dashed_spaced
 70
   64
  3
----        --------        ----
 72
   65
 73
    2
 40
12
 49
6
 49
-6
  0
LTYPE
  2
long_dashed_dotted
 70
   64
  3
------------- --- --------------
 72
   65
 73
    4
 40
15.25
 49
12
 49
-1.5
 49
0.25
 49
-1.5
  0
LTYPE
  2
long_dashed_double-dotted
 70
   64
  3
----------- --- --- ------------
 72
   65
 73
    6
 40
17
 49
12
 49
-1.5
 49
0.25
 49
-1.5
 49
0.25
 49
-1.5
  0
LTYPE
  2
long_dashed_triplicate-dotted
 70
   64
  3
--------- --- --- --- ----------
 72
   65
 73
    8
 40
18.75
 49
12
 49
-1.5
 49
0.25
 49
-1.5
 49
0.25
 49
-1.5
 49
0.25
 49
-1.5
  0
LTYPE
  2
dotted
 70
   64
  3
   -       -       -       -    
 72
   65
 73
    2
 40
1.75
 49
0.25
 49
-1.5
  0
LTYPE
  2
chain
 70
   64
  3
-------------- -- --------------
 72
   65
 73
    4
 40
18.5
 49
12
 49
-1.5
 49
3.5
 49
-1.5
  0
LTYPE
  2
chain_double_dash
 70
   64
  3
------------ -- -- -------------
 72
   65
 73
    6
 40
23.5
 49
12
 49
-1.5
 49
3.5
 49
-1.5
 49
3.5
 49
-1.5
  0
LTYPE
  2
dashed_dotted
 70
   64
  3
-----------     -     ----------
 72
   65
 73
    4
 40
9.25
 49
6
 49
-1.5
 49
0.25
 49
-1.5
  0
LTYPE
  2
double-dashed_dotted
 70
   64
  3
------   -----------   -   -----
 72
   65
 73
    6
 40
16.75
 49
6
 49
-1.5
 49
6
 49
-1.5
 49
0.25
 49
-1.5
  0
LTYPE
  2
dashed_double-dotted
 70
   64
  3
---------    -    -    ---------
 72
   65
 73
    6
 40
11
 49
6
 49
-1.5
 49
0.25
 49
-1.5
 49
0.25
 49
-1.5
  0
LTYPE
  2
double-dashed_double-dotted
 70
   64
  3
-----   ---------   -   -   ----
 72
   65
 73
    8
 40
18.5
 49
6
 49
-1.5
 49
6
 49
-1.5
 49
0.25
 49
-1.5
 49
0.25
 49
-1.5
  0
LTYPE
  2
dashed_triplicate-dotted
 70
   64
  3
-------    -    -    -    ------
 72
   65
 73
    8
 40
12.75
 49
6
 49
-1.5
 49
0.25
 49
-1.5
 49
0.25
 49
-1.5
 49
0.25
 49
-1.5
  0
LTYPE
  2
double-dashed_triplicate-dotted
 70
   64
  3
-----  ---------  -  -  -  -----
 72
   65
 73
   10
 40
20.25
 49
6
 49
-1.5
 49
6
 49
-1.5
 49
0.25
 49
-1.5
 49
0.25
 49
-1.5
 49
0.25
 49
-1.5
  0
LTYPE
  2
undefined
 70
   64
  3
--------------------------------
 72
   65
 73
    0
 40
0
  0
ENDTAB
  0
TABLE
  2
STYLE
  5
3
100
AcDbSymbolTable
 70
     1
  0
STYLE
  5
10
100
AcDbSymbolTableRecord
100
AcDbTextStyleTableRecord
  2
STANDARD
 70
     0
 40
0.0
 41
1.0
 50
0.0
 71
     0
 42
0.2
  3
txt
  4
bigfont.shx
  0
STYLE
  5
26
100
AcDbSymbolTableRecord
100
AcDbTextStyleTableRecord
  2
TATEGAKI
 70
    68
 40
0.0
 41
1.0
 50
0.0
 71
     0
 42
1.0
  3
txt
  4
bigfont.shx
  0
ENDTAB
  0
TABLE
  2
LAYER
 70
   10
  0
LAYER
  2
_0-0_計極細
 70
   64
 62
    7
  6
CONTINUOUS
  0
LAYER
  2
_0-1_計細線
 70
   64
 62
    7
  6
CONTINUOUS
  0
LAYER
  2
_0-5_寸法線
 70
   64
 62
    7
  6
CONTINUOUS
  0
LAYER
  2
_0-7_枠細線
 70
   64
 62
    7
  6
CONTINUOUS
  0
LAYER
  2
_0-8_枠中線
 70
   64
 62
    7
  6
CONTINUOUS
  0
LAYER
  2
_0-9_枠極太
 70
   64
 62
    7
  6
CONTINUOUS
  0
LAYER
  2
_0-a_極細3
 70
   64
 62
    7
  6
CONTINUOUS
  0
LAYER
  2
_0-b_細線3
 70
   64
 62
    7
  6
CONTINUOUS
  0
LAYER
  2
_0-d_寸法3
 70
   64
 62
    7
  6
CONTINUOUS
  0
LAYER
  2
ADD_LINE
 70
   64
 62
    7
  6
CONTINUOUS
  0
ENDTAB
  0
ENDSEC
  0
SECTION
  2
BLOCKS
  0
ENDSEC
  0
SECTION
  2
ENTITIES
  0
LINE
  8
_0-7_枠細線
  6
CONTINUOUS
 62
    5
 10
1185
 20
180
 11
1185
 21
100
  0
TEXT
  8
_0-7_枠細線
 62
    5
 10
937.5
 20
97.5
 40
17.5
 41
1
 50
0
  1
備考
  7
TATEGAKI
  0
TEXT
  8
_0-7_枠細線
 62
    5
 10
937.5
 20
137.5
 40
17.5
 41
1
 50
0
  1
品番
  7
TATEGAKI
  0
TEXT
  8
_0-7_枠細線
 62
    5
 10
937.5
 20
177.5
 40
17.5
 41
1
 50
0
  1
品名
  7
TATEGAKI
  0
LINE
  8
_0-7_枠細線
  6
CONTINUOUS
 62
    5
 10
1185
 20
140
 11
925
 21
140
  0
LINE
  8
_0-7_枠細線
  6
CONTINUOUS
 62
    5
 10
950
 20
180
 11
950
 21
60
  0
LINE
  8
_0-8_枠中線
  6
CONTINUOUS
 62
    5
 10
1425
 20
180
 11
925
 21
180
  0
LINE
  8
_0-8_枠中線
  6
CONTINUOUS
 62
    5
 10
925
 20
180
 11
925
 21
60
  0
LINE
  8
_0-7_枠細線
  6
CONTINUOUS
 62
    5
 10
1245
 20
180
 11
1245
 21
60
  0
TEXT
  8
_0-7_枠細線
 62
    5
 10
1192.5
 20
160
 40
15
 41
1
 50
0
  1
縮　尺
  0
LINE
  8
_0-7_枠細線
  6
CONTINUOUS
 62
    5
 10
1185
 20
155
 11
1245
 21
155
  0
LINE
  8
_0-7_枠細線
  6
CONTINUOUS
 62
    5
 10
1245
 20
100
 11
925
 21
100
  0
LINE
  8
_0-7_枠細線
  6
CONTINUOUS
 62
    5
 10
1425
 20
90
 11
1245
 21
90
  0
LINE
  8
_0-7_枠細線
  6
CONTINUOUS
 62
    5
 10
1245
 20
120
 11
1425
 21
120
  0
LINE
  8
_0-7_枠細線
  6
CONTINUOUS
 62
    5
 10
1425
 20
140
 11
1245
 21
140
  0
TEXT
  8
_0-7_枠細線
 62
    5
 10
1255
 20
147.5
 40
25
 41
0.8
 50
0
  1
株式会社シマブン
  0
TEXT
  8
_0-7_枠細線
 62
    5
 10
1252.5
 20
60
 40
15
 41
1
 50
0
  1
年月日
  0
TEXT
  8
_0-7_枠細線
 62
    5
 10
1252.5
 20
75
 40
15
 41
1
 50
0
  1
作　成
  0
TEXT
  8
_0-7_枠細線
 62
    5
 10
1256.25
 20
122.5
 40
15
 41
1
 50
0
  1
承 認
  0
LINE
  8
_0-7_枠細線
  6
CONTINUOUS
 62
    5
 10
1305
 20
140
 11
1305
 21
60
  0
TEXT
  8
_0-7_枠細線
 62
    5
 10
1316.25
 20
122.5
 40
15
 41
1
 50
0
  1
検 図
  0
LINE
  8
_0-7_枠細線
  6
CONTINUOUS
 62
    5
 10
1365
 20
140
 11
1365
 21
90
  0
TEXT
  8
_0-7_枠細線
 62
    5
 10
1375
 20
95
 40
20
 41
1
 50
0
  1
藤戸
  0
TEXT
  8
_0-7_枠細線
 62
    5
 10
1376.25
 20
122.5
 40
15
 41
1
 50
0
  1
設 計
  0
TEXT
  8
_0-7_枠細線
 62
    5
 10
1255
 20
95
 40
20
 41
1
 50
0
  1
隠塚
  0
TEXT
  8
_0-7_枠細線
 62
    5
 10
1315
 20
95
 40
20
 41
1
 50
0
  1
渋田
  0
TEXT
  8
_0-7_枠細線
 62
    5
 10
1193.9999999999998
 20
117.5
 40
20
 41
0.7000000000000001
 50
0
  1
１：５
  0
TEXT
  8
_0-7_枠細線
 62
    5
 10
960.5
 20
69.999999999999858
 40
20
 41
0.5999999999999998
 50
0
  1
品番・色については表参照のこと
  0
TEXT
  8
_0-7_枠細線
 62
    5
 10
1309.9999999999998
 20
67.499999999999929
 40
15.000000000000009
 41
0.6666666666666665
 50
0
  1
２０１０年０３月０１日
  0
TEXT
  8
_0-7_枠細線
 62
    5
 10
1128.5
 20
141.25
 40
20.000000000000007
 41
0.5999999999999998
 50
0
  1
集水マス
  0
LINE
  8
_0-7_枠細線
  6
CONTINUOUS
 62
    5
 10
1425
 20
942.5
 11
890
 21
942.5
  0
TEXT
  8
_0-7_枠細線
 62
    5
 10
895
 20
945
 40
12.5
 41
1
 50
0
  1
記号
  0
TEXT
  8
_0-7_枠細線
 62
    5
 10
996.875
 20
945
 40
12.5
 41
1
 50
0
  1
訂　 正　 記　 事
  0
TEXT
  8
_0-7_枠細線
 62
    5
 10
1181.25
 20
945
 40
12.5
 41
1
 50
0
  1
訂 正 年 月 日
  0
TEXT
  8
_0-7_枠細線
 62
    5
 10
1306.25
 20
945
 40
12.5
 41
1
 50
0
  1
備　　　　　考
  0
LINE
  8
_0-7_枠細線
  6
CONTINUOUS
 62
    5
 10
1425
 20
925
 11
890
 21
925
  0
TEXT
  8
_0-7_枠細線
 62
    5
 10
938.85037037037023
 20
927.5
 40
12.5
 41
1
 50
0
  1
品番・色記号変更
  0
TEXT
  8
_0-7_枠細線
 62
    5
 10
1180
 20
927.5
 40
12.5
 41
0.7199999999999999
 50
0
  1
２０１３．０３．１３
  0
LINE
  8
_0-7_枠細線
  6
CONTINUOUS
 62
    5
 10
1425
 20
907.5
 11
890
 21
907.5
  0
LINE
  8
_0-7_枠細線
  6
CONTINUOUS
 62
    5
 10
1425
 20
890
 11
890
 21
890
  0
TEXT
  8
_0-7_枠細線
 62
    5
 10
938.85037037037023
 20
910
 40
12.5
 41
1
 50
0
  1
クロスバーピッチ変更
  0
TEXT
  8
_0-7_枠細線
 62
    5
 10
938.85037037037023
 20
892.5
 40
12.5
 41
1
 50
0
  1
取外具形状変更
  0
TEXT
  8
_0-7_枠細線
 62
    5
 10
1180
 20
910
 40
12.5
 41
0.7199999999999999
 50
0
  1
２０１５．１１．２０
  0
LINE
  8
_0-7_枠細線
  6
CONTINUOUS
 62
    5
 10
915
 20
908.94233397174685
 11
907.5
 21
923.94233397174685
  0
LINE
  8
_0-7_枠細線
  6
CONTINUOUS
 62
    5
 10
900
 20
908.94233397174685
 11
915
 21
908.94233397174685
  0
LINE
  8
_0-7_枠細線
  6
CONTINUOUS
 62
    5
 10
907.5
 20
923.94233397174685
 11
900
 21
908.94233397174685
  0
TEXT
  8
_0-7_枠細線
 62
    5
 10
902.36515126814822
 20
908.63533172636664
 40
12.5
 41
0.8
 50
0
  1
１
  0
TEXT
  8
_0-7_枠細線
 62
    5
 10
902.36515126814822
 20
891.13533172636664
 40
12.5
 41
0.8
 50
0
  1
２
  0
LINE
  8
_0-7_枠細線
  6
CONTINUOUS
 62
    5
 10
1425
 20
872.5
 11
890
 21
872.5
  0
LINE
  8
_0-7_枠細線
  6
CONTINUOUS
 62
    5
 10
907.5
 20
906.44233397174685
 11
900
 21
891.44233397174685
  0
LINE
  8
_0-7_枠細線
  6
CONTINUOUS
 62
    5
 10
900
 20
891.44233397174685
 11
915
 21
891.44233397174685
  0
LINE
  8
_0-7_枠細線
  6
CONTINUOUS
 62
    5
 10
915
 20
891.44233397174685
 11
907.5
 21
906.44233397174685
  0
TEXT
  8
_0-7_枠細線
 62
    5
 10
902.36515126814822
 20
873.39465008156549
 40
12.5
 41
0.8
 50
0
  1
３
  0
TEXT
  8
_0-7_枠細線
 62
    5
 10
1180
 20
875
 40
12.5
 41
0.7199999999999999
 50
0
  1
２０１７．０４．０１
  0
LINE
  8
_0-7_枠細線
  6
CONTINUOUS
 62
    5
 10
915
 20
856.44233397174685
 11
907.5
 21
871.44233397174685
  0
LINE
  8
_0-7_枠細線
  6
CONTINUOUS
 62
    5
 10
900
 20
856.44233397174685
 11
915
 21
856.44233397174685
  0
LINE
  8
_0-7_枠細線
  6
CONTINUOUS
 62
    5
 10
907.5
 20
871.44233397174685
 11
900
 21
856.44233397174685
  0
TEXT
  8
_0-7_枠細線
 62
    5
 10
1180
 20
857.5
 40
12.5
 41
0.7199999999999999
 50
0
  1
２０１７．０４．０１
  0
TEXT
  8
_0-7_枠細線
 62
    5
 10
938.85037037037023
 20
857.5
 40
12.5
 41
1
 50
0
  1
ブラウン色（Ｃ）追加
  0
LINE
  8
_0-7_枠細線
  6
CONTINUOUS
 62
    5
 10
1425
 20
855
 11
890
 21
855
  0
LINE
  8
_0-7_枠細線
  6
CONTINUOUS
 62
    5
 10
907.5
 20
888.94233397174685
 11
900
 21
873.94233397174685
  0
LINE
  8
_0-7_枠細線
  6
CONTINUOUS
 62
    5
 10
900
 20
873.94233397174685
 11
915
 21
873.94233397174685
  0
LINE
  8
_0-7_枠細線
  6
CONTINUOUS
 62
    5
 10
915
 20
873.94233397174685
 11
907.5
 21
888.94233397174685
  0
TEXT
  8
_0-7_枠細線
 62
    5
 10
902.36515126814822
 20
855.49351400689704
 40
12.5
 41
0.8
 50
0
  1
４
  0
TEXT
  8
_0-7_枠細線
 62
    5
 10
938.85037037037023
 20
875
 40
12.5
 41
1
 50
0
  1
取外具形状変更
  0
TEXT
  8
_0-7_枠細線
 62
    5
 10
1180
 20
892.5
 40
12.5
 41
0.7199999999999999
 50
0
  1
２０１５．１１．２０
  0
LINE
  8
_0-9_枠極太
  6
CONTINUOUS
 62
    5
 10
60
 20
60
 11
60
 21
960
  0
LINE
  8
_0-9_枠極太
  6
CONTINUOUS
 62
    5
 10
60
 20
960
 11
1425
 21
960
  0
LINE
  8
_0-9_枠極太
  6
CONTINUOUS
 62
    5
 10
1425
 20
960
 11
1425
 21
60
  0
LINE
  8
_0-9_枠極太
  6
CONTINUOUS
 62
    5
 10
1425
 20
60
 11
60
 21
60
  0
LINE
  8
_0-7_枠細線
  6
CONTINUOUS
 62
    5
 10
915
 20
838.94233397174685
 11
907.5
 21
853.94233397174685
  0
LINE
  8
_0-7_枠細線
  6
CONTINUOUS
 62
    5
 10
900
 20
838.94233397174685
 11
915
 21
838.94233397174685
  0
LINE
  8
_0-7_枠細線
  6
CONTINUOUS
 62
    5
 10
907.5
 20
853.94233397174685
 11
900
 21
838.94233397174685
  0
LINE
  8
_0-7_枠細線
  6
CONTINUOUS
 62
    5
 10
1425
 20
837.5
 11
890
 21
837.5
  0
TEXT
  8
_0-7_枠細線
 62
    5
 10
1180
 20
840
 40
12.5
 41
0.7199999999999999
 50
0
  1
２０１９．０９．０１
  0
TEXT
  8
_0-7_枠細線
 62
    5
 10
902.36515126814822
 20
837.99351400689704
 40
12.5
 41
0.8
 50
0
  1
５
  0
TEXT
  8
_0-7_枠細線
 62
    5
 10
938.85037037037023
 20
840
 40
12.5
 41
1
 50
0
  1
アンカー材質･厚み変更
  0
TEXT
  8
_0-7_枠細線
 62
    5
 10
960.5
 20
109.99999999999993
 40
20.000000000000007
 41
0.5999999999999998
 50
0
  1
ＧＲＳ－２５Ｋ３００
  0
TEXT
  8
_0-7_枠細線
 62
    5
 10
960.5
 20
158.74999999999994
 40
20.000000000000007
 41
0.5999999999999998
 50
0
  1
セーフティグレーチングＨ２５タイプ
  0
LINE
  8
_0-1_計細線
  6
CONTINUOUS
 62
    3
 10
296.51795824097269
 20
402.6058308010804
 11
600.51795824097314
 21
402.6058308010804
  0
LINE
  8
_0-1_計細線
  6
CONTINUOUS
 62
    3
 10
296.51795824097269
 20
706.60583080108199
 11
296.51795824097269
 21
402.6058308010804
  0
LINE
  8
_0-1_計細線
  6
CONTINUOUS
 62
    3
 10
600.51795824097314
 20
402.6058308010804
 11
600.51795824097314
 21
706.60583080108199
  0
LINE
  8
_0-1_計細線
  6
CONTINUOUS
 62
    3
 10
600.51795824097314
 20
706.60583080108199
 11
296.51795824097269
 21
706.60583080108199
  0
LINE
  8
_0-1_計細線
  6
CONTINUOUS
 62
    3
 10
293.51795824097269
 20
399.60583080108046
 11
293.51795824097269
 21
709.60583080108211
  0
LINE
  8
_0-1_計細線
  6
CONTINUOUS
 62
    3
 10
293.51795824097269
 20
709.60583080108211
 11
603.51795824097314
 21
709.60583080108211
  0
LINE
  8
_0-1_計細線
  6
CONTINUOUS
 62
    3
 10
603.51795824097314
 20
709.60583080108211
 11
603.51795824097314
 21
399.60583080108046
  0
LINE
  8
_0-1_計細線
  6
CONTINUOUS
 62
    3
 10
603.51795824097314
 20
399.60583080108046
 11
293.51795824097269
 21
399.60583080108046
  0
LINE
  8
_0-1_計細線
  6
CONTINUOUS
 62
    3
 10
298.51795824097258
 20
568.8058308010809
 11
298.51795824097258
 21
557.40583080107945
  0
LINE
  8
_0-1_計細線
  6
CONTINUOUS
 62
    3
 10
298.51795824097258
 20
551.80583080107908
 11
298.51795824097258
 21
540.40583080107945
  0
LINE
  8
_0-0_計極細
  6
CONTINUOUS
 62
    2
 10
299.01795824097263
 20
500.80583080108278
 11
299.01795824097263
 21
506.40583080108314
  0
LINE
  8
_0-0_計極細
  6
CONTINUOUS
 62
    2
 10
312.01795824097258
 20
500.80583080108278
 11
312.01795824097258
 21
506.40583080108314
  0
LINE
  8
_0-0_計極細
  6
CONTINUOUS
 62
    2
 10
299.01795824097263
 20
517.80583080108272
 11
299.01795824097263
 21
523.40583080108308
  0
LINE
  8
_0-0_計極細
  6
CONTINUOUS
 62
    2
 10
312.01795824097258
 20
517.80583080108272
 11
312.01795824097258
 21
523.40583080108308
  0
LINE
  8
_0-0_計極細
  6
CONTINUOUS
 62
    2
 10
299.01795824097263
 20
540.40583080107945
 11
299.01795824097263
 21
534.80583080107908
  0
LINE
  8
_0-0_計極細
  6
CONTINUOUS
 62
    2
 10
312.01795824097258
 20
540.40583080107945
 11
312.01795824097258
 21
534.80583080107908
  0
LINE
  8
_0-0_計極細
  6
CONTINUOUS
 62
    2
 10
299.01795824097263
 20
557.40583080107945
 11
299.01795824097263
 21
551.80583080107908
  0
LINE
  8
_0-0_計極細
  6
CONTINUOUS
 62
    2
 10
312.01795824097258
 20
557.40583080107945
 11
312.01795824097258
 21
551.80583080107908
  0
LINE
  8
_0-0_計極細
  6
CONTINUOUS
 62
    2
 10
299.01795824097263
 20
574.40583080108036
 11
299.01795824097263
 21
568.8058308010809
  0
LINE
  8
_0-0_計極細
  6
CONTINUOUS
 62
    2
 10
312.01795824097258
 20
574.40583080108036
 11
312.01795824097258
 21
568.8058308010809
  0
LINE
  8
_0-0_計極細
  6
CONTINUOUS
 62
    2
 10
299.01795824097263
 20
591.40583080108127
 11
299.01795824097263
 21
585.8058308010809
  0
LINE
  8
_0-0_計極細
  6
CONTINUOUS
 62
    2
 10
312.01795824097258
 20
591.40583080108127
 11
312.01795824097258
 21
585.8058308010809
  0
LINE
  8
_0-0_計極細
  6
CONTINUOUS
 62
    2
 10
299.01795824097263
 20
608.40583080108127
 11
299.01795824097263
 21
602.80583080108181
  0
LINE
  8
_0-0_計極細
  6
CONTINUOUS
 62
    2
 10
312.01795824097258
 20
608.40583080108127
 11
312.01795824097258
 21
602.80583080108181
  0
LINE
  8
_0-0_計極細
  6
CONTINUOUS
 62
    2
 10
299.01795824097263
 20
693.20583080108054
 11
299.01795824097263
 21
687.8058308010809
  0
LINE
  8
_0-0_計極細
  6
CONTINUOUS
 62
    2
 10
312.01795824097258
 20
693.20583080108054
 11
312.01795824097258
 21
687.8058308010809
  0
LINE
  8
_0-0_計極細
  6
CONTINUOUS
 62
    2
 10
299.01795824097263
 20
416.00583080108163
 11
299.01795824097263
 21
421.40583080108127
  0
LINE
  8
_0-0_計極細
  6
CONTINUOUS
 62
    2
 10
312.01795824097258
 20
416.00583080108163
 11
312.01795824097258
 21
421.40583080108127
  0
LINE
  8
_0-0_計極細
  6
CENTER1
 62
    2
 10
305.51795824097258
 20
713.35655022554295
 11
305.51795824097258
 21
396.84800706006945
  0
LINE
  8
_0-0_計極細
  6
CONTINUOUS
 62
    2
 10
299.01795824097263
 20
625.40583080108127
 11
299.01795824097263
 21
619.8058308010809
  0
LINE
  8
_0-0_計極細
  6
CONTINUOUS
 62
    2
 10
312.01795824097258
 20
625.40583080108127
 11
312.01795824097258
 21
619.8058308010809
  0
LINE
  8
_0-0_計極細
  6
CONTINUOUS
 62
    2
 10
299.01795824097263
 20
642.40583080107956
 11
299.01795824097263
 21
636.80583080107999
  0
LINE
  8
_0-0_計極細
  6
CONTINUOUS
 62
    2
 10
312.01795824097258
 20
642.40583080107956
 11
312.01795824097258
 21
636.80583080107999
  0
LINE
  8
_0-0_計極細
  6
CONTINUOUS
 62
    2
 10
299.01795824097263
 20
659.40583080107945
 11
299.01795824097263
 21
653.80583080107908
  0
LINE
  8
_0-0_計極細
  6
CONTINUOUS
 62
    2
 10
312.01795824097258
 20
659.40583080107945
 11
312.01795824097258
 21
653.80583080107908
  0
LINE
  8
_0-0_計極細
  6
CONTINUOUS
 62
    2
 10
299.01795824097263
 20
676.40583080107763
 11
299.01795824097263
 21
670.80583080107817
  0
LINE
  8
_0-0_計極細
  6
CONTINUOUS
 62
    2
 10
312.01795824097258
 20
676.40583080107763
 11
312.01795824097258
 21
670.80583080107817
  0
LINE
  8
_0-0_計極細
  6
CONTINUOUS
 62
    2
 10
299.01795824097263
 20
483.80583080108272
 11
299.01795824097263
 21
489.40583080108217
  0
LINE
  8
_0-0_計極細
  6
CONTINUOUS
 62
    2
 10
312.01795824097258
 20
483.80583080108272
 11
312.01795824097258
 21
489.40583080108217
  0
LINE
  8
_0-0_計極細
  6
CONTINUOUS
 62
    2
 10
299.01795824097263
 20
466.80583080108278
 11
299.01795824097263
 21
472.40583080108308
  0
LINE
  8
_0-0_計極細
  6
CONTINUOUS
 62
    2
 10
312.01795824097258
 20
466.80583080108278
 11
312.01795824097258
 21
472.40583080108308
  0
LINE
  8
_0-0_計極細
  6
CONTINUOUS
 62
    2
 10
299.01795824097263
 20
449.8058308010846
 11
299.01795824097263
 21
455.40583080108405
  0
LINE
  8
_0-0_計極細
  6
CONTINUOUS
 62
    2
 10
312.01795824097258
 20
449.8058308010846
 11
312.01795824097258
 21
455.40583080108405
  0
LINE
  8
_0-0_計極細
  6
CONTINUOUS
 62
    2
 10
299.01795824097263
 20
432.80583080108454
 11
299.01795824097263
 21
438.40583080108496
  0
LINE
  8
_0-0_計極細
  6
CONTINUOUS
 62
    2
 10
312.01795824097258
 20
432.80583080108454
 11
312.01795824097258
 21
438.40583080108496
  0
LINE
  8
_0-0_計極細
  6
CONTINUOUS
 62
    2
 10
396.01795824097258
 20
500.80583080108278
 11
396.01795824097258
 21
506.40583080108314
  0
LINE
  8
_0-0_計極細
  6
CONTINUOUS
 62
    2
 10
409.01795824097263
 20
500.80583080108278
 11
409.01795824097263
 21
506.40583080108314
  0
LINE
  8
_0-0_計極細
  6
CONTINUOUS
 62
    2
 10
396.01795824097258
 20
517.80583080108272
 11
396.01795824097258
 21
523.40583080108308
  0
LINE
  8
_0-0_計極細
  6
CONTINUOUS
 62
    2
 10
409.01795824097263
 20
517.80583080108272
 11
409.01795824097263
 21
523.40583080108308
  0
LINE
  8
_0-0_計極細
  6
CONTINUOUS
 62
    2
 10
396.01795824097258
 20
540.40583080107945
 11
396.01795824097258
 21
534.80583080107908
  0
LINE
  8
_0-0_計極細
  6
CONTINUOUS
 62
    2
 10
409.01795824097263
 20
540.40583080107945
 11
409.01795824097263
 21
534.80583080107908
  0
LINE
  8
_0-0_計極細
  6
CONTINUOUS
 62
    2
 10
396.01795824097258
 20
574.40583080108036
 11
396.01795824097258
 21
568.8058308010809
  0
LINE
  8
_0-0_計極細
  6
CONTINUOUS
 62
    2
 10
409.01795824097263
 20
574.40583080108036
 11
409.01795824097263
 21
568.8058308010809
  0
LINE
  8
_0-0_計極細
  6
CONTINUOUS
 62
    2
 10
396.01795824097258
 20
591.40583080108127
 11
396.01795824097258
 21
585.8058308010809
  0
LINE
  8
_0-0_計極細
  6
CONTINUOUS
 62
    2
 10
409.01795824097263
 20
591.40583080108127
 11
409.01795824097263
 21
585.8058308010809
  0
LINE
  8
_0-0_計極細
  6
CONTINUOUS
 62
    2
 10
396.01795824097258
 20
608.40583080108127
 11
396.01795824097258
 21
602.80583080108181
  0
LINE
  8
_0-0_計極細
  6
CONTINUOUS
 62
    2
 10
409.01795824097263
 20
608.40583080108127
 11
409.01795824097263
 21
602.80583080108181
  0
LINE
  8
_0-0_計極細
  6
CONTINUOUS
 62
    2
 10
396.01795824097258
 20
693.20583080108054
 11
396.01795824097258
 21
687.8058308010809
  0
LINE
  8
_0-0_計極細
  6
CONTINUOUS
 62
    2
 10
409.01795824097263
 20
693.20583080108054
 11
409.01795824097263
 21
687.8058308010809
  0
LINE
  8
_0-0_計極細
  6
CONTINUOUS
 62
    2
 10
396.01795824097258
 20
416.00583080108163
 11
396.01795824097258
 21
421.40583080108127
  0
LINE
  8
_0-0_計極細
  6
CONTINUOUS
 62
    2
 10
409.01795824097263
 20
416.00583080108163
 11
409.01795824097263
 21
421.40583080108127
  0
LINE
  8
_0-0_計極細
  6
CENTER1
 62
    2
 10
402.51795824097258
 20
713.35655022554295
 11
402.51795824097258
 21
396.84800706006945
  0
LINE
  8
_0-0_計極細
  6
CONTINUOUS
 62
    2
 10
396.01795824097258
 20
625.40583080108127
 11
396.01795824097258
 21
619.8058308010809
  0
LINE
  8
_0-0_計極細
  6
CONTINUOUS
 62
    2
 10
409.01795824097263
 20
625.40583080108127
 11
409.01795824097263
 21
619.8058308010809
  0
LINE
  8
_0-0_計極細
  6
CONTINUOUS
 62
    2
 10
396.01795824097258
 20
642.40583080107956
 11
396.01795824097258
 21
636.80583080107999
  0
LINE
  8
_0-0_計極細
  6
CONTINUOUS
 62
    2
 10
409.01795824097263
 20
642.40583080107956
 11
409.01795824097263
 21
636.80583080107999
  0
LINE
  8
_0-0_計極細
  6
CONTINUOUS
 62
    2
 10
396.01795824097258
 20
659.40583080107945
 11
396.01795824097258
 21
653.80583080107908
  0
LINE
  8
_0-0_計極細
  6
CONTINUOUS
 62
    2
 10
409.01795824097263
 20
659.40583080107945
 11
409.01795824097263
 21
653.80583080107908
  0
LINE
  8
_0-0_計極細
  6
CONTINUOUS
 62
    2
 10
396.01795824097258
 20
676.40583080107763
 11
396.01795824097258
 21
670.80583080107817
  0
LINE
  8
_0-0_計極細
  6
CONTINUOUS
 62
    2
 10
409.01795824097263
 20
676.40583080107763
 11
409.01795824097263
 21
670.80583080107817
  0
LINE
  8
_0-0_計極細
  6
CONTINUOUS
 62
    2
 10
396.01795824097258
 20
483.80583080108272
 11
396.01795824097258
 21
489.40583080108217
  0
LINE
  8
_0-0_計極細
  6
CONTINUOUS
 62
    2
 10
409.01795824097263
 20
483.80583080108272
 11
409.01795824097263
 21
489.40583080108217
  0
LINE
  8
_0-0_計極細
  6
CONTINUOUS
 62
    2
 10
396.01795824097258
 20
466.80583080108278
 11
396.01795824097258
 21
472.40583080108308
  0
LINE
  8
_0-0_計極細
  6
CONTINUOUS
 62
    2
 10
409.01795824097263
 20
466.80583080108278
 11
409.01795824097263
 21
472.40583080108308
  0
LINE
  8
_0-0_計極細
  6
CONTINUOUS
 62
    2
 10
396.01795824097258
 20
449.8058308010846
 11
396.01795824097258
 21
455.40583080108405
  0
LINE
  8
_0-0_計極細
  6
CONTINUOUS
 62
    2
 10
409.01795824097263
 20
449.8058308010846
 11
409.01795824097263
 21
455.40583080108405
  0
LINE
  8
_0-0_計極細
  6
CONTINUOUS
 62
    2
 10
396.01795824097258
 20
432.80583080108454
 11
396.01795824097258
 21
438.40583080108496
  0
LINE
  8
_0-0_計極細
  6
CONTINUOUS
 62
    2
 10
409.01795824097263
 20
432.80583080108454
 11
409.01795824097263
 21
438.40583080108496
  0
LINE
  8
_0-0_計極細
  6
CONTINUOUS
 62
    2
 10
396.01795824097258
 20
557.40583080107945
 11
396.01795824097258
 21
556.95583080108236
  0
LINE
  8
_0-0_計極細
  6
CONTINUOUS
 62
    2
 10
396.01795824097258
 20
552.25583080108163
 11
396.01795824097258
 21
551.80583080107908
  0
LINE
  8
_0-0_計極細
  6
CONTINUOUS
 62
    2
 10
409.01795824097263
 20
557.40583080107945
 11
409.01795824097263
 21
556.95583080108236
  0
LINE
  8
_0-0_計極細
  6
CONTINUOUS
 62
    2
 10
409.01795824097263
 20
552.25583080108163
 11
409.01795824097263
 21
551.80583080107908
  0
LINE
  8
_0-0_計極細
  6
CONTINUOUS
 62
    2
 10
488.01795824097263
 20
500.80583080108278
 11
488.01795824097263
 21
506.40583080108314
  0
LINE
  8
_0-0_計極細
  6
CONTINUOUS
 62
    2
 10
501.01795824097258
 20
500.80583080108278
 11
501.01795824097258
 21
506.40583080108314
  0
LINE
  8
_0-0_計極細
  6
CONTINUOUS
 62
    2
 10
488.01795824097263
 20
517.80583080108272
 11
488.01795824097263
 21
523.40583080108308
  0
LINE
  8
_0-0_計極細
  6
CONTINUOUS
 62
    2
 10
501.01795824097258
 20
517.80583080108272
 11
501.01795824097258
 21
523.40583080108308
  0
LINE
  8
_0-0_計極細
  6
CONTINUOUS
 62
    2
 10
488.01795824097263
 20
540.40583080107945
 11
488.01795824097263
 21
534.80583080107908
  0
LINE
  8
_0-0_計極細
  6
CONTINUOUS
 62
    2
 10
501.01795824097258
 20
540.40583080107945
 11
501.01795824097258
 21
534.80583080107908
  0
LINE
  8
_0-0_計極細
  6
CONTINUOUS
 62
    2
 10
488.01795824097263
 20
557.40583080107945
 11
488.01795824097263
 21
551.80583080107908
  0
LINE
  8
_0-0_計極細
  6
CONTINUOUS
 62
    2
 10
501.01795824097258
 20
557.40583080107945
 11
501.01795824097258
 21
551.80583080107908
  0
LINE
  8
_0-0_計極細
  6
CONTINUOUS
 62
    2
 10
488.01795824097263
 20
574.40583080108036
 11
488.01795824097263
 21
568.8058308010809
  0
LINE
  8
_0-0_計極細
  6
CONTINUOUS
 62
    2
 10
501.01795824097258
 20
574.40583080108036
 11
501.01795824097258
 21
568.8058308010809
  0
LINE
  8
_0-0_計極細
  6
CONTINUOUS
 62
    2
 10
488.01795824097263
 20
591.40583080108127
 11
488.01795824097263
 21
585.8058308010809
  0
LINE
  8
_0-0_計極細
  6
CONTINUOUS
 62
    2
 10
501.01795824097258
 20
591.40583080108127
 11
501.01795824097258
 21
585.8058308010809
  0
LINE
  8
_0-0_計極細
  6
CONTINUOUS
 62
    2
 10
488.01795824097263
 20
608.40583080108127
 11
488.01795824097263
 21
602.80583080108181
  0
LINE
  8
_0-0_計極細
  6
CONTINUOUS
 62
    2
 10
501.01795824097258
 20
608.40583080108127
 11
501.01795824097258
 21
602.80583080108181
  0
LINE
  8
_0-0_計極細
  6
CONTINUOUS
 62
    2
 10
488.01795824097263
 20
693.20583080108054
 11
488.01795824097263
 21
687.8058308010809
  0
LINE
  8
_0-0_計極細
  6
CONTINUOUS
 62
    2
 10
501.01795824097258
 20
693.20583080108054
 11
501.01795824097258
 21
687.8058308010809
  0
LINE
  8
_0-0_計極細
  6
CONTINUOUS
 62
    2
 10
488.01795824097263
 20
416.00583080108163
 11
488.01795824097263
 21
421.40583080108127
  0
LINE
  8
_0-0_計極細
  6
CONTINUOUS
 62
    2
 10
501.01795824097258
 20
416.00583080108163
 11
501.01795824097258
 21
421.40583080108127
  0
LINE
  8
_0-0_計極細
  6
CENTER1
 62
    2
 10
494.51795824097258
 20
713.35655022554295
 11
494.51795824097258
 21
396.84800706006945
  0
LINE
  8
_0-0_計極細
  6
CONTINUOUS
 62
    2
 10
488.01795824097263
 20
625.40583080108127
 11
488.01795824097263
 21
619.8058308010809
  0
LINE
  8
_0-0_計極細
  6
CONTINUOUS
 62
    2
 10
501.01795824097258
 20
625.40583080108127
 11
501.01795824097258
 21
619.8058308010809
  0
LINE
  8
_0-0_計極細
  6
CONTINUOUS
 62
    2
 10
488.01795824097263
 20
642.40583080107956
 11
488.01795824097263
 21
636.80583080107999
  0
LINE
  8
_0-0_計極細
  6
CONTINUOUS
 62
    2
 10
501.01795824097258
 20
642.40583080107956
 11
501.01795824097258
 21
636.80583080107999
  0
LINE
  8
_0-0_計極細
  6
CONTINUOUS
 62
    2
 10
488.01795824097263
 20
659.40583080107945
 11
488.01795824097263
 21
653.80583080107908
  0
LINE
  8
_0-0_計極細
  6
CONTINUOUS
 62
    2
 10
501.01795824097258
 20
659.40583080107945
 11
501.01795824097258
 21
653.80583080107908
  0
LINE
  8
_0-0_計極細
  6
CONTINUOUS
 62
    2
 10
488.01795824097263
 20
676.40583080107763
 11
488.01795824097263
 21
670.80583080107817
  0
LINE
  8
_0-0_計極細
  6
CONTINUOUS
 62
    2
 10
501.01795824097258
 20
676.40583080107763
 11
501.01795824097258
 21
670.80583080107817
  0
LINE
  8
_0-0_計極細
  6
CONTINUOUS
 62
    2
 10
488.01795824097263
 20
483.80583080108272
 11
488.01795824097263
 21
489.40583080108217
  0
LINE
  8
_0-0_計極細
  6
CONTINUOUS
 62
    2
 10
501.01795824097258
 20
483.80583080108272
 11
501.01795824097258
 21
489.40583080108217
  0
LINE
  8
_0-0_計極細
  6
CONTINUOUS
 62
    2
 10
488.01795824097263
 20
466.80583080108278
 11
488.01795824097263
 21
472.40583080108308
  0
LINE
  8
_0-0_計極細
  6
CONTINUOUS
 62
    2
 10
501.01795824097258
 20
466.80583080108278
 11
501.01795824097258
 21
472.40583080108308
  0
LINE
  8
_0-0_計極細
  6
CONTINUOUS
 62
    2
 10
488.01795824097263
 20
449.8058308010846
 11
488.01795824097263
 21
455.40583080108405
  0
LINE
  8
_0-0_計極細
  6
CONTINUOUS
 62
    2
 10
501.01795824097258
 20
449.8058308010846
 11
501.01795824097258
 21
455.40583080108405
  0
LINE
  8
_0-0_計極細
  6
CONTINUOUS
 62
    2
 10
488.01795824097263
 20
432.80583080108454
 11
488.01795824097263
 21
438.40583080108496
  0
LINE
  8
_0-0_計極細
  6
CONTINUOUS
 62
    2
 10
501.01795824097258
 20
432.80583080108454
 11
501.01795824097258
 21
438.40583080108496
  0
LINE
  8
_0-0_計極細
  6
CONTINUOUS
 62
    2
 10
585.01795824097258
 20
500.80583080108278
 11
585.01795824097258
 21
506.40583080108314
  0
LINE
  8
_0-0_計極細
  6
CONTINUOUS
 62
    2
 10
598.01795824097258
 20
500.80583080108278
 11
598.01795824097258
 21
506.40583080108314
  0
LINE
  8
_0-0_計極細
  6
CONTINUOUS
 62
    2
 10
585.01795824097258
 20
517.80583080108272
 11
585.01795824097258
 21
523.40583080108308
  0
LINE
  8
_0-0_計極細
  6
CONTINUOUS
 62
    2
 10
598.01795824097258
 20
517.80583080108272
 11
598.01795824097258
 21
523.40583080108308
  0
LINE
  8
_0-0_計極細
  6
CONTINUOUS
 62
    2
 10
585.01795824097258
 20
540.40583080107945
 11
585.01795824097258
 21
534.80583080107908
  0
LINE
  8
_0-0_計極細
  6
CONTINUOUS
 62
    2
 10
598.01795824097258
 20
540.40583080107945
 11
598.01795824097258
 21
534.80583080107908
  0
LINE
  8
_0-0_計極細
  6
CONTINUOUS
 62
    2
 10
585.01795824097258
 20
557.40583080107945
 11
585.01795824097258
 21
551.80583080107908
  0
LINE
  8
_0-0_計極細
  6
CONTINUOUS
 62
    2
 10
598.01795824097258
 20
557.40583080107945
 11
598.01795824097258
 21
551.80583080107908
  0
LINE
  8
_0-0_計極細
  6
CONTINUOUS
 62
    2
 10
585.01795824097258
 20
574.40583080108036
 11
585.01795824097258
 21
568.8058308010809
  0
LINE
  8
_0-0_計極細
  6
CONTINUOUS
 62
    2
 10
598.01795824097258
 20
574.40583080108036
 11
598.01795824097258
 21
568.8058308010809
  0
LINE
  8
_0-0_計極細
  6
CONTINUOUS
 62
    2
 10
585.01795824097258
 20
591.40583080108127
 11
585.01795824097258
 21
585.8058308010809
  0
LINE
  8
_0-0_計極細
  6
CONTINUOUS
 62
    2
 10
598.01795824097258
 20
591.40583080108127
 11
598.01795824097258
 21
585.8058308010809
  0
LINE
  8
_0-0_計極細
  6
CONTINUOUS
 62
    2
 10
585.01795824097258
 20
608.40583080108127
 11
585.01795824097258
 21
602.80583080108181
  0
LINE
  8
_0-0_計極細
  6
CONTINUOUS
 62
    2
 10
598.01795824097258
 20
608.40583080108127
 11
598.01795824097258
 21
602.80583080108181
  0
LINE
  8
_0-0_計極細
  6
CONTINUOUS
 62
    2
 10
585.01795824097258
 20
693.20583080108054
 11
585.01795824097258
 21
687.8058308010809
  0
LINE
  8
_0-0_計極細
  6
CONTINUOUS
 62
    2
 10
598.01795824097258
 20
693.20583080108054
 11
598.01795824097258
 21
687.8058308010809
  0
LINE
  8
_0-0_計極細
  6
CONTINUOUS
 62
    2
 10
585.01795824097258
 20
416.00583080108163
 11
585.01795824097258
 21
421.40583080108127
  0
LINE
  8
_0-0_計極細
  6
CONTINUOUS
 62
    2
 10
598.01795824097258
 20
416.00583080108163
 11
598.01795824097258
 21
421.40583080108127
  0
LINE
  8
_0-0_計極細
  6
CENTER1
 62
    2
 10
591.51795824097258
 20
713.35655022554295
 11
591.51795824097258
 21
396.84800706006945
  0
LINE
  8
_0-0_計極細
  6
CONTINUOUS
 62
    2
 10
585.01795824097258
 20
625.40583080108127
 11
585.01795824097258
 21
619.8058308010809
  0
LINE
  8
_0-0_計極細
  6
CONTINUOUS
 62
    2
 10
598.01795824097258
 20
625.40583080108127
 11
598.01795824097258
 21
619.8058308010809
  0
LINE
  8
_0-0_計極細
  6
CONTINUOUS
 62
    2
 10
585.01795824097258
 20
642.40583080107956
 11
585.01795824097258
 21
636.80583080107999
  0
LINE
  8
_0-0_計極細
  6
CONTINUOUS
 62
    2
 10
598.01795824097258
 20
642.40583080107956
 11
598.01795824097258
 21
636.80583080107999
  0
LINE
  8
_0-0_計極細
  6
CONTINUOUS
 62
    2
 10
585.01795824097258
 20
659.40583080107945
 11
585.01795824097258
 21
653.80583080107908
  0
LINE
  8
_0-0_計極細
  6
CONTINUOUS
 62
    2
 10
598.01795824097258
 20
659.40583080107945
 11
598.01795824097258
 21
653.80583080107908
  0
LINE
  8
_0-0_計極細
  6
CONTINUOUS
 62
    2
 10
585.01795824097258
 20
676.40583080107763
 11
585.01795824097258
 21
670.80583080107817
  0
LINE
  8
_0-0_計極細
  6
CONTINUOUS
 62
    2
 10
598.01795824097258
 20
676.40583080107763
 11
598.01795824097258
 21
670.80583080107817
  0
LINE
  8
_0-0_計極細
  6
CONTINUOUS
 62
    2
 10
585.01795824097258
 20
483.80583080108272
 11
585.01795824097258
 21
489.40583080108217
  0
LINE
  8
_0-0_計極細
  6
CONTINUOUS
 62
    2
 10
598.01795824097258
 20
483.80583080108272
 11
598.01795824097258
 21
489.40583080108217
  0
LINE
  8
_0-0_計極細
  6
CONTINUOUS
 62
    2
 10
585.01795824097258
 20
466.80583080108278
 11
585.01795824097258
 21
472.40583080108308
  0
LINE
  8
_0-0_計極細
  6
CONTINUOUS
 62
    2
 10
598.01795824097258
 20
466.80583080108278
 11
598.01795824097258
 21
472.40583080108308
  0
LINE
  8
_0-0_計極細
  6
CONTINUOUS
 62
    2
 10
585.01795824097258
 20
449.8058308010846
 11
585.01795824097258
 21
455.40583080108405
  0
LINE
  8
_0-0_計極細
  6
CONTINUOUS
 62
    2
 10
598.01795824097258
 20
449.8058308010846
 11
598.01795824097258
 21
455.40583080108405
  0
LINE
  8
_0-0_計極細
  6
CONTINUOUS
 62
    2
 10
585.01795824097258
 20
432.80583080108454
 11
585.01795824097258
 21
438.40583080108496
  0
LINE
  8
_0-0_計極細
  6
CONTINUOUS
 62
    2
 10
598.01795824097258
 20
432.80583080108454
 11
598.01795824097258
 21
438.40583080108496
  0
LINE
  8
_0-1_計細線
  6
CONTINUOUS
 62
    3
 10
598.51795824097258
 20
568.8058308010809
 11
598.51795824097258
 21
557.40583080107945
  0
LINE
  8
_0-1_計細線
  6
CONTINUOUS
 62
    3
 10
598.51795824097258
 20
551.80583080107908
 11
598.51795824097258
 21
540.40583080107945
  0
LINE
  8
_0-1_計細線
  6
CONTINUOUS
 62
    3
 10
298.51795824097258
 20
489.40583080108127
 11
598.51795824097258
 21
489.40583080108127
  0
LINE
  8
_0-1_計細線
  6
CONTINUOUS
 62
    3
 10
298.51795824097258
 20
500.80583080108278
 11
598.51795824097258
 21
500.80583080108278
  0
LINE
  8
_0-1_計細線
  6
CONTINUOUS
 62
    3
 10
298.51795824097258
 20
489.40583080108127
 11
298.51795824097258
 21
500.80583080108278
  0
LINE
  8
_0-1_計細線
  6
CONTINUOUS
 62
    3
 10
598.51795824097258
 20
489.40583080108127
 11
598.51795824097258
 21
500.80583080108278
  0
LINE
  8
_0-0_計極細
  6
CONTINUOUS
 62
    2
 10
298.51795824097258
 20
497.60583080108205
 11
598.51795824097258
 21
497.60583080108205
  0
LINE
  8
_0-0_計極細
  6
CONTINUOUS
 62
    2
 10
298.51795824097258
 20
492.60583080108205
 11
598.51795824097258
 21
492.60583080108205
  0
LINE
  8
_0-1_計細線
  6
CONTINUOUS
 62
    3
 10
298.51795824097258
 20
506.40583080108314
 11
598.51795824097258
 21
506.40583080108314
  0
LINE
  8
_0-1_計細線
  6
CONTINUOUS
 62
    3
 10
298.51795824097258
 20
517.80583080108272
 11
598.51795824097258
 21
517.80583080108272
  0
LINE
  8
_0-1_計細線
  6
CONTINUOUS
 62
    3
 10
298.51795824097258
 20
506.40583080108314
 11
298.51795824097258
 21
517.80583080108272
  0
LINE
  8
_0-1_計細線
  6
CONTINUOUS
 62
    3
 10
598.51795824097258
 20
506.40583080108314
 11
598.51795824097258
 21
517.80583080108272
  0
LINE
  8
_0-0_計極細
  6
CONTINUOUS
 62
    2
 10
298.51795824097258
 20
514.60583080108199
 11
598.51795824097258
 21
514.60583080108199
  0
LINE
  8
_0-0_計極細
  6
CONTINUOUS
 62
    2
 10
298.51795824097258
 20
509.60583080108199
 11
598.51795824097258
 21
509.60583080108199
  0
LINE
  8
_0-1_計細線
  6
CONTINUOUS
 62
    3
 10
298.51795824097258
 20
523.40583080108308
 11
598.51795824097258
 21
523.40583080108308
  0
LINE
  8
_0-1_計細線
  6
CONTINUOUS
 62
    3
 10
298.51795824097258
 20
534.80583080108363
 11
598.51795824097258
 21
534.80583080108363
  0
LINE
  8
_0-1_計細線
  6
CONTINUOUS
 62
    3
 10
298.51795824097258
 20
523.40583080108308
 11
298.51795824097258
 21
534.80583080108363
  0
LINE
  8
_0-1_計細線
  6
CONTINUOUS
 62
    3
 10
598.51795824097258
 20
523.40583080108308
 11
598.51795824097258
 21
534.80583080108363
  0
LINE
  8
_0-0_計極細
  6
CONTINUOUS
 62
    2
 10
298.51795824097258
 20
531.60583080108381
 11
598.51795824097258
 21
531.60583080108381
  0
LINE
  8
_0-0_計極細
  6
CONTINUOUS
 62
    2
 10
298.51795824097258
 20
526.60583080108381
 11
598.51795824097258
 21
526.60583080108381
  0
LINE
  8
_0-1_計細線
  6
CONTINUOUS
 62
    3
 10
298.51795824097258
 20
619.8058308010809
 11
598.51795824097258
 21
619.8058308010809
  0
LINE
  8
_0-1_計細線
  6
CONTINUOUS
 62
    3
 10
298.51795824097258
 20
608.40583080108036
 11
598.51795824097258
 21
608.40583080108036
  0
LINE
  8
_0-1_計細線
  6
CONTINUOUS
 62
    3
 10
298.51795824097258
 20
619.8058308010809
 11
298.51795824097258
 21
608.40583080108036
  0
LINE
  8
_0-1_計細線
  6
CONTINUOUS
 62
    3
 10
598.51795824097258
 20
619.8058308010809
 11
598.51795824097258
 21
608.40583080108036
  0
LINE
  8
_0-0_計極細
  6
CONTINUOUS
 62
    2
 10
298.51795824097258
 20
611.60583080108017
 11
598.51795824097258
 21
611.60583080108017
  0
LINE
  8
_0-0_計極細
  6
CONTINUOUS
 62
    2
 10
298.51795824097258
 20
616.60583080108017
 11
598.51795824097258
 21
616.60583080108017
  0
LINE
  8
_0-1_計細線
  6
CONTINUOUS
 62
    3
 10
298.51795824097258
 20
585.8058308010809
 11
598.51795824097258
 21
585.8058308010809
  0
LINE
  8
_0-1_計細線
  6
CONTINUOUS
 62
    3
 10
298.51795824097258
 20
574.40583080108036
 11
598.51795824097258
 21
574.40583080108036
  0
LINE
  8
_0-1_計細線
  6
CONTINUOUS
 62
    3
 10
298.51795824097258
 20
585.8058308010809
 11
298.51795824097258
 21
574.40583080108036
  0
LINE
  8
_0-1_計細線
  6
CONTINUOUS
 62
    3
 10
598.51795824097258
 20
585.8058308010809
 11
598.51795824097258
 21
574.40583080108036
  0
LINE
  8
_0-0_計極細
  6
CONTINUOUS
 62
    2
 10
298.51795824097258
 20
577.60583080108017
 11
598.51795824097258
 21
577.60583080108017
  0
LINE
  8
_0-0_計極細
  6
CONTINUOUS
 62
    2
 10
298.51795824097258
 20
582.60583080108017
 11
598.51795824097258
 21
582.60583080108017
  0
LINE
  8
_0-1_計細線
  6
CONTINUOUS
 62
    3
 10
298.51795824097258
 20
602.80583080108181
 11
598.51795824097258
 21
602.80583080108181
  0
LINE
  8
_0-1_計細線
  6
CONTINUOUS
 62
    3
 10
298.51795824097258
 20
591.40583080108127
 11
598.51795824097258
 21
591.40583080108127
  0
LINE
  8
_0-1_計細線
  6
CONTINUOUS
 62
    3
 10
298.51795824097258
 20
602.80583080108181
 11
298.51795824097258
 21
591.40583080108127
  0
LINE
  8
_0-1_計細線
  6
CONTINUOUS
 62
    3
 10
598.51795824097258
 20
602.80583080108181
 11
598.51795824097258
 21
591.40583080108127
  0
LINE
  8
_0-0_計極細
  6
CONTINUOUS
 62
    2
 10
298.51795824097258
 20
594.60583080108199
 11
598.51795824097258
 21
594.60583080108199
  0
LINE
  8
_0-0_計極細
  6
CONTINUOUS
 62
    2
 10
298.51795824097258
 20
599.60583080108199
 11
598.51795824097258
 21
599.60583080108199
  0
LINE
  8
_0-1_計細線
  6
CONTINUOUS
 62
    3
 10
298.51795824097258
 20
687.8058308010809
 11
598.51795824097258
 21
687.8058308010809
  0
LINE
  8
_0-1_計細線
  6
CONTINUOUS
 62
    3
 10
298.51795824097258
 20
676.40583080108127
 11
598.51795824097258
 21
676.40583080108127
  0
LINE
  8
_0-1_計細線
  6
CONTINUOUS
 62
    3
 10
298.51795824097258
 20
687.8058308010809
 11
298.51795824097258
 21
676.40583080108127
  0
LINE
  8
_0-1_計細線
  6
CONTINUOUS
 62
    3
 10
598.51795824097258
 20
687.8058308010809
 11
598.51795824097258
 21
676.40583080108127
  0
LINE
  8
_0-0_計極細
  6
CONTINUOUS
 62
    2
 10
298.51795824097258
 20
679.60583080108211
 11
598.51795824097258
 21
679.60583080108211
  0
LINE
  8
_0-0_計極細
  6
CONTINUOUS
 62
    2
 10
298.51795824097258
 20
684.60583080108211
 11
598.51795824097258
 21
684.60583080108211
  0
LINE
  8
_0-1_計細線
  6
CONTINUOUS
 62
    3
 10
298.51795824097258
 20
421.40583080108127
 11
598.51795824097258
 21
421.40583080108127
  0
LINE
  8
_0-1_計細線
  6
CONTINUOUS
 62
    3
 10
298.51795824097258
 20
432.80583080108096
 11
598.51795824097258
 21
432.80583080108096
  0
LINE
  8
_0-1_計細線
  6
CONTINUOUS
 62
    3
 10
298.51795824097258
 20
421.40583080108127
 11
298.51795824097258
 21
432.80583080108096
  0
LINE
  8
_0-1_計細線
  6
CONTINUOUS
 62
    3
 10
598.51795824097258
 20
421.40583080108127
 11
598.51795824097258
 21
432.80583080108096
  0
LINE
  8
_0-0_計極細
  6
CONTINUOUS
 62
    2
 10
298.51795824097258
 20
429.60583080108199
 11
598.51795824097258
 21
429.60583080108199
  0
LINE
  8
_0-0_計極細
  6
CONTINUOUS
 62
    2
 10
298.51795824097258
 20
424.60583080108199
 11
598.51795824097258
 21
424.60583080108199
  0
LINE
  8
_0-1_計細線
  6
CONTINUOUS
 62
    3
 10
298.51795824097258
 20
704.60583080108211
 11
598.51795824097258
 21
704.60583080108211
  0
LINE
  8
_0-1_計細線
  6
CONTINUOUS
 62
    3
 10
298.51795824097258
 20
693.20583080108054
 11
598.51795824097258
 21
693.20583080108054
  0
LINE
  8
_0-1_計細線
  6
CONTINUOUS
 62
    3
 10
298.51795824097258
 20
704.60583080108211
 11
298.51795824097258
 21
693.20583080108054
  0
LINE
  8
_0-1_計細線
  6
CONTINUOUS
 62
    3
 10
598.51795824097258
 20
704.60583080108211
 11
598.51795824097258
 21
693.20583080108054
  0
LINE
  8
_0-0_計極細
  6
CONTINUOUS
 62
    2
 10
298.51795824097258
 20
696.40583080108127
 11
598.51795824097258
 21
696.40583080108127
  0
LINE
  8
_0-0_計極細
  6
CONTINUOUS
 62
    2
 10
298.51795824097258
 20
701.40583080108127
 11
598.51795824097258
 21
701.40583080108127
  0
LINE
  8
_0-1_計細線
  6
CONTINUOUS
 62
    3
 10
298.51795824097258
 20
404.60583080108199
 11
598.51795824097258
 21
404.60583080108199
  0
LINE
  8
_0-1_計細線
  6
CONTINUOUS
 62
    3
 10
298.51795824097258
 20
416.0058308010826
 11
598.51795824097258
 21
416.0058308010826
  0
LINE
  8
_0-1_計細線
  6
CONTINUOUS
 62
    3
 10
298.51795824097258
 20
404.60583080108199
 11
298.51795824097258
 21
416.0058308010826
  0
LINE
  8
_0-1_計細線
  6
CONTINUOUS
 62
    3
 10
598.51795824097258
 20
404.60583080108199
 11
598.51795824097258
 21
416.0058308010826
  0
LINE
  8
_0-0_計極細
  6
CONTINUOUS
 62
    2
 10
298.51795824097258
 20
412.80583080108272
 11
598.51795824097258
 21
412.80583080108272
  0
LINE
  8
_0-0_計極細
  6
CONTINUOUS
 62
    2
 10
298.51795824097258
 20
407.80583080108272
 11
598.51795824097258
 21
407.80583080108272
  0
LINE
  8
_0-1_計細線
  6
CONTINUOUS
 62
    3
 10
298.51795824097258
 20
636.80583080107999
 11
598.51795824097258
 21
636.80583080107999
  0
LINE
  8
_0-1_計細線
  6
CONTINUOUS
 62
    3
 10
298.51795824097258
 20
625.40583080107945
 11
598.51795824097258
 21
625.40583080107945
  0
LINE
  8
_0-1_計細線
  6
CONTINUOUS
 62
    3
 10
298.51795824097258
 20
636.80583080107999
 11
298.51795824097258
 21
625.40583080107945
  0
LINE
  8
_0-1_計細線
  6
CONTINUOUS
 62
    3
 10
598.51795824097258
 20
636.80583080107999
 11
598.51795824097258
 21
625.40583080107945
  0
LINE
  8
_0-0_計極細
  6
CONTINUOUS
 62
    2
 10
298.51795824097258
 20
628.60583080108017
 11
598.51795824097258
 21
628.60583080108017
  0
LINE
  8
_0-0_計極細
  6
CONTINUOUS
 62
    2
 10
298.51795824097258
 20
633.60583080108017
 11
598.51795824097258
 21
633.60583080108017
  0
LINE
  8
_0-1_計細線
  6
CONTINUOUS
 62
    3
 10
298.51795824097258
 20
653.80583080107908
 11
598.51795824097258
 21
653.80583080107908
  0
LINE
  8
_0-1_計細線
  6
CONTINUOUS
 62
    3
 10
298.51795824097258
 20
642.40583080107854
 11
598.51795824097258
 21
642.40583080107854
  0
LINE
  8
_0-1_計細線
  6
CONTINUOUS
 62
    3
 10
298.51795824097258
 20
653.80583080107908
 11
298.51795824097258
 21
642.40583080107854
  0
LINE
  8
_0-1_計細線
  6
CONTINUOUS
 62
    3
 10
598.51795824097258
 20
653.80583080107908
 11
598.51795824097258
 21
642.40583080107854
  0
LINE
  8
_0-0_計極細
  6
CONTINUOUS
 62
    2
 10
298.51795824097258
 20
645.60583080107835
 11
598.51795824097258
 21
645.60583080107835
  0
LINE
  8
_0-0_計極細
  6
CONTINUOUS
 62
    2
 10
298.51795824097258
 20
650.60583080107835
 11
598.51795824097258
 21
650.60583080107835
  0
LINE
  8
_0-1_計細線
  6
CONTINUOUS
 62
    3
 10
298.51795824097258
 20
670.80583080107817
 11
598.51795824097258
 21
670.80583080107817
  0
LINE
  8
_0-1_計細線
  6
CONTINUOUS
 62
    3
 10
298.51795824097258
 20
659.40583080107774
 11
598.51795824097258
 21
659.40583080107774
  0
LINE
  8
_0-1_計細線
  6
CONTINUOUS
 62
    3
 10
298.51795824097258
 20
670.80583080107817
 11
298.51795824097258
 21
659.40583080107774
  0
LINE
  8
_0-1_計細線
  6
CONTINUOUS
 62
    3
 10
598.51795824097258
 20
670.80583080107817
 11
598.51795824097258
 21
659.40583080107774
  0
LINE
  8
_0-0_計極細
  6
CONTINUOUS
 62
    2
 10
298.51795824097258
 20
662.60583080107835
 11
598.51795824097258
 21
662.60583080107835
  0
LINE
  8
_0-0_計極細
  6
CONTINUOUS
 62
    2
 10
298.51795824097258
 20
667.60583080107835
 11
598.51795824097258
 21
667.60583080107835
  0
LINE
  8
_0-1_計細線
  6
CONTINUOUS
 62
    3
 10
298.51795824097258
 20
472.40583080108308
 11
598.51795824097258
 21
472.40583080108308
  0
LINE
  8
_0-1_計細線
  6
CONTINUOUS
 62
    3
 10
298.51795824097258
 20
483.80583080108363
 11
598.51795824097258
 21
483.80583080108363
  0
LINE
  8
_0-1_計細線
  6
CONTINUOUS
 62
    3
 10
298.51795824097258
 20
472.40583080108308
 11
298.51795824097258
 21
483.80583080108363
  0
LINE
  8
_0-1_計細線
  6
CONTINUOUS
 62
    3
 10
598.51795824097258
 20
472.40583080108308
 11
598.51795824097258
 21
483.80583080108363
  0
LINE
  8
_0-0_計極細
  6
CONTINUOUS
 62
    2
 10
298.51795824097258
 20
480.60583080108387
 11
598.51795824097258
 21
480.60583080108387
  0
LINE
  8
_0-0_計極細
  6
CONTINUOUS
 62
    2
 10
298.51795824097258
 20
475.60583080108387
 11
598.51795824097258
 21
475.60583080108387
  0
LINE
  8
_0-1_計細線
  6
CONTINUOUS
 62
    3
 10
298.51795824097258
 20
455.40583080108405
 11
598.51795824097258
 21
455.40583080108405
  0
LINE
  8
_0-1_計細線
  6
CONTINUOUS
 62
    3
 10
298.51795824097258
 20
466.80583080108454
 11
598.51795824097258
 21
466.80583080108454
  0
LINE
  8
_0-1_計細線
  6
CONTINUOUS
 62
    3
 10
298.51795824097258
 20
455.40583080108405
 11
298.51795824097258
 21
466.80583080108454
  0
LINE
  8
_0-1_計細線
  6
CONTINUOUS
 62
    3
 10
598.51795824097258
 20
455.40583080108405
 11
598.51795824097258
 21
466.80583080108454
  0
LINE
  8
_0-0_計極細
  6
CONTINUOUS
 62
    2
 10
298.51795824097258
 20
463.60583080108381
 11
598.51795824097258
 21
463.60583080108381
  0
LINE
  8
_0-0_計極細
  6
CONTINUOUS
 62
    2
 10
298.51795824097258
 20
458.60583080108381
 11
598.51795824097258
 21
458.60583080108381
  0
LINE
  8
_0-1_計細線
  6
CONTINUOUS
 62
    3
 10
298.51795824097258
 20
438.40583080108496
 11
598.51795824097258
 21
438.40583080108496
  0
LINE
  8
_0-1_計細線
  6
CONTINUOUS
 62
    3
 10
298.51795824097258
 20
449.80583080108545
 11
598.51795824097258
 21
449.80583080108545
  0
LINE
  8
_0-1_計細線
  6
CONTINUOUS
 62
    3
 10
298.51795824097258
 20
438.40583080108496
 11
298.51795824097258
 21
449.80583080108545
  0
LINE
  8
_0-1_計細線
  6
CONTINUOUS
 62
    3
 10
598.51795824097258
 20
438.40583080108496
 11
598.51795824097258
 21
449.80583080108545
  0
LINE
  8
_0-0_計極細
  6
CONTINUOUS
 62
    2
 10
298.51795824097258
 20
446.60583080108563
 11
598.51795824097258
 21
446.60583080108563
  0
LINE
  8
_0-0_計極細
  6
CONTINUOUS
 62
    2
 10
298.51795824097258
 20
441.60583080108563
 11
598.51795824097258
 21
441.60583080108563
  0
LINE
  8
_0-1_計細線
  6
CONTINUOUS
 62
    3
 10
298.51795824097258
 20
568.8058308010809
 11
598.51795824097258
 21
568.8058308010809
  0
LINE
  8
_0-0_計極細
  6
CONTINUOUS
 62
    2
 10
298.51795824097258
 20
560.60583080108017
 11
598.51795824097258
 21
560.60583080108017
  0
LINE
  8
_0-0_計極細
  6
CONTINUOUS
 62
    2
 10
298.51795824097258
 20
565.60583080108017
 11
598.51795824097258
 21
565.60583080108017
  0
LINE
  8
_0-1_計細線
  6
CONTINUOUS
 62
    3
 10
298.51795824097258
 20
540.40583080107945
 11
598.51795824097258
 21
540.40583080107945
  0
LINE
  8
_0-0_計極細
  6
CONTINUOUS
 62
    2
 10
298.51795824097258
 20
543.60583080107926
 11
598.51795824097258
 21
543.60583080107926
  0
LINE
  8
_0-0_計極細
  6
CONTINUOUS
 62
    2
 10
298.51795824097258
 20
548.60583080107926
 11
598.51795824097258
 21
548.60583080107926
  0
LINE
  8
_0-1_計細線
  6
CONTINUOUS
 62
    3
 10
298.51795824097258
 20
557.40583080107945
 11
598.51795824097258
 21
557.40583080107945
  0
LINE
  8
_0-1_計細線
  6
CONTINUOUS
 62
    3
 10
298.51795824097258
 20
551.80583080107908
 11
598.51795824097258
 21
551.80583080107908
  0
TEXT
  8
_0-5_寸法線
 62
    7
 10
170.07513345690569
 20
760.77290917875257
 40
15
 41
0.8000000000000001
 50
0
  1
(標準付属)
  0
TEXT
  8
_0-7_枠細線
 62
    5
 10
173.26828089237665
 20
794.71156294066373
 40
12.5
 41
0.8
 50
0
  1
２
  0
LINE
  8
_0-7_枠細線
  6
CONTINUOUS
 62
    5
 10
185.90312962422857
 20
795.0185651860445
 11
178.40312962422857
 21
810.0185651860445
  0
LINE
  8
_0-7_枠細線
  6
CONTINUOUS
 62
    5
 10
170.90312962422857
 20
795.0185651860445
 11
185.90312962422857
 21
795.0185651860445
  0
LINE
  8
_0-7_枠細線
  6
CONTINUOUS
 62
    5
 10
178.40312962422857
 20
810.0185651860445
 11
170.90312962422857
 21
795.0185651860445
  0
TEXT
  8
_0-7_枠細線
 62
    5
 10
192.16017472025285
 20
794.4184202185977
 40
12.5
 41
0.8
 50
0
  1
３
  0
LINE
  8
_0-7_枠細線
  6
CONTINUOUS
 62
    5
 10
197.29502345210477
 20
809.96610410877906
 11
189.79502345210477
 21
794.96610410877906
  0
LINE
  8
_0-7_枠細線
  6
CONTINUOUS
 62
    5
 10
189.79502345210477
 20
794.96610410877906
 11
204.79502345210477
 21
794.96610410877906
  0
LINE
  8
_0-7_枠細線
  6
CONTINUOUS
 62
    5
 10
204.79502345210477
 20
794.96610410877906
 11
197.29502345210477
 21
809.96610410877906
  0
LINE
  8
_0-5_寸法線
  6
CONTINUOUS
 62
    7
 10
408.00274603586502
 20
554.60583080108199
 11
400.02340249007727
 21
560.63327441992203
  0
LINE
  8
_0-5_寸法線
  6
CONTINUOUS
 62
    7
 10
408.00274603586502
 20
554.60583080108199
 11
404.10615362910949
 21
563.81542186776971
  0
LINE
  8
_0-5_寸法線
  6
CONTINUOUS
 62
    7
 10
408.00274603586502
 20
554.60583080108199
 11
233.98321839807195
 21
777.87594518801654
  0
LINE
  8
_0-5_寸法線
  6
CONTINUOUS
 62
    7
 10
233.98321839807195
 20
777.87594518801654
 11
173.98321839807195
 21
777.87594518801654
  0
TEXT
  8
_0-5_寸法線
 62
    7
 10
173.98321839807195
 20
777.87594518801654
 40
15
 41
0.8000000000000001
 50
0
  1
取　外　具
  0
LINE
  8
_0-7_枠細線
  6
CONTINUOUS
 62
    5
 10
924.99999999999989
 20
323.73000000000059
 11
1225.0000000000005
 21
323.73000000000059
  0
LINE
  8
_0-7_枠細線
  6
CONTINUOUS
 62
    5
 10
924.99999999999989
 20
348.73000000000047
 11
1225.0000000000005
 21
348.73000000000047
  0
LINE
  8
_0-7_枠細線
  6
CONTINUOUS
 62
    5
 10
924.99999999999989
 20
373.73000000000047
 11
1225.0000000000005
 21
373.73000000000047
  0
LINE
  8
_0-7_枠細線
  6
CONTINUOUS
 62
    5
 10
924.99999999999989
 20
398.73000000000076
 11
1225.0000000000005
 21
398.73000000000076
  0
TEXT
  8
_0-7_枠細線
 62
    5
 10
1048.0000000000005
 20
403.73000000000076
 40
15.000000000000002
 41
0.5999999999999999
 50
0
  1
ライトグレー
  0
LINE
  8
_0-7_枠細線
  6
CONTINUOUS
 62
    5
 10
924.99999999999989
 20
423.73000000000047
 11
1225.0000000000005
 21
423.73000000000047
  0
TEXT
  8
_0-7_枠細線
 62
    5
 10
1057.0000000000005
 20
428.73000000000047
 40
15.000000000000002
 41
0.5999999999999999
 50
0
  1
ベージュ
  0
LINE
  8
_0-7_枠細線
  6
CONTINUOUS
 62
    5
 10
924.99999999999989
 20
448.73000000000047
 11
1225.0000000000005
 21
448.73000000000047
  0
TEXT
  8
_0-7_枠細線
 62
    5
 10
1069.0000000000005
 20
453.73000000000047
 40
15.000000000000002
 41
0.8
 50
0
  1
色
  0
TEXT
  8
_0-7_枠細線
 62
    5
 10
951.00000000000045
 20
453.73000000000047
 40
15.000000000000002
 41
0.8
 50
0
  1
品　　番
  0
TEXT
  8
_0-7_枠細線
 62
    5
 10
1151.0000000000009
 20
453.73000000000047
 40
15.000000000000002
 41
0.8
 50
0
  1
備　　考
  0
LINE
  8
_0-7_枠細線
  6
CONTINUOUS
 62
    5
 10
924.99999999999989
 20
473.73000000000047
 11
1225.0000000000005
 21
473.73000000000047
  0
TEXT
  8
_0-7_枠細線
 62
    5
 10
1013.75
 20
478.73000000000047
 40
17.5
 41
1
 50
0
  1
品番表
  0
LINE
  8
_0-7_枠細線
  6
CONTINUOUS
 62
    5
 10
924.99999999999989
 20
248.73000000000033
 11
1225.0000000000005
 21
248.73000000000033
  0
LINE
  8
_0-7_枠細線
  6
CONTINUOUS
 62
    5
 10
924.99999999999989
 20
273.73000000000059
 11
1225.0000000000005
 21
273.73000000000059
  0
LINE
  8
_0-7_枠細線
  6
CONTINUOUS
 62
    5
 10
924.99999999999989
 20
298.7300000000007
 11
1225.0000000000005
 21
298.7300000000007
  0
TEXT
  8
_0-7_枠細線
 62
    5
 10
1057.0000000000009
 20
378.7300000000007
 40
15.000000000000002
 41
0.5999999999999999
 50
0
  1
ホワイト
  0
TEXT
  8
_0-7_枠細線
 62
    5
 10
1061.5000000000005
 20
353.73000000000047
 40
15.000000000000002
 41
0.5999999999999999
 50
0
  1
ピンク
  0
TEXT
  8
_0-7_枠細線
 62
    5
 10
1061.5000000000005
 20
328.73000000000047
 40
15.000000000000002
 41
0.5999999999999999
 50
0
  1
ブルー
  0
TEXT
  8
_0-7_枠細線
 62
    5
 10
1048
 20
303.73000000000059
 40
15.000000000000002
 41
0.5999999999999999
 50
0
  1
ダークグレー
  0
TEXT
  8
_0-7_枠細線
 62
    5
 10
1061.5000000000005
 20
278.7300000000007
 40
15.000000000000002
 41
0.5999999999999999
 50
0
  1
ウッド
  0
LINE
  8
_0-7_枠細線
  6
CONTINUOUS
 62
    5
 10
924.99999999999989
 20
223.73000000000002
 11
1225.0000000000005
 21
223.73000000000002
  0
TEXT
  8
_0-7_枠細線
 62
    5
 10
1057.0000000000009
 20
228.73000000000008
 40
15.000000000000002
 41
0.5999999999999999
 50
0
  1
ブラック
  0
LINE
  8
_0-7_枠細線
  6
CONTINUOUS
 62
    5
 10
1225.0000000000005
 20
473.73000000000047
 11
1225.0000000000005
 21
223.73000000000002
  0
LINE
  8
_0-7_枠細線
  6
CONTINUOUS
 62
    5
 10
1125
 20
473.73000000000047
 11
1125
 21
223.73000000000002
  0
LINE
  8
_0-7_枠細線
  6
CONTINUOUS
 62
    5
 10
1025.0000000000005
 20
473.73000000000047
 11
1025.0000000000005
 21
223.73000000000002
  0
LINE
  8
_0-7_枠細線
  6
CONTINUOUS
 62
    5
 10
924.99999999999989
 20
473.73000000000047
 11
924.99999999999989
 21
223.73000000000002
  0
TEXT
  8
_0-7_枠細線
 62
    5
 10
1057.0000000000005
 20
253.73000000000033
 40
15.000000000000002
 41
0.5999999999999999
 50
0
  1
ブラウン
  0
LINE
  8
_0-7_枠細線
  6
CONTINUOUS
 62
    5
 10
918.52762466555521
 20
254.30604122127349
 11
911.02762466555521
 21
269.30604122127352
  0
LINE
  8
_0-7_枠細線
  6
CONTINUOUS
 62
    5
 10
903.52762466555521
 20
254.30604122127349
 11
918.52762466555521
 21
254.30604122127349
  0
LINE
  8
_0-7_枠細線
  6
CONTINUOUS
 62
    5
 10
911.02762466555521
 20
269.30604122127352
 11
903.52762466555521
 21
254.30604122127349
  0
TEXT
  8
_0-7_枠細線
 62
    5
 10
905.89277593370343
 20
253.3572212564236
 40
12.5
 41
0.8
 50
0
  1
４
  0
LINE
  8
_0-7_枠細線
  6
CONTINUOUS
 62
    5
 10
1270.7300000000005
 20
393.73000000000059
 11
1270.7300000000005
 21
473.7300000000007
  0
TEXT
  8
_0-7_枠細線
 62
    5
 10
1293.2300000000007
 20
451.2300000000007
 40
15.000000000000002
 41
1
 50
0
  1
耐荷重
  0
TEXT
  8
_0-7_枠細線
 62
    5
 10
1285.7300000000007
 20
421.23000000000059
 40
15.000000000000002
 41
1
 50
0
  1
3.5kN/㎡
  0
TEXT
  8
_0-7_枠細線
 62
    5
 10
1278.2300000000005
 20
401.23000000000059
 40
15.000000000000002
 41
1
 50
0
  1
（歩道用）
  0
LINE
  8
_0-7_枠細線
  6
CONTINUOUS
 62
    5
 10
1360.7300000000007
 20
393.73000000000059
 11
1360.7300000000007
 21
473.7300000000007
  0
LINE
  8
_0-7_枠細線
  6
CONTINUOUS
 62
    5
 10
1270.7300000000005
 20
393.73000000000059
 11
1360.7300000000007
 21
393.73000000000059
  0
LINE
  8
_0-7_枠細線
  6
CONTINUOUS
 62
    5
 10
1270.7300000000005
 20
443.7300000000007
 11
1360.7300000000007
 21
443.7300000000007
  0
LINE
  8
_0-7_枠細線
  6
CONTINUOUS
 62
    5
 10
1270.7300000000005
 20
473.7300000000007
 11
1360.7300000000007
 21
473.7300000000007
  0
TEXT
  8
_0-7_枠細線
 62
    5
 10
930.00000000000045
 20
428.73000000000047
 40
15.000000000000002
 41
0.5
 50
0
  1
ＧＲＳ－２５Ｋ３００－Ｂ
  0
TEXT
  8
_0-7_枠細線
 62
    5
 10
930.00000000000045
 20
403.73000000000047
 40
15.000000000000002
 41
0.5
 50
0
  1
ＧＲＳ－２５Ｋ３００－Ｇ
  0
TEXT
  8
_0-7_枠細線
 62
    5
 10
930.00000000000045
 20
378.7300000000007
 40
15.000000000000002
 41
0.5
 50
0
  1
ＧＲＳ－２５Ｋ３００－Ｓ
  0
TEXT
  8
_0-7_枠細線
 62
    5
 10
930.00000000000045
 20
353.73000000000047
 40
15.000000000000002
 41
0.5
 50
0
  1
ＧＲＳ－２５Ｋ３００－Ｐ
  0
TEXT
  8
_0-7_枠細線
 62
    5
 10
930.00000000000045
 20
328.73000000000047
 40
15.000000000000002
 41
0.5
 50
0
  1
ＧＲＳ－２５Ｋ３００－Ａ
  0
TEXT
  8
_0-7_枠細線
 62
    5
 10
930.00000000000045
 20
303.73000000000059
 40
15.000000000000002
 41
0.5
 50
0
  1
ＧＲＳ－２５Ｋ３００－Ｄ
  0
TEXT
  8
_0-7_枠細線
 62
    5
 10
930.00000000000045
 20
278.7300000000007
 40
15.000000000000002
 41
0.5
 50
0
  1
ＧＲＳ－２５Ｋ３００－Ｍ
  0
TEXT
  8
_0-7_枠細線
 62
    5
 10
930.00000000000045
 20
253.73000000000036
 40
15.000000000000002
 41
0.5
 50
0
  1
ＧＲＳ－２５Ｋ３００－Ｃ
  0
TEXT
  8
_0-7_枠細線
 62
    5
 10
930.00000000000045
 20
228.73000000000008
 40
15.000000000000002
 41
0.5
 50
0
  1
ＧＲＳ－２５Ｋ３００－Ｋ
  0
LINE
  8
_0-5_寸法線
  6
CONTINUOUS
 62
    7
 10
293.51795824097269
 20
719.60583080108211
 11
293.51795824097286
 21
869.60583080108211
  0
LINE
  8
_0-5_寸法線
  6
CONTINUOUS
 62
    7
 10
293.51795824097286
 20
864.60583080108211
 11
303.17721650386352
 21
867.19402125210718
  0
LINE
  8
_0-5_寸法線
  6
CONTINUOUS
 62
    7
 10
293.51795824097286
 20
864.60583080108211
 11
303.17721650386352
 21
862.01764035005681
  0
LINE
  8
_0-5_寸法線
  6
CONTINUOUS
 62
    7
 10
603.51795824097314
 20
719.60583080108211
 11
603.51795824097348
 21
869.60583080108211
  0
LINE
  8
_0-5_寸法線
  6
CONTINUOUS
 62
    7
 10
603.51795824097348
 20
864.60583080108211
 11
593.85869997808277
 21
862.01764035005681
  0
LINE
  8
_0-5_寸法線
  6
CONTINUOUS
 62
    7
 10
603.51795824097348
 20
864.60583080108211
 11
593.85869997808277
 21
867.19402125210718
  0
LINE
  8
_0-5_寸法線
  6
CONTINUOUS
 62
    7
 10
293.51795824097286
 20
864.60583080108211
 11
603.51795824097348
 21
864.60583080108211
  0
TEXT
  8
_0-5_寸法線
 62
    7
 10
437.26795824097303
 20
864.60583080108177
 40
15
 41
1
 50
0
  1
310
  0
LINE
  8
_0-5_寸法線
  6
CONTINUOUS
 62
    7
 10
293.51795824097269
 20
829.60583080108211
 11
283.85869997808197
 21
827.01764035005681
  0
LINE
  8
_0-5_寸法線
  6
CONTINUOUS
 62
    7
 10
293.51795824097269
 20
829.60583080108211
 11
283.85869997808197
 21
832.19402125210718
  0
LINE
  8
_0-5_寸法線
  6
CONTINUOUS
 62
    7
 10
296.51795824097269
 20
719.60583080108211
 11
296.51795824097269
 21
834.60583080108211
  0
LINE
  8
_0-5_寸法線
  6
CONTINUOUS
 62
    7
 10
268.51795824097269
 20
829.60583080108211
 11
296.51795824097269
 21
829.60583080108211
  0
TEXT
  8
_0-5_寸法線
 62
    7
 10
272.4118819817059
 20
829.60583080108177
 40
15
 41
1
 50
0
  1
3
  0
LINE
  8
_0-5_寸法線
  6
CONTINUOUS
 62
    7
 10
296.51795824097269
 20
829.60583080108211
 11
306.17721650386341
 21
832.19402125210718
  0
LINE
  8
_0-5_寸法線
  6
CONTINUOUS
 62
    7
 10
296.51795824097269
 20
829.60583080108211
 11
306.17721650386335
 21
827.01764035005681
  0
LINE
  8
_0-5_寸法線
  6
CONTINUOUS
 62
    7
 10
600.51795824097314
 20
719.60583080108211
 11
600.51795824097348
 21
834.60583080108211
  0
LINE
  8
_0-5_寸法線
  6
CONTINUOUS
 62
    7
 10
600.51795824097348
 20
829.60583080108211
 11
590.85869997808277
 21
827.01764035005681
  0
LINE
  8
_0-5_寸法線
  6
CONTINUOUS
 62
    7
 10
600.51795824097348
 20
829.60583080108211
 11
590.85869997808277
 21
832.19402125210718
  0
LINE
  8
_0-5_寸法線
  6
CONTINUOUS
 62
    7
 10
296.51795824097269
 20
829.60583080108211
 11
600.51795824097348
 21
829.60583080108211
  0
TEXT
  8
_0-5_寸法線
 62
    7
 10
437.26795824097292
 20
829.60583080108177
 40
15
 41
1
 50
0
  1
304
  0
LINE
  8
_0-5_寸法線
  6
CONTINUOUS
 62
    7
 10
603.51795824097348
 20
829.60583080108211
 11
613.1772165038642
 21
832.19402125210718
  0
LINE
  8
_0-5_寸法線
  6
CONTINUOUS
 62
    7
 10
603.51795824097348
 20
829.60583080108211
 11
613.1772165038642
 21
827.01764035005681
  0
LINE
  8
_0-5_寸法線
  6
CONTINUOUS
 62
    7
 10
600.51795824097348
 20
829.60583080108211
 11
628.51795824097348
 21
829.60583080108211
  0
TEXT
  8
_0-5_寸法線
 62
    7
 10
617.68560460944309
 20
829.60583080108211
 40
15
 41
1
 50
0
  1
3
  0
LINE
  8
_0-5_寸法線
  6
CONTINUOUS
 62
    7
 10
298.51795824097258
 20
719.60583080108211
 11
298.51795824097269
 21
799.60583080108211
  0
LINE
  8
_0-5_寸法線
  6
CONTINUOUS
 62
    7
 10
298.51795824097269
 20
794.60583080108211
 11
308.17721650386329
 21
797.19402125210718
  0
LINE
  8
_0-5_寸法線
  6
CONTINUOUS
 62
    7
 10
298.51795824097269
 20
794.60583080108211
 11
308.17721650386329
 21
792.01764035005681
  0
LINE
  8
_0-5_寸法線
  6
CONTINUOUS
 62
    7
 10
598.51795824097258
 20
719.60583080108211
 11
598.51795824097269
 21
799.60583080108211
  0
LINE
  8
_0-5_寸法線
  6
CONTINUOUS
 62
    7
 10
598.51795824097269
 20
794.60583080108211
 11
588.85869997808197
 21
792.01764035005681
  0
LINE
  8
_0-5_寸法線
  6
CONTINUOUS
 62
    7
 10
598.51795824097269
 20
794.60583080108211
 11
588.85869997808197
 21
797.19402125210718
  0
LINE
  8
_0-5_寸法線
  6
CONTINUOUS
 62
    7
 10
298.51795824097269
 20
794.60583080108211
 11
598.51795824097269
 21
794.60583080108211
  0
TEXT
  8
_0-5_寸法線
 62
    7
 10
437.26795824097275
 20
794.60583080108211
 40
15
 41
1
 50
0
  1
300
  0
LINE
  8
_0-7_枠細線
  6
CONTINUOUS
 62
    5
 10
614.62302206321681
 20
778.92835803928324
 11
607.12302206321681
 21
763.92835803928324
  0
LINE
  8
_0-7_枠細線
  6
CONTINUOUS
 62
    5
 10
607.12302206321681
 20
763.92835803928324
 11
622.12302206321681
 21
763.92835803928324
  0
LINE
  8
_0-7_枠細線
  6
CONTINUOUS
 62
    5
 10
622.12302206321681
 20
763.92835803928324
 11
614.62302206321681
 21
778.92835803928324
  0
TEXT
  8
_0-7_枠細線
 62
    5
 10
611.98817333136492
 20
763.38067414910188
 40
12.5
 41
0.8
 50
0
  1
1
  0
LINE
  8
_0-5_寸法線
  6
CONTINUOUS
 62
    7
 10
298.51795824097269
 20
719.60583080108211
 11
298.51795824097269
 21
764.60583080108211
  0
LINE
  8
_0-5_寸法線
  6
CONTINUOUS
 62
    7
 10
298.51795824097269
 20
759.60583080108211
 11
308.17721650386329
 21
762.19402125210718
  0
LINE
  8
_0-5_寸法線
  6
CONTINUOUS
 62
    7
 10
298.51795824097269
 20
759.60583080108211
 11
308.17721650386329
 21
757.01764035005681
  0
LINE
  8
_0-5_寸法線
  6
CONTINUOUS
 62
    7
 10
305.51795824097269
 20
719.60583080108211
 11
305.51795824097269
 21
764.60583080108211
  0
LINE
  8
_0-5_寸法線
  6
CONTINUOUS
 62
    7
 10
305.51795824097269
 20
759.60583080108211
 11
295.85869997808203
 21
757.01764035005681
  0
LINE
  8
_0-5_寸法線
  6
CONTINUOUS
 62
    7
 10
305.51795824097269
 20
759.60583080108211
 11
295.85869997808203
 21
762.19402125210718
  0
LINE
  8
_0-5_寸法線
  6
CONTINUOUS
 62
    7
 10
298.51795824097269
 20
759.60583080108211
 11
305.51795824097269
 21
759.60583080108211
  0
TEXT
  8
_0-5_寸法線
 62
    7
 10
299.61998380333011
 20
759.60583080108211
 40
15
 41
1
 50
0
  1
7
  0
LINE
  8
_0-5_寸法線
  6
CONTINUOUS
 62
    7
 10
305.51795824097269
 20
759.60583080108211
 11
315.17721650386341
 21
762.19402125210718
  0
LINE
  8
_0-5_寸法線
  6
CONTINUOUS
 62
    7
 10
305.51795824097269
 20
759.60583080108211
 11
315.17721650386335
 21
757.01764035005669
  0
LINE
  8
_0-5_寸法線
  6
CONTINUOUS
 62
    7
 10
402.51795824097258
 20
719.60583080108211
 11
402.51795824097258
 21
764.60583080108211
  0
LINE
  8
_0-5_寸法線
  6
CONTINUOUS
 62
    7
 10
402.51795824097258
 20
759.60583080108211
 11
392.85869997808192
 21
757.01764035005681
  0
LINE
  8
_0-5_寸法線
  6
CONTINUOUS
 62
    7
 10
402.51795824097258
 20
759.60583080108211
 11
392.85869997808192
 21
762.19402125210718
  0
LINE
  8
_0-5_寸法線
  6
CONTINUOUS
 62
    7
 10
305.51795824097269
 20
759.60583080108211
 11
402.51795824097258
 21
759.60583080108211
  0
TEXT
  8
_0-5_寸法線
 62
    7
 10
346.51795824097258
 20
759.60583080108177
 40
15
 41
1
 50
0
  1
97
  0
LINE
  8
_0-5_寸法線
  6
CONTINUOUS
 62
    7
 10
402.51795824097258
 20
759.60583080108211
 11
412.17721650386329
 21
762.19402125210718
  0
LINE
  8
_0-5_寸法線
  6
CONTINUOUS
 62
    7
 10
402.51795824097258
 20
759.60583080108211
 11
412.17721650386324
 21
757.01764035005669
  0
LINE
  8
_0-5_寸法線
  6
CONTINUOUS
 62
    7
 10
494.51795824097258
 20
719.60583080108211
 11
494.51795824097258
 21
764.60583080108211
  0
LINE
  8
_0-5_寸法線
  6
CONTINUOUS
 62
    7
 10
494.51795824097258
 20
759.60583080108211
 11
484.85869997808186
 21
757.01764035005681
  0
LINE
  8
_0-5_寸法線
  6
CONTINUOUS
 62
    7
 10
494.51795824097258
 20
759.60583080108211
 11
484.85869997808197
 21
762.19402125210718
  0
LINE
  8
_0-5_寸法線
  6
CONTINUOUS
 62
    7
 10
402.51795824097258
 20
759.60583080108211
 11
494.51795824097258
 21
759.60583080108211
  0
TEXT
  8
_0-5_寸法線
 62
    7
 10
441.01795824097258
 20
759.60583080108177
 40
15
 41
1
 50
0
  1
92
  0
LINE
  8
_0-5_寸法線
  6
CONTINUOUS
 62
    7
 10
494.51795824097258
 20
759.60583080108211
 11
504.17721650386335
 21
762.19402125210718
  0
LINE
  8
_0-5_寸法線
  6
CONTINUOUS
 62
    7
 10
494.51795824097258
 20
759.60583080108211
 11
504.17721650386329
 21
757.01764035005669
  0
LINE
  8
_0-5_寸法線
  6
CONTINUOUS
 62
    7
 10
591.51795824097269
 20
719.60583080108211
 11
591.51795824097269
 21
764.60583080108211
  0
LINE
  8
_0-5_寸法線
  6
CONTINUOUS
 62
    7
 10
591.51795824097269
 20
759.60583080108211
 11
581.85869997808197
 21
757.01764035005681
  0
LINE
  8
_0-5_寸法線
  6
CONTINUOUS
 62
    7
 10
591.51795824097269
 20
759.60583080108211
 11
581.85869997808197
 21
762.19402125210718
  0
LINE
  8
_0-5_寸法線
  6
CONTINUOUS
 62
    7
 10
494.51795824097258
 20
759.60583080108211
 11
591.51795824097269
 21
759.60583080108211
  0
TEXT
  8
_0-5_寸法線
 62
    7
 10
535.51795824097269
 20
759.60583080108177
 40
15
 41
1
 50
0
  1
97
  0
LINE
  8
_0-5_寸法線
  6
CONTINUOUS
 62
    7
 10
591.51795824097269
 20
759.60583080108211
 11
601.17721650386341
 21
762.19402125210718
  0
LINE
  8
_0-5_寸法線
  6
CONTINUOUS
 62
    7
 10
591.51795824097269
 20
759.60583080108211
 11
601.17721650386341
 21
757.01764035005669
  0
LINE
  8
_0-5_寸法線
  6
CONTINUOUS
 62
    7
 10
598.51795824097269
 20
719.60583080108211
 11
598.5179582409728
 21
764.60583080108211
  0
LINE
  8
_0-5_寸法線
  6
CONTINUOUS
 62
    7
 10
598.5179582409728
 20
759.60583080108211
 11
588.85869997808209
 21
757.01764035005681
  0
LINE
  8
_0-5_寸法線
  6
CONTINUOUS
 62
    7
 10
598.5179582409728
 20
759.60583080108211
 11
588.85869997808209
 21
762.19402125210718
  0
LINE
  8
_0-5_寸法線
  6
CONTINUOUS
 62
    7
 10
591.51795824097269
 20
759.60583080108211
 11
598.5179582409728
 21
759.60583080108211
  0
TEXT
  8
_0-5_寸法線
 62
    7
 10
589.69989063578032
 20
759.60583080108211
 40
15
 41
1
 50
0
  1
7
  0
LINE
  8
_0-7_枠細線
  6
CONTINUOUS
 62
    5
 10
223.50900731560102
 20
794.96610410877906
 11
216.00900731560102
 21
809.96610410877906
  0
LINE
  8
_0-7_枠細線
  6
CONTINUOUS
 62
    5
 10
208.50900731560102
 20
794.96610410877906
 11
223.50900731560102
 21
794.96610410877906
  0
LINE
  8
_0-7_枠細線
  6
CONTINUOUS
 62
    5
 10
216.00900731560102
 20
809.96610410877906
 11
208.50900731560102
 21
794.96610410877906
  0
TEXT
  8
_0-7_枠細線
 62
    5
 10
210.87415858374911
 20
794.4184202185977
 40
12.5
 41
0.8
 50
0
  1
６
  0
TEXT
  8
_0-7_枠細線
 62
    5
 10
938.85037037037023
 20
822.5
 40
12.5
 41
1
 50
0
  1
取外具形状変更
  0
LINE
  8
_0-7_枠細線
  6
CONTINUOUS
 62
    5
 10
907.5
 20
836.44233397174673
 11
900
 21
821.44233397174673
  0
LINE
  8
_0-7_枠細線
  6
CONTINUOUS
 62
    5
 10
900
 20
821.44233397174673
 11
915
 21
821.44233397174673
  0
LINE
  8
_0-7_枠細線
  6
CONTINUOUS
 62
    5
 10
915
 20
821.44233397174673
 11
907.5
 21
836.44233397174673
  0
TEXT
  8
_0-7_枠細線
 62
    5
 10
902.36515126814822
 20
821.13533172636653
 40
12.5
 41
0.8
 50
0
  1
６
  0
TEXT
  8
_0-7_枠細線
 62
    5
 10
1180
 20
822.5
 40
12.5
 41
0.7199999999999999
 50
0
  1
２０２１．０５．０６
  0
LINE
  8
_0-7_枠細線
  6
CONTINUOUS
 62
    5
 10
1425
 20
820
 11
890
 21
820
  0
LINE
  8
_0-0_計極細
  6
CONTINUOUS
 62
    2
 10
1286.0734832401815
 20
656.66021900100668
 11
1293.0734828641082
 21
663.66021862493335
  0
LINE
  8
_0-0_計極細
  6
CONTINUOUS
 62
    2
 10
1273.345561178824
 20
656.66021900100668
 11
1280.3455609023194
 21
663.66021872450233
  0
LINE
  8
_0-0_計極細
  6
CONTINUOUS
 62
    2
 10
1260.6176391174658
 20
656.66021900100668
 11
1267.6176389405309
 21
663.66021882407153
  0
LINE
  8
_0-0_計極細
  6
CONTINUOUS
 62
    2
 10
1247.8897170561086
 20
656.66021900100668
 11
1254.8897169787424
 21
663.66021892364074
  0
LINE
  8
_0-0_計極細
  6
DASHED2
 62
    2
 10
1292.4374442708606
 20
656.66021900100668
 11
1298.5066482870689
 21
662.72942301721446
  0
LINE
  8
_0-0_計極細
  6
DASHED2
 62
    2
 10
1279.7095222095031
 20
656.66021900100668
 11
1286.7095218832137
 21
663.66021867471773
  0
LINE
  8
_0-0_計極細
  6
DASHED2
 62
    2
 10
1266.9816001481449
 20
656.66021900100668
 11
1273.9815999214252
 21
663.66021877428682
  0
LINE
  8
_0-0_計極細
  6
DASHED2
 62
    2
 10
1254.2536780867867
 20
656.66021900100668
 11
1261.2536779596358
 21
663.66021887385602
  0
LINE
  8
_0-0_計極細
  6
DASHED2
 62
    2
 10
1244.9999999999991
 20
660.13446297557743
 11
1248.5257559978472
 21
663.66021897342523
  0
LINE
  8
_0-0_計極細
  6
CONTINUOUS
 62
    2
 10
1244.9999999999991
 20
658.8616707694415
 11
1242.7985482315644
 21
656.66021900100668
  0
LINE
  8
_0-0_計極細
  6
CONTINUOUS
 62
    2
 10
1244.9999999999991
 20
661.4072551817128
 11
1240.2529638192937
 21
656.66021900100668
  0
LINE
  8
_0-0_計極細
  6
CONTINUOUS
 62
    2
 10
1240
 20
658.95283959398466
 11
1244.707379407022
 21
663.66021900100691
  0
LINE
  8
_0-0_計極細
  6
CONTINUOUS
 62
    2
 10
1240
 20
661.49842400625619
 11
1242.1617949947504
 21
663.66021900100645
  0
LINE
  8
_0-0_計極細
  6
CONTINUOUS
 62
    2
 10
1245
 20
662.75462567530349
 11
1244.0944066742968
 21
663.66021900100691
  0
LINE
  8
_0-0_計極細
  6
CONTINUOUS
 62
    2
 10
1245
 20
660.20904126303162
 11
1241.5488222620243
 21
663.66021900100691
  0
LINE
  8
_0-0_計極細
  6
CONTINUOUS
 62
    2
 10
1245
 20
657.66345685076021
 11
1240
 21
662.66345685076044
  0
LINE
  8
_0-0_計極細
  6
CONTINUOUS
 62
    2
 10
1243.457653437481
 20
656.66021900100668
 11
1240
 21
660.11787243848858
  0
LINE
  8
_0-0_計極細
  6
CONTINUOUS
 62
    2
 10
1240.9120690252103
 20
656.66021900100668
 11
1240
 21
657.57228802621694
  0
LINE
  8
_0-0_計極細
  6
CONTINUOUS
 62
    2
 10
1240
 20
663.16021900100645
 11
1240
 21
663.66021900100691
  0
LINE
  8
_0-0_計極細
  6
CONTINUOUS
 62
    2
 10
1240
 20
663.66021900100691
 11
1245
 21
663.66021900100691
  0
LINE
  8
_0-0_計極細
  6
CONTINUOUS
 62
    2
 10
1240
 20
656.66021900100668
 11
1298.5066482870689
 21
656.66021900100668
  0
LINE
  8
_0-0_計極細
  6
CONTINUOUS
 62
    2
 10
1245
 20
663.66021900100691
 11
1298.5066482870689
 21
663.66021900100691
  0
LINE
  8
_0-0_計極細
  6
CONTINUOUS
 62
    2
 10
1245
 20
663.66021900100691
 11
1245
 21
656.66021900100668
  0
CIRCLE
  8
_0-0_計極細
  6
CONTINUOUS
 62
    2
 10
912.10792145586765
 20
651.89485784359465
 40
1.0953188836088352
  0
LINE
  8
_0-0_計極細
  6
CONTINUOUS
 62
    2
 10
919.69880819342154
 20
656.66021899733028
 11
924.99999999999909
 21
661.96141080390862
  0
LINE
  8
_0-0_計極細
  6
CONTINUOUS
 62
    2
 10
906.97088612323671
 20
656.66021898850363
 11
913.97088613574044
 21
663.66021900100645
  0
LINE
  8
_0-0_計極細
  6
CONTINUOUS
 62
    2
 10
894.24296405305086
 20
656.66021897967676
 11
901.24296407438226
 21
663.66021900100691
  0
LINE
  8
_0-0_計極細
  6
CONTINUOUS
 62
    2
 10
881.51504198286705
 20
656.66021897084988
 11
888.51504201302407
 21
663.66021900100691
  0
LINE
  8
_0-0_計極細
  6
CONTINUOUS
 62
    2
 10
871.49335171293114
 20
659.36645076227126
 11
875.78711995166668
 21
663.66021900100645
  0
LINE
  8
_0-0_計極細
  6
DASHED2
 62
    2
 10
913.33484715832867
 20
656.66021899291673
 11
920.33484716641851
 21
663.66021900100691
  0
LINE
  8
_0-0_計極細
  6
DASHED2
 62
    2
 10
900.60692508814384
 20
656.66021898409008
 11
907.60692510506135
 21
663.66021900100691
  0
LINE
  8
_0-0_計極細
  6
DASHED2
 62
    2
 10
887.8790030179598
 20
656.66021897526343
 11
894.87900304370316
 21
663.66021900100691
  0
LINE
  8
_0-0_計極細
  6
DASHED2
 62
    2
 10
875.15108094777497
 20
656.66021896643679
 11
882.15108098234577
 21
663.66021900100691
  0
LINE
  8
_0-0_計極細
  6
CONTINUOUS
 62
    2
 10
929.88114584618415
 20
656.66021900100668
 11
929.99999999999909
 21
656.77907315482219
  0
LINE
  8
_0-0_計極細
  6
CONTINUOUS
 62
    2
 10
927.33556143391172
 20
656.66021900100668
 11
929.99999999999909
 21
659.32465756709348
  0
LINE
  8
_0-0_計極細
  6
CONTINUOUS
 62
    2
 10
924.99999999999909
 20
656.87024197936512
 11
929.99999999999909
 21
661.87024197936535
  0
LINE
  8
_0-0_計極細
  6
CONTINUOUS
 62
    2
 10
924.99999999999909
 20
659.41582639163698
 11
929.24439260936833
 21
663.66021900100691
  0
LINE
  8
_0-0_計極細
  6
CONTINUOUS
 62
    2
 10
924.99999999999909
 20
661.96141080390862
 11
926.69880819709761
 21
663.66021900100691
  0
LINE
  8
_0-0_計極細
  6
CONTINUOUS
 62
    2
 10
929.99999999999909
 20
662.29163887765139
 11
928.63141987664403
 21
663.66021900100691
  0
LINE
  8
_0-0_計極細
  6
CONTINUOUS
 62
    2
 10
929.99999999999909
 20
659.74605446537976
 11
926.08583546437239
 21
663.66021900100691
  0
LINE
  8
_0-0_計極細
  6
CONTINUOUS
 62
    2
 10
924.99999999999909
 20
662.20047005310835
 11
929.99999999999909
 21
657.20047005310835
  0
LINE
  8
_0-0_計極細
  6
CONTINUOUS
 62
    2
 10
924.99999999999909
 20
659.65488564083671
 11
927.99466663982912
 21
656.66021900100668
  0
LINE
  8
_0-0_計極細
  6
CONTINUOUS
 62
    2
 10
924.99999999999909
 20
657.10930122856541
 11
925.44908222755851
 21
656.66021900100668
  0
LINE
  8
_0-0_計極細
  6
CONTINUOUS
 62
    2
 10
929.99999999999909
 20
663.16021900100645
 11
929.99999999999909
 21
663.66021900100691
  0
LINE
  8
_0-0_計極細
  6
CONTINUOUS
 62
    2
 10
929.99999999999909
 20
663.66021900100691
 11
924.99999999999909
 21
663.66021900100691
  0
LINE
  8
_0-0_計極細
  6
CONTINUOUS
 62
    2
 10
929.99999999999909
 20
656.66021900100668
 11
871.49335171293114
 21
656.66021900100668
  0
LINE
  8
_0-0_計極細
  6
CONTINUOUS
 62
    2
 10
924.99999999999909
 20
663.66021900100691
 11
871.49335171293114
 21
663.66021900100691
  0
LINE
  8
_0-0_計極細
  6
CONTINUOUS
 62
    2
 10
924.99999999999909
 20
663.66021900100691
 11
924.99999999999909
 21
656.66021900100668
  0
CIRCLE
  8
_0-0_計極細
  6
CONTINUOUS
 62
    2
 10
876.31462413258134
 20
649.68152451026185
 40
1.0953188836088352
  0
CIRCLE
  8
_0-0_計極細
  6
CONTINUOUS
 62
    2
 10
888.43287185722886
 20
649.14595974174733
 40
1.0953188836088352
  0
CIRCLE
  8
_0-0_計極細
  6
CONTINUOUS
 62
    2
 10
903.41014367809021
 20
653.56893191766926
 40
0.331851851851843
  0
CIRCLE
  8
_0-0_計極細
  6
CONTINUOUS
 62
    2
 10
921.9701436780897
 20
654.63559858433587
 40
0.331851851851843
  0
CIRCLE
  8
_0-0_計極細
  6
CONTINUOUS
 62
    2
 10
907.03681034475721
 20
648.66226525100274
 40
0.331851851851843
  0
CIRCLE
  8
_0-0_計極細
  6
CONTINUOUS
 62
    2
 10
882.23088441883101
 20
645.78226525100263
 40
0.331851851851843
  0
LINE
  8
_0-1_計細線
  6
CONTINUOUS
 62
    3
 10
1087.3499999999995
 20
645.95999999999958
 11
1091.800000000514
 21
645.95999999999958
  0
LINE
  8
_0-1_計細線
  6
CONTINUOUS
 62
    3
 10
1078.200000000551
 20
645.95999999999958
 11
1082.6499999999987
 21
645.95999999999958
  0
LINE
  8
_0-1_計細線
  6
CONTINUOUS
 62
    3
 10
1087.3499999999995
 20
658.95999999999913
 11
1091.8000000005513
 21
658.95999999999913
  0
LINE
  8
_0-1_計細線
  6
CONTINUOUS
 62
    3
 10
1078.2000000011185
 20
658.95999999999913
 11
1082.6499999999987
 21
658.95999999999913
  0
LINE
  8
_0-1_計細線
  6
CONTINUOUS
 62
    3
 10
955.79999999750373
 20
658.95999999999913
 11
942.3999999975041
 21
658.95999999999913
  0
LINE
  8
_0-1_計細線
  6
CONTINUOUS
 62
    3
 10
1214.2000000024964
 20
658.95999999999913
 11
1227.6000000024951
 21
658.95999999999913
  0
LINE
  8
_0-1_計細線
  6
CONTINUOUS
 62
    3
 10
972.79999999767551
 20
658.95999999999913
 11
959.19999999767424
 21
658.95999999999913
  0
LINE
  8
_0-1_計細線
  6
CONTINUOUS
 62
    3
 10
989.7999999978465
 20
658.95999999999913
 11
976.19999999784625
 21
658.95999999999913
  0
LINE
  8
_0-1_計細線
  6
CONTINUOUS
 62
    3
 10
1006.7999999980185
 20
658.95999999999913
 11
993.19999999801894
 21
658.95999999999913
  0
LINE
  8
_0-1_計細線
  6
CONTINUOUS
 62
    3
 10
1197.2000000023245
 20
658.95999999999913
 11
1210.8000000023239
 21
658.95999999999913
  0
LINE
  8
_0-1_計細線
  6
CONTINUOUS
 62
    3
 10
1180.2000000021526
 20
658.95999999999913
 11
1193.8000000021511
 21
658.95999999999913
  0
LINE
  8
_0-1_計細線
  6
CONTINUOUS
 62
    3
 10
1163.2000000019798
 20
658.95999999999913
 11
1176.8000000019792
 21
658.95999999999913
  0
LINE
  8
_0-1_計細線
  6
CONTINUOUS
 62
    3
 10
1010.199999999465
 20
658.95999999999913
 11
1023.7999999994655
 21
658.95999999999913
  0
LINE
  8
_0-1_計細線
  6
CONTINUOUS
 62
    3
 10
1146.2000000018079
 20
658.95999999999913
 11
1159.8000000018083
 21
658.95999999999913
  0
LINE
  8
_0-1_計細線
  6
CONTINUOUS
 62
    3
 10
1129.2000000014459
 20
658.95999999999913
 11
1142.8000000014463
 21
658.95999999999913
  0
LINE
  8
_0-1_計細線
  6
CONTINUOUS
 62
    3
 10
1027.1999999994659
 20
658.95999999999913
 11
1040.7999999994663
 21
658.95999999999913
  0
LINE
  8
_0-1_計細線
  6
CONTINUOUS
 62
    3
 10
1044.199999999827
 20
658.95999999999913
 11
1057.7999999998283
 21
658.95999999999913
  0
LINE
  8
_0-1_計細線
  6
CONTINUOUS
 62
    3
 10
1061.200000000189
 20
658.95999999999913
 11
1074.8000000001894
 21
658.95999999999913
  0
LINE
  8
_0-1_計細線
  6
CONTINUOUS
 62
    3
 10
1095.200000000912
 20
658.95999999999913
 11
1108.8000000009133
 21
658.95999999999913
  0
LINE
  8
_0-1_計細線
  6
CONTINUOUS
 62
    3
 10
1112.2000000012749
 20
658.95999999999913
 11
1125.8000000012744
 21
658.95999999999913
  0
LINE
  8
_0-1_計細線
  6
CONTINUOUS
 62
    3
 10
955.79999999750373
 20
645.95999999999958
 11
942.3999999975041
 21
645.95999999999958
  0
LINE
  8
_0-1_計細線
  6
CONTINUOUS
 62
    3
 10
1214.2000000024964
 20
645.95999999999958
 11
1227.6000000024951
 21
645.95999999999958
  0
LINE
  8
_0-1_計細線
  6
CONTINUOUS
 62
    3
 10
972.79999999767551
 20
645.95999999999958
 11
959.19999999767424
 21
645.95999999999958
  0
LINE
  8
_0-1_計細線
  6
CONTINUOUS
 62
    3
 10
989.7999999978465
 20
645.95999999999958
 11
976.19999999784625
 21
645.95999999999958
  0
LINE
  8
_0-1_計細線
  6
CONTINUOUS
 62
    3
 10
1006.7999999980185
 20
645.95999999999958
 11
993.19999999801894
 21
645.95999999999958
  0
LINE
  8
_0-1_計細線
  6
CONTINUOUS
 62
    3
 10
1197.2000000023245
 20
645.95999999999958
 11
1210.800000002323
 21
645.95999999999958
  0
LINE
  8
_0-1_計細線
  6
CONTINUOUS
 62
    3
 10
1180.2000000021517
 20
645.95999999999958
 11
1193.8000000021511
 21
645.95999999999958
  0
LINE
  8
_0-1_計細線
  6
CONTINUOUS
 62
    3
 10
1163.2000000019798
 20
645.95999999999958
 11
1176.8000000019792
 21
645.95999999999958
  0
LINE
  8
_0-1_計細線
  6
CONTINUOUS
 62
    3
 10
1010.199999999465
 20
645.95999999999958
 11
1023.7999999994655
 21
645.95999999999958
  0
LINE
  8
_0-1_計細線
  6
CONTINUOUS
 62
    3
 10
1146.2000000018079
 20
645.95999999999958
 11
1159.8000000018083
 21
645.95999999999958
  0
LINE
  8
_0-1_計細線
  6
CONTINUOUS
 62
    3
 10
1129.2000000014459
 20
645.95999999999958
 11
1142.8000000014463
 21
645.95999999999958
  0
LINE
  8
_0-1_計細線
  6
CONTINUOUS
 62
    3
 10
1027.1999999994659
 20
645.95999999999958
 11
1040.7999999994654
 21
645.95999999999958
  0
LINE
  8
_0-1_計細線
  6
CONTINUOUS
 62
    3
 10
1044.199999999827
 20
645.95999999999958
 11
1057.7999999998283
 21
645.95999999999958
  0
LINE
  8
_0-1_計細線
  6
CONTINUOUS
 62
    3
 10
1061.200000000189
 20
645.95999999999958
 11
1074.8000000001894
 21
645.95999999999958
  0
LINE
  8
_0-1_計細線
  6
CONTINUOUS
 62
    3
 10
1095.200000000912
 20
645.95999999999958
 11
1108.8000000009133
 21
645.95999999999958
  0
LINE
  8
_0-1_計細線
  6
CONTINUOUS
 62
    3
 10
1112.2000000012749
 20
645.95999999999958
 11
1125.8000000012744
 21
645.95999999999958
  0
CIRCLE
  8
_0-0_計極細
  6
CONTINUOUS
 62
    2
 10
1256.3968103447551
 20
623.77208006581782
 40
0.331851851851843
  0
CIRCLE
  8
_0-0_計極細
  6
CONTINUOUS
 62
    2
 10
1268.1568103447553
 20
620.41208006581746
 40
0.331851851851843
  0
LINE
  8
_0-0_計極細
  6
CONTINUOUS
 62
    2
 10
1255
 20
617.11155580999616
 11
1264
 21
617.11155580999616
  0
LINE
  8
_0-0_計極細
  6
CENTER1
 62
    2
 10
1259.5
 20
585.69417483033499
 11
1259.5
 21
619.67698790876193
  0
LINE
  8
_0-0_計極細
  6
CONTINUOUS
 62
    2
 10
1264
 20
617.11155580999616
 11
1264
 21
590.66021900100668
  0
LINE
  8
_0-0_計極細
  6
CONTINUOUS
 62
    2
 10
1255
 20
590.66021900100668
 11
1255
 21
617.11155580999616
  0
LINE
  8
_0-0_計極細
  6
CENTER1
 62
    2
 10
1270.6963916124514
 20
608.73567846802757
 11
1232.2777793229125
 21
622.71890975904853
  0
LINE
  8
_0-0_計極細
  6
CONTINUOUS
 62
    2
 10
1266.1840409322913
 20
605.58923969850866
 11
1233.1094340380823
 21
617.62741211805633
  0
LINE
  8
_0-0_計極細
  6
CONTINUOUS
 62
    2
 10
1269.2622222222217
 20
614.04647328558212
 11
1236.1876153280127
 21
626.08464570512979
  0
LINE
  8
_0-0_計極細
  6
CONTINUOUS
 62
    2
 10
1236.1876153280127
 20
626.08464570512979
 11
1233.1094340380823
 21
617.62741211805633
  0
LINE
  8
_0-0_計極細
  6
CONTINUOUS
 62
    2
 10
1266.1840409322913
 20
605.58923969850866
 11
1269.2622222222217
 21
614.04647328558212
  0
LINE
  8
_0-0_計極細
  6
CENTER1
 62
    2
 10
910.49999999999909
 20
585.69417483033499
 11
910.49999999999909
 21
619.67698790876193
  0
LINE
  8
_0-0_計極細
  6
CONTINUOUS
 62
    2
 10
905.99999999999909
 20
617.11155580999616
 11
905.99999999999909
 21
590.66021900100668
  0
LINE
  8
_0-0_計極細
  6
CONTINUOUS
 62
    2
 10
914.99999999999909
 20
617.11155580999616
 11
905.99999999999909
 21
617.11155580999616
  0
LINE
  8
_0-0_計極細
  6
CONTINUOUS
 62
    2
 10
914.99999999999909
 20
590.66021900100668
 11
914.99999999999909
 21
617.11155580999616
  0
LINE
  8
_0-0_計極細
  6
CENTER1
 62
    2
 10
899.3036083875478
 20
608.73567846802757
 11
937.72222067708663
 21
622.71890975904853
  0
LINE
  8
_0-0_計極細
  6
CONTINUOUS
 62
    2
 10
903.81595906770781
 20
605.58923969850866
 11
936.89056596191676
 21
617.62741211805633
  0
LINE
  8
_0-0_計極細
  6
CONTINUOUS
 62
    2
 10
900.73777777777752
 20
614.04647328558212
 11
933.81238467198557
 21
626.08464570512979
  0
LINE
  8
_0-0_計極細
  6
CONTINUOUS
 62
    2
 10
933.81238467198557
 20
626.08464570512979
 11
936.89056596191676
 21
617.62741211805633
  0
LINE
  8
_0-0_計極細
  6
CONTINUOUS
 62
    2
 10
903.81595906770781
 20
605.58923969850866
 11
900.73777777777752
 21
614.04647328558212
  0
CIRCLE
  8
_0-0_計極細
  6
CONTINUOUS
 62
    2
 10
1215.7601436780878
 20
584.07152451026263
 40
1.0953188836088352
  0
CIRCLE
  8
_0-0_計極細
  6
CONTINUOUS
 62
    2
 10
1213.9912547892
 20
627.6448578435959
 40
1.0953188836088352
  0
CIRCLE
  8
_0-0_計極細
  6
CONTINUOUS
 62
    2
 10
1214.3745881225332
 20
588.07282080655909
 40
0.331851851851843
  0
CIRCLE
  8
_0-0_計極細
  6
CONTINUOUS
 62
    2
 10
1213.59063750525
 20
611.62615413989192
 40
0.331851851851843
  0
LINE
  8
_0-0_計極細
  6
CONTINUOUS
 62
    2
 10
1209.9999999999991
 20
635.66021900100668
 11
1209.9999999999991
 21
574.91525882413976
  0
LINE
  8
_0-0_計極細
  6
CONTINUOUS
 62
    2
 10
1210.4999999999991
 20
635.66021900100668
 11
1209.9999999999991
 21
635.66021900100668
  0
CIRCLE
  8
_0-0_計極細
  6
CONTINUOUS
 62
    2
 10
1251.9968103447554
 20
650.37948747322503
 40
0.331851851851843
  0
CIRCLE
  8
_0-0_計極細
  6
CONTINUOUS
 62
    2
 10
1264.7968103447547
 20
642.98819117692869
 40
1.0953188836088352
  0
CIRCLE
  8
_0-0_計極細
  6
CONTINUOUS
 62
    2
 10
1264.7168103447548
 20
646.77948747322512
 40
0.331851851851843
  0
CIRCLE
  8
_0-0_計極細
  6
CONTINUOUS
 62
    2
 10
1283.1968103447552
 20
649.81948747322508
 40
0.331851851851843
  0
CIRCLE
  8
_0-0_計極細
  6
CONTINUOUS
 62
    2
 10
1218.5738473817937
 20
606.55093459937416
 40
0.331851851851843
  0
CIRCLE
  8
_0-0_計極細
  6
CONTINUOUS
 62
    2
 10
1218.4538473817929
 20
620.92426793270715
 40
0.331851851851843
  0
CIRCLE
  8
_0-0_計極細
  6
CONTINUOUS
 62
    2
 10
1246.9334770114219
 20
624.17819117692898
 40
1.0953188836088352
  0
CIRCLE
  8
_0-0_計極細
  6
CONTINUOUS
 62
    2
 10
1277.3325925925919
 20
592.14595974174767
 40
1.0953188836088352
  0
CIRCLE
  8
_0-0_計極細
  6
CONTINUOUS
 62
    2
 10
1249.5734770114223
 20
598.25819117692936
 40
1.0953188836088352
  0
CIRCLE
  8
_0-0_計極細
  6
CONTINUOUS
 62
    2
 10
1228.4534770114224
 20
611.69819117692919
 40
1.0953188836088352
  0
CIRCLE
  8
_0-0_計極細
  6
CONTINUOUS
 62
    2
 10
1222.3201436780882
 20
593.77819117692934
 40
1.0953188836088352
  0
CIRCLE
  8
_0-0_計極細
  6
CONTINUOUS
 62
    2
 10
1264.5568103447549
 20
620.5081911769289
 40
1.0953188836088352
  0
CIRCLE
  8
_0-0_計極細
  6
CONTINUOUS
 62
    2
 10
1245.3568103447551
 20
639.70819117692895
 40
1.0953188836088352
  0
CIRCLE
  8
_0-0_計極細
  6
CONTINUOUS
 62
    2
 10
1278.6101436780882
 20
635.76152451026246
 40
1.0953188836088352
  0
CIRCLE
  8
_0-0_計極細
  6
CONTINUOUS
 62
    2
 10
1287.9968103447547
 20
645.04152451026232
 40
1.0953188836088352
  0
CIRCLE
  8
_0-0_計極細
  6
CONTINUOUS
 62
    2
 10
1290.8768103447549
 20
636.77948747322489
 40
0.331851851851843
  0
CIRCLE
  8
_0-0_計極細
  6
CONTINUOUS
 62
    2
 10
1273.1168103447553
 20
624.05948747322532
 40
0.331851851851843
  0
CIRCLE
  8
_0-0_計極細
  6
CONTINUOUS
 62
    2
 10
1274.7968103447547
 20
640.13948747322502
 40
0.331851851851843
  0
CIRCLE
  8
_0-0_計極細
  6
CONTINUOUS
 62
    2
 10
1264.7168103447548
 20
628.37948747322525
 40
0.331851851851843
  0
CIRCLE
  8
_0-0_計極細
  6
CONTINUOUS
 62
    2
 10
1275.516810344755
 20
615.65948747322523
 40
0.331851851851843
  0
CIRCLE
  8
_0-0_計極細
  6
CONTINUOUS
 62
    2
 10
1276.476810344755
 20
603.17948747322544
 40
0.331851851851843
  0
CIRCLE
  8
_0-0_計極細
  6
CONTINUOUS
 62
    2
 10
1272.1568103447544
 20
594.77948747322557
 40
0.331851851851843
  0
CIRCLE
  8
_0-0_計極細
  6
CONTINUOUS
 62
    2
 10
1248.6368103447548
 20
626.69948747322542
 40
0.331851851851843
  0
CIRCLE
  8
_0-0_計極細
  6
CONTINUOUS
 62
    2
 10
1243.2768103447552
 20
635.52615413989179
 40
0.331851851851843
  0
CIRCLE
  8
_0-0_計極細
  6
CONTINUOUS
 62
    2
 10
1244.770143678089
 20
647.36615413989171
 40
0.331851851851843
  0
CIRCLE
  8
_0-0_計極細
  6
CONTINUOUS
 62
    2
 10
1250.4634770114226
 20
602.95282080655875
 40
0.331851851851843
  0
CIRCLE
  8
_0-0_計極細
  6
CONTINUOUS
 62
    2
 10
1243.7434770114214
 20
599.59282080655885
 40
0.331851851851843
  0
CIRCLE
  8
_0-0_計極細
  6
CONTINUOUS
 62
    2
 10
1250.9434770114221
 20
594.15282080655902
 40
0.331851851851843
  0
CIRCLE
  8
_0-0_計極細
  6
CONTINUOUS
 62
    2
 10
1234.7834770114223
 20
593.99282080655871
 40
0.331851851851843
  0
CIRCLE
  8
_0-0_計極細
  6
CONTINUOUS
 62
    2
 10
1226.4634770114226
 20
596.87282080655882
 40
0.331851851851843
  0
CIRCLE
  8
_0-0_計極細
  6
CONTINUOUS
 62
    2
 10
1219.5834770114225
 20
578.9528208065592
 40
0.331851851851843
  0
CIRCLE
  8
_0-0_計極細
  6
CONTINUOUS
 62
    2
 10
1225.1834770114219
 20
589.672820806559
 40
0.331851851851843
  0
CIRCLE
  8
_0-0_計極細
  6
CONTINUOUS
 62
    2
 10
1235.8834770114217
 20
603.65282080655879
 40
0.331851851851843
  0
CIRCLE
  8
_0-0_計極細
  6
CONTINUOUS
 62
    2
 10
1225.3634770114222
 20
613.86615413989216
 40
0.331851851851843
  0
CIRCLE
  8
_0-0_計極細
  6
CONTINUOUS
 62
    2
 10
1227.816810344756
 20
628.85282080655838
 40
0.331851851851843
  0
CIRCLE
  8
_0-0_計極細
  6
CONTINUOUS
 62
    2
 10
1221.8434770114227
 20
625.9728208065585
 40
0.331851851851843
  0
LINE
  8
_0-0_計極細
  6
CONTINUOUS
 62
    2
 10
1284.9740014487552
 20
574.91525882413976
 11
1298.5066483119936
 21
588.44790568737676
  0
LINE
  8
_0-0_計極細
  6
CONTINUOUS
 62
    2
 10
1242.5475945775624
 20
574.91525882413976
 11
1258.2925547544301
 21
590.66021900100668
  0
LINE
  8
_0-0_計極細
  6
CONTINUOUS
 62
    2
 10
1280
 20
612.36766424657662
 11
1298.5066482875218
 21
630.87431253409841
  0
LINE
  8
_0-0_計極細
  6
CONTINUOUS
 62
    2
 10
1280.7313607616361
 20
574.91525882413976
 11
1298.5066483095463
 21
592.69054637204908
  0
LINE
  8
_0-0_計極細
  6
CONTINUOUS
 62
    2
 10
1238.3049538904434
 20
574.91525882413976
 11
1254.049914067311
 21
590.66021900100668
  0
LINE
  8
_0-0_計極細
  6
CONTINUOUS
 62
    2
 10
1280
 20
616.61030493369572
 11
1295.0499139595806
 21
631.66021889327658
  0
LINE
  8
_0-0_計極細
  6
CONTINUOUS
 62
    2
 10
1276.488720074517
 20
574.91525882413976
 11
1298.5066483070987
 21
596.93318705672141
  0
LINE
  8
_0-0_計極細
  6
CONTINUOUS
 62
    2
 10
1234.0623132033234
 20
574.91525882413976
 11
1249.807273380191
 21
590.66021900100668
  0
LINE
  8
_0-0_計極細
  6
CONTINUOUS
 62
    2
 10
1280
 20
620.85294562081526
 11
1290.8072733028312
 21
631.66021892364643
  0
LINE
  8
_0-0_計極細
  6
CONTINUOUS
 62
    2
 10
1230.0000000000009
 20
590.66021900100668
 11
1230.0000000000009
 21
574.91525882413976
  0
LINE
  8
_0-0_計極細
  6
CONTINUOUS
 62
    2
 10
1280
 20
631.66021900100714
 11
1298.5066482870689
 21
631.66021900100714
  0
LINE
  8
_0-0_計極細
  6
CONTINUOUS
 62
    2
 10
1230.0000000000009
 20
590.66021900100668
 11
1280
 21
590.66021900100668
  0
LINE
  8
_0-0_計極細
  6
CONTINUOUS
 62
    2
 10
1280
 20
631.66021900100714
 11
1280
 21
590.66021900100668
  0
CIRCLE
  8
_0-0_計極細
  6
CONTINUOUS
 62
    2
 10
948.65014367808726
 20
614.60152451026261
 40
1.0953188836088352
  0
CIRCLE
  8
_0-0_計極細
  6
CONTINUOUS
 62
    2
 10
956.07236590031164
 20
579.64862263110149
 40
0.331851851851843
  0
CIRCLE
  8
_0-0_計極細
  6
CONTINUOUS
 62
    2
 10
955.27236590031134
 20
593.24226525100335
 40
0.331851851851843
  0
CIRCLE
  8
_0-0_計極細
  6
CONTINUOUS
 62
    2
 10
955.86753951142157
 20
626.0681911769293
 40
1.0953188836088352
  0
LINE
  8
_0-0_計極細
  6
CONTINUOUS
 62
    2
 10
959.99999999999909
 20
635.66021900100668
 11
959.99999999999909
 21
574.91525882413976
  0
LINE
  8
_0-0_計極細
  6
CONTINUOUS
 62
    2
 10
959.4999999999992
 20
635.66021900100668
 11
959.99999999999909
 21
635.66021900100668
  0
CIRCLE
  8
_0-0_計極細
  6
CONTINUOUS
 62
    2
 10
948.98347701142211
 20
582.46819117692962
 40
1.0953188836088352
  0
CIRCLE
  8
_0-0_計極細
  6
CONTINUOUS
 62
    2
 10
946.10347701142302
 20
593.66819117692944
 40
1.0953188836088352
  0
CIRCLE
  8
_0-0_計極細
  6
CONTINUOUS
 62
    2
 10
924.51681034475598
 20
595.82819117692929
 40
1.0953188836088352
  0
CIRCLE
  8
_0-0_計極細
  6
CONTINUOUS
 62
    2
 10
892.5968103447567
 20
603.50819117692913
 40
1.0953188836088352
  0
CIRCLE
  8
_0-0_計極細
  6
CONTINUOUS
 62
    2
 10
904.35681034475692
 20
626.30819117692909
 40
1.0953188836088352
  0
CIRCLE
  8
_0-0_計極細
  6
CONTINUOUS
 62
    2
 10
917.79681034475652
 20
620.22819117692916
 40
1.0953188836088352
  0
CIRCLE
  8
_0-0_計極細
  6
CONTINUOUS
 62
    2
 10
919.49014367809013
 20
639.98819117692869
 40
1.0953188836088352
  0
CIRCLE
  8
_0-0_計極細
  6
CONTINUOUS
 62
    2
 10
931.66347701142342
 20
626.79782080655855
 40
0.331851851851843
  0
CIRCLE
  8
_0-0_計極細
  6
CONTINUOUS
 62
    2
 10
952.81014367808996
 20
608.95782080655863
 40
0.331851851851843
  0
CIRCLE
  8
_0-0_計極細
  6
CONTINUOUS
 62
    2
 10
952.49014367808923
 20
619.73115413989194
 40
0.331851851851843
  0
CIRCLE
  8
_0-0_計極細
  6
CONTINUOUS
 62
    2
 10
943.42347701142273
 20
625.70448747322507
 40
0.331851851851843
  0
CIRCLE
  8
_0-0_計極細
  6
CONTINUOUS
 62
    2
 10
934.57014367808927
 20
605.22448747322551
 40
0.331851851851843
  0
CIRCLE
  8
_0-0_計極細
  6
CONTINUOUS
 62
    2
 10
944.57014367809006
 20
579.05559858433685
 40
0.331851851851843
  0
CIRCLE
  8
_0-0_計極細
  6
CONTINUOUS
 62
    2
 10
948.73014367808992
 20
588.01559858433689
 40
0.331851851851843
  0
CIRCLE
  8
_0-0_計極細
  6
CONTINUOUS
 62
    2
 10
940.51681034475678
 20
596.97559858433647
 40
0.331851851851843
  0
CIRCLE
  8
_0-0_計極細
  6
CONTINUOUS
 62
    2
 10
932.73014367808992
 20
595.05559858433662
 40
0.331851851851843
  0
CIRCLE
  8
_0-0_計極細
  6
CONTINUOUS
 62
    2
 10
920.7834770114232
 20
594.41559858433652
 40
0.331851851851843
  0
CIRCLE
  8
_0-0_計極細
  6
CONTINUOUS
 62
    2
 10
922.91681034475641
 20
599.96226525100315
 40
0.331851851851843
  0
CIRCLE
  8
_0-0_計極細
  6
CONTINUOUS
 62
    2
 10
919.18347701142375
 20
601.45559858433649
 40
0.331851851851843
  0
CIRCLE
  8
_0-0_計極細
  6
CONTINUOUS
 62
    2
 10
925.90347701142321
 20
604.7622652510031
 40
0.331851851851843
  0
CIRCLE
  8
_0-0_計極細
  6
CONTINUOUS
 62
    2
 10
902.32347701142419
 20
594.02893191766998
 40
0.331851851851843
  0
CIRCLE
  8
_0-0_計極細
  6
CONTINUOUS
 62
    2
 10
898.5901436780905
 20
599.14893191766987
 40
0.331851851851843
  0
CIRCLE
  8
_0-0_計極細
  6
CONTINUOUS
 62
    2
 10
893.36347701142313
 20
595.09559858433659
 40
0.331851851851843
  0
CIRCLE
  8
_0-0_計極細
  6
CONTINUOUS
 62
    2
 10
896.77681034475711
 20
605.86893191766967
 40
0.331851851851843
  0
CIRCLE
  8
_0-0_計極細
  6
CONTINUOUS
 62
    2
 10
921.44347701142408
 20
622.13559858433632
 40
0.331851851851843
  0
CIRCLE
  8
_0-0_計極細
  6
CONTINUOUS
 62
    2
 10
905.01681034475678
 20
617.7622652510031
 40
0.331851851851843
  0
CIRCLE
  8
_0-0_計極細
  6
CONTINUOUS
 62
    2
 10
913.87014367808945
 20
625.86893191766967
 40
0.331851851851843
  0
CIRCLE
  8
_0-0_計極細
  6
CONTINUOUS
 62
    2
 10
921.44347701142408
 20
629.28226525100285
 40
0.331851851851843
  0
CIRCLE
  8
_0-0_計極細
  6
CONTINUOUS
 62
    2
 10
906.40347701142321
 20
631.52226525100286
 40
0.331851851851843
  0
CIRCLE
  8
_0-0_計極細
  6
CONTINUOUS
 62
    2
 10
894.13681034475758
 20
632.26893191766953
 40
0.331851851851843
  0
CIRCLE
  8
_0-0_計極細
  6
CONTINUOUS
 62
    2
 10
910.45014367809017
 20
639.60893191766968
 40
0.331851851851843
  0
CIRCLE
  8
_0-0_計極細
  6
CONTINUOUS
 62
    2
 10
925.38347701142357
 20
639.92893191766939
 40
0.331851851851843
  0
CIRCLE
  8
_0-0_計極細
  6
CONTINUOUS
 62
    2
 10
889.9701436780897
 20
636.62226525100277
 40
0.331851851851843
  0
CIRCLE
  8
_0-0_計極細
  6
CONTINUOUS
 62
    2
 10
882.39681034475689
 20
635.4489319176696
 40
0.331851851851843
  0
CIRCLE
  8
_0-0_計極細
  6
CONTINUOUS
 62
    2
 10
876.03236590031258
 20
634.80893191766972
 40
0.331851851851843
  0
LINE
  8
_0-0_計極細
  6
CONTINUOUS
 62
    2
 10
917.54681526100569
 20
574.91525889400145
 11
933.29177536801035
 21
590.66021900100668
  0
LINE
  8
_0-0_計極細
  6
CONTINUOUS
 62
    2
 10
875.12040852182054
 20
574.91525902600961
 11
890.86536849681863
 21
590.66021900100668
  0
LINE
  8
_0-0_計極細
  6
CONTINUOUS
 62
    2
 10
871.49335171293114
 20
613.71460908831205
 11
889.43896162562498
 21
631.66021900100714
  0
LINE
  8
_0-0_計極細
  6
CONTINUOUS
 62
    2
 10
913.30417458708689
 20
574.91525890720231
 11
929.04913468089137
 21
590.66021900100668
  0
LINE
  8
_0-0_計極細
  6
CONTINUOUS
 62
    2
 10
871.49335171293114
 20
575.53084290423863
 11
890
 21
594.03749119130748
  0
LINE
  8
_0-0_計極細
  6
CONTINUOUS
 62
    2
 10
871.49335171293114
 20
617.95724977543159
 11
885.19632093850589
 21
631.66021900100714
  0
LINE
  8
_0-0_計極細
  6
CONTINUOUS
 62
    2
 10
909.0615339131682
 20
574.9152589204034
 11
924.80649399377307
 21
590.66021900100668
  0
LINE
  8
_0-0_計極細
  6
CONTINUOUS
 62
    2
 10
871.49335171293114
 20
579.77348359135817
 11
890
 21
598.2801318784268
  0
LINE
  8
_0-0_計極細
  6
CONTINUOUS
 62
    2
 10
871.49335171293114
 20
622.19989046255091
 11
880.95368025138771
 21
631.66021900100714
  0
LINE
  8
_0-0_計極細
  6
CONTINUOUS
 62
    2
 10
939.99999999999909
 20
590.66021900100668
 11
939.99999999999909
 21
574.91525882413976
  0
LINE
  8
_0-0_計極細
  6
CONTINUOUS
 62
    2
 10
890
 20
631.66021900100714
 11
871.49335171293114
 21
631.66021900100714
  0
LINE
  8
_0-0_計極細
  6
CONTINUOUS
 62
    2
 10
939.99999999999909
 20
590.66021900100668
 11
890
 21
590.66021900100668
  0
LINE
  8
_0-0_計極細
  6
CONTINUOUS
 62
    2
 10
890
 20
631.66021900100714
 11
890
 21
590.66021900100668
  0
LINE
  8
_0-0_計極細
  6
CENTER1
 62
    2
 10
1085
 20
628.94872130973727
 11
1085
 21
672.01872130974061
  0
ARC
  8
_0-1_計細線
  6
CONTINUOUS
 62
    3
 10
1071.8000000011025
 20
661.65999999999963
 40
0.9999999999999997
 50
89.999999999999915
 51
179.99999999999983
  0
ARC
  8
_0-1_計細線
  6
CONTINUOUS
 62
    3
 10
1072.2679491924309
 20
663.65999999999974
 40
0.9999999999999997
 50
269.99999999999977
 51
329.99999999998937
  0
ARC
  8
_0-1_計細線
  6
CONTINUOUS
 62
    3
 10
1073.9999999999991
 20
662.65999999999985
 40
0.9999999999999997
 50
89.999999999999915
 51
150.00000000000097
  0
LINE
  8
_0-1_計細線
  6
CONTINUOUS
 62
    3
 10
1071.8000000011025
 20
662.65999999999985
 11
1072.2679491924309
 21
662.65999999999985
  0
ARC
  8
_0-1_計細線
  6
CONTINUOUS
 62
    3
 10
1081.1999999988957
 20
661.65999999999963
 40
0.9999999999999997
 50
0
 51
89.999999999999915
  0
ARC
  8
_0-1_計細線
  6
CONTINUOUS
 62
    3
 10
1080.7320508075691
 20
663.65999999999974
 40
0.9999999999999997
 50
209.99999999998388
 51
269.99999999999977
  0
ARC
  8
_0-1_計細線
  6
CONTINUOUS
 62
    3
 10
1079
 20
662.65999999999985
 40
0.9999999999999997
 50
29.99999999999903
 51
89.999999999999901
  0
LINE
  8
_0-1_計細線
  6
CONTINUOUS
 62
    3
 10
1081.1999999988957
 20
662.65999999999985
 11
1080.7320508075691
 21
662.65999999999985
  0
ARC
  8
_0-1_計細線
  6
CONTINUOUS
 62
    3
 10
1071.3000000011025
 20
660.25999999999999
 40
0.4999999999999998
 50
179.99999999999983
 51
269.99999999999977
  0
LINE
  8
_0-1_計細線
  6
CONTINUOUS
 62
    3
 10
1070.8000000011034
 20
661.65999999999963
 11
1070.8000000011034
 21
660.25999999999999
  0
ARC
  8
_0-1_計細線
  6
CONTINUOUS
 62
    3
 10
1081.6999999988957
 20
660.25999999999999
 40
0.4999999999999998
 50
269.99999999999977
 51
359.99999999999966
  0
LINE
  8
_0-1_計細線
  6
CONTINUOUS
 62
    3
 10
1082.1999999988957
 20
661.65999999999963
 11
1082.1999999988957
 21
660.25999999999999
  0
ARC
  8
_0-1_計細線
  6
CONTINUOUS
 62
    3
 10
1073.8000000011034
 20
658.75999999999999
 40
0.9999999999999997
 50
0
 51
89.999999999999915
  0
LINE
  8
_0-1_計細線
  6
CONTINUOUS
 62
    3
 10
1073.8000000011034
 20
659.75999999999954
 11
1071.3000000011025
 21
659.75999999999954
  0
ARC
  8
_0-1_計細線
  6
CONTINUOUS
 62
    3
 10
1079.2000000011039
 20
658.75999999999999
 40
0.9999999999999997
 50
89.999999999999915
 51
179.99999999999983
  0
LINE
  8
_0-1_計細線
  6
CONTINUOUS
 62
    3
 10
1079.1999999988957
 20
659.75999999999954
 11
1081.6999999988957
 21
659.75999999999954
  0
LINE
  8
_0-1_計細線
  6
CONTINUOUS
 62
    3
 10
1079
 20
663.65999999999974
 11
1073.9999999999991
 21
663.65999999999974
  0
LINE
  8
_0-1_計細線
  6
CONTINUOUS
 62
    3
 10
1074.8000000000002
 20
638.65999999999985
 11
1074.8000000011025
 21
658.75999999999999
  0
LINE
  8
_0-1_計細線
  6
CONTINUOUS
 62
    3
 10
1078.1999999999998
 20
638.65999999999985
 11
1078.200000001103
 21
658.75999999999999
  0
LINE
  8
_0-1_計細線
  6
CONTINUOUS
 62
    3
 10
1078.1999999999998
 20
638.65999999999985
 11
1074.8000000000002
 21
638.65999999999985
  0
ARC
  8
_0-1_計細線
  6
CONTINUOUS
 62
    3
 10
935.9999999996553
 20
661.65999999999963
 40
0.9999999999999997
 50
89.999999999999915
 51
179.99999999999983
  0
ARC
  8
_0-1_計細線
  6
CONTINUOUS
 62
    3
 10
936.46794919098284
 20
663.65999999999974
 40
0.9999999999999997
 50
269.99999999999977
 51
330.0000000000154
  0
ARC
  8
_0-1_計細線
  6
CONTINUOUS
 62
    3
 10
938.19999999855202
 20
662.65999999999985
 40
0.9999999999999997
 50
89.999999999999915
 51
150.00000000000097
  0
LINE
  8
_0-1_計細線
  6
CONTINUOUS
 62
    3
 10
935.9999999996553
 20
662.65999999999985
 11
936.46794919098284
 21
662.65999999999985
  0
ARC
  8
_0-1_計細線
  6
CONTINUOUS
 62
    3
 10
945.3999999974485
 20
661.65999999999963
 40
0.9999999999999997
 50
0
 51
89.999999999999915
  0
ARC
  8
_0-1_計細線
  6
CONTINUOUS
 62
    3
 10
944.93205080612097
 20
663.65999999999974
 40
0.9999999999999997
 50
210.00000000000995
 51
269.99999999999977
  0
ARC
  8
_0-1_計細線
  6
CONTINUOUS
 62
    3
 10
943.19999999855202
 20
662.65999999999985
 40
0.9999999999999997
 50
29.999999999972975
 51
89.999999999999901
  0
LINE
  8
_0-1_計細線
  6
CONTINUOUS
 62
    3
 10
945.3999999974485
 20
662.65999999999985
 11
944.93205080612097
 21
662.65999999999985
  0
ARC
  8
_0-1_計細線
  6
CONTINUOUS
 62
    3
 10
935.49999999965621
 20
660.25999999999999
 40
0.4999999999999998
 50
179.99999999999983
 51
269.99999999999977
  0
LINE
  8
_0-1_計細線
  6
CONTINUOUS
 62
    3
 10
934.99999999965621
 20
661.65999999999963
 11
934.99999999965621
 21
660.25999999999999
  0
ARC
  8
_0-1_計細線
  6
CONTINUOUS
 62
    3
 10
945.89999999744862
 20
660.25999999999999
 40
0.4999999999999998
 50
269.99999999999977
 51
359.99999999999966
  0
LINE
  8
_0-1_計細線
  6
CONTINUOUS
 62
    3
 10
946.39999999744941
 20
661.65999999999963
 11
946.39999999744941
 21
660.25999999999999
  0
ARC
  8
_0-1_計細線
  6
CONTINUOUS
 62
    3
 10
937.99999999965621
 20
658.75999999999999
 40
0.9999999999999997
 50
0
 51
89.999999999999915
  0
LINE
  8
_0-1_計細線
  6
CONTINUOUS
 62
    3
 10
937.99999999965621
 20
659.75999999999954
 11
935.49999999965621
 21
659.75999999999954
  0
ARC
  8
_0-1_計細線
  6
CONTINUOUS
 62
    3
 10
943.39999999965585
 20
658.75999999999999
 40
0.9999999999999997
 50
89.999999999999915
 51
179.99999999999983
  0
LINE
  8
_0-1_計細線
  6
CONTINUOUS
 62
    3
 10
943.39999999744941
 20
659.75999999999954
 11
945.89999999744862
 21
659.75999999999954
  0
LINE
  8
_0-1_計細線
  6
CONTINUOUS
 62
    3
 10
943.19999999855202
 20
663.65999999999974
 11
938.19999999855202
 21
663.65999999999974
  0
LINE
  8
_0-1_計細線
  6
CONTINUOUS
 62
    3
 10
938.99999999855208
 20
638.65999999999985
 11
938.9999999996553
 21
658.75999999999999
  0
LINE
  8
_0-1_計細線
  6
CONTINUOUS
 62
    3
 10
942.39999999855172
 20
638.65999999999985
 11
942.39999999965676
 21
658.75999999999999
  0
LINE
  8
_0-1_計細線
  6
CONTINUOUS
 62
    3
 10
942.39999999855172
 20
638.65999999999985
 11
938.99999999855208
 21
638.65999999999985
  0
ARC
  8
_0-1_計細線
  6
CONTINUOUS
 62
    3
 10
1224.6000000034091
 20
661.65999999999963
 40
0.9999999999999997
 50
89.999999999999915
 51
179.99999999999983
  0
ARC
  8
_0-1_計細線
  6
CONTINUOUS
 62
    3
 10
1225.0679491947376
 20
663.65999999999974
 40
0.9999999999999997
 50
269.99999999999977
 51
329.99999999998937
  0
ARC
  8
_0-1_計細線
  6
CONTINUOUS
 62
    3
 10
1226.8000000023048
 20
662.65999999999985
 40
0.9999999999999997
 50
89.999999999999915
 51
149.99999999997493
  0
LINE
  8
_0-1_計細線
  6
CONTINUOUS
 62
    3
 10
1224.6000000034091
 20
662.65999999999985
 11
1225.0679491947376
 21
662.65999999999985
  0
ARC
  8
_0-1_計細線
  6
CONTINUOUS
 62
    3
 10
1234.0000000012014
 20
661.65999999999963
 40
0.9999999999999997
 50
0
 51
89.999999999999915
  0
ARC
  8
_0-1_計細線
  6
CONTINUOUS
 62
    3
 10
1233.5320508098748
 20
663.65999999999974
 40
0.9999999999999997
 50
209.99999999998388
 51
269.99999999999977
  0
ARC
  8
_0-1_計細線
  6
CONTINUOUS
 62
    3
 10
1231.8000000023058
 20
662.65999999999985
 40
0.9999999999999997
 50
29.99999999999903
 51
89.999999999999901
  0
LINE
  8
_0-1_計細線
  6
CONTINUOUS
 62
    3
 10
1234.0000000012014
 20
662.65999999999985
 11
1233.5320508098748
 21
662.65999999999985
  0
ARC
  8
_0-1_計細線
  6
CONTINUOUS
 62
    3
 10
1224.1000000034082
 20
660.25999999999999
 40
0.4999999999999998
 50
179.99999999999983
 51
269.99999999999977
  0
LINE
  8
_0-1_計細線
  6
CONTINUOUS
 62
    3
 10
1223.6000000034091
 20
661.65999999999963
 11
1223.6000000034091
 21
660.25999999999999
  0
ARC
  8
_0-1_計細線
  6
CONTINUOUS
 62
    3
 10
1234.5000000012024
 20
660.25999999999999
 40
0.4999999999999998
 50
269.99999999999977
 51
359.99999999999966
  0
LINE
  8
_0-1_計細線
  6
CONTINUOUS
 62
    3
 10
1235.0000000012024
 20
661.65999999999963
 11
1235.0000000012024
 21
660.25999999999999
  0
ARC
  8
_0-1_計細線
  6
CONTINUOUS
 62
    3
 10
1226.6000000034091
 20
658.75999999999999
 40
0.9999999999999997
 50
0
 51
89.999999999999915
  0
LINE
  8
_0-1_計細線
  6
CONTINUOUS
 62
    3
 10
1226.6000000034091
 20
659.75999999999954
 11
1224.1000000034082
 21
659.75999999999954
  0
ARC
  8
_0-1_計細線
  6
CONTINUOUS
 62
    3
 10
1232.0000000034097
 20
658.75999999999999
 40
0.9999999999999997
 50
89.999999999999915
 51
179.99999999999983
  0
LINE
  8
_0-1_計細線
  6
CONTINUOUS
 62
    3
 10
1232.0000000012024
 20
659.75999999999954
 11
1234.5000000012024
 21
659.75999999999954
  0
LINE
  8
_0-1_計細線
  6
CONTINUOUS
 62
    3
 10
1231.8000000023058
 20
663.65999999999974
 11
1226.8000000023048
 21
663.65999999999974
  0
LINE
  8
_0-1_計細線
  6
CONTINUOUS
 62
    3
 10
1227.6000000023059
 20
638.65999999999985
 11
1227.6000000034091
 21
658.75999999999999
  0
LINE
  8
_0-1_計細線
  6
CONTINUOUS
 62
    3
 10
1231.0000000023065
 20
638.65999999999985
 11
1231.0000000034088
 21
658.75999999999999
  0
LINE
  8
_0-1_計細線
  6
CONTINUOUS
 62
    3
 10
1231.0000000023065
 20
638.65999999999985
 11
1227.6000000023059
 21
638.65999999999985
  0
ARC
  8
_0-1_計細線
  6
CONTINUOUS
 62
    3
 10
962.19999999676202
 20
661.65999999999963
 40
0.9999999999999997
 50
0
 51
89.999999999999915
  0
ARC
  8
_0-1_計細線
  6
CONTINUOUS
 62
    3
 10
961.73205080543448
 20
663.65999999999974
 40
0.9999999999999997
 50
210.00000000000995
 51
269.99999999999977
  0
ARC
  8
_0-1_計細線
  6
CONTINUOUS
 62
    3
 10
959.99999999786553
 20
662.65999999999985
 40
0.9999999999999997
 50
29.999999999972975
 51
89.999999999999901
  0
LINE
  8
_0-1_計細線
  6
CONTINUOUS
 62
    3
 10
962.19999999676202
 20
662.65999999999985
 11
961.73205080543448
 21
662.65999999999985
  0
ARC
  8
_0-1_計細線
  6
CONTINUOUS
 62
    3
 10
952.79999999896802
 20
661.65999999999963
 40
0.9999999999999997
 50
89.999999999999915
 51
179.99999999999983
  0
ARC
  8
_0-1_計細線
  6
CONTINUOUS
 62
    3
 10
953.26794919029635
 20
663.65999999999974
 40
0.9999999999999997
 50
269.99999999999977
 51
330.0000000000154
  0
ARC
  8
_0-1_計細線
  6
CONTINUOUS
 62
    3
 10
954.99999999786553
 20
662.65999999999985
 40
0.9999999999999997
 50
89.999999999999915
 51
150.00000000000097
  0
LINE
  8
_0-1_計細線
  6
CONTINUOUS
 62
    3
 10
952.79999999896802
 20
662.65999999999985
 11
953.26794919029635
 21
662.65999999999985
  0
ARC
  8
_0-1_計細線
  6
CONTINUOUS
 62
    3
 10
962.69999999676111
 20
660.25999999999999
 40
0.4999999999999998
 50
269.99999999999977
 51
359.99999999999966
  0
LINE
  8
_0-1_計細線
  6
CONTINUOUS
 62
    3
 10
963.19999999676213
 20
661.65999999999963
 11
963.19999999676213
 21
660.25999999999999
  0
ARC
  8
_0-1_計細線
  6
CONTINUOUS
 62
    3
 10
952.29999999896893
 20
660.25999999999999
 40
0.4999999999999998
 50
179.99999999999983
 51
269.99999999999977
  0
LINE
  8
_0-1_計細線
  6
CONTINUOUS
 62
    3
 10
951.79999999896972
 20
661.65999999999963
 11
951.79999999896972
 21
660.25999999999999
  0
ARC
  8
_0-1_計細線
  6
CONTINUOUS
 62
    3
 10
960.19999999676202
 20
658.75999999999999
 40
0.9999999999999997
 50
89.999999999999915
 51
179.99999999999983
  0
LINE
  8
_0-1_計細線
  6
CONTINUOUS
 62
    3
 10
960.19999999676202
 20
659.75999999999954
 11
962.69999999676111
 21
659.75999999999954
  0
ARC
  8
_0-1_計細線
  6
CONTINUOUS
 62
    3
 10
954.79999999676147
 20
658.75999999999999
 40
0.9999999999999997
 50
0
 51
89.999999999999915
  0
LINE
  8
_0-1_計細線
  6
CONTINUOUS
 62
    3
 10
954.79999999896972
 20
659.75999999999954
 11
952.29999999896893
 21
659.75999999999954
  0
LINE
  8
_0-1_計細線
  6
CONTINUOUS
 62
    3
 10
954.99999999786553
 20
663.65999999999974
 11
959.99999999786553
 21
663.65999999999974
  0
LINE
  8
_0-1_計細線
  6
CONTINUOUS
 62
    3
 10
959.19999999786523
 20
638.65999999999985
 11
959.19999999676202
 21
658.75999999999999
  0
LINE
  8
_0-1_計細線
  6
CONTINUOUS
 62
    3
 10
955.7999999978656
 20
638.65999999999985
 11
955.79999999676147
 21
658.75999999999999
  0
LINE
  8
_0-1_計細線
  6
CONTINUOUS
 62
    3
 10
955.7999999978656
 20
638.65999999999985
 11
959.19999999786523
 21
638.65999999999985
  0
ARC
  8
_0-1_計細線
  6
CONTINUOUS
 62
    3
 10
979.19999999693403
 20
661.65999999999963
 40
0.9999999999999997
 50
0
 51
89.999999999999915
  0
ARC
  8
_0-1_計細線
  6
CONTINUOUS
 62
    3
 10
978.73205080560638
 20
663.65999999999974
 40
0.9999999999999997
 50
210.00000000000995
 51
269.99999999999977
  0
ARC
  8
_0-1_計細線
  6
CONTINUOUS
 62
    3
 10
976.99999999803731
 20
662.65999999999985
 40
0.9999999999999997
 50
29.999999999972975
 51
89.999999999999901
  0
LINE
  8
_0-1_計細線
  6
CONTINUOUS
 62
    3
 10
979.19999999693403
 20
662.65999999999985
 11
978.73205080560638
 21
662.65999999999985
  0
ARC
  8
_0-1_計細線
  6
CONTINUOUS
 62
    3
 10
969.7999999991398
 20
661.65999999999963
 40
0.9999999999999997
 50
89.999999999999915
 51
179.99999999999983
  0
ARC
  8
_0-1_計細線
  6
CONTINUOUS
 62
    3
 10
970.26794919046836
 20
663.65999999999974
 40
0.9999999999999997
 50
269.99999999999977
 51
329.99999999998937
  0
ARC
  8
_0-1_計細線
  6
CONTINUOUS
 62
    3
 10
971.99999999803731
 20
662.65999999999985
 40
0.9999999999999997
 50
89.999999999999915
 51
150.00000000002703
  0
LINE
  8
_0-1_計細線
  6
CONTINUOUS
 62
    3
 10
969.7999999991398
 20
662.65999999999985
 11
970.26794919046836
 21
662.65999999999985
  0
ARC
  8
_0-1_計細線
  6
CONTINUOUS
 62
    3
 10
979.699999996933
 20
660.25999999999999
 40
0.4999999999999998
 50
269.99999999999977
 51
359.99999999999966
  0
LINE
  8
_0-1_計細線
  6
CONTINUOUS
 62
    3
 10
980.19999999693312
 20
661.65999999999963
 11
980.19999999693312
 21
660.25999999999999
  0
ARC
  8
_0-1_計細線
  6
CONTINUOUS
 62
    3
 10
969.29999999914071
 20
660.25999999999999
 40
0.4999999999999998
 50
179.99999999999983
 51
269.99999999999977
  0
LINE
  8
_0-1_計細線
  6
CONTINUOUS
 62
    3
 10
968.79999999914162
 20
661.65999999999963
 11
968.79999999914162
 21
660.25999999999999
  0
ARC
  8
_0-1_計細線
  6
CONTINUOUS
 62
    3
 10
977.199999996933
 20
658.75999999999999
 40
0.9999999999999997
 50
89.999999999999915
 51
179.99999999999983
  0
LINE
  8
_0-1_計細線
  6
CONTINUOUS
 62
    3
 10
977.199999996933
 20
659.75999999999954
 11
979.699999996933
 21
659.75999999999954
  0
ARC
  8
_0-1_計細線
  6
CONTINUOUS
 62
    3
 10
971.79999999693337
 20
658.75999999999999
 40
0.9999999999999997
 50
0
 51
89.999999999999915
  0
LINE
  8
_0-1_計細線
  6
CONTINUOUS
 62
    3
 10
971.79999999914173
 20
659.75999999999954
 11
969.29999999914071
 21
659.75999999999954
  0
LINE
  8
_0-1_計細線
  6
CONTINUOUS
 62
    3
 10
971.99999999803731
 20
663.65999999999974
 11
976.99999999803731
 21
663.65999999999974
  0
LINE
  8
_0-1_計細線
  6
CONTINUOUS
 62
    3
 10
976.19999999803724
 20
638.65999999999985
 11
976.19999999693391
 21
658.75999999999999
  0
LINE
  8
_0-1_計細線
  6
CONTINUOUS
 62
    3
 10
972.79999999803749
 20
638.65999999999985
 11
972.79999999693348
 21
658.75999999999999
  0
LINE
  8
_0-1_計細線
  6
CONTINUOUS
 62
    3
 10
972.79999999803749
 20
638.65999999999985
 11
976.19999999803724
 21
638.65999999999985
  0
ARC
  8
_0-1_計細線
  6
CONTINUOUS
 62
    3
 10
996.19999999710581
 20
661.65999999999963
 40
0.9999999999999997
 50
0
 51
89.999999999999915
  0
ARC
  8
_0-1_計細線
  6
CONTINUOUS
 62
    3
 10
995.73205080577839
 20
663.65999999999974
 40
0.9999999999999997
 50
209.99999999998388
 51
269.99999999999977
  0
ARC
  8
_0-1_計細線
  6
CONTINUOUS
 62
    3
 10
993.9999999982092
 20
662.65999999999985
 40
0.9999999999999997
 50
29.99999999999903
 51
89.999999999999901
  0
LINE
  8
_0-1_計細線
  6
CONTINUOUS
 62
    3
 10
996.19999999710581
 20
662.65999999999985
 11
995.73205080577839
 21
662.65999999999985
  0
ARC
  8
_0-1_計細線
  6
CONTINUOUS
 62
    3
 10
986.79999999931272
 20
661.65999999999963
 40
0.9999999999999997
 50
89.999999999999915
 51
179.99999999999983
  0
ARC
  8
_0-1_計細線
  6
CONTINUOUS
 62
    3
 10
987.26794919064014
 20
663.65999999999974
 40
0.9999999999999997
 50
269.99999999999977
 51
329.99999999998937
  0
ARC
  8
_0-1_計細線
  6
CONTINUOUS
 62
    3
 10
988.9999999982092
 20
662.65999999999985
 40
0.9999999999999997
 50
89.999999999999915
 51
150.00000000002703
  0
LINE
  8
_0-1_計細線
  6
CONTINUOUS
 62
    3
 10
986.79999999931272
 20
662.65999999999985
 11
987.26794919064014
 21
662.65999999999985
  0
ARC
  8
_0-1_計細線
  6
CONTINUOUS
 62
    3
 10
996.69999999710501
 20
660.25999999999999
 40
0.4999999999999998
 50
269.99999999999977
 51
359.99999999999966
  0
LINE
  8
_0-1_計細線
  6
CONTINUOUS
 62
    3
 10
997.1999999971049
 20
661.65999999999963
 11
997.1999999971049
 21
660.25999999999999
  0
ARC
  8
_0-1_計細線
  6
CONTINUOUS
 62
    3
 10
986.29999999931272
 20
660.25999999999999
 40
0.4999999999999998
 50
179.99999999999983
 51
269.99999999999977
  0
LINE
  8
_0-1_計細線
  6
CONTINUOUS
 62
    3
 10
985.7999999993126
 20
661.65999999999963
 11
985.7999999993126
 21
660.25999999999999
  0
ARC
  8
_0-1_計細線
  6
CONTINUOUS
 62
    3
 10
994.19999999710501
 20
658.75999999999999
 40
0.9999999999999997
 50
89.999999999999915
 51
179.99999999999983
  0
LINE
  8
_0-1_計細線
  6
CONTINUOUS
 62
    3
 10
994.19999999710501
 20
659.75999999999954
 11
996.69999999710501
 21
659.75999999999954
  0
ARC
  8
_0-1_計細線
  6
CONTINUOUS
 62
    3
 10
988.79999999710537
 20
658.75999999999999
 40
0.9999999999999997
 50
0
 51
89.999999999999915
  0
LINE
  8
_0-1_計細線
  6
CONTINUOUS
 62
    3
 10
988.79999999931272
 20
659.75999999999954
 11
986.29999999931272
 21
659.75999999999954
  0
LINE
  8
_0-1_計細線
  6
CONTINUOUS
 62
    3
 10
988.9999999982092
 20
663.65999999999974
 11
993.9999999982092
 21
663.65999999999974
  0
LINE
  8
_0-1_計細線
  6
CONTINUOUS
 62
    3
 10
993.19999999820902
 20
638.65999999999985
 11
993.19999999710592
 21
658.75999999999999
  0
LINE
  8
_0-1_計細線
  6
CONTINUOUS
 62
    3
 10
989.7999999982095
 20
638.65999999999985
 11
989.79999999710446
 21
658.75999999999999
  0
LINE
  8
_0-1_計細線
  6
CONTINUOUS
 62
    3
 10
989.7999999982095
 20
638.65999999999985
 11
993.19999999820902
 21
638.65999999999985
  0
ARC
  8
_0-1_計細線
  6
CONTINUOUS
 62
    3
 10
1207.800000003238
 20
661.65999999999963
 40
0.9999999999999997
 50
89.999999999999915
 51
179.99999999999983
  0
ARC
  8
_0-1_計細線
  6
CONTINUOUS
 62
    3
 10
1208.2679491945646
 20
663.65999999999974
 40
0.9999999999999997
 50
269.99999999999977
 51
330.0000000000154
  0
ARC
  8
_0-1_計細線
  6
CONTINUOUS
 62
    3
 10
1210.0000000021337
 20
662.65999999999985
 40
0.9999999999999997
 50
89.999999999999915
 51
150.00000000000097
  0
LINE
  8
_0-1_計細線
  6
CONTINUOUS
 62
    3
 10
1207.800000003238
 20
662.65999999999985
 11
1208.2679491945646
 21
662.65999999999985
  0
ARC
  8
_0-1_計細線
  6
CONTINUOUS
 62
    3
 10
1217.2000000010303
 20
661.65999999999963
 40
0.9999999999999997
 50
0
 51
89.999999999999915
  0
ARC
  8
_0-1_計細線
  6
CONTINUOUS
 62
    3
 10
1216.7320508097018
 20
663.65999999999974
 40
0.9999999999999997
 50
210.00000000000995
 51
269.99999999999977
  0
ARC
  8
_0-1_計細線
  6
CONTINUOUS
 62
    3
 10
1215.0000000021328
 20
662.65999999999985
 40
0.9999999999999997
 50
29.999999999972975
 51
89.999999999999901
  0
LINE
  8
_0-1_計細線
  6
CONTINUOUS
 62
    3
 10
1217.2000000010303
 20
662.65999999999985
 11
1216.7320508097018
 21
662.65999999999985
  0
ARC
  8
_0-1_計細線
  6
CONTINUOUS
 62
    3
 10
1207.3000000032371
 20
660.25999999999999
 40
0.4999999999999998
 50
179.99999999999983
 51
269.99999999999977
  0
LINE
  8
_0-1_計細線
  6
CONTINUOUS
 62
    3
 10
1206.8000000032371
 20
661.65999999999963
 11
1206.8000000032371
 21
660.25999999999999
  0
ARC
  8
_0-1_計細線
  6
CONTINUOUS
 62
    3
 10
1217.7000000010312
 20
660.25999999999999
 40
0.4999999999999998
 50
269.99999999999977
 51
359.99999999999966
  0
LINE
  8
_0-1_計細線
  6
CONTINUOUS
 62
    3
 10
1218.2000000010303
 20
661.65999999999963
 11
1218.2000000010303
 21
660.25999999999999
  0
ARC
  8
_0-1_計細線
  6
CONTINUOUS
 62
    3
 10
1209.8000000032371
 20
658.75999999999999
 40
0.9999999999999997
 50
0
 51
89.999999999999915
  0
LINE
  8
_0-1_計細線
  6
CONTINUOUS
 62
    3
 10
1209.8000000032371
 20
659.75999999999954
 11
1207.3000000032371
 21
659.75999999999954
  0
ARC
  8
_0-1_計細線
  6
CONTINUOUS
 62
    3
 10
1215.2000000032367
 20
658.75999999999999
 40
0.9999999999999997
 50
89.999999999999915
 51
179.99999999999983
  0
LINE
  8
_0-1_計細線
  6
CONTINUOUS
 62
    3
 10
1215.2000000010303
 20
659.75999999999954
 11
1217.7000000010312
 21
659.75999999999954
  0
LINE
  8
_0-1_計細線
  6
CONTINUOUS
 62
    3
 10
1215.0000000021328
 20
663.65999999999974
 11
1210.0000000021337
 21
663.65999999999974
  0
LINE
  8
_0-1_計細線
  6
CONTINUOUS
 62
    3
 10
1210.8000000021329
 20
638.65999999999985
 11
1210.800000003238
 21
658.75999999999999
  0
LINE
  8
_0-1_計細線
  6
CONTINUOUS
 62
    3
 10
1214.2000000021335
 20
638.65999999999985
 11
1214.2000000032376
 21
658.75999999999999
  0
LINE
  8
_0-1_計細線
  6
CONTINUOUS
 62
    3
 10
1214.2000000021335
 20
638.65999999999985
 11
1210.8000000021329
 21
638.65999999999985
  0
ARC
  8
_0-1_計細線
  6
CONTINUOUS
 62
    3
 10
1190.8000000030661
 20
661.65999999999963
 40
0.9999999999999997
 50
89.999999999999915
 51
179.99999999999983
  0
ARC
  8
_0-1_計細線
  6
CONTINUOUS
 62
    3
 10
1191.2679491943936
 20
663.65999999999974
 40
0.9999999999999997
 50
269.99999999999977
 51
329.99999999998937
  0
ARC
  8
_0-1_計細線
  6
CONTINUOUS
 62
    3
 10
1193.0000000019618
 20
662.65999999999985
 40
0.9999999999999997
 50
89.999999999999915
 51
150.00000000000097
  0
LINE
  8
_0-1_計細線
  6
CONTINUOUS
 62
    3
 10
1190.8000000030661
 20
662.65999999999985
 11
1191.2679491943936
 21
662.65999999999985
  0
ARC
  8
_0-1_計細線
  6
CONTINUOUS
 62
    3
 10
1200.2000000008575
 20
661.65999999999963
 40
0.9999999999999997
 50
0
 51
89.999999999999915
  0
ARC
  8
_0-1_計細線
  6
CONTINUOUS
 62
    3
 10
1199.7320508095299
 20
663.65999999999974
 40
0.9999999999999997
 50
210.00000000000995
 51
269.99999999999977
  0
ARC
  8
_0-1_計細線
  6
CONTINUOUS
 62
    3
 10
1198.0000000019618
 20
662.65999999999985
 40
0.9999999999999997
 50
29.99999999999903
 51
89.999999999999901
  0
LINE
  8
_0-1_計細線
  6
CONTINUOUS
 62
    3
 10
1200.2000000008575
 20
662.65999999999985
 11
1199.7320508095299
 21
662.65999999999985
  0
ARC
  8
_0-1_計細線
  6
CONTINUOUS
 62
    3
 10
1190.3000000030652
 20
660.25999999999999
 40
0.4999999999999998
 50
179.99999999999983
 51
269.99999999999977
  0
LINE
  8
_0-1_計細線
  6
CONTINUOUS
 62
    3
 10
1189.8000000030652
 20
661.65999999999963
 11
1189.8000000030652
 21
660.25999999999999
  0
ARC
  8
_0-1_計細線
  6
CONTINUOUS
 62
    3
 10
1200.7000000008593
 20
660.25999999999999
 40
0.4999999999999998
 50
269.99999999999977
 51
359.99999999999966
  0
LINE
  8
_0-1_計細線
  6
CONTINUOUS
 62
    3
 10
1201.2000000008584
 20
661.65999999999963
 11
1201.2000000008584
 21
660.25999999999999
  0
ARC
  8
_0-1_計細線
  6
CONTINUOUS
 62
    3
 10
1192.8000000030652
 20
658.75999999999999
 40
0.9999999999999997
 50
0
 51
89.999999999999915
  0
LINE
  8
_0-1_計細線
  6
CONTINUOUS
 62
    3
 10
1192.8000000030652
 20
659.75999999999954
 11
1190.3000000030652
 21
659.75999999999954
  0
ARC
  8
_0-1_計細線
  6
CONTINUOUS
 62
    3
 10
1198.2000000030648
 20
658.75999999999999
 40
0.9999999999999997
 50
89.999999999999915
 51
179.99999999999983
  0
LINE
  8
_0-1_計細線
  6
CONTINUOUS
 62
    3
 10
1198.2000000008584
 20
659.75999999999954
 11
1200.7000000008593
 21
659.75999999999954
  0
LINE
  8
_0-1_計細線
  6
CONTINUOUS
 62
    3
 10
1198.0000000019618
 20
663.65999999999974
 11
1193.0000000019618
 21
663.65999999999974
  0
LINE
  8
_0-1_計細線
  6
CONTINUOUS
 62
    3
 10
1193.8000000019611
 20
638.65999999999985
 11
1193.8000000030661
 21
658.75999999999999
  0
LINE
  8
_0-1_計細線
  6
CONTINUOUS
 62
    3
 10
1197.2000000019625
 20
638.65999999999985
 11
1197.2000000030657
 21
658.75999999999999
  0
LINE
  8
_0-1_計細線
  6
CONTINUOUS
 62
    3
 10
1197.2000000019625
 20
638.65999999999985
 11
1193.8000000019611
 21
638.65999999999985
  0
ARC
  8
_0-1_計細線
  6
CONTINUOUS
 62
    3
 10
1173.8000000028942
 20
661.65999999999963
 40
0.9999999999999997
 50
89.999999999999915
 51
179.99999999999983
  0
ARC
  8
_0-1_計細線
  6
CONTINUOUS
 62
    3
 10
1174.2679491942217
 20
663.65999999999974
 40
0.9999999999999997
 50
269.99999999999977
 51
329.99999999998937
  0
ARC
  8
_0-1_計細線
  6
CONTINUOUS
 62
    3
 10
1176.0000000017908
 20
662.65999999999985
 40
0.9999999999999997
 50
89.999999999999915
 51
150.00000000002703
  0
LINE
  8
_0-1_計細線
  6
CONTINUOUS
 62
    3
 10
1173.8000000028942
 20
662.65999999999985
 11
1174.2679491942217
 21
662.65999999999985
  0
ARC
  8
_0-1_計細線
  6
CONTINUOUS
 62
    3
 10
1183.2000000006856
 20
661.65999999999963
 40
0.9999999999999997
 50
0
 51
89.999999999999915
  0
ARC
  8
_0-1_計細線
  6
CONTINUOUS
 62
    3
 10
1182.732050809359
 20
663.65999999999974
 40
0.9999999999999997
 50
209.99999999998388
 51
269.99999999999977
  0
ARC
  8
_0-1_計細線
  6
CONTINUOUS
 62
    3
 10
1181.0000000017899
 20
662.65999999999985
 40
0.9999999999999997
 50
29.99999999999903
 51
89.999999999999901
  0
LINE
  8
_0-1_計細線
  6
CONTINUOUS
 62
    3
 10
1183.2000000006856
 20
662.65999999999985
 11
1182.732050809359
 21
662.65999999999985
  0
ARC
  8
_0-1_計細線
  6
CONTINUOUS
 62
    3
 10
1173.3000000028924
 20
660.25999999999999
 40
0.4999999999999998
 50
179.99999999999983
 51
269.99999999999977
  0
LINE
  8
_0-1_計細線
  6
CONTINUOUS
 62
    3
 10
1172.8000000028933
 20
661.65999999999963
 11
1172.8000000028933
 21
660.25999999999999
  0
ARC
  8
_0-1_計細線
  6
CONTINUOUS
 62
    3
 10
1183.7000000006874
 20
660.25999999999999
 40
0.4999999999999998
 50
269.99999999999977
 51
359.99999999999966
  0
LINE
  8
_0-1_計細線
  6
CONTINUOUS
 62
    3
 10
1184.2000000006865
 20
661.65999999999963
 11
1184.2000000006865
 21
660.25999999999999
  0
ARC
  8
_0-1_計細線
  6
CONTINUOUS
 62
    3
 10
1175.8000000028933
 20
658.75999999999999
 40
0.9999999999999997
 50
0
 51
89.999999999999915
  0
LINE
  8
_0-1_計細線
  6
CONTINUOUS
 62
    3
 10
1175.8000000028933
 20
659.75999999999954
 11
1173.3000000028924
 21
659.75999999999954
  0
ARC
  8
_0-1_計細線
  6
CONTINUOUS
 62
    3
 10
1181.2000000028938
 20
658.75999999999999
 40
0.9999999999999997
 50
89.999999999999915
 51
179.99999999999983
  0
LINE
  8
_0-1_計細線
  6
CONTINUOUS
 62
    3
 10
1181.2000000006865
 20
659.75999999999954
 11
1183.7000000006874
 21
659.75999999999954
  0
LINE
  8
_0-1_計細線
  6
CONTINUOUS
 62
    3
 10
1181.0000000017899
 20
663.65999999999974
 11
1176.0000000017908
 21
663.65999999999974
  0
LINE
  8
_0-1_計細線
  6
CONTINUOUS
 62
    3
 10
1176.8000000017901
 20
638.65999999999985
 11
1176.8000000028942
 21
658.75999999999999
  0
LINE
  8
_0-1_計細線
  6
CONTINUOUS
 62
    3
 10
1180.2000000017906
 20
638.65999999999985
 11
1180.2000000028938
 21
658.75999999999999
  0
LINE
  8
_0-1_計細線
  6
CONTINUOUS
 62
    3
 10
1180.2000000017906
 20
638.65999999999985
 11
1176.8000000017901
 21
638.65999999999985
  0
ARC
  8
_0-1_計細線
  6
CONTINUOUS
 62
    3
 10
1003.8000000000184
 20
661.65999999999963
 40
0.9999999999999997
 50
89.999999999999915
 51
179.99999999999983
  0
ARC
  8
_0-1_計細線
  6
CONTINUOUS
 62
    3
 10
1004.2679491913451
 20
663.65999999999974
 40
0.9999999999999997
 50
269.99999999999977
 51
330.0000000000154
  0
ARC
  8
_0-1_計細線
  6
CONTINUOUS
 62
    3
 10
1005.9999999989141
 20
662.65999999999985
 40
0.9999999999999997
 50
89.999999999999915
 51
150.00000000000097
  0
LINE
  8
_0-1_計細線
  6
CONTINUOUS
 62
    3
 10
1003.8000000000184
 20
662.65999999999985
 11
1004.2679491913451
 21
662.65999999999985
  0
ARC
  8
_0-1_計細線
  6
CONTINUOUS
 62
    3
 10
1013.1999999978098
 20
661.65999999999963
 40
0.9999999999999997
 50
0
 51
89.999999999999915
  0
ARC
  8
_0-1_計細線
  6
CONTINUOUS
 62
    3
 10
1012.7320508064822
 20
663.65999999999974
 40
0.9999999999999997
 50
210.00000000000995
 51
269.99999999999977
  0
ARC
  8
_0-1_計細線
  6
CONTINUOUS
 62
    3
 10
1010.9999999989133
 20
662.65999999999985
 40
0.9999999999999997
 50
29.999999999972975
 51
89.999999999999901
  0
LINE
  8
_0-1_計細線
  6
CONTINUOUS
 62
    3
 10
1013.1999999978098
 20
662.65999999999985
 11
1012.7320508064822
 21
662.65999999999985
  0
ARC
  8
_0-1_計細線
  6
CONTINUOUS
 62
    3
 10
1003.3000000000175
 20
660.25999999999999
 40
0.4999999999999998
 50
179.99999999999983
 51
269.99999999999977
  0
LINE
  8
_0-1_計細線
  6
CONTINUOUS
 62
    3
 10
1002.8000000000175
 20
661.65999999999963
 11
1002.8000000000175
 21
660.25999999999999
  0
ARC
  8
_0-1_計細線
  6
CONTINUOUS
 62
    3
 10
1013.6999999978099
 20
660.25999999999999
 40
0.4999999999999998
 50
269.99999999999977
 51
359.99999999999966
  0
LINE
  8
_0-1_計細線
  6
CONTINUOUS
 62
    3
 10
1014.1999999978107
 20
661.65999999999963
 11
1014.1999999978107
 21
660.25999999999999
  0
ARC
  8
_0-1_計細線
  6
CONTINUOUS
 62
    3
 10
1005.8000000000175
 20
658.75999999999999
 40
0.9999999999999997
 50
0
 51
89.999999999999915
  0
LINE
  8
_0-1_計細線
  6
CONTINUOUS
 62
    3
 10
1005.8000000000175
 20
659.75999999999954
 11
1003.3000000000175
 21
659.75999999999954
  0
ARC
  8
_0-1_計細線
  6
CONTINUOUS
 62
    3
 10
1011.2000000000171
 20
658.75999999999999
 40
0.9999999999999997
 50
89.999999999999915
 51
179.99999999999983
  0
LINE
  8
_0-1_計細線
  6
CONTINUOUS
 62
    3
 10
1011.1999999978107
 20
659.75999999999954
 11
1013.6999999978099
 21
659.75999999999954
  0
LINE
  8
_0-1_計細線
  6
CONTINUOUS
 62
    3
 10
1010.9999999989133
 20
663.65999999999974
 11
1005.9999999989141
 21
663.65999999999974
  0
LINE
  8
_0-1_計細線
  6
CONTINUOUS
 62
    3
 10
1006.7999999989133
 20
638.65999999999985
 11
1006.8000000000184
 21
658.75999999999999
  0
LINE
  8
_0-1_計細線
  6
CONTINUOUS
 62
    3
 10
1010.199999998914
 20
638.65999999999985
 11
1010.200000000018
 21
658.75999999999999
  0
LINE
  8
_0-1_計細線
  6
CONTINUOUS
 62
    3
 10
1010.199999998914
 20
638.65999999999985
 11
1006.7999999989133
 21
638.65999999999985
  0
ARC
  8
_0-1_計細線
  6
CONTINUOUS
 62
    3
 10
1156.8000000027214
 20
661.65999999999963
 40
0.9999999999999997
 50
89.999999999999915
 51
179.99999999999983
  0
ARC
  8
_0-1_計細線
  6
CONTINUOUS
 62
    3
 10
1157.2679491940498
 20
663.65999999999974
 40
0.9999999999999997
 50
269.99999999999977
 51
329.99999999998937
  0
ARC
  8
_0-1_計細線
  6
CONTINUOUS
 62
    3
 10
1159.0000000016189
 20
662.65999999999985
 40
0.9999999999999997
 50
89.999999999999915
 51
150.00000000002703
  0
LINE
  8
_0-1_計細線
  6
CONTINUOUS
 62
    3
 10
1156.8000000027214
 20
662.65999999999985
 11
1157.2679491940498
 21
662.65999999999985
  0
ARC
  8
_0-1_計細線
  6
CONTINUOUS
 62
    3
 10
1166.2000000005146
 20
661.65999999999963
 40
0.9999999999999997
 50
0
 51
89.999999999999915
  0
ARC
  8
_0-1_計細線
  6
CONTINUOUS
 62
    3
 10
1165.7320508091871
 20
663.65999999999974
 40
0.9999999999999997
 50
209.99999999998388
 51
269.99999999999977
  0
ARC
  8
_0-1_計細線
  6
CONTINUOUS
 62
    3
 10
1164.000000001618
 20
662.65999999999985
 40
0.9999999999999997
 50
29.99999999999903
 51
89.999999999999901
  0
LINE
  8
_0-1_計細線
  6
CONTINUOUS
 62
    3
 10
1166.2000000005146
 20
662.65999999999985
 11
1165.7320508091871
 21
662.65999999999985
  0
ARC
  8
_0-1_計細線
  6
CONTINUOUS
 62
    3
 10
1156.3000000027214
 20
660.25999999999999
 40
0.4999999999999998
 50
179.99999999999983
 51
269.99999999999977
  0
LINE
  8
_0-1_計細線
  6
CONTINUOUS
 62
    3
 10
1155.8000000027214
 20
661.65999999999963
 11
1155.8000000027214
 21
660.25999999999999
  0
ARC
  8
_0-1_計細線
  6
CONTINUOUS
 62
    3
 10
1166.7000000005146
 20
660.25999999999999
 40
0.4999999999999998
 50
269.99999999999977
 51
359.99999999999966
  0
LINE
  8
_0-1_計細線
  6
CONTINUOUS
 62
    3
 10
1167.2000000005146
 20
661.65999999999963
 11
1167.2000000005146
 21
660.25999999999999
  0
ARC
  8
_0-1_計細線
  6
CONTINUOUS
 62
    3
 10
1158.8000000027214
 20
658.75999999999999
 40
0.9999999999999997
 50
0
 51
89.999999999999915
  0
LINE
  8
_0-1_計細線
  6
CONTINUOUS
 62
    3
 10
1158.8000000027214
 20
659.75999999999954
 11
1156.3000000027214
 21
659.75999999999954
  0
ARC
  8
_0-1_計細線
  6
CONTINUOUS
 62
    3
 10
1164.2000000027219
 20
658.75999999999999
 40
0.9999999999999997
 50
89.999999999999915
 51
179.99999999999983
  0
LINE
  8
_0-1_計細線
  6
CONTINUOUS
 62
    3
 10
1164.2000000005146
 20
659.75999999999954
 11
1166.7000000005146
 21
659.75999999999954
  0
LINE
  8
_0-1_計細線
  6
CONTINUOUS
 62
    3
 10
1164.000000001618
 20
663.65999999999974
 11
1159.0000000016189
 21
663.65999999999974
  0
LINE
  8
_0-1_計細線
  6
CONTINUOUS
 62
    3
 10
1159.8000000016182
 20
638.65999999999985
 11
1159.8000000027214
 21
658.75999999999999
  0
LINE
  8
_0-1_計細線
  6
CONTINUOUS
 62
    3
 10
1163.2000000016187
 20
638.65999999999985
 11
1163.2000000027219
 21
658.75999999999999
  0
LINE
  8
_0-1_計細線
  6
CONTINUOUS
 62
    3
 10
1163.2000000016187
 20
638.65999999999985
 11
1159.8000000016182
 21
638.65999999999985
  0
ARC
  8
_0-1_計細線
  6
CONTINUOUS
 62
    3
 10
1139.8000000023594
 20
661.65999999999963
 40
0.9999999999999997
 50
89.999999999999915
 51
179.99999999999983
  0
ARC
  8
_0-1_計細線
  6
CONTINUOUS
 62
    3
 10
1140.2679491936869
 20
663.65999999999974
 40
0.9999999999999997
 50
269.99999999999977
 51
330.0000000000154
  0
ARC
  8
_0-1_計細線
  6
CONTINUOUS
 62
    3
 10
1142.000000001256
 20
662.65999999999985
 40
0.9999999999999997
 50
89.999999999999915
 51
150.00000000000097
  0
LINE
  8
_0-1_計細線
  6
CONTINUOUS
 62
    3
 10
1139.8000000023594
 20
662.65999999999985
 11
1140.2679491936869
 21
662.65999999999985
  0
ARC
  8
_0-1_計細線
  6
CONTINUOUS
 62
    3
 10
1149.2000000001526
 20
661.65999999999963
 40
0.9999999999999997
 50
0
 51
89.999999999999915
  0
ARC
  8
_0-1_計細線
  6
CONTINUOUS
 62
    3
 10
1148.7320508088251
 20
663.65999999999974
 40
0.9999999999999997
 50
210.00000000000995
 51
269.99999999999977
  0
ARC
  8
_0-1_計細線
  6
CONTINUOUS
 62
    3
 10
1147.000000001256
 20
662.65999999999985
 40
0.9999999999999997
 50
29.999999999972975
 51
89.999999999999901
  0
LINE
  8
_0-1_計細線
  6
CONTINUOUS
 62
    3
 10
1149.2000000001526
 20
662.65999999999985
 11
1148.7320508088251
 21
662.65999999999985
  0
ARC
  8
_0-1_計細線
  6
CONTINUOUS
 62
    3
 10
1139.3000000023594
 20
660.25999999999999
 40
0.4999999999999998
 50
179.99999999999983
 51
269.99999999999977
  0
LINE
  8
_0-1_計細線
  6
CONTINUOUS
 62
    3
 10
1138.8000000023603
 20
661.65999999999963
 11
1138.8000000023603
 21
660.25999999999999
  0
ARC
  8
_0-1_計細線
  6
CONTINUOUS
 62
    3
 10
1149.7000000001526
 20
660.25999999999999
 40
0.4999999999999998
 50
269.99999999999977
 51
359.99999999999966
  0
LINE
  8
_0-1_計細線
  6
CONTINUOUS
 62
    3
 10
1150.2000000001535
 20
661.65999999999963
 11
1150.2000000001535
 21
660.25999999999999
  0
ARC
  8
_0-1_計細線
  6
CONTINUOUS
 62
    3
 10
1141.8000000023603
 20
658.75999999999999
 40
0.9999999999999997
 50
0
 51
89.999999999999915
  0
LINE
  8
_0-1_計細線
  6
CONTINUOUS
 62
    3
 10
1141.8000000023603
 20
659.75999999999954
 11
1139.3000000023594
 21
659.75999999999954
  0
ARC
  8
_0-1_計細線
  6
CONTINUOUS
 62
    3
 10
1147.20000000236
 20
658.75999999999999
 40
0.9999999999999997
 50
89.999999999999915
 51
179.99999999999983
  0
LINE
  8
_0-1_計細線
  6
CONTINUOUS
 62
    3
 10
1147.2000000001535
 20
659.75999999999954
 11
1149.7000000001526
 21
659.75999999999954
  0
LINE
  8
_0-1_計細線
  6
CONTINUOUS
 62
    3
 10
1147.000000001256
 20
663.65999999999974
 11
1142.000000001256
 21
663.65999999999974
  0
LINE
  8
_0-1_計細線
  6
CONTINUOUS
 62
    3
 10
1142.8000000012562
 20
638.65999999999985
 11
1142.8000000023594
 21
658.75999999999999
  0
LINE
  8
_0-1_計細線
  6
CONTINUOUS
 62
    3
 10
1146.2000000012567
 20
638.65999999999985
 11
1146.200000002359
 21
658.75999999999999
  0
LINE
  8
_0-1_計細線
  6
CONTINUOUS
 62
    3
 10
1146.2000000012567
 20
638.65999999999985
 11
1142.8000000012562
 21
638.65999999999985
  0
ARC
  8
_0-1_計細線
  6
CONTINUOUS
 62
    3
 10
1020.8000000000175
 20
661.65999999999963
 40
0.9999999999999997
 50
89.999999999999915
 51
179.99999999999983
  0
ARC
  8
_0-1_計細線
  6
CONTINUOUS
 62
    3
 10
1021.2679491913451
 20
663.65999999999974
 40
0.9999999999999997
 50
269.99999999999977
 51
329.99999999998937
  0
ARC
  8
_0-1_計細線
  6
CONTINUOUS
 62
    3
 10
1022.9999999989133
 20
662.65999999999985
 40
0.9999999999999997
 50
89.999999999999915
 51
150.00000000000097
  0
LINE
  8
_0-1_計細線
  6
CONTINUOUS
 62
    3
 10
1020.8000000000175
 20
662.65999999999985
 11
1021.2679491913451
 21
662.65999999999985
  0
ARC
  8
_0-1_計細線
  6
CONTINUOUS
 62
    3
 10
1030.1999999978098
 20
661.65999999999963
 40
0.9999999999999997
 50
0
 51
89.999999999999915
  0
ARC
  8
_0-1_計細線
  6
CONTINUOUS
 62
    3
 10
1029.7320508064831
 20
663.65999999999974
 40
0.9999999999999997
 50
209.99999999998388
 51
269.99999999999977
  0
ARC
  8
_0-1_計細線
  6
CONTINUOUS
 62
    3
 10
1027.9999999989141
 20
662.65999999999985
 40
0.9999999999999997
 50
29.99999999999903
 51
89.999999999999901
  0
LINE
  8
_0-1_計細線
  6
CONTINUOUS
 62
    3
 10
1030.1999999978098
 20
662.65999999999985
 11
1029.7320508064831
 21
662.65999999999985
  0
ARC
  8
_0-1_計細線
  6
CONTINUOUS
 62
    3
 10
1020.3000000000185
 20
660.25999999999999
 40
0.4999999999999998
 50
179.99999999999983
 51
269.99999999999977
  0
LINE
  8
_0-1_計細線
  6
CONTINUOUS
 62
    3
 10
1019.8000000000175
 20
661.65999999999963
 11
1019.8000000000175
 21
660.25999999999999
  0
ARC
  8
_0-1_計細線
  6
CONTINUOUS
 62
    3
 10
1030.6999999978107
 20
660.25999999999999
 40
0.4999999999999998
 50
269.99999999999977
 51
359.99999999999966
  0
LINE
  8
_0-1_計細線
  6
CONTINUOUS
 62
    3
 10
1031.1999999978098
 20
661.65999999999963
 11
1031.1999999978098
 21
660.25999999999999
  0
ARC
  8
_0-1_計細線
  6
CONTINUOUS
 62
    3
 10
1022.8000000000175
 20
658.75999999999999
 40
0.9999999999999997
 50
0
 51
89.999999999999915
  0
LINE
  8
_0-1_計細線
  6
CONTINUOUS
 62
    3
 10
1022.8000000000175
 20
659.75999999999954
 11
1020.3000000000185
 21
659.75999999999954
  0
ARC
  8
_0-1_計細線
  6
CONTINUOUS
 62
    3
 10
1028.200000000018
 20
658.75999999999999
 40
0.9999999999999997
 50
89.999999999999915
 51
179.99999999999983
  0
LINE
  8
_0-1_計細線
  6
CONTINUOUS
 62
    3
 10
1028.1999999978098
 20
659.75999999999954
 11
1030.6999999978107
 21
659.75999999999954
  0
LINE
  8
_0-1_計細線
  6
CONTINUOUS
 62
    3
 10
1027.9999999989141
 20
663.65999999999974
 11
1022.9999999989133
 21
663.65999999999974
  0
LINE
  8
_0-1_計細線
  6
CONTINUOUS
 62
    3
 10
1023.7999999989142
 20
638.65999999999985
 11
1023.8000000000176
 21
658.75999999999999
  0
LINE
  8
_0-1_計細線
  6
CONTINUOUS
 62
    3
 10
1027.1999999989139
 20
638.65999999999985
 11
1027.200000000018
 21
658.75999999999999
  0
LINE
  8
_0-1_計細線
  6
CONTINUOUS
 62
    3
 10
1027.1999999989139
 20
638.65999999999985
 11
1023.7999999989142
 21
638.65999999999985
  0
ARC
  8
_0-1_計細線
  6
CONTINUOUS
 62
    3
 10
1037.8000000003785
 20
661.65999999999963
 40
0.9999999999999997
 50
89.999999999999915
 51
179.99999999999983
  0
ARC
  8
_0-1_計細線
  6
CONTINUOUS
 62
    3
 10
1038.2679491917061
 20
663.65999999999974
 40
0.9999999999999997
 50
269.99999999999977
 51
330.0000000000154
  0
ARC
  8
_0-1_計細線
  6
CONTINUOUS
 62
    3
 10
1039.9999999992751
 20
662.65999999999985
 40
0.9999999999999997
 50
89.999999999999915
 51
150.00000000000097
  0
LINE
  8
_0-1_計細線
  6
CONTINUOUS
 62
    3
 10
1037.8000000003785
 20
662.65999999999985
 11
1038.2679491917061
 21
662.65999999999985
  0
ARC
  8
_0-1_計細線
  6
CONTINUOUS
 62
    3
 10
1047.1999999981726
 20
661.65999999999963
 40
0.9999999999999997
 50
0
 51
89.999999999999915
  0
ARC
  8
_0-1_計細線
  6
CONTINUOUS
 62
    3
 10
1046.7320508068442
 20
663.65999999999974
 40
0.9999999999999997
 50
210.00000000000995
 51
269.99999999999977
  0
ARC
  8
_0-1_計細線
  6
CONTINUOUS
 62
    3
 10
1044.999999999277
 20
662.65999999999985
 40
0.9999999999999997
 50
30.000000000025086
 51
89.999999999999901
  0
LINE
  8
_0-1_計細線
  6
CONTINUOUS
 62
    3
 10
1047.1999999981726
 20
662.65999999999985
 11
1046.7320508068442
 21
662.65999999999985
  0
ARC
  8
_0-1_計細線
  6
CONTINUOUS
 62
    3
 10
1037.3000000003794
 20
660.25999999999999
 40
0.4999999999999998
 50
179.99999999999983
 51
269.99999999999977
  0
LINE
  8
_0-1_計細線
  6
CONTINUOUS
 62
    3
 10
1036.8000000003794
 20
661.65999999999963
 11
1036.8000000003794
 21
660.25999999999999
  0
ARC
  8
_0-1_計細線
  6
CONTINUOUS
 62
    3
 10
1047.6999999981717
 20
660.25999999999999
 40
0.4999999999999998
 50
269.99999999999977
 51
359.99999999999966
  0
LINE
  8
_0-1_計細線
  6
CONTINUOUS
 62
    3
 10
1048.1999999981717
 20
661.65999999999963
 11
1048.1999999981717
 21
660.25999999999999
  0
ARC
  8
_0-1_計細線
  6
CONTINUOUS
 62
    3
 10
1039.8000000003794
 20
658.75999999999999
 40
0.9999999999999997
 50
0
 51
89.999999999999915
  0
LINE
  8
_0-1_計細線
  6
CONTINUOUS
 62
    3
 10
1039.8000000003794
 20
659.75999999999954
 11
1037.3000000003794
 21
659.75999999999954
  0
ARC
  8
_0-1_計細線
  6
CONTINUOUS
 62
    3
 10
1045.2000000003791
 20
658.75999999999999
 40
0.9999999999999997
 50
89.999999999999915
 51
179.99999999999983
  0
LINE
  8
_0-1_計細線
  6
CONTINUOUS
 62
    3
 10
1045.1999999981717
 20
659.75999999999954
 11
1047.6999999981717
 21
659.75999999999954
  0
LINE
  8
_0-1_計細線
  6
CONTINUOUS
 62
    3
 10
1044.999999999277
 20
663.65999999999974
 11
1039.9999999992751
 21
663.65999999999974
  0
LINE
  8
_0-1_計細線
  6
CONTINUOUS
 62
    3
 10
1040.7999999992753
 20
638.65999999999985
 11
1040.8000000003785
 21
658.75999999999999
  0
LINE
  8
_0-1_計細線
  6
CONTINUOUS
 62
    3
 10
1044.199999999275
 20
638.65999999999985
 11
1044.20000000038
 21
658.75999999999999
  0
LINE
  8
_0-1_計細線
  6
CONTINUOUS
 62
    3
 10
1044.199999999275
 20
638.65999999999985
 11
1040.7999999992753
 21
638.65999999999985
  0
ARC
  8
_0-1_計細線
  6
CONTINUOUS
 62
    3
 10
1054.8000000007405
 20
661.65999999999963
 40
0.9999999999999997
 50
89.999999999999915
 51
179.99999999999983
  0
ARC
  8
_0-1_計細線
  6
CONTINUOUS
 62
    3
 10
1055.267949192069
 20
663.65999999999974
 40
0.9999999999999997
 50
269.99999999999977
 51
329.99999999998937
  0
ARC
  8
_0-1_計細線
  6
CONTINUOUS
 62
    3
 10
1056.999999999638
 20
662.65999999999985
 40
0.9999999999999997
 50
89.999999999999915
 51
150.00000000002703
  0
LINE
  8
_0-1_計細線
  6
CONTINUOUS
 62
    3
 10
1054.8000000007405
 20
662.65999999999985
 11
1055.267949192069
 21
662.65999999999985
  0
ARC
  8
_0-1_計細線
  6
CONTINUOUS
 62
    3
 10
1064.1999999985346
 20
661.65999999999963
 40
0.9999999999999997
 50
0
 51
89.999999999999915
  0
ARC
  8
_0-1_計細線
  6
CONTINUOUS
 62
    3
 10
1063.7320508072071
 20
663.65999999999974
 40
0.9999999999999997
 50
210.00000000000995
 51
269.99999999999977
  0
ARC
  8
_0-1_計細線
  6
CONTINUOUS
 62
    3
 10
1061.999999999638
 20
662.65999999999985
 40
0.9999999999999997
 50
29.999999999972975
 51
89.999999999999901
  0
LINE
  8
_0-1_計細線
  6
CONTINUOUS
 62
    3
 10
1064.1999999985346
 20
662.65999999999985
 11
1063.7320508072071
 21
662.65999999999985
  0
ARC
  8
_0-1_計細線
  6
CONTINUOUS
 62
    3
 10
1054.3000000007414
 20
660.25999999999999
 40
0.4999999999999998
 50
179.99999999999983
 51
269.99999999999977
  0
LINE
  8
_0-1_計細線
  6
CONTINUOUS
 62
    3
 10
1053.8000000007423
 20
661.65999999999963
 11
1053.8000000007423
 21
660.25999999999999
  0
ARC
  8
_0-1_計細線
  6
CONTINUOUS
 62
    3
 10
1064.6999999985337
 20
660.25999999999999
 40
0.4999999999999998
 50
269.99999999999977
 51
359.99999999999966
  0
LINE
  8
_0-1_計細線
  6
CONTINUOUS
 62
    3
 10
1065.1999999985337
 20
661.65999999999963
 11
1065.1999999985337
 21
660.25999999999999
  0
ARC
  8
_0-1_計細線
  6
CONTINUOUS
 62
    3
 10
1056.8000000007423
 20
658.75999999999999
 40
0.9999999999999997
 50
0
 51
89.999999999999915
  0
LINE
  8
_0-1_計細線
  6
CONTINUOUS
 62
    3
 10
1056.8000000007423
 20
659.75999999999954
 11
1054.3000000007414
 21
659.75999999999954
  0
ARC
  8
_0-1_計細線
  6
CONTINUOUS
 62
    3
 10
1062.200000000742
 20
658.75999999999999
 40
0.9999999999999997
 50
89.999999999999915
 51
179.99999999999983
  0
LINE
  8
_0-1_計細線
  6
CONTINUOUS
 62
    3
 10
1062.1999999985337
 20
659.75999999999954
 11
1064.6999999985337
 21
659.75999999999954
  0
LINE
  8
_0-1_計細線
  6
CONTINUOUS
 62
    3
 10
1061.999999999638
 20
663.65999999999974
 11
1056.999999999638
 21
663.65999999999974
  0
LINE
  8
_0-1_計細線
  6
CONTINUOUS
 62
    3
 10
1057.7999999996382
 20
638.65999999999985
 11
1057.8000000007405
 21
658.75999999999999
  0
LINE
  8
_0-1_計細線
  6
CONTINUOUS
 62
    3
 10
1061.1999999996378
 20
638.65999999999985
 11
1061.2000000007411
 21
658.75999999999999
  0
LINE
  8
_0-1_計細線
  6
CONTINUOUS
 62
    3
 10
1061.1999999996378
 20
638.65999999999985
 11
1057.7999999996382
 21
638.65999999999985
  0
ARC
  8
_0-1_計細線
  6
CONTINUOUS
 62
    3
 10
1088.8000000014645
 20
661.65999999999963
 40
0.9999999999999997
 50
89.999999999999915
 51
179.99999999999983
  0
ARC
  8
_0-1_計細線
  6
CONTINUOUS
 62
    3
 10
1089.267949192792
 20
663.65999999999974
 40
0.9999999999999997
 50
269.99999999999977
 51
330.0000000000154
  0
ARC
  8
_0-1_計細線
  6
CONTINUOUS
 62
    3
 10
1091.0000000003611
 20
662.65999999999985
 40
0.9999999999999997
 50
89.999999999999915
 51
150.00000000000097
  0
LINE
  8
_0-1_計細線
  6
CONTINUOUS
 62
    3
 10
1088.8000000014645
 20
662.65999999999985
 11
1089.267949192792
 21
662.65999999999985
  0
ARC
  8
_0-1_計細線
  6
CONTINUOUS
 62
    3
 10
1098.1999999992577
 20
661.65999999999963
 40
0.9999999999999997
 50
0
 51
89.999999999999915
  0
ARC
  8
_0-1_計細線
  6
CONTINUOUS
 62
    3
 10
1097.7320508079301
 20
663.65999999999974
 40
0.9999999999999997
 50
210.00000000000995
 51
269.99999999999977
  0
ARC
  8
_0-1_計細線
  6
CONTINUOUS
 62
    3
 10
1096.0000000003611
 20
662.65999999999985
 40
0.9999999999999997
 50
29.999999999972975
 51
89.999999999999901
  0
LINE
  8
_0-1_計細線
  6
CONTINUOUS
 62
    3
 10
1098.1999999992577
 20
662.65999999999985
 11
1097.7320508079301
 21
662.65999999999985
  0
ARC
  8
_0-1_計細線
  6
CONTINUOUS
 62
    3
 10
1088.3000000014645
 20
660.25999999999999
 40
0.4999999999999998
 50
179.99999999999983
 51
269.99999999999977
  0
LINE
  8
_0-1_計細線
  6
CONTINUOUS
 62
    3
 10
1087.8000000014654
 20
661.65999999999963
 11
1087.8000000014654
 21
660.25999999999999
  0
ARC
  8
_0-1_計細線
  6
CONTINUOUS
 62
    3
 10
1098.6999999992568
 20
660.25999999999999
 40
0.4999999999999998
 50
269.99999999999977
 51
359.99999999999966
  0
LINE
  8
_0-1_計細線
  6
CONTINUOUS
 62
    3
 10
1099.1999999992577
 20
661.65999999999963
 11
1099.1999999992577
 21
660.25999999999999
  0
ARC
  8
_0-1_計細線
  6
CONTINUOUS
 62
    3
 10
1090.8000000014654
 20
658.75999999999999
 40
0.9999999999999997
 50
0
 51
89.999999999999915
  0
LINE
  8
_0-1_計細線
  6
CONTINUOUS
 62
    3
 10
1090.8000000014654
 20
659.75999999999954
 11
1088.3000000014645
 21
659.75999999999954
  0
ARC
  8
_0-1_計細線
  6
CONTINUOUS
 62
    3
 10
1096.200000001465
 20
658.75999999999999
 40
0.9999999999999997
 50
89.999999999999915
 51
179.99999999999983
  0
LINE
  8
_0-1_計細線
  6
CONTINUOUS
 62
    3
 10
1096.1999999992577
 20
659.75999999999954
 11
1098.6999999992568
 21
659.75999999999954
  0
LINE
  8
_0-1_計細線
  6
CONTINUOUS
 62
    3
 10
1096.0000000003611
 20
663.65999999999974
 11
1091.0000000003611
 21
663.65999999999974
  0
LINE
  8
_0-1_計細線
  6
CONTINUOUS
 62
    3
 10
1091.8000000003613
 20
638.65999999999985
 11
1091.8000000014645
 21
658.75999999999999
  0
LINE
  8
_0-1_計細線
  6
CONTINUOUS
 62
    3
 10
1095.2000000003609
 20
638.65999999999985
 11
1095.2000000014641
 21
658.75999999999999
  0
LINE
  8
_0-1_計細線
  6
CONTINUOUS
 62
    3
 10
1095.2000000003609
 20
638.65999999999985
 11
1091.8000000003613
 21
638.65999999999985
  0
ARC
  8
_0-1_計細線
  6
CONTINUOUS
 62
    3
 10
1105.8000000018264
 20
661.65999999999963
 40
0.9999999999999997
 50
89.999999999999915
 51
179.99999999999983
  0
ARC
  8
_0-1_計細線
  6
CONTINUOUS
 62
    3
 10
1106.267949193154
 20
663.65999999999974
 40
0.9999999999999997
 50
269.99999999999977
 51
329.99999999998937
  0
ARC
  8
_0-1_計細線
  6
CONTINUOUS
 62
    3
 10
1108.000000000723
 20
662.65999999999985
 40
0.9999999999999997
 50
89.999999999999915
 51
150.00000000002703
  0
LINE
  8
_0-1_計細線
  6
CONTINUOUS
 62
    3
 10
1105.8000000018264
 20
662.65999999999985
 11
1106.267949193154
 21
662.65999999999985
  0
ARC
  8
_0-1_計細線
  6
CONTINUOUS
 62
    3
 10
1115.1999999996196
 20
661.65999999999963
 40
0.9999999999999997
 50
0
 51
89.999999999999915
  0
ARC
  8
_0-1_計細線
  6
CONTINUOUS
 62
    3
 10
1114.7320508082921
 20
663.65999999999974
 40
0.9999999999999997
 50
209.99999999998388
 51
269.99999999999977
  0
ARC
  8
_0-1_計細線
  6
CONTINUOUS
 62
    3
 10
1113.000000000723
 20
662.65999999999985
 40
0.9999999999999997
 50
29.99999999999903
 51
89.999999999999901
  0
LINE
  8
_0-1_計細線
  6
CONTINUOUS
 62
    3
 10
1115.1999999996196
 20
662.65999999999985
 11
1114.7320508082921
 21
662.65999999999985
  0
ARC
  8
_0-1_計細線
  6
CONTINUOUS
 62
    3
 10
1105.3000000018264
 20
660.25999999999999
 40
0.4999999999999998
 50
179.99999999999983
 51
269.99999999999977
  0
LINE
  8
_0-1_計細線
  6
CONTINUOUS
 62
    3
 10
1104.8000000018264
 20
661.65999999999963
 11
1104.8000000018264
 21
660.25999999999999
  0
ARC
  8
_0-1_計細線
  6
CONTINUOUS
 62
    3
 10
1115.6999999996187
 20
660.25999999999999
 40
0.4999999999999998
 50
269.99999999999977
 51
359.99999999999966
  0
LINE
  8
_0-1_計細線
  6
CONTINUOUS
 62
    3
 10
1116.1999999996196
 20
661.65999999999963
 11
1116.1999999996196
 21
660.25999999999999
  0
ARC
  8
_0-1_計細線
  6
CONTINUOUS
 62
    3
 10
1107.8000000018264
 20
658.75999999999999
 40
0.9999999999999997
 50
0
 51
89.999999999999915
  0
LINE
  8
_0-1_計細線
  6
CONTINUOUS
 62
    3
 10
1107.8000000018264
 20
659.75999999999954
 11
1105.3000000018264
 21
659.75999999999954
  0
ARC
  8
_0-1_計細線
  6
CONTINUOUS
 62
    3
 10
1113.200000001827
 20
658.75999999999999
 40
0.9999999999999997
 50
89.999999999999915
 51
179.99999999999983
  0
LINE
  8
_0-1_計細線
  6
CONTINUOUS
 62
    3
 10
1113.1999999996196
 20
659.75999999999954
 11
1115.6999999996187
 21
659.75999999999954
  0
LINE
  8
_0-1_計細線
  6
CONTINUOUS
 62
    3
 10
1113.000000000723
 20
663.65999999999974
 11
1108.000000000723
 21
663.65999999999974
  0
LINE
  8
_0-1_計細線
  6
CONTINUOUS
 62
    3
 10
1108.8000000007232
 20
638.65999999999985
 11
1108.8000000018264
 21
658.75999999999999
  0
LINE
  8
_0-1_計細線
  6
CONTINUOUS
 62
    3
 10
1112.2000000007229
 20
638.65999999999985
 11
1112.2000000018261
 21
658.75999999999999
  0
LINE
  8
_0-1_計細線
  6
CONTINUOUS
 62
    3
 10
1112.2000000007229
 20
638.65999999999985
 11
1108.8000000007232
 21
638.65999999999985
  0
ARC
  8
_0-1_計細線
  6
CONTINUOUS
 62
    3
 10
1122.8000000021884
 20
661.65999999999963
 40
0.9999999999999997
 50
89.999999999999915
 51
179.99999999999983
  0
ARC
  8
_0-1_計細線
  6
CONTINUOUS
 62
    3
 10
1123.2679491935169
 20
663.65999999999974
 40
0.9999999999999997
 50
269.99999999999977
 51
329.99999999998937
  0
ARC
  8
_0-1_計細線
  6
CONTINUOUS
 62
    3
 10
1125.0000000010841
 20
662.65999999999985
 40
0.9999999999999997
 50
89.999999999999915
 51
149.99999999997493
  0
LINE
  8
_0-1_計細線
  6
CONTINUOUS
 62
    3
 10
1122.8000000021884
 20
662.65999999999985
 11
1123.2679491935169
 21
662.65999999999985
  0
ARC
  8
_0-1_計細線
  6
CONTINUOUS
 62
    3
 10
1132.1999999999807
 20
661.65999999999963
 40
0.9999999999999997
 50
0
 51
89.999999999999915
  0
ARC
  8
_0-1_計細線
  6
CONTINUOUS
 62
    3
 10
1131.7320508086532
 20
663.65999999999974
 40
0.9999999999999997
 50
210.00000000000995
 51
269.99999999999977
  0
ARC
  8
_0-1_計細線
  6
CONTINUOUS
 62
    3
 10
1130.000000001085
 20
662.65999999999985
 40
0.9999999999999997
 50
29.99999999999903
 51
89.999999999999901
  0
LINE
  8
_0-1_計細線
  6
CONTINUOUS
 62
    3
 10
1132.1999999999807
 20
662.65999999999985
 11
1131.7320508086532
 21
662.65999999999985
  0
ARC
  8
_0-1_計細線
  6
CONTINUOUS
 62
    3
 10
1122.3000000021875
 20
660.25999999999999
 40
0.4999999999999998
 50
179.99999999999983
 51
269.99999999999977
  0
LINE
  8
_0-1_計細線
  6
CONTINUOUS
 62
    3
 10
1121.8000000021884
 20
661.65999999999963
 11
1121.8000000021884
 21
660.25999999999999
  0
ARC
  8
_0-1_計細線
  6
CONTINUOUS
 62
    3
 10
1132.6999999999816
 20
660.25999999999999
 40
0.4999999999999998
 50
269.99999999999977
 51
359.99999999999966
  0
LINE
  8
_0-1_計細線
  6
CONTINUOUS
 62
    3
 10
1133.1999999999816
 20
661.65999999999963
 11
1133.1999999999816
 21
660.25999999999999
  0
ARC
  8
_0-1_計細線
  6
CONTINUOUS
 62
    3
 10
1124.8000000021884
 20
658.75999999999999
 40
0.9999999999999997
 50
0
 51
89.999999999999915
  0
LINE
  8
_0-1_計細線
  6
CONTINUOUS
 62
    3
 10
1124.8000000021884
 20
659.75999999999954
 11
1122.3000000021875
 21
659.75999999999954
  0
ARC
  8
_0-1_計細線
  6
CONTINUOUS
 62
    3
 10
1130.2000000021881
 20
658.75999999999999
 40
0.9999999999999997
 50
89.999999999999915
 51
179.99999999999983
  0
LINE
  8
_0-1_計細線
  6
CONTINUOUS
 62
    3
 10
1130.1999999999816
 20
659.75999999999954
 11
1132.6999999999816
 21
659.75999999999954
  0
LINE
  8
_0-1_計細線
  6
CONTINUOUS
 62
    3
 10
1130.000000001085
 20
663.65999999999974
 11
1125.0000000010841
 21
663.65999999999974
  0
LINE
  8
_0-1_計細線
  6
CONTINUOUS
 62
    3
 10
1125.8000000010843
 20
638.65999999999985
 11
1125.8000000021884
 21
658.75999999999999
  0
LINE
  8
_0-1_計細線
  6
CONTINUOUS
 62
    3
 10
1129.2000000010858
 20
638.65999999999985
 11
1129.2000000021881
 21
658.75999999999999
  0
LINE
  8
_0-1_計細線
  6
CONTINUOUS
 62
    3
 10
1129.2000000010858
 20
638.65999999999985
 11
1125.8000000010843
 21
638.65999999999985
  0
ARC
  8
_0-1_計細線
  6
CONTINUOUS
 62
    3
 10
1237
 20
638.66021900100668
 40
3
 50
269.99999999999977
 51
359.99999999999966
  0
LINE
  8
_0-1_計細線
  6
CONTINUOUS
 62
    3
 10
1240
 20
638.66021900100668
 11
1240
 21
663.16021900100645
  0
LINE
  8
_0-1_計細線
  6
CONTINUOUS
 62
    3
 10
1237
 20
635.66021900100668
 11
1210.4999999999991
 21
635.66021900100668
  0
LINE
  8
_0-1_計細線
  6
CONTINUOUS
 62
    3
 10
1209.9999999999991
 20
636.16021900100714
 11
1210.4999999999991
 21
635.66021900100668
  0
LINE
  8
_0-1_計細線
  6
CONTINUOUS
 62
    3
 10
1209.9999999999991
 20
638.16021900100691
 11
1209.9999999999991
 21
636.16021900100714
  0
LINE
  8
_0-1_計細線
  6
CONTINUOUS
 62
    3
 10
1210.4999999999991
 20
638.66021900100668
 11
1209.9999999999991
 21
638.16021900100691
  0
LINE
  8
_0-1_計細線
  6
CONTINUOUS
 62
    3
 10
1237
 20
638.66021900100668
 11
1210.4999999999991
 21
638.66021900100668
  0
LINE
  8
_0-1_計細線
  6
CONTINUOUS
 62
    3
 10
1239.5
 20
663.66021900100691
 11
1240
 21
663.16021900100645
  0
LINE
  8
_0-1_計細線
  6
CONTINUOUS
 62
    3
 10
1237.5
 20
663.66021900100691
 11
1239.5
 21
663.66021900100691
  0
LINE
  8
_0-1_計細線
  6
CONTINUOUS
 62
    3
 10
1237
 20
663.16021900100645
 11
1237.5
 21
663.66021900100691
  0
LINE
  8
_0-1_計細線
  6
CONTINUOUS
 62
    3
 10
1237
 20
638.66021900100668
 11
1237
 21
663.16021900100645
  0
ARC
  8
_0-1_計細線
  6
CONTINUOUS
 62
    3
 10
932.99999999999909
 20
638.66021900100668
 40
3
 50
179.99999999999983
 51
269.99999999999977
  0
LINE
  8
_0-1_計細線
  6
CONTINUOUS
 62
    3
 10
929.99999999999909
 20
638.66021900100668
 11
929.99999999999909
 21
663.16021900100645
  0
LINE
  8
_0-1_計細線
  6
CONTINUOUS
 62
    3
 10
932.99999999999909
 20
635.66021900100668
 11
959.4999999999992
 21
635.66021900100668
  0
LINE
  8
_0-1_計細線
  6
CONTINUOUS
 62
    3
 10
959.99999999999909
 20
636.16021900100714
 11
959.4999999999992
 21
635.66021900100668
  0
LINE
  8
_0-1_計細線
  6
CONTINUOUS
 62
    3
 10
959.99999999999909
 20
638.16021900100691
 11
959.99999999999909
 21
636.16021900100714
  0
LINE
  8
_0-1_計細線
  6
CONTINUOUS
 62
    3
 10
959.4999999999992
 20
638.66021900100668
 11
959.99999999999909
 21
638.16021900100691
  0
LINE
  8
_0-1_計細線
  6
CONTINUOUS
 62
    3
 10
932.99999999999909
 20
638.66021900100668
 11
959.4999999999992
 21
638.66021900100668
  0
LINE
  8
_0-1_計細線
  6
CONTINUOUS
 62
    3
 10
930.50000000000011
 20
663.66021900100691
 11
929.99999999999909
 21
663.16021900100645
  0
LINE
  8
_0-1_計細線
  6
CONTINUOUS
 62
    3
 10
932.49999999999909
 20
663.66021900100691
 11
930.50000000000011
 21
663.66021900100691
  0
LINE
  8
_0-1_計細線
  6
CONTINUOUS
 62
    3
 10
932.99999999999909
 20
663.16021900100645
 11
932.49999999999909
 21
663.66021900100691
  0
LINE
  8
_0-1_計細線
  6
CONTINUOUS
 62
    3
 10
932.99999999999909
 20
638.66021900100668
 11
932.99999999999909
 21
663.16021900100645
  0
LINE
  8
_0-1_計細線
  6
CONTINUOUS
 62
    3
 10
929.99999999999909
 20
647.66021900100668
 11
929.99999999999909
 21
612.66021900100668
  0
LINE
  8
_0-1_計細線
  6
CONTINUOUS
 62
    3
 10
929.99999999999909
 20
612.66021900100668
 11
927.69999999999925
 21
612.66021900100668
  0
LINE
  8
_0-1_計細線
  6
CONTINUOUS
 62
    3
 10
927.69999999999925
 20
612.66021900100668
 11
927.69999999999925
 21
647.66021900100668
  0
LINE
  8
_0-1_計細線
  6
CONTINUOUS
 62
    3
 10
927.69999999999925
 20
647.66021900100668
 11
929.99999999999909
 21
647.66021900100668
  0
LINE
  8
_0-0_計極細
  6
CONTINUOUS
 62
    2
 10
927.69999999999925
 20
631.66021900100668
 11
929.99999999999909
 21
631.66021900100668
  0
LINE
  8
_0-0_計極細
  6
CONTINUOUS
 62
    2
 10
927.69999999999925
 20
633.66021900100668
 11
929.99999999999909
 21
633.66021900100668
  0
LINE
  8
_0-0_計極細
  6
CONTINUOUS
 62
    2
 10
927.69999999999925
 20
629.66021900100668
 11
929.99999999999909
 21
629.66021900100668
  0
LINE
  8
_0-0_計極細
  6
CONTINUOUS
 62
    2
 10
927.69999999999925
 20
635.66021900100668
 11
929.99999999999909
 21
635.66021900100668
  0
LINE
  8
_0-0_計極細
  6
CONTINUOUS
 62
    2
 10
929.99999999999909
 20
615.66021900100668
 11
927.69999999999925
 21
615.66021900100668
  0
LINE
  8
_0-0_計極細
  6
CONTINUOUS
 62
    2
 10
927.69999999999925
 20
645.66021900100668
 11
929.99999999999909
 21
645.66021900100668
  0
LINE
  8
_0-1_計細線
  6
CONTINUOUS
 62
    3
 10
1240.0000000000002
 20
647.66021900100668
 11
1240.0000000000002
 21
612.66021900100668
  0
LINE
  8
_0-1_計細線
  6
CONTINUOUS
 62
    3
 10
1240.0000000000002
 20
612.66021900100668
 11
1242.3000000000002
 21
612.66021900100668
  0
LINE
  8
_0-1_計細線
  6
CONTINUOUS
 62
    3
 10
1242.3000000000002
 20
612.66021900100668
 11
1242.3000000000002
 21
647.66021900100668
  0
LINE
  8
_0-1_計細線
  6
CONTINUOUS
 62
    3
 10
1242.3000000000002
 20
647.66021900100668
 11
1240.0000000000002
 21
647.66021900100668
  0
LINE
  8
_0-0_計極細
  6
CONTINUOUS
 62
    2
 10
1242.3000000000002
 20
631.66021900100668
 11
1240.0000000000002
 21
631.66021900100668
  0
LINE
  8
_0-0_計極細
  6
CONTINUOUS
 62
    2
 10
1242.3000000000002
 20
633.66021900100668
 11
1240.0000000000002
 21
633.66021900100668
  0
LINE
  8
_0-0_計極細
  6
CONTINUOUS
 62
    2
 10
1242.3000000000002
 20
629.66021900100668
 11
1240.0000000000002
 21
629.66021900100668
  0
LINE
  8
_0-0_計極細
  6
CONTINUOUS
 62
    2
 10
1242.3000000000002
 20
635.66021900100668
 11
1240.0000000000002
 21
635.66021900100668
  0
LINE
  8
_0-0_計極細
  6
CONTINUOUS
 62
    2
 10
1240.0000000000002
 20
615.66021900100668
 11
1242.3000000000002
 21
615.66021900100668
  0
LINE
  8
_0-0_計極細
  6
CONTINUOUS
 62
    2
 10
1242.3000000000002
 20
645.66021900100668
 11
1240.0000000000002
 21
645.66021900100668
  0
LINE
  8
_0-7_枠細線
  6
CONTINUOUS
 62
    5
 10
1258.9140288208207
 20
632.80830283207115
 11
1251.4140288208207
 21
647.80830283207126
  0
LINE
  8
_0-7_枠細線
  6
CONTINUOUS
 62
    5
 10
1243.9140288208207
 20
632.80830283207115
 11
1258.9140288208207
 21
632.80830283207115
  0
LINE
  8
_0-7_枠細線
  6
CONTINUOUS
 62
    5
 10
1251.4140288208207
 20
647.80830283207126
 11
1243.9140288208207
 21
632.80830283207115
  0
TEXT
  8
_0-7_枠細線
 62
    5
 10
1246.2791800889688
 20
631.85948286722123
 40
12.5
 41
0.8
 50
0
  1
５
  0
TEXT
  8
_0-7_枠細線
 62
    5
 10
1035.6825687070714
 20
524.94207792640827
 40
25
 41
0.8
 50
0
  1
断面詳細図
  0
TEXT
  8
_0-7_枠細線
 62
    5
 10
1150.6315384562395
 20
527.457187006597
 40
20
 41
0.6
 50
0
  1
Ｓ＝１：５
  0
LINE
  8
_0-7_枠細線
  6
CONTINUOUS
 62
    5
 10
890
 20
820
 11
890
 21
959.99999999999909
  0
LINE
  8
_0-7_枠細線
  6
CONTINUOUS
 62
    5
 10
925
 20
820
 11
925
 21
959.99999999999909
  0
LINE
  8
_0-7_枠細線
  6
CONTINUOUS
 62
    5
 10
1175
 20
820
 11
1175
 21
959.99999999999909
  0
LINE
  8
_0-7_枠細線
  6
CONTINUOUS
 62
    5
 10
1275
 20
820
 11
1275
 21
959.99999999999909
  0
LINE
  8
_0-1_計細線
  6
CONTINUOUS
 62
    3
 10
1087.3499999999995
 20
663.45999999999731
 11
1087.3499999999995
 21
644.45999999999685
  0
LINE
  8
_0-1_計細線
  6
CONTINUOUS
 62
    3
 10
1082.6499999999992
 20
644.45999999999685
 11
1082.6499999999992
 21
663.45999999999731
  0
LINE
  8
_0-1_計細線
  6
CONTINUOUS
 62
    3
 10
1087.3499999999995
 20
644.45999999999685
 11
1082.6499999999992
 21
644.45999999999685
  0
LINE
  8
_0-1_計細線
  6
CONTINUOUS
 62
    3
 10
1082.6499999999992
 20
663.45999999999731
 11
1087.3499999999995
 21
663.45999999999731
  0
LINE
  8
_0-1_計細線
  6
DASHED2
 62
    3
 10
1082.6499999999992
 20
647.45999999999685
 11
1087.3499999999995
 21
647.45999999999685
  0
LINE
  8
_0-1_計細線
  6
DASHED2
 62
    3
 10
1082.6499999999992
 20
660.95999999999719
 11
1087.3499999999995
 21
660.95999999999719
  0
LINE
  8
_0-1_計細線
  6
CONTINUOUS
 62
    3
 10
363.51795824097258
 20
552.25583080108163
 11
416.51795824097263
 21
552.25583080108163
  0
LINE
  8
_0-1_計細線
  6
CONTINUOUS
 62
    3
 10
416.51795824097263
 20
556.95583080108236
 11
363.51795824097258
 21
556.95583080108236
  0
LINE
  8
_0-1_計細線
  6
CONTINUOUS
 62
    3
 10
363.51795824097258
 20
556.95583080108236
 11
363.51795824097258
 21
552.25583080108163
  0
LINE
  8
_0-1_計細線
  6
CONTINUOUS
 62
    3
 10
406.51795824097263
 20
556.95583080108236
 11
406.51795824097263
 21
552.25583080108163
  0
LINE
  8
_0-1_計細線
  6
CONTINUOUS
 62
    3
 10
414.51795824097258
 20
556.95583080108236
 11
414.51795824097258
 21
552.25583080108163
  0
LINE
  8
_0-1_計細線
  6
CONTINUOUS
 62
    3
 10
416.51795824097263
 20
556.95583080108236
 11
416.51795824097263
 21
552.25583080108163
  0
LINE
  8
_0-1_計細線
  6
CONTINUOUS
 62
    3
 10
412.51795824097258
 20
556.95583080108236
 11
412.51795824097258
 21
552.25583080108163
  0
LINE
  8
_0-1_計細線
  6
CONTINUOUS
 62
    3
 10
410.51795824097263
 20
556.95583080108236
 11
410.51795824097263
 21
552.25583080108163
  0
LINE
  8
_0-1_計細線
  6
CONTINUOUS
 62
    3
 10
408.51795824097258
 20
556.95583080108236
 11
408.51795824097258
 21
552.25583080108163
  0
LINE
  8
_0-d_寸法3
  6
CONTINUOUS
 62
    7
 10
444.10263166212235
 20
229.18269288170646
 11
444.10263166212235
 21
270.849359548373
  0
LINE
  8
_0-d_寸法3
  6
CONTINUOUS
 62
    7
 10
444.10263166212235
 20
265.849359548373
 11
453.76188992501295
 21
268.43754999939819
  0
LINE
  8
_0-d_寸法3
  6
CONTINUOUS
 62
    7
 10
444.10263166212235
 20
265.849359548373
 11
453.76188992501295
 21
263.26116909734782
  0
LINE
  8
_0-d_寸法3
  6
CONTINUOUS
 62
    7
 10
473.10263166272529
 20
229.18269288170646
 11
473.10263166272529
 21
270.849359548373
  0
LINE
  8
_0-d_寸法3
  6
CONTINUOUS
 62
    7
 10
473.10263166272529
 20
265.849359548373
 11
463.44337339983451
 21
263.26116909734782
  0
LINE
  8
_0-d_寸法3
  6
CONTINUOUS
 62
    7
 10
473.10263166272529
 20
265.849359548373
 11
463.44337339983463
 21
268.43754999939824
  0
LINE
  8
_0-d_寸法3
  6
CONTINUOUS
 62
    7
 10
444.10263166212235
 20
265.849359548373
 11
473.10263166272529
 21
265.849359548373
  0
TEXT
  8
_0-d_寸法3
 62
    7
 10
432.55645375248093
 20
250.84935954837303
 40
15
 41
1
 50
0
  1
(17.4)
  0
LINE
  8
_0-d_寸法3
  6
CONTINUOUS
 62
    7
 10
473.10263166272529
 20
265.849359548373
 11
482.761889925616
 21
268.43754999939813
  0
LINE
  8
_0-d_寸法3
  6
CONTINUOUS
 62
    7
 10
473.10263166272529
 20
265.849359548373
 11
482.76188992561595
 21
263.26116909734776
  0
LINE
  8
_0-d_寸法3
  6
CONTINUOUS
 62
    7
 10
502.10263166332822
 20
229.18269288170646
 11
502.10263166332822
 21
270.849359548373
  0
LINE
  8
_0-d_寸法3
  6
CONTINUOUS
 62
    7
 10
502.10263166332822
 20
265.849359548373
 11
492.44337340043757
 21
263.26116909734782
  0
LINE
  8
_0-d_寸法3
  6
CONTINUOUS
 62
    7
 10
502.10263166332822
 20
265.849359548373
 11
492.44337340043757
 21
268.43754999939824
  0
LINE
  8
_0-d_寸法3
  6
CONTINUOUS
 62
    7
 10
473.10263166272529
 20
265.849359548373
 11
502.10263166332822
 21
265.849359548373
  0
TEXT
  8
_0-d_寸法3
 62
    7
 10
469.62312041914765
 20
265.849359548373
 40
15
 41
1
 50
0
  1
(17.4)
  0
ARC
  8
_0-a_極細3
  6
CONTINUOUS
 62
    7
 10
532.93203498785851
 20
207.66941039002148
 40
17.558839598481345
 50
150.03871396148173
 51
205.23810402387861
  0
ARC
  8
_0-a_極細3
  6
CONTINUOUS
 62
    7
 10
501.16655979796036
 20
192.69590117739085
 40
17.558839598481345
 50
330.03871396148207
 51
25.238104023878069
  0
ARC
  8
_0-a_極細3
  6
CONTINUOUS
 62
    7
 10
388.0122195495245
 20
207.66941039002148
 40
17.558839598481345
 50
150.03871396148173
 51
205.23810402387869
  0
ARC
  8
_0-a_極細3
  6
CONTINUOUS
 62
    7
 10
356.2467443596264
 20
192.69590117739085
 40
17.558839598481345
 50
330.03871396148202
 51
25.238104023878119
  0
ARC
  8
_0-b_細線3
  6
CONTINUOUS
 62
    7
 10
436.2692983306282
 20
215.84935954837303
 40
1.666666666666667
 50
89.999999999999915
 51
179.99999999999983
  0
ARC
  8
_0-b_細線3
  6
CONTINUOUS
 62
    7
 10
437.04921364950724
 20
219.18269288170646
 40
1.666666666666667
 50
269.99999999999977
 51
330.00000000000279
  0
ARC
  8
_0-b_細線3
  6
CONTINUOUS
 62
    7
 10
439.93596499545527
 20
217.51602621503997
 40
1.666666666666667
 50
89.999999999999915
 51
150.00000000000134
  0
LINE
  8
_0-b_細線3
  6
CONTINUOUS
 62
    7
 10
436.2692983306282
 20
217.51602621503997
 11
437.04921364950724
 21
217.51602621503997
  0
ARC
  8
_0-b_細線3
  6
CONTINUOUS
 62
    7
 10
451.93596499361627
 20
215.84935954837303
 40
1.666666666666667
 50
0
 51
89.999999999999915
  0
ARC
  8
_0-b_細線3
  6
CONTINUOUS
 62
    7
 10
451.15604967473689
 20
219.18269288170646
 40
1.666666666666667
 50
210.00000000000236
 51
269.99999999999977
  0
ARC
  8
_0-b_細線3
  6
CONTINUOUS
 62
    7
 10
448.26929832878875
 20
217.51602621503997
 40
1.666666666666667
 50
29.999999999991843
 51
89.999999999986329
  0
LINE
  8
_0-b_細線3
  6
CONTINUOUS
 62
    7
 10
451.93596499361627
 20
217.51602621503997
 11
451.15604967473689
 21
217.51602621503997
  0
ARC
  8
_0-b_細線3
  6
CONTINUOUS
 62
    7
 10
435.43596499729472
 20
213.51602621503991
 40
0.8333333333333334
 50
179.99999999999983
 51
269.99999999999977
  0
LINE
  8
_0-b_細線3
  6
CONTINUOUS
 62
    7
 10
434.60263166396135
 20
215.84935954837303
 11
434.60263166396135
 21
213.51602621503991
  0
ARC
  8
_0-b_細線3
  6
CONTINUOUS
 62
    7
 10
452.7692983269493
 20
213.51602621503991
 40
0.8333333333333334
 50
269.99999999999977
 51
359.99999999999966
  0
LINE
  8
_0-b_細線3
  6
CONTINUOUS
 62
    7
 10
453.60263166028278
 20
215.84935954837303
 11
453.60263166028278
 21
213.51602621503991
  0
ARC
  8
_0-b_細線3
  6
CONTINUOUS
 62
    7
 10
439.60263166396135
 20
211.01602621503991
 40
1.666666666666667
 50
0
 51
89.999999999999915
  0
LINE
  8
_0-b_細線3
  6
CONTINUOUS
 62
    7
 10
439.60263166396135
 20
212.68269288170649
 11
435.43596499729472
 21
212.68269288170649
  0
ARC
  8
_0-b_細線3
  6
CONTINUOUS
 62
    7
 10
448.60263166396169
 20
211.01602621503991
 40
1.666666666666667
 50
89.999999999999915
 51
179.99999999999983
  0
LINE
  8
_0-b_細線3
  6
CONTINUOUS
 62
    7
 10
448.60263166028278
 20
212.68269288170649
 11
452.7692983269493
 21
212.68269288170649
  0
LINE
  8
_0-b_細線3
  6
CONTINUOUS
 62
    7
 10
448.26929832878875
 20
219.18269288170646
 11
439.93596499545527
 21
219.18269288170646
  0
LINE
  8
_0-b_細線3
  6
CONTINUOUS
 62
    7
 10
441.26929832878875
 20
177.51602621503997
 11
441.2692983306282
 21
211.01602621503991
  0
LINE
  8
_0-b_細線3
  6
CONTINUOUS
 62
    7
 10
446.93596499545538
 20
177.51602621503997
 11
446.93596499729517
 21
211.01602621503991
  0
LINE
  8
_0-b_細線3
  6
CONTINUOUS
 62
    7
 10
446.93596499545538
 20
177.51602621503997
 11
441.26929832878875
 21
177.51602621503997
  0
ARC
  8
_0-b_細線3
  6
CONTINUOUS
 62
    7
 10
465.2692983312312
 20
215.84935954837303
 40
1.666666666666667
 50
89.999999999999915
 51
179.99999999999983
  0
ARC
  8
_0-b_細線3
  6
CONTINUOUS
 62
    7
 10
466.04921365011012
 20
219.18269288170646
 40
1.666666666666667
 50
269.99999999999977
 51
329.9999999999979
  0
ARC
  8
_0-b_細線3
  6
CONTINUOUS
 62
    7
 10
468.9359649960582
 20
217.51602621503997
 40
1.666666666666667
 50
89.999999999999915
 51
150.00000000000819
  0
LINE
  8
_0-b_細線3
  6
CONTINUOUS
 62
    7
 10
465.2692983312312
 20
217.51602621503997
 11
466.04921365011012
 21
217.51602621503997
  0
ARC
  8
_0-b_細線3
  6
CONTINUOUS
 62
    7
 10
480.9359649942192
 20
215.84935954837303
 40
1.666666666666667
 50
0
 51
89.999999999999915
  0
ARC
  8
_0-b_細線3
  6
CONTINUOUS
 62
    7
 10
480.15604967533989
 20
219.18269288170646
 40
1.666666666666667
 50
209.99999999999451
 51
269.99999999999977
  0
ARC
  8
_0-b_細線3
  6
CONTINUOUS
 62
    7
 10
477.26929832939175
 20
217.51602621503997
 40
1.666666666666667
 50
29.999999999998682
 51
89.999999999999915
  0
LINE
  8
_0-b_細線3
  6
CONTINUOUS
 62
    7
 10
480.9359649942192
 20
217.51602621503997
 11
480.15604967533989
 21
217.51602621503997
  0
ARC
  8
_0-b_細線3
  6
CONTINUOUS
 62
    7
 10
464.43596499789817
 20
213.51602621503991
 40
0.8333333333333334
 50
179.99999999999983
 51
269.99999999999977
  0
LINE
  8
_0-b_細線3
  6
CONTINUOUS
 62
    7
 10
463.60263166456423
 20
215.84935954837303
 11
463.60263166456423
 21
213.51602621503991
  0
ARC
  8
_0-b_細線3
  6
CONTINUOUS
 62
    7
 10
481.76929832755229
 20
213.51602621503991
 40
0.8333333333333334
 50
269.99999999999977
 51
359.99999999999966
  0
LINE
  8
_0-b_細線3
  6
CONTINUOUS
 62
    7
 10
482.60263166088578
 20
215.84935954837303
 11
482.60263166088578
 21
213.51602621503991
  0
ARC
  8
_0-b_細線3
  6
CONTINUOUS
 62
    7
 10
468.60263166456429
 20
211.01602621503991
 40
1.666666666666667
 50
0
 51
89.999999999999915
  0
LINE
  8
_0-b_細線3
  6
CONTINUOUS
 62
    7
 10
468.60263166456429
 20
212.68269288170649
 11
464.43596499789817
 21
212.68269288170649
  0
ARC
  8
_0-b_細線3
  6
CONTINUOUS
 62
    7
 10
477.60263166456468
 20
211.01602621503991
 40
1.666666666666667
 50
89.999999999999915
 51
179.99999999999983
  0
LINE
  8
_0-b_細線3
  6
CONTINUOUS
 62
    7
 10
477.60263166088578
 20
212.68269288170649
 11
481.76929832755229
 21
212.68269288170649
  0
LINE
  8
_0-b_細線3
  6
CONTINUOUS
 62
    7
 10
477.26929832939175
 20
219.18269288170646
 11
468.9359649960582
 21
219.18269288170646
  0
LINE
  8
_0-b_細線3
  6
CONTINUOUS
 62
    7
 10
470.26929832939175
 20
177.51602621503997
 11
470.2692983312312
 21
211.01602621503991
  0
LINE
  8
_0-b_細線3
  6
CONTINUOUS
 62
    7
 10
475.93596499605832
 20
177.51602621503997
 11
475.93596499789811
 21
211.01602621503991
  0
LINE
  8
_0-b_細線3
  6
CONTINUOUS
 62
    7
 10
475.93596499605832
 20
177.51602621503997
 11
470.26929832939175
 21
177.51602621503997
  0
ARC
  8
_0-b_細線3
  6
CONTINUOUS
 62
    7
 10
494.26929833183431
 20
215.84935954837303
 40
1.666666666666667
 50
89.999999999999915
 51
179.99999999999983
  0
ARC
  8
_0-b_細線3
  6
CONTINUOUS
 62
    7
 10
495.04921365071311
 20
219.18269288170646
 40
1.666666666666667
 50
269.99999999999977
 51
329.9999999999979
  0
ARC
  8
_0-b_細線3
  6
CONTINUOUS
 62
    7
 10
497.93596499666131
 20
217.51602621503997
 40
1.666666666666667
 50
89.999999999999915
 51
150.00000000000819
  0
LINE
  8
_0-b_細線3
  6
CONTINUOUS
 62
    7
 10
494.26929833183431
 20
217.51602621503997
 11
495.04921365071311
 21
217.51602621503997
  0
ARC
  8
_0-b_細線3
  6
CONTINUOUS
 62
    7
 10
509.93596499482231
 20
215.84935954837303
 40
1.666666666666667
 50
0
 51
89.999999999999915
  0
ARC
  8
_0-b_細線3
  6
CONTINUOUS
 62
    7
 10
509.156049675943
 20
219.18269288170646
 40
1.666666666666667
 50
210.00000000000136
 51
269.99999999999977
  0
ARC
  8
_0-b_細線3
  6
CONTINUOUS
 62
    7
 10
506.2692983299948
 20
217.51602621503997
 40
1.666666666666667
 50
29.999999999991843
 51
89.999999999984382
  0
LINE
  8
_0-b_細線3
  6
CONTINUOUS
 62
    7
 10
509.93596499482231
 20
217.51602621503997
 11
509.156049675943
 21
217.51602621503997
  0
ARC
  8
_0-b_細線3
  6
CONTINUOUS
 62
    7
 10
493.43596499850082
 20
213.51602621503991
 40
0.8333333333333334
 50
179.99999999999983
 51
269.99999999999977
  0
LINE
  8
_0-b_細線3
  6
CONTINUOUS
 62
    7
 10
492.60263166516722
 20
215.84935954837303
 11
492.60263166516722
 21
213.51602621503991
  0
ARC
  8
_0-b_細線3
  6
CONTINUOUS
 62
    7
 10
510.7692983281554
 20
213.51602621503991
 40
0.8333333333333334
 50
269.99999999999977
 51
359.99999999999966
  0
LINE
  8
_0-b_細線3
  6
CONTINUOUS
 62
    7
 10
511.60263166148889
 20
215.84935954837303
 11
511.60263166148889
 21
213.51602621503991
  0
ARC
  8
_0-b_細線3
  6
CONTINUOUS
 62
    7
 10
497.60263166516722
 20
211.01602621503991
 40
1.666666666666667
 50
0
 51
89.999999999999915
  0
LINE
  8
_0-b_細線3
  6
CONTINUOUS
 62
    7
 10
497.60263166516722
 20
212.68269288170649
 11
493.43596499850082
 21
212.68269288170649
  0
ARC
  8
_0-b_細線3
  6
CONTINUOUS
 62
    7
 10
506.60263166516728
 20
211.01602621503991
 40
1.666666666666667
 50
89.999999999999915
 51
179.99999999999983
  0
LINE
  8
_0-b_細線3
  6
CONTINUOUS
 62
    7
 10
506.60263166148837
 20
212.68269288170649
 11
510.7692983281554
 21
212.68269288170649
  0
LINE
  8
_0-b_細線3
  6
CONTINUOUS
 62
    7
 10
506.2692983299948
 20
219.18269288170646
 11
497.93596499666131
 21
219.18269288170646
  0
LINE
  8
_0-b_細線3
  6
CONTINUOUS
 62
    7
 10
499.26929832999485
 20
177.51602621503997
 11
499.26929833183431
 21
211.01602621503991
  0
LINE
  8
_0-b_細線3
  6
CONTINUOUS
 62
    7
 10
504.93596499666126
 20
177.51602621503997
 11
504.93596499850122
 21
211.01602621503991
  0
LINE
  8
_0-b_細線3
  6
CONTINUOUS
 62
    7
 10
504.93596499666126
 20
177.51602621503997
 11
499.26929832999485
 21
177.51602621503997
  0
ARC
  8
_0-b_細線3
  6
CONTINUOUS
 62
    7
 10
378.26929832910525
 20
215.84935954837303
 40
1.666666666666667
 50
89.999999999999915
 51
179.99999999999983
  0
ARC
  8
_0-b_細線3
  6
CONTINUOUS
 62
    7
 10
379.04921364798417
 20
219.18269288170646
 40
1.666666666666667
 50
269.99999999999977
 51
330.00000000000375
  0
ARC
  8
_0-b_細線3
  6
CONTINUOUS
 62
    7
 10
381.93596499393232
 20
217.51602621503997
 40
1.666666666666667
 50
89.999999999999915
 51
150.0000000000023
  0
LINE
  8
_0-b_細線3
  6
CONTINUOUS
 62
    7
 10
378.26929832910525
 20
217.51602621503997
 11
379.04921364798417
 21
217.51602621503997
  0
ARC
  8
_0-b_細線3
  6
CONTINUOUS
 62
    7
 10
393.93596499209337
 20
215.84935954837303
 40
1.666666666666667
 50
0
 51
89.999999999999915
  0
ARC
  8
_0-b_細線3
  6
CONTINUOUS
 62
    7
 10
393.1560496732144
 20
219.18269288170646
 40
1.666666666666667
 50
209.99999999999451
 51
269.99999999999977
  0
ARC
  8
_0-b_細線3
  6
CONTINUOUS
 62
    7
 10
390.2692983272658
 20
217.51602621503997
 40
1.666666666666667
 50
29.999999999990862
 51
89.999999999986315
  0
LINE
  8
_0-b_細線3
  6
CONTINUOUS
 62
    7
 10
393.93596499209337
 20
217.51602621503997
 11
393.1560496732144
 21
217.51602621503997
  0
ARC
  8
_0-b_細線3
  6
CONTINUOUS
 62
    7
 10
377.43596499577222
 20
213.51602621503991
 40
0.8333333333333334
 50
179.99999999999983
 51
269.99999999999977
  0
LINE
  8
_0-b_細線3
  6
CONTINUOUS
 62
    7
 10
376.60263166243828
 20
215.84935954837303
 11
376.60263166243828
 21
213.51602621503991
  0
ARC
  8
_0-b_細線3
  6
CONTINUOUS
 62
    7
 10
394.76929832542635
 20
213.51602621503991
 40
0.8333333333333334
 50
269.99999999999977
 51
359.99999999999966
  0
LINE
  8
_0-b_細線3
  6
CONTINUOUS
 62
    7
 10
395.60263165876029
 20
215.84935954837303
 11
395.60263165876029
 21
213.51602621503991
  0
ARC
  8
_0-b_細線3
  6
CONTINUOUS
 62
    7
 10
381.60263166243828
 20
211.01602621503991
 40
1.666666666666667
 50
0
 51
89.999999999999915
  0
LINE
  8
_0-b_細線3
  6
CONTINUOUS
 62
    7
 10
381.60263166243828
 20
212.68269288170649
 11
377.43596499577222
 21
212.68269288170649
  0
ARC
  8
_0-b_細線3
  6
CONTINUOUS
 62
    7
 10
390.60263166243874
 20
211.01602621503991
 40
1.666666666666667
 50
89.999999999999915
 51
179.99999999999983
  0
LINE
  8
_0-b_細線3
  6
CONTINUOUS
 62
    7
 10
390.60263165875983
 20
212.68269288170649
 11
394.76929832542635
 21
212.68269288170649
  0
LINE
  8
_0-b_細線3
  6
CONTINUOUS
 62
    7
 10
390.2692983272658
 20
219.18269288170646
 11
381.93596499393232
 21
219.18269288170646
  0
LINE
  8
_0-b_細線3
  6
CONTINUOUS
 62
    7
 10
383.26929832726626
 20
177.51602621503997
 11
383.26929832910525
 21
211.01602621503991
  0
LINE
  8
_0-b_細線3
  6
CONTINUOUS
 62
    7
 10
388.93596499393232
 20
177.51602621503997
 11
388.93596499577228
 21
211.01602621503991
  0
LINE
  8
_0-b_細線3
  6
CONTINUOUS
 62
    7
 10
388.93596499393232
 20
177.51602621503997
 11
383.26929832726626
 21
177.51602621503997
  0
ARC
  8
_0-b_細線3
  6
CONTINUOUS
 62
    7
 10
407.26929832970825
 20
215.84935954837303
 40
1.666666666666667
 50
89.999999999999915
 51
179.99999999999983
  0
ARC
  8
_0-b_細線3
  6
CONTINUOUS
 62
    7
 10
408.04921364858774
 20
219.18269288170646
 40
1.666666666666667
 50
269.99999999999977
 51
329.99999999998812
  0
ARC
  8
_0-b_細線3
  6
CONTINUOUS
 62
    7
 10
410.93596499453542
 20
217.51602621503997
 40
1.666666666666667
 50
89.999999999999915
 51
150.00000000001012
  0
LINE
  8
_0-b_細線3
  6
CONTINUOUS
 62
    7
 10
407.26929832970825
 20
217.51602621503997
 11
408.04921364858774
 21
217.51602621503997
  0
ARC
  8
_0-b_細線3
  6
CONTINUOUS
 62
    7
 10
422.93596499269643
 20
215.84935954837303
 40
1.666666666666667
 50
0
 51
89.999999999999915
  0
ARC
  8
_0-b_細線3
  6
CONTINUOUS
 62
    7
 10
422.15604967381694
 20
219.18269288170646
 40
1.666666666666667
 50
210.00000000000333
 51
269.99999999999977
  0
ARC
  8
_0-b_細線3
  6
CONTINUOUS
 62
    7
 10
419.26929832786925
 20
217.51602621503997
 40
1.666666666666667
 50
29.999999999997708
 51
89.999999999999901
  0
LINE
  8
_0-b_細線3
  6
CONTINUOUS
 62
    7
 10
422.93596499269643
 20
217.51602621503997
 11
422.15604967381694
 21
217.51602621503997
  0
ARC
  8
_0-b_細線3
  6
CONTINUOUS
 62
    7
 10
406.43596499637522
 20
213.51602621503991
 40
0.8333333333333334
 50
179.99999999999983
 51
269.99999999999977
  0
LINE
  8
_0-b_細線3
  6
CONTINUOUS
 62
    7
 10
405.60263166304185
 20
215.84935954837303
 11
405.60263166304185
 21
213.51602621503991
  0
ARC
  8
_0-b_細線3
  6
CONTINUOUS
 62
    7
 10
423.76929832602934
 20
213.51602621503991
 40
0.8333333333333334
 50
269.99999999999977
 51
359.99999999999966
  0
LINE
  8
_0-b_細線3
  6
CONTINUOUS
 62
    7
 10
424.60263165936283
 20
215.84935954837303
 11
424.60263165936283
 21
213.51602621503991
  0
ARC
  8
_0-b_細線3
  6
CONTINUOUS
 62
    7
 10
410.60263166304185
 20
211.01602621503991
 40
1.666666666666667
 50
0
 51
89.999999999999915
  0
LINE
  8
_0-b_細線3
  6
CONTINUOUS
 62
    7
 10
410.60263166304185
 20
212.68269288170649
 11
406.43596499637522
 21
212.68269288170649
  0
ARC
  8
_0-b_細線3
  6
CONTINUOUS
 62
    7
 10
419.60263166304173
 20
211.01602621503991
 40
1.666666666666667
 50
89.999999999999915
 51
179.99999999999983
  0
LINE
  8
_0-b_細線3
  6
CONTINUOUS
 62
    7
 10
419.60263165936283
 20
212.68269288170649
 11
423.76929832602934
 21
212.68269288170649
  0
LINE
  8
_0-b_細線3
  6
CONTINUOUS
 62
    7
 10
419.26929832786925
 20
219.18269288170646
 11
410.93596499453542
 21
219.18269288170646
  0
LINE
  8
_0-b_細線3
  6
CONTINUOUS
 62
    7
 10
412.2692983278688
 20
177.51602621503997
 11
412.26929832970825
 21
211.01602621503991
  0
LINE
  8
_0-b_細線3
  6
CONTINUOUS
 62
    7
 10
417.93596499453588
 20
177.51602621503997
 11
417.93596499637533
 21
211.01602621503991
  0
LINE
  8
_0-b_細線3
  6
CONTINUOUS
 62
    7
 10
417.93596499453588
 20
177.51602621503997
 11
412.2692983278688
 21
177.51602621503997
  0
LINE
  8
_0-d_寸法3
  6
CONTINUOUS
 62
    7
 10
510.29415210653417
 20
183.25179057855047
 11
545.64649383221968
 21
208.00576674824123
  0
LINE
  8
_0-d_寸法3
  6
CONTINUOUS
 62
    7
 10
541.55073361077473
 20
205.13788456648598
 11
538.96254315974954
 21
214.79714282937664
  0
LINE
  8
_0-d_寸法3
  6
CONTINUOUS
 62
    7
 10
541.55073361077473
 20
205.13788456648598
 11
544.13892406180003
 21
214.79714282937664
  0
LINE
  8
_0-d_寸法3
  6
CONTINUOUS
 62
    7
 10
510.29415210653417
 20
224.91845724521696
 11
545.64649383221968
 21
249.67243341490774
  0
LINE
  8
_0-d_寸法3
  6
CONTINUOUS
 62
    7
 10
541.55073361077473
 20
246.80455123315252
 11
544.13892406180003
 21
237.14529297026183
  0
LINE
  8
_0-d_寸法3
  6
CONTINUOUS
 62
    7
 10
541.55073361077473
 20
246.80455123315252
 11
538.96254315974943
 21
237.14529297026186
  0
LINE
  8
_0-d_寸法3
  6
CONTINUOUS
 62
    7
 10
541.55073361077473
 20
205.13788456648598
 11
541.55073361077473
 21
246.80455123315252
  0
TEXT
  8
_0-d_寸法3
 62
    7
 10
541.55073361077473
 20
218.47121789982029
 40
15
 41
1
 50
90
  1
25
  0
LINE
  8
_0-a_極細3
  6
CENTER1
 62
    7
 10
522.90139865241815
 20
200.51602621503974
 11
360.32285602449235
 21
200.51602621503974
  0
LINE
  8
_0-b_細線3
  6
CONTINUOUS
 62
    7
 10
446.93596499637522
 20
189.68269288170646
 11
470.26929832970865
 21
189.68269288170646
  0
LINE
  8
_0-b_細線3
  6
CONTINUOUS
 62
    7
 10
475.93596499697821
 20
189.68269288170646
 11
499.26929833031176
 21
189.68269288170646
  0
LINE
  8
_0-b_細線3
  6
CONTINUOUS
 62
    7
 10
388.93596499485227
 20
189.68269288170646
 11
412.26929832818587
 21
189.68269288170646
  0
LINE
  8
_0-b_細線3
  6
CONTINUOUS
 62
    7
 10
417.93596499545572
 20
189.68269288170646
 11
441.26929832878875
 21
189.68269288170646
  0
LINE
  8
_0-b_細線3
  6
CONTINUOUS
 62
    7
 10
446.93596499637522
 20
211.34935954837323
 11
470.26929832970865
 21
211.34935954837323
  0
LINE
  8
_0-b_細線3
  6
CONTINUOUS
 62
    7
 10
475.93596499697821
 20
211.34935954837323
 11
499.26929833031176
 21
211.34935954837323
  0
LINE
  8
_0-b_細線3
  6
CONTINUOUS
 62
    7
 10
388.93596499485227
 20
211.34935954837323
 11
412.26929832818587
 21
211.34935954837323
  0
LINE
  8
_0-b_細線3
  6
CONTINUOUS
 62
    7
 10
417.93596499545572
 20
211.34935954837323
 11
441.26929832878875
 21
211.34935954837323
  0
LINE
  8
_0-b_細線3
  6
CONTINUOUS
 62
    7
 10
504.93596499758127
 20
211.34935954837323
 11
515.69506138838142
 21
211.34935954837323
  0
LINE
  8
_0-b_細線3
  6
CONTINUOUS
 62
    7
 10
504.93596499758127
 20
189.68269288170646
 11
518.40353339743751
 21
189.68269288170646
  0
LINE
  8
_0-b_細線3
  6
CONTINUOUS
 62
    7
 10
370.77524595004741
 20
211.34935954837323
 11
383.26929832758276
 21
211.34935954837323
  0
LINE
  8
_0-b_細線3
  6
CONTINUOUS
 62
    7
 10
373.4837179591035
 20
189.68269288170646
 11
383.26929832758276
 21
189.68269288170646
  0
TEXT
  8
_0-7_枠細線
 62
    5
 10
404.36929832786836
 20
128.6322261272754
 40
25.000000000000007
 41
0.8
 50
0
  1
断面詳細
  0
TEXT
  8
_0-7_枠細線
 62
    5
 10
509.31826807703658
 20
131.59166594759512
 40
20.000000000000004
 41
0.5999999999999999
 50
0
  1
Ｓ＝１：３
  0
LINE
  8
_0-d_寸法3
  6
CONTINUOUS
 62
    7
 10
395.60263165876029
 20
229.18269288170643
 11
395.6026316587604
 21
270.849359548373
  0
LINE
  8
_0-d_寸法3
  6
CONTINUOUS
 62
    7
 10
395.6026316587604
 20
265.849359548373
 11
385.94337339586963
 21
263.26116909734782
  0
LINE
  8
_0-d_寸法3
  6
CONTINUOUS
 62
    7
 10
395.6026316587604
 20
265.849359548373
 11
385.94337339586968
 21
268.43754999939824
  0
LINE
  8
_0-d_寸法3
  6
CONTINUOUS
 62
    7
 10
405.60263166304185
 20
229.18269288170646
 11
405.6026316630419
 21
270.849359548373
  0
LINE
  8
_0-d_寸法3
  6
CONTINUOUS
 62
    7
 10
371.22867597559326
 20
265.849359548373
 11
405.6026316630419
 21
265.849359548373
  0
TEXT
  8
_0-d_寸法3
 62
    7
 10
371.22867597559332
 20
250.84935954837303
 40
15
 41
1
 50
0
  1
(6)
  0
LINE
  8
_0-d_寸法3
  6
CONTINUOUS
 62
    7
 10
405.6026316630419
 20
265.849359548373
 11
415.26188992593256
 21
268.43754999939819
  0
LINE
  8
_0-d_寸法3
  6
CONTINUOUS
 62
    7
 10
405.6026316630419
 20
265.849359548373
 11
415.26188992593256
 21
263.26116909734782
  0
LINE
  8
_0-d_寸法3
  6
CONTINUOUS
 62
    7
 10
424.60263165936283
 20
229.18269288170646
 11
424.60263165936294
 21
270.849359548373
  0
LINE
  8
_0-d_寸法3
  6
CONTINUOUS
 62
    7
 10
424.60263165936294
 20
265.849359548373
 11
414.94337339647223
 21
263.26116909734782
  0
LINE
  8
_0-d_寸法3
  6
CONTINUOUS
 62
    7
 10
424.60263165936294
 20
265.849359548373
 11
414.94337339647234
 21
268.43754999939824
  0
LINE
  8
_0-d_寸法3
  6
CONTINUOUS
 62
    7
 10
405.6026316630419
 20
265.849359548373
 11
424.60263165936294
 21
265.849359548373
  0
TEXT
  8
_0-d_寸法3
 62
    7
 10
396.3379352348523
 20
265.849359548373
 40
15
 41
1
 50
0
  1
11.4
  0
LINE
  8
_0-5_寸法線
  6
CONTINUOUS
 62
    7
 10
1240
 20
602.66021900100691
 11
1240
 21
557.66021900100668
  0
LINE
  8
_0-5_寸法線
  6
CONTINUOUS
 62
    7
 10
1240
 20
562.66021900100668
 11
1230.3407417371093
 21
560.0720285499815
  0
LINE
  8
_0-5_寸法線
  6
CONTINUOUS
 62
    7
 10
1240
 20
562.66021900100668
 11
1230.3407417371093
 21
565.24840945203186
  0
LINE
  8
_0-5_寸法線
  6
CONTINUOUS
 62
    7
 10
1209.9999999999995
 20
625.66021900100668
 11
1210.0000000000011
 21
557.66021900100668
  0
LINE
  8
_0-5_寸法線
  6
CONTINUOUS
 62
    7
 10
1210.0000000000009
 20
562.66021900100668
 11
1219.6592582628916
 21
565.24840945203186
  0
LINE
  8
_0-5_寸法線
  6
CONTINUOUS
 62
    7
 10
1210.0000000000009
 20
562.66021900100668
 11
1219.6592582628916
 21
560.0720285499815
  0
LINE
  8
_0-5_寸法線
  6
CONTINUOUS
 62
    7
 10
1240
 20
562.66021900100668
 11
1210.0000000000009
 21
562.66021900100668
  0
TEXT
  8
_0-5_寸法線
 62
    7
 10
1217.4999999999986
 20
562.66021900100668
 40
15
 41
1
 50
0
  1
30
  0
LINE
  8
_0-5_寸法線
  6
CONTINUOUS
 62
    7
 10
929.99999999999909
 20
602.66021900100691
 11
929.99999999999909
 21
557.66021900100668
  0
LINE
  8
_0-5_寸法線
  6
CONTINUOUS
 62
    7
 10
929.99999999999909
 20
562.66021900100668
 11
939.65925826288981
 21
565.24840945203186
  0
LINE
  8
_0-5_寸法線
  6
CONTINUOUS
 62
    7
 10
929.99999999999909
 20
562.66021900100668
 11
939.65925826288981
 21
560.0720285499815
  0
LINE
  8
_0-5_寸法線
  6
CONTINUOUS
 62
    7
 10
959.99999999999886
 20
625.66021900100668
 11
959.99999999999716
 21
557.66021900100668
  0
LINE
  8
_0-5_寸法線
  6
CONTINUOUS
 62
    7
 10
959.99999999999727
 20
562.66021900100668
 11
950.34074173710667
 21
560.0720285499815
  0
LINE
  8
_0-5_寸法線
  6
CONTINUOUS
 62
    7
 10
959.99999999999727
 20
562.66021900100668
 11
950.34074173710667
 21
565.24840945203186
  0
LINE
  8
_0-5_寸法線
  6
CONTINUOUS
 62
    7
 10
929.99999999999909
 20
562.66021900100668
 11
959.99999999999727
 21
562.66021900100668
  0
TEXT
  8
_0-5_寸法線
 62
    7
 10
937.49999999999875
 20
562.66021900100668
 40
15
 41
1
 50
0
  1
30
  0
LINE
  8
_0-5_寸法線
  6
CONTINUOUS
 62
    7
 10
959.99999999999909
 20
630.66021900100668
 11
959.99999999999909
 21
557.66021900100691
  0
LINE
  8
_0-5_寸法線
  6
CONTINUOUS
 62
    7
 10
959.99999999999909
 20
562.66021900100691
 11
969.65925826288981
 21
565.24840945203209
  0
LINE
  8
_0-5_寸法線
  6
CONTINUOUS
 62
    7
 10
959.99999999999909
 20
562.66021900100691
 11
969.65925826288981
 21
560.07202854998172
  0
LINE
  8
_0-5_寸法線
  6
CONTINUOUS
 62
    7
 10
1209.9999999999991
 20
630.66021900100668
 11
1209.9999999999991
 21
557.66021900100691
  0
LINE
  8
_0-5_寸法線
  6
CONTINUOUS
 62
    7
 10
1209.9999999999991
 20
562.66021900100691
 11
1200.3407417371086
 21
560.07202854998172
  0
LINE
  8
_0-5_寸法線
  6
CONTINUOUS
 62
    7
 10
1209.9999999999991
 20
562.66021900100691
 11
1200.3407417371086
 21
565.24840945203209
  0
LINE
  8
_0-5_寸法線
  6
CONTINUOUS
 62
    7
 10
959.99999999999909
 20
562.66021900100691
 11
1209.9999999999991
 21
562.66021900100691
  0
TEXT
  8
_0-5_寸法線
 62
    7
 10
1073.75
 20
562.66021900100691
 40
15
 41
1
 50
0
  1
250
  0
LINE
  8
_0-5_寸法線
  6
CONTINUOUS
 62
    7
 10
919.99999999999909
 20
663.66021900100679
 11
872.69999999999982
 21
663.66021900100702
  0
LINE
  8
_0-5_寸法線
  6
CONTINUOUS
 62
    7
 10
877.69999999999982
 20
663.66021900100702
 11
880.28819045102512
 21
654.00096073811642
  0
LINE
  8
_0-5_寸法線
  6
CONTINUOUS
 62
    7
 10
877.69999999999982
 20
663.66021900100702
 11
875.11180954897463
 21
654.00096073811642
  0
LINE
  8
_0-5_寸法線
  6
CONTINUOUS
 62
    7
 10
917.69999999999982
 20
635.66021900100668
 11
872.69999999999982
 21
635.66021900100668
  0
LINE
  8
_0-5_寸法線
  6
CONTINUOUS
 62
    7
 10
877.69999999999982
 20
635.66021900100668
 11
875.11180954897463
 21
645.3194772638974
  0
LINE
  8
_0-5_寸法線
  6
CONTINUOUS
 62
    7
 10
877.69999999999982
 20
635.66021900100668
 11
880.28819045102512
 21
645.3194772638974
  0
LINE
  8
_0-5_寸法線
  6
CONTINUOUS
 62
    7
 10
877.69999999999982
 20
663.66021900100702
 11
877.69999999999982
 21
635.66021900100668
  0
TEXT
  8
_0-5_寸法線
 62
    7
 10
877.69999999999982
 20
642.16021900100691
 40
15
 41
1
 50
90
  1
28
  0
LINE
  8
_0-5_寸法線
  6
CONTINUOUS
 62
    7
 10
917.69999999999982
 20
635.66021900100668
 11
872.69999999999982
 21
635.66021900100668
  0
LINE
  8
_0-5_寸法線
  6
CONTINUOUS
 62
    7
 10
877.69999999999982
 20
635.66021900100668
 11
880.28819045102512
 21
626.00096073811596
  0
LINE
  8
_0-5_寸法線
  6
CONTINUOUS
 62
    7
 10
877.69999999999982
 20
635.66021900100668
 11
875.11180954897463
 21
626.00096073811596
  0
LINE
  8
_0-5_寸法線
  6
CONTINUOUS
 62
    7
 10
917.69999999999982
 20
612.66021900100668
 11
872.69999999999982
 21
612.66021900100668
  0
LINE
  8
_0-5_寸法線
  6
CONTINUOUS
 62
    7
 10
877.69999999999982
 20
612.66021900100668
 11
875.11180954897463
 21
622.3194772638974
  0
LINE
  8
_0-5_寸法線
  6
CONTINUOUS
 62
    7
 10
877.69999999999982
 20
612.66021900100668
 11
880.28819045102512
 21
622.3194772638974
  0
LINE
  8
_0-5_寸法線
  6
CONTINUOUS
 62
    7
 10
877.69999999999982
 20
635.66021900100668
 11
877.69999999999982
 21
612.66021900100668
  0
TEXT
  8
_0-5_寸法線
 62
    7
 10
877.69999999999982
 20
616.66021900100679
 40
15
 41
1
 50
90
  1
23
  0
LINE
  8
_0-5_寸法線
  6
CONTINUOUS
 62
    7
 10
1076.8084795571101
 20
644.39576436351035
 11
1046.8421729299826
 21
665.37839815612858
  0
LINE
  8
_0-5_寸法線
  6
CONTINUOUS
 62
    7
 10
1050.9379331514276
 20
662.51051597437345
 11
1048.3497427004024
 21
672.16977423726405
  0
LINE
  8
_0-5_寸法線
  6
CONTINUOUS
 62
    7
 10
1050.9379331514276
 20
662.51051597437345
 11
1053.5261236024528
 21
672.16977423726405
  0
LINE
  8
_0-5_寸法線
  6
CONTINUOUS
 62
    7
 10
1076.8084795571101
 20
669.39576436351012
 11
1046.8421729299826
 21
690.37839815612847
  0
LINE
  8
_0-5_寸法線
  6
CONTINUOUS
 62
    7
 10
1050.9379331514276
 20
687.51051597437311
 11
1053.5261236024528
 21
677.8512577114825
  0
LINE
  8
_0-5_寸法線
  6
CONTINUOUS
 62
    7
 10
1050.9379331514276
 20
687.51051597437311
 11
1048.3497427004024
 21
677.8512577114825
  0
LINE
  8
_0-5_寸法線
  6
CONTINUOUS
 62
    7
 10
1050.9379331514276
 20
662.51051597437345
 11
1050.9379331514276
 21
687.51051597437311
  0
TEXT
  8
_0-5_寸法線
 62
    7
 10
1050.9379331514278
 20
667.51051597437345
 40
15
 41
1
 50
90
  1
25
  0
LINE
  8
_0-5_寸法線
  6
CONTINUOUS
 62
    7
 10
283.51795824097269
 20
399.60583080108046
 11
203.51795824097266
 21
399.60583080108057
  0
LINE
  8
_0-5_寸法線
  6
CONTINUOUS
 62
    7
 10
208.51795824097266
 20
399.60583080108057
 11
205.92976778994753
 21
409.26508906397123
  0
LINE
  8
_0-5_寸法線
  6
CONTINUOUS
 62
    7
 10
208.51795824097266
 20
399.60583080108057
 11
211.10614869199793
 21
409.26508906397123
  0
LINE
  8
_0-5_寸法線
  6
CONTINUOUS
 62
    7
 10
283.51795824097314
 20
709.60583080108245
 11
203.51795824097266
 21
709.60583080108279
  0
LINE
  8
_0-5_寸法線
  6
CONTINUOUS
 62
    7
 10
208.51795824097266
 20
709.60583080108279
 11
211.10614869199793
 21
699.94657253819219
  0
LINE
  8
_0-5_寸法線
  6
CONTINUOUS
 62
    7
 10
208.51795824097266
 20
709.60583080108279
 11
205.92976778994753
 21
699.94657253819219
  0
LINE
  8
_0-5_寸法線
  6
CONTINUOUS
 62
    7
 10
208.51795824097266
 20
399.60583080108057
 11
208.51795824097266
 21
709.60583080108279
  0
TEXT
  8
_0-5_寸法線
 62
    7
 10
208.51795824097252
 20
543.35583080108165
 40
15
 41
1
 50
89.999999999999645
  1
310
  0
LINE
  8
_0-5_寸法線
  6
CONTINUOUS
 62
    7
 10
243.51795824097266
 20
399.60583080108051
 11
246.10614869199787
 21
389.94657253818986
  0
LINE
  8
_0-5_寸法線
  6
CONTINUOUS
 62
    7
 10
243.51795824097266
 20
399.60583080108051
 11
240.92976778994745
 21
389.94657253818986
  0
LINE
  8
_0-5_寸法線
  6
CONTINUOUS
 62
    7
 10
283.51795824097269
 20
402.6058308010804
 11
238.51795824097266
 21
402.60583080108057
  0
CIRCLE
  8
_0-5_寸法線
  6
CONTINUOUS
 62
    1
 10
243.51795824097266
 20
402.60583080108057
 40
1.5000000000000002
  0
LINE
  8
_0-5_寸法線
  6
CONTINUOUS
 62
    7
 10
243.51795824097266
 20
374.60583080108051
 11
243.51795824097266
 21
402.60583080108057
  0
TEXT
  8
_0-5_寸法線
 62
    7
 10
243.51795824097266
 20
377.95918897221043
 40
15
 41
1
 50
90
  1
3
  0
LINE
  8
_0-5_寸法線
  6
CONTINUOUS
 62
    7
 10
283.51795824097269
 20
404.60583080108211
 11
238.51795824097266
 21
404.60583080108199
  0
LINE
  8
_0-5_寸法線
  6
CONTINUOUS
 62
    7
 10
243.51795824097266
 20
402.60583080108057
 11
243.51795824097266
 21
404.60583080108199
  0
TEXT
  8
_0-5_寸法線
 62
    7
 10
262.37112393143502
 20
407.35352656791997
 40
15
 41
1
 50
90
  1
2
  0
LINE
  8
_0-5_寸法線
  6
CONTINUOUS
 62
    7
 10
243.51795824097266
 20
404.60583080108199
 11
240.92976778994753
 21
414.26508906397265
  0
LINE
  8
_0-5_寸法線
  6
CONTINUOUS
 62
    7
 10
243.51795824097266
 20
404.60583080108199
 11
246.10614869199793
 21
414.26508906397265
  0
LINE
  8
_0-5_寸法線
  6
CONTINUOUS
 62
    7
 10
283.51795824097269
 20
704.60583080108211
 11
238.51795824097266
 21
704.60583080108211
  0
LINE
  8
_0-5_寸法線
  6
CONTINUOUS
 62
    7
 10
243.51795824097266
 20
704.60583080108211
 11
246.10614869199787
 21
694.94657253819128
  0
LINE
  8
_0-5_寸法線
  6
CONTINUOUS
 62
    7
 10
243.51795824097266
 20
704.60583080108211
 11
240.92976778994745
 21
694.94657253819128
  0
LINE
  8
_0-5_寸法線
  6
CONTINUOUS
 62
    7
 10
243.51795824097266
 20
404.60583080108199
 11
243.51795824097266
 21
704.60583080108211
  0
TEXT
  8
_0-5_寸法線
 62
    7
 10
243.51795824097266
 20
543.35583080108199
 40
15
 41
1
 50
89.999999999999815
  1
300
  0
LINE
  8
_0-5_寸法線
  6
CONTINUOUS
 62
    7
 10
283.51795824097314
 20
706.60583080108256
 11
238.51795824097266
 21
706.60583080108256
  0
CIRCLE
  8
_0-5_寸法線
  6
CONTINUOUS
 62
    1
 10
243.51795824097266
 20
706.60583080108256
 40
1.5000000000000002
  0
LINE
  8
_0-5_寸法線
  6
CONTINUOUS
 62
    7
 10
243.51795824097266
 20
704.60583080108211
 11
243.51795824097266
 21
706.60583080108256
  0
TEXT
  8
_0-5_寸法線
 62
    7
 10
262.94657056316396
 20
695.11794576317573
 40
15
 41
1
 50
90
  1
2
  0
LINE
  8
_0-5_寸法線
  6
CONTINUOUS
 62
    7
 10
243.51795824097266
 20
709.60583080108267
 11
240.92976778994753
 21
719.26508906397328
  0
LINE
  8
_0-5_寸法線
  6
CONTINUOUS
 62
    7
 10
243.51795824097266
 20
709.60583080108267
 11
246.10614869199793
 21
719.26508906397328
  0
LINE
  8
_0-5_寸法線
  6
CONTINUOUS
 62
    7
 10
243.51795824097266
 20
706.60583080108256
 11
243.51795824097266
 21
734.60583080108267
  0
TEXT
  8
_0-5_寸法線
 62
    7
 10
243.51795824097266
 20
723.87159773133453
 40
15
 41
1
 50
90
  1
3
  0
LINE
  8
_0-5_寸法線
  6
CONTINUOUS
 62
    7
 10
579.96760606765918
 20
579.97202950939129
 11
584.39621953222013
 21
588.93793062313944
  0
LINE
  8
_0-5_寸法線
  6
CONTINUOUS
 62
    7
 10
579.96760606765918
 20
579.97202950939129
 11
588.28584838838481
 21
585.52242090943582
  0
LINE
  8
_0-5_寸法線
  6
CONTINUOUS
 62
    7
 10
579.96760606765918
 20
579.97202950939129
 11
631.01982498169127
 21
638.1109898708703
  0
LINE
  8
_0-5_寸法線
  6
CONTINUOUS
 62
    7
 10
631.01982498169127
 20
638.1109898708703
 11
763.0198249816915
 21
638.1109898708703
  0
TEXT
  8
_0-5_寸法線
 62
    7
 10
631.01982498169139
 20
638.1109898708703
 40
15
 41
0.8000000000000001
 50
0
  1
セーフティグレーチング
  0
LINE
  8
_0-5_寸法線
  6
CONTINUOUS
 62
    7
 10
602.10724588699213
 20
498.46015316043719
 11
606.53585929940084
 21
507.42605429994535
  0
LINE
  8
_0-5_寸法線
  6
CONTINUOUS
 62
    7
 10
602.10724588699213
 20
498.46015316043719
 11
610.42548817543263
 21
504.01054460886661
  0
LINE
  8
_0-5_寸法線
  6
CONTINUOUS
 62
    7
 10
602.10724588699213
 20
498.46015316043719
 11
631.01982498169127
 21
531.38619135059014
  0
LINE
  8
_0-5_寸法線
  6
CONTINUOUS
 62
    7
 10
631.01982498169127
 20
531.38619135059014
 11
739.01982498169116
 21
531.38619135059014
  0
TEXT
  8
_0-5_寸法線
 62
    7
 10
631.01982498169127
 20
531.38619135059014
 40
15
 41
0.8000000000000001
 50
0
  1
ＳＵＳアングル受枠
  0
TEXT
  8
_0-5_寸法線
 62
    7
 10
630.9922483335597
 20
516.27645690487589
 40
15
 41
0.8000000000000001
 50
0
  1
ＧＳＬ－２５
  0
LINE
  8
_0-0_計極細
  6
CENTER2
 62
    2
 10
282.3130899428952
 20
554.60583080108199
 11
617.28468460533463
 21
554.60583080108199
  0
LINE
  8
_0-5_寸法線
  6
CONTINUOUS
 62
    7
 10
1240
 20
673.66021874025137
 11
1240.0000000000002
 21
788.66021874025125
  0
LINE
  8
_0-5_寸法線
  6
CONTINUOUS
 62
    7
 10
1240.0000000000002
 20
783.66021874025125
 11
1230.3407417371095
 21
781.07202828922595
  0
LINE
  8
_0-5_寸法線
  6
CONTINUOUS
 62
    7
 10
1240.0000000000002
 20
783.66021874025125
 11
1230.3407417371095
 21
786.24840919127632
  0
LINE
  8
_0-5_寸法線
  6
CONTINUOUS
 62
    7
 10
929.99999999999909
 20
673.66021874025137
 11
929.99999999999943
 21
788.66021874025137
  0
LINE
  8
_0-5_寸法線
  6
CONTINUOUS
 62
    7
 10
929.99999999999943
 20
783.66021874025137
 11
939.65925826289003
 21
786.24840919127666
  0
LINE
  8
_0-5_寸法線
  6
CONTINUOUS
 62
    7
 10
929.99999999999943
 20
783.66021874025137
 11
939.65925826289003
 21
781.07202828922618
  0
LINE
  8
_0-5_寸法線
  6
CONTINUOUS
 62
    7
 10
1240.0000000000002
 20
783.66021874025125
 11
929.99999999999943
 21
783.66021874025137
  0
TEXT
  8
_0-5_寸法線
 62
    7
 10
1073.7499999999998
 20
783.66021874025137
 40
15
 41
1
 50
0
  1
310
  0
LINE
  8
_0-5_寸法線
  6
CONTINUOUS
 62
    7
 10
930.00000051906909
 20
673.66021874025137
 11
930.0000005190692
 21
753.66021874025137
  0
LINE
  8
_0-5_寸法線
  6
CONTINUOUS
 62
    7
 10
930.0000005190692
 20
748.66021874025137
 11
920.3407422561786
 21
746.07202828922618
  0
LINE
  8
_0-5_寸法線
  6
CONTINUOUS
 62
    7
 10
930.0000005190692
 20
748.66021874025137
 11
920.3407422561786
 21
751.24840919127666
  0
LINE
  8
_0-5_寸法線
  6
CONTINUOUS
 62
    7
 10
932.99999999999909
 20
673.66021874025137
 11
932.99999999999932
 21
753.66021874025137
  0
CIRCLE
  8
_0-5_寸法線
  6
CONTINUOUS
 62
    1
 10
932.99999999999932
 20
748.66021874025137
 40
1.5000000000000002
  0
LINE
  8
_0-5_寸法線
  6
CONTINUOUS
 62
    7
 10
905.0000005190692
 20
748.66021874025137
 11
932.99999999999932
 21
748.66021874025137
  0
TEXT
  8
_0-5_寸法線
 62
    7
 10
909.94596866275674
 20
748.66021874025137
 40
15
 41
1
 50
0
  1
3
  0
LINE
  8
_0-5_寸法線
  6
CONTINUOUS
 62
    7
 10
934.99999999965598
 20
673.66021874025137
 11
934.9999999996561
 21
753.66021874025137
  0
LINE
  8
_0-5_寸法線
  6
CONTINUOUS
 62
    7
 10
932.99999999999932
 20
748.66021874025137
 11
934.9999999996561
 21
748.66021874025137
  0
TEXT
  8
_0-5_寸法線
 62
    7
 10
935.63601325660841
 20
748.66021874025137
 40
15
 41
1
 50
0
  1
2
  0
LINE
  8
_0-5_寸法線
  6
CONTINUOUS
 62
    7
 10
934.9999999996561
 20
748.66021874025137
 11
944.6592582625467
 21
751.24840919127666
  0
LINE
  8
_0-5_寸法線
  6
CONTINUOUS
 62
    7
 10
934.9999999996561
 20
748.66021874025137
 11
944.6592582625467
 21
746.07202828922607
  0
LINE
  8
_0-5_寸法線
  6
CONTINUOUS
 62
    7
 10
1235.0000000012024
 20
673.6599997392442
 11
1235.0000000012026
 21
753.66021874025137
  0
LINE
  8
_0-5_寸法線
  6
CONTINUOUS
 62
    7
 10
1235.0000000012026
 20
748.66021874025137
 11
1225.3407417383119
 21
746.07202828922618
  0
LINE
  8
_0-5_寸法線
  6
CONTINUOUS
 62
    7
 10
1235.0000000012026
 20
748.66021874025137
 11
1225.3407417383119
 21
751.24840919127666
  0
LINE
  8
_0-5_寸法線
  6
CONTINUOUS
 62
    7
 10
934.9999999996561
 20
748.66021874025137
 11
1235.0000000012026
 21
748.66021874025137
  0
TEXT
  8
_0-5_寸法線
 62
    7
 10
1073.7500000004293
 20
748.66021874025137
 40
15
 41
1
 50
0
  1
300
  0
LINE
  8
_0-5_寸法線
  6
CONTINUOUS
 62
    7
 10
1236.9999998924982
 20
673.66021874025137
 11
1236.9999998924984
 21
753.66021874025137
  0
CIRCLE
  8
_0-5_寸法線
  6
CONTINUOUS
 62
    1
 10
1236.9999998924984
 20
748.66021874025137
 40
1.5000000000000002
  0
LINE
  8
_0-5_寸法線
  6
CONTINUOUS
 62
    7
 10
1235.0000000012026
 20
748.66021874025137
 11
1236.9999998924984
 21
748.66021874025137
  0
TEXT
  8
_0-5_寸法線
 62
    7
 10
1225.2959158164767
 20
748.66021874025137
 40
15
 41
1
 50
0
  1
2
  0
LINE
  8
_0-5_寸法線
  6
CONTINUOUS
 62
    7
 10
1240
 20
673.66021874025137
 11
1240.0000000000002
 21
753.66021874025137
  0
LINE
  8
_0-5_寸法線
  6
CONTINUOUS
 62
    7
 10
1240.0000000000002
 20
748.66021874025137
 11
1249.6592582628909
 21
751.24840919127666
  0
LINE
  8
_0-5_寸法線
  6
CONTINUOUS
 62
    7
 10
1240.0000000000002
 20
748.66021874025137
 11
1249.6592582628909
 21
746.07202828922607
  0
LINE
  8
_0-5_寸法線
  6
CONTINUOUS
 62
    7
 10
1236.9999998924984
 20
748.66021874025137
 11
1265.0000000000002
 21
748.66021874025137
  0
TEXT
  8
_0-5_寸法線
 62
    7
 10
1254.2559587294518
 20
748.66021874025137
 40
15
 41
1
 50
0
  1
3
  0
LINE
  8
_0-5_寸法線
  6
CONTINUOUS
 62
    7
 10
1127.5000000010846
 20
673.6599997392442
 11
1127.5000000010848
 21
718.65999973924443
  0
LINE
  8
_0-5_寸法線
  6
CONTINUOUS
 62
    7
 10
1127.5000000010848
 20
713.65999973924443
 11
1137.1592582639755
 21
716.24819019026961
  0
LINE
  8
_0-5_寸法線
  6
CONTINUOUS
 62
    7
 10
1127.5000000010848
 20
713.65999973924443
 11
1137.1592582639755
 21
711.07180928821936
  0
LINE
  8
_0-5_寸法線
  6
CONTINUOUS
 62
    7
 10
1144.500000001256
 20
673.6599997392442
 11
1144.5000000012562
 21
718.65999973924443
  0
LINE
  8
_0-5_寸法線
  6
CONTINUOUS
 62
    7
 10
1144.5000000012562
 20
713.65999973924443
 11
1134.8407417383655
 21
711.07180928821936
  0
LINE
  8
_0-5_寸法線
  6
CONTINUOUS
 62
    7
 10
1144.5000000012562
 20
713.65999973924443
 11
1134.8407417383655
 21
716.24819019026961
  0
LINE
  8
_0-5_寸法線
  6
CONTINUOUS
 62
    7
 10
1127.5000000010848
 20
713.65999973924443
 11
1144.5000000012562
 21
713.65999973924443
  0
TEXT
  8
_0-5_寸法線
 62
    7
 10
1119.8440227085655
 20
698.65999973924443
 40
15
 41
1
 50
0
  1
(17)
  0
LINE
  8
_0-5_寸法線
  6
CONTINUOUS
 62
    7
 10
1144.5000000012562
 20
713.65999973924443
 11
1154.159258264147
 21
716.24819019026961
  0
LINE
  8
_0-5_寸法線
  6
CONTINUOUS
 62
    7
 10
1144.5000000012562
 20
713.65999973924443
 11
1154.159258264147
 21
711.07180928821913
  0
LINE
  8
_0-5_寸法線
  6
CONTINUOUS
 62
    7
 10
1161.5000000016184
 20
673.6599997392442
 11
1161.5000000016187
 21
718.65999973924443
  0
LINE
  8
_0-5_寸法線
  6
CONTINUOUS
 62
    7
 10
1161.5000000016187
 20
713.65999973924443
 11
1151.840741738728
 21
711.07180928821936
  0
LINE
  8
_0-5_寸法線
  6
CONTINUOUS
 62
    7
 10
1161.5000000016187
 20
713.65999973924443
 11
1151.840741738728
 21
716.24819019026961
  0
LINE
  8
_0-5_寸法線
  6
CONTINUOUS
 62
    7
 10
1144.5000000012562
 20
713.65999973924443
 11
1161.5000000016187
 21
713.65999973924443
  0
TEXT
  8
_0-5_寸法線
 62
    7
 10
1138.9106893748963
 20
713.65999973924443
 40
15
 41
1
 50
0
  1
(17)
  0
LINE
  8
_0-5_寸法線
  6
CONTINUOUS
 62
    7
 10
1014.1999999978107
 20
673.65999973924409
 11
1014.1999999978109
 21
718.65999973924443
  0
LINE
  8
_0-5_寸法線
  6
CONTINUOUS
 62
    7
 10
1014.1999999978109
 20
713.65999973924443
 11
1004.5407417349202
 21
711.07180928821936
  0
LINE
  8
_0-5_寸法線
  6
CONTINUOUS
 62
    7
 10
1014.1999999978109
 20
713.65999973924443
 11
1004.5407417349202
 21
716.24819019026961
  0
LINE
  8
_0-5_寸法線
  6
CONTINUOUS
 62
    7
 10
1019.8000000000177
 20
673.6599997392442
 11
1019.8000000000178
 21
718.65999973924443
  0
LINE
  8
_0-5_寸法線
  6
CONTINUOUS
 62
    7
 10
974.82604431445282
 20
713.65999973924443
 11
1019.8000000000178
 21
713.65999973924443
  0
TEXT
  8
_0-5_寸法線
 62
    7
 10
974.82604431445282
 20
698.65999973924443
 40
15
 41
1
 50
0
  1
(5.6)
  0
LINE
  8
_0-5_寸法線
  6
CONTINUOUS
 62
    7
 10
1019.8000000000178
 20
713.65999973924443
 11
1029.4592582629084
 21
716.24819019026961
  0
LINE
  8
_0-5_寸法線
  6
CONTINUOUS
 62
    7
 10
1019.8000000000178
 20
713.65999973924443
 11
1029.4592582629084
 21
711.07180928821936
  0
LINE
  8
_0-5_寸法線
  6
CONTINUOUS
 62
    7
 10
1031.1999999978098
 20
673.65999973924409
 11
1031.19999999781
 21
718.65999973924443
  0
LINE
  8
_0-5_寸法線
  6
CONTINUOUS
 62
    7
 10
1031.19999999781
 20
713.65999973924443
 11
1021.5407417349194
 21
711.07180928821936
  0
LINE
  8
_0-5_寸法線
  6
CONTINUOUS
 62
    7
 10
1031.19999999781
 20
713.65999973924443
 11
1021.5407417349194
 21
716.24819019026961
  0
LINE
  8
_0-5_寸法線
  6
CONTINUOUS
 62
    7
 10
1019.8000000000178
 20
713.65999973924443
 11
1031.19999999781
 21
713.65999973924443
  0
TEXT
  8
_0-5_寸法線
 62
    7
 10
1006.7353035724943
 20
713.65999973924443
 40
15
 41
1
 50
0
  1
11.4
  0
LINE
  8
_0-1_計細線
  6
CONTINUOUS
 62
    3
 10
937.49999999910369
 20
652.45999999999935
 11
934.49548399910384
 21
652.45999999999935
  0
LINE
  8
_0-1_計細線
  6
CONTINUOUS
 62
    3
 10
937.49999999910369
 20
648.96000000000004
 11
934.49547199910512
 21
648.96000000000004
  0
ARC
  8
_0-1_計細線
  6
CONTINUOUS
 62
    3
 10
934.49547199910512
 20
649.15999999999985
 40
0.2
 50
179.99999999999983
 51
269.99999999999977
  0
ARC
  8
_0-1_計細線
  6
CONTINUOUS
 62
    3
 10
942.0534519991038
 20
650.70985399999995
 40
7.7579559999999983
 50
166.96197800000277
 51
193.03567000000038
  0
ARC
  8
_0-1_計細線
  6
CONTINUOUS
 62
    3
 10
934.49547199910512
 20
655.7600000000001
 40
0.2
 50
89.999999999999915
 51
179.99999999999983
  0
ARC
  8
_0-1_計細線
  6
CONTINUOUS
 62
    3
 10
942.0534519991038
 20
654.21014399999979
 40
7.7579559999999983
 50
166.96432999999925
 51
193.03802200000015
  0
LINE
  8
_0-1_計細線
  6
CONTINUOUS
 62
    3
 10
937.49999999910369
 20
655.95999999999992
 11
934.49547199910512
 21
655.95999999999992
  0
LINE
  8
_0-1_計細線
  6
CONTINUOUS
 62
    3
 10
934.29547199910439
 20
649.15999999999985
 11
934.29547199910439
 21
655.7600000000001
  0
ARC
  8
_0-1_計細線
  6
CONTINUOUS
 62
    3
 10
937.69999999910453
 20
646.15999999999985
 40
0.2
 50
179.99999999999983
 51
269.99999999999977
  0
ARC
  8
_0-1_計細線
  6
CONTINUOUS
 62
    3
 10
937.69999999910453
 20
658.75999999999931
 40
0.2
 50
89.999999999999915
 51
179.99999999999983
  0
LINE
  8
_0-1_計細線
  6
CONTINUOUS
 62
    3
 10
937.49999999910369
 20
651.95999999999958
 11
937.49999999910369
 21
646.15999999999985
  0
LINE
  8
_0-1_計細線
  6
CONTINUOUS
 62
    3
 10
937.49999999910369
 20
658.75999999999931
 11
937.49999999910369
 21
651.95999999999958
  0
LINE
  8
_0-1_計細線
  6
CONTINUOUS
 62
    3
 10
938.99999999895272
 20
645.95999999999958
 11
937.69999999910453
 21
645.95999999999958
  0
LINE
  8
_0-1_計細線
  6
CONTINUOUS
 62
    3
 10
938.99999999966656
 20
658.95999999999981
 11
937.69999999910453
 21
658.95999999999981
  0
LINE
  8
_0-1_計細線
  6
CONTINUOUS
 62
    3
 10
1232.5000000008963
 20
652.45999999999935
 11
1235.5045160008963
 21
652.45999999999935
  0
LINE
  8
_0-1_計細線
  6
CONTINUOUS
 62
    3
 10
1232.5000000008963
 20
648.96000000000004
 11
1235.5045280008949
 21
648.96000000000004
  0
ARC
  8
_0-1_計細線
  6
CONTINUOUS
 62
    3
 10
1235.5045280008949
 20
649.15999999999985
 40
0.2
 50
269.99999999999977
 51
359.99999999999966
  0
ARC
  8
_0-1_計細線
  6
CONTINUOUS
 62
    3
 10
1227.9465480008962
 20
650.70985399999995
 40
7.7579559999999983
 50
346.96432999999888
 51
13.038021999996865
  0
ARC
  8
_0-1_計細線
  6
CONTINUOUS
 62
    3
 10
1235.5045280008949
 20
655.7600000000001
 40
0.2
 50
0
 51
89.999999999999915
  0
ARC
  8
_0-1_計細線
  6
CONTINUOUS
 62
    3
 10
1227.9465480008962
 20
654.21014399999979
 40
7.7579559999999983
 50
346.96197799999919
 51
13.035670000000389
  0
LINE
  8
_0-1_計細線
  6
CONTINUOUS
 62
    3
 10
1232.5000000008963
 20
655.95999999999992
 11
1235.5045280008949
 21
655.95999999999992
  0
LINE
  8
_0-1_計細線
  6
CONTINUOUS
 62
    3
 10
1235.7045280008956
 20
649.15999999999985
 11
1235.7045280008956
 21
655.7600000000001
  0
ARC
  8
_0-1_計細線
  6
CONTINUOUS
 62
    3
 10
1232.3000000008956
 20
646.15999999999985
 40
0.2
 50
269.99999999999977
 51
359.99999999999966
  0
ARC
  8
_0-1_計細線
  6
CONTINUOUS
 62
    3
 10
1232.3000000008956
 20
658.75999999999931
 40
0.2
 50
0
 51
89.999999999999915
  0
LINE
  8
_0-1_計細線
  6
CONTINUOUS
 62
    3
 10
1232.5000000008963
 20
651.95999999999958
 11
1232.5000000008963
 21
646.15999999999985
  0
LINE
  8
_0-1_計細線
  6
CONTINUOUS
 62
    3
 10
1232.5000000008963
 20
658.75999999999931
 11
1232.5000000008963
 21
651.95999999999958
  0
LINE
  8
_0-1_計細線
  6
CONTINUOUS
 62
    3
 10
1231.0000000010473
 20
645.95999999999958
 11
1232.3000000008956
 21
645.95999999999958
  0
LINE
  8
_0-1_計細線
  6
CONTINUOUS
 62
    3
 10
1231.0000000003336
 20
658.95999999999981
 11
1232.3000000008956
 21
658.95999999999981
  0
LINE
  8
_0-0_計極細
  6
CENTER1
 62
    2
 10
1238.8721647772363
 20
652.45999999999935
 11
931.43111402776822
 21
652.45999999999935
  0
TEXT
  8
_0-5_寸法線
 62
    7
 10
630.9922483335597
 20
622.42580879342722
 40
15
 41
0.8000000000000001
 50
0
  1
ＧＲＳ－２５Ｋ３００
  0
ENDSEC
  0
EOF
