  0
SECTION
  2
HEADER
  9
$ACADVER
  1
AC1009
  9
$INSBASE
 10
0
 20
0
 30
0
  9
$EXTMIN
 10
0
 20
0
  9
$EXTMAX
 10
1485
 20
1050
  9
$LIMMIN
 10
0
 20
0
  9
$LIMMAX
 10
1485
 20
1050
  9
$LTSCALE
 40
5
  0
ENDSEC
  0
SECTION
  2
TABLES
  0
TABLE
  2
LTYPE
 70
     9
  0
LTYPE
  2
CONTINUOUS
 70
    64
  3
実線
 72
    65
 73
     0
 40
0.0
  0
LTYPE
  2
DASHED1
 70
    64
  3
--  --  --  --  --  --  --  --  
 72
    65
 73
     2
 40
2.5
 49
1.25
 49
-1.25
  0
LTYPE
  2
DASHED2
 70
    64
  3
----    ----    ----    ----    
 72
    65
 73
     2
 40
5.0
 49
2.5
 49
-2.5
  0
LTYPE
  2
DASHED3
 70
    64
  3
------  ------  ------  ------  
 72
    65
 73
     2
 40
5.0
 49
3.75
 49
-1.25
  0
LTYPE
  2
CENTER1
 70
    64
  3
----- - ----- - ----- - ----- - 
 72
    65
 73
     4
 40
10.0
 49
6.25
 49
-1.25
 49
1.25
 49
-1.25
  0
LTYPE
  2
CENTER2
 70
    64
  3
----------  --  ----------  --  
 72
    65
 73
     4
 40
20.0
 49
12.5
 49
-2.5
 49
2.5
 49
-2.5
  0
LTYPE
  2
PHANTOM1
 70
    64
  3
--- - - --- - - --- - - --- - - 
 72
    65
 73
     6
 40
10.0
 49
3.25
 49
-1.25
 49
1.25
 49
-1.25
 49
1.25
 49
-1.25
  0
LTYPE
  2
PHANTOM2
 70
    64
  3
--------  -  -  --------  -  -  
 72
    65
 73
     6
 40
20.0
 49
10.0
 49
-2.5
 49
1.25
 49
-2.5
 49
1.25
 49
-2.5
  0
LTYPE
  2
DOT
 70
    64
  3
-   -   -   -   -   -   -   -   
 72
    65
 73
     2
 40
2.5
 49
0.625
 49
-1.875
  0
LTYPE
  2
DUMMY
 70
    64
  3
ダミー
 72
    65
 73
     0
 40
0.0
  0
LTYPE
  2
RAND1
 70
    64
  3
ランダム線1
 72
    65
 73
     4
 40
10.0
 49
1.0
 49
-2.0
 49
3.0
 49
-4.0
  0
LTYPE
  2
RAND2
 70
    64
  3
ランダム線2
 72
    65
 73
     4
 40
14.0
 49
2.0
 49
-3.0
 49
4.0
 49
-5.0
  0
LTYPE
  2
RAND3
 70
    64
  3
ランダム線3
 72
    65
 73
     4
 40
18.0
 49
3.0
 49
-4.0
 49
5.0
 49
-6.0
  0
LTYPE
  2
RAND4
 70
    64
  3
ランダム線4
 72
    65
 73
     4
 40
22.0
 49
4.0
 49
-5.0
 49
6.0
 49
-7.0
  0
LTYPE
  2
RAND5
 70
    64
  3
ランダム線5
 72
    65
 73
     4
 40
26.0
 49
5.0
 49
-6.0
 49
7.0
 49
-8.0
  0
LTYPE
  2
LONG1
 70
    64
  3
----------  --  ----------  --  
 72
    65
 73
     4
 40
40.0
 49
32.5
 49
-2.5
 49
2.5
 49
-2.5
  0
LTYPE
  2
LONG2
 70
    64
  3
--------  -  -  --------  -  -  
 72
    65
 73
     6
 40
40.0
 49
30.0
 49
-2.5
 49
1.25
 49
-2.5
 49
1.25
 49
-2.5
  0
LTYPE
  2
LONG3
 70
    64
  3
+++++++++++++++..+++++++++++++++
 72
    65
 73
     2
 40
40.0
 49
37.5
 49
-2.5
  0
LTYPE
  2
LONG4
 70
    64
  3
+++++++++++++++..+++++++++++++++
 72
    65
 73
     2
 40
80.0
 49
75.0
 49
-5.0
  0
LTYPE
  2
LONG5
 70
    64
  3
----------  --  ----------  --  
 72
    65
 73
     4
 40
60.0
 49
37.5
 49
-7.5
 49
7.5
 49
-7.5
  0
LTYPE
  2
dashed
 70
   64
  3
-------   -------------   ------
 72
   65
 73
    2
 40
7.5
 49
6
 49
-1.5
  0
LTYPE
  2
dashed_spaced
 70
   64
  3
----        --------        ----
 72
   65
 73
    2
 40
12
 49
6
 49
-6
  0
LTYPE
  2
long_dashed_dotted
 70
   64
  3
------------- --- --------------
 72
   65
 73
    4
 40
15.25
 49
12
 49
-1.5
 49
0.25
 49
-1.5
  0
LTYPE
  2
long_dashed_double-dotted
 70
   64
  3
----------- --- --- ------------
 72
   65
 73
    6
 40
17
 49
12
 49
-1.5
 49
0.25
 49
-1.5
 49
0.25
 49
-1.5
  0
LTYPE
  2
long_dashed_triplicate-dotted
 70
   64
  3
--------- --- --- --- ----------
 72
   65
 73
    8
 40
18.75
 49
12
 49
-1.5
 49
0.25
 49
-1.5
 49
0.25
 49
-1.5
 49
0.25
 49
-1.5
  0
LTYPE
  2
dotted
 70
   64
  3
   -       -       -       -    
 72
   65
 73
    2
 40
1.75
 49
0.25
 49
-1.5
  0
LTYPE
  2
chain
 70
   64
  3
-------------- -- --------------
 72
   65
 73
    4
 40
18.5
 49
12
 49
-1.5
 49
3.5
 49
-1.5
  0
LTYPE
  2
chain_double_dash
 70
   64
  3
------------ -- -- -------------
 72
   65
 73
    6
 40
23.5
 49
12
 49
-1.5
 49
3.5
 49
-1.5
 49
3.5
 49
-1.5
  0
LTYPE
  2
dashed_dotted
 70
   64
  3
-----------     -     ----------
 72
   65
 73
    4
 40
9.25
 49
6
 49
-1.5
 49
0.25
 49
-1.5
  0
LTYPE
  2
double-dashed_dotted
 70
   64
  3
------   -----------   -   -----
 72
   65
 73
    6
 40
16.75
 49
6
 49
-1.5
 49
6
 49
-1.5
 49
0.25
 49
-1.5
  0
LTYPE
  2
dashed_double-dotted
 70
   64
  3
---------    -    -    ---------
 72
   65
 73
    6
 40
11
 49
6
 49
-1.5
 49
0.25
 49
-1.5
 49
0.25
 49
-1.5
  0
LTYPE
  2
double-dashed_double-dotted
 70
   64
  3
-----   ---------   -   -   ----
 72
   65
 73
    8
 40
18.5
 49
6
 49
-1.5
 49
6
 49
-1.5
 49
0.25
 49
-1.5
 49
0.25
 49
-1.5
  0
LTYPE
  2
dashed_triplicate-dotted
 70
   64
  3
-------    -    -    -    ------
 72
   65
 73
    8
 40
12.75
 49
6
 49
-1.5
 49
0.25
 49
-1.5
 49
0.25
 49
-1.5
 49
0.25
 49
-1.5
  0
LTYPE
  2
double-dashed_triplicate-dotted
 70
   64
  3
-----  ---------  -  -  -  -----
 72
   65
 73
   10
 40
20.25
 49
6
 49
-1.5
 49
6
 49
-1.5
 49
0.25
 49
-1.5
 49
0.25
 49
-1.5
 49
0.25
 49
-1.5
  0
LTYPE
  2
undefined
 70
   64
  3
--------------------------------
 72
   65
 73
    0
 40
0
  0
ENDTAB
  0
TABLE
  2
STYLE
  5
3
100
AcDbSymbolTable
 70
     1
  0
STYLE
  5
10
100
AcDbSymbolTableRecord
100
AcDbTextStyleTableRecord
  2
STANDARD
 70
     0
 40
0.0
 41
1.0
 50
0.0
 71
     0
 42
0.2
  3
txt
  4
bigfont.shx
  0
STYLE
  5
26
100
AcDbSymbolTableRecord
100
AcDbTextStyleTableRecord
  2
TATEGAKI
 70
    68
 40
0.0
 41
1.0
 50
0.0
 71
     0
 42
1.0
  3
txt
  4
bigfont.shx
  0
ENDTAB
  0
TABLE
  2
LAYER
 70
   10
  0
LAYER
  2
_0-0_計極細
 70
   64
 62
    7
  6
CONTINUOUS
  0
LAYER
  2
_0-1_計細線
 70
   64
 62
    7
  6
CONTINUOUS
  0
LAYER
  2
_0-5_寸法線
 70
   64
 62
    7
  6
CONTINUOUS
  0
LAYER
  2
_0-7_枠細線
 70
   64
 62
    7
  6
CONTINUOUS
  0
LAYER
  2
_0-8_枠中線
 70
   64
 62
    7
  6
CONTINUOUS
  0
LAYER
  2
_0-9_枠極太
 70
   64
 62
    7
  6
CONTINUOUS
  0
LAYER
  2
_0-a_極細3
 70
   64
 62
    7
  6
CONTINUOUS
  0
LAYER
  2
_0-b_細線3
 70
   64
 62
    7
  6
CONTINUOUS
  0
LAYER
  2
_0-d_寸法3
 70
   64
 62
    7
  6
CONTINUOUS
  0
LAYER
  2
ADD_LINE
 70
   64
 62
    7
  6
CONTINUOUS
  0
ENDTAB
  0
ENDSEC
  0
SECTION
  2
BLOCKS
  0
ENDSEC
  0
SECTION
  2
ENTITIES
  0
LINE
  8
_0-7_枠細線
  6
CONTINUOUS
 62
    5
 10
1185
 20
180
 11
1185
 21
100
  0
TEXT
  8
_0-7_枠細線
 62
    5
 10
937.5
 20
97.5
 40
17.5
 41
1
 50
0
  1
備考
  7
TATEGAKI
  0
TEXT
  8
_0-7_枠細線
 62
    5
 10
937.5
 20
137.5
 40
17.5
 41
1
 50
0
  1
品番
  7
TATEGAKI
  0
TEXT
  8
_0-7_枠細線
 62
    5
 10
937.5
 20
177.5
 40
17.5
 41
1
 50
0
  1
品名
  7
TATEGAKI
  0
LINE
  8
_0-7_枠細線
  6
CONTINUOUS
 62
    5
 10
1185
 20
140
 11
925
 21
140
  0
LINE
  8
_0-7_枠細線
  6
CONTINUOUS
 62
    5
 10
950
 20
180
 11
950
 21
60
  0
LINE
  8
_0-8_枠中線
  6
CONTINUOUS
 62
    5
 10
1425
 20
180
 11
925
 21
180
  0
LINE
  8
_0-8_枠中線
  6
CONTINUOUS
 62
    5
 10
925
 20
180
 11
925
 21
60
  0
LINE
  8
_0-7_枠細線
  6
CONTINUOUS
 62
    5
 10
1245
 20
180
 11
1245
 21
60
  0
TEXT
  8
_0-7_枠細線
 62
    5
 10
1192.5
 20
160
 40
15
 41
1
 50
0
  1
縮　尺
  0
LINE
  8
_0-7_枠細線
  6
CONTINUOUS
 62
    5
 10
1185
 20
155
 11
1245
 21
155
  0
LINE
  8
_0-7_枠細線
  6
CONTINUOUS
 62
    5
 10
1245
 20
100
 11
925
 21
100
  0
LINE
  8
_0-7_枠細線
  6
CONTINUOUS
 62
    5
 10
1425
 20
90
 11
1245
 21
90
  0
LINE
  8
_0-7_枠細線
  6
CONTINUOUS
 62
    5
 10
1245
 20
120
 11
1425
 21
120
  0
LINE
  8
_0-7_枠細線
  6
CONTINUOUS
 62
    5
 10
1425
 20
140
 11
1245
 21
140
  0
TEXT
  8
_0-7_枠細線
 62
    5
 10
1255
 20
147.5
 40
25
 41
0.8
 50
0
  1
株式会社シマブン
  0
TEXT
  8
_0-7_枠細線
 62
    5
 10
1252.5
 20
60
 40
15
 41
1
 50
0
  1
年月日
  0
TEXT
  8
_0-7_枠細線
 62
    5
 10
1252.5
 20
75
 40
15
 41
1
 50
0
  1
作　成
  0
TEXT
  8
_0-7_枠細線
 62
    5
 10
1256.25
 20
122.5
 40
15
 41
1
 50
0
  1
承 認
  0
LINE
  8
_0-7_枠細線
  6
CONTINUOUS
 62
    5
 10
1305
 20
140
 11
1305
 21
60
  0
TEXT
  8
_0-7_枠細線
 62
    5
 10
1316.25
 20
122.5
 40
15
 41
1
 50
0
  1
検 図
  0
LINE
  8
_0-7_枠細線
  6
CONTINUOUS
 62
    5
 10
1365
 20
140
 11
1365
 21
90
  0
TEXT
  8
_0-7_枠細線
 62
    5
 10
1375
 20
95
 40
20
 41
1
 50
0
  1
藤戸
  0
TEXT
  8
_0-7_枠細線
 62
    5
 10
1376.25
 20
122.5
 40
15
 41
1
 50
0
  1
設 計
  0
TEXT
  8
_0-7_枠細線
 62
    5
 10
1255
 20
95
 40
20
 41
1
 50
0
  1
隠塚
  0
TEXT
  8
_0-7_枠細線
 62
    5
 10
1315
 20
95
 40
20
 41
1
 50
0
  1
渋田
  0
TEXT
  8
_0-7_枠細線
 62
    5
 10
1193.9999999999998
 20
117.5
 40
20
 41
0.7000000000000001
 50
0
  1
１：５
  0
TEXT
  8
_0-7_枠細線
 62
    5
 10
960.5
 20
69.999999999999858
 40
20
 41
0.5999999999999998
 50
0
  1
品番・色については表参照のこと
  0
TEXT
  8
_0-7_枠細線
 62
    5
 10
1309.9999999999998
 20
67.499999999999929
 40
15.000000000000009
 41
0.6666666666666665
 50
0
  1
２０１０年０３月０１日
  0
TEXT
  8
_0-7_枠細線
 62
    5
 10
1128.5
 20
141.25
 40
20.000000000000007
 41
0.5999999999999998
 50
0
  1
集水マス
  0
LINE
  8
_0-7_枠細線
  6
CONTINUOUS
 62
    5
 10
1425
 20
942.5
 11
890
 21
942.5
  0
TEXT
  8
_0-7_枠細線
 62
    5
 10
895
 20
945
 40
12.5
 41
1
 50
0
  1
記号
  0
TEXT
  8
_0-7_枠細線
 62
    5
 10
996.875
 20
945
 40
12.5
 41
1
 50
0
  1
訂　 正　 記　 事
  0
TEXT
  8
_0-7_枠細線
 62
    5
 10
1181.25
 20
945
 40
12.5
 41
1
 50
0
  1
訂 正 年 月 日
  0
TEXT
  8
_0-7_枠細線
 62
    5
 10
1306.25
 20
945
 40
12.5
 41
1
 50
0
  1
備　　　　　考
  0
LINE
  8
_0-7_枠細線
  6
CONTINUOUS
 62
    5
 10
1425
 20
925
 11
890
 21
925
  0
TEXT
  8
_0-7_枠細線
 62
    5
 10
938.85037037037023
 20
927.5
 40
12.5
 41
1
 50
0
  1
品番・色記号変更
  0
TEXT
  8
_0-7_枠細線
 62
    5
 10
1180
 20
927.5
 40
12.5
 41
0.7199999999999999
 50
0
  1
２０１３．０３．１３
  0
LINE
  8
_0-7_枠細線
  6
CONTINUOUS
 62
    5
 10
1425
 20
907.5
 11
890
 21
907.5
  0
LINE
  8
_0-7_枠細線
  6
CONTINUOUS
 62
    5
 10
1425
 20
890
 11
890
 21
890
  0
TEXT
  8
_0-7_枠細線
 62
    5
 10
938.85037037037023
 20
910
 40
12.5
 41
1
 50
0
  1
クロスバーピッチ変更
  0
TEXT
  8
_0-7_枠細線
 62
    5
 10
938.85037037037023
 20
892.5
 40
12.5
 41
1
 50
0
  1
取外具形状変更
  0
TEXT
  8
_0-7_枠細線
 62
    5
 10
1180
 20
910
 40
12.5
 41
0.7199999999999999
 50
0
  1
２０１５．１１．２０
  0
LINE
  8
_0-7_枠細線
  6
CONTINUOUS
 62
    5
 10
915
 20
908.94233397174685
 11
907.5
 21
923.94233397174685
  0
LINE
  8
_0-7_枠細線
  6
CONTINUOUS
 62
    5
 10
900
 20
908.94233397174685
 11
915
 21
908.94233397174685
  0
LINE
  8
_0-7_枠細線
  6
CONTINUOUS
 62
    5
 10
907.5
 20
923.94233397174685
 11
900
 21
908.94233397174685
  0
TEXT
  8
_0-7_枠細線
 62
    5
 10
902.36515126814822
 20
908.63533172636664
 40
12.5
 41
0.8
 50
0
  1
１
  0
TEXT
  8
_0-7_枠細線
 62
    5
 10
902.36515126814822
 20
891.13533172636664
 40
12.5
 41
0.8
 50
0
  1
２
  0
LINE
  8
_0-7_枠細線
  6
CONTINUOUS
 62
    5
 10
1425
 20
872.5
 11
890
 21
872.5
  0
LINE
  8
_0-7_枠細線
  6
CONTINUOUS
 62
    5
 10
907.5
 20
906.44233397174685
 11
900
 21
891.44233397174685
  0
LINE
  8
_0-7_枠細線
  6
CONTINUOUS
 62
    5
 10
900
 20
891.44233397174685
 11
915
 21
891.44233397174685
  0
LINE
  8
_0-7_枠細線
  6
CONTINUOUS
 62
    5
 10
915
 20
891.44233397174685
 11
907.5
 21
906.44233397174685
  0
TEXT
  8
_0-7_枠細線
 62
    5
 10
902.36515126814822
 20
873.39465008156549
 40
12.5
 41
0.8
 50
0
  1
３
  0
TEXT
  8
_0-7_枠細線
 62
    5
 10
1180
 20
875
 40
12.5
 41
0.7199999999999999
 50
0
  1
２０１７．０４．０１
  0
LINE
  8
_0-7_枠細線
  6
CONTINUOUS
 62
    5
 10
915
 20
856.44233397174685
 11
907.5
 21
871.44233397174685
  0
LINE
  8
_0-7_枠細線
  6
CONTINUOUS
 62
    5
 10
900
 20
856.44233397174685
 11
915
 21
856.44233397174685
  0
LINE
  8
_0-7_枠細線
  6
CONTINUOUS
 62
    5
 10
907.5
 20
871.44233397174685
 11
900
 21
856.44233397174685
  0
TEXT
  8
_0-7_枠細線
 62
    5
 10
1180
 20
857.5
 40
12.5
 41
0.7199999999999999
 50
0
  1
２０１７．０４．０１
  0
TEXT
  8
_0-7_枠細線
 62
    5
 10
938.85037037037023
 20
857.5
 40
12.5
 41
1
 50
0
  1
ブラウン色（Ｃ）追加
  0
LINE
  8
_0-7_枠細線
  6
CONTINUOUS
 62
    5
 10
1425
 20
855
 11
890
 21
855
  0
LINE
  8
_0-7_枠細線
  6
CONTINUOUS
 62
    5
 10
907.5
 20
888.94233397174685
 11
900
 21
873.94233397174685
  0
LINE
  8
_0-7_枠細線
  6
CONTINUOUS
 62
    5
 10
900
 20
873.94233397174685
 11
915
 21
873.94233397174685
  0
LINE
  8
_0-7_枠細線
  6
CONTINUOUS
 62
    5
 10
915
 20
873.94233397174685
 11
907.5
 21
888.94233397174685
  0
TEXT
  8
_0-7_枠細線
 62
    5
 10
902.36515126814822
 20
855.49351400689704
 40
12.5
 41
0.8
 50
0
  1
４
  0
TEXT
  8
_0-7_枠細線
 62
    5
 10
938.85037037037023
 20
875
 40
12.5
 41
1
 50
0
  1
取外具形状変更
  0
TEXT
  8
_0-7_枠細線
 62
    5
 10
1180
 20
892.5
 40
12.5
 41
0.7199999999999999
 50
0
  1
２０１５．１１．２０
  0
LINE
  8
_0-9_枠極太
  6
CONTINUOUS
 62
    5
 10
60
 20
60
 11
60
 21
960
  0
LINE
  8
_0-9_枠極太
  6
CONTINUOUS
 62
    5
 10
60
 20
960
 11
1425
 21
960
  0
LINE
  8
_0-9_枠極太
  6
CONTINUOUS
 62
    5
 10
1425
 20
960
 11
1425
 21
60
  0
LINE
  8
_0-9_枠極太
  6
CONTINUOUS
 62
    5
 10
1425
 20
60
 11
60
 21
60
  0
LINE
  8
_0-7_枠細線
  6
CONTINUOUS
 62
    5
 10
915
 20
838.94233397174685
 11
907.5
 21
853.94233397174685
  0
LINE
  8
_0-7_枠細線
  6
CONTINUOUS
 62
    5
 10
900
 20
838.94233397174685
 11
915
 21
838.94233397174685
  0
LINE
  8
_0-7_枠細線
  6
CONTINUOUS
 62
    5
 10
907.5
 20
853.94233397174685
 11
900
 21
838.94233397174685
  0
LINE
  8
_0-7_枠細線
  6
CONTINUOUS
 62
    5
 10
1425
 20
837.5
 11
890
 21
837.5
  0
TEXT
  8
_0-7_枠細線
 62
    5
 10
1180
 20
840
 40
12.5
 41
0.7199999999999999
 50
0
  1
２０１９．０９．０１
  0
TEXT
  8
_0-7_枠細線
 62
    5
 10
902.36515126814822
 20
837.99351400689704
 40
12.5
 41
0.8
 50
0
  1
５
  0
TEXT
  8
_0-7_枠細線
 62
    5
 10
938.85037037037023
 20
840
 40
12.5
 41
1
 50
0
  1
アンカー材質･厚み変更
  0
TEXT
  8
_0-7_枠細線
 62
    5
 10
960.5
 20
158.74999999999994
 40
20.000000000000007
 41
0.5999999999999998
 50
0
  1
セーフティグレーチングＨ２５タイプ
  0
TEXT
  8
_0-7_枠細線
 62
    5
 10
960.5
 20
109.99999999999993
 40
20.000000000000007
 41
0.5999999999999998
 50
0
  1
ＧＲＳ－２５Ｋ３５０
  0
LINE
  8
_0-7_枠細線
  6
CONTINUOUS
 62
    5
 10
924.99999999999989
 20
323.73000000000059
 11
1225.0000000000005
 21
323.73000000000059
  0
LINE
  8
_0-7_枠細線
  6
CONTINUOUS
 62
    5
 10
924.99999999999989
 20
348.73000000000047
 11
1225.0000000000005
 21
348.73000000000047
  0
LINE
  8
_0-7_枠細線
  6
CONTINUOUS
 62
    5
 10
924.99999999999989
 20
373.73000000000047
 11
1225.0000000000005
 21
373.73000000000047
  0
LINE
  8
_0-7_枠細線
  6
CONTINUOUS
 62
    5
 10
924.99999999999989
 20
398.73000000000076
 11
1225.0000000000005
 21
398.73000000000076
  0
TEXT
  8
_0-7_枠細線
 62
    5
 10
1048.0000000000005
 20
403.73000000000076
 40
15.000000000000002
 41
0.5999999999999999
 50
0
  1
ライトグレー
  0
LINE
  8
_0-7_枠細線
  6
CONTINUOUS
 62
    5
 10
924.99999999999989
 20
423.73000000000047
 11
1225.0000000000005
 21
423.73000000000047
  0
TEXT
  8
_0-7_枠細線
 62
    5
 10
1057.0000000000005
 20
428.73000000000047
 40
15.000000000000002
 41
0.5999999999999999
 50
0
  1
ベージュ
  0
LINE
  8
_0-7_枠細線
  6
CONTINUOUS
 62
    5
 10
924.99999999999989
 20
448.73000000000047
 11
1225.0000000000005
 21
448.73000000000047
  0
TEXT
  8
_0-7_枠細線
 62
    5
 10
1069.0000000000005
 20
453.73000000000047
 40
15.000000000000002
 41
0.8
 50
0
  1
色
  0
TEXT
  8
_0-7_枠細線
 62
    5
 10
951.00000000000045
 20
453.73000000000047
 40
15.000000000000002
 41
0.8
 50
0
  1
品　　番
  0
TEXT
  8
_0-7_枠細線
 62
    5
 10
1151.0000000000009
 20
453.73000000000047
 40
15.000000000000002
 41
0.8
 50
0
  1
備　　考
  0
LINE
  8
_0-7_枠細線
  6
CONTINUOUS
 62
    5
 10
924.99999999999989
 20
473.73000000000047
 11
1225.0000000000005
 21
473.73000000000047
  0
TEXT
  8
_0-7_枠細線
 62
    5
 10
1013.75
 20
478.73000000000047
 40
17.5
 41
1
 50
0
  1
品番表
  0
LINE
  8
_0-7_枠細線
  6
CONTINUOUS
 62
    5
 10
924.99999999999989
 20
248.73000000000033
 11
1225.0000000000005
 21
248.73000000000033
  0
LINE
  8
_0-7_枠細線
  6
CONTINUOUS
 62
    5
 10
924.99999999999989
 20
273.73000000000059
 11
1225.0000000000005
 21
273.73000000000059
  0
LINE
  8
_0-7_枠細線
  6
CONTINUOUS
 62
    5
 10
924.99999999999989
 20
298.7300000000007
 11
1225.0000000000005
 21
298.7300000000007
  0
TEXT
  8
_0-7_枠細線
 62
    5
 10
1057.0000000000009
 20
378.7300000000007
 40
15.000000000000002
 41
0.5999999999999999
 50
0
  1
ホワイト
  0
TEXT
  8
_0-7_枠細線
 62
    5
 10
1061.5000000000005
 20
353.73000000000047
 40
15.000000000000002
 41
0.5999999999999999
 50
0
  1
ピンク
  0
TEXT
  8
_0-7_枠細線
 62
    5
 10
1061.5000000000005
 20
328.73000000000047
 40
15.000000000000002
 41
0.5999999999999999
 50
0
  1
ブルー
  0
TEXT
  8
_0-7_枠細線
 62
    5
 10
1048
 20
303.73000000000059
 40
15.000000000000002
 41
0.5999999999999999
 50
0
  1
ダークグレー
  0
TEXT
  8
_0-7_枠細線
 62
    5
 10
1061.5000000000005
 20
278.7300000000007
 40
15.000000000000002
 41
0.5999999999999999
 50
0
  1
ウッド
  0
LINE
  8
_0-7_枠細線
  6
CONTINUOUS
 62
    5
 10
924.99999999999989
 20
223.73000000000002
 11
1225.0000000000005
 21
223.73000000000002
  0
TEXT
  8
_0-7_枠細線
 62
    5
 10
1057.0000000000009
 20
228.73000000000008
 40
15.000000000000002
 41
0.5999999999999999
 50
0
  1
ブラック
  0
LINE
  8
_0-7_枠細線
  6
CONTINUOUS
 62
    5
 10
1225.0000000000005
 20
473.73000000000047
 11
1225.0000000000005
 21
223.73000000000002
  0
LINE
  8
_0-7_枠細線
  6
CONTINUOUS
 62
    5
 10
1125
 20
473.73000000000047
 11
1125
 21
223.73000000000002
  0
LINE
  8
_0-7_枠細線
  6
CONTINUOUS
 62
    5
 10
1025.0000000000005
 20
473.73000000000047
 11
1025.0000000000005
 21
223.73000000000002
  0
LINE
  8
_0-7_枠細線
  6
CONTINUOUS
 62
    5
 10
924.99999999999989
 20
473.73000000000047
 11
924.99999999999989
 21
223.73000000000002
  0
TEXT
  8
_0-7_枠細線
 62
    5
 10
1057.0000000000005
 20
253.73000000000033
 40
15.000000000000002
 41
0.5999999999999999
 50
0
  1
ブラウン
  0
LINE
  8
_0-7_枠細線
  6
CONTINUOUS
 62
    5
 10
918.52762466555521
 20
254.30604122127349
 11
911.02762466555521
 21
269.30604122127352
  0
LINE
  8
_0-7_枠細線
  6
CONTINUOUS
 62
    5
 10
903.52762466555521
 20
254.30604122127349
 11
918.52762466555521
 21
254.30604122127349
  0
LINE
  8
_0-7_枠細線
  6
CONTINUOUS
 62
    5
 10
911.02762466555521
 20
269.30604122127352
 11
903.52762466555521
 21
254.30604122127349
  0
TEXT
  8
_0-7_枠細線
 62
    5
 10
905.89277593370343
 20
253.3572212564236
 40
12.5
 41
0.8
 50
0
  1
４
  0
LINE
  8
_0-7_枠細線
  6
CONTINUOUS
 62
    5
 10
1270.7300000000005
 20
393.73000000000059
 11
1270.7300000000005
 21
473.7300000000007
  0
TEXT
  8
_0-7_枠細線
 62
    5
 10
1293.2300000000007
 20
451.2300000000007
 40
15.000000000000002
 41
1
 50
0
  1
耐荷重
  0
TEXT
  8
_0-7_枠細線
 62
    5
 10
1285.7300000000007
 20
421.23000000000059
 40
15.000000000000002
 41
1
 50
0
  1
3.5kN/㎡
  0
TEXT
  8
_0-7_枠細線
 62
    5
 10
1278.2300000000005
 20
401.23000000000059
 40
15.000000000000002
 41
1
 50
0
  1
（歩道用）
  0
LINE
  8
_0-7_枠細線
  6
CONTINUOUS
 62
    5
 10
1360.7300000000007
 20
393.73000000000059
 11
1360.7300000000007
 21
473.7300000000007
  0
LINE
  8
_0-7_枠細線
  6
CONTINUOUS
 62
    5
 10
1270.7300000000005
 20
393.73000000000059
 11
1360.7300000000007
 21
393.73000000000059
  0
LINE
  8
_0-7_枠細線
  6
CONTINUOUS
 62
    5
 10
1270.7300000000005
 20
443.7300000000007
 11
1360.7300000000007
 21
443.7300000000007
  0
LINE
  8
_0-7_枠細線
  6
CONTINUOUS
 62
    5
 10
1270.7300000000005
 20
473.7300000000007
 11
1360.7300000000007
 21
473.7300000000007
  0
LINE
  8
_0-1_計細線
  6
CONTINUOUS
 62
    3
 10
630.65569731883693
 20
733.58920897572625
 11
276.65569731883647
 21
733.58920897572625
  0
LINE
  8
_0-1_計細線
  6
CONTINUOUS
 62
    3
 10
276.65569731883647
 20
379.58920897572466
 11
630.65569731883693
 21
379.58920897572466
  0
LINE
  8
_0-1_計細線
  6
CONTINUOUS
 62
    3
 10
630.65569731883693
 20
379.58920897572466
 11
630.65569731883693
 21
733.58920897572625
  0
LINE
  8
_0-1_計細線
  6
CONTINUOUS
 62
    3
 10
276.65569731883647
 20
733.58920897572625
 11
276.65569731883647
 21
379.58920897572466
  0
LINE
  8
_0-1_計細線
  6
CONTINUOUS
 62
    3
 10
273.65569731883653
 20
376.58920897572466
 11
273.65569731883653
 21
736.58920897572625
  0
LINE
  8
_0-1_計細線
  6
CONTINUOUS
 62
    3
 10
273.65569731883653
 20
736.58920897572625
 11
633.65569731883693
 21
736.58920897572625
  0
LINE
  8
_0-1_計細線
  6
CONTINUOUS
 62
    3
 10
633.65569731883693
 20
736.58920897572625
 11
633.65569731883693
 21
376.58920897572466
  0
LINE
  8
_0-1_計細線
  6
CONTINUOUS
 62
    3
 10
633.65569731883693
 20
376.58920897572466
 11
273.65569731883653
 21
376.58920897572466
  0
LINE
  8
_0-0_計極細
  6
CONTINUOUS
 62
    2
 10
376.15569731883647
 20
550.88920897572098
 11
376.15569731883647
 21
545.28920897572107
  0
LINE
  8
_0-0_計極細
  6
CONTINUOUS
 62
    2
 10
389.15569731883647
 20
550.88920897572098
 11
389.15569731883647
 21
545.28920897572107
  0
LINE
  8
_0-0_計極細
  6
CONTINUOUS
 62
    2
 10
376.15569731883647
 20
584.88920897572234
 11
376.15569731883647
 21
579.28920897572243
  0
LINE
  8
_0-0_計極細
  6
CONTINUOUS
 62
    2
 10
389.15569731883647
 20
584.88920897572234
 11
389.15569731883647
 21
579.28920897572243
  0
LINE
  8
_0-0_計極細
  6
CONTINUOUS
 62
    2
 10
376.15569731883647
 20
601.88920897572325
 11
376.15569731883647
 21
596.28920897572289
  0
LINE
  8
_0-0_計極細
  6
CONTINUOUS
 62
    2
 10
389.15569731883647
 20
601.88920897572325
 11
389.15569731883647
 21
596.28920897572289
  0
LINE
  8
_0-0_計極細
  6
CONTINUOUS
 62
    2
 10
376.15569731883647
 20
618.8892089757237
 11
376.15569731883647
 21
613.2892089757238
  0
LINE
  8
_0-0_計極細
  6
CONTINUOUS
 62
    2
 10
389.15569731883647
 20
618.8892089757237
 11
389.15569731883647
 21
613.2892089757238
  0
LINE
  8
_0-0_計極細
  6
CONTINUOUS
 62
    2
 10
376.15569731883647
 20
635.8892089757228
 11
376.15569731883647
 21
630.28920897572289
  0
LINE
  8
_0-0_計極細
  6
CONTINUOUS
 62
    2
 10
389.15569731883647
 20
635.8892089757228
 11
389.15569731883647
 21
630.28920897572289
  0
LINE
  8
_0-0_計極細
  6
CONTINUOUS
 62
    2
 10
376.15569731883647
 20
652.889208975722
 11
376.15569731883647
 21
647.28920897572198
  0
LINE
  8
_0-0_計極細
  6
CONTINUOUS
 62
    2
 10
389.15569731883647
 20
652.889208975722
 11
389.15569731883647
 21
647.28920897572198
  0
LINE
  8
_0-0_計極細
  6
CONTINUOUS
 62
    2
 10
376.15569731883647
 20
669.88920897572098
 11
376.15569731883647
 21
664.28920897572107
  0
LINE
  8
_0-0_計極細
  6
CONTINUOUS
 62
    2
 10
389.15569731883647
 20
669.88920897572098
 11
389.15569731883647
 21
664.28920897572107
  0
LINE
  8
_0-0_計極細
  6
CONTINUOUS
 62
    2
 10
376.15569731883647
 20
686.88920897572007
 11
376.15569731883647
 21
681.28920897572016
  0
LINE
  8
_0-0_計極細
  6
CONTINUOUS
 62
    2
 10
389.15569731883647
 20
686.88920897572007
 11
389.15569731883647
 21
681.28920897572016
  0
LINE
  8
_0-0_計極細
  6
CONTINUOUS
 62
    2
 10
376.15569731883647
 20
703.58920897572307
 11
376.15569731883647
 21
698.28920897572334
  0
LINE
  8
_0-0_計極細
  6
CONTINUOUS
 62
    2
 10
389.15569731883647
 20
703.58920897572307
 11
389.15569731883647
 21
698.28920897572334
  0
LINE
  8
_0-0_計極細
  6
CONTINUOUS
 62
    2
 10
376.15569731883647
 20
720.18920897572218
 11
376.15569731883647
 21
714.98920897572236
  0
LINE
  8
_0-0_計極細
  6
CONTINUOUS
 62
    2
 10
389.15569731883647
 20
720.18920897572218
 11
389.15569731883647
 21
714.98920897572236
  0
LINE
  8
_0-0_計極細
  6
CONTINUOUS
 62
    2
 10
376.15569731883647
 20
528.28920897572016
 11
376.15569731883647
 21
533.88920897572007
  0
LINE
  8
_0-0_計極細
  6
CONTINUOUS
 62
    2
 10
389.15569731883647
 20
528.28920897572016
 11
389.15569731883647
 21
533.88920897572007
  0
LINE
  8
_0-0_計極細
  6
CONTINUOUS
 62
    2
 10
376.15569731883647
 20
511.2892089757193
 11
376.15569731883647
 21
516.88920897571961
  0
LINE
  8
_0-0_計極細
  6
CONTINUOUS
 62
    2
 10
389.15569731883647
 20
511.2892089757193
 11
389.15569731883647
 21
516.88920897571961
  0
LINE
  8
_0-0_計極細
  6
CONTINUOUS
 62
    2
 10
376.15569731883647
 20
494.28920897571885
 11
376.15569731883647
 21
499.8892089757187
  0
LINE
  8
_0-0_計極細
  6
CONTINUOUS
 62
    2
 10
389.15569731883647
 20
494.28920897571885
 11
389.15569731883647
 21
499.8892089757187
  0
LINE
  8
_0-0_計極細
  6
CONTINUOUS
 62
    2
 10
376.15569731883647
 20
477.28920897571976
 11
376.15569731883647
 21
482.88920897571961
  0
LINE
  8
_0-0_計極細
  6
CONTINUOUS
 62
    2
 10
389.15569731883647
 20
477.28920897571976
 11
389.15569731883647
 21
482.88920897571961
  0
LINE
  8
_0-0_計極細
  6
CONTINUOUS
 62
    2
 10
376.15569731883647
 20
460.28920897572061
 11
376.15569731883647
 21
465.88920897572052
  0
LINE
  8
_0-0_計極細
  6
CONTINUOUS
 62
    2
 10
389.15569731883647
 20
460.28920897572061
 11
389.15569731883647
 21
465.88920897572052
  0
LINE
  8
_0-0_計極細
  6
CONTINUOUS
 62
    2
 10
376.15569731883647
 20
443.28920897572152
 11
376.15569731883647
 21
448.88920897572149
  0
LINE
  8
_0-0_計極細
  6
CONTINUOUS
 62
    2
 10
389.15569731883647
 20
443.28920897572152
 11
389.15569731883647
 21
448.88920897572149
  0
LINE
  8
_0-0_計極細
  6
CONTINUOUS
 62
    2
 10
376.15569731883647
 20
426.28920897572243
 11
376.15569731883647
 21
431.8892089757224
  0
LINE
  8
_0-0_計極細
  6
CONTINUOUS
 62
    2
 10
389.15569731883647
 20
426.28920897572243
 11
389.15569731883647
 21
431.8892089757224
  0
LINE
  8
_0-0_計極細
  6
CONTINUOUS
 62
    2
 10
376.15569731883647
 20
409.58920897571943
 11
376.15569731883647
 21
414.88920897571916
  0
LINE
  8
_0-0_計極細
  6
CONTINUOUS
 62
    2
 10
389.15569731883647
 20
409.58920897571943
 11
389.15569731883647
 21
414.88920897571916
  0
LINE
  8
_0-0_計極細
  6
CONTINUOUS
 62
    2
 10
376.15569731883647
 20
392.98920897572043
 11
376.15569731883647
 21
398.18920897572025
  0
LINE
  8
_0-0_計極細
  6
CONTINUOUS
 62
    2
 10
389.15569731883647
 20
392.98920897572043
 11
389.15569731883647
 21
398.18920897572025
  0
LINE
  8
_0-0_計極細
  6
CENTER1
 62
    2
 10
382.65569731883653
 20
740.339928400188
 11
382.65569731883653
 21
374.03138523470898
  0
LINE
  8
_0-0_計極細
  6
CONTINUOUS
 62
    2
 10
376.15569731883647
 20
567.88920897572189
 11
376.15569731883647
 21
567.43920897572161
  0
LINE
  8
_0-0_計極細
  6
CONTINUOUS
 62
    2
 10
376.15569731883647
 20
562.73920897572179
 11
376.15569731883647
 21
562.28920897572152
  0
LINE
  8
_0-0_計極細
  6
CONTINUOUS
 62
    2
 10
389.15569731883647
 20
567.88920897572189
 11
389.15569731883647
 21
567.43920897572161
  0
LINE
  8
_0-0_計極細
  6
CONTINUOUS
 62
    2
 10
389.15569731883647
 20
562.73920897572179
 11
389.15569731883647
 21
562.28920897572152
  0
LINE
  8
_0-0_計極細
  6
CONTINUOUS
 62
    2
 10
473.15569731883647
 20
550.88920897572098
 11
473.15569731883647
 21
545.28920897572107
  0
LINE
  8
_0-0_計極細
  6
CONTINUOUS
 62
    2
 10
486.15569731883653
 20
550.88920897572098
 11
486.15569731883653
 21
545.28920897572107
  0
LINE
  8
_0-0_計極細
  6
CONTINUOUS
 62
    2
 10
473.15569731883647
 20
567.88920897572189
 11
473.15569731883647
 21
562.28920897572152
  0
LINE
  8
_0-0_計極細
  6
CONTINUOUS
 62
    2
 10
486.15569731883653
 20
567.88920897572189
 11
486.15569731883653
 21
562.28920897572152
  0
LINE
  8
_0-0_計極細
  6
CONTINUOUS
 62
    2
 10
473.15569731883647
 20
584.88920897572234
 11
473.15569731883647
 21
579.28920897572243
  0
LINE
  8
_0-0_計極細
  6
CONTINUOUS
 62
    2
 10
486.15569731883653
 20
584.88920897572234
 11
486.15569731883653
 21
579.28920897572243
  0
LINE
  8
_0-0_計極細
  6
CONTINUOUS
 62
    2
 10
473.15569731883647
 20
601.88920897572325
 11
473.15569731883647
 21
596.28920897572289
  0
LINE
  8
_0-0_計極細
  6
CONTINUOUS
 62
    2
 10
486.15569731883653
 20
601.88920897572325
 11
486.15569731883653
 21
596.28920897572289
  0
LINE
  8
_0-0_計極細
  6
CONTINUOUS
 62
    2
 10
473.15569731883647
 20
618.8892089757237
 11
473.15569731883647
 21
613.2892089757238
  0
LINE
  8
_0-0_計極細
  6
CONTINUOUS
 62
    2
 10
486.15569731883653
 20
618.8892089757237
 11
486.15569731883653
 21
613.2892089757238
  0
LINE
  8
_0-0_計極細
  6
CONTINUOUS
 62
    2
 10
473.15569731883647
 20
635.8892089757228
 11
473.15569731883647
 21
630.28920897572289
  0
LINE
  8
_0-0_計極細
  6
CONTINUOUS
 62
    2
 10
486.15569731883653
 20
635.8892089757228
 11
486.15569731883653
 21
630.28920897572289
  0
LINE
  8
_0-0_計極細
  6
CONTINUOUS
 62
    2
 10
473.15569731883647
 20
652.889208975722
 11
473.15569731883647
 21
647.28920897572198
  0
LINE
  8
_0-0_計極細
  6
CONTINUOUS
 62
    2
 10
486.15569731883653
 20
652.889208975722
 11
486.15569731883653
 21
647.28920897572198
  0
LINE
  8
_0-0_計極細
  6
CONTINUOUS
 62
    2
 10
473.15569731883647
 20
669.88920897572098
 11
473.15569731883647
 21
664.28920897572107
  0
LINE
  8
_0-0_計極細
  6
CONTINUOUS
 62
    2
 10
486.15569731883653
 20
669.88920897572098
 11
486.15569731883653
 21
664.28920897572107
  0
LINE
  8
_0-0_計極細
  6
CONTINUOUS
 62
    2
 10
473.15569731883647
 20
686.88920897572007
 11
473.15569731883647
 21
681.28920897572016
  0
LINE
  8
_0-0_計極細
  6
CONTINUOUS
 62
    2
 10
486.15569731883653
 20
686.88920897572007
 11
486.15569731883653
 21
681.28920897572016
  0
LINE
  8
_0-0_計極細
  6
CONTINUOUS
 62
    2
 10
473.15569731883647
 20
703.58920897572307
 11
473.15569731883647
 21
698.28920897572334
  0
LINE
  8
_0-0_計極細
  6
CONTINUOUS
 62
    2
 10
486.15569731883653
 20
703.58920897572307
 11
486.15569731883653
 21
698.28920897572334
  0
LINE
  8
_0-0_計極細
  6
CONTINUOUS
 62
    2
 10
473.15569731883647
 20
720.18920897572218
 11
473.15569731883647
 21
714.98920897572236
  0
LINE
  8
_0-0_計極細
  6
CONTINUOUS
 62
    2
 10
486.15569731883653
 20
720.18920897572218
 11
486.15569731883653
 21
714.98920897572236
  0
LINE
  8
_0-0_計極細
  6
CONTINUOUS
 62
    2
 10
473.15569731883647
 20
528.28920897572016
 11
473.15569731883647
 21
533.88920897572007
  0
LINE
  8
_0-0_計極細
  6
CONTINUOUS
 62
    2
 10
486.15569731883653
 20
528.28920897572016
 11
486.15569731883653
 21
533.88920897572007
  0
LINE
  8
_0-0_計極細
  6
CONTINUOUS
 62
    2
 10
473.15569731883647
 20
511.2892089757193
 11
473.15569731883647
 21
516.88920897571961
  0
LINE
  8
_0-0_計極細
  6
CONTINUOUS
 62
    2
 10
486.15569731883653
 20
511.2892089757193
 11
486.15569731883653
 21
516.88920897571961
  0
LINE
  8
_0-0_計極細
  6
CONTINUOUS
 62
    2
 10
473.15569731883647
 20
494.28920897571885
 11
473.15569731883647
 21
499.8892089757187
  0
LINE
  8
_0-0_計極細
  6
CONTINUOUS
 62
    2
 10
486.15569731883653
 20
494.28920897571885
 11
486.15569731883653
 21
499.8892089757187
  0
LINE
  8
_0-0_計極細
  6
CONTINUOUS
 62
    2
 10
473.15569731883647
 20
477.28920897571976
 11
473.15569731883647
 21
482.88920897571961
  0
LINE
  8
_0-0_計極細
  6
CONTINUOUS
 62
    2
 10
486.15569731883653
 20
477.28920897571976
 11
486.15569731883653
 21
482.88920897571961
  0
LINE
  8
_0-0_計極細
  6
CONTINUOUS
 62
    2
 10
473.15569731883647
 20
460.28920897572061
 11
473.15569731883647
 21
465.88920897572052
  0
LINE
  8
_0-0_計極細
  6
CONTINUOUS
 62
    2
 10
486.15569731883653
 20
460.28920897572061
 11
486.15569731883653
 21
465.88920897572052
  0
LINE
  8
_0-0_計極細
  6
CONTINUOUS
 62
    2
 10
473.15569731883647
 20
443.28920897572152
 11
473.15569731883647
 21
448.88920897572149
  0
LINE
  8
_0-0_計極細
  6
CONTINUOUS
 62
    2
 10
486.15569731883653
 20
443.28920897572152
 11
486.15569731883653
 21
448.88920897572149
  0
LINE
  8
_0-0_計極細
  6
CONTINUOUS
 62
    2
 10
473.15569731883647
 20
426.28920897572243
 11
473.15569731883647
 21
431.8892089757224
  0
LINE
  8
_0-0_計極細
  6
CONTINUOUS
 62
    2
 10
486.15569731883653
 20
426.28920897572243
 11
486.15569731883653
 21
431.8892089757224
  0
LINE
  8
_0-0_計極細
  6
CONTINUOUS
 62
    2
 10
473.15569731883647
 20
409.58920897571943
 11
473.15569731883647
 21
414.88920897571916
  0
LINE
  8
_0-0_計極細
  6
CONTINUOUS
 62
    2
 10
486.15569731883653
 20
409.58920897571943
 11
486.15569731883653
 21
414.88920897571916
  0
LINE
  8
_0-0_計極細
  6
CONTINUOUS
 62
    2
 10
473.15569731883647
 20
392.98920897572043
 11
473.15569731883647
 21
398.18920897572025
  0
LINE
  8
_0-0_計極細
  6
CONTINUOUS
 62
    2
 10
486.15569731883653
 20
392.98920897572043
 11
486.15569731883653
 21
398.18920897572025
  0
LINE
  8
_0-0_計極細
  6
CENTER1
 62
    2
 10
479.65569731883647
 20
740.339928400188
 11
479.65569731883647
 21
374.03138523470898
  0
LINE
  8
_0-0_計極細
  6
CONTINUOUS
 62
    2
 10
518.15569731883647
 20
550.88920897572098
 11
518.15569731883647
 21
545.28920897572107
  0
LINE
  8
_0-0_計極細
  6
CONTINUOUS
 62
    2
 10
531.15569731883647
 20
550.88920897572098
 11
531.15569731883647
 21
545.28920897572107
  0
LINE
  8
_0-0_計極細
  6
CONTINUOUS
 62
    2
 10
518.15569731883647
 20
567.88920897572189
 11
518.15569731883647
 21
562.28920897572152
  0
LINE
  8
_0-0_計極細
  6
CONTINUOUS
 62
    2
 10
531.15569731883647
 20
567.88920897572189
 11
531.15569731883647
 21
562.28920897572152
  0
LINE
  8
_0-0_計極細
  6
CONTINUOUS
 62
    2
 10
518.15569731883647
 20
584.88920897572234
 11
518.15569731883647
 21
579.28920897572243
  0
LINE
  8
_0-0_計極細
  6
CONTINUOUS
 62
    2
 10
531.15569731883647
 20
584.88920897572234
 11
531.15569731883647
 21
579.28920897572243
  0
LINE
  8
_0-0_計極細
  6
CONTINUOUS
 62
    2
 10
518.15569731883647
 20
601.88920897572325
 11
518.15569731883647
 21
596.28920897572289
  0
LINE
  8
_0-0_計極細
  6
CONTINUOUS
 62
    2
 10
531.15569731883647
 20
601.88920897572325
 11
531.15569731883647
 21
596.28920897572289
  0
LINE
  8
_0-0_計極細
  6
CONTINUOUS
 62
    2
 10
518.15569731883647
 20
618.8892089757237
 11
518.15569731883647
 21
613.2892089757238
  0
LINE
  8
_0-0_計極細
  6
CONTINUOUS
 62
    2
 10
531.15569731883647
 20
618.8892089757237
 11
531.15569731883647
 21
613.2892089757238
  0
LINE
  8
_0-0_計極細
  6
CONTINUOUS
 62
    2
 10
518.15569731883647
 20
635.8892089757228
 11
518.15569731883647
 21
630.28920897572289
  0
LINE
  8
_0-0_計極細
  6
CONTINUOUS
 62
    2
 10
531.15569731883647
 20
635.8892089757228
 11
531.15569731883647
 21
630.28920897572289
  0
LINE
  8
_0-0_計極細
  6
CONTINUOUS
 62
    2
 10
518.15569731883647
 20
652.889208975722
 11
518.15569731883647
 21
647.28920897572198
  0
LINE
  8
_0-0_計極細
  6
CONTINUOUS
 62
    2
 10
531.15569731883647
 20
652.889208975722
 11
531.15569731883647
 21
647.28920897572198
  0
LINE
  8
_0-0_計極細
  6
CONTINUOUS
 62
    2
 10
518.15569731883647
 20
669.88920897572098
 11
518.15569731883647
 21
664.28920897572107
  0
LINE
  8
_0-0_計極細
  6
CONTINUOUS
 62
    2
 10
531.15569731883647
 20
669.88920897572098
 11
531.15569731883647
 21
664.28920897572107
  0
LINE
  8
_0-0_計極細
  6
CONTINUOUS
 62
    2
 10
518.15569731883647
 20
686.88920897572007
 11
518.15569731883647
 21
681.28920897572016
  0
LINE
  8
_0-0_計極細
  6
CONTINUOUS
 62
    2
 10
531.15569731883647
 20
686.88920897572007
 11
531.15569731883647
 21
681.28920897572016
  0
LINE
  8
_0-0_計極細
  6
CONTINUOUS
 62
    2
 10
518.15569731883647
 20
703.58920897572307
 11
518.15569731883647
 21
698.28920897572334
  0
LINE
  8
_0-0_計極細
  6
CONTINUOUS
 62
    2
 10
531.15569731883647
 20
703.58920897572307
 11
531.15569731883647
 21
698.28920897572334
  0
LINE
  8
_0-0_計極細
  6
CONTINUOUS
 62
    2
 10
518.15569731883647
 20
720.18920897572218
 11
518.15569731883647
 21
714.98920897572236
  0
LINE
  8
_0-0_計極細
  6
CONTINUOUS
 62
    2
 10
531.15569731883647
 20
720.18920897572218
 11
531.15569731883647
 21
714.98920897572236
  0
LINE
  8
_0-0_計極細
  6
CONTINUOUS
 62
    2
 10
518.15569731883647
 20
528.28920897572016
 11
518.15569731883647
 21
533.88920897572007
  0
LINE
  8
_0-0_計極細
  6
CONTINUOUS
 62
    2
 10
531.15569731883647
 20
528.28920897572016
 11
531.15569731883647
 21
533.88920897572007
  0
LINE
  8
_0-0_計極細
  6
CONTINUOUS
 62
    2
 10
518.15569731883647
 20
511.2892089757193
 11
518.15569731883647
 21
516.88920897571961
  0
LINE
  8
_0-0_計極細
  6
CONTINUOUS
 62
    2
 10
531.15569731883647
 20
511.2892089757193
 11
531.15569731883647
 21
516.88920897571961
  0
LINE
  8
_0-0_計極細
  6
CONTINUOUS
 62
    2
 10
518.15569731883647
 20
494.28920897571885
 11
518.15569731883647
 21
499.8892089757187
  0
LINE
  8
_0-0_計極細
  6
CONTINUOUS
 62
    2
 10
531.15569731883647
 20
494.28920897571885
 11
531.15569731883647
 21
499.8892089757187
  0
LINE
  8
_0-0_計極細
  6
CONTINUOUS
 62
    2
 10
518.15569731883647
 20
477.28920897571976
 11
518.15569731883647
 21
482.88920897571961
  0
LINE
  8
_0-0_計極細
  6
CONTINUOUS
 62
    2
 10
531.15569731883647
 20
477.28920897571976
 11
531.15569731883647
 21
482.88920897571961
  0
LINE
  8
_0-0_計極細
  6
CONTINUOUS
 62
    2
 10
518.15569731883647
 20
460.28920897572061
 11
518.15569731883647
 21
465.88920897572052
  0
LINE
  8
_0-0_計極細
  6
CONTINUOUS
 62
    2
 10
531.15569731883647
 20
460.28920897572061
 11
531.15569731883647
 21
465.88920897572052
  0
LINE
  8
_0-0_計極細
  6
CONTINUOUS
 62
    2
 10
518.15569731883647
 20
443.28920897572152
 11
518.15569731883647
 21
448.88920897572149
  0
LINE
  8
_0-0_計極細
  6
CONTINUOUS
 62
    2
 10
531.15569731883647
 20
443.28920897572152
 11
531.15569731883647
 21
448.88920897572149
  0
LINE
  8
_0-0_計極細
  6
CONTINUOUS
 62
    2
 10
518.15569731883647
 20
426.28920897572243
 11
518.15569731883647
 21
431.8892089757224
  0
LINE
  8
_0-0_計極細
  6
CONTINUOUS
 62
    2
 10
531.15569731883647
 20
426.28920897572243
 11
531.15569731883647
 21
431.8892089757224
  0
LINE
  8
_0-0_計極細
  6
CONTINUOUS
 62
    2
 10
518.15569731883647
 20
409.58920897571943
 11
518.15569731883647
 21
414.88920897571916
  0
LINE
  8
_0-0_計極細
  6
CONTINUOUS
 62
    2
 10
531.15569731883647
 20
409.58920897571943
 11
531.15569731883647
 21
414.88920897571916
  0
LINE
  8
_0-0_計極細
  6
CONTINUOUS
 62
    2
 10
518.15569731883647
 20
392.98920897572043
 11
518.15569731883647
 21
398.18920897572025
  0
LINE
  8
_0-0_計極細
  6
CONTINUOUS
 62
    2
 10
531.15569731883647
 20
392.98920897572043
 11
531.15569731883647
 21
398.18920897572025
  0
LINE
  8
_0-0_計極細
  6
CENTER1
 62
    2
 10
524.65569731883647
 20
740.339928400188
 11
524.65569731883647
 21
374.03138523470898
  0
LINE
  8
_0-1_計細線
  6
CONTINUOUS
 62
    3
 10
278.65569731883653
 20
533.88920897572507
 11
628.65569731883647
 21
533.88920897572507
  0
LINE
  8
_0-1_計細線
  6
CONTINUOUS
 62
    3
 10
278.65569731883653
 20
545.28920897572561
 11
628.65569731883647
 21
545.28920897572561
  0
LINE
  8
_0-1_計細線
  6
CONTINUOUS
 62
    3
 10
278.65569731883653
 20
533.88920897572507
 11
278.65569731883653
 21
545.28920897572561
  0
LINE
  8
_0-1_計細線
  6
CONTINUOUS
 62
    3
 10
628.65569731883647
 20
533.88920897572507
 11
628.65569731883647
 21
545.28920897572561
  0
LINE
  8
_0-0_計極細
  6
CONTINUOUS
 62
    2
 10
278.65569731883653
 20
542.08920897572534
 11
628.65569731883647
 21
542.08920897572534
  0
LINE
  8
_0-0_計極細
  6
CONTINUOUS
 62
    2
 10
278.65569731883653
 20
537.08920897572534
 11
628.65569731883647
 21
537.08920897572534
  0
LINE
  8
_0-1_計細線
  6
CONTINUOUS
 62
    3
 10
278.65569731883653
 20
630.28920897572289
 11
628.65569731883647
 21
630.28920897572289
  0
LINE
  8
_0-1_計細線
  6
CONTINUOUS
 62
    3
 10
278.65569731883653
 20
618.88920897572234
 11
628.65569731883647
 21
618.88920897572234
  0
LINE
  8
_0-1_計細線
  6
CONTINUOUS
 62
    3
 10
278.65569731883653
 20
630.28920897572289
 11
278.65569731883653
 21
618.88920897572234
  0
LINE
  8
_0-1_計細線
  6
CONTINUOUS
 62
    3
 10
628.65569731883647
 20
630.28920897572289
 11
628.65569731883647
 21
618.88920897572234
  0
LINE
  8
_0-0_計極細
  6
CONTINUOUS
 62
    2
 10
278.65569731883653
 20
622.08920897572261
 11
628.65569731883647
 21
622.08920897572261
  0
LINE
  8
_0-0_計極細
  6
CONTINUOUS
 62
    2
 10
278.65569731883653
 20
627.08920897572261
 11
628.65569731883647
 21
627.08920897572261
  0
LINE
  8
_0-1_計細線
  6
CONTINUOUS
 62
    3
 10
278.65569731883653
 20
596.28920897572289
 11
628.65569731883647
 21
596.28920897572289
  0
LINE
  8
_0-1_計細線
  6
CONTINUOUS
 62
    3
 10
278.65569731883653
 20
584.88920897572234
 11
628.65569731883647
 21
584.88920897572234
  0
LINE
  8
_0-1_計細線
  6
CONTINUOUS
 62
    3
 10
278.65569731883653
 20
596.28920897572289
 11
278.65569731883653
 21
584.88920897572234
  0
LINE
  8
_0-1_計細線
  6
CONTINUOUS
 62
    3
 10
628.65569731883647
 20
596.28920897572289
 11
628.65569731883647
 21
584.88920897572234
  0
LINE
  8
_0-0_計極細
  6
CONTINUOUS
 62
    2
 10
278.65569731883653
 20
588.08920897572261
 11
628.65569731883647
 21
588.08920897572261
  0
LINE
  8
_0-0_計極細
  6
CONTINUOUS
 62
    2
 10
278.65569731883653
 20
593.08920897572261
 11
628.65569731883647
 21
593.08920897572261
  0
LINE
  8
_0-1_計細線
  6
CONTINUOUS
 62
    3
 10
278.65569731883653
 20
613.2892089757238
 11
628.65569731883647
 21
613.2892089757238
  0
LINE
  8
_0-1_計細線
  6
CONTINUOUS
 62
    3
 10
278.65569731883653
 20
601.88920897572325
 11
628.65569731883647
 21
601.88920897572325
  0
LINE
  8
_0-1_計細線
  6
CONTINUOUS
 62
    3
 10
278.65569731883653
 20
613.2892089757238
 11
278.65569731883653
 21
601.88920897572325
  0
LINE
  8
_0-1_計細線
  6
CONTINUOUS
 62
    3
 10
628.65569731883647
 20
613.2892089757238
 11
628.65569731883647
 21
601.88920897572325
  0
LINE
  8
_0-0_計極細
  6
CONTINUOUS
 62
    2
 10
278.65569731883653
 20
605.08920897572352
 11
628.65569731883647
 21
605.08920897572352
  0
LINE
  8
_0-0_計極細
  6
CONTINUOUS
 62
    2
 10
278.65569731883653
 20
610.08920897572352
 11
628.65569731883647
 21
610.08920897572352
  0
LINE
  8
_0-1_計細線
  6
CONTINUOUS
 62
    3
 10
278.65569731883653
 20
698.28920897572334
 11
628.65569731883647
 21
698.28920897572334
  0
LINE
  8
_0-1_計細線
  6
CONTINUOUS
 62
    3
 10
278.65569731883653
 20
686.88920897572291
 11
628.65569731883647
 21
686.88920897572291
  0
LINE
  8
_0-1_計細線
  6
CONTINUOUS
 62
    3
 10
278.65569731883653
 20
698.28920897572334
 11
278.65569731883653
 21
686.88920897572291
  0
LINE
  8
_0-1_計細線
  6
CONTINUOUS
 62
    3
 10
628.65569731883647
 20
698.28920897572334
 11
628.65569731883647
 21
686.88920897572291
  0
LINE
  8
_0-0_計極細
  6
CONTINUOUS
 62
    2
 10
278.65569731883653
 20
690.08920897572352
 11
628.65569731883647
 21
690.08920897572352
  0
LINE
  8
_0-0_計極細
  6
CONTINUOUS
 62
    2
 10
278.65569731883653
 20
695.08920897572352
 11
628.65569731883647
 21
695.08920897572352
  0
LINE
  8
_0-1_計細線
  6
CONTINUOUS
 62
    3
 10
278.65569731883653
 20
647.28920897572198
 11
628.65569731883647
 21
647.28920897572198
  0
LINE
  8
_0-1_計細線
  6
CONTINUOUS
 62
    3
 10
278.65569731883653
 20
635.88920897572143
 11
628.65569731883647
 21
635.88920897572143
  0
LINE
  8
_0-1_計細線
  6
CONTINUOUS
 62
    3
 10
278.65569731883653
 20
647.28920897572198
 11
278.65569731883653
 21
635.88920897572143
  0
LINE
  8
_0-1_計細線
  6
CONTINUOUS
 62
    3
 10
628.65569731883647
 20
647.28920897572198
 11
628.65569731883647
 21
635.88920897572143
  0
LINE
  8
_0-0_計極細
  6
CONTINUOUS
 62
    2
 10
278.65569731883653
 20
639.0892089757217
 11
628.65569731883647
 21
639.0892089757217
  0
LINE
  8
_0-0_計極細
  6
CONTINUOUS
 62
    2
 10
278.65569731883653
 20
644.0892089757217
 11
628.65569731883647
 21
644.0892089757217
  0
LINE
  8
_0-1_計細線
  6
CONTINUOUS
 62
    3
 10
278.65569731883653
 20
664.28920897572107
 11
628.65569731883647
 21
664.28920897572107
  0
LINE
  8
_0-1_計細線
  6
CONTINUOUS
 62
    3
 10
278.65569731883653
 20
652.88920897572052
 11
628.65569731883647
 21
652.88920897572052
  0
LINE
  8
_0-1_計細線
  6
CONTINUOUS
 62
    3
 10
278.65569731883653
 20
664.28920897572107
 11
278.65569731883653
 21
652.88920897572052
  0
LINE
  8
_0-1_計細線
  6
CONTINUOUS
 62
    3
 10
628.65569731883647
 20
664.28920897572107
 11
628.65569731883647
 21
652.88920897572052
  0
LINE
  8
_0-0_計極細
  6
CONTINUOUS
 62
    2
 10
278.65569731883653
 20
656.08920897572079
 11
628.65569731883647
 21
656.08920897572079
  0
LINE
  8
_0-0_計極細
  6
CONTINUOUS
 62
    2
 10
278.65569731883653
 20
661.08920897572079
 11
628.65569731883647
 21
661.08920897572079
  0
LINE
  8
_0-1_計細線
  6
CONTINUOUS
 62
    3
 10
278.65569731883653
 20
681.28920897572016
 11
628.65569731883647
 21
681.28920897572016
  0
LINE
  8
_0-1_計細線
  6
CONTINUOUS
 62
    3
 10
278.65569731883653
 20
669.88920897571961
 11
628.65569731883647
 21
669.88920897571961
  0
LINE
  8
_0-1_計細線
  6
CONTINUOUS
 62
    3
 10
278.65569731883653
 20
681.28920897572016
 11
278.65569731883653
 21
669.88920897571961
  0
LINE
  8
_0-1_計細線
  6
CONTINUOUS
 62
    3
 10
628.65569731883647
 20
681.28920897572016
 11
628.65569731883647
 21
669.88920897571961
  0
LINE
  8
_0-0_計極細
  6
CONTINUOUS
 62
    2
 10
278.65569731883653
 20
673.08920897571988
 11
628.65569731883647
 21
673.08920897571988
  0
LINE
  8
_0-0_計極細
  6
CONTINUOUS
 62
    2
 10
278.65569731883653
 20
678.08920897571988
 11
628.65569731883647
 21
678.08920897571988
  0
LINE
  8
_0-0_計極細
  6
CENTER2
 62
    2
 10
262.76709778181726
 20
556.58920897572125
 11
644.70043111519476
 21
556.58920897572125
  0
LINE
  8
_0-1_計細線
  6
CONTINUOUS
 62
    3
 10
278.65569731883653
 20
714.98920897572236
 11
628.65569731883647
 21
714.98920897572236
  0
LINE
  8
_0-1_計細線
  6
CONTINUOUS
 62
    3
 10
278.65569731883653
 20
703.5892089757217
 11
628.65569731883647
 21
703.5892089757217
  0
LINE
  8
_0-1_計細線
  6
CONTINUOUS
 62
    3
 10
278.65569731883653
 20
714.98920897572236
 11
278.65569731883653
 21
703.5892089757217
  0
LINE
  8
_0-1_計細線
  6
CONTINUOUS
 62
    3
 10
628.65569731883647
 20
714.98920897572236
 11
628.65569731883647
 21
703.5892089757217
  0
LINE
  8
_0-0_計極細
  6
CONTINUOUS
 62
    2
 10
278.65569731883653
 20
706.78920897572198
 11
628.65569731883647
 21
706.78920897572198
  0
LINE
  8
_0-0_計極細
  6
CONTINUOUS
 62
    2
 10
278.65569731883653
 20
711.78920897572198
 11
628.65569731883647
 21
711.78920897572198
  0
LINE
  8
_0-1_計細線
  6
CONTINUOUS
 62
    3
 10
278.65569731883653
 20
731.58920897572625
 11
628.65569731883647
 21
731.58920897572625
  0
LINE
  8
_0-1_計細線
  6
CONTINUOUS
 62
    3
 10
278.65569731883653
 20
720.18920897572571
 11
628.65569731883647
 21
720.18920897572571
  0
LINE
  8
_0-1_計細線
  6
CONTINUOUS
 62
    3
 10
278.65569731883653
 20
731.58920897572625
 11
278.65569731883653
 21
720.18920897572571
  0
LINE
  8
_0-1_計細線
  6
CONTINUOUS
 62
    3
 10
628.65569731883647
 20
731.58920897572625
 11
628.65569731883647
 21
720.18920897572571
  0
LINE
  8
_0-0_計極細
  6
CONTINUOUS
 62
    2
 10
278.65569731883653
 20
723.38920897572609
 11
628.65569731883647
 21
723.38920897572609
  0
LINE
  8
_0-0_計極細
  6
CONTINUOUS
 62
    2
 10
278.65569731883653
 20
728.38920897572609
 11
628.65569731883647
 21
728.38920897572609
  0
LINE
  8
_0-1_計細線
  6
CONTINUOUS
 62
    3
 10
278.65569731883653
 20
482.88920897571961
 11
628.65569731883647
 21
482.88920897571961
  0
LINE
  8
_0-1_計細線
  6
CONTINUOUS
 62
    3
 10
278.65569731883653
 20
494.28920897572021
 11
628.65569731883647
 21
494.28920897572021
  0
LINE
  8
_0-1_計細線
  6
CONTINUOUS
 62
    3
 10
278.65569731883653
 20
482.88920897571961
 11
278.65569731883653
 21
494.28920897572021
  0
LINE
  8
_0-1_計細線
  6
CONTINUOUS
 62
    3
 10
628.65569731883647
 20
482.88920897571961
 11
628.65569731883647
 21
494.28920897572021
  0
LINE
  8
_0-0_計極細
  6
CONTINUOUS
 62
    2
 10
278.65569731883653
 20
491.08920897571988
 11
628.65569731883647
 21
491.08920897571988
  0
LINE
  8
_0-0_計極細
  6
CONTINUOUS
 62
    2
 10
278.65569731883653
 20
486.08920897571988
 11
628.65569731883647
 21
486.08920897571988
  0
LINE
  8
_0-1_計細線
  6
CONTINUOUS
 62
    3
 10
278.65569731883653
 20
516.88920897571961
 11
628.65569731883647
 21
516.88920897571961
  0
LINE
  8
_0-1_計細線
  6
CONTINUOUS
 62
    3
 10
278.65569731883653
 20
528.28920897572016
 11
628.65569731883647
 21
528.28920897572016
  0
LINE
  8
_0-1_計細線
  6
CONTINUOUS
 62
    3
 10
278.65569731883653
 20
516.88920897571961
 11
278.65569731883653
 21
528.28920897572016
  0
LINE
  8
_0-1_計細線
  6
CONTINUOUS
 62
    3
 10
628.65569731883647
 20
516.88920897571961
 11
628.65569731883647
 21
528.28920897572016
  0
LINE
  8
_0-0_計極細
  6
CONTINUOUS
 62
    2
 10
278.65569731883653
 20
525.08920897571988
 11
628.65569731883647
 21
525.08920897571988
  0
LINE
  8
_0-0_計極細
  6
CONTINUOUS
 62
    2
 10
278.65569731883653
 20
520.08920897571988
 11
628.65569731883647
 21
520.08920897571988
  0
LINE
  8
_0-1_計細線
  6
CONTINUOUS
 62
    3
 10
278.65569731883653
 20
499.8892089757187
 11
628.65569731883647
 21
499.8892089757187
  0
LINE
  8
_0-1_計細線
  6
CONTINUOUS
 62
    3
 10
278.65569731883653
 20
511.2892089757193
 11
628.65569731883647
 21
511.2892089757193
  0
LINE
  8
_0-1_計細線
  6
CONTINUOUS
 62
    3
 10
278.65569731883653
 20
499.8892089757187
 11
278.65569731883653
 21
511.2892089757193
  0
LINE
  8
_0-1_計細線
  6
CONTINUOUS
 62
    3
 10
628.65569731883647
 20
499.8892089757187
 11
628.65569731883647
 21
511.2892089757193
  0
LINE
  8
_0-0_計極細
  6
CONTINUOUS
 62
    2
 10
278.65569731883653
 20
508.08920897571903
 11
628.65569731883647
 21
508.08920897571903
  0
LINE
  8
_0-0_計極細
  6
CONTINUOUS
 62
    2
 10
278.65569731883653
 20
503.08920897571903
 11
628.65569731883647
 21
503.08920897571903
  0
LINE
  8
_0-1_計細線
  6
CONTINUOUS
 62
    3
 10
278.65569731883653
 20
414.88920897571916
 11
628.65569731883647
 21
414.88920897571916
  0
LINE
  8
_0-1_計細線
  6
CONTINUOUS
 62
    3
 10
278.65569731883653
 20
426.2892089757197
 11
628.65569731883647
 21
426.2892089757197
  0
LINE
  8
_0-1_計細線
  6
CONTINUOUS
 62
    3
 10
278.65569731883653
 20
414.88920897571916
 11
278.65569731883653
 21
426.2892089757197
  0
LINE
  8
_0-1_計細線
  6
CONTINUOUS
 62
    3
 10
628.65569731883647
 20
414.88920897571916
 11
628.65569731883647
 21
426.2892089757197
  0
LINE
  8
_0-0_計極細
  6
CONTINUOUS
 62
    2
 10
278.65569731883653
 20
423.08920897571903
 11
628.65569731883647
 21
423.08920897571903
  0
LINE
  8
_0-0_計極細
  6
CONTINUOUS
 62
    2
 10
278.65569731883653
 20
418.08920897571903
 11
628.65569731883647
 21
418.08920897571903
  0
LINE
  8
_0-1_計細線
  6
CONTINUOUS
 62
    3
 10
278.65569731883653
 20
465.88920897572052
 11
628.65569731883647
 21
465.88920897572052
  0
LINE
  8
_0-1_計細線
  6
CONTINUOUS
 62
    3
 10
278.65569731883653
 20
477.28920897572107
 11
628.65569731883647
 21
477.28920897572107
  0
LINE
  8
_0-1_計細線
  6
CONTINUOUS
 62
    3
 10
278.65569731883653
 20
465.88920897572052
 11
278.65569731883653
 21
477.28920897572107
  0
LINE
  8
_0-1_計細線
  6
CONTINUOUS
 62
    3
 10
628.65569731883647
 20
465.88920897572052
 11
628.65569731883647
 21
477.28920897572107
  0
LINE
  8
_0-0_計極細
  6
CONTINUOUS
 62
    2
 10
278.65569731883653
 20
474.08920897572079
 11
628.65569731883647
 21
474.08920897572079
  0
LINE
  8
_0-0_計極細
  6
CONTINUOUS
 62
    2
 10
278.65569731883653
 20
469.08920897572079
 11
628.65569731883647
 21
469.08920897572079
  0
LINE
  8
_0-1_計細線
  6
CONTINUOUS
 62
    3
 10
278.65569731883653
 20
448.88920897572149
 11
628.65569731883647
 21
448.88920897572149
  0
LINE
  8
_0-1_計細線
  6
CONTINUOUS
 62
    3
 10
278.65569731883653
 20
460.28920897572198
 11
628.65569731883647
 21
460.28920897572198
  0
LINE
  8
_0-1_計細線
  6
CONTINUOUS
 62
    3
 10
278.65569731883653
 20
448.88920897572149
 11
278.65569731883653
 21
460.28920897572198
  0
LINE
  8
_0-1_計細線
  6
CONTINUOUS
 62
    3
 10
628.65569731883647
 20
448.88920897572149
 11
628.65569731883647
 21
460.28920897572198
  0
LINE
  8
_0-0_計極細
  6
CONTINUOUS
 62
    2
 10
278.65569731883653
 20
457.0892089757217
 11
628.65569731883647
 21
457.0892089757217
  0
LINE
  8
_0-0_計極細
  6
CONTINUOUS
 62
    2
 10
278.65569731883653
 20
452.0892089757217
 11
628.65569731883647
 21
452.0892089757217
  0
LINE
  8
_0-1_計細線
  6
CONTINUOUS
 62
    3
 10
278.65569731883653
 20
431.8892089757224
 11
628.65569731883647
 21
431.8892089757224
  0
LINE
  8
_0-1_計細線
  6
CONTINUOUS
 62
    3
 10
278.65569731883653
 20
443.28920897572289
 11
628.65569731883647
 21
443.28920897572289
  0
LINE
  8
_0-1_計細線
  6
CONTINUOUS
 62
    3
 10
278.65569731883653
 20
431.8892089757224
 11
278.65569731883653
 21
443.28920897572289
  0
LINE
  8
_0-1_計細線
  6
CONTINUOUS
 62
    3
 10
628.65569731883647
 20
431.8892089757224
 11
628.65569731883647
 21
443.28920897572289
  0
LINE
  8
_0-0_計極細
  6
CONTINUOUS
 62
    2
 10
278.65569731883653
 20
440.08920897572267
 11
628.65569731883647
 21
440.08920897572267
  0
LINE
  8
_0-0_計極細
  6
CONTINUOUS
 62
    2
 10
278.65569731883653
 20
435.08920897572267
 11
628.65569731883647
 21
435.08920897572267
  0
LINE
  8
_0-1_計細線
  6
CONTINUOUS
 62
    3
 10
278.65569731883653
 20
398.18920897572025
 11
628.65569731883647
 21
398.18920897572025
  0
LINE
  8
_0-1_計細線
  6
CONTINUOUS
 62
    3
 10
278.65569731883653
 20
409.58920897572085
 11
628.65569731883647
 21
409.58920897572085
  0
LINE
  8
_0-1_計細線
  6
CONTINUOUS
 62
    3
 10
278.65569731883653
 20
398.18920897572025
 11
278.65569731883653
 21
409.58920897572085
  0
LINE
  8
_0-1_計細線
  6
CONTINUOUS
 62
    3
 10
628.65569731883647
 20
398.18920897572025
 11
628.65569731883647
 21
409.58920897572085
  0
LINE
  8
_0-0_計極細
  6
CONTINUOUS
 62
    2
 10
278.65569731883653
 20
406.38920897572058
 11
628.65569731883647
 21
406.38920897572058
  0
LINE
  8
_0-0_計極細
  6
CONTINUOUS
 62
    2
 10
278.65569731883653
 20
401.38920897572058
 11
628.65569731883647
 21
401.38920897572058
  0
LINE
  8
_0-1_計細線
  6
CONTINUOUS
 62
    3
 10
278.65569731883653
 20
381.58920897571625
 11
628.65569731883647
 21
381.58920897571625
  0
LINE
  8
_0-1_計細線
  6
CONTINUOUS
 62
    3
 10
278.65569731883653
 20
392.98920897571685
 11
628.65569731883647
 21
392.98920897571685
  0
LINE
  8
_0-1_計細線
  6
CONTINUOUS
 62
    3
 10
278.65569731883653
 20
381.58920897571625
 11
278.65569731883653
 21
392.98920897571685
  0
LINE
  8
_0-1_計細線
  6
CONTINUOUS
 62
    3
 10
628.65569731883647
 20
381.58920897571625
 11
628.65569731883647
 21
392.98920897571685
  0
LINE
  8
_0-0_計極細
  6
CONTINUOUS
 62
    2
 10
278.65569731883653
 20
389.78920897571652
 11
628.65569731883647
 21
389.78920897571652
  0
LINE
  8
_0-0_計極細
  6
CONTINUOUS
 62
    2
 10
278.65569731883653
 20
384.78920897571652
 11
628.65569731883647
 21
384.78920897571652
  0
LINE
  8
_0-1_計細線
  6
CONTINUOUS
 62
    3
 10
278.65569731883653
 20
550.88920897572098
 11
628.65569731883647
 21
550.88920897572098
  0
LINE
  8
_0-1_計細線
  6
CONTINUOUS
 62
    3
 10
628.65569731883647
 20
562.28920897572152
 11
628.65569731883647
 21
550.88920897572098
  0
LINE
  8
_0-0_計極細
  6
CONTINUOUS
 62
    2
 10
278.65569731883653
 20
554.08920897572125
 11
628.65569731883647
 21
554.08920897572125
  0
LINE
  8
_0-0_計極細
  6
CONTINUOUS
 62
    2
 10
278.65569731883653
 20
559.08920897572125
 11
628.65569731883647
 21
559.08920897572125
  0
LINE
  8
_0-1_計細線
  6
CONTINUOUS
 62
    3
 10
278.65569731883653
 20
562.28920897572152
 11
278.65569731883653
 21
550.88920897572098
  0
LINE
  8
_0-1_計細線
  6
CONTINUOUS
 62
    3
 10
278.65569731883653
 20
562.28920897572152
 11
628.65569731883647
 21
562.28920897572152
  0
LINE
  8
_0-1_計細線
  6
CONTINUOUS
 62
    3
 10
278.65569731883653
 20
579.28920897572243
 11
628.65569731883647
 21
579.28920897572243
  0
LINE
  8
_0-1_計細線
  6
CONTINUOUS
 62
    3
 10
628.65569731883647
 20
579.28920897572243
 11
628.65569731883647
 21
567.88920897572189
  0
LINE
  8
_0-0_計極細
  6
CONTINUOUS
 62
    2
 10
278.65569731883653
 20
571.08920897572216
 11
628.65569731883647
 21
571.08920897572216
  0
LINE
  8
_0-0_計極細
  6
CONTINUOUS
 62
    2
 10
278.65569731883653
 20
576.08920897572216
 11
628.65569731883647
 21
576.08920897572216
  0
LINE
  8
_0-1_計細線
  6
CONTINUOUS
 62
    3
 10
278.65569731883653
 20
567.88920897572189
 11
628.65569731883647
 21
567.88920897572189
  0
LINE
  8
_0-1_計細線
  6
CONTINUOUS
 62
    3
 10
278.65569731883653
 20
579.28920897572243
 11
278.65569731883653
 21
567.88920897572189
  0
LINE
  8
_0-0_計極細
  6
CONTINUOUS
 62
    2
 10
615.15569731883647
 20
550.88920897572098
 11
615.15569731883647
 21
545.28920897572107
  0
LINE
  8
_0-0_計極細
  6
CONTINUOUS
 62
    2
 10
628.15569731883647
 20
550.88920897572098
 11
628.15569731883647
 21
545.28920897572107
  0
LINE
  8
_0-0_計極細
  6
CONTINUOUS
 62
    2
 10
615.15569731883647
 20
567.88920897572189
 11
615.15569731883647
 21
562.28920897572152
  0
LINE
  8
_0-0_計極細
  6
CONTINUOUS
 62
    2
 10
628.15569731883647
 20
567.88920897572189
 11
628.15569731883647
 21
562.28920897572152
  0
LINE
  8
_0-0_計極細
  6
CONTINUOUS
 62
    2
 10
615.15569731883647
 20
584.88920897572234
 11
615.15569731883647
 21
579.28920897572243
  0
LINE
  8
_0-0_計極細
  6
CONTINUOUS
 62
    2
 10
628.15569731883647
 20
584.88920897572234
 11
628.15569731883647
 21
579.28920897572243
  0
LINE
  8
_0-0_計極細
  6
CONTINUOUS
 62
    2
 10
615.15569731883647
 20
601.88920897572325
 11
615.15569731883647
 21
596.28920897572289
  0
LINE
  8
_0-0_計極細
  6
CONTINUOUS
 62
    2
 10
628.15569731883647
 20
601.88920897572325
 11
628.15569731883647
 21
596.28920897572289
  0
LINE
  8
_0-0_計極細
  6
CONTINUOUS
 62
    2
 10
615.15569731883647
 20
618.8892089757237
 11
615.15569731883647
 21
613.2892089757238
  0
LINE
  8
_0-0_計極細
  6
CONTINUOUS
 62
    2
 10
628.15569731883647
 20
618.8892089757237
 11
628.15569731883647
 21
613.2892089757238
  0
LINE
  8
_0-0_計極細
  6
CONTINUOUS
 62
    2
 10
615.15569731883647
 20
635.8892089757228
 11
615.15569731883647
 21
630.28920897572289
  0
LINE
  8
_0-0_計極細
  6
CONTINUOUS
 62
    2
 10
628.15569731883647
 20
635.8892089757228
 11
628.15569731883647
 21
630.28920897572289
  0
LINE
  8
_0-0_計極細
  6
CONTINUOUS
 62
    2
 10
615.15569731883647
 20
652.889208975722
 11
615.15569731883647
 21
647.28920897572198
  0
LINE
  8
_0-0_計極細
  6
CONTINUOUS
 62
    2
 10
628.15569731883647
 20
652.889208975722
 11
628.15569731883647
 21
647.28920897572198
  0
LINE
  8
_0-0_計極細
  6
CONTINUOUS
 62
    2
 10
615.15569731883647
 20
669.88920897572098
 11
615.15569731883647
 21
664.28920897572107
  0
LINE
  8
_0-0_計極細
  6
CONTINUOUS
 62
    2
 10
628.15569731883647
 20
669.88920897572098
 11
628.15569731883647
 21
664.28920897572107
  0
LINE
  8
_0-0_計極細
  6
CONTINUOUS
 62
    2
 10
615.15569731883647
 20
686.88920897572007
 11
615.15569731883647
 21
681.28920897572016
  0
LINE
  8
_0-0_計極細
  6
CONTINUOUS
 62
    2
 10
628.15569731883647
 20
686.88920897572007
 11
628.15569731883647
 21
681.28920897572016
  0
LINE
  8
_0-0_計極細
  6
CONTINUOUS
 62
    2
 10
615.15569731883647
 20
703.58920897572307
 11
615.15569731883647
 21
698.28920897572334
  0
LINE
  8
_0-0_計極細
  6
CONTINUOUS
 62
    2
 10
628.15569731883647
 20
703.58920897572307
 11
628.15569731883647
 21
698.28920897572334
  0
LINE
  8
_0-0_計極細
  6
CONTINUOUS
 62
    2
 10
615.15569731883647
 20
720.18920897572218
 11
615.15569731883647
 21
714.98920897572236
  0
LINE
  8
_0-0_計極細
  6
CONTINUOUS
 62
    2
 10
628.15569731883647
 20
720.18920897572218
 11
628.15569731883647
 21
714.98920897572236
  0
LINE
  8
_0-0_計極細
  6
CONTINUOUS
 62
    2
 10
615.15569731883647
 20
528.28920897572016
 11
615.15569731883647
 21
533.88920897572007
  0
LINE
  8
_0-0_計極細
  6
CONTINUOUS
 62
    2
 10
628.15569731883647
 20
528.28920897572016
 11
628.15569731883647
 21
533.88920897572007
  0
LINE
  8
_0-0_計極細
  6
CONTINUOUS
 62
    2
 10
615.15569731883647
 20
511.2892089757193
 11
615.15569731883647
 21
516.88920897571961
  0
LINE
  8
_0-0_計極細
  6
CONTINUOUS
 62
    2
 10
628.15569731883647
 20
511.2892089757193
 11
628.15569731883647
 21
516.88920897571961
  0
LINE
  8
_0-0_計極細
  6
CONTINUOUS
 62
    2
 10
615.15569731883647
 20
494.28920897571885
 11
615.15569731883647
 21
499.8892089757187
  0
LINE
  8
_0-0_計極細
  6
CONTINUOUS
 62
    2
 10
628.15569731883647
 20
494.28920897571885
 11
628.15569731883647
 21
499.8892089757187
  0
LINE
  8
_0-0_計極細
  6
CONTINUOUS
 62
    2
 10
615.15569731883647
 20
477.28920897571976
 11
615.15569731883647
 21
482.88920897571961
  0
LINE
  8
_0-0_計極細
  6
CONTINUOUS
 62
    2
 10
628.15569731883647
 20
477.28920897571976
 11
628.15569731883647
 21
482.88920897571961
  0
LINE
  8
_0-0_計極細
  6
CONTINUOUS
 62
    2
 10
615.15569731883647
 20
460.28920897572061
 11
615.15569731883647
 21
465.88920897572052
  0
LINE
  8
_0-0_計極細
  6
CONTINUOUS
 62
    2
 10
628.15569731883647
 20
460.28920897572061
 11
628.15569731883647
 21
465.88920897572052
  0
LINE
  8
_0-0_計極細
  6
CONTINUOUS
 62
    2
 10
615.15569731883647
 20
443.28920897572152
 11
615.15569731883647
 21
448.88920897572149
  0
LINE
  8
_0-0_計極細
  6
CONTINUOUS
 62
    2
 10
628.15569731883647
 20
443.28920897572152
 11
628.15569731883647
 21
448.88920897572149
  0
LINE
  8
_0-0_計極細
  6
CONTINUOUS
 62
    2
 10
615.15569731883647
 20
426.28920897572243
 11
615.15569731883647
 21
431.8892089757224
  0
LINE
  8
_0-0_計極細
  6
CONTINUOUS
 62
    2
 10
628.15569731883647
 20
426.28920897572243
 11
628.15569731883647
 21
431.8892089757224
  0
LINE
  8
_0-0_計極細
  6
CONTINUOUS
 62
    2
 10
615.15569731883647
 20
409.58920897571943
 11
615.15569731883647
 21
414.88920897571916
  0
LINE
  8
_0-0_計極細
  6
CONTINUOUS
 62
    2
 10
628.15569731883647
 20
409.58920897571943
 11
628.15569731883647
 21
414.88920897571916
  0
LINE
  8
_0-0_計極細
  6
CONTINUOUS
 62
    2
 10
615.15569731883647
 20
392.98920897572043
 11
615.15569731883647
 21
398.18920897572025
  0
LINE
  8
_0-0_計極細
  6
CONTINUOUS
 62
    2
 10
628.15569731883647
 20
392.98920897572043
 11
628.15569731883647
 21
398.18920897572025
  0
LINE
  8
_0-0_計極細
  6
CENTER1
 62
    2
 10
621.65569731883647
 20
740.339928400188
 11
621.65569731883647
 21
374.03138523470898
  0
LINE
  8
_0-0_計極細
  6
CONTINUOUS
 62
    2
 10
279.15569731883693
 20
550.88920897572098
 11
279.15569731883693
 21
545.28920897572107
  0
LINE
  8
_0-0_計極細
  6
CONTINUOUS
 62
    2
 10
292.15569731883693
 20
550.88920897572098
 11
292.15569731883693
 21
545.28920897572107
  0
LINE
  8
_0-0_計極細
  6
CONTINUOUS
 62
    2
 10
279.15569731883693
 20
567.88920897572189
 11
279.15569731883693
 21
562.28920897572152
  0
LINE
  8
_0-0_計極細
  6
CONTINUOUS
 62
    2
 10
292.15569731883693
 20
567.88920897572189
 11
292.15569731883693
 21
562.28920897572152
  0
LINE
  8
_0-0_計極細
  6
CONTINUOUS
 62
    2
 10
279.15569731883693
 20
584.88920897572234
 11
279.15569731883693
 21
579.28920897572243
  0
LINE
  8
_0-0_計極細
  6
CONTINUOUS
 62
    2
 10
292.15569731883693
 20
584.88920897572234
 11
292.15569731883693
 21
579.28920897572243
  0
LINE
  8
_0-0_計極細
  6
CONTINUOUS
 62
    2
 10
279.15569731883693
 20
601.88920897572325
 11
279.15569731883693
 21
596.28920897572289
  0
LINE
  8
_0-0_計極細
  6
CONTINUOUS
 62
    2
 10
292.15569731883693
 20
601.88920897572325
 11
292.15569731883693
 21
596.28920897572289
  0
LINE
  8
_0-0_計極細
  6
CONTINUOUS
 62
    2
 10
279.15569731883693
 20
618.8892089757237
 11
279.15569731883693
 21
613.2892089757238
  0
LINE
  8
_0-0_計極細
  6
CONTINUOUS
 62
    2
 10
292.15569731883693
 20
618.8892089757237
 11
292.15569731883693
 21
613.2892089757238
  0
LINE
  8
_0-0_計極細
  6
CONTINUOUS
 62
    2
 10
279.15569731883693
 20
635.8892089757228
 11
279.15569731883693
 21
630.28920897572289
  0
LINE
  8
_0-0_計極細
  6
CONTINUOUS
 62
    2
 10
292.15569731883693
 20
635.8892089757228
 11
292.15569731883693
 21
630.28920897572289
  0
LINE
  8
_0-0_計極細
  6
CONTINUOUS
 62
    2
 10
279.15569731883693
 20
652.889208975722
 11
279.15569731883693
 21
647.28920897572198
  0
LINE
  8
_0-0_計極細
  6
CONTINUOUS
 62
    2
 10
292.15569731883693
 20
652.889208975722
 11
292.15569731883693
 21
647.28920897572198
  0
LINE
  8
_0-0_計極細
  6
CONTINUOUS
 62
    2
 10
279.15569731883693
 20
669.88920897572098
 11
279.15569731883693
 21
664.28920897572107
  0
LINE
  8
_0-0_計極細
  6
CONTINUOUS
 62
    2
 10
292.15569731883693
 20
669.88920897572098
 11
292.15569731883693
 21
664.28920897572107
  0
LINE
  8
_0-0_計極細
  6
CONTINUOUS
 62
    2
 10
279.15569731883693
 20
686.88920897572007
 11
279.15569731883693
 21
681.28920897572016
  0
LINE
  8
_0-0_計極細
  6
CONTINUOUS
 62
    2
 10
292.15569731883693
 20
686.88920897572007
 11
292.15569731883693
 21
681.28920897572016
  0
LINE
  8
_0-0_計極細
  6
CONTINUOUS
 62
    2
 10
279.15569731883693
 20
703.58920897572307
 11
279.15569731883693
 21
698.28920897572334
  0
LINE
  8
_0-0_計極細
  6
CONTINUOUS
 62
    2
 10
292.15569731883693
 20
703.58920897572307
 11
292.15569731883693
 21
698.28920897572334
  0
LINE
  8
_0-0_計極細
  6
CONTINUOUS
 62
    2
 10
279.15569731883693
 20
720.18920897572218
 11
279.15569731883693
 21
714.98920897572236
  0
LINE
  8
_0-0_計極細
  6
CONTINUOUS
 62
    2
 10
292.15569731883693
 20
720.18920897572218
 11
292.15569731883693
 21
714.98920897572236
  0
LINE
  8
_0-0_計極細
  6
CONTINUOUS
 62
    2
 10
279.15569731883693
 20
528.28920897572016
 11
279.15569731883693
 21
533.88920897572007
  0
LINE
  8
_0-0_計極細
  6
CONTINUOUS
 62
    2
 10
292.15569731883693
 20
528.28920897572016
 11
292.15569731883693
 21
533.88920897572007
  0
LINE
  8
_0-0_計極細
  6
CONTINUOUS
 62
    2
 10
279.15569731883693
 20
511.2892089757193
 11
279.15569731883693
 21
516.88920897571961
  0
LINE
  8
_0-0_計極細
  6
CONTINUOUS
 62
    2
 10
292.15569731883693
 20
511.2892089757193
 11
292.15569731883693
 21
516.88920897571961
  0
LINE
  8
_0-0_計極細
  6
CONTINUOUS
 62
    2
 10
279.15569731883693
 20
494.28920897571885
 11
279.15569731883693
 21
499.8892089757187
  0
LINE
  8
_0-0_計極細
  6
CONTINUOUS
 62
    2
 10
292.15569731883693
 20
494.28920897571885
 11
292.15569731883693
 21
499.8892089757187
  0
LINE
  8
_0-0_計極細
  6
CONTINUOUS
 62
    2
 10
279.15569731883693
 20
477.28920897571976
 11
279.15569731883693
 21
482.88920897571961
  0
LINE
  8
_0-0_計極細
  6
CONTINUOUS
 62
    2
 10
292.15569731883693
 20
477.28920897571976
 11
292.15569731883693
 21
482.88920897571961
  0
LINE
  8
_0-0_計極細
  6
CONTINUOUS
 62
    2
 10
279.15569731883693
 20
460.28920897572061
 11
279.15569731883693
 21
465.88920897572052
  0
LINE
  8
_0-0_計極細
  6
CONTINUOUS
 62
    2
 10
292.15569731883693
 20
460.28920897572061
 11
292.15569731883693
 21
465.88920897572052
  0
LINE
  8
_0-0_計極細
  6
CONTINUOUS
 62
    2
 10
279.15569731883693
 20
443.28920897572152
 11
279.15569731883693
 21
448.88920897572149
  0
LINE
  8
_0-0_計極細
  6
CONTINUOUS
 62
    2
 10
292.15569731883693
 20
443.28920897572152
 11
292.15569731883693
 21
448.88920897572149
  0
LINE
  8
_0-0_計極細
  6
CONTINUOUS
 62
    2
 10
279.15569731883693
 20
426.28920897572243
 11
279.15569731883693
 21
431.8892089757224
  0
LINE
  8
_0-0_計極細
  6
CONTINUOUS
 62
    2
 10
292.15569731883693
 20
426.28920897572243
 11
292.15569731883693
 21
431.8892089757224
  0
LINE
  8
_0-0_計極細
  6
CONTINUOUS
 62
    2
 10
279.15569731883693
 20
409.58920897571943
 11
279.15569731883693
 21
414.88920897571916
  0
LINE
  8
_0-0_計極細
  6
CONTINUOUS
 62
    2
 10
292.15569731883693
 20
409.58920897571943
 11
292.15569731883693
 21
414.88920897571916
  0
LINE
  8
_0-0_計極細
  6
CONTINUOUS
 62
    2
 10
279.15569731883693
 20
392.98920897572043
 11
279.15569731883693
 21
398.18920897572025
  0
LINE
  8
_0-0_計極細
  6
CONTINUOUS
 62
    2
 10
292.15569731883693
 20
392.98920897572043
 11
292.15569731883693
 21
398.18920897572025
  0
LINE
  8
_0-0_計極細
  6
CENTER1
 62
    2
 10
285.65569731883699
 20
740.339928400188
 11
285.65569731883699
 21
374.03138523470898
  0
LINE
  8
_0-5_寸法線
  6
CONTINUOUS
 62
    7
 10
278.65569731883653
 20
746.58920897572625
 11
278.65569731883653
 21
791.58920897572625
  0
LINE
  8
_0-5_寸法線
  6
CONTINUOUS
 62
    7
 10
278.65569731883653
 20
786.58920897572625
 11
288.31495558172719
 21
789.17739942675155
  0
LINE
  8
_0-5_寸法線
  6
CONTINUOUS
 62
    7
 10
278.65569731883653
 20
786.58920897572625
 11
288.31495558172719
 21
784.00101852470118
  0
LINE
  8
_0-5_寸法線
  6
CONTINUOUS
 62
    7
 10
285.65569731883647
 20
746.58920897572625
 11
285.65569731883647
 21
791.58920897572625
  0
LINE
  8
_0-5_寸法線
  6
CONTINUOUS
 62
    7
 10
285.65569731883647
 20
786.58920897572625
 11
275.99643905594576
 21
784.00101852470118
  0
LINE
  8
_0-5_寸法線
  6
CONTINUOUS
 62
    7
 10
285.65569731883647
 20
786.58920897572625
 11
275.99643905594581
 21
789.17739942675155
  0
LINE
  8
_0-5_寸法線
  6
CONTINUOUS
 62
    7
 10
278.65569731883653
 20
786.58920897572625
 11
285.65569731883647
 21
786.58920897572625
  0
TEXT
  8
_0-5_寸法線
 62
    7
 10
278.40569731883647
 20
786.58920897572625
 40
15
 41
1
 50
0
  1
7
  0
LINE
  8
_0-5_寸法線
  6
CONTINUOUS
 62
    7
 10
285.65569731883647
 20
786.58920897572625
 11
295.31495558172719
 21
789.17739942675155
  0
LINE
  8
_0-5_寸法線
  6
CONTINUOUS
 62
    7
 10
285.65569731883647
 20
786.58920897572625
 11
295.31495558172713
 21
784.00101852470107
  0
LINE
  8
_0-5_寸法線
  6
CONTINUOUS
 62
    7
 10
479.65569731883647
 20
746.58920897572625
 11
479.65569731883647
 21
791.58920897572625
  0
LINE
  8
_0-5_寸法線
  6
CONTINUOUS
 62
    7
 10
479.65569731883647
 20
786.58920897572625
 11
469.99643905594581
 21
784.00101852470118
  0
LINE
  8
_0-5_寸法線
  6
CONTINUOUS
 62
    7
 10
479.65569731883647
 20
786.58920897572625
 11
469.99643905594581
 21
789.17739942675155
  0
LINE
  8
_0-5_寸法線
  6
CONTINUOUS
 62
    7
 10
285.65569731883647
 20
786.58920897572625
 11
479.65569731883647
 21
786.58920897572625
  0
TEXT
  8
_0-5_寸法線
 62
    7
 10
352.65569731883647
 20
786.58920897572625
 40
15
 41
1
 50
0
  1
2@97=194
  0
LINE
  8
_0-5_寸法線
  6
CONTINUOUS
 62
    7
 10
479.65569731883647
 20
786.58920897572625
 11
489.31495558172719
 21
789.17739942675155
  0
LINE
  8
_0-5_寸法線
  6
CONTINUOUS
 62
    7
 10
479.65569731883647
 20
786.58920897572625
 11
489.31495558172713
 21
784.00101852470107
  0
LINE
  8
_0-5_寸法線
  6
CONTINUOUS
 62
    7
 10
524.65569731883636
 20
746.58920897572625
 11
524.65569731883636
 21
791.58920897572625
  0
LINE
  8
_0-5_寸法線
  6
CONTINUOUS
 62
    7
 10
524.65569731883636
 20
786.58920897572625
 11
514.99643905594564
 21
784.00101852470118
  0
LINE
  8
_0-5_寸法線
  6
CONTINUOUS
 62
    7
 10
524.65569731883636
 20
786.58920897572625
 11
514.99643905594564
 21
789.17739942675155
  0
LINE
  8
_0-5_寸法線
  6
CONTINUOUS
 62
    7
 10
479.65569731883647
 20
786.58920897572625
 11
524.65569731883636
 21
786.58920897572625
  0
TEXT
  8
_0-5_寸法線
 62
    7
 10
494.65569731883647
 20
786.58920897572625
 40
15
 41
1
 50
0
  1
45
  0
LINE
  8
_0-5_寸法線
  6
CONTINUOUS
 62
    7
 10
524.65569731883636
 20
786.58920897572625
 11
534.31495558172719
 21
789.17739942675155
  0
LINE
  8
_0-5_寸法線
  6
CONTINUOUS
 62
    7
 10
524.65569731883636
 20
786.58920897572625
 11
534.31495558172719
 21
784.00101852470107
  0
LINE
  8
_0-5_寸法線
  6
CONTINUOUS
 62
    7
 10
621.65569731883647
 20
746.58920897572625
 11
621.65569731883647
 21
791.58920897572625
  0
LINE
  8
_0-5_寸法線
  6
CONTINUOUS
 62
    7
 10
621.65569731883647
 20
786.58920897572625
 11
611.99643905594576
 21
784.00101852470118
  0
LINE
  8
_0-5_寸法線
  6
CONTINUOUS
 62
    7
 10
621.65569731883647
 20
786.58920897572625
 11
611.99643905594576
 21
789.17739942675155
  0
LINE
  8
_0-5_寸法線
  6
CONTINUOUS
 62
    7
 10
524.65569731883636
 20
786.58920897572625
 11
621.65569731883647
 21
786.58920897572625
  0
TEXT
  8
_0-5_寸法線
 62
    7
 10
565.65569731883647
 20
786.58920897572625
 40
15
 41
1
 50
0
  1
97
  0
LINE
  8
_0-5_寸法線
  6
CONTINUOUS
 62
    7
 10
621.65569731883647
 20
786.58920897572625
 11
631.31495558172719
 21
789.17739942675155
  0
LINE
  8
_0-5_寸法線
  6
CONTINUOUS
 62
    7
 10
621.65569731883647
 20
786.58920897572625
 11
631.31495558172719
 21
784.00101852470107
  0
LINE
  8
_0-5_寸法線
  6
CONTINUOUS
 62
    7
 10
628.65569731883647
 20
746.58920897572625
 11
628.65569731883647
 21
791.58920897572625
  0
LINE
  8
_0-5_寸法線
  6
CONTINUOUS
 62
    7
 10
628.65569731883647
 20
786.58920897572625
 11
618.99643905594576
 21
784.00101852470118
  0
LINE
  8
_0-5_寸法線
  6
CONTINUOUS
 62
    7
 10
628.65569731883647
 20
786.58920897572625
 11
618.99643905594576
 21
789.17739942675155
  0
LINE
  8
_0-5_寸法線
  6
CONTINUOUS
 62
    7
 10
621.65569731883647
 20
786.58920897572625
 11
628.65569731883647
 21
786.58920897572625
  0
TEXT
  8
_0-5_寸法線
 62
    7
 10
621.40569731883647
 20
786.58920897572625
 40
15
 41
1
 50
0
  1
7
  0
LINE
  8
_0-7_枠細線
  6
CONTINUOUS
 62
    5
 10
644.76076114108071
 20
805.9117362139275
 11
637.26076114108059
 21
790.9117362139275
  0
LINE
  8
_0-7_枠細線
  6
CONTINUOUS
 62
    5
 10
637.26076114108059
 20
790.9117362139275
 11
652.26076114108071
 21
790.9117362139275
  0
LINE
  8
_0-7_枠細線
  6
CONTINUOUS
 62
    5
 10
652.26076114108071
 20
790.9117362139275
 11
644.76076114108071
 21
805.9117362139275
  0
TEXT
  8
_0-7_枠細線
 62
    5
 10
642.1259124092287
 20
790.36405232374614
 40
12.5
 41
0.8
 50
0
  1
1
  0
TEXT
  8
_0-7_枠細線
 62
    5
 10
930.00000000000045
 20
428.73000000000047
 40
15.000000000000002
 41
0.5
 50
0
  1
ＧＲＳ－２５Ｋ３５０－Ｂ
  0
TEXT
  8
_0-7_枠細線
 62
    5
 10
930.00000000000045
 20
403.73000000000047
 40
15.000000000000002
 41
0.5
 50
0
  1
ＧＲＳ－２５Ｋ３５０－Ｇ
  0
TEXT
  8
_0-7_枠細線
 62
    5
 10
930.00000000000045
 20
378.7300000000007
 40
15.000000000000002
 41
0.5
 50
0
  1
ＧＲＳ－２５Ｋ３５０－Ｓ
  0
TEXT
  8
_0-7_枠細線
 62
    5
 10
930.00000000000045
 20
353.73000000000047
 40
15.000000000000002
 41
0.5
 50
0
  1
ＧＲＳ－２５Ｋ３５０－Ｐ
  0
TEXT
  8
_0-7_枠細線
 62
    5
 10
930.00000000000045
 20
328.73000000000047
 40
15.000000000000002
 41
0.5
 50
0
  1
ＧＲＳ－２５Ｋ３５０－Ａ
  0
TEXT
  8
_0-7_枠細線
 62
    5
 10
930.00000000000045
 20
303.73000000000059
 40
15.000000000000002
 41
0.5
 50
0
  1
ＧＲＳ－２５Ｋ３５０－Ｄ
  0
TEXT
  8
_0-7_枠細線
 62
    5
 10
930.00000000000045
 20
278.7300000000007
 40
15.000000000000002
 41
0.5
 50
0
  1
ＧＲＳ－２５Ｋ３５０－Ｍ
  0
TEXT
  8
_0-7_枠細線
 62
    5
 10
930.00000000000045
 20
253.73000000000036
 40
15.000000000000002
 41
0.5
 50
0
  1
ＧＲＳ－２５Ｋ３５０－Ｃ
  0
TEXT
  8
_0-7_枠細線
 62
    5
 10
930.00000000000045
 20
228.73000000000008
 40
15.000000000000002
 41
0.5
 50
0
  1
ＧＲＳ－２５Ｋ３５０－Ｋ
  0
LINE
  8
_0-5_寸法線
  6
CONTINUOUS
 62
    7
 10
273.65569731883653
 20
746.58920897572625
 11
273.6556973188367
 21
896.58920897572625
  0
LINE
  8
_0-5_寸法線
  6
CONTINUOUS
 62
    7
 10
273.6556973188367
 20
891.58920897572625
 11
283.3149555817273
 21
894.17739942675155
  0
LINE
  8
_0-5_寸法線
  6
CONTINUOUS
 62
    7
 10
273.6556973188367
 20
891.58920897572625
 11
283.3149555817273
 21
889.00101852470118
  0
LINE
  8
_0-5_寸法線
  6
CONTINUOUS
 62
    7
 10
633.65569731883693
 20
746.58920897572625
 11
633.65569731883738
 21
896.58920897572625
  0
LINE
  8
_0-5_寸法線
  6
CONTINUOUS
 62
    7
 10
633.65569731883738
 20
891.58920897572625
 11
623.99643905594667
 21
889.00101852470118
  0
LINE
  8
_0-5_寸法線
  6
CONTINUOUS
 62
    7
 10
633.65569731883738
 20
891.58920897572625
 11
623.99643905594667
 21
894.17739942675155
  0
LINE
  8
_0-5_寸法線
  6
CONTINUOUS
 62
    7
 10
273.6556973188367
 20
891.58920897572625
 11
633.65569731883738
 21
891.58920897572625
  0
TEXT
  8
_0-5_寸法線
 62
    7
 10
442.40569731883681
 20
891.58920897572625
 40
15
 41
1
 50
0
  1
360
  0
LINE
  8
_0-5_寸法線
  6
CONTINUOUS
 62
    7
 10
273.65569731883653
 20
856.58920897572625
 11
263.99643905594576
 21
854.00101852470118
  0
LINE
  8
_0-5_寸法線
  6
CONTINUOUS
 62
    7
 10
273.65569731883653
 20
856.58920897572625
 11
263.99643905594587
 21
859.17739942675155
  0
LINE
  8
_0-5_寸法線
  6
CONTINUOUS
 62
    7
 10
276.65569731883647
 20
746.58920897572625
 11
276.65569731883647
 21
861.58920897572625
  0
LINE
  8
_0-5_寸法線
  6
CONTINUOUS
 62
    7
 10
248.65569731883653
 20
856.58920897572625
 11
276.65569731883647
 21
856.58920897572625
  0
TEXT
  8
_0-5_寸法線
 62
    7
 10
252.54962105956963
 20
856.58920897572625
 40
15
 41
1
 50
0
  1
3
  0
LINE
  8
_0-5_寸法線
  6
CONTINUOUS
 62
    7
 10
276.65569731883647
 20
856.58920897572625
 11
286.31495558172719
 21
859.17739942675155
  0
LINE
  8
_0-5_寸法線
  6
CONTINUOUS
 62
    7
 10
276.65569731883647
 20
856.58920897572625
 11
286.31495558172719
 21
854.00101852470107
  0
LINE
  8
_0-5_寸法線
  6
CONTINUOUS
 62
    7
 10
630.65569731883693
 20
746.58920897572625
 11
630.65569731883704
 21
861.58920897572625
  0
LINE
  8
_0-5_寸法線
  6
CONTINUOUS
 62
    7
 10
630.65569731883704
 20
856.58920897572625
 11
620.99643905594633
 21
854.00101852470118
  0
LINE
  8
_0-5_寸法線
  6
CONTINUOUS
 62
    7
 10
630.65569731883704
 20
856.58920897572625
 11
620.99643905594633
 21
859.17739942675155
  0
LINE
  8
_0-5_寸法線
  6
CONTINUOUS
 62
    7
 10
276.65569731883647
 20
856.58920897572625
 11
630.65569731883704
 21
856.58920897572625
  0
TEXT
  8
_0-5_寸法線
 62
    7
 10
442.40569731883659
 20
856.58920897572625
 40
15
 41
1
 50
0
  1
354
  0
LINE
  8
_0-5_寸法線
  6
CONTINUOUS
 62
    7
 10
633.65569731883716
 20
856.58920897572625
 11
643.31495558172776
 21
859.17739942675155
  0
LINE
  8
_0-5_寸法線
  6
CONTINUOUS
 62
    7
 10
633.65569731883716
 20
856.58920897572625
 11
643.31495558172776
 21
854.00101852470107
  0
LINE
  8
_0-5_寸法線
  6
CONTINUOUS
 62
    7
 10
630.65569731883704
 20
856.58920897572625
 11
658.65569731883716
 21
856.58920897572625
  0
TEXT
  8
_0-5_寸法線
 62
    7
 10
647.82334368730676
 20
856.58920897572625
 40
15
 41
1
 50
0
  1
3
  0
LINE
  8
_0-5_寸法線
  6
CONTINUOUS
 62
    7
 10
278.65569731883653
 20
746.58920897572625
 11
278.65569731883659
 21
826.58920897572625
  0
LINE
  8
_0-5_寸法線
  6
CONTINUOUS
 62
    7
 10
278.65569731883659
 20
821.58920897572625
 11
288.31495558172725
 21
824.17739942675155
  0
LINE
  8
_0-5_寸法線
  6
CONTINUOUS
 62
    7
 10
278.65569731883659
 20
821.58920897572625
 11
288.31495558172725
 21
819.00101852470118
  0
LINE
  8
_0-5_寸法線
  6
CONTINUOUS
 62
    7
 10
628.65569731883647
 20
746.58920897572614
 11
628.65569731883659
 21
826.58920897572625
  0
LINE
  8
_0-5_寸法線
  6
CONTINUOUS
 62
    7
 10
628.65569731883659
 20
821.58920897572625
 11
618.99643905594587
 21
819.00101852470118
  0
LINE
  8
_0-5_寸法線
  6
CONTINUOUS
 62
    7
 10
628.65569731883659
 20
821.58920897572625
 11
618.99643905594587
 21
824.17739942675155
  0
LINE
  8
_0-5_寸法線
  6
CONTINUOUS
 62
    7
 10
278.65569731883659
 20
821.58920897572625
 11
628.65569731883659
 21
821.58920897572625
  0
TEXT
  8
_0-5_寸法線
 62
    7
 10
442.40569731883659
 20
821.58920897572625
 40
15
 41
1
 50
0
  1
350
  0
TEXT
  8
_0-7_枠細線
 62
    5
 10
938.85037037037023
 20
822.5
 40
12.5
 41
1
 50
0
  1
取外具形状変更
  0
LINE
  8
_0-7_枠細線
  6
CONTINUOUS
 62
    5
 10
907.5
 20
836.44233397174673
 11
900
 21
821.44233397174673
  0
LINE
  8
_0-7_枠細線
  6
CONTINUOUS
 62
    5
 10
900
 20
821.44233397174673
 11
915
 21
821.44233397174673
  0
LINE
  8
_0-7_枠細線
  6
CONTINUOUS
 62
    5
 10
915
 20
821.44233397174673
 11
907.5
 21
836.44233397174673
  0
TEXT
  8
_0-7_枠細線
 62
    5
 10
902.36515126814822
 20
821.13533172636653
 40
12.5
 41
0.8
 50
0
  1
６
  0
TEXT
  8
_0-7_枠細線
 62
    5
 10
1180
 20
822.5
 40
12.5
 41
0.7199999999999999
 50
0
  1
２０２１．０５．０６
  0
LINE
  8
_0-7_枠細線
  6
CONTINUOUS
 62
    5
 10
1425
 20
820
 11
890
 21
820
  0
LINE
  8
_0-0_計極細
  6
CENTER1
 62
    2
 10
1105.6648721636482
 20
632.8479270423685
 11
1105.6648721636482
 21
670.91792704237218
  0
LINE
  8
_0-1_計細線
  6
CONTINUOUS
 62
    3
 10
1116.5148721643811
 20
644.85920573263093
 11
1120.9648721642
 21
644.85920573263093
  0
LINE
  8
_0-1_計細線
  6
CONTINUOUS
 62
    3
 10
1107.3648721638015
 20
644.85920573263093
 11
1111.8148721643806
 21
644.85920573263093
  0
LINE
  8
_0-1_計細線
  6
CONTINUOUS
 62
    3
 10
1107.3648721647664
 20
657.85920573263058
 11
1111.8148721643806
 21
657.85920573263058
  0
LINE
  8
_0-1_計細線
  6
CONTINUOUS
 62
    3
 10
1116.5148721643811
 20
657.85920573263058
 11
1120.9648721642002
 21
657.85920573263058
  0
LINE
  8
_0-1_計細線
  6
CONTINUOUS
 62
    3
 10
951.26487235247896
 20
657.85920573263058
 11
938.06487235247903
 21
657.85920573263058
  0
LINE
  8
_0-1_計細線
  6
CONTINUOUS
 62
    3
 10
951.26487235247851
 20
644.85920573263093
 11
938.06487235247903
 21
644.85920573263093
  0
LINE
  8
_0-1_計細線
  6
CONTINUOUS
 62
    3
 10
967.96487235265067
 20
657.85920573263058
 11
954.66487235265049
 21
657.85920573263058
  0
LINE
  8
_0-1_計細線
  6
CONTINUOUS
 62
    3
 10
967.96487235265067
 20
644.85920573263093
 11
954.66487235265049
 21
644.85920573263093
  0
LINE
  8
_0-1_計細線
  6
CONTINUOUS
 62
    3
 10
984.96487235266898
 20
657.85920573263058
 11
971.36487235266884
 21
657.85920573263058
  0
LINE
  8
_0-1_計細線
  6
CONTINUOUS
 62
    3
 10
1001.9648723528406
 20
657.85920573263058
 11
988.36487235284039
 21
657.85920573263058
  0
LINE
  8
_0-1_計細線
  6
CONTINUOUS
 62
    3
 10
1018.9648723530124
 20
657.85920573263058
 11
1005.3648723530123
 21
657.85920573263058
  0
LINE
  8
_0-1_計細線
  6
CONTINUOUS
 62
    3
 10
1035.9648723531841
 20
657.85920573263058
 11
1022.364872353184
 21
657.85920573263058
  0
LINE
  8
_0-1_計細線
  6
CONTINUOUS
 62
    3
 10
984.96487235266841
 20
644.85920573263093
 11
971.36487235266827
 21
644.85920573263093
  0
LINE
  8
_0-1_計細線
  6
CONTINUOUS
 62
    3
 10
1001.9648723528404
 20
644.85920573263093
 11
988.36487235284039
 21
644.85920573263093
  0
LINE
  8
_0-1_計細線
  6
CONTINUOUS
 62
    3
 10
1018.9648723530124
 20
644.85920573263093
 11
1005.3648723530123
 21
644.85920573263093
  0
LINE
  8
_0-1_計細線
  6
CONTINUOUS
 62
    3
 10
1035.9648723531843
 20
644.85920573263093
 11
1022.3648723531842
 21
644.85920573263093
  0
LINE
  8
_0-1_計細線
  6
CONTINUOUS
 62
    3
 10
1260.0648721661623
 20
657.85920573263058
 11
1273.2648721661624
 21
657.85920573263058
  0
LINE
  8
_0-1_計細線
  6
CONTINUOUS
 62
    3
 10
1260.0648721661623
 20
644.85920573263093
 11
1273.2648721661626
 21
644.85920573263093
  0
LINE
  8
_0-1_計細線
  6
CONTINUOUS
 62
    3
 10
1243.3648721659906
 20
657.85920573263058
 11
1256.6648721659908
 21
657.85920573263058
  0
LINE
  8
_0-1_計細線
  6
CONTINUOUS
 62
    3
 10
1243.3648721659906
 20
644.85920573263093
 11
1256.6648721659908
 21
644.85920573263093
  0
LINE
  8
_0-1_計細線
  6
CONTINUOUS
 62
    3
 10
1226.3648721659724
 20
657.85920573263058
 11
1239.9648721659723
 21
657.85920573263058
  0
LINE
  8
_0-1_計細線
  6
CONTINUOUS
 62
    3
 10
1209.3648721658005
 20
657.85920573263058
 11
1222.9648721658007
 21
657.85920573263058
  0
LINE
  8
_0-1_計細線
  6
CONTINUOUS
 62
    3
 10
1192.3648721656289
 20
657.85920573263058
 11
1205.964872165629
 21
657.85920573263058
  0
LINE
  8
_0-1_計細線
  6
CONTINUOUS
 62
    3
 10
1039.3648721631143
 20
657.85920573263058
 11
1052.9648721631143
 21
657.85920573263058
  0
LINE
  8
_0-1_計細線
  6
CONTINUOUS
 62
    3
 10
1175.3648721654572
 20
657.85920573263058
 11
1188.9648721654573
 21
657.85920573263058
  0
LINE
  8
_0-1_計細線
  6
CONTINUOUS
 62
    3
 10
1158.3648721650952
 20
657.85920573263058
 11
1171.9648721650951
 21
657.85920573263058
  0
LINE
  8
_0-1_計細線
  6
CONTINUOUS
 62
    3
 10
1056.3648721631146
 20
657.85920573263058
 11
1069.9648721631147
 21
657.85920573263058
  0
LINE
  8
_0-1_計細線
  6
CONTINUOUS
 62
    3
 10
1073.3648721634768
 20
657.85920573263058
 11
1086.9648721634762
 21
657.85920573263058
  0
LINE
  8
_0-1_計細線
  6
CONTINUOUS
 62
    3
 10
1090.3648721638383
 20
657.85920573263058
 11
1103.964872163838
 21
657.85920573263058
  0
LINE
  8
_0-1_計細線
  6
CONTINUOUS
 62
    3
 10
1124.3648721645616
 20
657.85920573263058
 11
1137.9648721645617
 21
657.85920573263058
  0
LINE
  8
_0-1_計細線
  6
CONTINUOUS
 62
    3
 10
1141.3648721649238
 20
657.85920573263058
 11
1154.9648721649235
 21
657.85920573263058
  0
LINE
  8
_0-1_計細線
  6
CONTINUOUS
 62
    3
 10
1226.3648721659724
 20
644.85920573263093
 11
1239.9648721659726
 21
644.85920573263093
  0
LINE
  8
_0-1_計細線
  6
CONTINUOUS
 62
    3
 10
1209.364872165801
 20
644.85920573263093
 11
1222.9648721658007
 21
644.85920573263093
  0
LINE
  8
_0-1_計細線
  6
CONTINUOUS
 62
    3
 10
1192.3648721656289
 20
644.85920573263093
 11
1205.9648721656288
 21
644.85920573263093
  0
LINE
  8
_0-1_計細線
  6
CONTINUOUS
 62
    3
 10
1039.3648721631143
 20
644.85920573263093
 11
1052.9648721631143
 21
644.85920573263093
  0
LINE
  8
_0-1_計細線
  6
CONTINUOUS
 62
    3
 10
1175.3648721654567
 20
644.85920573263093
 11
1188.9648721654569
 21
644.85920573263093
  0
LINE
  8
_0-1_計細線
  6
CONTINUOUS
 62
    3
 10
1158.3648721650952
 20
644.85920573263093
 11
1171.9648721650954
 21
644.85920573263093
  0
LINE
  8
_0-1_計細線
  6
CONTINUOUS
 62
    3
 10
1056.3648721631143
 20
644.85920573263093
 11
1069.9648721631145
 21
644.85920573263093
  0
LINE
  8
_0-1_計細線
  6
CONTINUOUS
 62
    3
 10
1073.3648721634763
 20
644.85920573263093
 11
1086.9648721634762
 21
644.85920573263093
  0
LINE
  8
_0-1_計細線
  6
CONTINUOUS
 62
    3
 10
1090.3648721638383
 20
644.85920573263093
 11
1103.964872163838
 21
644.85920573263093
  0
LINE
  8
_0-1_計細線
  6
CONTINUOUS
 62
    3
 10
1124.3648721645616
 20
644.85920573263093
 11
1137.9648721645615
 21
644.85920573263093
  0
LINE
  8
_0-1_計細線
  6
CONTINUOUS
 62
    3
 10
1141.3648721649236
 20
644.85920573263093
 11
1154.9648721649237
 21
644.85920573263093
  0
CIRCLE
  8
_0-0_計極細
  6
CONTINUOUS
 62
    2
 10
907.77279361951685
 20
650.79406357622565
 40
1.0953188836088352
  0
LINE
  8
_0-0_計極細
  6
CONTINUOUS
 62
    2
 10
915.36368035706937
 20
655.55942472996139
 11
920.66487216364817
 21
660.86061653653985
  0
LINE
  8
_0-0_計極細
  6
CONTINUOUS
 62
    2
 10
902.63575828688533
 20
655.55942472113475
 11
909.63575829938861
 21
662.5594247336378
  0
LINE
  8
_0-0_計極細
  6
CONTINUOUS
 62
    2
 10
889.90783621670016
 20
655.55942471230776
 11
896.90783623803009
 21
662.55942473363791
  0
LINE
  8
_0-0_計極細
  6
CONTINUOUS
 62
    2
 10
877.17991414651578
 20
655.55942470348089
 11
884.17991417667224
 21
662.55942473363791
  0
LINE
  8
_0-0_計極細
  6
CONTINUOUS
 62
    2
 10
867.15822387657909
 20
658.26565649490237
 11
871.45199211531451
 21
662.5594247336378
  0
LINE
  8
_0-0_計極細
  6
DASHED2
 62
    2
 10
908.9997193219773
 20
655.55942472554773
 11
915.99971933006736
 21
662.55942473363791
  0
LINE
  8
_0-0_計極細
  6
DASHED2
 62
    2
 10
896.27179725179292
 20
655.55942471672108
 11
903.27179726870918
 21
662.55942473363791
  0
LINE
  8
_0-0_計極細
  6
DASHED2
 62
    2
 10
883.5438751816082
 20
655.55942470789444
 11
890.54387520735133
 21
662.55942473363791
  0
LINE
  8
_0-0_計極細
  6
DASHED2
 62
    2
 10
870.81595311142325
 20
655.55942469906779
 11
877.81595314599326
 21
662.55942473363791
  0
LINE
  8
_0-0_計極細
  6
CONTINUOUS
 62
    2
 10
925.54601800983255
 20
655.55942473363768
 11
925.66487216364806
 21
655.6782788874533
  0
LINE
  8
_0-0_計極細
  6
CONTINUOUS
 62
    2
 10
923.00043359756103
 20
655.55942473363768
 11
925.66487216364817
 21
658.22386329972471
  0
LINE
  8
_0-0_計極細
  6
CONTINUOUS
 62
    2
 10
920.66487216364817
 20
655.76944771199635
 11
925.66487216364817
 21
660.76944771199635
  0
LINE
  8
_0-0_計極細
  6
CONTINUOUS
 62
    2
 10
920.66487216364817
 20
658.31503212426799
 11
924.90926477301741
 21
662.55942473363791
  0
LINE
  8
_0-0_計極細
  6
CONTINUOUS
 62
    2
 10
920.66487216364817
 20
660.86061653653985
 11
922.36368036074623
 21
662.55942473363791
  0
LINE
  8
_0-0_計極細
  6
CONTINUOUS
 62
    2
 10
925.66487216364817
 20
661.19084461028262
 11
924.296292040293
 21
662.55942473363791
  0
LINE
  8
_0-0_計極細
  6
CONTINUOUS
 62
    2
 10
925.66487216364817
 20
658.64526019801076
 11
921.75070762802147
 21
662.55942473363791
  0
LINE
  8
_0-0_計極細
  6
CONTINUOUS
 62
    2
 10
920.66487216364817
 20
661.09967578573958
 11
925.66487216364817
 21
656.09967578573946
  0
LINE
  8
_0-0_計極細
  6
CONTINUOUS
 62
    2
 10
920.66487216364817
 20
658.55409137346771
 11
923.65953880347831
 21
655.55942473363768
  0
LINE
  8
_0-0_計極細
  6
CONTINUOUS
 62
    2
 10
920.66487216364817
 20
656.00850696119642
 11
921.11395439120668
 21
655.55942473363768
  0
LINE
  8
_0-0_計極細
  6
CONTINUOUS
 62
    2
 10
925.66487216364817
 20
662.05942473363746
 11
925.66487216364817
 21
662.55942473363791
  0
LINE
  8
_0-0_計極細
  6
CONTINUOUS
 62
    2
 10
925.66487216364817
 20
662.55942473363791
 11
920.66487216364817
 21
662.55942473363791
  0
LINE
  8
_0-0_計極細
  6
CONTINUOUS
 62
    2
 10
925.66487216364817
 20
655.55942473363768
 11
867.15822387657909
 21
655.55942473363768
  0
LINE
  8
_0-0_計極細
  6
CONTINUOUS
 62
    2
 10
920.66487216364817
 20
662.55942473363791
 11
867.15822387657909
 21
662.55942473363791
  0
LINE
  8
_0-0_計極細
  6
CONTINUOUS
 62
    2
 10
920.66487216364817
 20
662.55942473363791
 11
920.66487216364817
 21
655.55942473363768
  0
CIRCLE
  8
_0-0_計極細
  6
CONTINUOUS
 62
    2
 10
871.97949629623008
 20
648.58073024289308
 40
1.0953188836088352
  0
CIRCLE
  8
_0-0_計極細
  6
CONTINUOUS
 62
    2
 10
884.09774402087749
 20
648.04516547437834
 40
1.0953188836088352
  0
CIRCLE
  8
_0-0_計極細
  6
CONTINUOUS
 62
    2
 10
899.07501584173883
 20
652.46813765030026
 40
0.3318518518518431
  0
CIRCLE
  8
_0-0_計極細
  6
CONTINUOUS
 62
    2
 10
921.04834917507173
 20
643.82813765030028
 40
0.3318518518518431
  0
CIRCLE
  8
_0-0_計極細
  6
CONTINUOUS
 62
    2
 10
917.63501584173832
 20
653.53480431696698
 40
0.3318518518518431
  0
CIRCLE
  8
_0-0_計極細
  6
CONTINUOUS
 62
    2
 10
902.70168250840538
 20
647.56147098363374
 40
0.3318518518518431
  0
CIRCLE
  8
_0-0_計極細
  6
CONTINUOUS
 62
    2
 10
877.89575658247963
 20
644.68147098363363
 40
0.3318518518518431
  0
LINE
  8
_0-0_計極細
  6
CONTINUOUS
 62
    2
 10
1331.7383554038302
 20
655.55942473363768
 11
1338.7383550277568
 21
662.55942435756435
  0
LINE
  8
_0-0_計極細
  6
CONTINUOUS
 62
    2
 10
1319.0104333424722
 20
655.55942473363768
 11
1326.0104330659681
 21
662.55942445713333
  0
LINE
  8
_0-0_計極細
  6
CONTINUOUS
 62
    2
 10
1306.2825112811142
 20
655.55942473363768
 11
1313.2825111041791
 21
662.55942455670254
  0
LINE
  8
_0-0_計極細
  6
CONTINUOUS
 62
    2
 10
1293.5545892197567
 20
655.55942473363768
 11
1300.5545891423908
 21
662.55942465627174
  0
LINE
  8
_0-0_計極細
  6
DASHED2
 62
    2
 10
1338.1023164345092
 20
655.55942473363768
 11
1344.171520450717
 21
661.62862874984569
  0
LINE
  8
_0-0_計極細
  6
DASHED2
 62
    2
 10
1325.3743943731511
 20
655.55942473363768
 11
1332.3743940468623
 21
662.55942440734896
  0
LINE
  8
_0-0_計極細
  6
DASHED2
 62
    2
 10
1312.6464723117931
 20
655.55942473363768
 11
1319.6464720850736
 21
662.55942450691782
  0
LINE
  8
_0-0_計極細
  6
DASHED2
 62
    2
 10
1299.9185502504356
 20
655.55942473363768
 11
1306.9185501232844
 21
662.55942460648703
  0
LINE
  8
_0-0_計極細
  6
DASHED2
 62
    2
 10
1290.6648721636484
 20
659.03366870820844
 11
1294.1906281614961
 21
662.55942470605623
  0
LINE
  8
_0-0_計極細
  6
CONTINUOUS
 62
    2
 10
1290.6648721636484
 20
657.76087650207251
 11
1288.4634203952132
 21
655.55942473363768
  0
LINE
  8
_0-0_計極細
  6
CONTINUOUS
 62
    2
 10
1290.6648721636484
 20
660.3064609143438
 11
1285.9178359829421
 21
655.55942473363768
  0
LINE
  8
_0-0_計極細
  6
CONTINUOUS
 62
    2
 10
1285.6648721636484
 20
657.85204532661601
 11
1290.3722515706702
 21
662.55942473363791
  0
LINE
  8
_0-0_計極細
  6
CONTINUOUS
 62
    2
 10
1285.6648721636484
 20
660.3976297388873
 11
1287.8266671583988
 21
662.5594247336378
  0
LINE
  8
_0-0_計極細
  6
CONTINUOUS
 62
    2
 10
1290.6648721636484
 20
661.65383140793449
 11
1289.759278837945
 21
662.55942473363791
  0
LINE
  8
_0-0_計極細
  6
CONTINUOUS
 62
    2
 10
1290.6648721636484
 20
659.10824699566297
 11
1287.2136944256736
 21
662.55942473363791
  0
LINE
  8
_0-0_計極細
  6
CONTINUOUS
 62
    2
 10
1290.6648721636484
 20
656.56266258339144
 11
1285.6648721636484
 21
661.56266258339144
  0
LINE
  8
_0-0_計極細
  6
CONTINUOUS
 62
    2
 10
1289.1225256011303
 20
655.55942473363768
 11
1285.6648721636484
 21
659.01707817111981
  0
LINE
  8
_0-0_計極細
  6
CONTINUOUS
 62
    2
 10
1286.5769411888587
 20
655.55942473363768
 11
1285.6648721636484
 21
656.47149375884794
  0
LINE
  8
_0-0_計極細
  6
CONTINUOUS
 62
    2
 10
1285.6648721636484
 20
662.05942473363746
 11
1285.6648721636484
 21
662.55942473363791
  0
LINE
  8
_0-0_計極細
  6
CONTINUOUS
 62
    2
 10
1285.6648721636484
 20
662.55942473363791
 11
1290.6648721636484
 21
662.55942473363791
  0
LINE
  8
_0-0_計極細
  6
CONTINUOUS
 62
    2
 10
1285.6648721636484
 20
655.55942473363768
 11
1344.171520450717
 21
655.55942473363768
  0
LINE
  8
_0-0_計極細
  6
CONTINUOUS
 62
    2
 10
1290.6648721636484
 20
662.55942473363791
 11
1344.171520450717
 21
662.55942473363791
  0
LINE
  8
_0-0_計極細
  6
CONTINUOUS
 62
    2
 10
1290.6648721636484
 20
662.55942473363791
 11
1290.6648721636484
 21
655.55942473363768
  0
CIRCLE
  8
_0-0_計極細
  6
CONTINUOUS
 62
    2
 10
1297.6616825084036
 20
654.27869320585603
 40
0.3318518518518431
  0
CIRCLE
  8
_0-0_計極細
  6
CONTINUOUS
 62
    2
 10
1328.8616825084034
 20
653.71869320585586
 40
0.3318518518518431
  0
CIRCLE
  8
_0-0_計極細
  6
CONTINUOUS
 62
    2
 10
1333.6616825084034
 20
648.94073024289298
 40
1.0953188836088352
  0
CIRCLE
  8
_0-0_計極細
  6
CONTINUOUS
 62
    2
 10
1320.4616825084033
 20
644.03869320585602
 40
0.3318518518518431
  0
ARC
  8
_0-1_計細線
  6
CONTINUOUS
 62
    3
 10
1100.9648721647513
 20
660.55920573263097
 40
1.0000000000000004
 50
89.999999999999915
 51
179.99999999999983
  0
ARC
  8
_0-1_計細線
  6
CONTINUOUS
 62
    3
 10
1101.4328213560791
 20
662.5592057326304
 40
1.0000000000000004
 50
269.99999999999977
 51
330.00000000002012
  0
ARC
  8
_0-1_計細線
  6
CONTINUOUS
 62
    3
 10
1103.1648721636484
 20
661.55920573263063
 40
1.0000000000000004
 50
89.999999999999915
 51
150.00000000000273
  0
LINE
  8
_0-1_計細線
  6
CONTINUOUS
 62
    3
 10
1100.9648721647513
 20
661.55920573263063
 11
1101.4328213560791
 21
661.55920573263063
  0
ARC
  8
_0-1_計細線
  6
CONTINUOUS
 62
    3
 10
1110.364872162545
 20
660.55920573263097
 40
1.0000000000000004
 50
0
 51
89.999999999999915
  0
ARC
  8
_0-1_計細線
  6
CONTINUOUS
 62
    3
 10
1109.896922971217
 20
662.5592057326304
 40
1.0000000000000004
 50
209.99999999998565
 51
269.99999999999977
  0
ARC
  8
_0-1_計細線
  6
CONTINUOUS
 62
    3
 10
1108.1648721636479
 20
661.55920573263063
 40
1.0000000000000004
 50
29.999999999997289
 51
89.999999999999929
  0
LINE
  8
_0-1_計細線
  6
CONTINUOUS
 62
    3
 10
1110.364872162545
 20
661.55920573263063
 11
1109.896922971217
 21
661.55920573263063
  0
ARC
  8
_0-1_計細線
  6
CONTINUOUS
 62
    3
 10
1100.4648721647518
 20
659.15920573263111
 40
0.5000000000000002
 50
179.99999999999983
 51
269.99999999999977
  0
LINE
  8
_0-1_計細線
  6
CONTINUOUS
 62
    3
 10
1099.9648721647518
 20
660.55920573263097
 11
1099.9648721647518
 21
659.15920573263111
  0
ARC
  8
_0-1_計細線
  6
CONTINUOUS
 62
    3
 10
1110.8648721625445
 20
659.15920573263111
 40
0.5000000000000002
 50
269.99999999999977
 51
359.99999999999966
  0
LINE
  8
_0-1_計細線
  6
CONTINUOUS
 62
    3
 10
1111.3648721625448
 20
660.55920573263097
 11
1111.3648721625448
 21
659.15920573263111
  0
ARC
  8
_0-1_計細線
  6
CONTINUOUS
 62
    3
 10
1102.9648721647518
 20
657.65920573263099
 40
1.0000000000000004
 50
0
 51
89.999999999999915
  0
LINE
  8
_0-1_計細線
  6
CONTINUOUS
 62
    3
 10
1102.9648721647518
 20
658.65920573263054
 11
1100.4648721647518
 21
658.65920573263054
  0
ARC
  8
_0-1_計細線
  6
CONTINUOUS
 62
    3
 10
1108.3648721647519
 20
657.65920573263099
 40
1.0000000000000004
 50
89.999999999999915
 51
179.99999999999983
  0
LINE
  8
_0-1_計細線
  6
CONTINUOUS
 62
    3
 10
1108.3648721625445
 20
658.65920573263054
 11
1110.8648721625445
 21
658.65920573263054
  0
LINE
  8
_0-1_計細線
  6
CONTINUOUS
 62
    3
 10
1108.1648721636479
 20
662.5592057326304
 11
1103.1648721636484
 21
662.5592057326304
  0
LINE
  8
_0-1_計細線
  6
CONTINUOUS
 62
    3
 10
1103.9648721636481
 20
637.55920573263131
 11
1103.9648721647513
 21
657.65920573263099
  0
LINE
  8
_0-1_計細線
  6
CONTINUOUS
 62
    3
 10
1107.364872163648
 20
637.55920573263131
 11
1107.3648721647517
 21
657.65920573263099
  0
LINE
  8
_0-1_計細線
  6
CONTINUOUS
 62
    3
 10
1107.364872163648
 20
637.55920573263131
 11
1103.9648721636481
 21
637.55920573263131
  0
ARC
  8
_0-1_計細線
  6
CONTINUOUS
 62
    3
 10
941.06487235141219
 20
660.55920573263097
 40
1.0000000000000004
 50
0
 51
89.999999999999915
  0
ARC
  8
_0-1_計細線
  6
CONTINUOUS
 62
    3
 10
940.59692316008409
 20
662.5592057326304
 40
1.0000000000000004
 50
209.99999999998889
 51
269.99999999999977
  0
ARC
  8
_0-1_計細線
  6
CONTINUOUS
 62
    3
 10
938.86487235251548
 20
661.55920573263063
 40
1.0000000000000004
 50
30.000000000007059
 51
89.999999999999929
  0
LINE
  8
_0-1_計細線
  6
CONTINUOUS
 62
    3
 10
941.06487235141219
 20
661.55920573263063
 11
940.59692316008409
 21
661.55920573263063
  0
ARC
  8
_0-1_計細線
  6
CONTINUOUS
 62
    3
 10
931.66487235361865
 20
660.55920573263097
 40
1.0000000000000004
 50
89.999999999999915
 51
179.99999999999983
  0
ARC
  8
_0-1_計細線
  6
CONTINUOUS
 62
    3
 10
932.13282154494664
 20
662.5592057326304
 40
1.0000000000000004
 50
269.99999999999977
 51
330.00000000001035
  0
ARC
  8
_0-1_計細線
  6
CONTINUOUS
 62
    3
 10
933.86487235251548
 20
661.55920573263063
 40
1.0000000000000004
 50
90.00000000001954
 51
150.00000000000273
  0
LINE
  8
_0-1_計細線
  6
CONTINUOUS
 62
    3
 10
931.66487235361865
 20
661.55920573263063
 11
932.13282154494664
 21
661.55920573263063
  0
ARC
  8
_0-1_計細線
  6
CONTINUOUS
 62
    3
 10
941.56487235141185
 20
659.15920573263111
 40
0.5000000000000002
 50
269.99999999999977
 51
359.99999999999966
  0
LINE
  8
_0-1_計細線
  6
CONTINUOUS
 62
    3
 10
942.06487235141162
 20
660.55920573263097
 11
942.06487235141162
 21
659.15920573263111
  0
ARC
  8
_0-1_計細線
  6
CONTINUOUS
 62
    3
 10
931.16487235361888
 20
659.15920573263111
 40
0.5000000000000002
 50
179.99999999999983
 51
269.99999999999977
  0
LINE
  8
_0-1_計細線
  6
CONTINUOUS
 62
    3
 10
930.6648723536191
 20
660.55920573263097
 11
930.6648723536191
 21
659.15920573263111
  0
ARC
  8
_0-1_計細線
  6
CONTINUOUS
 62
    3
 10
939.06487235141174
 20
657.65920573263099
 40
1.0000000000000004
 50
89.999999999999915
 51
179.99999999999983
  0
LINE
  8
_0-1_計細線
  6
CONTINUOUS
 62
    3
 10
939.06487235141174
 20
658.65920573263054
 11
941.56487235141185
 21
658.65920573263054
  0
ARC
  8
_0-1_計細線
  6
CONTINUOUS
 62
    3
 10
933.66487235141165
 20
657.65920573263099
 40
1.0000000000000004
 50
0
 51
89.999999999999915
  0
LINE
  8
_0-1_計細線
  6
CONTINUOUS
 62
    3
 10
933.66487235361899
 20
658.65920573263054
 11
931.16487235361888
 21
658.65920573263054
  0
LINE
  8
_0-1_計細線
  6
CONTINUOUS
 62
    3
 10
933.86487235251548
 20
662.5592057326304
 11
938.86487235251548
 21
662.5592057326304
  0
LINE
  8
_0-1_計細線
  6
CONTINUOUS
 62
    3
 10
938.06487235251552
 20
637.55920573263131
 11
938.06487235141174
 21
657.65920573263099
  0
LINE
  8
_0-1_計細線
  6
CONTINUOUS
 62
    3
 10
934.6648723525152
 20
637.55920573263131
 11
934.6648723514113
 21
657.65920573263099
  0
LINE
  8
_0-1_計細線
  6
CONTINUOUS
 62
    3
 10
934.6648723525152
 20
637.55920573263131
 11
938.06487235251552
 21
637.55920573263131
  0
ARC
  8
_0-1_計細線
  6
CONTINUOUS
 62
    3
 10
957.66487235173713
 20
660.55920573263097
 40
1.0000000000000004
 50
0
 51
89.999999999999915
  0
ARC
  8
_0-1_計細線
  6
CONTINUOUS
 62
    3
 10
957.19692316040948
 20
662.5592057326304
 40
1.0000000000000004
 50
209.99999999998889
 51
269.99999999999977
  0
ARC
  8
_0-1_計細線
  6
CONTINUOUS
 62
    3
 10
955.46487235284076
 20
661.55920573263063
 40
1.0000000000000004
 50
30.000000000000544
 51
89.999999999999929
  0
LINE
  8
_0-1_計細線
  6
CONTINUOUS
 62
    3
 10
957.66487235173713
 20
661.55920573263063
 11
957.19692316040948
 21
661.55920573263063
  0
ARC
  8
_0-1_計細線
  6
CONTINUOUS
 62
    3
 10
948.26487235394416
 20
660.55920573263097
 40
1.0000000000000004
 50
89.999999999999915
 51
179.99999999999983
  0
ARC
  8
_0-1_計細線
  6
CONTINUOUS
 62
    3
 10
948.73282154527203
 20
662.5592057326304
 40
1.0000000000000004
 50
269.99999999999977
 51
330.00000000001364
  0
ARC
  8
_0-1_計細線
  6
CONTINUOUS
 62
    3
 10
950.46487235284076
 20
661.55920573263063
 40
1.0000000000000004
 50
90.000000000013031
 51
149.99999999999622
  0
LINE
  8
_0-1_計細線
  6
CONTINUOUS
 62
    3
 10
948.26487235394416
 20
661.55920573263063
 11
948.73282154527203
 21
661.55920573263063
  0
ARC
  8
_0-1_計細線
  6
CONTINUOUS
 62
    3
 10
958.16487235173724
 20
659.15920573263111
 40
0.5000000000000002
 50
269.99999999999977
 51
359.99999999999966
  0
LINE
  8
_0-1_計細線
  6
CONTINUOUS
 62
    3
 10
958.66487235173713
 20
660.55920573263097
 11
958.66487235173713
 21
659.15920573263111
  0
ARC
  8
_0-1_計細線
  6
CONTINUOUS
 62
    3
 10
947.76487235394427
 20
659.15920573263111
 40
0.5000000000000002
 50
179.99999999999983
 51
269.99999999999977
  0
LINE
  8
_0-1_計細線
  6
CONTINUOUS
 62
    3
 10
947.26487235394438
 20
660.55920573263097
 11
947.26487235394438
 21
659.15920573263111
  0
ARC
  8
_0-1_計細線
  6
CONTINUOUS
 62
    3
 10
955.66487235173713
 20
657.65920573263099
 40
1.0000000000000004
 50
89.999999999999915
 51
179.99999999999983
  0
LINE
  8
_0-1_計細線
  6
CONTINUOUS
 62
    3
 10
955.66487235173713
 20
658.65920573263054
 11
958.16487235173724
 21
658.65920573263054
  0
ARC
  8
_0-1_計細線
  6
CONTINUOUS
 62
    3
 10
950.26487235173704
 20
657.65920573263099
 40
1.0000000000000004
 50
0
 51
89.999999999999915
  0
LINE
  8
_0-1_計細線
  6
CONTINUOUS
 62
    3
 10
950.26487235394438
 20
658.65920573263054
 11
947.76487235394427
 21
658.65920573263054
  0
LINE
  8
_0-1_計細線
  6
CONTINUOUS
 62
    3
 10
950.46487235284076
 20
662.5592057326304
 11
955.46487235284076
 21
662.5592057326304
  0
LINE
  8
_0-1_計細線
  6
CONTINUOUS
 62
    3
 10
954.66487235284092
 20
637.55920573263131
 11
954.66487235173713
 21
657.65920573263099
  0
LINE
  8
_0-1_計細線
  6
CONTINUOUS
 62
    3
 10
951.26487235284071
 20
637.55920573263131
 11
951.26487235173727
 21
657.65920573263099
  0
LINE
  8
_0-1_計細線
  6
CONTINUOUS
 62
    3
 10
951.26487235284071
 20
637.55920573263131
 11
954.66487235284092
 21
637.55920573263131
  0
ARC
  8
_0-1_計細線
  6
CONTINUOUS
 62
    3
 10
974.36487235175537
 20
660.55920573263097
 40
1.0000000000000004
 50
0
 51
89.999999999999915
  0
ARC
  8
_0-1_計細線
  6
CONTINUOUS
 62
    3
 10
973.89692316042772
 20
662.5592057326304
 40
1.0000000000000004
 50
209.99999999999542
 51
269.99999999999977
  0
ARC
  8
_0-1_計細線
  6
CONTINUOUS
 62
    3
 10
972.16487235285911
 20
661.55920573263063
 40
1.0000000000000004
 50
30.000000000000544
 51
89.999999999999929
  0
LINE
  8
_0-1_計細線
  6
CONTINUOUS
 62
    3
 10
974.36487235175537
 20
661.55920573263063
 11
973.89692316042772
 21
661.55920573263063
  0
ARC
  8
_0-1_計細線
  6
CONTINUOUS
 62
    3
 10
964.96487235396239
 20
660.55920573263097
 40
1.0000000000000004
 50
89.999999999999915
 51
179.99999999999983
  0
ARC
  8
_0-1_計細線
  6
CONTINUOUS
 62
    3
 10
965.43282154528981
 20
662.5592057326304
 40
1.0000000000000004
 50
269.99999999999977
 51
330.00000000001364
  0
ARC
  8
_0-1_計細線
  6
CONTINUOUS
 62
    3
 10
967.16487235285865
 20
661.55920573263063
 40
1.0000000000000004
 50
89.999999999999915
 51
149.99999999999946
  0
LINE
  8
_0-1_計細線
  6
CONTINUOUS
 62
    3
 10
964.96487235396239
 20
661.55920573263063
 11
965.43282154528981
 21
661.55920573263063
  0
ARC
  8
_0-1_計細線
  6
CONTINUOUS
 62
    3
 10
974.86487235175503
 20
659.15920573263111
 40
0.5000000000000002
 50
269.99999999999977
 51
359.99999999999966
  0
LINE
  8
_0-1_計細線
  6
CONTINUOUS
 62
    3
 10
975.36487235175514
 20
660.55920573263097
 11
975.36487235175514
 21
659.15920573263111
  0
ARC
  8
_0-1_計細線
  6
CONTINUOUS
 62
    3
 10
964.46487235396262
 20
659.15920573263111
 40
0.5000000000000002
 50
179.99999999999983
 51
269.99999999999977
  0
LINE
  8
_0-1_計細線
  6
CONTINUOUS
 62
    3
 10
963.96487235396216
 20
660.55920573263097
 11
963.96487235396216
 21
659.15920573263111
  0
ARC
  8
_0-1_計細線
  6
CONTINUOUS
 62
    3
 10
972.36487235175514
 20
657.65920573263099
 40
1.0000000000000004
 50
89.999999999999915
 51
179.99999999999983
  0
LINE
  8
_0-1_計細線
  6
CONTINUOUS
 62
    3
 10
972.36487235175514
 20
658.65920573263054
 11
974.86487235175503
 21
658.65920573263054
  0
ARC
  8
_0-1_計細線
  6
CONTINUOUS
 62
    3
 10
966.96487235175528
 20
657.65920573263099
 40
1.0000000000000004
 50
0
 51
89.999999999999915
  0
LINE
  8
_0-1_計細線
  6
CONTINUOUS
 62
    3
 10
966.96487235396273
 20
658.65920573263054
 11
964.46487235396262
 21
658.65920573263054
  0
LINE
  8
_0-1_計細線
  6
CONTINUOUS
 62
    3
 10
967.16487235285865
 20
662.5592057326304
 11
972.16487235285911
 21
662.5592057326304
  0
LINE
  8
_0-1_計細線
  6
CONTINUOUS
 62
    3
 10
971.3648723528587
 20
637.55920573263131
 11
971.36487235175537
 21
657.65920573263099
  0
LINE
  8
_0-1_計細線
  6
CONTINUOUS
 62
    3
 10
967.96487235285883
 20
637.55920573263131
 11
967.96487235175505
 21
657.65920573263099
  0
LINE
  8
_0-1_計細線
  6
CONTINUOUS
 62
    3
 10
967.96487235285883
 20
637.55920573263131
 11
971.3648723528587
 21
637.55920573263131
  0
ARC
  8
_0-1_計細線
  6
CONTINUOUS
 62
    3
 10
991.36487235192703
 20
660.55920573263097
 40
1.0000000000000004
 50
0
 51
89.999999999999915
  0
ARC
  8
_0-1_計細線
  6
CONTINUOUS
 62
    3
 10
990.89692316059973
 20
662.5592057326304
 40
1.0000000000000004
 50
209.99999999998889
 51
269.99999999999977
  0
ARC
  8
_0-1_計細線
  6
CONTINUOUS
 62
    3
 10
989.16487235303066
 20
661.55920573263063
 40
1.0000000000000004
 50
29.999999999997289
 51
89.999999999999929
  0
LINE
  8
_0-1_計細線
  6
CONTINUOUS
 62
    3
 10
991.36487235192703
 20
661.55920573263063
 11
990.89692316059973
 21
661.55920573263063
  0
ARC
  8
_0-1_計細線
  6
CONTINUOUS
 62
    3
 10
981.96487235413417
 20
660.55920573263097
 40
1.0000000000000004
 50
89.999999999999915
 51
179.99999999999983
  0
ARC
  8
_0-1_計細線
  6
CONTINUOUS
 62
    3
 10
982.43282154546182
 20
662.5592057326304
 40
1.0000000000000004
 50
269.99999999999977
 51
330.00000000000387
  0
ARC
  8
_0-1_計細線
  6
CONTINUOUS
 62
    3
 10
984.16487235303089
 20
661.55920573263063
 40
1.0000000000000004
 50
90.000000000032571
 51
150.00000000001575
  0
LINE
  8
_0-1_計細線
  6
CONTINUOUS
 62
    3
 10
981.96487235413417
 20
661.55920573263063
 11
982.43282154546182
 21
661.55920573263063
  0
ARC
  8
_0-1_計細線
  6
CONTINUOUS
 62
    3
 10
991.86487235192681
 20
659.15920573263111
 40
0.5000000000000002
 50
269.99999999999977
 51
359.99999999999966
  0
LINE
  8
_0-1_計細線
  6
CONTINUOUS
 62
    3
 10
992.36487235192726
 20
660.55920573263097
 11
992.36487235192726
 21
659.15920573263111
  0
ARC
  8
_0-1_計細線
  6
CONTINUOUS
 62
    3
 10
981.46487235413417
 20
659.15920573263111
 40
0.5000000000000002
 50
179.99999999999983
 51
269.99999999999977
  0
LINE
  8
_0-1_計細線
  6
CONTINUOUS
 62
    3
 10
980.96487235413406
 20
660.55920573263097
 11
980.96487235413406
 21
659.15920573263111
  0
ARC
  8
_0-1_計細線
  6
CONTINUOUS
 62
    3
 10
989.36487235192715
 20
657.65920573263099
 40
1.0000000000000004
 50
89.999999999999915
 51
179.99999999999983
  0
LINE
  8
_0-1_計細線
  6
CONTINUOUS
 62
    3
 10
989.36487235192715
 20
658.65920573263054
 11
991.86487235192681
 21
658.65920573263054
  0
ARC
  8
_0-1_計細線
  6
CONTINUOUS
 62
    3
 10
983.96487235192717
 20
657.65920573263099
 40
1.0000000000000004
 50
0
 51
89.999999999999915
  0
LINE
  8
_0-1_計細線
  6
CONTINUOUS
 62
    3
 10
983.96487235413417
 20
658.65920573263054
 11
981.46487235413417
 21
658.65920573263054
  0
LINE
  8
_0-1_計細線
  6
CONTINUOUS
 62
    3
 10
984.16487235303089
 20
662.5592057326304
 11
989.16487235303066
 21
662.5592057326304
  0
LINE
  8
_0-1_計細線
  6
CONTINUOUS
 62
    3
 10
988.36487235303071
 20
637.55920573263131
 11
988.36487235192692
 21
657.65920573263099
  0
LINE
  8
_0-1_計細線
  6
CONTINUOUS
 62
    3
 10
984.96487235303084
 20
637.55920573263131
 11
984.96487235192672
 21
657.65920573263099
  0
LINE
  8
_0-1_計細線
  6
CONTINUOUS
 62
    3
 10
984.96487235303084
 20
637.55920573263131
 11
988.36487235303071
 21
637.55920573263131
  0
ARC
  8
_0-1_計細線
  6
CONTINUOUS
 62
    3
 10
1008.3648723520987
 20
660.55920573263097
 40
1.0000000000000004
 50
0
 51
89.999999999999915
  0
ARC
  8
_0-1_計細線
  6
CONTINUOUS
 62
    3
 10
1007.8969231607711
 20
662.5592057326304
 40
1.0000000000000004
 50
209.99999999998889
 51
269.99999999999977
  0
ARC
  8
_0-1_計細線
  6
CONTINUOUS
 62
    3
 10
1006.1648723532026
 20
661.55920573263063
 40
1.0000000000000004
 50
30.000000000007059
 51
89.999999999999929
  0
LINE
  8
_0-1_計細線
  6
CONTINUOUS
 62
    3
 10
1008.3648723520987
 20
661.55920573263063
 11
1007.8969231607711
 21
661.55920573263063
  0
ARC
  8
_0-1_計細線
  6
CONTINUOUS
 62
    3
 10
998.96487235430584
 20
660.55920573263097
 40
1.0000000000000004
 50
89.999999999999915
 51
179.99999999999983
  0
ARC
  8
_0-1_計細線
  6
CONTINUOUS
 62
    3
 10
999.43282154563371
 20
662.5592057326304
 40
1.0000000000000004
 50
269.99999999999977
 51
330.00000000000387
  0
ARC
  8
_0-1_計細線
  6
CONTINUOUS
 62
    3
 10
1001.1648723532023
 20
661.55920573263063
 40
1.0000000000000004
 50
90.000000000013031
 51
149.99999999999946
  0
LINE
  8
_0-1_計細線
  6
CONTINUOUS
 62
    3
 10
998.96487235430584
 20
661.55920573263063
 11
999.43282154563371
 21
661.55920573263063
  0
ARC
  8
_0-1_計細線
  6
CONTINUOUS
 62
    3
 10
1008.8648723520987
 20
659.15920573263111
 40
0.5000000000000002
 50
269.99999999999977
 51
359.99999999999966
  0
LINE
  8
_0-1_計細線
  6
CONTINUOUS
 62
    3
 10
1009.3648723520987
 20
660.55920573263097
 11
1009.3648723520987
 21
659.15920573263111
  0
ARC
  8
_0-1_計細線
  6
CONTINUOUS
 62
    3
 10
998.46487235430573
 20
659.15920573263111
 40
0.5000000000000002
 50
179.99999999999983
 51
269.99999999999977
  0
LINE
  8
_0-1_計細線
  6
CONTINUOUS
 62
    3
 10
997.96487235430607
 20
660.55920573263097
 11
997.96487235430607
 21
659.15920573263111
  0
ARC
  8
_0-1_計細線
  6
CONTINUOUS
 62
    3
 10
1006.3648723520988
 20
657.65920573263099
 40
1.0000000000000004
 50
89.999999999999915
 51
179.99999999999983
  0
LINE
  8
_0-1_計細線
  6
CONTINUOUS
 62
    3
 10
1006.3648723520988
 20
658.65920573263054
 11
1008.8648723520987
 21
658.65920573263054
  0
ARC
  8
_0-1_計細線
  6
CONTINUOUS
 62
    3
 10
1000.9648723520986
 20
657.65920573263099
 40
1.0000000000000004
 50
0
 51
89.999999999999915
  0
LINE
  8
_0-1_計細線
  6
CONTINUOUS
 62
    3
 10
1000.9648723543063
 20
658.65920573263054
 11
998.46487235430573
 21
658.65920573263054
  0
LINE
  8
_0-1_計細線
  6
CONTINUOUS
 62
    3
 10
1001.1648723532023
 20
662.5592057326304
 11
1006.1648723532026
 21
662.5592057326304
  0
LINE
  8
_0-1_計細線
  6
CONTINUOUS
 62
    3
 10
1005.3648723532026
 20
637.55920573263131
 11
1005.3648723520987
 21
657.65920573263099
  0
LINE
  8
_0-1_計細線
  6
CONTINUOUS
 62
    3
 10
1001.9648723532022
 20
637.55920573263131
 11
1001.9648723520986
 21
657.65920573263099
  0
LINE
  8
_0-1_計細線
  6
CONTINUOUS
 62
    3
 10
1001.9648723532022
 20
637.55920573263131
 11
1005.3648723532026
 21
637.55920573263131
  0
ARC
  8
_0-1_計細線
  6
CONTINUOUS
 62
    3
 10
1025.3648723522704
 20
660.55920573263097
 40
1.0000000000000004
 50
0
 51
89.999999999999915
  0
ARC
  8
_0-1_計細線
  6
CONTINUOUS
 62
    3
 10
1024.8969231609431
 20
662.5592057326304
 40
1.0000000000000004
 50
209.99999999998565
 51
269.99999999999977
  0
ARC
  8
_0-1_計細線
  6
CONTINUOUS
 62
    3
 10
1023.1648723533742
 20
661.55920573263063
 40
1.0000000000000004
 50
30.000000000000544
 51
89.999999999999929
  0
LINE
  8
_0-1_計細線
  6
CONTINUOUS
 62
    3
 10
1025.3648723522704
 20
661.55920573263063
 11
1024.8969231609431
 21
661.55920573263063
  0
ARC
  8
_0-1_計細線
  6
CONTINUOUS
 62
    3
 10
1015.964872354478
 20
660.55920573263097
 40
1.0000000000000004
 50
89.999999999999915
 51
179.99999999999983
  0
ARC
  8
_0-1_計細線
  6
CONTINUOUS
 62
    3
 10
1016.4328215458055
 20
662.5592057326304
 40
1.0000000000000004
 50
269.99999999999977
 51
330.00000000001364
  0
ARC
  8
_0-1_計細線
  6
CONTINUOUS
 62
    3
 10
1018.1648723533743
 20
661.55920573263063
 40
1.0000000000000004
 50
89.999999999999915
 51
149.99999999999946
  0
LINE
  8
_0-1_計細線
  6
CONTINUOUS
 62
    3
 10
1015.964872354478
 20
661.55920573263063
 11
1016.4328215458055
 21
661.55920573263063
  0
ARC
  8
_0-1_計細線
  6
CONTINUOUS
 62
    3
 10
1025.8648723522706
 20
659.15920573263111
 40
0.5000000000000002
 50
269.99999999999977
 51
359.99999999999966
  0
LINE
  8
_0-1_計細線
  6
CONTINUOUS
 62
    3
 10
1026.3648723522706
 20
660.55920573263097
 11
1026.3648723522706
 21
659.15920573263111
  0
ARC
  8
_0-1_計細線
  6
CONTINUOUS
 62
    3
 10
1015.4648723544778
 20
659.15920573263111
 40
0.5000000000000002
 50
179.99999999999983
 51
269.99999999999977
  0
LINE
  8
_0-1_計細線
  6
CONTINUOUS
 62
    3
 10
1014.9648723544778
 20
660.55920573263097
 11
1014.9648723544778
 21
659.15920573263111
  0
ARC
  8
_0-1_計細線
  6
CONTINUOUS
 62
    3
 10
1023.3648723522707
 20
657.65920573263099
 40
1.0000000000000004
 50
89.999999999999915
 51
179.99999999999983
  0
LINE
  8
_0-1_計細線
  6
CONTINUOUS
 62
    3
 10
1023.3648723522707
 20
658.65920573263054
 11
1025.8648723522706
 21
658.65920573263054
  0
ARC
  8
_0-1_計細線
  6
CONTINUOUS
 62
    3
 10
1017.9648723522706
 20
657.65920573263099
 40
1.0000000000000004
 50
0
 51
89.999999999999915
  0
LINE
  8
_0-1_計細線
  6
CONTINUOUS
 62
    3
 10
1017.9648723544778
 20
658.65920573263054
 11
1015.4648723544778
 21
658.65920573263054
  0
LINE
  8
_0-1_計細線
  6
CONTINUOUS
 62
    3
 10
1018.1648723533743
 20
662.5592057326304
 11
1023.1648723533742
 21
662.5592057326304
  0
LINE
  8
_0-1_計細線
  6
CONTINUOUS
 62
    3
 10
1022.3648723533744
 20
637.55920573263131
 11
1022.3648723522706
 21
657.65920573263099
  0
LINE
  8
_0-1_計細線
  6
CONTINUOUS
 62
    3
 10
1018.9648723533742
 20
637.55920573263131
 11
1018.9648723522703
 21
657.65920573263099
  0
LINE
  8
_0-1_計細線
  6
CONTINUOUS
 62
    3
 10
1018.9648723533742
 20
637.55920573263131
 11
1022.3648723533744
 21
637.55920573263131
  0
ARC
  8
_0-1_計細線
  6
CONTINUOUS
 62
    3
 10
1270.2648721672294
 20
660.55920573263097
 40
1.0000000000000004
 50
89.999999999999915
 51
179.99999999999983
  0
ARC
  8
_0-1_計細線
  6
CONTINUOUS
 62
    3
 10
1270.732821358557
 20
662.5592057326304
 40
1.0000000000000004
 50
269.99999999999977
 51
330.00000000001364
  0
ARC
  8
_0-1_計細線
  6
CONTINUOUS
 62
    3
 10
1272.4648721661256
 20
661.55920573263063
 40
1.0000000000000004
 50
89.999999999999915
 51
149.99999999998971
  0
LINE
  8
_0-1_計細線
  6
CONTINUOUS
 62
    3
 10
1270.2648721672294
 20
661.55920573263063
 11
1270.732821358557
 21
661.55920573263063
  0
ARC
  8
_0-1_計細線
  6
CONTINUOUS
 62
    3
 10
1279.6648721650222
 20
660.55920573263097
 40
1.0000000000000004
 50
0
 51
89.999999999999915
  0
ARC
  8
_0-1_計細線
  6
CONTINUOUS
 62
    3
 10
1279.1969229736947
 20
662.5592057326304
 40
1.0000000000000004
 50
209.99999999998565
 51
269.99999999999977
  0
ARC
  8
_0-1_計細線
  6
CONTINUOUS
 62
    3
 10
1277.464872166126
 20
661.55920573263063
 40
1.0000000000000004
 50
30.000000000003801
 51
89.999999999986969
  0
LINE
  8
_0-1_計細線
  6
CONTINUOUS
 62
    3
 10
1279.6648721650222
 20
661.55920573263063
 11
1279.1969229736947
 21
661.55920573263063
  0
ARC
  8
_0-1_計細線
  6
CONTINUOUS
 62
    3
 10
1269.7648721672292
 20
659.15920573263111
 40
0.5000000000000002
 50
179.99999999999983
 51
269.99999999999977
  0
LINE
  8
_0-1_計細線
  6
CONTINUOUS
 62
    3
 10
1269.2648721672294
 20
660.55920573263097
 11
1269.2648721672294
 21
659.15920573263111
  0
ARC
  8
_0-1_計細線
  6
CONTINUOUS
 62
    3
 10
1280.1648721650224
 20
659.15920573263111
 40
0.5000000000000002
 50
269.99999999999977
 51
359.99999999999966
  0
LINE
  8
_0-1_計細線
  6
CONTINUOUS
 62
    3
 10
1280.6648721650222
 20
660.55920573263097
 11
1280.6648721650222
 21
659.15920573263111
  0
ARC
  8
_0-1_計細線
  6
CONTINUOUS
 62
    3
 10
1272.2648721672294
 20
657.65920573263099
 40
1.0000000000000004
 50
0
 51
89.999999999999915
  0
LINE
  8
_0-1_計細線
  6
CONTINUOUS
 62
    3
 10
1272.2648721672294
 20
658.65920573263054
 11
1269.7648721672292
 21
658.65920573263054
  0
ARC
  8
_0-1_計細線
  6
CONTINUOUS
 62
    3
 10
1277.6648721672295
 20
657.65920573263099
 40
1.0000000000000004
 50
89.999999999999915
 51
179.99999999999983
  0
LINE
  8
_0-1_計細線
  6
CONTINUOUS
 62
    3
 10
1277.6648721650222
 20
658.65920573263054
 11
1280.1648721650224
 21
658.65920573263054
  0
LINE
  8
_0-1_計細線
  6
CONTINUOUS
 62
    3
 10
1277.464872166126
 20
662.5592057326304
 11
1272.4648721661256
 21
662.5592057326304
  0
LINE
  8
_0-1_計細線
  6
CONTINUOUS
 62
    3
 10
1273.2648721661258
 20
637.55920573263131
 11
1273.2648721672294
 21
657.65920573263099
  0
LINE
  8
_0-1_計細線
  6
CONTINUOUS
 62
    3
 10
1276.6648721661259
 20
637.55920573263131
 11
1276.6648721672295
 21
657.65920573263099
  0
LINE
  8
_0-1_計細線
  6
CONTINUOUS
 62
    3
 10
1276.6648721661259
 20
637.55920573263131
 11
1273.2648721661258
 21
637.55920573263131
  0
ARC
  8
_0-1_計細線
  6
CONTINUOUS
 62
    3
 10
1253.6648721669039
 20
660.55920573263097
 40
1.0000000000000004
 50
89.999999999999915
 51
179.99999999999983
  0
ARC
  8
_0-1_計細線
  6
CONTINUOUS
 62
    3
 10
1254.1328213582319
 20
662.5592057326304
 40
1.0000000000000004
 50
269.99999999999977
 51
330.00000000000711
  0
ARC
  8
_0-1_計細線
  6
CONTINUOUS
 62
    3
 10
1255.8648721658005
 20
661.55920573263063
 40
1.0000000000000004
 50
89.999999999999915
 51
150.00000000000273
  0
LINE
  8
_0-1_計細線
  6
CONTINUOUS
 62
    3
 10
1253.6648721669039
 20
661.55920573263063
 11
1254.1328213582319
 21
661.55920573263063
  0
ARC
  8
_0-1_計細線
  6
CONTINUOUS
 62
    3
 10
1263.0648721646971
 20
660.55920573263097
 40
1.0000000000000004
 50
0
 51
89.999999999999915
  0
ARC
  8
_0-1_計細線
  6
CONTINUOUS
 62
    3
 10
1262.5969229733691
 20
662.5592057326304
 40
1.0000000000000004
 50
209.99999999999216
 51
269.99999999999977
  0
ARC
  8
_0-1_計細線
  6
CONTINUOUS
 62
    3
 10
1260.8648721658003
 20
661.55920573263063
 40
1.0000000000000004
 50
29.999999999997289
 51
89.999999999986969
  0
LINE
  8
_0-1_計細線
  6
CONTINUOUS
 62
    3
 10
1263.0648721646971
 20
661.55920573263063
 11
1262.5969229733691
 21
661.55920573263063
  0
ARC
  8
_0-1_計細線
  6
CONTINUOUS
 62
    3
 10
1253.1648721669039
 20
659.15920573263111
 40
0.5000000000000002
 50
179.99999999999983
 51
269.99999999999977
  0
LINE
  8
_0-1_計細線
  6
CONTINUOUS
 62
    3
 10
1252.6648721669042
 20
660.55920573263097
 11
1252.6648721669042
 21
659.15920573263111
  0
ARC
  8
_0-1_計細線
  6
CONTINUOUS
 62
    3
 10
1263.5648721646971
 20
659.15920573263111
 40
0.5000000000000002
 50
269.99999999999977
 51
359.99999999999966
  0
LINE
  8
_0-1_計細線
  6
CONTINUOUS
 62
    3
 10
1264.0648721646969
 20
660.55920573263097
 11
1264.0648721646969
 21
659.15920573263111
  0
ARC
  8
_0-1_計細線
  6
CONTINUOUS
 62
    3
 10
1255.6648721669042
 20
657.65920573263099
 40
1.0000000000000004
 50
0
 51
89.999999999999915
  0
LINE
  8
_0-1_計細線
  6
CONTINUOUS
 62
    3
 10
1255.6648721669042
 20
658.65920573263054
 11
1253.1648721669039
 21
658.65920573263054
  0
ARC
  8
_0-1_計細線
  6
CONTINUOUS
 62
    3
 10
1261.064872166904
 20
657.65920573263099
 40
1.0000000000000004
 50
89.999999999999915
 51
179.99999999999983
  0
LINE
  8
_0-1_計細線
  6
CONTINUOUS
 62
    3
 10
1261.0648721646967
 20
658.65920573263054
 11
1263.5648721646971
 21
658.65920573263054
  0
LINE
  8
_0-1_計細線
  6
CONTINUOUS
 62
    3
 10
1260.8648721658003
 20
662.5592057326304
 11
1255.8648721658005
 21
662.5592057326304
  0
LINE
  8
_0-1_計細線
  6
CONTINUOUS
 62
    3
 10
1256.6648721658003
 20
637.55920573263131
 11
1256.6648721669039
 21
657.65920573263099
  0
LINE
  8
_0-1_計細線
  6
CONTINUOUS
 62
    3
 10
1260.0648721658008
 20
637.55920573263131
 11
1260.0648721669043
 21
657.65920573263099
  0
LINE
  8
_0-1_計細線
  6
CONTINUOUS
 62
    3
 10
1260.0648721658008
 20
637.55920573263131
 11
1256.6648721658003
 21
637.55920573263131
  0
ARC
  8
_0-1_計細線
  6
CONTINUOUS
 62
    3
 10
1236.9648721668859
 20
660.55920573263097
 40
1.0000000000000004
 50
89.999999999999915
 51
179.99999999999983
  0
ARC
  8
_0-1_計細線
  6
CONTINUOUS
 62
    3
 10
1237.4328213582132
 20
662.5592057326304
 40
1.0000000000000004
 50
269.99999999999977
 51
330.00000000001364
  0
ARC
  8
_0-1_計細線
  6
CONTINUOUS
 62
    3
 10
1239.1648721657821
 20
661.55920573263063
 40
1.0000000000000004
 50
89.999999999999915
 51
149.99999999999622
  0
LINE
  8
_0-1_計細線
  6
CONTINUOUS
 62
    3
 10
1236.9648721668859
 20
661.55920573263063
 11
1237.4328213582132
 21
661.55920573263063
  0
ARC
  8
_0-1_計細線
  6
CONTINUOUS
 62
    3
 10
1246.3648721646789
 20
660.55920573263097
 40
1.0000000000000004
 50
0
 51
89.999999999999915
  0
ARC
  8
_0-1_計細線
  6
CONTINUOUS
 62
    3
 10
1245.8969229733516
 20
662.5592057326304
 40
1.0000000000000004
 50
209.99999999998565
 51
269.99999999999977
  0
ARC
  8
_0-1_計細線
  6
CONTINUOUS
 62
    3
 10
1244.1648721657825
 20
661.55920573263063
 40
1.0000000000000004
 50
30.000000000003801
 51
89.999999999999929
  0
LINE
  8
_0-1_計細線
  6
CONTINUOUS
 62
    3
 10
1246.3648721646789
 20
661.55920573263063
 11
1245.8969229733516
 21
661.55920573263063
  0
ARC
  8
_0-1_計細線
  6
CONTINUOUS
 62
    3
 10
1236.4648721668864
 20
659.15920573263111
 40
0.5000000000000002
 50
179.99999999999983
 51
269.99999999999977
  0
LINE
  8
_0-1_計細線
  6
CONTINUOUS
 62
    3
 10
1235.9648721668859
 20
660.55920573263097
 11
1235.9648721668859
 21
659.15920573263111
  0
ARC
  8
_0-1_計細線
  6
CONTINUOUS
 62
    3
 10
1246.8648721646789
 20
659.15920573263111
 40
0.5000000000000002
 50
269.99999999999977
 51
359.99999999999966
  0
LINE
  8
_0-1_計細線
  6
CONTINUOUS
 62
    3
 10
1247.3648721646789
 20
660.55920573263097
 11
1247.3648721646789
 21
659.15920573263111
  0
ARC
  8
_0-1_計細線
  6
CONTINUOUS
 62
    3
 10
1238.9648721668859
 20
657.65920573263099
 40
1.0000000000000004
 50
0
 51
89.999999999999915
  0
LINE
  8
_0-1_計細線
  6
CONTINUOUS
 62
    3
 10
1238.9648721668859
 20
658.65920573263054
 11
1236.4648721668864
 21
658.65920573263054
  0
ARC
  8
_0-1_計細線
  6
CONTINUOUS
 62
    3
 10
1244.364872166886
 20
657.65920573263099
 40
1.0000000000000004
 50
89.999999999999915
 51
179.99999999999983
  0
LINE
  8
_0-1_計細線
  6
CONTINUOUS
 62
    3
 10
1244.3648721646784
 20
658.65920573263054
 11
1246.8648721646789
 21
658.65920573263054
  0
LINE
  8
_0-1_計細線
  6
CONTINUOUS
 62
    3
 10
1244.1648721657825
 20
662.5592057326304
 11
1239.1648721657821
 21
662.5592057326304
  0
LINE
  8
_0-1_計細線
  6
CONTINUOUS
 62
    3
 10
1239.9648721657827
 20
637.55920573263131
 11
1239.9648721668859
 21
657.65920573263099
  0
LINE
  8
_0-1_計細線
  6
CONTINUOUS
 62
    3
 10
1243.3648721657821
 20
637.55920573263131
 11
1243.364872166886
 21
657.65920573263099
  0
LINE
  8
_0-1_計細線
  6
CONTINUOUS
 62
    3
 10
1243.3648721657821
 20
637.55920573263131
 11
1239.9648721657827
 21
637.55920573263131
  0
ARC
  8
_0-1_計細線
  6
CONTINUOUS
 62
    3
 10
1219.9648721667143
 20
660.55920573263097
 40
1.0000000000000004
 50
89.999999999999915
 51
179.99999999999983
  0
ARC
  8
_0-1_計細線
  6
CONTINUOUS
 62
    3
 10
1220.4328213580416
 20
662.5592057326304
 40
1.0000000000000004
 50
269.99999999999977
 51
330.00000000000711
  0
ARC
  8
_0-1_計細線
  6
CONTINUOUS
 62
    3
 10
1222.1648721656104
 20
661.55920573263063
 40
1.0000000000000004
 50
89.999999999999915
 51
150.00000000000273
  0
LINE
  8
_0-1_計細線
  6
CONTINUOUS
 62
    3
 10
1219.9648721667143
 20
661.55920573263063
 11
1220.4328213580416
 21
661.55920573263063
  0
ARC
  8
_0-1_計細線
  6
CONTINUOUS
 62
    3
 10
1229.364872164507
 20
660.55920573263097
 40
1.0000000000000004
 50
0
 51
89.999999999999915
  0
ARC
  8
_0-1_計細線
  6
CONTINUOUS
 62
    3
 10
1228.8969229731795
 20
662.5592057326304
 40
1.0000000000000004
 50
209.99999999998565
 51
269.99999999999977
  0
ARC
  8
_0-1_計細線
  6
CONTINUOUS
 62
    3
 10
1227.1648721656102
 20
661.55920573263063
 40
1.0000000000000004
 50
29.999999999990774
 51
89.99999999996092
  0
LINE
  8
_0-1_計細線
  6
CONTINUOUS
 62
    3
 10
1229.364872164507
 20
661.55920573263063
 11
1228.8969229731795
 21
661.55920573263063
  0
ARC
  8
_0-1_計細線
  6
CONTINUOUS
 62
    3
 10
1219.464872166714
 20
659.15920573263111
 40
0.5000000000000002
 50
179.99999999999983
 51
269.99999999999977
  0
LINE
  8
_0-1_計細線
  6
CONTINUOUS
 62
    3
 10
1218.964872166714
 20
660.55920573263097
 11
1218.964872166714
 21
659.15920573263111
  0
ARC
  8
_0-1_計細線
  6
CONTINUOUS
 62
    3
 10
1229.8648721645072
 20
659.15920573263111
 40
0.5000000000000002
 50
269.99999999999977
 51
359.99999999999966
  0
LINE
  8
_0-1_計細線
  6
CONTINUOUS
 62
    3
 10
1230.3648721645072
 20
660.55920573263097
 11
1230.3648721645072
 21
659.15920573263111
  0
ARC
  8
_0-1_計細線
  6
CONTINUOUS
 62
    3
 10
1221.964872166714
 20
657.65920573263099
 40
1.0000000000000004
 50
0
 51
89.999999999999915
  0
LINE
  8
_0-1_計細線
  6
CONTINUOUS
 62
    3
 10
1221.964872166714
 20
658.65920573263054
 11
1219.464872166714
 21
658.65920573263054
  0
ARC
  8
_0-1_計細線
  6
CONTINUOUS
 62
    3
 10
1227.3648721667139
 20
657.65920573263099
 40
1.0000000000000004
 50
89.999999999999915
 51
179.99999999999983
  0
LINE
  8
_0-1_計細線
  6
CONTINUOUS
 62
    3
 10
1227.3648721645066
 20
658.65920573263054
 11
1229.8648721645072
 21
658.65920573263054
  0
LINE
  8
_0-1_計細線
  6
CONTINUOUS
 62
    3
 10
1227.1648721656102
 20
662.5592057326304
 11
1222.1648721656104
 21
662.5592057326304
  0
LINE
  8
_0-1_計細線
  6
CONTINUOUS
 62
    3
 10
1222.9648721656106
 20
637.55920573263131
 11
1222.9648721667145
 21
657.65920573263099
  0
LINE
  8
_0-1_計細線
  6
CONTINUOUS
 62
    3
 10
1226.3648721656104
 20
637.55920573263131
 11
1226.3648721667143
 21
657.65920573263099
  0
LINE
  8
_0-1_計細線
  6
CONTINUOUS
 62
    3
 10
1226.3648721656104
 20
637.55920573263131
 11
1222.9648721656106
 21
637.55920573263131
  0
ARC
  8
_0-1_計細線
  6
CONTINUOUS
 62
    3
 10
1202.9648721665424
 20
660.55920573263097
 40
1.0000000000000004
 50
89.999999999999915
 51
179.99999999999983
  0
ARC
  8
_0-1_計細線
  6
CONTINUOUS
 62
    3
 10
1203.4328213578699
 20
662.5592057326304
 40
1.0000000000000004
 50
269.99999999999977
 51
330.00000000000711
  0
ARC
  8
_0-1_計細線
  6
CONTINUOUS
 62
    3
 10
1205.1648721654387
 20
661.55920573263063
 40
1.0000000000000004
 50
89.999999999999915
 51
150.00000000000273
  0
LINE
  8
_0-1_計細線
  6
CONTINUOUS
 62
    3
 10
1202.9648721665424
 20
661.55920573263063
 11
1203.4328213578699
 21
661.55920573263063
  0
ARC
  8
_0-1_計細線
  6
CONTINUOUS
 62
    3
 10
1212.3648721643353
 20
660.55920573263097
 40
1.0000000000000004
 50
0
 51
89.999999999999915
  0
ARC
  8
_0-1_計細線
  6
CONTINUOUS
 62
    3
 10
1211.8969229730073
 20
662.5592057326304
 40
1.0000000000000004
 50
209.99999999999216
 51
269.99999999999977
  0
ARC
  8
_0-1_計細線
  6
CONTINUOUS
 62
    3
 10
1210.1648721654387
 20
661.55920573263063
 40
1.0000000000000004
 50
30.000000000003801
 51
89.999999999986969
  0
LINE
  8
_0-1_計細線
  6
CONTINUOUS
 62
    3
 10
1212.3648721643353
 20
661.55920573263063
 11
1211.8969229730073
 21
661.55920573263063
  0
ARC
  8
_0-1_計細線
  6
CONTINUOUS
 62
    3
 10
1202.4648721665421
 20
659.15920573263111
 40
0.5000000000000002
 50
179.99999999999983
 51
269.99999999999977
  0
LINE
  8
_0-1_計細線
  6
CONTINUOUS
 62
    3
 10
1201.9648721665426
 20
660.55920573263097
 11
1201.9648721665426
 21
659.15920573263111
  0
ARC
  8
_0-1_計細線
  6
CONTINUOUS
 62
    3
 10
1212.8648721643353
 20
659.15920573263111
 40
0.5000000000000002
 50
269.99999999999977
 51
359.99999999999966
  0
LINE
  8
_0-1_計細線
  6
CONTINUOUS
 62
    3
 10
1213.3648721643349
 20
660.55920573263097
 11
1213.3648721643349
 21
659.15920573263111
  0
ARC
  8
_0-1_計細線
  6
CONTINUOUS
 62
    3
 10
1204.9648721665424
 20
657.65920573263099
 40
1.0000000000000004
 50
0
 51
89.999999999999915
  0
LINE
  8
_0-1_計細線
  6
CONTINUOUS
 62
    3
 10
1204.9648721665424
 20
658.65920573263054
 11
1202.4648721665421
 21
658.65920573263054
  0
ARC
  8
_0-1_計細線
  6
CONTINUOUS
 62
    3
 10
1210.3648721665422
 20
657.65920573263099
 40
1.0000000000000004
 50
89.999999999999915
 51
179.99999999999983
  0
LINE
  8
_0-1_計細線
  6
CONTINUOUS
 62
    3
 10
1210.3648721643349
 20
658.65920573263054
 11
1212.8648721643353
 21
658.65920573263054
  0
LINE
  8
_0-1_計細線
  6
CONTINUOUS
 62
    3
 10
1210.1648721654387
 20
662.5592057326304
 11
1205.1648721654387
 21
662.5592057326304
  0
LINE
  8
_0-1_計細線
  6
CONTINUOUS
 62
    3
 10
1205.9648721654385
 20
637.55920573263131
 11
1205.9648721665424
 21
657.65920573263099
  0
LINE
  8
_0-1_計細線
  6
CONTINUOUS
 62
    3
 10
1209.3648721654388
 20
637.55920573263131
 11
1209.3648721665427
 21
657.65920573263099
  0
LINE
  8
_0-1_計細線
  6
CONTINUOUS
 62
    3
 10
1209.3648721654388
 20
637.55920573263131
 11
1205.9648721654385
 21
637.55920573263131
  0
ARC
  8
_0-1_計細線
  6
CONTINUOUS
 62
    3
 10
1032.9648721636663
 20
660.55920573263097
 40
1.0000000000000004
 50
89.999999999999915
 51
179.99999999999983
  0
ARC
  8
_0-1_計細線
  6
CONTINUOUS
 62
    3
 10
1033.4328213549936
 20
662.5592057326304
 40
1.0000000000000004
 50
269.99999999999977
 51
330.00000000000711
  0
ARC
  8
_0-1_計細線
  6
CONTINUOUS
 62
    3
 10
1035.1648721625625
 20
661.55920573263063
 40
1.0000000000000004
 50
89.999999999999915
 51
150.00000000000273
  0
LINE
  8
_0-1_計細線
  6
CONTINUOUS
 62
    3
 10
1032.9648721636663
 20
661.55920573263063
 11
1033.4328213549936
 21
661.55920573263063
  0
ARC
  8
_0-1_計細線
  6
CONTINUOUS
 62
    3
 10
1042.3648721614591
 20
660.55920573263097
 40
1.0000000000000004
 50
0
 51
89.999999999999915
  0
ARC
  8
_0-1_計細線
  6
CONTINUOUS
 62
    3
 10
1041.8969229701318
 20
662.5592057326304
 40
1.0000000000000004
 50
209.9999999999726
 51
269.99999999999977
  0
ARC
  8
_0-1_計細線
  6
CONTINUOUS
 62
    3
 10
1040.1648721625625
 20
661.55920573263063
 40
1.0000000000000004
 50
30.000000000003801
 51
89.999999999973952
  0
LINE
  8
_0-1_計細線
  6
CONTINUOUS
 62
    3
 10
1042.3648721614591
 20
661.55920573263063
 11
1041.8969229701318
 21
661.55920573263063
  0
ARC
  8
_0-1_計細線
  6
CONTINUOUS
 62
    3
 10
1032.4648721636663
 20
659.15920573263111
 40
0.5000000000000002
 50
179.99999999999983
 51
269.99999999999977
  0
LINE
  8
_0-1_計細線
  6
CONTINUOUS
 62
    3
 10
1031.9648721636663
 20
660.55920573263097
 11
1031.9648721636663
 21
659.15920573263111
  0
ARC
  8
_0-1_計細線
  6
CONTINUOUS
 62
    3
 10
1042.8648721614591
 20
659.15920573263111
 40
0.5000000000000002
 50
269.99999999999977
 51
359.99999999999966
  0
LINE
  8
_0-1_計細線
  6
CONTINUOUS
 62
    3
 10
1043.3648721614595
 20
660.55920573263097
 11
1043.3648721614595
 21
659.15920573263111
  0
ARC
  8
_0-1_計細線
  6
CONTINUOUS
 62
    3
 10
1034.9648721636661
 20
657.65920573263099
 40
1.0000000000000004
 50
0
 51
89.999999999999915
  0
LINE
  8
_0-1_計細線
  6
CONTINUOUS
 62
    3
 10
1034.9648721636661
 20
658.65920573263054
 11
1032.4648721636663
 21
658.65920573263054
  0
ARC
  8
_0-1_計細線
  6
CONTINUOUS
 62
    3
 10
1040.364872163666
 20
657.65920573263099
 40
1.0000000000000004
 50
89.999999999999915
 51
179.99999999999983
  0
LINE
  8
_0-1_計細線
  6
CONTINUOUS
 62
    3
 10
1040.3648721614586
 20
658.65920573263054
 11
1042.8648721614591
 21
658.65920573263054
  0
LINE
  8
_0-1_計細線
  6
CONTINUOUS
 62
    3
 10
1040.1648721625625
 20
662.5592057326304
 11
1035.1648721625625
 21
662.5592057326304
  0
LINE
  8
_0-1_計細線
  6
CONTINUOUS
 62
    3
 10
1035.9648721625629
 20
637.55920573263131
 11
1035.9648721636659
 21
657.65920573263099
  0
LINE
  8
_0-1_計細線
  6
CONTINUOUS
 62
    3
 10
1039.3648721625625
 20
637.55920573263131
 11
1039.3648721636664
 21
657.65920573263099
  0
LINE
  8
_0-1_計細線
  6
CONTINUOUS
 62
    3
 10
1039.3648721625625
 20
637.55920573263131
 11
1035.9648721625629
 21
637.55920573263131
  0
ARC
  8
_0-1_計細線
  6
CONTINUOUS
 62
    3
 10
1185.9648721663707
 20
660.55920573263097
 40
1.0000000000000004
 50
89.999999999999915
 51
179.99999999999983
  0
ARC
  8
_0-1_計細線
  6
CONTINUOUS
 62
    3
 10
1186.432821357698
 20
662.5592057326304
 40
1.0000000000000004
 50
269.99999999999977
 51
330.00000000001364
  0
ARC
  8
_0-1_計細線
  6
CONTINUOUS
 62
    3
 10
1188.1648721652671
 20
661.55920573263063
 40
1.0000000000000004
 50
89.999999999999915
 51
150.00000000000273
  0
LINE
  8
_0-1_計細線
  6
CONTINUOUS
 62
    3
 10
1185.9648721663707
 20
661.55920573263063
 11
1186.432821357698
 21
661.55920573263063
  0
ARC
  8
_0-1_計細線
  6
CONTINUOUS
 62
    3
 10
1195.3648721641637
 20
660.55920573263097
 40
1.0000000000000004
 50
0
 51
89.999999999999915
  0
ARC
  8
_0-1_計細線
  6
CONTINUOUS
 62
    3
 10
1194.8969229728357
 20
662.5592057326304
 40
1.0000000000000004
 50
209.99999999998565
 51
269.99999999999977
  0
ARC
  8
_0-1_計細線
  6
CONTINUOUS
 62
    3
 10
1193.1648721652668
 20
661.55920573263063
 40
1.0000000000000004
 50
30.000000000003801
 51
89.999999999986969
  0
LINE
  8
_0-1_計細線
  6
CONTINUOUS
 62
    3
 10
1195.3648721641637
 20
661.55920573263063
 11
1194.8969229728357
 21
661.55920573263063
  0
ARC
  8
_0-1_計細線
  6
CONTINUOUS
 62
    3
 10
1185.4648721663705
 20
659.15920573263111
 40
0.5000000000000002
 50
179.99999999999983
 51
269.99999999999977
  0
LINE
  8
_0-1_計細線
  6
CONTINUOUS
 62
    3
 10
1184.9648721663705
 20
660.55920573263097
 11
1184.9648721663705
 21
659.15920573263111
  0
ARC
  8
_0-1_計細線
  6
CONTINUOUS
 62
    3
 10
1195.8648721641634
 20
659.15920573263111
 40
0.5000000000000002
 50
269.99999999999977
 51
359.99999999999966
  0
LINE
  8
_0-1_計細線
  6
CONTINUOUS
 62
    3
 10
1196.3648721641632
 20
660.55920573263097
 11
1196.3648721641632
 21
659.15920573263111
  0
ARC
  8
_0-1_計細線
  6
CONTINUOUS
 62
    3
 10
1187.9648721663705
 20
657.65920573263099
 40
1.0000000000000004
 50
0
 51
89.999999999999915
  0
LINE
  8
_0-1_計細線
  6
CONTINUOUS
 62
    3
 10
1187.9648721663705
 20
658.65920573263054
 11
1185.4648721663705
 21
658.65920573263054
  0
ARC
  8
_0-1_計細線
  6
CONTINUOUS
 62
    3
 10
1193.3648721663708
 20
657.65920573263099
 40
1.0000000000000004
 50
89.999999999999915
 51
179.99999999999983
  0
LINE
  8
_0-1_計細線
  6
CONTINUOUS
 62
    3
 10
1193.3648721641632
 20
658.65920573263054
 11
1195.8648721641634
 21
658.65920573263054
  0
LINE
  8
_0-1_計細線
  6
CONTINUOUS
 62
    3
 10
1193.1648721652668
 20
662.5592057326304
 11
1188.1648721652671
 21
662.5592057326304
  0
LINE
  8
_0-1_計細線
  6
CONTINUOUS
 62
    3
 10
1188.9648721652668
 20
637.55920573263131
 11
1188.9648721663705
 21
657.65920573263099
  0
LINE
  8
_0-1_計細線
  6
CONTINUOUS
 62
    3
 10
1192.3648721652669
 20
637.55920573263131
 11
1192.3648721663706
 21
657.65920573263099
  0
LINE
  8
_0-1_計細線
  6
CONTINUOUS
 62
    3
 10
1192.3648721652669
 20
637.55920573263131
 11
1188.9648721652668
 21
637.55920573263131
  0
ARC
  8
_0-1_計細線
  6
CONTINUOUS
 62
    3
 10
1168.9648721660087
 20
660.55920573263097
 40
1.0000000000000004
 50
89.999999999999915
 51
179.99999999999983
  0
ARC
  8
_0-1_計細線
  6
CONTINUOUS
 62
    3
 10
1169.432821357336
 20
662.5592057326304
 40
1.0000000000000004
 50
269.99999999999977
 51
330.00000000000711
  0
ARC
  8
_0-1_計細線
  6
CONTINUOUS
 62
    3
 10
1171.1648721649049
 20
661.55920573263063
 40
1.0000000000000004
 50
89.999999999999915
 51
150.00000000000273
  0
LINE
  8
_0-1_計細線
  6
CONTINUOUS
 62
    3
 10
1168.9648721660087
 20
661.55920573263063
 11
1169.432821357336
 21
661.55920573263063
  0
ARC
  8
_0-1_計細線
  6
CONTINUOUS
 62
    3
 10
1178.3648721638015
 20
660.55920573263097
 40
1.0000000000000004
 50
0
 51
89.999999999999915
  0
ARC
  8
_0-1_計細線
  6
CONTINUOUS
 62
    3
 10
1177.8969229724744
 20
662.5592057326304
 40
1.0000000000000004
 50
209.99999999998565
 51
269.99999999999977
  0
ARC
  8
_0-1_計細線
  6
CONTINUOUS
 62
    3
 10
1176.1648721649051
 20
661.55920573263063
 40
1.0000000000000004
 50
29.999999999997289
 51
89.999999999999929
  0
LINE
  8
_0-1_計細線
  6
CONTINUOUS
 62
    3
 10
1178.3648721638015
 20
661.55920573263063
 11
1177.8969229724744
 21
661.55920573263063
  0
ARC
  8
_0-1_計細線
  6
CONTINUOUS
 62
    3
 10
1168.4648721660092
 20
659.15920573263111
 40
0.5000000000000002
 50
179.99999999999983
 51
269.99999999999977
  0
LINE
  8
_0-1_計細線
  6
CONTINUOUS
 62
    3
 10
1167.9648721660085
 20
660.55920573263097
 11
1167.9648721660085
 21
659.15920573263111
  0
ARC
  8
_0-1_計細線
  6
CONTINUOUS
 62
    3
 10
1178.8648721638017
 20
659.15920573263111
 40
0.5000000000000002
 50
269.99999999999977
 51
359.99999999999966
  0
LINE
  8
_0-1_計細線
  6
CONTINUOUS
 62
    3
 10
1179.3648721638017
 20
660.55920573263097
 11
1179.3648721638017
 21
659.15920573263111
  0
ARC
  8
_0-1_計細線
  6
CONTINUOUS
 62
    3
 10
1170.9648721660085
 20
657.65920573263099
 40
1.0000000000000004
 50
0
 51
89.999999999999915
  0
LINE
  8
_0-1_計細線
  6
CONTINUOUS
 62
    3
 10
1170.9648721660085
 20
658.65920573263054
 11
1168.4648721660092
 21
658.65920573263054
  0
ARC
  8
_0-1_計細線
  6
CONTINUOUS
 62
    3
 10
1176.364872166009
 20
657.65920573263099
 40
1.0000000000000004
 50
89.999999999999915
 51
179.99999999999983
  0
LINE
  8
_0-1_計細線
  6
CONTINUOUS
 62
    3
 10
1176.3648721638017
 20
658.65920573263054
 11
1178.8648721638017
 21
658.65920573263054
  0
LINE
  8
_0-1_計細線
  6
CONTINUOUS
 62
    3
 10
1176.1648721649051
 20
662.5592057326304
 11
1171.1648721649049
 21
662.5592057326304
  0
LINE
  8
_0-1_計細線
  6
CONTINUOUS
 62
    3
 10
1171.9648721649055
 20
637.55920573263131
 11
1171.9648721660089
 21
657.65920573263099
  0
LINE
  8
_0-1_計細線
  6
CONTINUOUS
 62
    3
 10
1175.3648721649054
 20
637.55920573263131
 11
1175.364872166009
 21
657.65920573263099
  0
LINE
  8
_0-1_計細線
  6
CONTINUOUS
 62
    3
 10
1175.3648721649054
 20
637.55920573263131
 11
1171.9648721649055
 21
637.55920573263131
  0
ARC
  8
_0-1_計細線
  6
CONTINUOUS
 62
    3
 10
1049.9648721636661
 20
660.55920573263097
 40
1.0000000000000004
 50
89.999999999999915
 51
179.99999999999983
  0
ARC
  8
_0-1_計細線
  6
CONTINUOUS
 62
    3
 10
1050.4328213549938
 20
662.5592057326304
 40
1.0000000000000004
 50
269.99999999999977
 51
330.00000000001364
  0
ARC
  8
_0-1_計細線
  6
CONTINUOUS
 62
    3
 10
1052.1648721625629
 20
661.55920573263063
 40
1.0000000000000004
 50
89.999999999999915
 51
150.00000000000273
  0
LINE
  8
_0-1_計細線
  6
CONTINUOUS
 62
    3
 10
1049.9648721636661
 20
661.55920573263063
 11
1050.4328213549938
 21
661.55920573263063
  0
ARC
  8
_0-1_計細線
  6
CONTINUOUS
 62
    3
 10
1059.3648721614591
 20
660.55920573263097
 40
1.0000000000000004
 50
0
 51
89.999999999999915
  0
ARC
  8
_0-1_計細線
  6
CONTINUOUS
 62
    3
 10
1058.8969229701315
 20
662.5592057326304
 40
1.0000000000000004
 50
209.99999999998565
 51
269.99999999999977
  0
ARC
  8
_0-1_計細線
  6
CONTINUOUS
 62
    3
 10
1057.1648721625627
 20
661.55920573263063
 40
1.0000000000000004
 50
30.000000000003801
 51
89.999999999999929
  0
LINE
  8
_0-1_計細線
  6
CONTINUOUS
 62
    3
 10
1059.3648721614591
 20
661.55920573263063
 11
1058.8969229701315
 21
661.55920573263063
  0
ARC
  8
_0-1_計細線
  6
CONTINUOUS
 62
    3
 10
1049.4648721636663
 20
659.15920573263111
 40
0.5000000000000002
 50
179.99999999999983
 51
269.99999999999977
  0
LINE
  8
_0-1_計細線
  6
CONTINUOUS
 62
    3
 10
1048.9648721636663
 20
660.55920573263097
 11
1048.9648721636663
 21
659.15920573263111
  0
ARC
  8
_0-1_計細線
  6
CONTINUOUS
 62
    3
 10
1059.8648721614593
 20
659.15920573263111
 40
0.5000000000000002
 50
269.99999999999977
 51
359.99999999999966
  0
LINE
  8
_0-1_計細線
  6
CONTINUOUS
 62
    3
 10
1060.3648721614595
 20
660.55920573263097
 11
1060.3648721614595
 21
659.15920573263111
  0
ARC
  8
_0-1_計細線
  6
CONTINUOUS
 62
    3
 10
1051.9648721636663
 20
657.65920573263099
 40
1.0000000000000004
 50
0
 51
89.999999999999915
  0
LINE
  8
_0-1_計細線
  6
CONTINUOUS
 62
    3
 10
1051.9648721636663
 20
658.65920573263054
 11
1049.4648721636663
 21
658.65920573263054
  0
ARC
  8
_0-1_計細線
  6
CONTINUOUS
 62
    3
 10
1057.3648721636662
 20
657.65920573263099
 40
1.0000000000000004
 50
89.999999999999915
 51
179.99999999999983
  0
LINE
  8
_0-1_計細線
  6
CONTINUOUS
 62
    3
 10
1057.3648721614591
 20
658.65920573263054
 11
1059.8648721614593
 21
658.65920573263054
  0
LINE
  8
_0-1_計細線
  6
CONTINUOUS
 62
    3
 10
1057.1648721625627
 20
662.5592057326304
 11
1052.1648721625629
 21
662.5592057326304
  0
LINE
  8
_0-1_計細線
  6
CONTINUOUS
 62
    3
 10
1052.9648721625626
 20
637.55920573263131
 11
1052.9648721636661
 21
657.65920573263099
  0
LINE
  8
_0-1_計細線
  6
CONTINUOUS
 62
    3
 10
1056.3648721625627
 20
637.55920573263131
 11
1056.3648721636664
 21
657.65920573263099
  0
LINE
  8
_0-1_計細線
  6
CONTINUOUS
 62
    3
 10
1056.3648721625627
 20
637.55920573263131
 11
1052.9648721625626
 21
637.55920573263131
  0
ARC
  8
_0-1_計細線
  6
CONTINUOUS
 62
    3
 10
1066.9648721640283
 20
660.55920573263097
 40
1.0000000000000004
 50
89.999999999999915
 51
179.99999999999983
  0
ARC
  8
_0-1_計細線
  6
CONTINUOUS
 62
    3
 10
1067.4328213553556
 20
662.5592057326304
 40
1.0000000000000004
 50
269.99999999999977
 51
330.00000000000711
  0
ARC
  8
_0-1_計細線
  6
CONTINUOUS
 62
    3
 10
1069.1648721629249
 20
661.55920573263063
 40
1.0000000000000004
 50
89.999999999999915
 51
150.00000000001575
  0
LINE
  8
_0-1_計細線
  6
CONTINUOUS
 62
    3
 10
1066.9648721640283
 20
661.55920573263063
 11
1067.4328213553556
 21
661.55920573263063
  0
ARC
  8
_0-1_計細線
  6
CONTINUOUS
 62
    3
 10
1076.3648721618208
 20
660.55920573263097
 40
1.0000000000000004
 50
0
 51
89.999999999999915
  0
ARC
  8
_0-1_計細線
  6
CONTINUOUS
 62
    3
 10
1075.8969229704931
 20
662.5592057326304
 40
1.0000000000000004
 50
209.99999999999216
 51
269.99999999999977
  0
ARC
  8
_0-1_計細線
  6
CONTINUOUS
 62
    3
 10
1074.1648721629249
 20
661.55920573263063
 40
1.0000000000000004
 50
30.000000000016829
 51
89.999999999999929
  0
LINE
  8
_0-1_計細線
  6
CONTINUOUS
 62
    3
 10
1076.3648721618208
 20
661.55920573263063
 11
1075.8969229704931
 21
661.55920573263063
  0
ARC
  8
_0-1_計細線
  6
CONTINUOUS
 62
    3
 10
1066.4648721640283
 20
659.15920573263111
 40
0.5000000000000002
 50
179.99999999999983
 51
269.99999999999977
  0
LINE
  8
_0-1_計細線
  6
CONTINUOUS
 62
    3
 10
1065.9648721640281
 20
660.55920573263097
 11
1065.9648721640281
 21
659.15920573263111
  0
ARC
  8
_0-1_計細線
  6
CONTINUOUS
 62
    3
 10
1076.864872161821
 20
659.15920573263111
 40
0.5000000000000002
 50
269.99999999999977
 51
359.99999999999966
  0
LINE
  8
_0-1_計細線
  6
CONTINUOUS
 62
    3
 10
1077.3648721618206
 20
660.55920573263097
 11
1077.3648721618206
 21
659.15920573263111
  0
ARC
  8
_0-1_計細線
  6
CONTINUOUS
 62
    3
 10
1068.9648721640283
 20
657.65920573263099
 40
1.0000000000000004
 50
0
 51
89.999999999999915
  0
LINE
  8
_0-1_計細線
  6
CONTINUOUS
 62
    3
 10
1068.9648721640283
 20
658.65920573263054
 11
1066.4648721640283
 21
658.65920573263054
  0
ARC
  8
_0-1_計細線
  6
CONTINUOUS
 62
    3
 10
1074.3648721640279
 20
657.65920573263099
 40
1.0000000000000004
 50
89.999999999999915
 51
179.99999999999983
  0
LINE
  8
_0-1_計細線
  6
CONTINUOUS
 62
    3
 10
1074.364872161821
 20
658.65920573263054
 11
1076.864872161821
 21
658.65920573263054
  0
LINE
  8
_0-1_計細線
  6
CONTINUOUS
 62
    3
 10
1074.1648721629249
 20
662.5592057326304
 11
1069.1648721629249
 21
662.5592057326304
  0
LINE
  8
_0-1_計細線
  6
CONTINUOUS
 62
    3
 10
1069.9648721629242
 20
637.55920573263131
 11
1069.9648721640283
 21
657.65920573263099
  0
LINE
  8
_0-1_計細線
  6
CONTINUOUS
 62
    3
 10
1073.3648721629245
 20
637.55920573263131
 11
1073.3648721640282
 21
657.65920573263099
  0
LINE
  8
_0-1_計細線
  6
CONTINUOUS
 62
    3
 10
1073.3648721629245
 20
637.55920573263131
 11
1069.9648721629242
 21
637.55920573263131
  0
ARC
  8
_0-1_計細線
  6
CONTINUOUS
 62
    3
 10
1083.9648721643898
 20
660.55920573263097
 40
1.0000000000000004
 50
89.999999999999915
 51
179.99999999999983
  0
ARC
  8
_0-1_計細線
  6
CONTINUOUS
 62
    3
 10
1084.4328213557178
 20
662.5592057326304
 40
1.0000000000000004
 50
269.99999999999977
 51
330.00000000001364
  0
ARC
  8
_0-1_計細線
  6
CONTINUOUS
 62
    3
 10
1086.1648721632866
 20
661.55920573263063
 40
1.0000000000000004
 50
89.999999999999915
 51
149.99999999999622
  0
LINE
  8
_0-1_計細線
  6
CONTINUOUS
 62
    3
 10
1083.9648721643898
 20
661.55920573263063
 11
1084.4328213557178
 21
661.55920573263063
  0
ARC
  8
_0-1_計細線
  6
CONTINUOUS
 62
    3
 10
1093.3648721621826
 20
660.55920573263097
 40
1.0000000000000004
 50
0
 51
89.999999999999915
  0
ARC
  8
_0-1_計細線
  6
CONTINUOUS
 62
    3
 10
1092.8969229708555
 20
662.5592057326304
 40
1.0000000000000004
 50
209.99999999998565
 51
269.99999999999977
  0
ARC
  8
_0-1_計細線
  6
CONTINUOUS
 62
    3
 10
1091.1648721632864
 20
661.55920573263063
 40
1.0000000000000004
 50
29.999999999997289
 51
89.999999999973952
  0
LINE
  8
_0-1_計細線
  6
CONTINUOUS
 62
    3
 10
1093.3648721621826
 20
661.55920573263063
 11
1092.8969229708555
 21
661.55920573263063
  0
ARC
  8
_0-1_計細線
  6
CONTINUOUS
 62
    3
 10
1083.4648721643903
 20
659.15920573263111
 40
0.5000000000000002
 50
179.99999999999983
 51
269.99999999999977
  0
LINE
  8
_0-1_計細線
  6
CONTINUOUS
 62
    3
 10
1082.9648721643903
 20
660.55920573263097
 11
1082.9648721643903
 21
659.15920573263111
  0
ARC
  8
_0-1_計細線
  6
CONTINUOUS
 62
    3
 10
1093.864872162183
 20
659.15920573263111
 40
0.5000000000000002
 50
269.99999999999977
 51
359.99999999999966
  0
LINE
  8
_0-1_計細線
  6
CONTINUOUS
 62
    3
 10
1094.364872162183
 20
660.55920573263097
 11
1094.364872162183
 21
659.15920573263111
  0
ARC
  8
_0-1_計細線
  6
CONTINUOUS
 62
    3
 10
1085.9648721643903
 20
657.65920573263099
 40
1.0000000000000004
 50
0
 51
89.999999999999915
  0
LINE
  8
_0-1_計細線
  6
CONTINUOUS
 62
    3
 10
1085.9648721643903
 20
658.65920573263054
 11
1083.4648721643903
 21
658.65920573263054
  0
ARC
  8
_0-1_計細線
  6
CONTINUOUS
 62
    3
 10
1091.3648721643904
 20
657.65920573263099
 40
1.0000000000000004
 50
89.999999999999915
 51
179.99999999999983
  0
LINE
  8
_0-1_計細線
  6
CONTINUOUS
 62
    3
 10
1091.364872162183
 20
658.65920573263054
 11
1093.864872162183
 21
658.65920573263054
  0
LINE
  8
_0-1_計細線
  6
CONTINUOUS
 62
    3
 10
1091.1648721632864
 20
662.5592057326304
 11
1086.1648721632866
 21
662.5592057326304
  0
LINE
  8
_0-1_計細線
  6
CONTINUOUS
 62
    3
 10
1086.9648721632866
 20
637.55920573263131
 11
1086.9648721643898
 21
657.65920573263099
  0
LINE
  8
_0-1_計細線
  6
CONTINUOUS
 62
    3
 10
1090.3648721632867
 20
637.55920573263131
 11
1090.3648721643899
 21
657.65920573263099
  0
LINE
  8
_0-1_計細線
  6
CONTINUOUS
 62
    3
 10
1090.3648721632867
 20
637.55920573263131
 11
1086.9648721632866
 21
637.55920573263131
  0
ARC
  8
_0-1_計細線
  6
CONTINUOUS
 62
    3
 10
1117.9648721651138
 20
660.55920573263097
 40
1.0000000000000004
 50
89.999999999999915
 51
179.99999999999983
  0
ARC
  8
_0-1_計細線
  6
CONTINUOUS
 62
    3
 10
1118.4328213564409
 20
662.5592057326304
 40
1.0000000000000004
 50
269.99999999999977
 51
330.00000000001364
  0
ARC
  8
_0-1_計細線
  6
CONTINUOUS
 62
    3
 10
1120.1648721640101
 20
661.55920573263063
 40
1.0000000000000004
 50
89.999999999999915
 51
150.00000000000924
  0
LINE
  8
_0-1_計細線
  6
CONTINUOUS
 62
    3
 10
1117.9648721651138
 20
661.55920573263063
 11
1118.4328213564409
 21
661.55920573263063
  0
ARC
  8
_0-1_計細線
  6
CONTINUOUS
 62
    3
 10
1127.3648721629065
 20
660.55920573263097
 40
1.0000000000000004
 50
0
 51
89.999999999999915
  0
ARC
  8
_0-1_計細線
  6
CONTINUOUS
 62
    3
 10
1126.8969229715785
 20
662.5592057326304
 40
1.0000000000000004
 50
209.99999999999216
 51
269.99999999999977
  0
ARC
  8
_0-1_計細線
  6
CONTINUOUS
 62
    3
 10
1125.1648721640097
 20
661.55920573263063
 40
1.0000000000000004
 50
29.999999999997289
 51
89.99999999996092
  0
LINE
  8
_0-1_計細線
  6
CONTINUOUS
 62
    3
 10
1127.3648721629065
 20
661.55920573263063
 11
1126.8969229715785
 21
661.55920573263063
  0
ARC
  8
_0-1_計細線
  6
CONTINUOUS
 62
    3
 10
1117.4648721651133
 20
659.15920573263111
 40
0.5000000000000002
 50
179.99999999999983
 51
269.99999999999977
  0
LINE
  8
_0-1_計細線
  6
CONTINUOUS
 62
    3
 10
1116.9648721651133
 20
660.55920573263097
 11
1116.9648721651133
 21
659.15920573263111
  0
ARC
  8
_0-1_計細線
  6
CONTINUOUS
 62
    3
 10
1127.8648721629063
 20
659.15920573263111
 40
0.5000000000000002
 50
269.99999999999977
 51
359.99999999999966
  0
LINE
  8
_0-1_計細線
  6
CONTINUOUS
 62
    3
 10
1128.3648721629061
 20
660.55920573263097
 11
1128.3648721629061
 21
659.15920573263111
  0
ARC
  8
_0-1_計細線
  6
CONTINUOUS
 62
    3
 10
1119.9648721651135
 20
657.65920573263099
 40
1.0000000000000004
 50
0
 51
89.999999999999915
  0
LINE
  8
_0-1_計細線
  6
CONTINUOUS
 62
    3
 10
1119.9648721651135
 20
658.65920573263054
 11
1117.4648721651133
 21
658.65920573263054
  0
ARC
  8
_0-1_計細線
  6
CONTINUOUS
 62
    3
 10
1125.3648721651134
 20
657.65920573263099
 40
1.0000000000000004
 50
89.999999999999915
 51
179.99999999999983
  0
LINE
  8
_0-1_計細線
  6
CONTINUOUS
 62
    3
 10
1125.3648721629061
 20
658.65920573263054
 11
1127.8648721629063
 21
658.65920573263054
  0
LINE
  8
_0-1_計細線
  6
CONTINUOUS
 62
    3
 10
1125.1648721640097
 20
662.5592057326304
 11
1120.1648721640101
 21
662.5592057326304
  0
LINE
  8
_0-1_計細線
  6
CONTINUOUS
 62
    3
 10
1120.9648721640096
 20
637.55920573263131
 11
1120.9648721651138
 21
657.65920573263099
  0
LINE
  8
_0-1_計細線
  6
CONTINUOUS
 62
    3
 10
1124.36487216401
 20
637.55920573263131
 11
1124.3648721651136
 21
657.65920573263099
  0
LINE
  8
_0-1_計細線
  6
CONTINUOUS
 62
    3
 10
1124.36487216401
 20
637.55920573263131
 11
1120.9648721640096
 21
637.55920573263131
  0
ARC
  8
_0-1_計細線
  6
CONTINUOUS
 62
    3
 10
1134.9648721654753
 20
660.55920573263097
 40
1.0000000000000004
 50
89.999999999999915
 51
179.99999999999983
  0
ARC
  8
_0-1_計細線
  6
CONTINUOUS
 62
    3
 10
1135.4328213568028
 20
662.5592057326304
 40
1.0000000000000004
 50
269.99999999999977
 51
330.00000000001364
  0
ARC
  8
_0-1_計細線
  6
CONTINUOUS
 62
    3
 10
1137.1648721643714
 20
661.55920573263063
 40
1.0000000000000004
 50
89.999999999999915
 51
149.99999999999622
  0
LINE
  8
_0-1_計細線
  6
CONTINUOUS
 62
    3
 10
1134.9648721654753
 20
661.55920573263063
 11
1135.4328213568028
 21
661.55920573263063
  0
ARC
  8
_0-1_計細線
  6
CONTINUOUS
 62
    3
 10
1144.364872163268
 20
660.55920573263097
 40
1.0000000000000004
 50
0
 51
89.999999999999915
  0
ARC
  8
_0-1_計細線
  6
CONTINUOUS
 62
    3
 10
1143.8969229719407
 20
662.5592057326304
 40
1.0000000000000004
 50
209.9999999999726
 51
269.99999999999977
  0
ARC
  8
_0-1_計細線
  6
CONTINUOUS
 62
    3
 10
1142.1648721643719
 20
661.55920573263063
 40
1.0000000000000004
 50
30.000000000016829
 51
89.999999999999929
  0
LINE
  8
_0-1_計細線
  6
CONTINUOUS
 62
    3
 10
1144.364872163268
 20
661.55920573263063
 11
1143.8969229719407
 21
661.55920573263063
  0
ARC
  8
_0-1_計細線
  6
CONTINUOUS
 62
    3
 10
1134.4648721654755
 20
659.15920573263111
 40
0.5000000000000002
 50
179.99999999999983
 51
269.99999999999977
  0
LINE
  8
_0-1_計細線
  6
CONTINUOUS
 62
    3
 10
1133.9648721654751
 20
660.55920573263097
 11
1133.9648721654751
 21
659.15920573263111
  0
ARC
  8
_0-1_計細線
  6
CONTINUOUS
 62
    3
 10
1144.864872163268
 20
659.15920573263111
 40
0.5000000000000002
 50
269.99999999999977
 51
359.99999999999966
  0
LINE
  8
_0-1_計細線
  6
CONTINUOUS
 62
    3
 10
1145.3648721632683
 20
660.55920573263097
 11
1145.3648721632683
 21
659.15920573263111
  0
ARC
  8
_0-1_計細線
  6
CONTINUOUS
 62
    3
 10
1136.9648721654751
 20
657.65920573263099
 40
1.0000000000000004
 50
0
 51
89.999999999999915
  0
LINE
  8
_0-1_計細線
  6
CONTINUOUS
 62
    3
 10
1136.9648721654751
 20
658.65920573263054
 11
1134.4648721654755
 21
658.65920573263054
  0
ARC
  8
_0-1_計細線
  6
CONTINUOUS
 62
    3
 10
1142.3648721654758
 20
657.65920573263099
 40
1.0000000000000004
 50
89.999999999999915
 51
179.99999999999983
  0
LINE
  8
_0-1_計細線
  6
CONTINUOUS
 62
    3
 10
1142.3648721632683
 20
658.65920573263054
 11
1144.864872163268
 21
658.65920573263054
  0
LINE
  8
_0-1_計細線
  6
CONTINUOUS
 62
    3
 10
1142.1648721643719
 20
662.5592057326304
 11
1137.1648721643714
 21
662.5592057326304
  0
LINE
  8
_0-1_計細線
  6
CONTINUOUS
 62
    3
 10
1137.9648721643719
 20
637.55920573263131
 11
1137.9648721654753
 21
657.65920573263099
  0
LINE
  8
_0-1_計細線
  6
CONTINUOUS
 62
    3
 10
1141.3648721643717
 20
637.55920573263131
 11
1141.3648721654754
 21
657.65920573263099
  0
LINE
  8
_0-1_計細線
  6
CONTINUOUS
 62
    3
 10
1141.3648721643717
 20
637.55920573263131
 11
1137.9648721643719
 21
637.55920573263131
  0
ARC
  8
_0-1_計細線
  6
CONTINUOUS
 62
    3
 10
1151.9648721658368
 20
660.55920573263097
 40
1.0000000000000004
 50
89.999999999999915
 51
179.99999999999983
  0
ARC
  8
_0-1_計細線
  6
CONTINUOUS
 62
    3
 10
1152.4328213571648
 20
662.5592057326304
 40
1.0000000000000004
 50
269.99999999999977
 51
330.00000000001364
  0
ARC
  8
_0-1_計細線
  6
CONTINUOUS
 62
    3
 10
1154.1648721647332
 20
661.55920573263063
 40
1.0000000000000004
 50
89.999999999999915
 51
149.9999999999832
  0
LINE
  8
_0-1_計細線
  6
CONTINUOUS
 62
    3
 10
1151.9648721658368
 20
661.55920573263063
 11
1152.4328213571648
 21
661.55920573263063
  0
ARC
  8
_0-1_計細線
  6
CONTINUOUS
 62
    3
 10
1161.3648721636298
 20
660.55920573263097
 40
1.0000000000000004
 50
0
 51
89.999999999999915
  0
ARC
  8
_0-1_計細線
  6
CONTINUOUS
 62
    3
 10
1160.8969229723023
 20
662.5592057326304
 40
1.0000000000000004
 50
209.99999999999216
 51
269.99999999999977
  0
ARC
  8
_0-1_計細線
  6
CONTINUOUS
 62
    3
 10
1159.1648721647334
 20
661.55920573263063
 40
1.0000000000000004
 50
29.999999999997289
 51
89.999999999999929
  0
LINE
  8
_0-1_計細線
  6
CONTINUOUS
 62
    3
 10
1161.3648721636298
 20
661.55920573263063
 11
1160.8969229723023
 21
661.55920573263063
  0
ARC
  8
_0-1_計細線
  6
CONTINUOUS
 62
    3
 10
1151.4648721658371
 20
659.15920573263111
 40
0.5000000000000002
 50
179.99999999999983
 51
269.99999999999977
  0
LINE
  8
_0-1_計細線
  6
CONTINUOUS
 62
    3
 10
1150.9648721658373
 20
660.55920573263097
 11
1150.9648721658373
 21
659.15920573263111
  0
ARC
  8
_0-1_計細線
  6
CONTINUOUS
 62
    3
 10
1161.86487216363
 20
659.15920573263111
 40
0.5000000000000002
 50
269.99999999999977
 51
359.99999999999966
  0
LINE
  8
_0-1_計細線
  6
CONTINUOUS
 62
    3
 10
1162.3648721636303
 20
660.55920573263097
 11
1162.3648721636303
 21
659.15920573263111
  0
ARC
  8
_0-1_計細線
  6
CONTINUOUS
 62
    3
 10
1153.9648721658373
 20
657.65920573263099
 40
1.0000000000000004
 50
0
 51
89.999999999999915
  0
LINE
  8
_0-1_計細線
  6
CONTINUOUS
 62
    3
 10
1153.9648721658373
 20
658.65920573263054
 11
1151.4648721658371
 21
658.65920573263054
  0
ARC
  8
_0-1_計細線
  6
CONTINUOUS
 62
    3
 10
1159.3648721658374
 20
657.65920573263099
 40
1.0000000000000004
 50
89.999999999999915
 51
179.99999999999983
  0
LINE
  8
_0-1_計細線
  6
CONTINUOUS
 62
    3
 10
1159.36487216363
 20
658.65920573263054
 11
1161.86487216363
 21
658.65920573263054
  0
LINE
  8
_0-1_計細線
  6
CONTINUOUS
 62
    3
 10
1159.1648721647334
 20
662.5592057326304
 11
1154.1648721647332
 21
662.5592057326304
  0
LINE
  8
_0-1_計細線
  6
CONTINUOUS
 62
    3
 10
1154.9648721647336
 20
637.55920573263131
 11
1154.9648721658373
 21
657.65920573263099
  0
LINE
  8
_0-1_計細線
  6
CONTINUOUS
 62
    3
 10
1158.3648721647337
 20
637.55920573263131
 11
1158.3648721658371
 21
657.65920573263099
  0
LINE
  8
_0-1_計細線
  6
CONTINUOUS
 62
    3
 10
1158.3648721647337
 20
637.55920573263131
 11
1154.9648721647336
 21
637.55920573263131
  0
ARC
  8
_0-1_計細線
  6
CONTINUOUS
 62
    3
 10
928.66487216364806
 20
637.55942473363791
 40
3.0000000000000004
 50
179.99999999999983
 51
269.99999999999977
  0
LINE
  8
_0-1_計細線
  6
CONTINUOUS
 62
    3
 10
925.66487216364817
 20
637.55942473363791
 11
925.66487216364817
 21
662.05942473363746
  0
LINE
  8
_0-1_計細線
  6
CONTINUOUS
 62
    3
 10
928.66487216364806
 20
634.55942473363791
 11
955.16487216364817
 21
634.55942473363791
  0
LINE
  8
_0-1_計細線
  6
CONTINUOUS
 62
    3
 10
955.66487216364817
 20
635.05942473363837
 11
955.16487216364817
 21
634.55942473363791
  0
LINE
  8
_0-1_計細線
  6
CONTINUOUS
 62
    3
 10
955.66487216364817
 20
637.05942473363825
 11
955.66487216364817
 21
635.05942473363837
  0
LINE
  8
_0-1_計細線
  6
CONTINUOUS
 62
    3
 10
955.16487216364817
 20
637.55942473363791
 11
955.66487216364817
 21
637.05942473363825
  0
LINE
  8
_0-1_計細線
  6
CONTINUOUS
 62
    3
 10
928.66487216364806
 20
637.55942473363791
 11
955.16487216364817
 21
637.55942473363791
  0
LINE
  8
_0-1_計細線
  6
CONTINUOUS
 62
    3
 10
926.16487216364806
 20
662.55942473363791
 11
925.66487216364817
 21
662.05942473363746
  0
LINE
  8
_0-1_計細線
  6
CONTINUOUS
 62
    3
 10
928.16487216364817
 20
662.55942473363791
 11
926.16487216364806
 21
662.55942473363791
  0
LINE
  8
_0-1_計細線
  6
CONTINUOUS
 62
    3
 10
928.66487216364806
 20
662.05942473363746
 11
928.16487216364817
 21
662.55942473363791
  0
LINE
  8
_0-1_計細線
  6
CONTINUOUS
 62
    3
 10
928.66487216364806
 20
637.55942473363791
 11
928.66487216364806
 21
662.05942473363746
  0
ARC
  8
_0-1_計細線
  6
CONTINUOUS
 62
    3
 10
1282.6648721636482
 20
637.55942473363791
 40
3.0000000000000004
 50
269.99999999999977
 51
359.99999999999966
  0
LINE
  8
_0-1_計細線
  6
CONTINUOUS
 62
    3
 10
1285.6648721636484
 20
637.55942473363791
 11
1285.6648721636484
 21
662.05942473363746
  0
LINE
  8
_0-1_計細線
  6
CONTINUOUS
 62
    3
 10
1282.6648721636482
 20
634.55942473363791
 11
1256.1648721636477
 21
634.55942473363791
  0
LINE
  8
_0-1_計細線
  6
CONTINUOUS
 62
    3
 10
1255.6648721636479
 20
635.05942473363837
 11
1256.1648721636477
 21
634.55942473363791
  0
LINE
  8
_0-1_計細線
  6
CONTINUOUS
 62
    3
 10
1255.6648721636479
 20
637.05942473363825
 11
1255.6648721636479
 21
635.05942473363837
  0
LINE
  8
_0-1_計細線
  6
CONTINUOUS
 62
    3
 10
1256.1648721636477
 20
637.55942473363791
 11
1255.6648721636479
 21
637.05942473363825
  0
LINE
  8
_0-1_計細線
  6
CONTINUOUS
 62
    3
 10
1282.6648721636482
 20
637.55942473363791
 11
1256.1648721636477
 21
637.55942473363791
  0
LINE
  8
_0-1_計細線
  6
CONTINUOUS
 62
    3
 10
1285.1648721636484
 20
662.55942473363791
 11
1285.6648721636484
 21
662.05942473363746
  0
LINE
  8
_0-1_計細線
  6
CONTINUOUS
 62
    3
 10
1283.1648721636484
 20
662.55942473363791
 11
1285.1648721636484
 21
662.55942473363791
  0
LINE
  8
_0-1_計細線
  6
CONTINUOUS
 62
    3
 10
1282.6648721636482
 20
662.05942473363746
 11
1283.1648721636484
 21
662.55942473363791
  0
LINE
  8
_0-1_計細線
  6
CONTINUOUS
 62
    3
 10
1282.6648721636482
 20
637.55942473363791
 11
1282.6648721636482
 21
662.05942473363746
  0
LINE
  8
_0-0_計極細
  6
CENTER1
 62
    2
 10
906.16487216364806
 20
584.59338056296622
 11
906.16487216364806
 21
618.57619364139316
  0
LINE
  8
_0-0_計極細
  6
CONTINUOUS
 62
    2
 10
901.66487216364794
 20
616.01076154262762
 11
901.66487216364794
 21
589.55942473363791
  0
LINE
  8
_0-0_計極細
  6
CONTINUOUS
 62
    2
 10
910.66487216364817
 20
616.01076154262762
 11
901.66487216364794
 21
616.01076154262762
  0
LINE
  8
_0-0_計極細
  6
CONTINUOUS
 62
    2
 10
910.66487216364817
 20
589.55942473363791
 11
910.66487216364817
 21
616.01076154262762
  0
LINE
  8
_0-0_計極細
  6
CENTER1
 62
    2
 10
894.96848055119585
 20
607.6348842006588
 11
933.38709284073502
 21
621.61811549167976
  0
LINE
  8
_0-0_計極細
  6
CONTINUOUS
 62
    2
 10
899.48083123135689
 20
604.48844543113989
 11
932.55543812556562
 21
616.52661785068778
  0
LINE
  8
_0-0_計極細
  6
CONTINUOUS
 62
    2
 10
896.40264994142581
 20
612.94567901821335
 11
929.47725683563499
 21
624.98385143776102
  0
LINE
  8
_0-0_計極細
  6
CONTINUOUS
 62
    2
 10
929.47725683563499
 20
624.98385143776102
 11
932.55543812556562
 21
616.52661785068778
  0
LINE
  8
_0-0_計極細
  6
CONTINUOUS
 62
    2
 10
899.48083123135689
 20
604.48844543113989
 11
896.40264994142581
 21
612.94567901821335
  0
CIRCLE
  8
_0-0_計極細
  6
CONTINUOUS
 62
    2
 10
944.31501584173577
 20
613.50073024289384
 40
1.0953188836088352
  0
CIRCLE
  8
_0-0_計極細
  6
CONTINUOUS
 62
    2
 10
951.73723806396083
 20
578.54782836373272
 40
0.3318518518518431
  0
CIRCLE
  8
_0-0_計極細
  6
CONTINUOUS
 62
    2
 10
950.93723806396054
 20
592.14147098363458
 40
0.3318518518518431
  0
CIRCLE
  8
_0-0_計極細
  6
CONTINUOUS
 62
    2
 10
951.53241167507076
 20
624.96739690956053
 40
1.0953188836088352
  0
LINE
  8
_0-0_計極細
  6
CONTINUOUS
 62
    2
 10
955.66487216364817
 20
634.55942473363791
 11
955.66487216364817
 21
573.81446455677099
  0
LINE
  8
_0-0_計極細
  6
CONTINUOUS
 62
    2
 10
955.16487216364817
 20
634.55942473363791
 11
955.66487216364817
 21
634.55942473363791
  0
CIRCLE
  8
_0-0_計極細
  6
CONTINUOUS
 62
    2
 10
944.64834917507119
 20
581.36739690956108
 40
1.0953188836088352
  0
CIRCLE
  8
_0-0_計極細
  6
CONTINUOUS
 62
    2
 10
941.76834917507131
 20
592.56739690956067
 40
1.0953188836088352
  0
CIRCLE
  8
_0-0_計極細
  6
CONTINUOUS
 62
    2
 10
920.18168250840517
 20
594.72739690956053
 40
1.0953188836088352
  0
CIRCLE
  8
_0-0_計極細
  6
CONTINUOUS
 62
    2
 10
888.2616825084051
 20
602.40739690956036
 40
1.0953188836088352
  0
CIRCLE
  8
_0-0_計極細
  6
CONTINUOUS
 62
    2
 10
900.02168250840543
 20
625.20739690956032
 40
1.0953188836088352
  0
CIRCLE
  8
_0-0_計極細
  6
CONTINUOUS
 62
    2
 10
913.46168250840515
 20
619.1273969095605
 40
1.0953188836088352
  0
CIRCLE
  8
_0-0_計極細
  6
CONTINUOUS
 62
    2
 10
915.15501584173853
 20
638.88739690955993
 40
1.0953188836088352
  0
CIRCLE
  8
_0-0_計極細
  6
CONTINUOUS
 62
    2
 10
927.32834917507205
 20
625.69702653919001
 40
0.3318518518518431
  0
CIRCLE
  8
_0-0_計極細
  6
CONTINUOUS
 62
    2
 10
948.47501584173813
 20
607.85702653919009
 40
0.3318518518518431
  0
CIRCLE
  8
_0-0_計極細
  6
CONTINUOUS
 62
    2
 10
948.15501584173842
 20
618.63035987252317
 40
0.3318518518518431
  0
CIRCLE
  8
_0-0_計極細
  6
CONTINUOUS
 62
    2
 10
939.08834917507181
 20
624.6036932058563
 40
0.3318518518518431
  0
CIRCLE
  8
_0-0_計極細
  6
CONTINUOUS
 62
    2
 10
930.23501584173846
 20
604.12369320585674
 40
0.3318518518518431
  0
CIRCLE
  8
_0-0_計極細
  6
CONTINUOUS
 62
    2
 10
940.23501584173857
 20
577.95480431696808
 40
0.3318518518518431
  0
CIRCLE
  8
_0-0_計極細
  6
CONTINUOUS
 62
    2
 10
944.39501584173843
 20
586.91480431696823
 40
0.3318518518518431
  0
CIRCLE
  8
_0-0_計極細
  6
CONTINUOUS
 62
    2
 10
936.18168250840529
 20
595.87480431696792
 40
0.3318518518518431
  0
CIRCLE
  8
_0-0_計極細
  6
CONTINUOUS
 62
    2
 10
928.39501584173831
 20
593.95480431696785
 40
0.3318518518518431
  0
CIRCLE
  8
_0-0_計極細
  6
CONTINUOUS
 62
    2
 10
916.44834917507205
 20
593.31480431696775
 40
0.3318518518518431
  0
CIRCLE
  8
_0-0_計極細
  6
CONTINUOUS
 62
    2
 10
918.58168250840549
 20
598.86147098363438
 40
0.3318518518518431
  0
CIRCLE
  8
_0-0_計極細
  6
CONTINUOUS
 62
    2
 10
914.84834917507203
 20
600.35480431696794
 40
0.3318518518518431
  0
CIRCLE
  8
_0-0_計極細
  6
CONTINUOUS
 62
    2
 10
921.56834917507183
 20
603.66147098363433
 40
0.3318518518518431
  0
CIRCLE
  8
_0-0_計極細
  6
CONTINUOUS
 62
    2
 10
897.98834917507236
 20
592.92813765030121
 40
0.3318518518518431
  0
CIRCLE
  8
_0-0_計極細
  6
CONTINUOUS
 62
    2
 10
894.25501584173867
 20
598.0481376503011
 40
0.3318518518518431
  0
CIRCLE
  8
_0-0_計極細
  6
CONTINUOUS
 62
    2
 10
889.02834917507221
 20
593.99480431696793
 40
0.3318518518518431
  0
CIRCLE
  8
_0-0_計極細
  6
CONTINUOUS
 62
    2
 10
892.44168250840517
 20
604.76813765030113
 40
0.3318518518518431
  0
CIRCLE
  8
_0-0_計極細
  6
CONTINUOUS
 62
    2
 10
917.10834917507202
 20
621.03480431696755
 40
0.3318518518518431
  0
CIRCLE
  8
_0-0_計極細
  6
CONTINUOUS
 62
    2
 10
900.68168250840574
 20
616.66147098363444
 40
0.3318518518518431
  0
CIRCLE
  8
_0-0_計極細
  6
CONTINUOUS
 62
    2
 10
909.53501584173853
 20
624.7681376503009
 40
0.3318518518518431
  0
CIRCLE
  8
_0-0_計極細
  6
CONTINUOUS
 62
    2
 10
917.10834917507202
 20
628.18147098363431
 40
0.3318518518518431
  0
CIRCLE
  8
_0-0_計極細
  6
CONTINUOUS
 62
    2
 10
902.06834917507183
 20
630.42147098363421
 40
0.3318518518518431
  0
CIRCLE
  8
_0-0_計極細
  6
CONTINUOUS
 62
    2
 10
889.80168250840575
 20
631.16813765030076
 40
0.3318518518518431
  0
CIRCLE
  8
_0-0_計極細
  6
CONTINUOUS
 62
    2
 10
906.11501584173857
 20
638.50813765030102
 40
0.3318518518518431
  0
CIRCLE
  8
_0-0_計極細
  6
CONTINUOUS
 62
    2
 10
885.63501584173878
 20
635.52147098363412
 40
0.3318518518518431
  0
CIRCLE
  8
_0-0_計極細
  6
CONTINUOUS
 62
    2
 10
878.06168250840585
 20
634.34813765030083
 40
0.3318518518518431
  0
CIRCLE
  8
_0-0_計極細
  6
CONTINUOUS
 62
    2
 10
871.69723806396121
 20
633.70813765030096
 40
0.3318518518518431
  0
LINE
  8
_0-0_計極細
  6
CONTINUOUS
 62
    2
 10
913.21168742465431
 20
573.81446462663268
 11
928.95664753165966
 21
589.55942473363791
  0
LINE
  8
_0-0_計極細
  6
CONTINUOUS
 62
    2
 10
870.78528068546916
 20
573.81446475864084
 11
886.53024066046669
 21
589.55942473363791
  0
LINE
  8
_0-0_計極細
  6
CONTINUOUS
 62
    2
 10
867.15822387657909
 20
612.61381482094328
 11
885.10383378927395
 21
630.55942473363848
  0
LINE
  8
_0-0_計極細
  6
CONTINUOUS
 62
    2
 10
908.96904675073586
 20
573.81446463983355
 11
924.71400684454011
 21
589.55942473363791
  0
LINE
  8
_0-0_計極細
  6
CONTINUOUS
 62
    2
 10
867.15822387657909
 20
574.43004863686986
 11
885.66487216364771
 21
592.93669692393894
  0
LINE
  8
_0-0_計極細
  6
CONTINUOUS
 62
    2
 10
867.15822387657909
 20
616.85645550806282
 11
880.86119310215463
 21
630.55942473363848
  0
LINE
  8
_0-0_計極細
  6
CONTINUOUS
 62
    2
 10
904.7264060768174
 20
573.81446465303475
 11
920.47136615742136
 21
589.55942473363791
  0
LINE
  8
_0-0_計極細
  6
CONTINUOUS
 62
    2
 10
867.15822387657909
 20
578.6726893239894
 11
885.66487216364771
 21
597.17933761105803
  0
LINE
  8
_0-0_計極細
  6
CONTINUOUS
 62
    2
 10
867.15822387657909
 20
621.09909619518237
 11
876.6185524150352
 21
630.55942473363848
  0
LINE
  8
_0-0_計極細
  6
CONTINUOUS
 62
    2
 10
935.66487216364817
 20
589.55942473363791
 11
935.66487216364817
 21
573.81446455677099
  0
LINE
  8
_0-0_計極細
  6
CONTINUOUS
 62
    2
 10
885.66487216364771
 20
630.55942473363848
 11
867.15822387657909
 21
630.55942473363848
  0
LINE
  8
_0-0_計極細
  6
CONTINUOUS
 62
    2
 10
935.66487216364817
 20
589.55942473363791
 11
885.66487216364771
 21
589.55942473363791
  0
LINE
  8
_0-0_計極細
  6
CONTINUOUS
 62
    2
 10
885.66487216364771
 20
630.55942473363848
 11
885.66487216364771
 21
589.55942473363791
  0
CIRCLE
  8
_0-0_計極細
  6
CONTINUOUS
 62
    2
 10
1302.0616825084037
 20
622.67128579844905
 40
0.3318518518518431
  0
CIRCLE
  8
_0-0_計極細
  6
CONTINUOUS
 62
    2
 10
1313.8216825084037
 20
619.31128579844892
 40
0.3318518518518431
  0
LINE
  8
_0-0_計極細
  6
CONTINUOUS
 62
    2
 10
1300.6648721636484
 20
616.01076154262762
 11
1309.6648721636484
 21
616.01076154262762
  0
LINE
  8
_0-0_計極細
  6
CENTER1
 62
    2
 10
1305.1648721636484
 20
584.59338056296622
 11
1305.1648721636484
 21
618.57619364139316
  0
LINE
  8
_0-0_計極細
  6
CONTINUOUS
 62
    2
 10
1309.6648721636484
 20
616.01076154262762
 11
1309.6648721636484
 21
589.55942473363791
  0
LINE
  8
_0-0_計極細
  6
CONTINUOUS
 62
    2
 10
1300.6648721636484
 20
589.55942473363791
 11
1300.6648721636484
 21
616.01076154262762
  0
LINE
  8
_0-0_計極細
  6
CENTER1
 62
    2
 10
1316.3612637761005
 20
607.6348842006588
 11
1277.9426514865611
 21
621.61811549167976
  0
LINE
  8
_0-0_計極細
  6
CONTINUOUS
 62
    2
 10
1311.8489130959395
 20
604.48844543113989
 11
1278.7743062017307
 21
616.52661785068778
  0
LINE
  8
_0-0_計極細
  6
CONTINUOUS
 62
    2
 10
1314.9270943858708
 20
612.94567901821335
 11
1281.8524874916613
 21
624.98385143776102
  0
LINE
  8
_0-0_計極細
  6
CONTINUOUS
 62
    2
 10
1281.8524874916613
 20
624.98385143776102
 11
1278.7743062017307
 21
616.52661785068778
  0
LINE
  8
_0-0_計極細
  6
CONTINUOUS
 62
    2
 10
1311.8489130959395
 20
604.48844543113989
 11
1314.9270943858708
 21
612.94567901821335
  0
CIRCLE
  8
_0-0_計極細
  6
CONTINUOUS
 62
    2
 10
1261.4250158417369
 20
582.97073024289386
 40
1.0953188836088352
  0
CIRCLE
  8
_0-0_計極細
  6
CONTINUOUS
 62
    2
 10
1259.6561269528481
 20
626.54406357622736
 40
1.0953188836088352
  0
CIRCLE
  8
_0-0_計極細
  6
CONTINUOUS
 62
    2
 10
1260.0394602861818
 20
586.97202653919032
 40
0.3318518518518431
  0
CIRCLE
  8
_0-0_計極細
  6
CONTINUOUS
 62
    2
 10
1259.255509668898
 20
610.52535987252338
 40
0.3318518518518431
  0
LINE
  8
_0-0_計極細
  6
CONTINUOUS
 62
    2
 10
1255.6648721636479
 20
634.55942473363791
 11
1255.6648721636479
 21
573.81446455677099
  0
LINE
  8
_0-0_計極細
  6
CONTINUOUS
 62
    2
 10
1256.1648721636477
 20
634.55942473363791
 11
1255.6648721636479
 21
634.55942473363791
  0
CIRCLE
  8
_0-0_計極細
  6
CONTINUOUS
 62
    2
 10
1310.4616825084033
 20
641.88739690956004
 40
1.0953188836088352
  0
CIRCLE
  8
_0-0_計極細
  6
CONTINUOUS
 62
    2
 10
1310.3816825084036
 20
645.67869320585646
 40
0.3318518518518431
  0
CIRCLE
  8
_0-0_計極細
  6
CONTINUOUS
 62
    2
 10
1264.2387195454417
 20
605.4501403320055
 40
0.3318518518518431
  0
CIRCLE
  8
_0-0_計極細
  6
CONTINUOUS
 62
    2
 10
1264.1187195454411
 20
619.82347366533861
 40
0.3318518518518431
  0
CIRCLE
  8
_0-0_計極細
  6
CONTINUOUS
 62
    2
 10
1292.5983491750706
 20
623.07739690956032
 40
1.0953188836088352
  0
CIRCLE
  8
_0-0_計極細
  6
CONTINUOUS
 62
    2
 10
1322.9974647562406
 20
591.04516547437902
 40
1.0953188836088352
  0
CIRCLE
  8
_0-0_計極細
  6
CONTINUOUS
 62
    2
 10
1295.2383491750707
 20
597.15739690956059
 40
1.0953188836088352
  0
CIRCLE
  8
_0-0_計極細
  6
CONTINUOUS
 62
    2
 10
1274.1183491750708
 20
610.59739690956042
 40
1.0953188836088352
  0
CIRCLE
  8
_0-0_計極細
  6
CONTINUOUS
 62
    2
 10
1267.9850158417373
 20
592.67739690956068
 40
1.0953188836088352
  0
CIRCLE
  8
_0-0_計極細
  6
CONTINUOUS
 62
    2
 10
1310.2216825084033
 20
619.40739690956013
 40
1.0953188836088352
  0
CIRCLE
  8
_0-0_計極細
  6
CONTINUOUS
 62
    2
 10
1291.0216825084037
 20
638.60739690956029
 40
1.0953188836088352
  0
CIRCLE
  8
_0-0_計極細
  6
CONTINUOUS
 62
    2
 10
1324.2750158417366
 20
634.66073024289369
 40
1.0953188836088352
  0
CIRCLE
  8
_0-0_計極細
  6
CONTINUOUS
 62
    2
 10
1336.5416825084035
 20
635.67869320585612
 40
0.3318518518518431
  0
CIRCLE
  8
_0-0_計極細
  6
CONTINUOUS
 62
    2
 10
1318.7816825084037
 20
622.95869320585655
 40
0.3318518518518431
  0
CIRCLE
  8
_0-0_計極細
  6
CONTINUOUS
 62
    2
 10
1310.3816825084036
 20
627.2786932058566
 40
0.3318518518518431
  0
CIRCLE
  8
_0-0_計極細
  6
CONTINUOUS
 62
    2
 10
1321.1816825084031
 20
614.55869320585668
 40
0.3318518518518431
  0
CIRCLE
  8
_0-0_計極細
  6
CONTINUOUS
 62
    2
 10
1322.1416825084034
 20
602.07869320585678
 40
0.3318518518518431
  0
CIRCLE
  8
_0-0_計極細
  6
CONTINUOUS
 62
    2
 10
1317.8216825084032
 20
593.6786932058568
 40
0.3318518518518431
  0
CIRCLE
  8
_0-0_計極細
  6
CONTINUOUS
 62
    2
 10
1294.3016825084037
 20
625.59869320585665
 40
0.3318518518518431
  0
CIRCLE
  8
_0-0_計極細
  6
CONTINUOUS
 62
    2
 10
1288.9416825084036
 20
634.42535987252302
 40
0.3318518518518431
  0
CIRCLE
  8
_0-0_計極細
  6
CONTINUOUS
 62
    2
 10
1290.4350158417374
 20
646.26535987252294
 40
0.3318518518518431
  0
CIRCLE
  8
_0-0_計極細
  6
CONTINUOUS
 62
    2
 10
1296.1283491750705
 20
601.85202653919021
 40
0.3318518518518431
  0
CIRCLE
  8
_0-0_計極細
  6
CONTINUOUS
 62
    2
 10
1289.4083491750707
 20
598.49202653919008
 40
0.3318518518518431
  0
CIRCLE
  8
_0-0_計極細
  6
CONTINUOUS
 62
    2
 10
1296.6083491750705
 20
593.05202653919025
 40
0.3318518518518431
  0
CIRCLE
  8
_0-0_計極細
  6
CONTINUOUS
 62
    2
 10
1280.4483491750705
 20
592.89202653919017
 40
0.3318518518518431
  0
CIRCLE
  8
_0-0_計極細
  6
CONTINUOUS
 62
    2
 10
1272.1283491750705
 20
595.77202653919028
 40
0.3318518518518431
  0
CIRCLE
  8
_0-0_計極細
  6
CONTINUOUS
 62
    2
 10
1265.2483491750706
 20
577.85202653919043
 40
0.3318518518518431
  0
CIRCLE
  8
_0-0_計極細
  6
CONTINUOUS
 62
    2
 10
1270.8483491750708
 20
588.57202653919023
 40
0.3318518518518431
  0
CIRCLE
  8
_0-0_計極細
  6
CONTINUOUS
 62
    2
 10
1281.5483491750704
 20
602.55202653919002
 40
0.3318518518518431
  0
CIRCLE
  8
_0-0_計極細
  6
CONTINUOUS
 62
    2
 10
1271.0283491750706
 20
612.7653598725235
 40
0.3318518518518431
  0
CIRCLE
  8
_0-0_計極細
  6
CONTINUOUS
 62
    2
 10
1273.481682508404
 20
627.75202653918984
 40
0.3318518518518431
  0
CIRCLE
  8
_0-0_計極細
  6
CONTINUOUS
 62
    2
 10
1267.5083491750706
 20
624.87202653918996
 40
0.3318518518518431
  0
LINE
  8
_0-0_計極細
  6
CONTINUOUS
 62
    2
 10
1330.638873612404
 20
573.81446455677099
 11
1344.1715204756415
 21
587.3471114200081
  0
LINE
  8
_0-0_計極細
  6
CONTINUOUS
 62
    2
 10
1288.2124667412111
 20
573.81446455677099
 11
1303.9574269180785
 21
589.55942473363791
  0
LINE
  8
_0-0_計極細
  6
CONTINUOUS
 62
    2
 10
1325.6648721636484
 20
611.26686997920785
 11
1344.1715204511704
 21
629.77351826672964
  0
LINE
  8
_0-0_計極細
  6
CONTINUOUS
 62
    2
 10
1326.3962329252849
 20
573.81446455677099
 11
1344.1715204731943
 21
591.58975210468031
  0
LINE
  8
_0-0_計極細
  6
CONTINUOUS
 62
    2
 10
1283.969826054092
 20
573.81446455677099
 11
1299.7147862309594
 21
589.55942473363791
  0
LINE
  8
_0-0_計極細
  6
CONTINUOUS
 62
    2
 10
1325.6648721636484
 20
615.50951066632695
 11
1340.7147861232293
 21
630.55942462590804
  0
LINE
  8
_0-0_計極細
  6
CONTINUOUS
 62
    2
 10
1322.1535922381654
 20
573.81446455677099
 11
1344.1715204707473
 21
595.83239278935264
  0
LINE
  8
_0-0_計極細
  6
CONTINUOUS
 62
    2
 10
1279.7271853669724
 20
573.81446455677099
 11
1295.47214554384
 21
589.55942473363791
  0
LINE
  8
_0-0_計極細
  6
CONTINUOUS
 62
    2
 10
1325.6648721636484
 20
619.75215135344661
 11
1336.4721454664798
 21
630.55942465627766
  0
LINE
  8
_0-0_計極細
  6
CONTINUOUS
 62
    2
 10
1275.6648721636482
 20
589.55942473363791
 11
1275.6648721636482
 21
573.81446455677099
  0
LINE
  8
_0-0_計極細
  6
CONTINUOUS
 62
    2
 10
1325.6648721636484
 20
630.55942473363848
 11
1344.171520450717
 21
630.55942473363848
  0
LINE
  8
_0-0_計極細
  6
CONTINUOUS
 62
    2
 10
1275.6648721636482
 20
589.55942473363791
 11
1325.6648721636484
 21
589.55942473363791
  0
LINE
  8
_0-0_計極細
  6
CONTINUOUS
 62
    2
 10
1325.6648721636484
 20
630.55942473363848
 11
1325.6648721636484
 21
589.55942473363791
  0
LINE
  8
_0-1_計細線
  6
CONTINUOUS
 62
    3
 10
1285.6648721636484
 20
646.55942473363791
 11
1285.6648721636484
 21
611.55942473363791
  0
LINE
  8
_0-1_計細線
  6
CONTINUOUS
 62
    3
 10
1285.6648721636484
 20
611.55942473363791
 11
1287.9648721636486
 21
611.55942473363791
  0
LINE
  8
_0-1_計細線
  6
CONTINUOUS
 62
    3
 10
1287.9648721636486
 20
611.55942473363791
 11
1287.9648721636486
 21
646.55942473363791
  0
LINE
  8
_0-1_計細線
  6
CONTINUOUS
 62
    3
 10
1287.9648721636486
 20
646.55942473363791
 11
1285.6648721636484
 21
646.55942473363791
  0
LINE
  8
_0-0_計極細
  6
CONTINUOUS
 62
    2
 10
1287.9648721636486
 20
630.55942473363791
 11
1285.6648721636484
 21
630.55942473363791
  0
LINE
  8
_0-0_計極細
  6
CONTINUOUS
 62
    2
 10
1287.9648721636486
 20
632.55942473363791
 11
1285.6648721636484
 21
632.55942473363791
  0
LINE
  8
_0-0_計極細
  6
CONTINUOUS
 62
    2
 10
1287.9648721636486
 20
628.55942473363802
 11
1285.6648721636484
 21
628.55942473363802
  0
LINE
  8
_0-0_計極細
  6
CONTINUOUS
 62
    2
 10
1287.9648721636486
 20
634.55942473363791
 11
1285.6648721636484
 21
634.55942473363791
  0
LINE
  8
_0-0_計極細
  6
CONTINUOUS
 62
    2
 10
1285.6648721636484
 20
614.55942473363791
 11
1287.9648721636486
 21
614.55942473363791
  0
LINE
  8
_0-0_計極細
  6
CONTINUOUS
 62
    2
 10
1287.9648721636486
 20
644.55942473363791
 11
1285.6648721636484
 21
644.55942473363791
  0
LINE
  8
_0-7_枠細線
  6
CONTINUOUS
 62
    5
 10
1304.5789009844689
 20
631.70750856470238
 11
1297.0789009844689
 21
646.70750856470238
  0
LINE
  8
_0-7_枠細線
  6
CONTINUOUS
 62
    5
 10
1289.5789009844689
 20
631.70750856470238
 11
1304.5789009844689
 21
631.70750856470238
  0
LINE
  8
_0-7_枠細線
  6
CONTINUOUS
 62
    5
 10
1297.0789009844689
 20
646.70750856470238
 11
1289.5789009844689
 21
631.70750856470238
  0
TEXT
  8
_0-7_枠細線
 62
    5
 10
1291.944052252617
 20
630.75868859985246
 40
12.5
 41
0.8
 50
0
  1
５
  0
LINE
  8
_0-1_計細線
  6
CONTINUOUS
 62
    3
 10
925.66487216364806
 20
646.55942473363791
 11
925.66487216364806
 21
611.55942473363791
  0
LINE
  8
_0-1_計細線
  6
CONTINUOUS
 62
    3
 10
925.66487216364806
 20
611.55942473363791
 11
923.36487216364799
 21
611.55942473363791
  0
LINE
  8
_0-1_計細線
  6
CONTINUOUS
 62
    3
 10
923.36487216364799
 20
611.55942473363791
 11
923.36487216364799
 21
646.55942473363791
  0
LINE
  8
_0-1_計細線
  6
CONTINUOUS
 62
    3
 10
923.36487216364799
 20
646.55942473363791
 11
925.66487216364806
 21
646.55942473363791
  0
LINE
  8
_0-0_計極細
  6
CONTINUOUS
 62
    2
 10
923.36487216364799
 20
630.55942473363791
 11
925.66487216364806
 21
630.55942473363791
  0
LINE
  8
_0-0_計極細
  6
CONTINUOUS
 62
    2
 10
923.36487216364799
 20
632.55942473363791
 11
925.66487216364806
 21
632.55942473363791
  0
LINE
  8
_0-0_計極細
  6
CONTINUOUS
 62
    2
 10
923.36487216364799
 20
628.55942473363802
 11
925.66487216364806
 21
628.55942473363802
  0
LINE
  8
_0-0_計極細
  6
CONTINUOUS
 62
    2
 10
923.36487216364799
 20
634.55942473363791
 11
925.66487216364806
 21
634.55942473363791
  0
LINE
  8
_0-0_計極細
  6
CONTINUOUS
 62
    2
 10
925.66487216364806
 20
614.55942473363791
 11
923.36487216364799
 21
614.55942473363791
  0
LINE
  8
_0-0_計極細
  6
CONTINUOUS
 62
    2
 10
923.36487216364799
 20
644.55942473363791
 11
925.66487216364806
 21
644.55942473363791
  0
LINE
  8
_0-5_寸法線
  6
CONTINUOUS
 62
    7
 10
955.66487216364817
 20
629.55942473363791
 11
955.66487216364794
 21
556.55942473363791
  0
LINE
  8
_0-5_寸法線
  6
CONTINUOUS
 62
    7
 10
955.66487216364794
 20
561.55942473363791
 11
965.32413042653855
 21
564.1476151846631
  0
LINE
  8
_0-5_寸法線
  6
CONTINUOUS
 62
    7
 10
955.66487216364794
 20
561.55942473363791
 11
965.32413042653855
 21
558.97123428261273
  0
LINE
  8
_0-5_寸法線
  6
CONTINUOUS
 62
    7
 10
1255.6648721636479
 20
629.55942473363791
 11
1255.6648721636479
 21
556.55942473363791
  0
LINE
  8
_0-5_寸法線
  6
CONTINUOUS
 62
    7
 10
1255.6648721636479
 20
561.55942473363791
 11
1246.0056139007572
 21
558.97123428261273
  0
LINE
  8
_0-5_寸法線
  6
CONTINUOUS
 62
    7
 10
1255.6648721636479
 20
561.55942473363791
 11
1246.0056139007572
 21
564.1476151846631
  0
LINE
  8
_0-5_寸法線
  6
CONTINUOUS
 62
    7
 10
955.66487216364794
 20
561.55942473363791
 11
1255.6648721636479
 21
561.55942473363791
  0
TEXT
  8
_0-5_寸法線
 62
    7
 10
1094.4148721636479
 20
561.55942473363791
 40
15
 41
1
 50
0
  1
300
  0
LINE
  8
_0-5_寸法線
  6
CONTINUOUS
 62
    7
 10
925.66487216364806
 20
601.55942473363814
 11
925.66487216364726
 21
556.55942473363791
  0
LINE
  8
_0-5_寸法線
  6
CONTINUOUS
 62
    7
 10
925.66487216364737
 20
561.55942473363791
 11
935.32413042653798
 21
564.1476151846631
  0
LINE
  8
_0-5_寸法線
  6
CONTINUOUS
 62
    7
 10
925.66487216364737
 20
561.55942473363791
 11
935.32413042653798
 21
558.97123428261273
  0
LINE
  8
_0-5_寸法線
  6
CONTINUOUS
 62
    7
 10
955.66487216364806
 20
624.55942473363791
 11
955.66487216364681
 21
556.55942473363791
  0
LINE
  8
_0-5_寸法線
  6
CONTINUOUS
 62
    7
 10
955.66487216364692
 20
561.55942473363791
 11
946.00561390075609
 21
558.97123428261273
  0
LINE
  8
_0-5_寸法線
  6
CONTINUOUS
 62
    7
 10
955.66487216364692
 20
561.55942473363791
 11
946.00561390075609
 21
564.1476151846631
  0
LINE
  8
_0-5_寸法線
  6
CONTINUOUS
 62
    7
 10
925.66487216364737
 20
561.55942473363791
 11
955.66487216364692
 21
561.55942473363791
  0
TEXT
  8
_0-5_寸法線
 62
    7
 10
933.16487216364703
 20
561.55942473363791
 40
15
 41
1
 50
0
  1
30
  0
LINE
  8
_0-5_寸法線
  6
CONTINUOUS
 62
    7
 10
1285.6648721636484
 20
601.55942473363814
 11
1285.6648721636484
 21
556.55942473363791
  0
LINE
  8
_0-5_寸法線
  6
CONTINUOUS
 62
    7
 10
1285.6648721636484
 20
561.55942473363791
 11
1276.0056139007577
 21
558.97123428261273
  0
LINE
  8
_0-5_寸法線
  6
CONTINUOUS
 62
    7
 10
1285.6648721636484
 20
561.55942473363791
 11
1276.0056139007577
 21
564.1476151846631
  0
LINE
  8
_0-5_寸法線
  6
CONTINUOUS
 62
    7
 10
1255.6648721636484
 20
624.55942473363791
 11
1255.6648721636484
 21
556.55942473363791
  0
LINE
  8
_0-5_寸法線
  6
CONTINUOUS
 62
    7
 10
1255.6648721636484
 20
561.55942473363791
 11
1265.3241304265391
 21
564.1476151846631
  0
LINE
  8
_0-5_寸法線
  6
CONTINUOUS
 62
    7
 10
1255.6648721636484
 20
561.55942473363791
 11
1265.3241304265391
 21
558.97123428261273
  0
LINE
  8
_0-5_寸法線
  6
CONTINUOUS
 62
    7
 10
1285.6648721636484
 20
561.55942473363791
 11
1255.6648721636484
 21
561.55942473363791
  0
TEXT
  8
_0-5_寸法線
 62
    7
 10
1263.1648721636484
 20
561.55942473363791
 40
15
 41
1
 50
0
  1
30
  0
CIRCLE
  8
_0-0_計極細
  6
CONTINUOUS
 62
    2
 10
1314.5925038410323
 20
651.46237224756123
 40
0.3318518518518431
  0
TEXT
  8
_0-7_枠細線
 62
    5
 10
1056.3474408707198
 20
523.84128365903962
 40
25
 41
0.8
 50
0
  1
断面詳細図
  0
TEXT
  8
_0-7_枠細線
 62
    5
 10
1171.2964106198876
 20
526.35639273922845
 40
20
 41
0.6
 50
0
  1
Ｓ＝１：５
  0
LINE
  8
_0-7_枠細線
  6
CONTINUOUS
 62
    5
 10
890
 20
820
 11
890
 21
959.99999999999909
  0
LINE
  8
_0-7_枠細線
  6
CONTINUOUS
 62
    5
 10
925
 20
820
 11
925
 21
959.99999999999909
  0
LINE
  8
_0-7_枠細線
  6
CONTINUOUS
 62
    5
 10
1175
 20
820
 11
1175
 21
959.99999999999909
  0
LINE
  8
_0-7_枠細線
  6
CONTINUOUS
 62
    5
 10
1275
 20
820
 11
1275
 21
959.99999999999909
  0
LINE
  8
_0-1_計細線
  6
CONTINUOUS
 62
    3
 10
1116.5148721643811
 20
662.35920573262877
 11
1116.5148721643811
 21
643.35920573262842
  0
LINE
  8
_0-1_計細線
  6
CONTINUOUS
 62
    3
 10
1111.8148721643809
 20
643.35920573262842
 11
1111.8148721643809
 21
662.35920573262877
  0
LINE
  8
_0-1_計細線
  6
CONTINUOUS
 62
    3
 10
1116.5148721643811
 20
643.35920573262842
 11
1111.8148721643809
 21
643.35920573262842
  0
LINE
  8
_0-1_計細線
  6
CONTINUOUS
 62
    3
 10
1111.8148721643809
 20
662.35920573262877
 11
1116.5148721643811
 21
662.35920573262877
  0
LINE
  8
_0-1_計細線
  6
DASHED2
 62
    3
 10
1111.8148721643809
 20
646.35920573262842
 11
1116.5148721643811
 21
646.35920573262842
  0
LINE
  8
_0-1_計細線
  6
DASHED2
 62
    3
 10
1111.8148721643809
 20
659.85920573262877
 11
1116.5148721643811
 21
659.85920573262877
  0
LINE
  8
_0-1_計細線
  6
CONTINUOUS
 62
    3
 10
343.65569731883602
 20
562.73920897572179
 11
396.65569731883608
 21
562.73920897572179
  0
LINE
  8
_0-1_計細線
  6
CONTINUOUS
 62
    3
 10
396.65569731883608
 20
567.43920897572161
 11
343.65569731883602
 21
567.43920897572161
  0
LINE
  8
_0-1_計細線
  6
CONTINUOUS
 62
    3
 10
343.65569731883602
 20
567.43920897572161
 11
343.65569731883602
 21
562.73920897572179
  0
LINE
  8
_0-1_計細線
  6
CONTINUOUS
 62
    3
 10
386.65569731883608
 20
567.43920897572161
 11
386.65569731883608
 21
562.73920897572179
  0
LINE
  8
_0-1_計細線
  6
CONTINUOUS
 62
    3
 10
394.65569731883602
 20
567.43920897572161
 11
394.65569731883602
 21
562.73920897572179
  0
LINE
  8
_0-1_計細線
  6
CONTINUOUS
 62
    3
 10
396.65569731883608
 20
567.43920897572161
 11
396.65569731883608
 21
562.73920897572179
  0
LINE
  8
_0-1_計細線
  6
CONTINUOUS
 62
    3
 10
392.65569731883602
 20
567.43920897572161
 11
392.65569731883602
 21
562.73920897572179
  0
LINE
  8
_0-1_計細線
  6
CONTINUOUS
 62
    3
 10
390.65569731883608
 20
567.43920897572161
 11
390.65569731883608
 21
562.73920897572179
  0
LINE
  8
_0-1_計細線
  6
CONTINUOUS
 62
    3
 10
388.65569731883602
 20
567.43920897572161
 11
388.65569731883602
 21
562.73920897572179
  0
LINE
  8
_0-d_寸法3
  6
CONTINUOUS
 62
    7
 10
443.21266998758125
 20
226.00978604207992
 11
443.21266998758125
 21
267.67645270874647
  0
LINE
  8
_0-d_寸法3
  6
CONTINUOUS
 62
    7
 10
443.21266998758125
 20
262.67645270874647
 11
452.87192825047191
 21
265.26464315977165
  0
LINE
  8
_0-d_寸法3
  6
CONTINUOUS
 62
    7
 10
443.21266998758125
 20
262.67645270874647
 11
452.87192825047191
 21
260.08826225772128
  0
LINE
  8
_0-d_寸法3
  6
CONTINUOUS
 62
    7
 10
472.21266998818419
 20
226.00978604207992
 11
472.21266998818419
 21
267.67645270874647
  0
LINE
  8
_0-d_寸法3
  6
CONTINUOUS
 62
    7
 10
472.21266998818419
 20
262.67645270874647
 11
462.55341172529347
 21
260.08826225772128
  0
LINE
  8
_0-d_寸法3
  6
CONTINUOUS
 62
    7
 10
472.21266998818419
 20
262.67645270874647
 11
462.55341172529359
 21
265.26464315977171
  0
LINE
  8
_0-d_寸法3
  6
CONTINUOUS
 62
    7
 10
443.21266998758125
 20
262.67645270874647
 11
472.21266998818419
 21
262.67645270874647
  0
TEXT
  8
_0-d_寸法3
 62
    7
 10
431.66649207793995
 20
247.6764527087465
 40
15
 41
1
 50
0
  1
(17.4)
  0
LINE
  8
_0-d_寸法3
  6
CONTINUOUS
 62
    7
 10
472.21266998818419
 20
262.67645270874647
 11
481.87192825107496
 21
265.26464315977159
  0
LINE
  8
_0-d_寸法3
  6
CONTINUOUS
 62
    7
 10
472.21266998818419
 20
262.67645270874647
 11
481.87192825107491
 21
260.08826225772123
  0
LINE
  8
_0-d_寸法3
  6
CONTINUOUS
 62
    7
 10
501.21266998878724
 20
226.00978604207992
 11
501.21266998878724
 21
267.67645270874647
  0
LINE
  8
_0-d_寸法3
  6
CONTINUOUS
 62
    7
 10
501.21266998878724
 20
262.67645270874647
 11
491.55341172589652
 21
260.08826225772128
  0
LINE
  8
_0-d_寸法3
  6
CONTINUOUS
 62
    7
 10
501.21266998878724
 20
262.67645270874647
 11
491.55341172589658
 21
265.26464315977171
  0
LINE
  8
_0-d_寸法3
  6
CONTINUOUS
 62
    7
 10
472.21266998818419
 20
262.67645270874647
 11
501.21266998878724
 21
262.67645270874647
  0
TEXT
  8
_0-d_寸法3
 62
    7
 10
468.73315874460661
 20
262.67645270874647
 40
15
 41
1
 50
0
  1
(17.4)
  0
ARC
  8
_0-a_極細3
  6
CONTINUOUS
 62
    7
 10
532.04207331331736
 20
204.49650355039495
 40
17.558839598481345
 50
150.03871396148173
 51
205.23810402387875
  0
ARC
  8
_0-a_極細3
  6
CONTINUOUS
 62
    7
 10
500.27659812341938
 20
189.52299433776432
 40
17.558839598481345
 50
330.03871396148196
 51
25.238104023878222
  0
ARC
  8
_0-a_極細3
  6
CONTINUOUS
 62
    7
 10
387.12225787498346
 20
204.49650355039495
 40
17.558839598481345
 50
150.03871396148173
 51
205.23810402387869
  0
ARC
  8
_0-a_極細3
  6
CONTINUOUS
 62
    7
 10
355.35678268508542
 20
189.52299433776432
 40
17.558839598481345
 50
330.03871396148202
 51
25.238104023878119
  0
ARC
  8
_0-b_細線3
  6
CONTINUOUS
 62
    7
 10
435.3793366560871
 20
212.6764527087465
 40
1.666666666666667
 50
89.999999999999915
 51
179.99999999999983
  0
ARC
  8
_0-b_細線3
  6
CONTINUOUS
 62
    7
 10
436.15925197496614
 20
216.00978604207992
 40
1.666666666666667
 50
269.99999999999977
 51
330.00000000000279
  0
ARC
  8
_0-b_細線3
  6
CONTINUOUS
 62
    7
 10
439.04600332091422
 20
214.34311937541344
 40
1.666666666666667
 50
89.999999999999915
 51
150.00000000000134
  0
LINE
  8
_0-b_細線3
  6
CONTINUOUS
 62
    7
 10
435.3793366560871
 20
214.34311937541344
 11
436.15925197496614
 21
214.34311937541344
  0
ARC
  8
_0-b_細線3
  6
CONTINUOUS
 62
    7
 10
451.04600331907523
 20
212.6764527087465
 40
1.666666666666667
 50
0
 51
89.999999999999915
  0
ARC
  8
_0-b_細線3
  6
CONTINUOUS
 62
    7
 10
450.26608800019579
 20
216.00978604207992
 40
1.666666666666667
 50
210.00000000000236
 51
269.99999999999977
  0
ARC
  8
_0-b_細線3
  6
CONTINUOUS
 62
    7
 10
447.37933665424777
 20
214.34311937541344
 40
1.666666666666667
 50
29.999999999991843
 51
89.999999999986329
  0
LINE
  8
_0-b_細線3
  6
CONTINUOUS
 62
    7
 10
451.04600331907523
 20
214.34311937541344
 11
450.26608800019579
 21
214.34311937541344
  0
ARC
  8
_0-b_細線3
  6
CONTINUOUS
 62
    7
 10
434.54600332275368
 20
210.34311937541338
 40
0.8333333333333334
 50
179.99999999999983
 51
269.99999999999977
  0
LINE
  8
_0-b_細線3
  6
CONTINUOUS
 62
    7
 10
433.71266998942025
 20
212.6764527087465
 11
433.71266998942025
 21
210.34311937541338
  0
ARC
  8
_0-b_細線3
  6
CONTINUOUS
 62
    7
 10
451.87933665240826
 20
210.34311937541338
 40
0.8333333333333334
 50
269.99999999999977
 51
359.99999999999966
  0
LINE
  8
_0-b_細線3
  6
CONTINUOUS
 62
    7
 10
452.71266998574168
 20
212.6764527087465
 11
452.71266998574168
 21
210.34311937541338
  0
ARC
  8
_0-b_細線3
  6
CONTINUOUS
 62
    7
 10
438.71266998942025
 20
207.84311937541338
 40
1.666666666666667
 50
0
 51
89.999999999999915
  0
LINE
  8
_0-b_細線3
  6
CONTINUOUS
 62
    7
 10
438.71266998942025
 20
209.50978604207995
 11
434.54600332275368
 21
209.50978604207995
  0
ARC
  8
_0-b_細線3
  6
CONTINUOUS
 62
    7
 10
447.71266998942059
 20
207.84311937541338
 40
1.666666666666667
 50
89.999999999999915
 51
179.99999999999983
  0
LINE
  8
_0-b_細線3
  6
CONTINUOUS
 62
    7
 10
447.71266998574168
 20
209.50978604207995
 11
451.87933665240826
 21
209.50978604207995
  0
LINE
  8
_0-b_細線3
  6
CONTINUOUS
 62
    7
 10
447.37933665424777
 20
216.00978604207992
 11
439.04600332091422
 21
216.00978604207992
  0
LINE
  8
_0-b_細線3
  6
CONTINUOUS
 62
    7
 10
440.37933665424765
 20
174.34311937541344
 11
440.3793366560871
 21
207.84311937541338
  0
LINE
  8
_0-b_細線3
  6
CONTINUOUS
 62
    7
 10
446.04600332091428
 20
174.34311937541344
 11
446.04600332275413
 21
207.84311937541338
  0
LINE
  8
_0-b_細線3
  6
CONTINUOUS
 62
    7
 10
446.04600332091428
 20
174.34311937541344
 11
440.37933665424765
 21
174.34311937541344
  0
ARC
  8
_0-b_細線3
  6
CONTINUOUS
 62
    7
 10
464.37933665669021
 20
212.6764527087465
 40
1.666666666666667
 50
89.999999999999915
 51
179.99999999999983
  0
ARC
  8
_0-b_細線3
  6
CONTINUOUS
 62
    7
 10
465.15925197556902
 20
216.00978604207992
 40
1.666666666666667
 50
269.99999999999977
 51
329.9999999999979
  0
ARC
  8
_0-b_細線3
  6
CONTINUOUS
 62
    7
 10
468.04600332151722
 20
214.34311937541344
 40
1.666666666666667
 50
89.999999999999915
 51
150.00000000000819
  0
LINE
  8
_0-b_細線3
  6
CONTINUOUS
 62
    7
 10
464.37933665669021
 20
214.34311937541344
 11
465.15925197556902
 21
214.34311937541344
  0
ARC
  8
_0-b_細線3
  6
CONTINUOUS
 62
    7
 10
480.04600331967822
 20
212.6764527087465
 40
1.666666666666667
 50
0
 51
89.999999999999915
  0
ARC
  8
_0-b_細線3
  6
CONTINUOUS
 62
    7
 10
479.2660880007989
 20
216.00978604207992
 40
1.666666666666667
 50
209.99999999999451
 51
269.99999999999977
  0
ARC
  8
_0-b_細線3
  6
CONTINUOUS
 62
    7
 10
476.3793366548507
 20
214.34311937541344
 40
1.666666666666667
 50
29.999999999998682
 51
89.999999999999915
  0
LINE
  8
_0-b_細線3
  6
CONTINUOUS
 62
    7
 10
480.04600331967822
 20
214.34311937541344
 11
479.2660880007989
 21
214.34311937541344
  0
ARC
  8
_0-b_細線3
  6
CONTINUOUS
 62
    7
 10
463.54600332335713
 20
210.34311937541338
 40
0.8333333333333334
 50
179.99999999999983
 51
269.99999999999977
  0
LINE
  8
_0-b_細線3
  6
CONTINUOUS
 62
    7
 10
462.71266999002313
 20
212.6764527087465
 11
462.71266999002313
 21
210.34311937541338
  0
ARC
  8
_0-b_細線3
  6
CONTINUOUS
 62
    7
 10
480.87933665301125
 20
210.34311937541338
 40
0.8333333333333334
 50
269.99999999999977
 51
359.99999999999966
  0
LINE
  8
_0-b_細線3
  6
CONTINUOUS
 62
    7
 10
481.71266998634479
 20
212.6764527087465
 11
481.71266998634479
 21
210.34311937541338
  0
ARC
  8
_0-b_細線3
  6
CONTINUOUS
 62
    7
 10
467.71266999002319
 20
207.84311937541338
 40
1.666666666666667
 50
0
 51
89.999999999999915
  0
LINE
  8
_0-b_細線3
  6
CONTINUOUS
 62
    7
 10
467.71266999002319
 20
209.50978604207995
 11
463.54600332335713
 21
209.50978604207995
  0
ARC
  8
_0-b_細線3
  6
CONTINUOUS
 62
    7
 10
476.7126699900237
 20
207.84311937541338
 40
1.666666666666667
 50
89.999999999999915
 51
179.99999999999983
  0
LINE
  8
_0-b_細線3
  6
CONTINUOUS
 62
    7
 10
476.71266998634479
 20
209.50978604207995
 11
480.87933665301125
 21
209.50978604207995
  0
LINE
  8
_0-b_細線3
  6
CONTINUOUS
 62
    7
 10
476.3793366548507
 20
216.00978604207992
 11
468.04600332151722
 21
216.00978604207992
  0
LINE
  8
_0-b_細線3
  6
CONTINUOUS
 62
    7
 10
469.37933665485076
 20
174.34311937541344
 11
469.37933665669021
 21
207.84311937541338
  0
LINE
  8
_0-b_細線3
  6
CONTINUOUS
 62
    7
 10
475.04600332151722
 20
174.34311937541344
 11
475.04600332335713
 21
207.84311937541338
  0
LINE
  8
_0-b_細線3
  6
CONTINUOUS
 62
    7
 10
475.04600332151722
 20
174.34311937541344
 11
469.37933665485076
 21
174.34311937541344
  0
ARC
  8
_0-b_細線3
  6
CONTINUOUS
 62
    7
 10
493.37933665729327
 20
212.6764527087465
 40
1.666666666666667
 50
89.999999999999915
 51
179.99999999999983
  0
ARC
  8
_0-b_細線3
  6
CONTINUOUS
 62
    7
 10
494.15925197617213
 20
216.00978604207992
 40
1.666666666666667
 50
269.99999999999977
 51
329.9999999999979
  0
ARC
  8
_0-b_細線3
  6
CONTINUOUS
 62
    7
 10
497.04600332212021
 20
214.34311937541344
 40
1.666666666666667
 50
89.999999999999915
 51
150.00000000000819
  0
LINE
  8
_0-b_細線3
  6
CONTINUOUS
 62
    7
 10
493.37933665729327
 20
214.34311937541344
 11
494.15925197617213
 21
214.34311937541344
  0
ARC
  8
_0-b_細線3
  6
CONTINUOUS
 62
    7
 10
509.04600332028122
 20
212.6764527087465
 40
1.666666666666667
 50
0
 51
89.999999999999915
  0
ARC
  8
_0-b_細線3
  6
CONTINUOUS
 62
    7
 10
508.26608800140195
 20
216.00978604207992
 40
1.666666666666667
 50
210.00000000000136
 51
269.99999999999977
  0
ARC
  8
_0-b_細線3
  6
CONTINUOUS
 62
    7
 10
505.37933665545381
 20
214.34311937541344
 40
1.666666666666667
 50
29.999999999991843
 51
89.999999999984382
  0
LINE
  8
_0-b_細線3
  6
CONTINUOUS
 62
    7
 10
509.04600332028122
 20
214.34311937541344
 11
508.26608800140195
 21
214.34311937541344
  0
ARC
  8
_0-b_細線3
  6
CONTINUOUS
 62
    7
 10
492.54600332395972
 20
210.34311937541338
 40
0.8333333333333334
 50
179.99999999999983
 51
269.99999999999977
  0
LINE
  8
_0-b_細線3
  6
CONTINUOUS
 62
    7
 10
491.71266999062624
 20
212.6764527087465
 11
491.71266999062624
 21
210.34311937541338
  0
ARC
  8
_0-b_細線3
  6
CONTINUOUS
 62
    7
 10
509.8793366536143
 20
210.34311937541338
 40
0.8333333333333334
 50
269.99999999999977
 51
359.99999999999966
  0
LINE
  8
_0-b_細線3
  6
CONTINUOUS
 62
    7
 10
510.71266998694784
 20
212.6764527087465
 11
510.71266998694784
 21
210.34311937541338
  0
ARC
  8
_0-b_細線3
  6
CONTINUOUS
 62
    7
 10
496.71266999062624
 20
207.84311937541338
 40
1.666666666666667
 50
0
 51
89.999999999999915
  0
LINE
  8
_0-b_細線3
  6
CONTINUOUS
 62
    7
 10
496.71266999062624
 20
209.50978604207995
 11
492.54600332395972
 21
209.50978604207995
  0
ARC
  8
_0-b_細線3
  6
CONTINUOUS
 62
    7
 10
505.7126699906263
 20
207.84311937541338
 40
1.666666666666667
 50
89.999999999999915
 51
179.99999999999983
  0
LINE
  8
_0-b_細線3
  6
CONTINUOUS
 62
    7
 10
505.71266998694739
 20
209.50978604207995
 11
509.8793366536143
 21
209.50978604207995
  0
LINE
  8
_0-b_細線3
  6
CONTINUOUS
 62
    7
 10
505.37933665545381
 20
216.00978604207992
 11
497.04600332212021
 21
216.00978604207992
  0
LINE
  8
_0-b_細線3
  6
CONTINUOUS
 62
    7
 10
498.37933665545381
 20
174.34311937541344
 11
498.37933665729327
 21
207.84311937541338
  0
LINE
  8
_0-b_細線3
  6
CONTINUOUS
 62
    7
 10
504.04600332212027
 20
174.34311937541344
 11
504.04600332396012
 21
207.84311937541338
  0
LINE
  8
_0-b_細線3
  6
CONTINUOUS
 62
    7
 10
504.04600332212027
 20
174.34311937541344
 11
498.37933665545381
 21
174.34311937541344
  0
ARC
  8
_0-b_細線3
  6
CONTINUOUS
 62
    7
 10
377.37933665456416
 20
212.6764527087465
 40
1.666666666666667
 50
89.999999999999915
 51
179.99999999999983
  0
ARC
  8
_0-b_細線3
  6
CONTINUOUS
 62
    7
 10
378.15925197344313
 20
216.00978604207992
 40
1.666666666666667
 50
269.99999999999977
 51
330.00000000000375
  0
ARC
  8
_0-b_細線3
  6
CONTINUOUS
 62
    7
 10
381.04600331939133
 20
214.34311937541344
 40
1.666666666666667
 50
89.999999999999915
 51
150.0000000000023
  0
LINE
  8
_0-b_細線3
  6
CONTINUOUS
 62
    7
 10
377.37933665456416
 20
214.34311937541344
 11
378.15925197344313
 21
214.34311937541344
  0
ARC
  8
_0-b_細線3
  6
CONTINUOUS
 62
    7
 10
393.04600331755233
 20
212.6764527087465
 40
1.666666666666667
 50
0
 51
89.999999999999915
  0
ARC
  8
_0-b_細線3
  6
CONTINUOUS
 62
    7
 10
392.26608799867336
 20
216.00978604207992
 40
1.666666666666667
 50
209.99999999999451
 51
269.99999999999977
  0
ARC
  8
_0-b_細線3
  6
CONTINUOUS
 62
    7
 10
389.37933665272482
 20
214.34311937541344
 40
1.666666666666667
 50
29.999999999990862
 51
89.999999999986315
  0
LINE
  8
_0-b_細線3
  6
CONTINUOUS
 62
    7
 10
393.04600331755233
 20
214.34311937541344
 11
392.26608799867336
 21
214.34311937541344
  0
ARC
  8
_0-b_細線3
  6
CONTINUOUS
 62
    7
 10
376.54600332123118
 20
210.34311937541338
 40
0.8333333333333334
 50
179.99999999999983
 51
269.99999999999977
  0
LINE
  8
_0-b_細線3
  6
CONTINUOUS
 62
    7
 10
375.71266998789724
 20
212.6764527087465
 11
375.71266998789724
 21
210.34311937541338
  0
ARC
  8
_0-b_細線3
  6
CONTINUOUS
 62
    7
 10
393.87933665088531
 20
210.34311937541338
 40
0.8333333333333334
 50
269.99999999999977
 51
359.99999999999966
  0
LINE
  8
_0-b_細線3
  6
CONTINUOUS
 62
    7
 10
394.71266998421925
 20
212.6764527087465
 11
394.71266998421925
 21
210.34311937541338
  0
ARC
  8
_0-b_細線3
  6
CONTINUOUS
 62
    7
 10
380.71266998789724
 20
207.84311937541338
 40
1.666666666666667
 50
0
 51
89.999999999999915
  0
LINE
  8
_0-b_細線3
  6
CONTINUOUS
 62
    7
 10
380.71266998789724
 20
209.50978604207995
 11
376.54600332123118
 21
209.50978604207995
  0
ARC
  8
_0-b_細線3
  6
CONTINUOUS
 62
    7
 10
389.71266998789764
 20
207.84311937541338
 40
1.666666666666667
 50
89.999999999999915
 51
179.99999999999983
  0
LINE
  8
_0-b_細線3
  6
CONTINUOUS
 62
    7
 10
389.71266998421873
 20
209.50978604207995
 11
393.87933665088531
 21
209.50978604207995
  0
LINE
  8
_0-b_細線3
  6
CONTINUOUS
 62
    7
 10
389.37933665272482
 20
216.00978604207992
 11
381.04600331939133
 21
216.00978604207992
  0
LINE
  8
_0-b_細線3
  6
CONTINUOUS
 62
    7
 10
382.37933665272521
 20
174.34311937541344
 11
382.37933665456416
 21
207.84311937541338
  0
LINE
  8
_0-b_細線3
  6
CONTINUOUS
 62
    7
 10
388.04600331939127
 20
174.34311937541344
 11
388.04600332123124
 21
207.84311937541338
  0
LINE
  8
_0-b_細線3
  6
CONTINUOUS
 62
    7
 10
388.04600331939127
 20
174.34311937541344
 11
382.37933665272521
 21
174.34311937541344
  0
ARC
  8
_0-b_細線3
  6
CONTINUOUS
 62
    7
 10
406.37933665516726
 20
212.6764527087465
 40
1.666666666666667
 50
89.999999999999915
 51
179.99999999999983
  0
ARC
  8
_0-b_細線3
  6
CONTINUOUS
 62
    7
 10
407.15925197404664
 20
216.00978604207992
 40
1.666666666666667
 50
269.99999999999977
 51
329.99999999998812
  0
ARC
  8
_0-b_細線3
  6
CONTINUOUS
 62
    7
 10
410.04600331999433
 20
214.34311937541344
 40
1.666666666666667
 50
89.999999999999915
 51
150.00000000001012
  0
LINE
  8
_0-b_細線3
  6
CONTINUOUS
 62
    7
 10
406.37933665516726
 20
214.34311937541344
 11
407.15925197404664
 21
214.34311937541344
  0
ARC
  8
_0-b_細線3
  6
CONTINUOUS
 62
    7
 10
422.04600331815533
 20
212.6764527087465
 40
1.666666666666667
 50
0
 51
89.999999999999915
  0
ARC
  8
_0-b_細線3
  6
CONTINUOUS
 62
    7
 10
421.26608799927595
 20
216.00978604207992
 40
1.666666666666667
 50
210.00000000000333
 51
269.99999999999977
  0
ARC
  8
_0-b_細線3
  6
CONTINUOUS
 62
    7
 10
418.37933665332827
 20
214.34311937541344
 40
1.666666666666667
 50
29.999999999997708
 51
89.999999999999901
  0
LINE
  8
_0-b_細線3
  6
CONTINUOUS
 62
    7
 10
422.04600331815533
 20
214.34311937541344
 11
421.26608799927595
 21
214.34311937541344
  0
ARC
  8
_0-b_細線3
  6
CONTINUOUS
 62
    7
 10
405.54600332183418
 20
210.34311937541338
 40
0.8333333333333334
 50
179.99999999999983
 51
269.99999999999977
  0
LINE
  8
_0-b_細線3
  6
CONTINUOUS
 62
    7
 10
404.71266998850075
 20
212.6764527087465
 11
404.71266998850075
 21
210.34311937541338
  0
ARC
  8
_0-b_細線3
  6
CONTINUOUS
 62
    7
 10
422.8793366514883
 20
210.34311937541338
 40
0.8333333333333334
 50
269.99999999999977
 51
359.99999999999966
  0
LINE
  8
_0-b_細線3
  6
CONTINUOUS
 62
    7
 10
423.71266998482184
 20
212.6764527087465
 11
423.71266998482184
 21
210.34311937541338
  0
ARC
  8
_0-b_細線3
  6
CONTINUOUS
 62
    7
 10
409.71266998850075
 20
207.84311937541338
 40
1.666666666666667
 50
0
 51
89.999999999999915
  0
LINE
  8
_0-b_細線3
  6
CONTINUOUS
 62
    7
 10
409.71266998850075
 20
209.50978604207995
 11
405.54600332183418
 21
209.50978604207995
  0
ARC
  8
_0-b_細線3
  6
CONTINUOUS
 62
    7
 10
418.71266998850075
 20
207.84311937541338
 40
1.666666666666667
 50
89.999999999999915
 51
179.99999999999983
  0
LINE
  8
_0-b_細線3
  6
CONTINUOUS
 62
    7
 10
418.71266998482184
 20
209.50978604207995
 11
422.8793366514883
 21
209.50978604207995
  0
LINE
  8
_0-b_細線3
  6
CONTINUOUS
 62
    7
 10
418.37933665332827
 20
216.00978604207992
 11
410.04600331999433
 21
216.00978604207992
  0
LINE
  8
_0-b_細線3
  6
CONTINUOUS
 62
    7
 10
411.37933665332781
 20
174.34311937541344
 11
411.37933665516726
 21
207.84311937541338
  0
LINE
  8
_0-b_細線3
  6
CONTINUOUS
 62
    7
 10
417.04600331999478
 20
174.34311937541344
 11
417.04600332183423
 21
207.84311937541338
  0
LINE
  8
_0-b_細線3
  6
CONTINUOUS
 62
    7
 10
417.04600331999478
 20
174.34311937541344
 11
411.37933665332781
 21
174.34311937541344
  0
LINE
  8
_0-d_寸法3
  6
CONTINUOUS
 62
    7
 10
509.40419043199313
 20
180.07888373892393
 11
544.75653215767863
 21
204.83285990861469
  0
LINE
  8
_0-d_寸法3
  6
CONTINUOUS
 62
    7
 10
540.66077193623369
 20
201.96497772685944
 11
538.0725814852085
 21
211.6242359897501
  0
LINE
  8
_0-d_寸法3
  6
CONTINUOUS
 62
    7
 10
540.66077193623369
 20
201.96497772685944
 11
543.24896238725887
 21
211.6242359897501
  0
LINE
  8
_0-d_寸法3
  6
CONTINUOUS
 62
    7
 10
509.40419043199313
 20
221.74555040559042
 11
544.75653215767863
 21
246.49952657528121
  0
LINE
  8
_0-d_寸法3
  6
CONTINUOUS
 62
    7
 10
540.66077193623369
 20
243.63164439352599
 11
543.24896238725887
 21
233.9723861306353
  0
LINE
  8
_0-d_寸法3
  6
CONTINUOUS
 62
    7
 10
540.66077193623369
 20
243.63164439352599
 11
538.0725814852085
 21
233.97238613063533
  0
LINE
  8
_0-d_寸法3
  6
CONTINUOUS
 62
    7
 10
540.66077193623369
 20
201.96497772685944
 11
540.66077193623369
 21
243.63164439352599
  0
TEXT
  8
_0-d_寸法3
 62
    7
 10
540.66077193623369
 20
215.29831106019375
 40
15
 41
1
 50
90
  1
25
  0
LINE
  8
_0-a_極細3
  6
CENTER1
 62
    7
 10
522.01143697787711
 20
197.34311937541321
 11
359.43289434995131
 21
197.34311937541321
  0
LINE
  8
_0-b_細線3
  6
CONTINUOUS
 62
    7
 10
446.04600332183423
 20
186.50978604207992
 11
469.37933665516766
 21
186.50978604207992
  0
LINE
  8
_0-b_細線3
  6
CONTINUOUS
 62
    7
 10
475.04600332243717
 20
186.50978604207992
 11
498.37933665577066
 21
186.50978604207992
  0
LINE
  8
_0-b_細線3
  6
CONTINUOUS
 62
    7
 10
388.04600332031129
 20
186.50978604207992
 11
411.37933665364477
 21
186.50978604207992
  0
LINE
  8
_0-b_細線3
  6
CONTINUOUS
 62
    7
 10
417.04600332091474
 20
186.50978604207992
 11
440.37933665424765
 21
186.50978604207992
  0
LINE
  8
_0-b_細線3
  6
CONTINUOUS
 62
    7
 10
446.04600332183423
 20
208.17645270874669
 11
469.37933665516766
 21
208.17645270874669
  0
LINE
  8
_0-b_細線3
  6
CONTINUOUS
 62
    7
 10
475.04600332243717
 20
208.17645270874669
 11
498.37933665577066
 21
208.17645270874669
  0
LINE
  8
_0-b_細線3
  6
CONTINUOUS
 62
    7
 10
388.04600332031129
 20
208.17645270874669
 11
411.37933665364477
 21
208.17645270874669
  0
LINE
  8
_0-b_細線3
  6
CONTINUOUS
 62
    7
 10
417.04600332091474
 20
208.17645270874669
 11
440.37933665424765
 21
208.17645270874669
  0
LINE
  8
_0-b_細線3
  6
CONTINUOUS
 62
    7
 10
504.04600332304028
 20
208.17645270874669
 11
514.80509971384026
 21
208.17645270874669
  0
LINE
  8
_0-b_細線3
  6
CONTINUOUS
 62
    7
 10
504.04600332304028
 20
186.50978604207992
 11
517.51357172289636
 21
186.50978604207992
  0
LINE
  8
_0-b_細線3
  6
CONTINUOUS
 62
    7
 10
369.88528427550642
 20
208.17645270874669
 11
382.37933665304178
 21
208.17645270874669
  0
LINE
  8
_0-b_細線3
  6
CONTINUOUS
 62
    7
 10
372.59375628456246
 20
186.50978604207992
 11
382.37933665304178
 21
186.50978604207992
  0
TEXT
  8
_0-7_枠細線
 62
    5
 10
403.47933665332732
 20
125.45931928764887
 40
25.000000000000007
 41
0.8
 50
0
  1
断面詳細
  0
TEXT
  8
_0-7_枠細線
 62
    5
 10
508.42830640249554
 20
128.41875910796858
 40
20.000000000000004
 41
0.5999999999999999
 50
0
  1
Ｓ＝１：３
  0
LINE
  8
_0-d_寸法3
  6
CONTINUOUS
 62
    7
 10
394.71266998421925
 20
226.0097860420799
 11
394.7126699842193
 21
267.67645270874647
  0
LINE
  8
_0-d_寸法3
  6
CONTINUOUS
 62
    7
 10
394.7126699842193
 20
262.67645270874647
 11
385.05341172132859
 21
260.08826225772128
  0
LINE
  8
_0-d_寸法3
  6
CONTINUOUS
 62
    7
 10
394.7126699842193
 20
262.67645270874647
 11
385.05341172132864
 21
265.26464315977171
  0
LINE
  8
_0-d_寸法3
  6
CONTINUOUS
 62
    7
 10
404.71266998850075
 20
226.00978604207992
 11
404.71266998850081
 21
267.67645270874647
  0
LINE
  8
_0-d_寸法3
  6
CONTINUOUS
 62
    7
 10
370.33871430105222
 20
262.67645270874647
 11
404.71266998850081
 21
262.67645270874647
  0
TEXT
  8
_0-d_寸法3
 62
    7
 10
370.33871430105228
 20
247.6764527087465
 40
15
 41
1
 50
0
  1
(6)
  0
LINE
  8
_0-d_寸法3
  6
CONTINUOUS
 62
    7
 10
404.71266998850081
 20
262.67645270874647
 11
414.37192825139152
 21
265.26464315977165
  0
LINE
  8
_0-d_寸法3
  6
CONTINUOUS
 62
    7
 10
404.71266998850081
 20
262.67645270874647
 11
414.37192825139152
 21
260.08826225772128
  0
LINE
  8
_0-d_寸法3
  6
CONTINUOUS
 62
    7
 10
423.71266998482184
 20
226.00978604207992
 11
423.7126699848219
 21
267.67645270874647
  0
LINE
  8
_0-d_寸法3
  6
CONTINUOUS
 62
    7
 10
423.7126699848219
 20
262.67645270874647
 11
414.05341172193118
 21
260.08826225772128
  0
LINE
  8
_0-d_寸法3
  6
CONTINUOUS
 62
    7
 10
423.7126699848219
 20
262.67645270874647
 11
414.05341172193124
 21
265.26464315977171
  0
LINE
  8
_0-d_寸法3
  6
CONTINUOUS
 62
    7
 10
404.71266998850081
 20
262.67645270874647
 11
423.7126699848219
 21
262.67645270874647
  0
TEXT
  8
_0-d_寸法3
 62
    7
 10
395.44797356031125
 20
262.67645270874647
 40
15
 41
1
 50
0
  1
11.4
  0
LINE
  8
_0-5_寸法線
  6
CONTINUOUS
 62
    7
 10
915.66487216364806
 20
662.55942473363802
 11
868.36487216364867
 21
662.55942473363825
  0
LINE
  8
_0-5_寸法線
  6
CONTINUOUS
 62
    7
 10
873.36487216364867
 20
662.55942473363825
 11
875.95306261467385
 21
652.90016647074754
  0
LINE
  8
_0-5_寸法線
  6
CONTINUOUS
 62
    7
 10
873.36487216364867
 20
662.55942473363825
 11
870.7766817126236
 21
652.90016647074754
  0
LINE
  8
_0-5_寸法線
  6
CONTINUOUS
 62
    7
 10
913.36487216364867
 20
634.55942473363791
 11
868.36487216364867
 21
634.55942473363791
  0
LINE
  8
_0-5_寸法線
  6
CONTINUOUS
 62
    7
 10
873.36487216364867
 20
634.55942473363791
 11
870.7766817126236
 21
644.21868299652874
  0
LINE
  8
_0-5_寸法線
  6
CONTINUOUS
 62
    7
 10
873.36487216364867
 20
634.55942473363791
 11
875.95306261467385
 21
644.21868299652874
  0
LINE
  8
_0-5_寸法線
  6
CONTINUOUS
 62
    7
 10
873.36487216364867
 20
662.55942473363825
 11
873.36487216364867
 21
634.55942473363791
  0
TEXT
  8
_0-5_寸法線
 62
    7
 10
873.36487216364867
 20
641.05942473363814
 40
15
 41
1
 50
90
  1
28
  0
LINE
  8
_0-5_寸法線
  6
CONTINUOUS
 62
    7
 10
913.36487216364867
 20
634.55942473363791
 11
868.36487216364867
 21
634.55942473363791
  0
LINE
  8
_0-5_寸法線
  6
CONTINUOUS
 62
    7
 10
873.36487216364867
 20
634.55942473363791
 11
875.95306261467385
 21
624.90016647074731
  0
LINE
  8
_0-5_寸法線
  6
CONTINUOUS
 62
    7
 10
873.36487216364867
 20
634.55942473363791
 11
870.7766817126236
 21
624.90016647074731
  0
LINE
  8
_0-5_寸法線
  6
CONTINUOUS
 62
    7
 10
913.36487216364867
 20
611.55942473363791
 11
868.36487216364867
 21
611.55942473363791
  0
LINE
  8
_0-5_寸法線
  6
CONTINUOUS
 62
    7
 10
873.36487216364867
 20
611.55942473363791
 11
870.7766817126236
 21
621.21868299652863
  0
LINE
  8
_0-5_寸法線
  6
CONTINUOUS
 62
    7
 10
873.36487216364867
 20
611.55942473363791
 11
875.95306261467385
 21
621.21868299652863
  0
LINE
  8
_0-5_寸法線
  6
CONTINUOUS
 62
    7
 10
873.36487216364867
 20
634.55942473363791
 11
873.36487216364867
 21
611.55942473363791
  0
TEXT
  8
_0-5_寸法線
 62
    7
 10
873.36487216364867
 20
615.55942473363802
 40
15
 41
1
 50
90
  1
23
  0
LINE
  8
_0-5_寸法線
  6
CONTINUOUS
 62
    7
 10
1097.4733517207583
 20
643.29497009614113
 11
1067.5070450936307
 21
664.27760388875936
  0
LINE
  8
_0-5_寸法線
  6
CONTINUOUS
 62
    7
 10
1071.6028053150758
 20
661.40972170700411
 11
1069.0146148640506
 21
671.06897996989483
  0
LINE
  8
_0-5_寸法線
  6
CONTINUOUS
 62
    7
 10
1071.6028053150758
 20
661.40972170700411
 11
1074.190995766101
 21
671.06897996989483
  0
LINE
  8
_0-5_寸法線
  6
CONTINUOUS
 62
    7
 10
1097.4733517207583
 20
668.2949700961409
 11
1067.5070450936307
 21
689.27760388875913
  0
LINE
  8
_0-5_寸法線
  6
CONTINUOUS
 62
    7
 10
1071.6028053150758
 20
686.40972170700388
 11
1074.190995766101
 21
676.75046344411317
  0
LINE
  8
_0-5_寸法線
  6
CONTINUOUS
 62
    7
 10
1071.6028053150758
 20
686.40972170700388
 11
1069.0146148640506
 21
676.75046344411317
  0
LINE
  8
_0-5_寸法線
  6
CONTINUOUS
 62
    7
 10
1071.6028053150758
 20
661.40972170700411
 11
1071.6028053150758
 21
686.40972170700388
  0
TEXT
  8
_0-5_寸法線
 62
    7
 10
1071.602805315076
 20
666.40972170700411
 40
15
 41
1
 50
90
  1
25
  0
LINE
  8
_0-5_寸法線
  6
CONTINUOUS
 62
    7
 10
1285.6648721636484
 20
672.55942473363791
 11
1285.6648721636484
 21
787.55942473363757
  0
LINE
  8
_0-5_寸法線
  6
CONTINUOUS
 62
    7
 10
1285.6648721636484
 20
782.55942473363757
 11
1276.0056139007577
 21
779.9712342826125
  0
LINE
  8
_0-5_寸法線
  6
CONTINUOUS
 62
    7
 10
1285.6648721636484
 20
782.55942473363757
 11
1276.0056139007577
 21
785.14761518466287
  0
LINE
  8
_0-5_寸法線
  6
CONTINUOUS
 62
    7
 10
925.66487216364817
 20
672.55942473363791
 11
925.66487216364851
 21
787.55942473363802
  0
LINE
  8
_0-5_寸法線
  6
CONTINUOUS
 62
    7
 10
925.66487216364851
 20
782.55942473363802
 11
935.32413042653911
 21
785.14761518466321
  0
LINE
  8
_0-5_寸法線
  6
CONTINUOUS
 62
    7
 10
925.66487216364851
 20
782.55942473363802
 11
935.32413042653911
 21
779.97123428261273
  0
LINE
  8
_0-5_寸法線
  6
CONTINUOUS
 62
    7
 10
1285.6648721636484
 20
782.55942473363757
 11
925.66487216364851
 21
782.55942473363802
  0
TEXT
  8
_0-5_寸法線
 62
    7
 10
1094.4148721636484
 20
782.5594247336378
 40
15
 41
1
 50
0
  1
360
  0
LINE
  8
_0-5_寸法線
  6
CONTINUOUS
 62
    7
 10
925.66487268271828
 20
672.55942473363791
 11
925.66487268271828
 21
752.55942473363791
  0
LINE
  8
_0-5_寸法線
  6
CONTINUOUS
 62
    7
 10
925.66487268271828
 20
747.55942473363791
 11
916.00561441982768
 21
744.97123428261273
  0
LINE
  8
_0-5_寸法線
  6
CONTINUOUS
 62
    7
 10
925.66487268271828
 20
747.55942473363791
 11
916.00561441982768
 21
750.14761518466321
  0
LINE
  8
_0-5_寸法線
  6
CONTINUOUS
 62
    7
 10
928.66487216364817
 20
672.55942473363791
 11
928.66487216364828
 21
752.55942473363791
  0
CIRCLE
  8
_0-5_寸法線
  6
CONTINUOUS
 62
    1
 10
928.66487216364828
 20
747.55942473363791
 40
1.5000000000000002
  0
LINE
  8
_0-5_寸法線
  6
CONTINUOUS
 62
    7
 10
900.66487268271828
 20
747.55942473363791
 11
928.66487216364828
 21
747.55942473363791
  0
TEXT
  8
_0-5_寸法線
 62
    7
 10
905.61084082640582
 20
747.55942473363791
 40
15
 41
1
 50
0
  1
3
  0
LINE
  8
_0-5_寸法線
  6
CONTINUOUS
 62
    7
 10
930.66487216330506
 20
672.55942473363791
 11
930.66487216330518
 21
752.55942473363791
  0
LINE
  8
_0-5_寸法線
  6
CONTINUOUS
 62
    7
 10
928.66487216364828
 20
747.55942473363791
 11
930.66487216330518
 21
747.55942473363791
  0
TEXT
  8
_0-5_寸法線
 62
    7
 10
931.30088542025749
 20
747.55942473363791
 40
15
 41
1
 50
0
  1
2
  0
LINE
  8
_0-5_寸法線
  6
CONTINUOUS
 62
    7
 10
930.66487216330518
 20
747.55942473363791
 11
940.32413042619578
 21
750.14761518466321
  0
LINE
  8
_0-5_寸法線
  6
CONTINUOUS
 62
    7
 10
930.66487216330518
 20
747.55942473363791
 11
940.32413042619578
 21
744.97123428261261
  0
LINE
  8
_0-5_寸法線
  6
CONTINUOUS
 62
    7
 10
1280.6648721650222
 20
672.5592057326304
 11
1280.6648721650226
 21
752.55942473363791
  0
LINE
  8
_0-5_寸法線
  6
CONTINUOUS
 62
    7
 10
1280.6648721650226
 20
747.55942473363791
 11
1271.0056139021317
 21
744.97123428261273
  0
LINE
  8
_0-5_寸法線
  6
CONTINUOUS
 62
    7
 10
1280.6648721650226
 20
747.55942473363791
 11
1271.0056139021317
 21
750.14761518466321
  0
LINE
  8
_0-5_寸法線
  6
CONTINUOUS
 62
    7
 10
930.66487216330518
 20
747.55942473363791
 11
1280.6648721650226
 21
747.55942473363791
  0
TEXT
  8
_0-5_寸法線
 62
    7
 10
1094.4148721641639
 20
747.55942473363791
 40
15
 41
1
 50
0
  1
350
  0
LINE
  8
_0-5_寸法線
  6
CONTINUOUS
 62
    7
 10
1282.6648721636482
 20
672.55942473363791
 11
1282.6648721636484
 21
752.55942473363791
  0
CIRCLE
  8
_0-5_寸法線
  6
CONTINUOUS
 62
    1
 10
1282.6648721636484
 20
747.55942473363791
 40
1.5000000000000002
  0
LINE
  8
_0-5_寸法線
  6
CONTINUOUS
 62
    7
 10
1280.6648721650226
 20
747.55942473363791
 11
1282.6648721636484
 21
747.55942473363791
  0
TEXT
  8
_0-5_寸法線
 62
    7
 10
1270.9607879802966
 20
747.55942473363791
 40
15
 41
1
 50
0
  1
2
  0
LINE
  8
_0-5_寸法線
  6
CONTINUOUS
 62
    7
 10
1285.6648721636484
 20
672.55942473363791
 11
1285.6648721636484
 21
752.55942473363791
  0
LINE
  8
_0-5_寸法線
  6
CONTINUOUS
 62
    7
 10
1285.6648721636484
 20
747.55942473363791
 11
1295.3241304265393
 21
750.14761518466321
  0
LINE
  8
_0-5_寸法線
  6
CONTINUOUS
 62
    7
 10
1285.6648721636484
 20
747.55942473363791
 11
1295.3241304265393
 21
744.97123428261261
  0
LINE
  8
_0-5_寸法線
  6
CONTINUOUS
 62
    7
 10
1282.6648721636484
 20
747.55942473363791
 11
1310.6648721636484
 21
747.55942473363791
  0
TEXT
  8
_0-5_寸法線
 62
    7
 10
1299.9208308930999
 20
747.55942473363791
 40
15
 41
1
 50
0
  1
3
  0
LINE
  8
_0-5_寸法線
  6
CONTINUOUS
 62
    7
 10
1156.6648721647332
 20
672.5592057326304
 11
1156.6648721647334
 21
717.55920573263097
  0
LINE
  8
_0-5_寸法線
  6
CONTINUOUS
 62
    7
 10
1156.6648721647334
 20
712.55920573263097
 11
1166.3241304276241
 21
715.14739618365627
  0
LINE
  8
_0-5_寸法線
  6
CONTINUOUS
 62
    7
 10
1156.6648721647334
 20
712.55920573263097
 11
1166.3241304276241
 21
709.97101528160579
  0
LINE
  8
_0-5_寸法線
  6
CONTINUOUS
 62
    7
 10
1173.6648721649051
 20
672.5592057326304
 11
1173.6648721649053
 21
717.55920573263097
  0
LINE
  8
_0-5_寸法線
  6
CONTINUOUS
 62
    7
 10
1173.6648721649053
 20
712.55920573263097
 11
1164.0056139020146
 21
709.97101528160579
  0
LINE
  8
_0-5_寸法線
  6
CONTINUOUS
 62
    7
 10
1173.6648721649053
 20
712.55920573263097
 11
1164.0056139020146
 21
715.14739618365627
  0
LINE
  8
_0-5_寸法線
  6
CONTINUOUS
 62
    7
 10
1156.6648721647334
 20
712.55920573263097
 11
1173.6648721649053
 21
712.55920573263097
  0
TEXT
  8
_0-5_寸法線
 62
    7
 10
1149.0088948722143
 20
697.55920573263097
 40
15
 41
1
 50
0
  1
(17)
  0
LINE
  8
_0-5_寸法線
  6
CONTINUOUS
 62
    7
 10
1173.6648721649053
 20
712.55920573263097
 11
1183.324130427796
 21
715.14739618365627
  0
LINE
  8
_0-5_寸法線
  6
CONTINUOUS
 62
    7
 10
1173.6648721649053
 20
712.55920573263097
 11
1183.324130427796
 21
709.97101528160567
  0
LINE
  8
_0-5_寸法線
  6
CONTINUOUS
 62
    7
 10
1190.6648721652671
 20
672.5592057326304
 11
1190.6648721652673
 21
717.55920573263097
  0
LINE
  8
_0-5_寸法線
  6
CONTINUOUS
 62
    7
 10
1190.6648721652673
 20
712.55920573263097
 11
1181.0056139023766
 21
709.97101528160579
  0
LINE
  8
_0-5_寸法線
  6
CONTINUOUS
 62
    7
 10
1190.6648721652673
 20
712.55920573263097
 11
1181.0056139023766
 21
715.14739618365627
  0
LINE
  8
_0-5_寸法線
  6
CONTINUOUS
 62
    7
 10
1173.6648721649053
 20
712.55920573263097
 11
1190.6648721652673
 21
712.55920573263097
  0
TEXT
  8
_0-5_寸法線
 62
    7
 10
1168.0755615385451
 20
712.55920573263097
 40
15
 41
1
 50
0
  1
(17)
  0
LINE
  8
_0-5_寸法線
  6
CONTINUOUS
 62
    7
 10
1026.3648723522706
 20
672.5592057326304
 11
1026.364872352271
 21
717.55920573263097
  0
LINE
  8
_0-5_寸法線
  6
CONTINUOUS
 62
    7
 10
1026.364872352271
 20
712.55920573263097
 11
1016.7056140893801
 21
709.97101528160579
  0
LINE
  8
_0-5_寸法線
  6
CONTINUOUS
 62
    7
 10
1026.364872352271
 20
712.55920573263097
 11
1016.7056140893801
 21
715.14739618365627
  0
LINE
  8
_0-5_寸法線
  6
CONTINUOUS
 62
    7
 10
1031.9648721636663
 20
672.5592057326304
 11
1031.9648721636663
 21
717.55920573263097
  0
LINE
  8
_0-5_寸法線
  6
CONTINUOUS
 62
    7
 10
986.99091666891286
 20
712.55920573263097
 11
1031.9648721636663
 21
712.55920573263097
  0
TEXT
  8
_0-5_寸法線
 62
    7
 10
986.99091666891286
 20
697.55920573263097
 40
15
 41
1
 50
0
  1
(5.6)
  0
LINE
  8
_0-5_寸法線
  6
CONTINUOUS
 62
    7
 10
1031.9648721636663
 20
712.55920573263097
 11
1041.6241304265573
 21
715.14739618365627
  0
LINE
  8
_0-5_寸法線
  6
CONTINUOUS
 62
    7
 10
1031.9648721636663
 20
712.55920573263097
 11
1041.6241304265573
 21
709.97101528160579
  0
LINE
  8
_0-5_寸法線
  6
CONTINUOUS
 62
    7
 10
1043.3648721614595
 20
672.5592057326304
 11
1043.3648721614595
 21
717.55920573263097
  0
LINE
  8
_0-5_寸法線
  6
CONTINUOUS
 62
    7
 10
1043.3648721614595
 20
712.55920573263097
 11
1033.7056138985688
 21
709.97101528160579
  0
LINE
  8
_0-5_寸法線
  6
CONTINUOUS
 62
    7
 10
1043.3648721614595
 20
712.55920573263097
 11
1033.7056138985688
 21
715.14739618365627
  0
LINE
  8
_0-5_寸法線
  6
CONTINUOUS
 62
    7
 10
1031.9648721636663
 20
712.55920573263097
 11
1043.3648721614595
 21
712.55920573263097
  0
TEXT
  8
_0-5_寸法線
 62
    7
 10
1018.9001757361433
 20
712.55920573263097
 40
15
 41
1
 50
0
  1
11.4
  0
LINE
  8
_0-5_寸法線
  6
CONTINUOUS
 62
    7
 10
632.21078033027095
 20
497.99386550507649
 11
636.15529294531314
 21
507.18303414156225
  0
LINE
  8
_0-5_寸法線
  6
CONTINUOUS
 62
    7
 10
632.21078033027095
 20
497.99386550507649
 11
640.22141277868855
 21
503.97966267641124
  0
LINE
  8
_0-5_寸法線
  6
CONTINUOUS
 62
    7
 10
632.21078033027095
 20
497.99386550507649
 11
655.10670429607831
 21
527.05623668294936
  0
LINE
  8
_0-5_寸法線
  6
CONTINUOUS
 62
    7
 10
655.10670429607831
 20
527.05623668294936
 11
763.10670429607831
 21
527.05623668294936
  0
TEXT
  8
_0-5_寸法線
 62
    7
 10
655.10670429607831
 20
527.05623668294936
 40
15
 41
0.8000000000000001
 50
0
  1
ＳＵＳアングル受枠
  0
LINE
  8
_0-5_寸法線
  6
CONTINUOUS
 62
    7
 10
607.26242720090954
 20
606.28313595859004
 11
611.20693981595173
 21
615.47230459507568
  0
LINE
  8
_0-5_寸法線
  6
CONTINUOUS
 62
    7
 10
607.26242720090954
 20
606.28313595859004
 11
615.27305964932714
 21
612.26893312992479
  0
LINE
  8
_0-5_寸法線
  6
CONTINUOUS
 62
    7
 10
607.26242720090954
 20
606.28313595859004
 11
655.10670429607831
 21
667.01307818556961
  0
LINE
  8
_0-5_寸法線
  6
CONTINUOUS
 62
    7
 10
655.10670429607831
 20
667.01307818556961
 11
787.10670429607876
 21
667.01307818556961
  0
TEXT
  8
_0-5_寸法線
 62
    7
 10
655.10670429607853
 20
667.01307818556961
 40
15
 41
0.8000000000000001
 50
0
  1
セーフティグレーチング
  0
LINE
  8
_0-5_寸法線
  6
CONTINUOUS
 62
    7
 10
263.65569731883653
 20
376.5892089757242
 11
183.65569731883653
 21
376.58920897572443
  0
LINE
  8
_0-5_寸法線
  6
CONTINUOUS
 62
    7
 10
188.65569731883653
 20
376.58920897572443
 11
186.06750686781126
 21
386.24846723861509
  0
LINE
  8
_0-5_寸法線
  6
CONTINUOUS
 62
    7
 10
188.65569731883653
 20
376.58920897572443
 11
191.24388776986166
 21
386.24846723861509
  0
LINE
  8
_0-5_寸法線
  6
CONTINUOUS
 62
    7
 10
263.65569731883693
 20
736.58920897572625
 11
183.65569731883653
 21
736.58920897572659
  0
LINE
  8
_0-5_寸法線
  6
CONTINUOUS
 62
    7
 10
188.65569731883653
 20
736.58920897572659
 11
191.24388776986166
 21
726.92995071283576
  0
LINE
  8
_0-5_寸法線
  6
CONTINUOUS
 62
    7
 10
188.65569731883653
 20
736.58920897572659
 11
186.06750686781126
 21
726.92995071283576
  0
LINE
  8
_0-5_寸法線
  6
CONTINUOUS
 62
    7
 10
188.65569731883653
 20
376.58920897572443
 11
188.65569731883653
 21
736.58920897572659
  0
TEXT
  8
_0-5_寸法線
 62
    7
 10
188.65569731883639
 20
545.33920897572546
 40
15
 41
1
 50
90
  1
360
  0
LINE
  8
_0-5_寸法線
  6
CONTINUOUS
 62
    7
 10
223.65569731883653
 20
376.58920897572438
 11
226.24388776986166
 21
366.9299507128336
  0
LINE
  8
_0-5_寸法線
  6
CONTINUOUS
 62
    7
 10
223.65569731883653
 20
376.58920897572438
 11
221.06750686781126
 21
366.92995071283372
  0
LINE
  8
_0-5_寸法線
  6
CONTINUOUS
 62
    7
 10
263.65569731883653
 20
379.5892089757242
 11
218.65569731883653
 21
379.58920897572432
  0
CIRCLE
  8
_0-5_寸法線
  6
CONTINUOUS
 62
    1
 10
223.65569731883653
 20
379.58920897572432
 40
1.5000000000000002
  0
LINE
  8
_0-5_寸法線
  6
CONTINUOUS
 62
    7
 10
223.65569731883653
 20
351.58920897572438
 11
223.65569731883653
 21
379.58920897572432
  0
TEXT
  8
_0-5_寸法線
 62
    7
 10
223.65569731883653
 20
354.94256714685429
 40
15
 41
1
 50
90
  1
3
  0
LINE
  8
_0-5_寸法線
  6
CONTINUOUS
 62
    7
 10
263.65569731883653
 20
381.58920897571585
 11
218.65569731883653
 21
381.58920897571585
  0
LINE
  8
_0-5_寸法線
  6
CONTINUOUS
 62
    7
 10
223.65569731883653
 20
379.58920897572432
 11
223.65569731883653
 21
381.58920897571585
  0
TEXT
  8
_0-5_寸法線
 62
    7
 10
242.55057799684593
 20
384.15140965131224
 40
15
 41
1
 50
90
  1
2
  0
LINE
  8
_0-5_寸法線
  6
CONTINUOUS
 62
    7
 10
223.65569731883653
 20
381.58920897571585
 11
221.06750686781126
 21
391.24846723860651
  0
LINE
  8
_0-5_寸法線
  6
CONTINUOUS
 62
    7
 10
223.65569731883653
 20
381.58920897571585
 11
226.24388776986166
 21
391.24846723860651
  0
LINE
  8
_0-5_寸法線
  6
CONTINUOUS
 62
    7
 10
263.65569731883653
 20
731.5892089757258
 11
218.65569731883653
 21
731.5892089757258
  0
LINE
  8
_0-5_寸法線
  6
CONTINUOUS
 62
    7
 10
223.65569731883653
 20
731.5892089757258
 11
226.24388776986166
 21
721.92995071283508
  0
LINE
  8
_0-5_寸法線
  6
CONTINUOUS
 62
    7
 10
223.65569731883653
 20
731.5892089757258
 11
221.06750686781126
 21
721.92995071283508
  0
LINE
  8
_0-5_寸法線
  6
CONTINUOUS
 62
    7
 10
223.65569731883653
 20
381.58920897571585
 11
223.65569731883653
 21
731.5892089757258
  0
TEXT
  8
_0-5_寸法線
 62
    7
 10
223.65569731883647
 20
545.33920897572079
 40
15
 41
1
 50
89.999999999999815
  1
350
  0
LINE
  8
_0-5_寸法線
  6
CONTINUOUS
 62
    7
 10
263.65569731883693
 20
733.58920897572625
 11
218.65569731883653
 21
733.58920897572648
  0
CIRCLE
  8
_0-5_寸法線
  6
CONTINUOUS
 62
    1
 10
223.65569731883653
 20
733.58920897572648
 40
1.5000000000000002
  0
LINE
  8
_0-5_寸法線
  6
CONTINUOUS
 62
    7
 10
223.65569731883653
 20
731.5892089757258
 11
223.65569731883653
 21
733.58920897572648
  0
TEXT
  8
_0-5_寸法線
 62
    7
 10
241.95115442212818
 20
721.88720331259128
 40
15
 41
1
 50
90
  1
2
  0
LINE
  8
_0-5_寸法線
  6
CONTINUOUS
 62
    7
 10
223.65569731883653
 20
736.58920897572648
 11
221.06750686781126
 21
746.24846723861708
  0
LINE
  8
_0-5_寸法線
  6
CONTINUOUS
 62
    7
 10
223.65569731883653
 20
736.58920897572648
 11
226.24388776986166
 21
746.24846723861708
  0
LINE
  8
_0-5_寸法線
  6
CONTINUOUS
 62
    7
 10
223.65569731883653
 20
733.58920897572648
 11
223.65569731883653
 21
761.58920897572648
  0
TEXT
  8
_0-5_寸法線
 62
    7
 10
223.65569731883653
 20
750.85497590597811
 40
15
 41
1
 50
90
  1
3
  0
LINE
  8
_0-5_寸法線
  6
CONTINUOUS
 62
    7
 10
365.2192768276995
 20
565.10857232525836
 11
357.67121654912609
 21
571.66805294730625
  0
LINE
  8
_0-5_寸法線
  6
CONTINUOUS
 62
    7
 10
365.2192768276995
 20
565.10857232525836
 11
361.96220518818257
 21
574.56327931887029
  0
LINE
  8
_0-5_寸法線
  6
CONTINUOUS
 62
    7
 10
365.2192768276995
 20
565.10857232525836
 11
208.96915670238457
 21
796.68545242487482
  0
LINE
  8
_0-5_寸法線
  6
CONTINUOUS
 62
    7
 10
208.96915670238457
 20
796.68545242487482
 11
148.96915670238457
 21
796.68545242487482
  0
TEXT
  8
_0-5_寸法線
 62
    7
 10
148.96915670238457
 20
796.68545242487482
 40
15
 41
0.8000000000000001
 50
0
  1
取　外　具
  0
TEXT
  8
_0-5_寸法線
 62
    7
 10
144.45188068867964
 20
779.16569120830206
 40
15
 41
0.8000000000000001
 50
0
  1
(標準付属)
  0
TEXT
  8
_0-7_枠細線
 62
    5
 10
148.05485123695689
 20
813.19520613040095
 40
12.5
 41
0.8
 50
0
  1
２
  0
LINE
  8
_0-7_枠細線
  6
CONTINUOUS
 62
    5
 10
160.68969996880881
 20
813.50220837578149
 11
153.18969996880881
 21
828.50220837578149
  0
LINE
  8
_0-7_枠細線
  6
CONTINUOUS
 62
    5
 10
145.68969996880881
 20
813.50220837578149
 11
160.68969996880881
 21
813.50220837578149
  0
LINE
  8
_0-7_枠細線
  6
CONTINUOUS
 62
    5
 10
153.18969996880881
 20
828.50220837578149
 11
145.68969996880881
 21
813.50220837578149
  0
TEXT
  8
_0-7_枠細線
 62
    5
 10
166.9467450648331
 20
812.90206340833493
 40
12.5
 41
0.8
 50
0
  1
３
  0
LINE
  8
_0-7_枠細線
  6
CONTINUOUS
 62
    5
 10
172.08159379668501
 20
828.44974729851629
 11
164.58159379668501
 21
813.44974729851629
  0
LINE
  8
_0-7_枠細線
  6
CONTINUOUS
 62
    5
 10
164.58159379668501
 20
813.44974729851629
 11
179.58159379668501
 21
813.44974729851629
  0
LINE
  8
_0-7_枠細線
  6
CONTINUOUS
 62
    5
 10
179.58159379668501
 20
813.44974729851629
 11
172.08159379668501
 21
828.44974729851629
  0
LINE
  8
_0-7_枠細線
  6
CONTINUOUS
 62
    5
 10
198.29557766018127
 20
813.44974729851629
 11
190.79557766018127
 21
828.44974729851629
  0
LINE
  8
_0-7_枠細線
  6
CONTINUOUS
 62
    5
 10
183.29557766018127
 20
813.44974729851629
 11
198.29557766018127
 21
813.44974729851629
  0
LINE
  8
_0-7_枠細線
  6
CONTINUOUS
 62
    5
 10
190.79557766018127
 20
828.44974729851629
 11
183.29557766018127
 21
813.44974729851629
  0
TEXT
  8
_0-7_枠細線
 62
    5
 10
185.66072892832935
 20
812.90206340833493
 40
12.5
 41
0.8
 50
0
  1
６
  0
TEXT
  8
_0-5_寸法線
 62
    7
 10
656.07383150131477
 20
651.93835150030259
 40
15
 41
0.8000000000000001
 50
0
  1
ＧＲＳ－２５Ｋ３５０
  0
TEXT
  8
_0-5_寸法線
 62
    7
 10
656.14690408947081
 20
511.98150999768239
 40
15
 41
0.8000000000000001
 50
0
  1
ＧＳＬ－２５
  0
LINE
  8
_0-1_計細線
  6
CONTINUOUS
 62
    3
 10
1278.1648721668837
 20
651.35920573263081
 11
1281.1693881668837
 21
651.35920573263081
  0
LINE
  8
_0-1_計細線
  6
CONTINUOUS
 62
    3
 10
1278.1648721668837
 20
647.85920573263127
 11
1281.1694001668832
 21
647.85920573263127
  0
ARC
  8
_0-1_計細線
  6
CONTINUOUS
 62
    3
 10
1281.1694001668832
 20
648.05920573263109
 40
0.2000000000000001
 50
269.99999999999977
 51
359.99999999999966
  0
ARC
  8
_0-1_計細線
  6
CONTINUOUS
 62
    3
 10
1273.6114201668836
 20
649.60905973263141
 40
7.7579560000000019
 50
346.96432999999968
 51
13.038021999994573
  0
ARC
  8
_0-1_計細線
  6
CONTINUOUS
 62
    3
 10
1281.1694001668832
 20
654.65920573263122
 40
0.2000000000000001
 50
0
 51
89.999999999999915
  0
ARC
  8
_0-1_計細線
  6
CONTINUOUS
 62
    3
 10
1273.6114201668836
 20
653.1093497326309
 40
7.7579560000000019
 50
346.96197799999976
 51
13.035669999999625
  0
LINE
  8
_0-1_計細線
  6
CONTINUOUS
 62
    3
 10
1278.1648721668837
 20
654.85920573263104
 11
1281.1694001668832
 21
654.85920573263104
  0
LINE
  8
_0-1_計細線
  6
CONTINUOUS
 62
    3
 10
1281.3694001668837
 20
648.05920573263109
 11
1281.3694001668837
 21
654.65920573263122
  0
ARC
  8
_0-1_計細線
  6
CONTINUOUS
 62
    3
 10
1277.9648721668832
 20
645.05920573263109
 40
0.2000000000000001
 50
269.99999999999977
 51
359.99999999999966
  0
ARC
  8
_0-1_計細線
  6
CONTINUOUS
 62
    3
 10
1277.9648721668832
 20
657.65920573263077
 40
0.2000000000000001
 50
0
 51
89.999999999999915
  0
LINE
  8
_0-1_計細線
  6
CONTINUOUS
 62
    3
 10
1278.1648721668837
 20
650.85920573263081
 11
1278.1648721668837
 21
645.05920573263109
  0
LINE
  8
_0-1_計細線
  6
CONTINUOUS
 62
    3
 10
1278.1648721668837
 20
657.65920573263077
 11
1278.1648721668837
 21
650.85920573263081
  0
LINE
  8
_0-1_計細線
  6
CONTINUOUS
 62
    3
 10
1276.6648721665265
 20
644.85920573263093
 11
1277.9648721668832
 21
644.85920573263093
  0
LINE
  8
_0-1_計細線
  6
CONTINUOUS
 62
    3
 10
1276.6648721672404
 20
657.85920573263115
 11
1277.9648721668832
 21
657.85920573263115
  0
LINE
  8
_0-1_計細線
  6
CONTINUOUS
 62
    3
 10
933.16487235175725
 20
651.35920573263081
 11
930.1603563517574
 21
651.35920573263081
  0
LINE
  8
_0-1_計細線
  6
CONTINUOUS
 62
    3
 10
933.16487235175725
 20
647.85920573263127
 11
930.16034435175789
 21
647.85920573263127
  0
ARC
  8
_0-1_計細線
  6
CONTINUOUS
 62
    3
 10
930.16034435175789
 20
648.05920573263109
 40
0.2000000000000001
 50
179.99999999999983
 51
269.99999999999977
  0
ARC
  8
_0-1_計細線
  6
CONTINUOUS
 62
    3
 10
937.71832435175736
 20
649.60905973263141
 40
7.7579560000000019
 50
166.96197800000505
 51
193.03566999999961
  0
ARC
  8
_0-1_計細線
  6
CONTINUOUS
 62
    3
 10
930.16034435175789
 20
654.65920573263122
 40
0.2000000000000001
 50
89.999999999999915
 51
179.99999999999983
  0
ARC
  8
_0-1_計細線
  6
CONTINUOUS
 62
    3
 10
937.71832435175736
 20
653.1093497326309
 40
7.7579560000000019
 50
166.96433000000002
 51
193.0380219999995
  0
LINE
  8
_0-1_計細線
  6
CONTINUOUS
 62
    3
 10
933.16487235175725
 20
654.85920573263104
 11
930.16034435175789
 21
654.85920573263104
  0
LINE
  8
_0-1_計細線
  6
CONTINUOUS
 62
    3
 10
929.96034435175761
 20
648.05920573263109
 11
929.96034435175761
 21
654.65920573263122
  0
ARC
  8
_0-1_計細線
  6
CONTINUOUS
 62
    3
 10
933.36487235175787
 20
645.05920573263109
 40
0.2000000000000001
 50
179.99999999999983
 51
269.99999999999977
  0
ARC
  8
_0-1_計細線
  6
CONTINUOUS
 62
    3
 10
933.36487235175787
 20
657.65920573263077
 40
0.2000000000000001
 50
89.999999999999915
 51
179.99999999999983
  0
LINE
  8
_0-1_計細線
  6
CONTINUOUS
 62
    3
 10
933.16487235175725
 20
650.85920573263081
 11
933.16487235175725
 21
645.05920573263109
  0
LINE
  8
_0-1_計細線
  6
CONTINUOUS
 62
    3
 10
933.16487235175725
 20
657.65920573263077
 11
933.16487235175725
 21
650.85920573263081
  0
LINE
  8
_0-1_計細線
  6
CONTINUOUS
 62
    3
 10
934.66487235211434
 20
644.85920573263093
 11
933.36487235175787
 21
644.85920573263093
  0
LINE
  8
_0-1_計細線
  6
CONTINUOUS
 62
    3
 10
934.66487235140039
 20
657.85920573263115
 11
933.36487235175787
 21
657.85920573263115
  0
LINE
  8
_0-0_計極細
  6
CENTER1
 62
    2
 10
1284.3735393864335
 20
651.35920573263081
 11
926.86444653147987
 21
651.35920573263081
  0
ENDSEC
  0
EOF
