  0
SECTION
  2
HEADER
  9
$ACADVER
  1
AC1009
  9
$INSBASE
 10
0
 20
0
 30
0
  9
$EXTMIN
 10
0
 20
0
  9
$EXTMAX
 10
1485
 20
1050
  9
$LIMMIN
 10
0
 20
0
  9
$LIMMAX
 10
1485
 20
1050
  9
$LTSCALE
 40
5
  0
ENDSEC
  0
SECTION
  2
TABLES
  0
TABLE
  2
LTYPE
 70
     9
  0
LTYPE
  2
CONTINUOUS
 70
    64
  3
実線
 72
    65
 73
     0
 40
0.0
  0
LTYPE
  2
DASHED1
 70
    64
  3
--  --  --  --  --  --  --  --  
 72
    65
 73
     2
 40
2.5
 49
1.25
 49
-1.25
  0
LTYPE
  2
DASHED2
 70
    64
  3
----    ----    ----    ----    
 72
    65
 73
     2
 40
5.0
 49
2.5
 49
-2.5
  0
LTYPE
  2
DASHED3
 70
    64
  3
------  ------  ------  ------  
 72
    65
 73
     2
 40
5.0
 49
3.75
 49
-1.25
  0
LTYPE
  2
CENTER1
 70
    64
  3
----- - ----- - ----- - ----- - 
 72
    65
 73
     4
 40
10.0
 49
6.25
 49
-1.25
 49
1.25
 49
-1.25
  0
LTYPE
  2
CENTER2
 70
    64
  3
----------  --  ----------  --  
 72
    65
 73
     4
 40
20.0
 49
12.5
 49
-2.5
 49
2.5
 49
-2.5
  0
LTYPE
  2
PHANTOM1
 70
    64
  3
--- - - --- - - --- - - --- - - 
 72
    65
 73
     6
 40
10.0
 49
3.25
 49
-1.25
 49
1.25
 49
-1.25
 49
1.25
 49
-1.25
  0
LTYPE
  2
PHANTOM2
 70
    64
  3
--------  -  -  --------  -  -  
 72
    65
 73
     6
 40
20.0
 49
10.0
 49
-2.5
 49
1.25
 49
-2.5
 49
1.25
 49
-2.5
  0
LTYPE
  2
DOT
 70
    64
  3
-   -   -   -   -   -   -   -   
 72
    65
 73
     2
 40
2.5
 49
0.625
 49
-1.875
  0
LTYPE
  2
DUMMY
 70
    64
  3
ダミー
 72
    65
 73
     0
 40
0.0
  0
LTYPE
  2
RAND1
 70
    64
  3
ランダム線1
 72
    65
 73
     4
 40
10.0
 49
1.0
 49
-2.0
 49
3.0
 49
-4.0
  0
LTYPE
  2
RAND2
 70
    64
  3
ランダム線2
 72
    65
 73
     4
 40
14.0
 49
2.0
 49
-3.0
 49
4.0
 49
-5.0
  0
LTYPE
  2
RAND3
 70
    64
  3
ランダム線3
 72
    65
 73
     4
 40
18.0
 49
3.0
 49
-4.0
 49
5.0
 49
-6.0
  0
LTYPE
  2
RAND4
 70
    64
  3
ランダム線4
 72
    65
 73
     4
 40
22.0
 49
4.0
 49
-5.0
 49
6.0
 49
-7.0
  0
LTYPE
  2
RAND5
 70
    64
  3
ランダム線5
 72
    65
 73
     4
 40
26.0
 49
5.0
 49
-6.0
 49
7.0
 49
-8.0
  0
LTYPE
  2
LONG1
 70
    64
  3
----------  --  ----------  --  
 72
    65
 73
     4
 40
40.0
 49
32.5
 49
-2.5
 49
2.5
 49
-2.5
  0
LTYPE
  2
LONG2
 70
    64
  3
--------  -  -  --------  -  -  
 72
    65
 73
     6
 40
40.0
 49
30.0
 49
-2.5
 49
1.25
 49
-2.5
 49
1.25
 49
-2.5
  0
LTYPE
  2
LONG3
 70
    64
  3
+++++++++++++++..+++++++++++++++
 72
    65
 73
     2
 40
40.0
 49
37.5
 49
-2.5
  0
LTYPE
  2
LONG4
 70
    64
  3
+++++++++++++++..+++++++++++++++
 72
    65
 73
     2
 40
80.0
 49
75.0
 49
-5.0
  0
LTYPE
  2
LONG5
 70
    64
  3
----------  --  ----------  --  
 72
    65
 73
     4
 40
60.0
 49
37.5
 49
-7.5
 49
7.5
 49
-7.5
  0
LTYPE
  2
dashed
 70
   64
  3
-------   -------------   ------
 72
   65
 73
    2
 40
7.5
 49
6
 49
-1.5
  0
LTYPE
  2
dashed_spaced
 70
   64
  3
----        --------        ----
 72
   65
 73
    2
 40
12
 49
6
 49
-6
  0
LTYPE
  2
long_dashed_dotted
 70
   64
  3
------------- --- --------------
 72
   65
 73
    4
 40
15.25
 49
12
 49
-1.5
 49
0.25
 49
-1.5
  0
LTYPE
  2
long_dashed_double-dotted
 70
   64
  3
----------- --- --- ------------
 72
   65
 73
    6
 40
17
 49
12
 49
-1.5
 49
0.25
 49
-1.5
 49
0.25
 49
-1.5
  0
LTYPE
  2
long_dashed_triplicate-dotted
 70
   64
  3
--------- --- --- --- ----------
 72
   65
 73
    8
 40
18.75
 49
12
 49
-1.5
 49
0.25
 49
-1.5
 49
0.25
 49
-1.5
 49
0.25
 49
-1.5
  0
LTYPE
  2
dotted
 70
   64
  3
   -       -       -       -    
 72
   65
 73
    2
 40
1.75
 49
0.25
 49
-1.5
  0
LTYPE
  2
chain
 70
   64
  3
-------------- -- --------------
 72
   65
 73
    4
 40
18.5
 49
12
 49
-1.5
 49
3.5
 49
-1.5
  0
LTYPE
  2
chain_double_dash
 70
   64
  3
------------ -- -- -------------
 72
   65
 73
    6
 40
23.5
 49
12
 49
-1.5
 49
3.5
 49
-1.5
 49
3.5
 49
-1.5
  0
LTYPE
  2
dashed_dotted
 70
   64
  3
-----------     -     ----------
 72
   65
 73
    4
 40
9.25
 49
6
 49
-1.5
 49
0.25
 49
-1.5
  0
LTYPE
  2
double-dashed_dotted
 70
   64
  3
------   -----------   -   -----
 72
   65
 73
    6
 40
16.75
 49
6
 49
-1.5
 49
6
 49
-1.5
 49
0.25
 49
-1.5
  0
LTYPE
  2
dashed_double-dotted
 70
   64
  3
---------    -    -    ---------
 72
   65
 73
    6
 40
11
 49
6
 49
-1.5
 49
0.25
 49
-1.5
 49
0.25
 49
-1.5
  0
LTYPE
  2
double-dashed_double-dotted
 70
   64
  3
-----   ---------   -   -   ----
 72
   65
 73
    8
 40
18.5
 49
6
 49
-1.5
 49
6
 49
-1.5
 49
0.25
 49
-1.5
 49
0.25
 49
-1.5
  0
LTYPE
  2
dashed_triplicate-dotted
 70
   64
  3
-------    -    -    -    ------
 72
   65
 73
    8
 40
12.75
 49
6
 49
-1.5
 49
0.25
 49
-1.5
 49
0.25
 49
-1.5
 49
0.25
 49
-1.5
  0
LTYPE
  2
double-dashed_triplicate-dotted
 70
   64
  3
-----  ---------  -  -  -  -----
 72
   65
 73
   10
 40
20.25
 49
6
 49
-1.5
 49
6
 49
-1.5
 49
0.25
 49
-1.5
 49
0.25
 49
-1.5
 49
0.25
 49
-1.5
  0
LTYPE
  2
undefined
 70
   64
  3
--------------------------------
 72
   65
 73
    0
 40
0
  0
ENDTAB
  0
TABLE
  2
STYLE
  5
3
100
AcDbSymbolTable
 70
     1
  0
STYLE
  5
10
100
AcDbSymbolTableRecord
100
AcDbTextStyleTableRecord
  2
STANDARD
 70
     0
 40
0.0
 41
1.0
 50
0.0
 71
     0
 42
0.2
  3
txt
  4
bigfont.shx
  0
STYLE
  5
26
100
AcDbSymbolTableRecord
100
AcDbTextStyleTableRecord
  2
TATEGAKI
 70
    68
 40
0.0
 41
1.0
 50
0.0
 71
     0
 42
1.0
  3
txt
  4
bigfont.shx
  0
ENDTAB
  0
TABLE
  2
LAYER
 70
   10
  0
LAYER
  2
_0-0_計極細
 70
   64
 62
    7
  6
CONTINUOUS
  0
LAYER
  2
_0-1_計細線
 70
   64
 62
    7
  6
CONTINUOUS
  0
LAYER
  2
_0-5_寸法線
 70
   64
 62
    7
  6
CONTINUOUS
  0
LAYER
  2
_0-7_枠細線
 70
   64
 62
    7
  6
CONTINUOUS
  0
LAYER
  2
_0-8_枠中線
 70
   64
 62
    7
  6
CONTINUOUS
  0
LAYER
  2
_0-9_枠極太
 70
   64
 62
    7
  6
CONTINUOUS
  0
LAYER
  2
_0-a_極細3
 70
   64
 62
    7
  6
CONTINUOUS
  0
LAYER
  2
_0-b_細線3
 70
   64
 62
    7
  6
CONTINUOUS
  0
LAYER
  2
_0-d_寸法3
 70
   64
 62
    7
  6
CONTINUOUS
  0
LAYER
  2
ADD_LINE
 70
   64
 62
    7
  6
CONTINUOUS
  0
ENDTAB
  0
ENDSEC
  0
SECTION
  2
BLOCKS
  0
ENDSEC
  0
SECTION
  2
ENTITIES
  0
LINE
  8
_0-7_枠細線
  6
CONTINUOUS
 62
    5
 10
1185
 20
180
 11
1185
 21
100
  0
TEXT
  8
_0-7_枠細線
 62
    5
 10
937.5
 20
97.5
 40
17.5
 41
1
 50
0
  1
備考
  7
TATEGAKI
  0
TEXT
  8
_0-7_枠細線
 62
    5
 10
937.5
 20
137.5
 40
17.5
 41
1
 50
0
  1
品番
  7
TATEGAKI
  0
TEXT
  8
_0-7_枠細線
 62
    5
 10
937.5
 20
177.5
 40
17.5
 41
1
 50
0
  1
品名
  7
TATEGAKI
  0
LINE
  8
_0-7_枠細線
  6
CONTINUOUS
 62
    5
 10
1185
 20
140
 11
925
 21
140
  0
LINE
  8
_0-7_枠細線
  6
CONTINUOUS
 62
    5
 10
950
 20
180
 11
950
 21
60
  0
LINE
  8
_0-8_枠中線
  6
CONTINUOUS
 62
    5
 10
1425
 20
180
 11
925
 21
180
  0
LINE
  8
_0-8_枠中線
  6
CONTINUOUS
 62
    5
 10
925
 20
180
 11
925
 21
60
  0
LINE
  8
_0-7_枠細線
  6
CONTINUOUS
 62
    5
 10
1245
 20
180
 11
1245
 21
60
  0
TEXT
  8
_0-7_枠細線
 62
    5
 10
1192.5
 20
160
 40
15
 41
1
 50
0
  1
縮　尺
  0
LINE
  8
_0-7_枠細線
  6
CONTINUOUS
 62
    5
 10
1185
 20
155
 11
1245
 21
155
  0
LINE
  8
_0-7_枠細線
  6
CONTINUOUS
 62
    5
 10
1245
 20
100
 11
925
 21
100
  0
LINE
  8
_0-7_枠細線
  6
CONTINUOUS
 62
    5
 10
1425
 20
90
 11
1245
 21
90
  0
LINE
  8
_0-7_枠細線
  6
CONTINUOUS
 62
    5
 10
1245
 20
120
 11
1425
 21
120
  0
LINE
  8
_0-7_枠細線
  6
CONTINUOUS
 62
    5
 10
1425
 20
140
 11
1245
 21
140
  0
TEXT
  8
_0-7_枠細線
 62
    5
 10
1255
 20
147.5
 40
25
 41
0.8
 50
0
  1
株式会社シマブン
  0
TEXT
  8
_0-7_枠細線
 62
    5
 10
1252.5
 20
60
 40
15
 41
1
 50
0
  1
年月日
  0
TEXT
  8
_0-7_枠細線
 62
    5
 10
1252.5
 20
75
 40
15
 41
1
 50
0
  1
作　成
  0
TEXT
  8
_0-7_枠細線
 62
    5
 10
1256.25
 20
122.5
 40
15
 41
1
 50
0
  1
承 認
  0
LINE
  8
_0-7_枠細線
  6
CONTINUOUS
 62
    5
 10
1305
 20
140
 11
1305
 21
60
  0
TEXT
  8
_0-7_枠細線
 62
    5
 10
1316.25
 20
122.5
 40
15
 41
1
 50
0
  1
検 図
  0
LINE
  8
_0-7_枠細線
  6
CONTINUOUS
 62
    5
 10
1365
 20
140
 11
1365
 21
90
  0
TEXT
  8
_0-7_枠細線
 62
    5
 10
1376.25
 20
122.5
 40
15
 41
1
 50
0
  1
設 計
  0
TEXT
  8
_0-7_枠細線
 62
    5
 10
1193.9999999999998
 20
117.5
 40
20
 41
0.7000000000000001
 50
0
  1
１：５
  0
TEXT
  8
_0-7_枠細線
 62
    5
 10
960.5
 20
69.999999999999858
 40
20
 41
0.5999999999999998
 50
0
  1
色については表参照のこと
  0
LINE
  8
_0-9_枠極太
  6
CONTINUOUS
 62
    5
 10
60
 20
60
 11
60
 21
960
  0
LINE
  8
_0-9_枠極太
  6
CONTINUOUS
 62
    5
 10
60
 20
960
 11
1425
 21
960
  0
LINE
  8
_0-9_枠極太
  6
CONTINUOUS
 62
    5
 10
1425
 20
960
 11
1425
 21
60
  0
LINE
  8
_0-9_枠極太
  6
CONTINUOUS
 62
    5
 10
1425
 20
60
 11
60
 21
60
  0
LINE
  8
_0-7_枠細線
  6
CONTINUOUS
 62
    5
 10
1425
 20
942.5
 11
890
 21
942.5
  0
TEXT
  8
_0-7_枠細線
 62
    5
 10
895
 20
945
 40
12.5
 41
1
 50
0
  1
記号
  0
TEXT
  8
_0-7_枠細線
 62
    5
 10
996.875
 20
945
 40
12.5
 41
1
 50
0
  1
訂　 正　 記　 事
  0
TEXT
  8
_0-7_枠細線
 62
    5
 10
1181.25
 20
945
 40
12.5
 41
1
 50
0
  1
訂 正 年 月 日
  0
TEXT
  8
_0-7_枠細線
 62
    5
 10
1306.25
 20
945
 40
12.5
 41
1
 50
0
  1
備　　　　　考
  0
LINE
  8
_0-7_枠細線
  6
CONTINUOUS
 62
    5
 10
1425
 20
925
 11
890
 21
925
  0
TEXT
  8
_0-7_枠細線
 62
    5
 10
938.85037037037023
 20
927.5
 40
12.5
 41
1
 50
0
  1
品番・色記号変更
  0
TEXT
  8
_0-7_枠細線
 62
    5
 10
1180
 20
927.5
 40
12.5
 41
0.7199999999999999
 50
0
  1
２０１３．０３．１３
  0
LINE
  8
_0-7_枠細線
  6
CONTINUOUS
 62
    5
 10
1425
 20
907.5
 11
890
 21
907.5
  0
LINE
  8
_0-7_枠細線
  6
CONTINUOUS
 62
    5
 10
1425
 20
890
 11
890
 21
890
  0
TEXT
  8
_0-7_枠細線
 62
    5
 10
938.85037037037023
 20
910
 40
12.5
 41
1
 50
0
  1
クロスバーピッチ変更
  0
TEXT
  8
_0-7_枠細線
 62
    5
 10
938.85037037037023
 20
892.5
 40
12.5
 41
1
 50
0
  1
取外具形状変更
  0
TEXT
  8
_0-7_枠細線
 62
    5
 10
1180
 20
910
 40
12.5
 41
0.7199999999999999
 50
0
  1
２０１５．１１．２０
  0
LINE
  8
_0-7_枠細線
  6
CONTINUOUS
 62
    5
 10
915
 20
908.94233397174708
 11
907.5
 21
923.94233397174708
  0
LINE
  8
_0-7_枠細線
  6
CONTINUOUS
 62
    5
 10
900
 20
908.94233397174708
 11
915
 21
908.94233397174708
  0
LINE
  8
_0-7_枠細線
  6
CONTINUOUS
 62
    5
 10
907.5
 20
923.94233397174708
 11
900
 21
908.94233397174708
  0
TEXT
  8
_0-7_枠細線
 62
    5
 10
902.36515126814822
 20
908.63533172636653
 40
12.5
 41
0.8
 50
0
  1
１
  0
TEXT
  8
_0-7_枠細線
 62
    5
 10
902.36515126814822
 20
891.13533172636653
 40
12.5
 41
0.8
 50
0
  1
２
  0
LINE
  8
_0-7_枠細線
  6
CONTINUOUS
 62
    5
 10
1425
 20
872.5
 11
890
 21
872.5
  0
LINE
  8
_0-7_枠細線
  6
CONTINUOUS
 62
    5
 10
907.5
 20
906.44233397174708
 11
900
 21
891.44233397174708
  0
LINE
  8
_0-7_枠細線
  6
CONTINUOUS
 62
    5
 10
900
 20
891.44233397174708
 11
915
 21
891.44233397174708
  0
LINE
  8
_0-7_枠細線
  6
CONTINUOUS
 62
    5
 10
915
 20
891.44233397174708
 11
907.5
 21
906.44233397174708
  0
TEXT
  8
_0-7_枠細線
 62
    5
 10
902.36515126814822
 20
873.39465008156571
 40
12.5
 41
0.8
 50
0
  1
３
  0
TEXT
  8
_0-7_枠細線
 62
    5
 10
1180
 20
875
 40
12.5
 41
0.7199999999999999
 50
0
  1
２０１７．０４．０１
  0
LINE
  8
_0-7_枠細線
  6
CONTINUOUS
 62
    5
 10
915
 20
856.44233397174708
 11
907.5
 21
871.44233397174708
  0
LINE
  8
_0-7_枠細線
  6
CONTINUOUS
 62
    5
 10
900
 20
856.44233397174708
 11
915
 21
856.44233397174708
  0
LINE
  8
_0-7_枠細線
  6
CONTINUOUS
 62
    5
 10
907.5
 20
871.44233397174708
 11
900
 21
856.44233397174708
  0
TEXT
  8
_0-7_枠細線
 62
    5
 10
1180
 20
857.5
 40
12.5
 41
0.7199999999999999
 50
0
  1
２０１７．０４．０１
  0
TEXT
  8
_0-7_枠細線
 62
    5
 10
938.85037037037023
 20
857.5
 40
12.5
 41
1
 50
0
  1
ブラウン色（Ｃ）追加
  0
LINE
  8
_0-7_枠細線
  6
CONTINUOUS
 62
    5
 10
1425
 20
855
 11
890
 21
855
  0
LINE
  8
_0-7_枠細線
  6
CONTINUOUS
 62
    5
 10
907.5
 20
888.94233397174708
 11
900
 21
873.94233397174708
  0
LINE
  8
_0-7_枠細線
  6
CONTINUOUS
 62
    5
 10
900
 20
873.94233397174708
 11
915
 21
873.94233397174708
  0
LINE
  8
_0-7_枠細線
  6
CONTINUOUS
 62
    5
 10
915
 20
873.94233397174708
 11
907.5
 21
888.94233397174708
  0
TEXT
  8
_0-7_枠細線
 62
    5
 10
902.36515126814822
 20
855.49351400689704
 40
12.5
 41
0.8
 50
0
  1
４
  0
TEXT
  8
_0-7_枠細線
 62
    5
 10
938.85037037037023
 20
875
 40
12.5
 41
1
 50
0
  1
取外具形状変更
  0
TEXT
  8
_0-7_枠細線
 62
    5
 10
1180
 20
892.5
 40
12.5
 41
0.7199999999999999
 50
0
  1
２０１５．１１．２０
  0
LINE
  8
_0-7_枠細線
  6
CONTINUOUS
 62
    5
 10
915
 20
838.94233397174685
 11
907.5
 21
853.94233397174708
  0
LINE
  8
_0-7_枠細線
  6
CONTINUOUS
 62
    5
 10
900
 20
838.94233397174685
 11
915
 21
838.94233397174685
  0
LINE
  8
_0-7_枠細線
  6
CONTINUOUS
 62
    5
 10
907.5
 20
853.94233397174708
 11
900
 21
838.94233397174685
  0
LINE
  8
_0-7_枠細線
  6
CONTINUOUS
 62
    5
 10
1425
 20
837.5
 11
890
 21
837.5
  0
TEXT
  8
_0-7_枠細線
 62
    5
 10
1180
 20
840
 40
12.5
 41
0.7199999999999999
 50
0
  1
２０１９．０９．０１
  0
TEXT
  8
_0-7_枠細線
 62
    5
 10
902.36515126814822
 20
837.99351400689704
 40
12.5
 41
0.8
 50
0
  1
５
  0
TEXT
  8
_0-7_枠細線
 62
    5
 10
938.85037037037023
 20
840
 40
12.5
 41
1
 50
0
  1
アンカー材質･厚み変更
  0
LINE
  8
_0-0_計極細
  6
CENTER1
 62
    2
 10
239.39565491860336
 20
732.27529358385084
 11
239.39565491860336
 21
315.96675041838182
  0
LINE
  8
_0-0_計極細
  6
CENTER1
 62
    2
 10
336.39565491860333
 20
732.27529358385084
 11
336.39565491860333
 21
315.96675041838182
  0
LINE
  8
_0-0_計極細
  6
CONTINUOUS
 62
    2
 10
232.8956549186033
 20
509.32457415939336
 11
232.8956549186033
 21
503.72457415939351
  0
LINE
  8
_0-0_計極細
  6
CONTINUOUS
 62
    2
 10
245.89565491860333
 20
509.32457415939336
 11
245.89565491860333
 21
503.72457415939351
  0
LINE
  8
_0-0_計極細
  6
CONTINUOUS
 62
    2
 10
232.8956549186033
 20
526.32457415939427
 11
232.8956549186033
 21
520.72457415939402
  0
LINE
  8
_0-0_計極細
  6
CONTINUOUS
 62
    2
 10
245.89565491860333
 20
526.32457415939427
 11
245.89565491860333
 21
520.72457415939402
  0
LINE
  8
_0-0_計極細
  6
CONTINUOUS
 62
    2
 10
232.8956549186033
 20
543.32457415939473
 11
232.8956549186033
 21
537.72457415939482
  0
LINE
  8
_0-0_計極細
  6
CONTINUOUS
 62
    2
 10
245.89565491860333
 20
543.32457415939473
 11
245.89565491860333
 21
537.72457415939482
  0
LINE
  8
_0-0_計極細
  6
CONTINUOUS
 62
    2
 10
232.8956549186033
 20
560.32457415939564
 11
232.8956549186033
 21
554.72457415939527
  0
LINE
  8
_0-0_計極細
  6
CONTINUOUS
 62
    2
 10
245.89565491860333
 20
560.32457415939564
 11
245.89565491860333
 21
554.72457415939527
  0
LINE
  8
_0-0_計極細
  6
CONTINUOUS
 62
    2
 10
232.8956549186033
 20
577.32457415939609
 11
232.8956549186033
 21
571.72457415939618
  0
LINE
  8
_0-0_計極細
  6
CONTINUOUS
 62
    2
 10
245.89565491860333
 20
577.32457415939609
 11
245.89565491860333
 21
571.72457415939618
  0
LINE
  8
_0-0_計極細
  6
CONTINUOUS
 62
    2
 10
232.8956549186033
 20
594.3245741593953
 11
232.8956549186033
 21
588.72457415939527
  0
LINE
  8
_0-0_計極細
  6
CONTINUOUS
 62
    2
 10
245.89565491860333
 20
594.3245741593953
 11
245.89565491860333
 21
588.72457415939527
  0
LINE
  8
_0-0_計極細
  6
CONTINUOUS
 62
    2
 10
232.8956549186033
 20
611.32457415939427
 11
232.8956549186033
 21
605.72457415939436
  0
LINE
  8
_0-0_計極細
  6
CONTINUOUS
 62
    2
 10
245.89565491860333
 20
611.32457415939427
 11
245.89565491860333
 21
605.72457415939436
  0
LINE
  8
_0-0_計極細
  6
CONTINUOUS
 62
    2
 10
232.8956549186033
 20
628.32457415939336
 11
232.8956549186033
 21
622.72457415939346
  0
LINE
  8
_0-0_計極細
  6
CONTINUOUS
 62
    2
 10
245.89565491860333
 20
628.32457415939336
 11
245.89565491860333
 21
622.72457415939346
  0
LINE
  8
_0-0_計極細
  6
CONTINUOUS
 62
    2
 10
232.8956549186033
 20
645.32457415939245
 11
232.8956549186033
 21
639.72457415939266
  0
LINE
  8
_0-0_計極細
  6
CONTINUOUS
 62
    2
 10
245.89565491860333
 20
645.32457415939245
 11
245.89565491860333
 21
639.72457415939266
  0
LINE
  8
_0-0_計極細
  6
CONTINUOUS
 62
    2
 10
232.8956549186033
 20
662.02457415939546
 11
232.8956549186033
 21
656.72457415939573
  0
LINE
  8
_0-0_計極細
  6
CONTINUOUS
 62
    2
 10
245.89565491860333
 20
662.02457415939546
 11
245.89565491860333
 21
656.72457415939573
  0
LINE
  8
_0-0_計極細
  6
CONTINUOUS
 62
    2
 10
232.8956549186033
 20
486.72457415939255
 11
232.8956549186033
 21
492.32457415939251
  0
LINE
  8
_0-0_計極細
  6
CONTINUOUS
 62
    2
 10
245.89565491860333
 20
486.72457415939255
 11
245.89565491860333
 21
492.32457415939251
  0
LINE
  8
_0-0_計極細
  6
CONTINUOUS
 62
    2
 10
232.8956549186033
 20
469.72457415939169
 11
232.8956549186033
 21
475.32457415939206
  0
LINE
  8
_0-0_計極細
  6
CONTINUOUS
 62
    2
 10
245.89565491860333
 20
469.72457415939169
 11
245.89565491860333
 21
475.32457415939206
  0
LINE
  8
_0-0_計極細
  6
CONTINUOUS
 62
    2
 10
232.8956549186033
 20
452.72457415939124
 11
232.8956549186033
 21
458.32457415939109
  0
LINE
  8
_0-0_計極細
  6
CONTINUOUS
 62
    2
 10
245.89565491860333
 20
452.72457415939124
 11
245.89565491860333
 21
458.32457415939109
  0
LINE
  8
_0-0_計極細
  6
CONTINUOUS
 62
    2
 10
232.8956549186033
 20
435.72457415939209
 11
232.8956549186033
 21
441.324574159392
  0
LINE
  8
_0-0_計極細
  6
CONTINUOUS
 62
    2
 10
245.89565491860333
 20
435.72457415939209
 11
245.89565491860333
 21
441.324574159392
  0
LINE
  8
_0-0_計極細
  6
CONTINUOUS
 62
    2
 10
232.8956549186033
 20
418.724574159393
 11
232.8956549186033
 21
424.32457415939297
  0
LINE
  8
_0-0_計極細
  6
CONTINUOUS
 62
    2
 10
245.89565491860333
 20
418.724574159393
 11
245.89565491860333
 21
424.32457415939297
  0
LINE
  8
_0-0_計極細
  6
CONTINUOUS
 62
    2
 10
232.8956549186033
 20
401.72457415939391
 11
232.8956549186033
 21
407.32457415939388
  0
LINE
  8
_0-0_計極細
  6
CONTINUOUS
 62
    2
 10
245.89565491860333
 20
401.72457415939391
 11
245.89565491860333
 21
407.32457415939388
  0
LINE
  8
_0-0_計極細
  6
CONTINUOUS
 62
    2
 10
232.8956549186033
 20
384.72457415939488
 11
232.8956549186033
 21
390.32457415939473
  0
LINE
  8
_0-0_計極細
  6
CONTINUOUS
 62
    2
 10
245.89565491860333
 20
384.72457415939488
 11
245.89565491860333
 21
390.32457415939473
  0
LINE
  8
_0-0_計極細
  6
CONTINUOUS
 62
    2
 10
232.8956549186033
 20
368.02457415939182
 11
232.8956549186033
 21
373.32457415939155
  0
LINE
  8
_0-0_計極細
  6
CONTINUOUS
 62
    2
 10
245.89565491860333
 20
368.02457415939182
 11
245.89565491860333
 21
373.32457415939155
  0
LINE
  8
_0-0_計極細
  6
CONTINUOUS
 62
    2
 10
329.89565491860333
 20
509.32457415939336
 11
329.89565491860333
 21
503.72457415939351
  0
LINE
  8
_0-0_計極細
  6
CONTINUOUS
 62
    2
 10
342.89565491860338
 20
509.32457415939336
 11
342.89565491860338
 21
503.72457415939351
  0
LINE
  8
_0-0_計極細
  6
CONTINUOUS
 62
    2
 10
329.89565491860333
 20
543.32457415939473
 11
329.89565491860333
 21
537.72457415939482
  0
LINE
  8
_0-0_計極細
  6
CONTINUOUS
 62
    2
 10
342.89565491860338
 20
543.32457415939473
 11
342.89565491860338
 21
537.72457415939482
  0
LINE
  8
_0-0_計極細
  6
CONTINUOUS
 62
    2
 10
329.89565491860333
 20
560.32457415939564
 11
329.89565491860333
 21
554.72457415939527
  0
LINE
  8
_0-0_計極細
  6
CONTINUOUS
 62
    2
 10
342.89565491860338
 20
560.32457415939564
 11
342.89565491860338
 21
554.72457415939527
  0
LINE
  8
_0-0_計極細
  6
CONTINUOUS
 62
    2
 10
329.89565491860333
 20
577.32457415939609
 11
329.89565491860333
 21
571.72457415939618
  0
LINE
  8
_0-0_計極細
  6
CONTINUOUS
 62
    2
 10
342.89565491860338
 20
577.32457415939609
 11
342.89565491860338
 21
571.72457415939618
  0
LINE
  8
_0-0_計極細
  6
CONTINUOUS
 62
    2
 10
329.89565491860333
 20
594.3245741593953
 11
329.89565491860333
 21
588.72457415939527
  0
LINE
  8
_0-0_計極細
  6
CONTINUOUS
 62
    2
 10
342.89565491860338
 20
594.3245741593953
 11
342.89565491860338
 21
588.72457415939527
  0
LINE
  8
_0-0_計極細
  6
CONTINUOUS
 62
    2
 10
329.89565491860333
 20
611.32457415939427
 11
329.89565491860333
 21
605.72457415939436
  0
LINE
  8
_0-0_計極細
  6
CONTINUOUS
 62
    2
 10
342.89565491860338
 20
611.32457415939427
 11
342.89565491860338
 21
605.72457415939436
  0
LINE
  8
_0-0_計極細
  6
CONTINUOUS
 62
    2
 10
329.89565491860333
 20
628.32457415939336
 11
329.89565491860333
 21
622.72457415939346
  0
LINE
  8
_0-0_計極細
  6
CONTINUOUS
 62
    2
 10
342.89565491860338
 20
628.32457415939336
 11
342.89565491860338
 21
622.72457415939346
  0
LINE
  8
_0-0_計極細
  6
CONTINUOUS
 62
    2
 10
329.89565491860333
 20
645.32457415939245
 11
329.89565491860333
 21
639.72457415939266
  0
LINE
  8
_0-0_計極細
  6
CONTINUOUS
 62
    2
 10
342.89565491860338
 20
645.32457415939245
 11
342.89565491860338
 21
639.72457415939266
  0
LINE
  8
_0-0_計極細
  6
CONTINUOUS
 62
    2
 10
329.89565491860333
 20
662.02457415939546
 11
329.89565491860333
 21
656.72457415939573
  0
LINE
  8
_0-0_計極細
  6
CONTINUOUS
 62
    2
 10
342.89565491860338
 20
662.02457415939546
 11
342.89565491860338
 21
656.72457415939573
  0
LINE
  8
_0-0_計極細
  6
CONTINUOUS
 62
    2
 10
329.89565491860333
 20
486.72457415939255
 11
329.89565491860333
 21
492.32457415939251
  0
LINE
  8
_0-0_計極細
  6
CONTINUOUS
 62
    2
 10
342.89565491860338
 20
486.72457415939255
 11
342.89565491860338
 21
492.32457415939251
  0
LINE
  8
_0-0_計極細
  6
CONTINUOUS
 62
    2
 10
329.89565491860333
 20
469.72457415939169
 11
329.89565491860333
 21
475.32457415939206
  0
LINE
  8
_0-0_計極細
  6
CONTINUOUS
 62
    2
 10
342.89565491860338
 20
469.72457415939169
 11
342.89565491860338
 21
475.32457415939206
  0
LINE
  8
_0-0_計極細
  6
CONTINUOUS
 62
    2
 10
329.89565491860333
 20
452.72457415939124
 11
329.89565491860333
 21
458.32457415939109
  0
LINE
  8
_0-0_計極細
  6
CONTINUOUS
 62
    2
 10
342.89565491860338
 20
452.72457415939124
 11
342.89565491860338
 21
458.32457415939109
  0
LINE
  8
_0-0_計極細
  6
CONTINUOUS
 62
    2
 10
329.89565491860333
 20
435.72457415939209
 11
329.89565491860333
 21
441.324574159392
  0
LINE
  8
_0-0_計極細
  6
CONTINUOUS
 62
    2
 10
342.89565491860338
 20
435.72457415939209
 11
342.89565491860338
 21
441.324574159392
  0
LINE
  8
_0-0_計極細
  6
CONTINUOUS
 62
    2
 10
329.89565491860333
 20
418.724574159393
 11
329.89565491860333
 21
424.32457415939297
  0
LINE
  8
_0-0_計極細
  6
CONTINUOUS
 62
    2
 10
342.89565491860338
 20
418.724574159393
 11
342.89565491860338
 21
424.32457415939297
  0
LINE
  8
_0-0_計極細
  6
CONTINUOUS
 62
    2
 10
329.89565491860333
 20
401.72457415939391
 11
329.89565491860333
 21
407.32457415939388
  0
LINE
  8
_0-0_計極細
  6
CONTINUOUS
 62
    2
 10
342.89565491860338
 20
401.72457415939391
 11
342.89565491860338
 21
407.32457415939388
  0
LINE
  8
_0-0_計極細
  6
CONTINUOUS
 62
    2
 10
329.89565491860333
 20
384.72457415939488
 11
329.89565491860333
 21
390.32457415939473
  0
LINE
  8
_0-0_計極細
  6
CONTINUOUS
 62
    2
 10
342.89565491860338
 20
384.72457415939488
 11
342.89565491860338
 21
390.32457415939473
  0
LINE
  8
_0-0_計極細
  6
CONTINUOUS
 62
    2
 10
329.89565491860333
 20
368.02457415939182
 11
329.89565491860333
 21
373.32457415939155
  0
LINE
  8
_0-0_計極細
  6
CONTINUOUS
 62
    2
 10
342.89565491860338
 20
368.02457415939182
 11
342.89565491860338
 21
373.32457415939155
  0
LINE
  8
_0-0_計極細
  6
CONTINUOUS
 62
    2
 10
329.89565491860333
 20
526.32457415939427
 11
329.89565491860333
 21
525.874574159394
  0
LINE
  8
_0-0_計極細
  6
CONTINUOUS
 62
    2
 10
329.89565491860333
 20
521.17457415939418
 11
329.89565491860333
 21
520.72457415939402
  0
LINE
  8
_0-0_計極細
  6
CONTINUOUS
 62
    2
 10
342.89565491860338
 20
526.32457415939427
 11
342.89565491860338
 21
525.874574159394
  0
LINE
  8
_0-0_計極細
  6
CONTINUOUS
 62
    2
 10
342.89565491860338
 20
521.17457415939418
 11
342.89565491860338
 21
520.72457415939402
  0
LINE
  8
_0-0_計極細
  6
CONTINUOUS
 62
    2
 10
232.8956549186033
 20
351.32457415939291
 11
232.8956549186033
 21
356.62457415939264
  0
LINE
  8
_0-0_計極細
  6
CONTINUOUS
 62
    2
 10
245.89565491860333
 20
351.32457415939291
 11
245.89565491860333
 21
356.62457415939264
  0
LINE
  8
_0-0_計極細
  6
CONTINUOUS
 62
    2
 10
329.89565491860333
 20
351.32457415939291
 11
329.89565491860333
 21
356.62457415939264
  0
LINE
  8
_0-0_計極細
  6
CONTINUOUS
 62
    2
 10
342.89565491860338
 20
351.32457415939291
 11
342.89565491860338
 21
356.62457415939264
  0
LINE
  8
_0-0_計極細
  6
CONTINUOUS
 62
    2
 10
232.8956549186033
 20
678.72457415939436
 11
232.8956549186033
 21
673.42457415939464
  0
LINE
  8
_0-0_計極細
  6
CONTINUOUS
 62
    2
 10
245.89565491860333
 20
678.72457415939436
 11
245.89565491860333
 21
673.42457415939464
  0
LINE
  8
_0-0_計極細
  6
CONTINUOUS
 62
    2
 10
329.89565491860333
 20
678.72457415939436
 11
329.89565491860333
 21
673.42457415939464
  0
LINE
  8
_0-0_計極細
  6
CONTINUOUS
 62
    2
 10
342.89565491860338
 20
678.72457415939436
 11
342.89565491860338
 21
673.42457415939464
  0
LINE
  8
_0-0_計極細
  6
CONTINUOUS
 62
    2
 10
232.8956549186033
 20
695.42457415939327
 11
232.8956549186033
 21
690.12457415939355
  0
LINE
  8
_0-0_計極細
  6
CONTINUOUS
 62
    2
 10
245.89565491860333
 20
695.42457415939327
 11
245.89565491860333
 21
690.12457415939355
  0
LINE
  8
_0-0_計極細
  6
CONTINUOUS
 62
    2
 10
329.89565491860333
 20
695.42457415939327
 11
329.89565491860333
 21
690.12457415939355
  0
LINE
  8
_0-0_計極細
  6
CONTINUOUS
 62
    2
 10
342.89565491860338
 20
695.42457415939327
 11
342.89565491860338
 21
690.12457415939355
  0
LINE
  8
_0-0_計極細
  6
CENTER2
 62
    2
 10
216.50705538158411
 20
523.52457415939409
 11
648.44038871496105
 21
523.52457415939409
  0
LINE
  8
_0-1_計細線
  6
CONTINUOUS
 62
    3
 10
227.39565491860333
 20
728.5245741593892
 11
227.39565491860333
 21
318.52457415938909
  0
LINE
  8
_0-1_計細線
  6
CONTINUOUS
 62
    3
 10
227.39565491860333
 20
318.52457415938909
 11
637.39565491860321
 21
318.52457415938909
  0
LINE
  8
_0-1_計細線
  6
CONTINUOUS
 62
    3
 10
637.39565491860321
 20
318.52457415938909
 11
637.39565491860321
 21
728.5245741593892
  0
LINE
  8
_0-1_計細線
  6
CONTINUOUS
 62
    3
 10
637.39565491860321
 20
728.5245741593892
 11
227.39565491860333
 21
728.5245741593892
  0
LINE
  8
_0-1_計細線
  6
CONTINUOUS
 62
    3
 10
634.39565491860321
 20
321.52457415938909
 11
634.39565491860321
 21
725.5245741593892
  0
LINE
  8
_0-1_計細線
  6
CONTINUOUS
 62
    3
 10
634.39565491860321
 20
725.5245741593892
 11
230.3956549186033
 21
725.5245741593892
  0
LINE
  8
_0-1_計細線
  6
CONTINUOUS
 62
    3
 10
230.3956549186033
 20
725.5245741593892
 11
230.3956549186033
 21
321.52457415938909
  0
LINE
  8
_0-1_計細線
  6
CONTINUOUS
 62
    3
 10
230.3956549186033
 20
321.52457415938909
 11
634.39565491860321
 21
321.52457415938909
  0
LINE
  8
_0-0_計極細
  6
CENTER1
 62
    2
 10
625.39565491860321
 20
732.27529358385084
 11
625.39565491860321
 21
315.96675041838182
  0
LINE
  8
_0-0_計極細
  6
CENTER1
 62
    2
 10
528.39565491860321
 20
732.27529358385084
 11
528.39565491860321
 21
315.96675041838182
  0
LINE
  8
_0-1_計細線
  6
CONTINUOUS
 62
    3
 10
232.39565491860333
 20
492.32457415939746
 11
632.39565491860321
 21
492.32457415939746
  0
LINE
  8
_0-1_計細線
  6
CONTINUOUS
 62
    3
 10
232.39565491860333
 20
503.72457415939806
 11
632.39565491860321
 21
503.72457415939806
  0
LINE
  8
_0-1_計細線
  6
CONTINUOUS
 62
    3
 10
232.39565491860333
 20
492.32457415939746
 11
232.39565491860333
 21
503.72457415939806
  0
LINE
  8
_0-1_計細線
  6
CONTINUOUS
 62
    3
 10
632.39565491860321
 20
492.32457415939746
 11
632.39565491860321
 21
503.72457415939806
  0
LINE
  8
_0-0_計極細
  6
CONTINUOUS
 62
    2
 10
232.39565491860333
 20
500.52457415939779
 11
632.39565491860321
 21
500.52457415939779
  0
LINE
  8
_0-0_計極細
  6
CONTINUOUS
 62
    2
 10
232.39565491860333
 20
495.52457415939779
 11
632.39565491860321
 21
495.52457415939779
  0
LINE
  8
_0-1_計細線
  6
CONTINUOUS
 62
    3
 10
232.39565491860333
 20
588.72457415939527
 11
632.39565491860321
 21
588.72457415939527
  0
LINE
  8
_0-1_計細線
  6
CONTINUOUS
 62
    3
 10
232.39565491860333
 20
577.32457415939484
 11
632.39565491860321
 21
577.32457415939484
  0
LINE
  8
_0-1_計細線
  6
CONTINUOUS
 62
    3
 10
232.39565491860333
 20
588.72457415939527
 11
232.39565491860333
 21
577.32457415939484
  0
LINE
  8
_0-1_計細線
  6
CONTINUOUS
 62
    3
 10
632.39565491860321
 20
588.72457415939527
 11
632.39565491860321
 21
577.32457415939484
  0
LINE
  8
_0-0_計極細
  6
CONTINUOUS
 62
    2
 10
232.39565491860333
 20
580.524574159395
 11
632.39565491860321
 21
580.524574159395
  0
LINE
  8
_0-0_計極細
  6
CONTINUOUS
 62
    2
 10
232.39565491860333
 20
585.524574159395
 11
632.39565491860321
 21
585.524574159395
  0
LINE
  8
_0-1_計細線
  6
CONTINUOUS
 62
    3
 10
232.39565491860333
 20
554.72457415939527
 11
632.39565491860321
 21
554.72457415939527
  0
LINE
  8
_0-1_計細線
  6
CONTINUOUS
 62
    3
 10
232.39565491860333
 20
543.32457415939473
 11
632.39565491860321
 21
543.32457415939473
  0
LINE
  8
_0-1_計細線
  6
CONTINUOUS
 62
    3
 10
232.39565491860333
 20
554.72457415939527
 11
232.39565491860333
 21
543.32457415939473
  0
LINE
  8
_0-1_計細線
  6
CONTINUOUS
 62
    3
 10
632.39565491860321
 20
554.72457415939527
 11
632.39565491860321
 21
543.32457415939473
  0
LINE
  8
_0-0_計極細
  6
CONTINUOUS
 62
    2
 10
232.39565491860333
 20
546.524574159395
 11
632.39565491860321
 21
546.524574159395
  0
LINE
  8
_0-0_計極細
  6
CONTINUOUS
 62
    2
 10
232.39565491860333
 20
551.524574159395
 11
632.39565491860321
 21
551.524574159395
  0
LINE
  8
_0-1_計細線
  6
CONTINUOUS
 62
    3
 10
232.39565491860333
 20
571.72457415939618
 11
632.39565491860321
 21
571.72457415939618
  0
LINE
  8
_0-1_計細線
  6
CONTINUOUS
 62
    3
 10
232.39565491860333
 20
560.32457415939564
 11
632.39565491860321
 21
560.32457415939564
  0
LINE
  8
_0-1_計細線
  6
CONTINUOUS
 62
    3
 10
232.39565491860333
 20
571.72457415939618
 11
232.39565491860333
 21
560.32457415939564
  0
LINE
  8
_0-1_計細線
  6
CONTINUOUS
 62
    3
 10
632.39565491860321
 20
571.72457415939618
 11
632.39565491860321
 21
560.32457415939564
  0
LINE
  8
_0-0_計極細
  6
CONTINUOUS
 62
    2
 10
232.39565491860333
 20
563.52457415939602
 11
632.39565491860321
 21
563.52457415939602
  0
LINE
  8
_0-0_計極細
  6
CONTINUOUS
 62
    2
 10
232.39565491860333
 20
568.52457415939602
 11
632.39565491860321
 21
568.52457415939602
  0
LINE
  8
_0-1_計細線
  6
CONTINUOUS
 62
    3
 10
232.39565491860333
 20
656.72457415939573
 11
632.39565491860321
 21
656.72457415939573
  0
LINE
  8
_0-1_計細線
  6
CONTINUOUS
 62
    3
 10
232.39565491860333
 20
645.32457415939518
 11
632.39565491860321
 21
645.32457415939518
  0
LINE
  8
_0-1_計細線
  6
CONTINUOUS
 62
    3
 10
232.39565491860333
 20
656.72457415939573
 11
232.39565491860333
 21
645.32457415939518
  0
LINE
  8
_0-1_計細線
  6
CONTINUOUS
 62
    3
 10
632.39565491860321
 20
656.72457415939573
 11
632.39565491860321
 21
645.32457415939518
  0
LINE
  8
_0-0_計極細
  6
CONTINUOUS
 62
    2
 10
232.39565491860333
 20
648.52457415939602
 11
632.39565491860321
 21
648.52457415939602
  0
LINE
  8
_0-0_計極細
  6
CONTINUOUS
 62
    2
 10
232.39565491860333
 20
653.52457415939602
 11
632.39565491860321
 21
653.52457415939602
  0
LINE
  8
_0-1_計細線
  6
CONTINUOUS
 62
    3
 10
232.39565491860333
 20
605.72457415939436
 11
632.39565491860321
 21
605.72457415939436
  0
LINE
  8
_0-1_計細線
  6
CONTINUOUS
 62
    3
 10
232.39565491860333
 20
594.32457415939382
 11
632.39565491860321
 21
594.32457415939382
  0
LINE
  8
_0-1_計細線
  6
CONTINUOUS
 62
    3
 10
232.39565491860333
 20
605.72457415939436
 11
232.39565491860333
 21
594.32457415939382
  0
LINE
  8
_0-1_計細線
  6
CONTINUOUS
 62
    3
 10
632.39565491860321
 20
605.72457415939436
 11
632.39565491860321
 21
594.32457415939382
  0
LINE
  8
_0-0_計極細
  6
CONTINUOUS
 62
    2
 10
232.39565491860333
 20
597.52457415939409
 11
632.39565491860321
 21
597.52457415939409
  0
LINE
  8
_0-0_計極細
  6
CONTINUOUS
 62
    2
 10
232.39565491860333
 20
602.52457415939409
 11
632.39565491860321
 21
602.52457415939409
  0
LINE
  8
_0-1_計細線
  6
CONTINUOUS
 62
    3
 10
232.39565491860333
 20
622.72457415939346
 11
632.39565491860321
 21
622.72457415939346
  0
LINE
  8
_0-1_計細線
  6
CONTINUOUS
 62
    3
 10
232.39565491860333
 20
611.32457415939291
 11
632.39565491860321
 21
611.32457415939291
  0
LINE
  8
_0-1_計細線
  6
CONTINUOUS
 62
    3
 10
232.39565491860333
 20
622.72457415939346
 11
232.39565491860333
 21
611.32457415939291
  0
LINE
  8
_0-1_計細線
  6
CONTINUOUS
 62
    3
 10
632.39565491860321
 20
622.72457415939346
 11
632.39565491860321
 21
611.32457415939291
  0
LINE
  8
_0-0_計極細
  6
CONTINUOUS
 62
    2
 10
232.39565491860333
 20
614.52457415939318
 11
632.39565491860321
 21
614.52457415939318
  0
LINE
  8
_0-0_計極細
  6
CONTINUOUS
 62
    2
 10
232.39565491860333
 20
619.52457415939318
 11
632.39565491860321
 21
619.52457415939318
  0
LINE
  8
_0-1_計細線
  6
CONTINUOUS
 62
    3
 10
232.39565491860333
 20
673.42457415939464
 11
632.39565491860321
 21
673.42457415939464
  0
LINE
  8
_0-1_計細線
  6
CONTINUOUS
 62
    3
 10
232.39565491860333
 20
662.02457415939409
 11
632.39565491860321
 21
662.02457415939409
  0
LINE
  8
_0-1_計細線
  6
CONTINUOUS
 62
    3
 10
232.39565491860333
 20
673.42457415939464
 11
232.39565491860333
 21
662.02457415939409
  0
LINE
  8
_0-1_計細線
  6
CONTINUOUS
 62
    3
 10
632.39565491860321
 20
673.42457415939464
 11
632.39565491860321
 21
662.02457415939409
  0
LINE
  8
_0-0_計極細
  6
CONTINUOUS
 62
    2
 10
232.39565491860333
 20
665.22457415939448
 11
632.39565491860321
 21
665.22457415939448
  0
LINE
  8
_0-0_計極細
  6
CONTINUOUS
 62
    2
 10
232.39565491860333
 20
670.22457415939448
 11
632.39565491860321
 21
670.22457415939448
  0
LINE
  8
_0-1_計細線
  6
CONTINUOUS
 62
    3
 10
232.39565491860333
 20
441.324574159392
 11
632.39565491860321
 21
441.324574159392
  0
LINE
  8
_0-1_計細線
  6
CONTINUOUS
 62
    3
 10
232.39565491860333
 20
452.72457415939255
 11
632.39565491860321
 21
452.72457415939255
  0
LINE
  8
_0-1_計細線
  6
CONTINUOUS
 62
    3
 10
232.39565491860333
 20
441.324574159392
 11
232.39565491860333
 21
452.72457415939255
  0
LINE
  8
_0-1_計細線
  6
CONTINUOUS
 62
    3
 10
632.39565491860321
 20
441.324574159392
 11
632.39565491860321
 21
452.72457415939255
  0
LINE
  8
_0-0_計極細
  6
CONTINUOUS
 62
    2
 10
232.39565491860333
 20
449.52457415939227
 11
632.39565491860321
 21
449.52457415939227
  0
LINE
  8
_0-0_計極細
  6
CONTINUOUS
 62
    2
 10
232.39565491860333
 20
444.52457415939227
 11
632.39565491860321
 21
444.52457415939227
  0
LINE
  8
_0-1_計細線
  6
CONTINUOUS
 62
    3
 10
232.39565491860333
 20
475.32457415939206
 11
632.39565491860321
 21
475.32457415939206
  0
LINE
  8
_0-1_計細線
  6
CONTINUOUS
 62
    3
 10
232.39565491860333
 20
486.72457415939255
 11
632.39565491860321
 21
486.72457415939255
  0
LINE
  8
_0-1_計細線
  6
CONTINUOUS
 62
    3
 10
232.39565491860333
 20
475.32457415939206
 11
232.39565491860333
 21
486.72457415939255
  0
LINE
  8
_0-1_計細線
  6
CONTINUOUS
 62
    3
 10
632.39565491860321
 20
475.32457415939206
 11
632.39565491860321
 21
486.72457415939255
  0
LINE
  8
_0-0_計極細
  6
CONTINUOUS
 62
    2
 10
232.39565491860333
 20
483.52457415939227
 11
632.39565491860321
 21
483.52457415939227
  0
LINE
  8
_0-0_計極細
  6
CONTINUOUS
 62
    2
 10
232.39565491860333
 20
478.52457415939227
 11
632.39565491860321
 21
478.52457415939227
  0
LINE
  8
_0-1_計細線
  6
CONTINUOUS
 62
    3
 10
232.39565491860333
 20
458.32457415939109
 11
632.39565491860321
 21
458.32457415939109
  0
LINE
  8
_0-1_計細線
  6
CONTINUOUS
 62
    3
 10
232.39565491860333
 20
469.72457415939169
 11
632.39565491860321
 21
469.72457415939169
  0
LINE
  8
_0-1_計細線
  6
CONTINUOUS
 62
    3
 10
232.39565491860333
 20
458.32457415939109
 11
232.39565491860333
 21
469.72457415939169
  0
LINE
  8
_0-1_計細線
  6
CONTINUOUS
 62
    3
 10
632.39565491860321
 20
458.32457415939109
 11
632.39565491860321
 21
469.72457415939169
  0
LINE
  8
_0-0_計極細
  6
CONTINUOUS
 62
    2
 10
232.39565491860333
 20
466.52457415939136
 11
632.39565491860321
 21
466.52457415939136
  0
LINE
  8
_0-0_計極細
  6
CONTINUOUS
 62
    2
 10
232.39565491860333
 20
461.52457415939136
 11
632.39565491860321
 21
461.52457415939136
  0
LINE
  8
_0-1_計細線
  6
CONTINUOUS
 62
    3
 10
232.39565491860333
 20
373.32457415939155
 11
632.39565491860321
 21
373.32457415939155
  0
LINE
  8
_0-1_計細線
  6
CONTINUOUS
 62
    3
 10
232.39565491860333
 20
384.72457415939209
 11
632.39565491860321
 21
384.72457415939209
  0
LINE
  8
_0-1_計細線
  6
CONTINUOUS
 62
    3
 10
232.39565491860333
 20
373.32457415939155
 11
232.39565491860333
 21
384.72457415939209
  0
LINE
  8
_0-1_計細線
  6
CONTINUOUS
 62
    3
 10
632.39565491860321
 20
373.32457415939155
 11
632.39565491860321
 21
384.72457415939209
  0
LINE
  8
_0-0_計極細
  6
CONTINUOUS
 62
    2
 10
232.39565491860333
 20
381.52457415939136
 11
632.39565491860321
 21
381.52457415939136
  0
LINE
  8
_0-0_計極細
  6
CONTINUOUS
 62
    2
 10
232.39565491860333
 20
376.52457415939136
 11
632.39565491860321
 21
376.52457415939136
  0
LINE
  8
_0-1_計細線
  6
CONTINUOUS
 62
    3
 10
232.39565491860333
 20
424.32457415939297
 11
632.39565491860321
 21
424.32457415939297
  0
LINE
  8
_0-1_計細線
  6
CONTINUOUS
 62
    3
 10
232.39565491860333
 20
435.72457415939346
 11
632.39565491860321
 21
435.72457415939346
  0
LINE
  8
_0-1_計細線
  6
CONTINUOUS
 62
    3
 10
232.39565491860333
 20
424.32457415939297
 11
232.39565491860333
 21
435.72457415939346
  0
LINE
  8
_0-1_計細線
  6
CONTINUOUS
 62
    3
 10
632.39565491860321
 20
424.32457415939297
 11
632.39565491860321
 21
435.72457415939346
  0
LINE
  8
_0-0_計極細
  6
CONTINUOUS
 62
    2
 10
232.39565491860333
 20
432.52457415939318
 11
632.39565491860321
 21
432.52457415939318
  0
LINE
  8
_0-0_計極細
  6
CONTINUOUS
 62
    2
 10
232.39565491860333
 20
427.52457415939318
 11
632.39565491860321
 21
427.52457415939318
  0
LINE
  8
_0-1_計細線
  6
CONTINUOUS
 62
    3
 10
232.39565491860333
 20
407.32457415939388
 11
632.39565491860321
 21
407.32457415939388
  0
LINE
  8
_0-1_計細線
  6
CONTINUOUS
 62
    3
 10
232.39565491860333
 20
418.72457415939436
 11
632.39565491860321
 21
418.72457415939436
  0
LINE
  8
_0-1_計細線
  6
CONTINUOUS
 62
    3
 10
232.39565491860333
 20
407.32457415939388
 11
232.39565491860333
 21
418.72457415939436
  0
LINE
  8
_0-1_計細線
  6
CONTINUOUS
 62
    3
 10
632.39565491860321
 20
407.32457415939388
 11
632.39565491860321
 21
418.72457415939436
  0
LINE
  8
_0-0_計極細
  6
CONTINUOUS
 62
    2
 10
232.39565491860333
 20
415.52457415939415
 11
632.39565491860321
 21
415.52457415939415
  0
LINE
  8
_0-0_計極細
  6
CONTINUOUS
 62
    2
 10
232.39565491860333
 20
410.52457415939415
 11
632.39565491860321
 21
410.52457415939415
  0
LINE
  8
_0-1_計細線
  6
CONTINUOUS
 62
    3
 10
232.39565491860333
 20
390.32457415939473
 11
632.39565491860321
 21
390.32457415939473
  0
LINE
  8
_0-1_計細線
  6
CONTINUOUS
 62
    3
 10
232.39565491860333
 20
401.72457415939533
 11
632.39565491860321
 21
401.72457415939533
  0
LINE
  8
_0-1_計細線
  6
CONTINUOUS
 62
    3
 10
232.39565491860333
 20
390.32457415939473
 11
232.39565491860333
 21
401.72457415939533
  0
LINE
  8
_0-1_計細線
  6
CONTINUOUS
 62
    3
 10
632.39565491860321
 20
390.32457415939473
 11
632.39565491860321
 21
401.72457415939533
  0
LINE
  8
_0-0_計極細
  6
CONTINUOUS
 62
    2
 10
232.39565491860333
 20
398.52457415939506
 11
632.39565491860321
 21
398.52457415939506
  0
LINE
  8
_0-0_計極細
  6
CONTINUOUS
 62
    2
 10
232.39565491860333
 20
393.52457415939506
 11
632.39565491860321
 21
393.52457415939506
  0
LINE
  8
_0-1_計細線
  6
CONTINUOUS
 62
    3
 10
232.39565491860333
 20
356.62457415939264
 11
632.39565491860321
 21
356.62457415939264
  0
LINE
  8
_0-1_計細線
  6
CONTINUOUS
 62
    3
 10
232.39565491860333
 20
368.02457415939324
 11
632.39565491860321
 21
368.02457415939324
  0
LINE
  8
_0-1_計細線
  6
CONTINUOUS
 62
    3
 10
232.39565491860333
 20
356.62457415939264
 11
232.39565491860333
 21
368.02457415939324
  0
LINE
  8
_0-1_計細線
  6
CONTINUOUS
 62
    3
 10
632.39565491860321
 20
356.62457415939264
 11
632.39565491860321
 21
368.02457415939324
  0
LINE
  8
_0-0_計極細
  6
CONTINUOUS
 62
    2
 10
232.39565491860333
 20
364.82457415939291
 11
632.39565491860321
 21
364.82457415939291
  0
LINE
  8
_0-0_計極細
  6
CONTINUOUS
 62
    2
 10
232.39565491860333
 20
359.82457415939291
 11
632.39565491860321
 21
359.82457415939291
  0
LINE
  8
_0-1_計細線
  6
CONTINUOUS
 62
    3
 10
232.39565491860333
 20
509.32457415939336
 11
632.39565491860321
 21
509.32457415939336
  0
LINE
  8
_0-1_計細線
  6
CONTINUOUS
 62
    3
 10
632.39565491860321
 20
520.72457415939402
 11
632.39565491860321
 21
509.32457415939336
  0
LINE
  8
_0-0_計極細
  6
CONTINUOUS
 62
    2
 10
232.39565491860333
 20
512.52457415939364
 11
632.39565491860321
 21
512.52457415939364
  0
LINE
  8
_0-0_計極細
  6
CONTINUOUS
 62
    2
 10
232.39565491860333
 20
517.52457415939364
 11
632.39565491860321
 21
517.52457415939364
  0
LINE
  8
_0-1_計細線
  6
CONTINUOUS
 62
    3
 10
232.39565491860333
 20
520.72457415939402
 11
232.39565491860333
 21
509.32457415939336
  0
LINE
  8
_0-1_計細線
  6
CONTINUOUS
 62
    3
 10
232.39565491860333
 20
520.72457415939402
 11
632.39565491860321
 21
520.72457415939402
  0
LINE
  8
_0-1_計細線
  6
CONTINUOUS
 62
    3
 10
232.39565491860333
 20
537.72457415939482
 11
632.39565491860321
 21
537.72457415939482
  0
LINE
  8
_0-1_計細線
  6
CONTINUOUS
 62
    3
 10
632.39565491860321
 20
537.72457415939482
 11
632.39565491860321
 21
526.32457415939427
  0
LINE
  8
_0-0_計極細
  6
CONTINUOUS
 62
    2
 10
232.39565491860333
 20
529.52457415939455
 11
632.39565491860321
 21
529.52457415939455
  0
LINE
  8
_0-0_計極細
  6
CONTINUOUS
 62
    2
 10
232.39565491860333
 20
534.52457415939455
 11
632.39565491860321
 21
534.52457415939455
  0
LINE
  8
_0-1_計細線
  6
CONTINUOUS
 62
    3
 10
232.39565491860333
 20
526.32457415939427
 11
632.39565491860321
 21
526.32457415939427
  0
LINE
  8
_0-1_計細線
  6
CONTINUOUS
 62
    3
 10
232.39565491860333
 20
537.72457415939482
 11
232.39565491860333
 21
526.32457415939427
  0
LINE
  8
_0-0_計極細
  6
CONTINUOUS
 62
    2
 10
618.89565491860321
 20
509.32457415939336
 11
618.89565491860321
 21
503.72457415939351
  0
LINE
  8
_0-0_計極細
  6
CONTINUOUS
 62
    2
 10
631.89565491860321
 20
509.32457415939336
 11
631.89565491860321
 21
503.72457415939351
  0
LINE
  8
_0-0_計極細
  6
CONTINUOUS
 62
    2
 10
618.89565491860321
 20
526.32457415939427
 11
618.89565491860321
 21
520.72457415939402
  0
LINE
  8
_0-0_計極細
  6
CONTINUOUS
 62
    2
 10
631.89565491860321
 20
526.32457415939427
 11
631.89565491860321
 21
520.72457415939402
  0
LINE
  8
_0-0_計極細
  6
CONTINUOUS
 62
    2
 10
618.89565491860321
 20
543.32457415939473
 11
618.89565491860321
 21
537.72457415939482
  0
LINE
  8
_0-0_計極細
  6
CONTINUOUS
 62
    2
 10
631.89565491860321
 20
543.32457415939473
 11
631.89565491860321
 21
537.72457415939482
  0
LINE
  8
_0-0_計極細
  6
CONTINUOUS
 62
    2
 10
618.89565491860321
 20
560.32457415939564
 11
618.89565491860321
 21
554.72457415939527
  0
LINE
  8
_0-0_計極細
  6
CONTINUOUS
 62
    2
 10
631.89565491860321
 20
560.32457415939564
 11
631.89565491860321
 21
554.72457415939527
  0
LINE
  8
_0-0_計極細
  6
CONTINUOUS
 62
    2
 10
618.89565491860321
 20
577.32457415939609
 11
618.89565491860321
 21
571.72457415939618
  0
LINE
  8
_0-0_計極細
  6
CONTINUOUS
 62
    2
 10
631.89565491860321
 20
577.32457415939609
 11
631.89565491860321
 21
571.72457415939618
  0
LINE
  8
_0-0_計極細
  6
CONTINUOUS
 62
    2
 10
618.89565491860321
 20
594.3245741593953
 11
618.89565491860321
 21
588.72457415939527
  0
LINE
  8
_0-0_計極細
  6
CONTINUOUS
 62
    2
 10
631.89565491860321
 20
594.3245741593953
 11
631.89565491860321
 21
588.72457415939527
  0
LINE
  8
_0-0_計極細
  6
CONTINUOUS
 62
    2
 10
618.89565491860321
 20
611.32457415939427
 11
618.89565491860321
 21
605.72457415939436
  0
LINE
  8
_0-0_計極細
  6
CONTINUOUS
 62
    2
 10
631.89565491860321
 20
611.32457415939427
 11
631.89565491860321
 21
605.72457415939436
  0
LINE
  8
_0-0_計極細
  6
CONTINUOUS
 62
    2
 10
618.89565491860321
 20
628.32457415939336
 11
618.89565491860321
 21
622.72457415939346
  0
LINE
  8
_0-0_計極細
  6
CONTINUOUS
 62
    2
 10
631.89565491860321
 20
628.32457415939336
 11
631.89565491860321
 21
622.72457415939346
  0
LINE
  8
_0-0_計極細
  6
CONTINUOUS
 62
    2
 10
618.89565491860321
 20
645.32457415939245
 11
618.89565491860321
 21
639.72457415939266
  0
LINE
  8
_0-0_計極細
  6
CONTINUOUS
 62
    2
 10
631.89565491860321
 20
645.32457415939245
 11
631.89565491860321
 21
639.72457415939266
  0
LINE
  8
_0-0_計極細
  6
CONTINUOUS
 62
    2
 10
618.89565491860321
 20
662.02457415939546
 11
618.89565491860321
 21
656.72457415939573
  0
LINE
  8
_0-0_計極細
  6
CONTINUOUS
 62
    2
 10
631.89565491860321
 20
662.02457415939546
 11
631.89565491860321
 21
656.72457415939573
  0
LINE
  8
_0-0_計極細
  6
CONTINUOUS
 62
    2
 10
618.89565491860321
 20
486.72457415939255
 11
618.89565491860321
 21
492.32457415939251
  0
LINE
  8
_0-0_計極細
  6
CONTINUOUS
 62
    2
 10
631.89565491860321
 20
486.72457415939255
 11
631.89565491860321
 21
492.32457415939251
  0
LINE
  8
_0-0_計極細
  6
CONTINUOUS
 62
    2
 10
618.89565491860321
 20
469.72457415939169
 11
618.89565491860321
 21
475.32457415939206
  0
LINE
  8
_0-0_計極細
  6
CONTINUOUS
 62
    2
 10
631.89565491860321
 20
469.72457415939169
 11
631.89565491860321
 21
475.32457415939206
  0
LINE
  8
_0-0_計極細
  6
CONTINUOUS
 62
    2
 10
618.89565491860321
 20
452.72457415939124
 11
618.89565491860321
 21
458.32457415939109
  0
LINE
  8
_0-0_計極細
  6
CONTINUOUS
 62
    2
 10
631.89565491860321
 20
452.72457415939124
 11
631.89565491860321
 21
458.32457415939109
  0
LINE
  8
_0-0_計極細
  6
CONTINUOUS
 62
    2
 10
618.89565491860321
 20
435.72457415939209
 11
618.89565491860321
 21
441.324574159392
  0
LINE
  8
_0-0_計極細
  6
CONTINUOUS
 62
    2
 10
631.89565491860321
 20
435.72457415939209
 11
631.89565491860321
 21
441.324574159392
  0
LINE
  8
_0-0_計極細
  6
CONTINUOUS
 62
    2
 10
618.89565491860321
 20
418.724574159393
 11
618.89565491860321
 21
424.32457415939297
  0
LINE
  8
_0-0_計極細
  6
CONTINUOUS
 62
    2
 10
631.89565491860321
 20
418.724574159393
 11
631.89565491860321
 21
424.32457415939297
  0
LINE
  8
_0-0_計極細
  6
CONTINUOUS
 62
    2
 10
618.89565491860321
 20
401.72457415939391
 11
618.89565491860321
 21
407.32457415939388
  0
LINE
  8
_0-0_計極細
  6
CONTINUOUS
 62
    2
 10
631.89565491860321
 20
401.72457415939391
 11
631.89565491860321
 21
407.32457415939388
  0
LINE
  8
_0-0_計極細
  6
CONTINUOUS
 62
    2
 10
618.89565491860321
 20
384.72457415939488
 11
618.89565491860321
 21
390.32457415939473
  0
LINE
  8
_0-0_計極細
  6
CONTINUOUS
 62
    2
 10
631.89565491860321
 20
384.72457415939488
 11
631.89565491860321
 21
390.32457415939473
  0
LINE
  8
_0-0_計極細
  6
CONTINUOUS
 62
    2
 10
618.89565491860321
 20
368.02457415939182
 11
618.89565491860321
 21
373.32457415939155
  0
LINE
  8
_0-0_計極細
  6
CONTINUOUS
 62
    2
 10
631.89565491860321
 20
368.02457415939182
 11
631.89565491860321
 21
373.32457415939155
  0
LINE
  8
_0-0_計極細
  6
CONTINUOUS
 62
    2
 10
521.89565491860321
 20
509.32457415939336
 11
521.89565491860321
 21
503.72457415939351
  0
LINE
  8
_0-0_計極細
  6
CONTINUOUS
 62
    2
 10
534.89565491860321
 20
509.32457415939336
 11
534.89565491860321
 21
503.72457415939351
  0
LINE
  8
_0-0_計極細
  6
CONTINUOUS
 62
    2
 10
521.89565491860321
 20
526.32457415939427
 11
521.89565491860321
 21
520.72457415939402
  0
LINE
  8
_0-0_計極細
  6
CONTINUOUS
 62
    2
 10
534.89565491860321
 20
526.32457415939427
 11
534.89565491860321
 21
520.72457415939402
  0
LINE
  8
_0-0_計極細
  6
CONTINUOUS
 62
    2
 10
521.89565491860321
 20
543.32457415939473
 11
521.89565491860321
 21
537.72457415939482
  0
LINE
  8
_0-0_計極細
  6
CONTINUOUS
 62
    2
 10
534.89565491860321
 20
543.32457415939473
 11
534.89565491860321
 21
537.72457415939482
  0
LINE
  8
_0-0_計極細
  6
CONTINUOUS
 62
    2
 10
521.89565491860321
 20
560.32457415939564
 11
521.89565491860321
 21
554.72457415939527
  0
LINE
  8
_0-0_計極細
  6
CONTINUOUS
 62
    2
 10
534.89565491860321
 20
560.32457415939564
 11
534.89565491860321
 21
554.72457415939527
  0
LINE
  8
_0-0_計極細
  6
CONTINUOUS
 62
    2
 10
521.89565491860321
 20
577.32457415939609
 11
521.89565491860321
 21
571.72457415939618
  0
LINE
  8
_0-0_計極細
  6
CONTINUOUS
 62
    2
 10
534.89565491860321
 20
577.32457415939609
 11
534.89565491860321
 21
571.72457415939618
  0
LINE
  8
_0-0_計極細
  6
CONTINUOUS
 62
    2
 10
521.89565491860321
 20
594.3245741593953
 11
521.89565491860321
 21
588.72457415939527
  0
LINE
  8
_0-0_計極細
  6
CONTINUOUS
 62
    2
 10
534.89565491860321
 20
594.3245741593953
 11
534.89565491860321
 21
588.72457415939527
  0
LINE
  8
_0-0_計極細
  6
CONTINUOUS
 62
    2
 10
521.89565491860321
 20
611.32457415939427
 11
521.89565491860321
 21
605.72457415939436
  0
LINE
  8
_0-0_計極細
  6
CONTINUOUS
 62
    2
 10
534.89565491860321
 20
611.32457415939427
 11
534.89565491860321
 21
605.72457415939436
  0
LINE
  8
_0-0_計極細
  6
CONTINUOUS
 62
    2
 10
521.89565491860321
 20
628.32457415939336
 11
521.89565491860321
 21
622.72457415939346
  0
LINE
  8
_0-0_計極細
  6
CONTINUOUS
 62
    2
 10
534.89565491860321
 20
628.32457415939336
 11
534.89565491860321
 21
622.72457415939346
  0
LINE
  8
_0-0_計極細
  6
CONTINUOUS
 62
    2
 10
521.89565491860321
 20
645.32457415939245
 11
521.89565491860321
 21
639.72457415939266
  0
LINE
  8
_0-0_計極細
  6
CONTINUOUS
 62
    2
 10
534.89565491860321
 20
645.32457415939245
 11
534.89565491860321
 21
639.72457415939266
  0
LINE
  8
_0-0_計極細
  6
CONTINUOUS
 62
    2
 10
521.89565491860321
 20
662.02457415939546
 11
521.89565491860321
 21
656.72457415939573
  0
LINE
  8
_0-0_計極細
  6
CONTINUOUS
 62
    2
 10
534.89565491860321
 20
662.02457415939546
 11
534.89565491860321
 21
656.72457415939573
  0
LINE
  8
_0-0_計極細
  6
CONTINUOUS
 62
    2
 10
521.89565491860321
 20
486.72457415939255
 11
521.89565491860321
 21
492.32457415939251
  0
LINE
  8
_0-0_計極細
  6
CONTINUOUS
 62
    2
 10
534.89565491860321
 20
486.72457415939255
 11
534.89565491860321
 21
492.32457415939251
  0
LINE
  8
_0-0_計極細
  6
CONTINUOUS
 62
    2
 10
521.89565491860321
 20
469.72457415939169
 11
521.89565491860321
 21
475.32457415939206
  0
LINE
  8
_0-0_計極細
  6
CONTINUOUS
 62
    2
 10
534.89565491860321
 20
469.72457415939169
 11
534.89565491860321
 21
475.32457415939206
  0
LINE
  8
_0-0_計極細
  6
CONTINUOUS
 62
    2
 10
521.89565491860321
 20
452.72457415939124
 11
521.89565491860321
 21
458.32457415939109
  0
LINE
  8
_0-0_計極細
  6
CONTINUOUS
 62
    2
 10
534.89565491860321
 20
452.72457415939124
 11
534.89565491860321
 21
458.32457415939109
  0
LINE
  8
_0-0_計極細
  6
CONTINUOUS
 62
    2
 10
521.89565491860321
 20
435.72457415939209
 11
521.89565491860321
 21
441.324574159392
  0
LINE
  8
_0-0_計極細
  6
CONTINUOUS
 62
    2
 10
534.89565491860321
 20
435.72457415939209
 11
534.89565491860321
 21
441.324574159392
  0
LINE
  8
_0-0_計極細
  6
CONTINUOUS
 62
    2
 10
521.89565491860321
 20
418.724574159393
 11
521.89565491860321
 21
424.32457415939297
  0
LINE
  8
_0-0_計極細
  6
CONTINUOUS
 62
    2
 10
534.89565491860321
 20
418.724574159393
 11
534.89565491860321
 21
424.32457415939297
  0
LINE
  8
_0-0_計極細
  6
CONTINUOUS
 62
    2
 10
521.89565491860321
 20
401.72457415939391
 11
521.89565491860321
 21
407.32457415939388
  0
LINE
  8
_0-0_計極細
  6
CONTINUOUS
 62
    2
 10
534.89565491860321
 20
401.72457415939391
 11
534.89565491860321
 21
407.32457415939388
  0
LINE
  8
_0-0_計極細
  6
CONTINUOUS
 62
    2
 10
521.89565491860321
 20
384.72457415939488
 11
521.89565491860321
 21
390.32457415939473
  0
LINE
  8
_0-0_計極細
  6
CONTINUOUS
 62
    2
 10
534.89565491860321
 20
384.72457415939488
 11
534.89565491860321
 21
390.32457415939473
  0
LINE
  8
_0-0_計極細
  6
CONTINUOUS
 62
    2
 10
521.89565491860321
 20
368.02457415939182
 11
521.89565491860321
 21
373.32457415939155
  0
LINE
  8
_0-0_計極細
  6
CONTINUOUS
 62
    2
 10
534.89565491860321
 20
368.02457415939182
 11
534.89565491860321
 21
373.32457415939155
  0
LINE
  8
_0-1_計細線
  6
CONTINUOUS
 62
    3
 10
232.39565491860333
 20
339.92457415939379
 11
632.39565491860321
 21
339.92457415939379
  0
LINE
  8
_0-1_計細線
  6
CONTINUOUS
 62
    3
 10
232.39565491860333
 20
351.32457415939427
 11
632.39565491860321
 21
351.32457415939427
  0
LINE
  8
_0-1_計細線
  6
CONTINUOUS
 62
    3
 10
232.39565491860333
 20
339.92457415939379
 11
232.39565491860333
 21
351.32457415939427
  0
LINE
  8
_0-1_計細線
  6
CONTINUOUS
 62
    3
 10
632.39565491860321
 20
339.92457415939379
 11
632.39565491860321
 21
351.32457415939427
  0
LINE
  8
_0-0_計極細
  6
CONTINUOUS
 62
    2
 10
232.39565491860333
 20
348.124574159394
 11
632.39565491860321
 21
348.124574159394
  0
LINE
  8
_0-0_計極細
  6
CONTINUOUS
 62
    2
 10
232.39565491860333
 20
343.124574159394
 11
632.39565491860321
 21
343.124574159394
  0
LINE
  8
_0-0_計極細
  6
CONTINUOUS
 62
    2
 10
618.89565491860321
 20
351.32457415939291
 11
618.89565491860321
 21
356.62457415939264
  0
LINE
  8
_0-0_計極細
  6
CONTINUOUS
 62
    2
 10
631.89565491860321
 20
351.32457415939291
 11
631.89565491860321
 21
356.62457415939264
  0
LINE
  8
_0-0_計極細
  6
CONTINUOUS
 62
    2
 10
521.89565491860321
 20
351.32457415939291
 11
521.89565491860321
 21
356.62457415939264
  0
LINE
  8
_0-0_計極細
  6
CONTINUOUS
 62
    2
 10
534.89565491860321
 20
351.32457415939291
 11
534.89565491860321
 21
356.62457415939264
  0
LINE
  8
_0-1_計細線
  6
CONTINUOUS
 62
    3
 10
232.39565491860333
 20
690.12457415939355
 11
632.39565491860321
 21
690.12457415939355
  0
LINE
  8
_0-1_計細線
  6
CONTINUOUS
 62
    3
 10
232.39565491860333
 20
678.72457415939311
 11
632.39565491860321
 21
678.72457415939311
  0
LINE
  8
_0-1_計細線
  6
CONTINUOUS
 62
    3
 10
232.39565491860333
 20
690.12457415939355
 11
232.39565491860333
 21
678.72457415939311
  0
LINE
  8
_0-1_計細線
  6
CONTINUOUS
 62
    3
 10
632.39565491860321
 20
690.12457415939355
 11
632.39565491860321
 21
678.72457415939311
  0
LINE
  8
_0-0_計極細
  6
CONTINUOUS
 62
    2
 10
232.39565491860333
 20
681.92457415939327
 11
632.39565491860321
 21
681.92457415939327
  0
LINE
  8
_0-0_計極細
  6
CONTINUOUS
 62
    2
 10
232.39565491860333
 20
686.92457415939327
 11
632.39565491860321
 21
686.92457415939327
  0
LINE
  8
_0-0_計極細
  6
CONTINUOUS
 62
    2
 10
618.89565491860321
 20
678.72457415939436
 11
618.89565491860321
 21
673.42457415939464
  0
LINE
  8
_0-0_計極細
  6
CONTINUOUS
 62
    2
 10
631.89565491860321
 20
678.72457415939436
 11
631.89565491860321
 21
673.42457415939464
  0
LINE
  8
_0-0_計極細
  6
CONTINUOUS
 62
    2
 10
521.89565491860321
 20
678.72457415939436
 11
521.89565491860321
 21
673.42457415939464
  0
LINE
  8
_0-0_計極細
  6
CONTINUOUS
 62
    2
 10
534.89565491860321
 20
678.72457415939436
 11
534.89565491860321
 21
673.42457415939464
  0
LINE
  8
_0-0_計極細
  6
CONTINUOUS
 62
    2
 10
618.89565491860321
 20
695.42457415939327
 11
618.89565491860321
 21
690.12457415939355
  0
LINE
  8
_0-0_計極細
  6
CONTINUOUS
 62
    2
 10
631.89565491860321
 20
695.42457415939327
 11
631.89565491860321
 21
690.12457415939355
  0
LINE
  8
_0-0_計極細
  6
CONTINUOUS
 62
    2
 10
521.89565491860321
 20
695.42457415939327
 11
521.89565491860321
 21
690.12457415939355
  0
LINE
  8
_0-0_計極細
  6
CONTINUOUS
 62
    2
 10
534.89565491860321
 20
695.42457415939327
 11
534.89565491860321
 21
690.12457415939355
  0
LINE
  8
_0-0_計極細
  6
CENTER1
 62
    2
 10
433.39565491860333
 20
732.27529358385084
 11
433.39565491860333
 21
315.96675041838182
  0
LINE
  8
_0-0_計極細
  6
CONTINUOUS
 62
    2
 10
426.89565491860333
 20
509.32457415939336
 11
426.89565491860333
 21
503.72457415939351
  0
LINE
  8
_0-0_計極細
  6
CONTINUOUS
 62
    2
 10
439.89565491860333
 20
509.32457415939336
 11
439.89565491860333
 21
503.72457415939351
  0
LINE
  8
_0-0_計極細
  6
CONTINUOUS
 62
    2
 10
426.89565491860333
 20
526.32457415939427
 11
426.89565491860333
 21
520.72457415939402
  0
LINE
  8
_0-0_計極細
  6
CONTINUOUS
 62
    2
 10
439.89565491860333
 20
526.32457415939427
 11
439.89565491860333
 21
520.72457415939402
  0
LINE
  8
_0-0_計極細
  6
CONTINUOUS
 62
    2
 10
426.89565491860333
 20
543.32457415939473
 11
426.89565491860333
 21
537.72457415939482
  0
LINE
  8
_0-0_計極細
  6
CONTINUOUS
 62
    2
 10
439.89565491860333
 20
543.32457415939473
 11
439.89565491860333
 21
537.72457415939482
  0
LINE
  8
_0-0_計極細
  6
CONTINUOUS
 62
    2
 10
426.89565491860333
 20
560.32457415939564
 11
426.89565491860333
 21
554.72457415939527
  0
LINE
  8
_0-0_計極細
  6
CONTINUOUS
 62
    2
 10
439.89565491860333
 20
560.32457415939564
 11
439.89565491860333
 21
554.72457415939527
  0
LINE
  8
_0-0_計極細
  6
CONTINUOUS
 62
    2
 10
426.89565491860333
 20
577.32457415939609
 11
426.89565491860333
 21
571.72457415939618
  0
LINE
  8
_0-0_計極細
  6
CONTINUOUS
 62
    2
 10
439.89565491860333
 20
577.32457415939609
 11
439.89565491860333
 21
571.72457415939618
  0
LINE
  8
_0-0_計極細
  6
CONTINUOUS
 62
    2
 10
426.89565491860333
 20
594.3245741593953
 11
426.89565491860333
 21
588.72457415939527
  0
LINE
  8
_0-0_計極細
  6
CONTINUOUS
 62
    2
 10
439.89565491860333
 20
594.3245741593953
 11
439.89565491860333
 21
588.72457415939527
  0
LINE
  8
_0-0_計極細
  6
CONTINUOUS
 62
    2
 10
426.89565491860333
 20
611.32457415939427
 11
426.89565491860333
 21
605.72457415939436
  0
LINE
  8
_0-0_計極細
  6
CONTINUOUS
 62
    2
 10
439.89565491860333
 20
611.32457415939427
 11
439.89565491860333
 21
605.72457415939436
  0
LINE
  8
_0-0_計極細
  6
CONTINUOUS
 62
    2
 10
426.89565491860333
 20
628.32457415939336
 11
426.89565491860333
 21
622.72457415939346
  0
LINE
  8
_0-0_計極細
  6
CONTINUOUS
 62
    2
 10
439.89565491860333
 20
628.32457415939336
 11
439.89565491860333
 21
622.72457415939346
  0
LINE
  8
_0-0_計極細
  6
CONTINUOUS
 62
    2
 10
426.89565491860333
 20
645.32457415939245
 11
426.89565491860333
 21
639.72457415939266
  0
LINE
  8
_0-0_計極細
  6
CONTINUOUS
 62
    2
 10
439.89565491860333
 20
645.32457415939245
 11
439.89565491860333
 21
639.72457415939266
  0
LINE
  8
_0-0_計極細
  6
CONTINUOUS
 62
    2
 10
426.89565491860333
 20
662.02457415939546
 11
426.89565491860333
 21
656.72457415939573
  0
LINE
  8
_0-0_計極細
  6
CONTINUOUS
 62
    2
 10
439.89565491860333
 20
662.02457415939546
 11
439.89565491860333
 21
656.72457415939573
  0
LINE
  8
_0-0_計極細
  6
CONTINUOUS
 62
    2
 10
426.89565491860333
 20
486.72457415939255
 11
426.89565491860333
 21
492.32457415939251
  0
LINE
  8
_0-0_計極細
  6
CONTINUOUS
 62
    2
 10
439.89565491860333
 20
486.72457415939255
 11
439.89565491860333
 21
492.32457415939251
  0
LINE
  8
_0-0_計極細
  6
CONTINUOUS
 62
    2
 10
426.89565491860333
 20
469.72457415939169
 11
426.89565491860333
 21
475.32457415939206
  0
LINE
  8
_0-0_計極細
  6
CONTINUOUS
 62
    2
 10
439.89565491860333
 20
469.72457415939169
 11
439.89565491860333
 21
475.32457415939206
  0
LINE
  8
_0-0_計極細
  6
CONTINUOUS
 62
    2
 10
426.89565491860333
 20
452.72457415939124
 11
426.89565491860333
 21
458.32457415939109
  0
LINE
  8
_0-0_計極細
  6
CONTINUOUS
 62
    2
 10
439.89565491860333
 20
452.72457415939124
 11
439.89565491860333
 21
458.32457415939109
  0
LINE
  8
_0-0_計極細
  6
CONTINUOUS
 62
    2
 10
426.89565491860333
 20
435.72457415939209
 11
426.89565491860333
 21
441.324574159392
  0
LINE
  8
_0-0_計極細
  6
CONTINUOUS
 62
    2
 10
439.89565491860333
 20
435.72457415939209
 11
439.89565491860333
 21
441.324574159392
  0
LINE
  8
_0-0_計極細
  6
CONTINUOUS
 62
    2
 10
426.89565491860333
 20
418.724574159393
 11
426.89565491860333
 21
424.32457415939297
  0
LINE
  8
_0-0_計極細
  6
CONTINUOUS
 62
    2
 10
439.89565491860333
 20
418.724574159393
 11
439.89565491860333
 21
424.32457415939297
  0
LINE
  8
_0-0_計極細
  6
CONTINUOUS
 62
    2
 10
426.89565491860333
 20
401.72457415939391
 11
426.89565491860333
 21
407.32457415939388
  0
LINE
  8
_0-0_計極細
  6
CONTINUOUS
 62
    2
 10
439.89565491860333
 20
401.72457415939391
 11
439.89565491860333
 21
407.32457415939388
  0
LINE
  8
_0-0_計極細
  6
CONTINUOUS
 62
    2
 10
426.89565491860333
 20
384.72457415939488
 11
426.89565491860333
 21
390.32457415939473
  0
LINE
  8
_0-0_計極細
  6
CONTINUOUS
 62
    2
 10
439.89565491860333
 20
384.72457415939488
 11
439.89565491860333
 21
390.32457415939473
  0
LINE
  8
_0-0_計極細
  6
CONTINUOUS
 62
    2
 10
426.89565491860333
 20
368.02457415939182
 11
426.89565491860333
 21
373.32457415939155
  0
LINE
  8
_0-0_計極細
  6
CONTINUOUS
 62
    2
 10
439.89565491860333
 20
368.02457415939182
 11
439.89565491860333
 21
373.32457415939155
  0
LINE
  8
_0-0_計極細
  6
CONTINUOUS
 62
    2
 10
426.89565491860333
 20
351.32457415939291
 11
426.89565491860333
 21
356.62457415939264
  0
LINE
  8
_0-0_計極細
  6
CONTINUOUS
 62
    2
 10
439.89565491860333
 20
351.32457415939291
 11
439.89565491860333
 21
356.62457415939264
  0
LINE
  8
_0-0_計極細
  6
CONTINUOUS
 62
    2
 10
426.89565491860333
 20
678.72457415939436
 11
426.89565491860333
 21
673.42457415939464
  0
LINE
  8
_0-0_計極細
  6
CONTINUOUS
 62
    2
 10
439.89565491860333
 20
678.72457415939436
 11
439.89565491860333
 21
673.42457415939464
  0
LINE
  8
_0-0_計極細
  6
CONTINUOUS
 62
    2
 10
426.89565491860333
 20
695.42457415939327
 11
426.89565491860333
 21
690.12457415939355
  0
LINE
  8
_0-0_計極細
  6
CONTINUOUS
 62
    2
 10
439.89565491860333
 20
695.42457415939327
 11
439.89565491860333
 21
690.12457415939355
  0
LINE
  8
_0-5_寸法線
  6
CONTINUOUS
 62
    7
 10
317.19306562361254
 20
523.52457415939409
 11
310.12199781174701
 21
530.59564197125962
  0
LINE
  8
_0-5_寸法線
  6
CONTINUOUS
 62
    7
 10
317.19306562361254
 20
523.52457415939409
 11
314.6048751725873
 21
533.18383242228481
  0
LINE
  8
_0-5_寸法線
  6
CONTINUOUS
 62
    7
 10
317.19306562361254
 20
523.52457415939409
 11
169.96874698026147
 21
778.5245741593892
  0
LINE
  8
_0-5_寸法線
  6
CONTINUOUS
 62
    7
 10
169.96874698026147
 20
778.5245741593892
 11
109.96874698026147
 21
778.5245741593892
  0
TEXT
  8
_0-5_寸法線
 62
    7
 10
109.96874698026147
 20
778.5245741593892
 40
15
 41
0.8000000000000001
 50
0
  1
取　外　具
  0
TEXT
  8
_0-5_寸法線
 62
    7
 10
110.3239503224588
 20
762.1955596080478
 40
15
 41
0.8000000000000001
 50
0
  1
(標準付属)
  0
LINE
  8
_0-0_計極細
  6
CONTINUOUS
 62
    2
 10
342.89565491860338
 20
712.62457415939866
 11
342.89565491860338
 21
707.12457415939457
  0
LINE
  8
_0-0_計極細
  6
CONTINUOUS
 62
    2
 10
329.89565491860333
 20
712.62457415939866
 11
329.89565491860333
 21
707.12457415939457
  0
LINE
  8
_0-0_計極細
  6
CONTINUOUS
 62
    2
 10
245.89565491860333
 20
712.62457415939866
 11
245.89565491860333
 21
707.12457415939457
  0
LINE
  8
_0-0_計極細
  6
CONTINUOUS
 62
    2
 10
232.8956549186033
 20
712.62457415939866
 11
232.8956549186033
 21
707.12457415939457
  0
LINE
  8
_0-1_計細線
  6
CONTINUOUS
 62
    3
 10
232.39565491860333
 20
724.02457415938909
 11
632.39565491860321
 21
724.02457415938909
  0
LINE
  8
_0-1_計細線
  6
CONTINUOUS
 62
    3
 10
232.39565491860333
 20
712.62457415938854
 11
632.39565491860321
 21
712.62457415938854
  0
LINE
  8
_0-1_計細線
  6
CONTINUOUS
 62
    3
 10
232.39565491860333
 20
724.02457415938909
 11
232.39565491860333
 21
712.62457415938854
  0
LINE
  8
_0-1_計細線
  6
CONTINUOUS
 62
    3
 10
632.39565491860321
 20
724.02457415938909
 11
632.39565491860321
 21
712.62457415938854
  0
LINE
  8
_0-0_計極細
  6
CONTINUOUS
 62
    2
 10
232.39565491860333
 20
715.82457415938893
 11
632.39565491860321
 21
715.82457415938893
  0
LINE
  8
_0-0_計極細
  6
CONTINUOUS
 62
    2
 10
232.39565491860333
 20
720.82457415938893
 11
632.39565491860321
 21
720.82457415938893
  0
LINE
  8
_0-0_計極細
  6
CONTINUOUS
 62
    2
 10
534.89565491860321
 20
712.62457415939866
 11
534.89565491860321
 21
707.12457415939457
  0
LINE
  8
_0-0_計極細
  6
CONTINUOUS
 62
    2
 10
521.89565491860321
 20
712.62457415939866
 11
521.89565491860321
 21
707.12457415939457
  0
LINE
  8
_0-0_計極細
  6
CONTINUOUS
 62
    2
 10
631.89565491860321
 20
712.62457415939866
 11
631.89565491860321
 21
707.12457415939457
  0
LINE
  8
_0-0_計極細
  6
CONTINUOUS
 62
    2
 10
618.89565491860321
 20
712.62457415939866
 11
618.89565491860321
 21
707.12457415939457
  0
LINE
  8
_0-0_計極細
  6
CONTINUOUS
 62
    2
 10
439.89565491860333
 20
712.62457415939866
 11
439.89565491860333
 21
707.12457415939457
  0
LINE
  8
_0-0_計極細
  6
CONTINUOUS
 62
    2
 10
426.89565491860333
 20
712.62457415939866
 11
426.89565491860333
 21
707.12457415939457
  0
LINE
  8
_0-0_計極細
  6
CONTINUOUS
 62
    2
 10
342.89565491860338
 20
334.42457415938969
 11
342.89565491860338
 21
339.92457415939379
  0
LINE
  8
_0-0_計極細
  6
CONTINUOUS
 62
    2
 10
329.89565491860333
 20
334.42457415938969
 11
329.89565491860333
 21
339.92457415939379
  0
LINE
  8
_0-0_計極細
  6
CONTINUOUS
 62
    2
 10
245.89565491860333
 20
334.42457415938969
 11
245.89565491860333
 21
339.92457415939379
  0
LINE
  8
_0-0_計極細
  6
CONTINUOUS
 62
    2
 10
232.8956549186033
 20
334.42457415938969
 11
232.8956549186033
 21
339.92457415939379
  0
LINE
  8
_0-0_計極細
  6
CONTINUOUS
 62
    2
 10
534.89565491860321
 20
334.42457415938969
 11
534.89565491860321
 21
339.92457415939379
  0
LINE
  8
_0-0_計極細
  6
CONTINUOUS
 62
    2
 10
521.89565491860321
 20
334.42457415938969
 11
521.89565491860321
 21
339.92457415939379
  0
LINE
  8
_0-0_計極細
  6
CONTINUOUS
 62
    2
 10
631.89565491860321
 20
334.42457415938969
 11
631.89565491860321
 21
339.92457415939379
  0
LINE
  8
_0-0_計極細
  6
CONTINUOUS
 62
    2
 10
618.89565491860321
 20
334.42457415938969
 11
618.89565491860321
 21
339.92457415939379
  0
LINE
  8
_0-1_計細線
  6
CONTINUOUS
 62
    3
 10
232.39565491860333
 20
323.02457415938909
 11
632.39565491860321
 21
323.02457415938909
  0
LINE
  8
_0-1_計細線
  6
CONTINUOUS
 62
    3
 10
232.39565491860333
 20
334.42457415938969
 11
632.39565491860321
 21
334.42457415938969
  0
LINE
  8
_0-1_計細線
  6
CONTINUOUS
 62
    3
 10
232.39565491860333
 20
323.02457415938909
 11
232.39565491860333
 21
334.42457415938969
  0
LINE
  8
_0-1_計細線
  6
CONTINUOUS
 62
    3
 10
632.39565491860321
 20
323.02457415938909
 11
632.39565491860321
 21
334.42457415938969
  0
LINE
  8
_0-0_計極細
  6
CONTINUOUS
 62
    2
 10
232.39565491860333
 20
331.22457415938936
 11
632.39565491860321
 21
331.22457415938936
  0
LINE
  8
_0-0_計極細
  6
CONTINUOUS
 62
    2
 10
232.39565491860333
 20
326.22457415938936
 11
632.39565491860321
 21
326.22457415938936
  0
LINE
  8
_0-0_計極細
  6
CONTINUOUS
 62
    2
 10
439.89565491860333
 20
334.42457415938969
 11
439.89565491860333
 21
339.92457415939379
  0
LINE
  8
_0-0_計極細
  6
CONTINUOUS
 62
    2
 10
426.89565491860333
 20
334.42457415938969
 11
426.89565491860333
 21
339.92457415939379
  0
LINE
  8
_0-1_計細線
  6
CONTINUOUS
 62
    3
 10
232.39565491860333
 20
706.82457415939257
 11
632.39565491860321
 21
706.82457415939257
  0
LINE
  8
_0-1_計細線
  6
CONTINUOUS
 62
    3
 10
232.39565491860333
 20
695.42457415939202
 11
632.39565491860321
 21
695.42457415939202
  0
LINE
  8
_0-1_計細線
  6
CONTINUOUS
 62
    3
 10
232.39565491860333
 20
706.82457415939257
 11
232.39565491860333
 21
695.42457415939202
  0
LINE
  8
_0-1_計細線
  6
CONTINUOUS
 62
    3
 10
632.39565491860321
 20
706.82457415939257
 11
632.39565491860321
 21
695.42457415939202
  0
LINE
  8
_0-0_計極細
  6
CONTINUOUS
 62
    2
 10
232.39565491860333
 20
698.62457415939218
 11
632.39565491860321
 21
698.62457415939218
  0
LINE
  8
_0-0_計極細
  6
CONTINUOUS
 62
    2
 10
232.39565491860333
 20
703.62457415939218
 11
632.39565491860321
 21
703.62457415939218
  0
LINE
  8
_0-1_計細線
  6
CONTINUOUS
 62
    3
 10
232.39565491860333
 20
639.72457415939266
 11
632.39565491860321
 21
639.72457415939266
  0
LINE
  8
_0-1_計細線
  6
CONTINUOUS
 62
    3
 10
232.39565491860333
 20
628.324574159392
 11
632.39565491860321
 21
628.324574159392
  0
LINE
  8
_0-1_計細線
  6
CONTINUOUS
 62
    3
 10
232.39565491860333
 20
639.72457415939266
 11
232.39565491860333
 21
628.324574159392
  0
LINE
  8
_0-1_計細線
  6
CONTINUOUS
 62
    3
 10
632.39565491860321
 20
639.72457415939266
 11
632.39565491860321
 21
628.324574159392
  0
LINE
  8
_0-0_計極細
  6
CONTINUOUS
 62
    2
 10
232.39565491860333
 20
631.52457415939227
 11
632.39565491860321
 21
631.52457415939227
  0
LINE
  8
_0-0_計極細
  6
CONTINUOUS
 62
    2
 10
232.39565491860333
 20
636.52457415939227
 11
632.39565491860321
 21
636.52457415939227
  0
LINE
  8
_0-5_寸法線
  6
CONTINUOUS
 62
    7
 10
632.39565491860333
 20
738.5245741593892
 11
632.39565491860367
 21
818.5245741593892
  0
LINE
  8
_0-5_寸法線
  6
CONTINUOUS
 62
    7
 10
632.39565491860367
 20
813.5245741593892
 11
622.73639665571295
 21
810.93638370836402
  0
LINE
  8
_0-5_寸法線
  6
CONTINUOUS
 62
    7
 10
632.39565491860367
 20
813.5245741593892
 11
622.73639665571295
 21
816.11276461041427
  0
LINE
  8
_0-5_寸法線
  6
CONTINUOUS
 62
    7
 10
232.39565491860338
 20
738.5245741593892
 11
232.39565491860375
 21
818.5245741593892
  0
LINE
  8
_0-5_寸法線
  6
CONTINUOUS
 62
    7
 10
232.39565491860375
 20
813.5245741593892
 11
242.05491318149441
 21
816.11276461041427
  0
LINE
  8
_0-5_寸法線
  6
CONTINUOUS
 62
    7
 10
232.39565491860375
 20
813.5245741593892
 11
242.05491318149441
 21
810.93638370836402
  0
LINE
  8
_0-5_寸法線
  6
CONTINUOUS
 62
    7
 10
632.39565491860367
 20
813.5245741593892
 11
232.39565491860375
 21
813.5245741593892
  0
TEXT
  8
_0-5_寸法線
 62
    7
 10
421.14565491860367
 20
813.5245741593892
 40
15
 41
1
 50
0
  1
400
  0
LINE
  8
_0-5_寸法線
  6
CONTINUOUS
 62
    7
 10
637.39565491860321
 20
738.5245741593892
 11
637.3956549186039
 21
888.5245741593892
  0
LINE
  8
_0-5_寸法線
  6
CONTINUOUS
 62
    7
 10
637.3956549186039
 20
883.5245741593892
 11
627.73639665571318
 21
880.93638370836402
  0
LINE
  8
_0-5_寸法線
  6
CONTINUOUS
 62
    7
 10
637.3956549186039
 20
883.5245741593892
 11
627.73639665571318
 21
886.11276461041427
  0
LINE
  8
_0-5_寸法線
  6
CONTINUOUS
 62
    7
 10
227.39565491860338
 20
738.5245741593892
 11
227.39565491860404
 21
888.5245741593892
  0
LINE
  8
_0-5_寸法線
  6
CONTINUOUS
 62
    7
 10
227.39565491860404
 20
883.5245741593892
 11
237.0549131814947
 21
886.11276461041427
  0
LINE
  8
_0-5_寸法線
  6
CONTINUOUS
 62
    7
 10
227.39565491860404
 20
883.5245741593892
 11
237.0549131814947
 21
880.93638370836402
  0
LINE
  8
_0-5_寸法線
  6
CONTINUOUS
 62
    7
 10
637.3956549186039
 20
883.5245741593892
 11
227.39565491860404
 21
883.5245741593892
  0
TEXT
  8
_0-5_寸法線
 62
    7
 10
421.1456549186039
 20
883.5245741593892
 40
15
 41
1
 50
0
  1
410
  0
LINE
  8
_0-5_寸法線
  6
CONTINUOUS
 62
    7
 10
227.39565491860333
 20
738.5245741593892
 11
227.39565491860361
 21
853.5245741593892
  0
LINE
  8
_0-5_寸法線
  6
CONTINUOUS
 62
    7
 10
227.39565491860361
 20
848.5245741593892
 11
217.73639665571289
 21
845.93638370836402
  0
LINE
  8
_0-5_寸法線
  6
CONTINUOUS
 62
    7
 10
227.39565491860361
 20
848.5245741593892
 11
217.73639665571295
 21
851.11276461041427
  0
LINE
  8
_0-5_寸法線
  6
CONTINUOUS
 62
    7
 10
230.39565491860338
 20
738.5245741593892
 11
230.39565491860358
 21
853.5245741593892
  0
LINE
  8
_0-5_寸法線
  6
CONTINUOUS
 62
    7
 10
202.39565491860361
 20
848.5245741593892
 11
230.39565491860358
 21
848.5245741593892
  0
TEXT
  8
_0-5_寸法線
 62
    7
 10
206.52786929973487
 20
848.5245741593892
 40
15
 41
1
 50
0
  1
3
  0
LINE
  8
_0-5_寸法線
  6
CONTINUOUS
 62
    7
 10
230.39565491860358
 20
848.5245741593892
 11
240.05491318149424
 21
851.11276461041427
  0
LINE
  8
_0-5_寸法線
  6
CONTINUOUS
 62
    7
 10
230.39565491860358
 20
848.5245741593892
 11
240.05491318149424
 21
845.93638370836391
  0
LINE
  8
_0-5_寸法線
  6
CONTINUOUS
 62
    7
 10
634.39565491860321
 20
738.5245741593892
 11
634.39565491860344
 21
853.5245741593892
  0
LINE
  8
_0-5_寸法線
  6
CONTINUOUS
 62
    7
 10
634.39565491860344
 20
848.5245741593892
 11
624.73639665571272
 21
845.93638370836402
  0
LINE
  8
_0-5_寸法線
  6
CONTINUOUS
 62
    7
 10
634.39565491860344
 20
848.5245741593892
 11
624.73639665571272
 21
851.11276461041427
  0
LINE
  8
_0-5_寸法線
  6
CONTINUOUS
 62
    7
 10
230.39565491860358
 20
848.5245741593892
 11
634.39565491860344
 21
848.5245741593892
  0
TEXT
  8
_0-5_寸法線
 62
    7
 10
421.14565491860344
 20
848.5245741593892
 40
15
 41
1
 50
0
  1
404
  0
LINE
  8
_0-5_寸法線
  6
CONTINUOUS
 62
    7
 10
637.39565491860321
 20
738.5245741593892
 11
637.39565491860344
 21
853.5245741593892
  0
LINE
  8
_0-5_寸法線
  6
CONTINUOUS
 62
    7
 10
637.39565491860344
 20
848.5245741593892
 11
647.05491318149416
 21
851.11276461041427
  0
LINE
  8
_0-5_寸法線
  6
CONTINUOUS
 62
    7
 10
637.39565491860344
 20
848.5245741593892
 11
647.05491318149416
 21
845.93638370836391
  0
LINE
  8
_0-5_寸法線
  6
CONTINUOUS
 62
    7
 10
634.39565491860344
 20
848.5245741593892
 11
662.39565491860344
 21
848.5245741593892
  0
TEXT
  8
_0-5_寸法線
 62
    7
 10
651.75198122403663
 20
848.56112290022725
 40
15
 41
1
 50
0
  1
3
  0
LINE
  8
_0-5_寸法線
  6
CONTINUOUS
 62
    7
 10
232.39565491860333
 20
738.5245741593892
 11
232.39565491860347
 21
783.5245741593892
  0
LINE
  8
_0-5_寸法線
  6
CONTINUOUS
 62
    7
 10
232.39565491860347
 20
778.5245741593892
 11
242.05491318149413
 21
781.11276461041427
  0
LINE
  8
_0-5_寸法線
  6
CONTINUOUS
 62
    7
 10
232.39565491860347
 20
778.5245741593892
 11
242.05491318149413
 21
775.93638370836402
  0
LINE
  8
_0-5_寸法線
  6
CONTINUOUS
 62
    7
 10
239.39565491860336
 20
738.5245741593892
 11
239.3956549186035
 21
783.5245741593892
  0
LINE
  8
_0-5_寸法線
  6
CONTINUOUS
 62
    7
 10
239.3956549186035
 20
778.5245741593892
 11
229.73639665571278
 21
775.93638370836402
  0
LINE
  8
_0-5_寸法線
  6
CONTINUOUS
 62
    7
 10
239.3956549186035
 20
778.5245741593892
 11
229.73639665571284
 21
781.11276461041427
  0
LINE
  8
_0-5_寸法線
  6
CONTINUOUS
 62
    7
 10
232.39565491860347
 20
778.5245741593892
 11
239.3956549186035
 21
778.5245741593892
  0
TEXT
  8
_0-5_寸法線
 62
    7
 10
235.6456549186035
 20
778.5245741593892
 40
15
 41
1
 50
0
  1
7
  0
LINE
  8
_0-5_寸法線
  6
CONTINUOUS
 62
    7
 10
239.3956549186035
 20
778.5245741593892
 11
249.05491318149416
 21
781.11276461041427
  0
LINE
  8
_0-5_寸法線
  6
CONTINUOUS
 62
    7
 10
239.3956549186035
 20
778.5245741593892
 11
249.05491318149416
 21
775.93638370836391
  0
LINE
  8
_0-5_寸法線
  6
CONTINUOUS
 62
    7
 10
433.39565491860333
 20
738.5245741593892
 11
433.39565491860344
 21
783.5245741593892
  0
LINE
  8
_0-5_寸法線
  6
CONTINUOUS
 62
    7
 10
433.39565491860344
 20
778.5245741593892
 11
423.73639665571267
 21
775.93638370836402
  0
LINE
  8
_0-5_寸法線
  6
CONTINUOUS
 62
    7
 10
433.39565491860344
 20
778.5245741593892
 11
423.73639665571272
 21
781.11276461041427
  0
LINE
  8
_0-5_寸法線
  6
CONTINUOUS
 62
    7
 10
239.3956549186035
 20
778.5245741593892
 11
433.39565491860344
 21
778.5245741593892
  0
TEXT
  8
_0-5_寸法線
 62
    7
 10
306.39565491860344
 20
778.5245741593892
 40
15
 41
1
 50
0
  1
2@97=194
  0
LINE
  8
_0-5_寸法線
  6
CONTINUOUS
 62
    7
 10
433.39565491860344
 20
778.5245741593892
 11
443.05491318149416
 21
781.11276461041427
  0
LINE
  8
_0-5_寸法線
  6
CONTINUOUS
 62
    7
 10
433.39565491860344
 20
778.5245741593892
 11
443.05491318149404
 21
775.93638370836391
  0
LINE
  8
_0-5_寸法線
  6
CONTINUOUS
 62
    7
 10
528.39565491860333
 20
738.5245741593892
 11
528.39565491860344
 21
783.5245741593892
  0
LINE
  8
_0-5_寸法線
  6
CONTINUOUS
 62
    7
 10
528.39565491860344
 20
778.5245741593892
 11
518.73639665571272
 21
775.93638370836402
  0
LINE
  8
_0-5_寸法線
  6
CONTINUOUS
 62
    7
 10
528.39565491860344
 20
778.5245741593892
 11
518.73639665571272
 21
781.11276461041427
  0
LINE
  8
_0-5_寸法線
  6
CONTINUOUS
 62
    7
 10
433.39565491860344
 20
778.5245741593892
 11
528.39565491860344
 21
778.5245741593892
  0
TEXT
  8
_0-5_寸法線
 62
    7
 10
473.3956549186035
 20
778.5245741593892
 40
15
 41
1
 50
0
  1
95
  0
LINE
  8
_0-5_寸法線
  6
CONTINUOUS
 62
    7
 10
528.39565491860344
 20
778.5245741593892
 11
538.05491318149416
 21
781.11276461041427
  0
LINE
  8
_0-5_寸法線
  6
CONTINUOUS
 62
    7
 10
528.39565491860344
 20
778.5245741593892
 11
538.05491318149416
 21
775.93638370836391
  0
LINE
  8
_0-5_寸法線
  6
CONTINUOUS
 62
    7
 10
625.39565491860333
 20
738.5245741593892
 11
625.39565491860344
 21
783.5245741593892
  0
LINE
  8
_0-5_寸法線
  6
CONTINUOUS
 62
    7
 10
625.39565491860344
 20
778.5245741593892
 11
615.73639665571272
 21
775.93638370836402
  0
LINE
  8
_0-5_寸法線
  6
CONTINUOUS
 62
    7
 10
625.39565491860344
 20
778.5245741593892
 11
615.73639665571272
 21
781.11276461041427
  0
LINE
  8
_0-5_寸法線
  6
CONTINUOUS
 62
    7
 10
528.39565491860344
 20
778.5245741593892
 11
625.39565491860344
 21
778.5245741593892
  0
TEXT
  8
_0-5_寸法線
 62
    7
 10
569.39565491860344
 20
778.5245741593892
 40
15
 41
1
 50
0
  1
97
  0
LINE
  8
_0-5_寸法線
  6
CONTINUOUS
 62
    7
 10
625.39565491860344
 20
778.5245741593892
 11
635.05491318149416
 21
781.11276461041427
  0
LINE
  8
_0-5_寸法線
  6
CONTINUOUS
 62
    7
 10
625.39565491860344
 20
778.5245741593892
 11
635.05491318149416
 21
775.93638370836391
  0
LINE
  8
_0-5_寸法線
  6
CONTINUOUS
 62
    7
 10
632.39565491860333
 20
738.5245741593892
 11
632.39565491860344
 21
783.5245741593892
  0
LINE
  8
_0-5_寸法線
  6
CONTINUOUS
 62
    7
 10
632.39565491860344
 20
778.5245741593892
 11
622.73639665571272
 21
775.93638370836402
  0
LINE
  8
_0-5_寸法線
  6
CONTINUOUS
 62
    7
 10
632.39565491860344
 20
778.5245741593892
 11
622.73639665571272
 21
781.11276461041427
  0
LINE
  8
_0-5_寸法線
  6
CONTINUOUS
 62
    7
 10
625.39565491860344
 20
778.5245741593892
 11
632.39565491860344
 21
778.5245741593892
  0
TEXT
  8
_0-5_寸法線
 62
    7
 10
621.64565491860321
 20
778.52457415938898
 40
15
 41
1
 50
0
  1
7
  0
LINE
  8
_0-7_枠細線
  6
CONTINUOUS
 62
    5
 10
648.50071874084688
 20
797.84710139759022
 11
641.00071874084688
 21
782.84710139759022
  0
LINE
  8
_0-7_枠細線
  6
CONTINUOUS
 62
    5
 10
641.00071874084688
 20
782.84710139759022
 11
656.00071874084688
 21
782.84710139759022
  0
LINE
  8
_0-7_枠細線
  6
CONTINUOUS
 62
    5
 10
656.00071874084688
 20
782.84710139759022
 11
648.50071874084688
 21
797.84710139759022
  0
TEXT
  8
_0-7_枠細線
 62
    5
 10
645.86587000899499
 20
782.29941750740886
 40
12.5
 41
0.8
 50
0
  1
1
  0
TEXT
  8
_0-7_枠細線
 62
    5
 10
109.32331814207942
 20
794.91037797837862
 40
12.5
 41
0.8
 50
0
  1
２
  0
LINE
  8
_0-7_枠細線
  6
CONTINUOUS
 62
    5
 10
121.9581668739314
 20
795.21738022375928
 11
114.4581668739314
 21
810.21738022375928
  0
LINE
  8
_0-7_枠細線
  6
CONTINUOUS
 62
    5
 10
106.9581668739314
 20
795.21738022375928
 11
121.9581668739314
 21
795.21738022375928
  0
LINE
  8
_0-7_枠細線
  6
CONTINUOUS
 62
    5
 10
114.4581668739314
 20
810.21738022375928
 11
106.9581668739314
 21
795.21738022375928
  0
TEXT
  8
_0-7_枠細線
 62
    5
 10
128.2152119699557
 20
794.61723525631271
 40
12.5
 41
0.8
 50
0
  1
３
  0
LINE
  8
_0-7_枠細線
  6
CONTINUOUS
 62
    5
 10
133.35006070180754
 20
810.16491914649407
 11
125.85006070180754
 21
795.16491914649407
  0
LINE
  8
_0-7_枠細線
  6
CONTINUOUS
 62
    5
 10
125.85006070180754
 20
795.16491914649407
 11
140.85006070180754
 21
795.16491914649407
  0
LINE
  8
_0-7_枠細線
  6
CONTINUOUS
 62
    5
 10
140.85006070180754
 20
795.16491914649407
 11
133.35006070180754
 21
810.16491914649407
  0
LINE
  8
_0-7_枠細線
  6
CONTINUOUS
 62
    5
 10
924.99999999999989
 20
323.73000000000059
 11
1225.0000000000005
 21
323.73000000000059
  0
LINE
  8
_0-7_枠細線
  6
CONTINUOUS
 62
    5
 10
924.99999999999989
 20
348.73000000000047
 11
1225.0000000000005
 21
348.73000000000047
  0
LINE
  8
_0-7_枠細線
  6
CONTINUOUS
 62
    5
 10
924.99999999999989
 20
373.73000000000047
 11
1225.0000000000005
 21
373.73000000000047
  0
LINE
  8
_0-7_枠細線
  6
CONTINUOUS
 62
    5
 10
924.99999999999989
 20
398.73000000000076
 11
1225.0000000000005
 21
398.73000000000076
  0
TEXT
  8
_0-7_枠細線
 62
    5
 10
1048.0000000000005
 20
403.73000000000076
 40
15.000000000000002
 41
0.5999999999999999
 50
0
  1
ライトグレー
  0
LINE
  8
_0-7_枠細線
  6
CONTINUOUS
 62
    5
 10
924.99999999999989
 20
423.73000000000047
 11
1225.0000000000005
 21
423.73000000000047
  0
TEXT
  8
_0-7_枠細線
 62
    5
 10
1057.0000000000005
 20
428.73000000000047
 40
15.000000000000002
 41
0.5999999999999999
 50
0
  1
ベージュ
  0
LINE
  8
_0-7_枠細線
  6
CONTINUOUS
 62
    5
 10
924.99999999999989
 20
448.73000000000047
 11
1225.0000000000005
 21
448.73000000000047
  0
TEXT
  8
_0-7_枠細線
 62
    5
 10
1069.0000000000005
 20
453.73000000000047
 40
15.000000000000002
 41
0.8
 50
0
  1
色
  0
TEXT
  8
_0-7_枠細線
 62
    5
 10
951.00000000000045
 20
453.73000000000047
 40
15.000000000000002
 41
0.8
 50
0
  1
品　　番
  0
TEXT
  8
_0-7_枠細線
 62
    5
 10
1151.0000000000009
 20
453.73000000000047
 40
15.000000000000002
 41
0.8
 50
0
  1
備　　考
  0
LINE
  8
_0-7_枠細線
  6
CONTINUOUS
 62
    5
 10
924.99999999999989
 20
473.73000000000047
 11
1225.0000000000005
 21
473.73000000000047
  0
TEXT
  8
_0-7_枠細線
 62
    5
 10
1013.75
 20
478.73000000000047
 40
17.5
 41
1
 50
0
  1
品番表
  0
LINE
  8
_0-7_枠細線
  6
CONTINUOUS
 62
    5
 10
924.99999999999989
 20
248.73000000000033
 11
1225.0000000000005
 21
248.73000000000033
  0
LINE
  8
_0-7_枠細線
  6
CONTINUOUS
 62
    5
 10
924.99999999999989
 20
273.73000000000059
 11
1225.0000000000005
 21
273.73000000000059
  0
LINE
  8
_0-7_枠細線
  6
CONTINUOUS
 62
    5
 10
924.99999999999989
 20
298.7300000000007
 11
1225.0000000000005
 21
298.7300000000007
  0
TEXT
  8
_0-7_枠細線
 62
    5
 10
1057.0000000000009
 20
378.7300000000007
 40
15.000000000000002
 41
0.5999999999999999
 50
0
  1
ホワイト
  0
TEXT
  8
_0-7_枠細線
 62
    5
 10
1061.5000000000005
 20
353.73000000000047
 40
15.000000000000002
 41
0.5999999999999999
 50
0
  1
ピンク
  0
TEXT
  8
_0-7_枠細線
 62
    5
 10
1061.5000000000005
 20
328.73000000000047
 40
15.000000000000002
 41
0.5999999999999999
 50
0
  1
ブルー
  0
TEXT
  8
_0-7_枠細線
 62
    5
 10
1048
 20
303.73000000000059
 40
15.000000000000002
 41
0.5999999999999999
 50
0
  1
ダークグレー
  0
TEXT
  8
_0-7_枠細線
 62
    5
 10
1061.5000000000005
 20
278.7300000000007
 40
15.000000000000002
 41
0.5999999999999999
 50
0
  1
ウッド
  0
LINE
  8
_0-7_枠細線
  6
CONTINUOUS
 62
    5
 10
924.99999999999989
 20
223.73000000000002
 11
1225.0000000000005
 21
223.73000000000002
  0
TEXT
  8
_0-7_枠細線
 62
    5
 10
1057.0000000000009
 20
228.73000000000008
 40
15.000000000000002
 41
0.5999999999999999
 50
0
  1
ブラック
  0
LINE
  8
_0-7_枠細線
  6
CONTINUOUS
 62
    5
 10
1225.0000000000005
 20
473.73000000000047
 11
1225.0000000000005
 21
223.73000000000002
  0
LINE
  8
_0-7_枠細線
  6
CONTINUOUS
 62
    5
 10
1125
 20
473.73000000000047
 11
1125
 21
223.73000000000002
  0
LINE
  8
_0-7_枠細線
  6
CONTINUOUS
 62
    5
 10
1025.0000000000005
 20
473.73000000000047
 11
1025.0000000000005
 21
223.73000000000002
  0
LINE
  8
_0-7_枠細線
  6
CONTINUOUS
 62
    5
 10
924.99999999999989
 20
473.73000000000047
 11
924.99999999999989
 21
223.73000000000002
  0
TEXT
  8
_0-7_枠細線
 62
    5
 10
1057.0000000000005
 20
253.73000000000033
 40
15.000000000000002
 41
0.5999999999999999
 50
0
  1
ブラウン
  0
LINE
  8
_0-7_枠細線
  6
CONTINUOUS
 62
    5
 10
918.52762466555521
 20
254.30604122127349
 11
911.02762466555521
 21
269.30604122127352
  0
LINE
  8
_0-7_枠細線
  6
CONTINUOUS
 62
    5
 10
903.52762466555521
 20
254.30604122127349
 11
918.52762466555521
 21
254.30604122127349
  0
LINE
  8
_0-7_枠細線
  6
CONTINUOUS
 62
    5
 10
911.02762466555521
 20
269.30604122127352
 11
903.52762466555521
 21
254.30604122127349
  0
TEXT
  8
_0-7_枠細線
 62
    5
 10
905.89277593370343
 20
253.3572212564236
 40
12.5
 41
0.8
 50
0
  1
４
  0
LINE
  8
_0-7_枠細線
  6
CONTINUOUS
 62
    5
 10
1270.7300000000005
 20
393.73000000000059
 11
1270.7300000000005
 21
473.7300000000007
  0
TEXT
  8
_0-7_枠細線
 62
    5
 10
1293.2300000000007
 20
451.2300000000007
 40
15.000000000000002
 41
1
 50
0
  1
耐荷重
  0
TEXT
  8
_0-7_枠細線
 62
    5
 10
1285.7300000000007
 20
421.23000000000059
 40
15.000000000000002
 41
1
 50
0
  1
3.5kN/㎡
  0
TEXT
  8
_0-7_枠細線
 62
    5
 10
1278.2300000000005
 20
401.23000000000059
 40
15.000000000000002
 41
1
 50
0
  1
（歩道用）
  0
LINE
  8
_0-7_枠細線
  6
CONTINUOUS
 62
    5
 10
1360.7300000000007
 20
393.73000000000059
 11
1360.7300000000007
 21
473.7300000000007
  0
LINE
  8
_0-7_枠細線
  6
CONTINUOUS
 62
    5
 10
1270.7300000000005
 20
393.73000000000059
 11
1360.7300000000007
 21
393.73000000000059
  0
LINE
  8
_0-7_枠細線
  6
CONTINUOUS
 62
    5
 10
1270.7300000000005
 20
443.7300000000007
 11
1360.7300000000007
 21
443.7300000000007
  0
LINE
  8
_0-7_枠細線
  6
CONTINUOUS
 62
    5
 10
1270.7300000000005
 20
473.7300000000007
 11
1360.7300000000007
 21
473.7300000000007
  0
TEXT
  8
_0-7_枠細線
 62
    5
 10
960.50000000000011
 20
160
 40
20.000000000000007
 41
0.5999999999999998
 50
0
  1
セーフティグレーチングＨ２５タイプ
  0
TEXT
  8
_0-7_枠細線
 62
    5
 10
1375
 20
95
 40
20
 41
1
 50
0
  1
藤戸
  0
TEXT
  8
_0-7_枠細線
 62
    5
 10
1309.9999999999998
 20
67.499999999999858
 40
15.000000000000009
 41
0.6666666666666665
 50
0
  1
２０１０年０３月０１日
  0
TEXT
  8
_0-7_枠細線
 62
    5
 10
1255
 20
94.999999999999858
 40
20.000000000000004
 41
1
 50
0
  1
隠塚
  0
TEXT
  8
_0-7_枠細線
 62
    5
 10
1315
 20
94.999999999999858
 40
20.000000000000004
 41
1
 50
0
  1
渋田
  0
TEXT
  8
_0-7_枠細線
 62
    5
 10
1128.5
 20
141.18469341319127
 40
20.000000000000007
 41
0.5999999999999998
 50
0
  1
集水マス
  0
TEXT
  8
_0-7_枠細線
 62
    5
 10
960.5
 20
109.99999999999993
 40
20.000000000000007
 41
0.5999999999999998
 50
0
  1
ＧＲＳ－２５Ｋ４００
  0
TEXT
  8
_0-7_枠細線
 62
    5
 10
930.00000000000045
 20
428.73000000000047
 40
15.000000000000002
 41
0.5
 50
0
  1
ＧＲＳ－２５Ｋ４００－Ｂ
  0
TEXT
  8
_0-7_枠細線
 62
    5
 10
930.00000000000045
 20
403.73000000000047
 40
15.000000000000002
 41
0.5
 50
0
  1
ＧＲＳ－２５Ｋ４００－Ｇ
  0
TEXT
  8
_0-7_枠細線
 62
    5
 10
930.00000000000045
 20
378.7300000000007
 40
15.000000000000002
 41
0.5
 50
0
  1
ＧＲＳ－２５Ｋ４００－Ｓ
  0
TEXT
  8
_0-7_枠細線
 62
    5
 10
930.00000000000045
 20
353.73000000000047
 40
15.000000000000002
 41
0.5
 50
0
  1
ＧＲＳ－２５Ｋ４００－Ｐ
  0
TEXT
  8
_0-7_枠細線
 62
    5
 10
930.00000000000045
 20
328.73000000000047
 40
15.000000000000002
 41
0.5
 50
0
  1
ＧＲＳ－２５Ｋ４００－Ａ
  0
TEXT
  8
_0-7_枠細線
 62
    5
 10
930.00000000000045
 20
303.73000000000059
 40
15.000000000000002
 41
0.5
 50
0
  1
ＧＲＳ－２５Ｋ４００－Ｄ
  0
TEXT
  8
_0-7_枠細線
 62
    5
 10
930.00000000000045
 20
278.7300000000007
 40
15.000000000000002
 41
0.5
 50
0
  1
ＧＲＳ－２５Ｋ４００－Ｍ
  0
TEXT
  8
_0-7_枠細線
 62
    5
 10
930.00000000000045
 20
253.73000000000036
 40
15.000000000000002
 41
0.5
 50
0
  1
ＧＲＳ－２５Ｋ４００－Ｃ
  0
TEXT
  8
_0-7_枠細線
 62
    5
 10
930.00000000000045
 20
228.73000000000008
 40
15.000000000000002
 41
0.5
 50
0
  1
ＧＲＳ－２５Ｋ４００－Ｋ
  0
LINE
  8
_0-7_枠細線
  6
CONTINUOUS
 62
    5
 10
159.56404456530385
 20
795.16491914649407
 11
152.06404456530385
 21
810.16491914649407
  0
LINE
  8
_0-7_枠細線
  6
CONTINUOUS
 62
    5
 10
144.56404456530385
 20
795.16491914649407
 11
159.56404456530385
 21
795.16491914649407
  0
LINE
  8
_0-7_枠細線
  6
CONTINUOUS
 62
    5
 10
152.06404456530385
 20
810.16491914649407
 11
144.56404456530385
 21
795.16491914649407
  0
TEXT
  8
_0-7_枠細線
 62
    5
 10
146.92919583345196
 20
794.61723525631271
 40
12.5
 41
0.8
 50
0
  1
６
  0
TEXT
  8
_0-7_枠細線
 62
    5
 10
938.85037037037023
 20
822.5
 40
12.5
 41
1
 50
0
  1
取外具形状変更
  0
LINE
  8
_0-7_枠細線
  6
CONTINUOUS
 62
    5
 10
907.5
 20
836.44233397174673
 11
900
 21
821.44233397174673
  0
LINE
  8
_0-7_枠細線
  6
CONTINUOUS
 62
    5
 10
900
 20
821.44233397174673
 11
915
 21
821.44233397174673
  0
LINE
  8
_0-7_枠細線
  6
CONTINUOUS
 62
    5
 10
915
 20
821.44233397174673
 11
907.5
 21
836.44233397174673
  0
TEXT
  8
_0-7_枠細線
 62
    5
 10
902.36515126814822
 20
821.13533172636653
 40
12.5
 41
0.8
 50
0
  1
６
  0
TEXT
  8
_0-7_枠細線
 62
    5
 10
1180
 20
822.5
 40
12.5
 41
0.7199999999999999
 50
0
  1
２０２１．０５．０６
  0
LINE
  8
_0-7_枠細線
  6
CONTINUOUS
 62
    5
 10
1425
 20
820
 11
890
 21
820
  0
LINE
  8
_0-0_計極細
  6
CONTINUOUS
 62
    2
 10
900.66487216364806
 20
673.79604780141517
 11
842.15822387657931
 21
673.79604780141517
  0
LINE
  8
_0-0_計極細
  6
CONTINUOUS
 62
    2
 10
1310.6648721636479
 20
673.79604780141517
 11
1369.1715204507168
 21
673.79604780141517
  0
LINE
  8
_0-0_計極細
  6
CENTER1
 62
    2
 10
1105.6648721636482
 20
644.08455011014496
 11
1105.6648721636482
 21
682.15455011014865
  0
CIRCLE
  8
_0-0_計極細
  6
CONTINUOUS
 62
    2
 10
1315.4350158417367
 20
657.50198294029974
 40
0.3318518518518431
  0
CIRCLE
  8
_0-0_計極細
  6
CONTINUOUS
 62
    2
 10
882.77279361951628
 20
662.0306866440028
 40
1.0953188836088352
  0
LINE
  8
_0-0_計極細
  6
CONTINUOUS
 62
    2
 10
890.36368035706971
 20
666.79604779773865
 11
895.66487216364806
 21
672.097239604317
  0
LINE
  8
_0-0_計極細
  6
CONTINUOUS
 62
    2
 10
877.63575828688499
 20
666.79604778891201
 11
884.63575829938804
 21
673.79604780141494
  0
LINE
  8
_0-0_計極細
  6
CONTINUOUS
 62
    2
 10
864.90783621670016
 20
666.79604778008513
 11
871.90783623803043
 21
673.79604780141517
  0
LINE
  8
_0-0_計極細
  6
CONTINUOUS
 62
    2
 10
852.17991414651578
 20
666.79604777125815
 11
859.17991417667236
 21
673.79604780141517
  0
LINE
  8
_0-0_計極細
  6
CONTINUOUS
 62
    2
 10
842.15822387657931
 20
669.50227956267963
 11
846.45199211531451
 21
673.79604780141494
  0
LINE
  8
_0-0_計極細
  6
DASHED2
 62
    2
 10
883.99971932197741
 20
666.7960477933251
 11
890.99971933006736
 21
673.79604780141517
  0
LINE
  8
_0-0_計極細
  6
DASHED2
 62
    2
 10
871.27179725179258
 20
666.79604778449846
 11
878.27179726870952
 21
673.79604780141517
  0
LINE
  8
_0-0_計極細
  6
DASHED2
 62
    2
 10
858.5438751816082
 20
666.79604777567181
 11
865.54387520735133
 21
673.79604780141517
  0
LINE
  8
_0-0_計極細
  6
DASHED2
 62
    2
 10
845.81595311142325
 20
666.79604776684516
 11
852.81595314599326
 21
673.79604780141517
  0
LINE
  8
_0-0_計極細
  6
CONTINUOUS
 62
    2
 10
900.54601800983232
 20
666.79604780141506
 11
900.66487216364771
 21
666.91490195523056
  0
LINE
  8
_0-0_計極細
  6
CONTINUOUS
 62
    2
 10
898.00043359756103
 20
666.79604780141506
 11
900.66487216364806
 21
669.46048636750174
  0
LINE
  8
_0-0_計極細
  6
CONTINUOUS
 62
    2
 10
895.66487216364806
 20
667.00607077977349
 11
900.66487216364806
 21
672.00607077977349
  0
LINE
  8
_0-0_計極細
  6
CONTINUOUS
 62
    2
 10
895.66487216364806
 20
669.55165519204525
 11
899.90926477301764
 21
673.79604780141517
  0
LINE
  8
_0-0_計極細
  6
CONTINUOUS
 62
    2
 10
895.66487216364806
 20
672.097239604317
 11
897.36368036074612
 21
673.79604780141517
  0
LINE
  8
_0-0_計極細
  6
CONTINUOUS
 62
    2
 10
900.66487216364806
 20
672.42746767805966
 11
899.296292040293
 21
673.79604780141517
  0
LINE
  8
_0-0_計極細
  6
CONTINUOUS
 62
    2
 10
900.66487216364806
 20
669.88188326578825
 11
896.75070762802136
 21
673.79604780141517
  0
LINE
  8
_0-0_計極細
  6
CONTINUOUS
 62
    2
 10
895.66487216364806
 20
672.33629885351672
 11
900.66487216364806
 21
667.33629885351672
  0
LINE
  8
_0-0_計極細
  6
CONTINUOUS
 62
    2
 10
895.66487216364806
 20
669.79071444124497
 11
898.65953880347774
 21
666.79604780141506
  0
LINE
  8
_0-0_計極細
  6
CONTINUOUS
 62
    2
 10
895.66487216364806
 20
667.24513002897356
 11
896.11395439120645
 21
666.79604780141506
  0
LINE
  8
_0-0_計極細
  6
CONTINUOUS
 62
    2
 10
900.66487216364806
 20
673.29604780141483
 11
900.66487216364806
 21
673.79604780141517
  0
LINE
  8
_0-0_計極細
  6
CONTINUOUS
 62
    2
 10
900.66487216364806
 20
666.79604780141506
 11
842.15822387657931
 21
666.79604780141506
  0
LINE
  8
_0-0_計極細
  6
CONTINUOUS
 62
    2
 10
895.66487216364806
 20
673.79604780141517
 11
895.66487216364806
 21
666.79604780141506
  0
CIRCLE
  8
_0-0_計極細
  6
CONTINUOUS
 62
    2
 10
874.07501584173872
 20
663.70476071807741
 40
0.3318518518518431
  0
CIRCLE
  8
_0-0_計極細
  6
CONTINUOUS
 62
    2
 10
892.63501584173866
 20
664.77142738474424
 40
0.3318518518518431
  0
LINE
  8
_0-0_計極細
  6
CONTINUOUS
 62
    2
 10
1356.7383554038297
 20
666.79604780141506
 11
1363.7383550277564
 21
673.79604742534173
  0
LINE
  8
_0-0_計極細
  6
CONTINUOUS
 62
    2
 10
1344.010433342472
 20
666.79604780141506
 11
1351.0104330659678
 21
673.79604752491059
  0
LINE
  8
_0-0_計極細
  6
CONTINUOUS
 62
    2
 10
1331.2825112811138
 20
666.79604780141506
 11
1338.2825111041789
 21
673.7960476244798
  0
LINE
  8
_0-0_計極細
  6
CONTINUOUS
 62
    2
 10
1318.5545892197565
 20
666.79604780141506
 11
1325.5545891423901
 21
673.796047724049
  0
LINE
  8
_0-0_計極細
  6
DASHED2
 62
    2
 10
1363.1023164345083
 20
666.79604780141506
 11
1369.1715204507168
 21
672.86525181762283
  0
LINE
  8
_0-0_計極細
  6
DASHED2
 62
    2
 10
1350.3743943731506
 20
666.79604780141506
 11
1357.3743940468617
 21
673.79604747512599
  0
LINE
  8
_0-0_計極細
  6
DASHED2
 62
    2
 10
1337.6464723117931
 20
666.79604780141506
 11
1344.6464720850734
 21
673.79604757469519
  0
LINE
  8
_0-0_計極細
  6
DASHED2
 62
    2
 10
1324.9185502504349
 20
666.79604780141506
 11
1331.9185501232844
 21
673.7960476742644
  0
LINE
  8
_0-0_計極細
  6
DASHED2
 62
    2
 10
1315.6648721636484
 20
670.27029177598581
 11
1319.1906281614956
 21
673.79604777383361
  0
LINE
  8
_0-0_計極細
  6
CONTINUOUS
 62
    2
 10
1315.6648721636484
 20
668.99749956984965
 11
1313.4634203952128
 21
666.79604780141506
  0
LINE
  8
_0-0_計極細
  6
CONTINUOUS
 62
    2
 10
1315.6648721636484
 20
671.54308398212106
 11
1310.9178359829416
 21
666.79604780141506
  0
LINE
  8
_0-0_計極細
  6
CONTINUOUS
 62
    2
 10
1310.6648721636479
 20
669.08866839439315
 11
1315.37225157067
 21
673.79604780141517
  0
LINE
  8
_0-0_計極細
  6
CONTINUOUS
 62
    2
 10
1310.6648721636479
 20
671.63425280666456
 11
1312.8266671583981
 21
673.79604780141494
  0
LINE
  8
_0-0_計極細
  6
CONTINUOUS
 62
    2
 10
1315.6648721636484
 20
672.89045447571186
 11
1314.7592788379447
 21
673.79604780141517
  0
LINE
  8
_0-0_計極細
  6
CONTINUOUS
 62
    2
 10
1315.6648721636484
 20
670.34487006344011
 11
1312.2136944256736
 21
673.79604780141517
  0
LINE
  8
_0-0_計極細
  6
CONTINUOUS
 62
    2
 10
1315.6648721636484
 20
667.79928565116859
 11
1310.6648721636479
 21
672.79928565116859
  0
LINE
  8
_0-0_計極細
  6
CONTINUOUS
 62
    2
 10
1314.1225256011296
 20
666.79604780141506
 11
1310.6648721636479
 21
670.25370123889684
  0
LINE
  8
_0-0_計極細
  6
CONTINUOUS
 62
    2
 10
1311.5769411888582
 20
666.79604780141506
 11
1310.6648721636479
 21
667.70811682662509
  0
LINE
  8
_0-0_計極細
  6
CONTINUOUS
 62
    2
 10
1310.6648721636479
 20
673.29604780141483
 11
1310.6648721636479
 21
673.79604780141517
  0
LINE
  8
_0-0_計極細
  6
CONTINUOUS
 62
    2
 10
1310.6648721636479
 20
666.79604780141506
 11
1369.1715204507168
 21
666.79604780141506
  0
LINE
  8
_0-0_計極細
  6
CONTINUOUS
 62
    2
 10
1315.6648721636484
 20
673.79604780141517
 11
1315.6648721636484
 21
666.79604780141506
  0
CIRCLE
  8
_0-0_計極細
  6
CONTINUOUS
 62
    2
 10
1322.6616825084031
 20
665.51531627363329
 40
0.3318518518518431
  0
CIRCLE
  8
_0-0_計極細
  6
CONTINUOUS
 62
    2
 10
1335.3816825084029
 20
661.91531627363315
 40
0.3318518518518431
  0
CIRCLE
  8
_0-0_計極細
  6
CONTINUOUS
 62
    2
 10
1353.8616825084032
 20
664.95531627363323
 40
0.3318518518518431
  0
LINE
  8
_0-0_計極細
  6
CENTER1
 62
    2
 10
881.16487216364806
 20
595.83000363074302
 11
881.16487216364806
 21
629.81281670916997
  0
LINE
  8
_0-0_計極細
  6
CONTINUOUS
 62
    2
 10
876.66487216364828
 20
627.24738461040431
 11
876.66487216364828
 21
600.79604780141483
  0
LINE
  8
_0-0_計極細
  6
CONTINUOUS
 62
    2
 10
885.66487216364806
 20
627.24738461040431
 11
876.66487216364828
 21
627.24738461040431
  0
LINE
  8
_0-0_計極細
  6
CONTINUOUS
 62
    2
 10
885.66487216364806
 20
600.79604780141483
 11
885.66487216364806
 21
627.24738461040431
  0
LINE
  8
_0-0_計極細
  6
CENTER1
 62
    2
 10
869.96848055119585
 20
618.87150726843572
 11
908.38709284073525
 21
632.85473855945668
  0
LINE
  8
_0-0_計極細
  6
CONTINUOUS
 62
    2
 10
874.48083123135677
 20
615.72506849891681
 11
907.55543812556562
 21
627.76324091846459
  0
LINE
  8
_0-0_計極細
  6
CONTINUOUS
 62
    2
 10
871.40264994142581
 20
624.18230208599005
 11
904.47725683563465
 21
636.22047450553794
  0
LINE
  8
_0-0_計極細
  6
CONTINUOUS
 62
    2
 10
904.47725683563465
 20
636.22047450553794
 11
907.55543812556562
 21
627.76324091846459
  0
LINE
  8
_0-0_計極細
  6
CONTINUOUS
 62
    2
 10
874.48083123135677
 20
615.72506849891681
 11
871.40264994142581
 21
624.18230208599005
  0
CIRCLE
  8
_0-0_計極細
  6
CONTINUOUS
 62
    2
 10
919.31501584173577
 20
624.73735331067053
 40
1.0953188836088352
  0
CIRCLE
  8
_0-0_計極細
  6
CONTINUOUS
 62
    2
 10
926.73723806396083
 20
589.78445143150941
 40
0.3318518518518431
  0
CIRCLE
  8
_0-0_計極細
  6
CONTINUOUS
 62
    2
 10
925.93723806396031
 20
603.37809405141127
 40
0.3318518518518431
  0
CIRCLE
  8
_0-0_計極細
  6
CONTINUOUS
 62
    2
 10
926.53241167507076
 20
636.20401997733734
 40
1.0953188836088352
  0
LINE
  8
_0-0_計極細
  6
CONTINUOUS
 62
    2
 10
930.66487216364806
 20
645.79604780141483
 11
930.66487216364806
 21
585.05108762454779
  0
LINE
  8
_0-0_計極細
  6
CONTINUOUS
 62
    2
 10
930.16487216364783
 20
645.79604780141483
 11
930.66487216364806
 21
645.79604780141483
  0
CIRCLE
  8
_0-0_計極細
  6
CONTINUOUS
 62
    2
 10
846.97949629622997
 20
654.81735331067034
 40
1.0953188836088352
  0
CIRCLE
  8
_0-0_計極細
  6
CONTINUOUS
 62
    2
 10
919.64834917507142
 20
592.60401997733777
 40
1.0953188836088352
  0
CIRCLE
  8
_0-0_計極細
  6
CONTINUOUS
 62
    2
 10
916.76834917507165
 20
603.80401997733748
 40
1.0953188836088352
  0
CIRCLE
  8
_0-0_計極細
  6
CONTINUOUS
 62
    2
 10
895.18168250840472
 20
605.96401997733733
 40
1.0953188836088352
  0
CIRCLE
  8
_0-0_計極細
  6
CONTINUOUS
 62
    2
 10
863.26168250840533
 20
613.64401997733717
 40
1.0953188836088352
  0
CIRCLE
  8
_0-0_計極細
  6
CONTINUOUS
 62
    2
 10
875.02168250840509
 20
636.44401997733723
 40
1.0953188836088352
  0
CIRCLE
  8
_0-0_計極細
  6
CONTINUOUS
 62
    2
 10
888.46168250840549
 20
630.36401997733731
 40
1.0953188836088352
  0
CIRCLE
  8
_0-0_計極細
  6
CONTINUOUS
 62
    2
 10
859.09774402087749
 20
654.2817885421556
 40
1.0953188836088352
  0
CIRCLE
  8
_0-0_計極細
  6
CONTINUOUS
 62
    2
 10
890.15501584173876
 20
650.12401997733673
 40
1.0953188836088352
  0
CIRCLE
  8
_0-0_計極細
  6
CONTINUOUS
 62
    2
 10
902.32834917507205
 20
636.9336496069667
 40
0.3318518518518431
  0
CIRCLE
  8
_0-0_計極細
  6
CONTINUOUS
 62
    2
 10
923.47501584173824
 20
619.09364960696689
 40
0.3318518518518431
  0
CIRCLE
  8
_0-0_計極細
  6
CONTINUOUS
 62
    2
 10
923.15501584173819
 20
629.86698294029998
 40
0.3318518518518431
  0
CIRCLE
  8
_0-0_計極細
  6
CONTINUOUS
 62
    2
 10
914.08834917507181
 20
635.84031627363322
 40
0.3318518518518431
  0
CIRCLE
  8
_0-0_計極細
  6
CONTINUOUS
 62
    2
 10
905.23501584173857
 20
615.36031627363354
 40
0.3318518518518431
  0
CIRCLE
  8
_0-0_計極細
  6
CONTINUOUS
 62
    2
 10
915.23501584173857
 20
589.19142738474488
 40
0.3318518518518431
  0
CIRCLE
  8
_0-0_計極細
  6
CONTINUOUS
 62
    2
 10
919.39501584173843
 20
598.15142738474492
 40
0.3318518518518431
  0
CIRCLE
  8
_0-0_計極細
  6
CONTINUOUS
 62
    2
 10
911.18168250840495
 20
607.11142738474462
 40
0.3318518518518431
  0
CIRCLE
  8
_0-0_計極細
  6
CONTINUOUS
 62
    2
 10
903.39501584173854
 20
605.19142738474466
 40
0.3318518518518431
  0
CIRCLE
  8
_0-0_計極細
  6
CONTINUOUS
 62
    2
 10
891.44834917507205
 20
604.55142738474456
 40
0.3318518518518431
  0
CIRCLE
  8
_0-0_計極細
  6
CONTINUOUS
 62
    2
 10
893.58168250840549
 20
610.09809405141118
 40
0.3318518518518431
  0
CIRCLE
  8
_0-0_計極細
  6
CONTINUOUS
 62
    2
 10
889.84834917507203
 20
611.59142738474463
 40
0.3318518518518431
  0
CIRCLE
  8
_0-0_計極細
  6
CONTINUOUS
 62
    2
 10
896.56834917507194
 20
614.89809405141114
 40
0.3318518518518431
  0
CIRCLE
  8
_0-0_計極細
  6
CONTINUOUS
 62
    2
 10
872.98834917507179
 20
604.16476071807801
 40
0.3318518518518431
  0
CIRCLE
  8
_0-0_計極細
  6
CONTINUOUS
 62
    2
 10
869.25501584173867
 20
609.28476071807791
 40
0.3318518518518431
  0
CIRCLE
  8
_0-0_計極細
  6
CONTINUOUS
 62
    2
 10
864.02834917507221
 20
605.23142738474473
 40
0.3318518518518431
  0
CIRCLE
  8
_0-0_計極細
  6
CONTINUOUS
 62
    2
 10
867.44168250840539
 20
616.00476071807782
 40
0.3318518518518431
  0
CIRCLE
  8
_0-0_計極細
  6
CONTINUOUS
 62
    2
 10
892.10834917507168
 20
632.27142738474436
 40
0.3318518518518431
  0
CIRCLE
  8
_0-0_計極細
  6
CONTINUOUS
 62
    2
 10
875.6816825084054
 20
627.89809405141114
 40
0.3318518518518431
  0
CIRCLE
  8
_0-0_計極細
  6
CONTINUOUS
 62
    2
 10
884.53501584173853
 20
636.0047607180777
 40
0.3318518518518431
  0
CIRCLE
  8
_0-0_計極細
  6
CONTINUOUS
 62
    2
 10
892.10834917507168
 20
639.418094051411
 40
0.3318518518518431
  0
CIRCLE
  8
_0-0_計極細
  6
CONTINUOUS
 62
    2
 10
877.06834917507194
 20
641.6580940514109
 40
0.3318518518518431
  0
CIRCLE
  8
_0-0_計極細
  6
CONTINUOUS
 62
    2
 10
864.80168250840563
 20
642.40476071807757
 40
0.3318518518518431
  0
CIRCLE
  8
_0-0_計極細
  6
CONTINUOUS
 62
    2
 10
881.1150158417388
 20
649.74476071807783
 40
0.3318518518518431
  0
CIRCLE
  8
_0-0_計極細
  6
CONTINUOUS
 62
    2
 10
896.04834917507173
 20
650.06476071807754
 40
0.3318518518518431
  0
CIRCLE
  8
_0-0_計極細
  6
CONTINUOUS
 62
    2
 10
877.70168250840527
 20
653.798094051411
 40
0.3318518518518431
  0
CIRCLE
  8
_0-0_計極細
  6
CONTINUOUS
 62
    2
 10
860.635015841739
 20
646.75809405141092
 40
0.3318518518518431
  0
CIRCLE
  8
_0-0_計極細
  6
CONTINUOUS
 62
    2
 10
853.06168250840551
 20
645.58476071807775
 40
0.3318518518518431
  0
CIRCLE
  8
_0-0_計極細
  6
CONTINUOUS
 62
    2
 10
846.69723806396132
 20
644.94476071807776
 40
0.3318518518518431
  0
CIRCLE
  8
_0-0_計極細
  6
CONTINUOUS
 62
    2
 10
852.89575658247963
 20
650.91809405141089
 40
0.3318518518518431
  0
LINE
  8
_0-0_計極細
  6
CONTINUOUS
 62
    2
 10
888.21168742465431
 20
585.05108769440949
 11
903.95664753165988
 21
600.79604780141483
  0
LINE
  8
_0-0_計極細
  6
CONTINUOUS
 62
    2
 10
845.78528068546939
 20
585.05108782641764
 11
861.53024066046692
 21
600.79604780141483
  0
LINE
  8
_0-0_計極細
  6
CONTINUOUS
 62
    2
 10
842.15822387657931
 20
623.85043788872008
 11
860.10383378927395
 21
641.79604780141517
  0
LINE
  8
_0-0_計極細
  6
CONTINUOUS
 62
    2
 10
883.96904675073552
 20
585.05108770761035
 11
899.71400684454034
 21
600.79604780141483
  0
LINE
  8
_0-0_計極細
  6
CONTINUOUS
 62
    2
 10
842.15822387657931
 20
585.66667170464666
 11
860.66487216364806
 21
604.17331999171563
  0
LINE
  8
_0-0_計極細
  6
CONTINUOUS
 62
    2
 10
842.15822387657931
 20
628.09307857583951
 11
855.86119310215452
 21
641.79604780141517
  0
LINE
  8
_0-0_計極細
  6
CONTINUOUS
 62
    2
 10
879.7264060768174
 20
585.05108772081132
 11
895.47136615742102
 21
600.79604780141483
  0
LINE
  8
_0-0_計極細
  6
CONTINUOUS
 62
    2
 10
842.15822387657931
 20
589.90931239176609
 11
860.66487216364806
 21
608.41596067883484
  0
LINE
  8
_0-0_計極細
  6
CONTINUOUS
 62
    2
 10
842.15822387657931
 20
632.33571926295906
 11
851.6185524150352
 21
641.79604780141517
  0
LINE
  8
_0-0_計極細
  6
CONTINUOUS
 62
    2
 10
910.66487216364806
 20
600.79604780141483
 11
910.66487216364806
 21
585.05108762454779
  0
LINE
  8
_0-0_計極細
  6
CONTINUOUS
 62
    2
 10
860.66487216364806
 20
641.79604780141517
 11
842.15822387657931
 21
641.79604780141517
  0
LINE
  8
_0-0_計極細
  6
CONTINUOUS
 62
    2
 10
910.66487216364806
 20
600.79604780141483
 11
860.66487216364806
 21
600.79604780141483
  0
LINE
  8
_0-0_計極細
  6
CONTINUOUS
 62
    2
 10
860.66487216364806
 20
641.79604780141517
 11
860.66487216364806
 21
600.79604780141483
  0
CIRCLE
  8
_0-0_計極細
  6
CONTINUOUS
 62
    2
 10
1327.0616825084037
 20
633.90790886622597
 40
0.3318518518518431
  0
CIRCLE
  8
_0-0_計極細
  6
CONTINUOUS
 62
    2
 10
1338.8216825084035
 20
630.54790886622561
 40
0.3318518518518431
  0
LINE
  8
_0-0_計極細
  6
CONTINUOUS
 62
    2
 10
1325.6648721636479
 20
627.24738461040431
 11
1334.6648721636482
 21
627.24738461040431
  0
LINE
  8
_0-0_計極細
  6
CENTER1
 62
    2
 10
1330.1648721636477
 20
595.83000363074302
 11
1330.1648721636477
 21
629.81281670916997
  0
LINE
  8
_0-0_計極細
  6
CONTINUOUS
 62
    2
 10
1334.6648721636482
 20
627.24738461040431
 11
1334.6648721636482
 21
600.79604780141483
  0
LINE
  8
_0-0_計極細
  6
CONTINUOUS
 62
    2
 10
1325.6648721636479
 20
600.79604780141483
 11
1325.6648721636479
 21
627.24738461040431
  0
LINE
  8
_0-0_計極細
  6
CENTER1
 62
    2
 10
1341.3612637761003
 20
618.87150726843572
 11
1302.9426514865609
 21
632.85473855945668
  0
LINE
  8
_0-0_計極細
  6
CONTINUOUS
 62
    2
 10
1336.8489130959392
 20
615.72506849891681
 11
1303.7743062017305
 21
627.76324091846459
  0
LINE
  8
_0-0_計極細
  6
CONTINUOUS
 62
    2
 10
1339.9270943858708
 20
624.18230208599005
 11
1306.8524874916611
 21
636.22047450553794
  0
LINE
  8
_0-0_計極細
  6
CONTINUOUS
 62
    2
 10
1306.8524874916611
 20
636.22047450553794
 11
1303.7743062017305
 21
627.76324091846459
  0
LINE
  8
_0-0_計極細
  6
CONTINUOUS
 62
    2
 10
1336.8489130959392
 20
615.72506849891681
 11
1339.9270943858708
 21
624.18230208599005
  0
CIRCLE
  8
_0-0_計極細
  6
CONTINUOUS
 62
    2
 10
1286.4250158417367
 20
594.20735331067056
 40
1.0953188836088352
  0
CIRCLE
  8
_0-0_計極細
  6
CONTINUOUS
 62
    2
 10
1284.6561269528479
 20
637.78068664400405
 40
1.0953188836088352
  0
CIRCLE
  8
_0-0_計極細
  6
CONTINUOUS
 62
    2
 10
1285.0394602861818
 20
598.20864960696701
 40
0.3318518518518431
  0
CIRCLE
  8
_0-0_計極細
  6
CONTINUOUS
 62
    2
 10
1284.2555096688977
 20
621.76198294030007
 40
0.3318518518518431
  0
LINE
  8
_0-0_計極細
  6
CONTINUOUS
 62
    2
 10
1280.6648721636477
 20
645.79604780141483
 11
1280.6648721636477
 21
585.05108762454779
  0
LINE
  8
_0-0_計極細
  6
CONTINUOUS
 62
    2
 10
1281.1648721636475
 20
645.79604780141483
 11
1280.6648721636477
 21
645.79604780141483
  0
CIRCLE
  8
_0-0_計極細
  6
CONTINUOUS
 62
    2
 10
1335.4616825084029
 20
653.12401997733684
 40
1.0953188836088352
  0
CIRCLE
  8
_0-0_計極細
  6
CONTINUOUS
 62
    2
 10
1289.2387195454412
 20
616.68676339978219
 40
0.3318518518518431
  0
CIRCLE
  8
_0-0_計極細
  6
CONTINUOUS
 62
    2
 10
1289.1187195454409
 20
631.0600967331153
 40
0.3318518518518431
  0
CIRCLE
  8
_0-0_計極細
  6
CONTINUOUS
 62
    2
 10
1317.5983491750703
 20
634.31401997733713
 40
1.0953188836088352
  0
CIRCLE
  8
_0-0_計極細
  6
CONTINUOUS
 62
    2
 10
1347.9974647562403
 20
602.28178854215571
 40
1.0953188836088352
  0
CIRCLE
  8
_0-0_計極細
  6
CONTINUOUS
 62
    2
 10
1320.23834917507
 20
608.39401997733739
 40
1.0953188836088352
  0
CIRCLE
  8
_0-0_計極細
  6
CONTINUOUS
 62
    2
 10
1299.1183491750701
 20
621.83401997733722
 40
1.0953188836088352
  0
CIRCLE
  8
_0-0_計極細
  6
CONTINUOUS
 62
    2
 10
1292.9850158417375
 20
603.91401997733749
 40
1.0953188836088352
  0
CIRCLE
  8
_0-0_計極細
  6
CONTINUOUS
 62
    2
 10
1335.2216825084029
 20
630.64401997733694
 40
1.0953188836088352
  0
CIRCLE
  8
_0-0_計極細
  6
CONTINUOUS
 62
    2
 10
1349.2750158417361
 20
645.8973533106705
 40
1.0953188836088352
  0
CIRCLE
  8
_0-0_計極細
  6
CONTINUOUS
 62
    2
 10
1358.6616825084029
 20
655.17735331067024
 40
1.0953188836088352
  0
CIRCLE
  8
_0-0_計極細
  6
CONTINUOUS
 62
    2
 10
1361.541682508403
 20
646.91531627363304
 40
0.3318518518518431
  0
CIRCLE
  8
_0-0_計極細
  6
CONTINUOUS
 62
    2
 10
1343.7816825084033
 20
634.19531627363335
 40
0.3318518518518431
  0
CIRCLE
  8
_0-0_計極細
  6
CONTINUOUS
 62
    2
 10
1345.4616825084031
 20
650.27531627363328
 40
0.3318518518518431
  0
CIRCLE
  8
_0-0_計極細
  6
CONTINUOUS
 62
    2
 10
1335.3816825084029
 20
638.51531627363329
 40
0.3318518518518431
  0
CIRCLE
  8
_0-0_計極細
  6
CONTINUOUS
 62
    2
 10
1346.1816825084029
 20
625.79531627363338
 40
0.3318518518518431
  0
CIRCLE
  8
_0-0_計極細
  6
CONTINUOUS
 62
    2
 10
1347.1416825084029
 20
613.31531627363358
 40
0.3318518518518431
  0
CIRCLE
  8
_0-0_計極細
  6
CONTINUOUS
 62
    2
 10
1342.8216825084028
 20
604.91531627363349
 40
0.3318518518518431
  0
CIRCLE
  8
_0-0_計極細
  6
CONTINUOUS
 62
    2
 10
1319.3016825084032
 20
636.83531627363345
 40
0.3318518518518431
  0
CIRCLE
  8
_0-0_計極細
  6
CONTINUOUS
 62
    2
 10
1313.9416825084036
 20
645.66198294030005
 40
0.3318518518518431
  0
CIRCLE
  8
_0-0_計極細
  6
CONTINUOUS
 62
    2
 10
1321.1283491750703
 20
613.08864960696701
 40
0.3318518518518431
  0
CIRCLE
  8
_0-0_計極細
  6
CONTINUOUS
 62
    2
 10
1314.40834917507
 20
609.728649606967
 40
0.3318518518518431
  0
CIRCLE
  8
_0-0_計極細
  6
CONTINUOUS
 62
    2
 10
1321.6083491750701
 20
604.28864960696706
 40
0.3318518518518431
  0
CIRCLE
  8
_0-0_計極細
  6
CONTINUOUS
 62
    2
 10
1305.4483491750702
 20
604.12864960696686
 40
0.3318518518518431
  0
CIRCLE
  8
_0-0_計極細
  6
CONTINUOUS
 62
    2
 10
1297.1283491750703
 20
607.00864960696697
 40
0.3318518518518431
  0
CIRCLE
  8
_0-0_計極細
  6
CONTINUOUS
 62
    2
 10
1290.2483491750706
 20
589.08864960696724
 40
0.3318518518518431
  0
CIRCLE
  8
_0-0_計極細
  6
CONTINUOUS
 62
    2
 10
1295.8483491750703
 20
599.80864960696704
 40
0.3318518518518431
  0
CIRCLE
  8
_0-0_計極細
  6
CONTINUOUS
 62
    2
 10
1306.5483491750704
 20
613.78864960696683
 40
0.3318518518518431
  0
CIRCLE
  8
_0-0_計極細
  6
CONTINUOUS
 62
    2
 10
1296.0283491750702
 20
624.00198294030031
 40
0.3318518518518431
  0
CIRCLE
  8
_0-0_計極細
  6
CONTINUOUS
 62
    2
 10
1298.4816825084035
 20
638.98864960696653
 40
0.3318518518518431
  0
CIRCLE
  8
_0-0_計極細
  6
CONTINUOUS
 62
    2
 10
1292.5083491750704
 20
636.10864960696665
 40
0.3318518518518431
  0
LINE
  8
_0-0_計極細
  6
CONTINUOUS
 62
    2
 10
1355.6388736124038
 20
585.05108762454779
 11
1369.171520475641
 21
598.58373448778491
  0
LINE
  8
_0-0_計極細
  6
CONTINUOUS
 62
    2
 10
1313.2124667412106
 20
585.05108762454779
 11
1328.957426918078
 21
600.79604780141483
  0
LINE
  8
_0-0_計極細
  6
CONTINUOUS
 62
    2
 10
1350.6648721636479
 20
622.50349304698477
 11
1369.1715204511697
 21
641.01014133450644
  0
LINE
  8
_0-0_計極細
  6
CONTINUOUS
 62
    2
 10
1351.396232925284
 20
585.05108762454779
 11
1369.1715204731941
 21
602.82637517245712
  0
LINE
  8
_0-0_計極細
  6
CONTINUOUS
 62
    2
 10
1308.9698260540918
 20
585.05108762454779
 11
1324.7147862309589
 21
600.79604780141483
  0
LINE
  8
_0-0_計極細
  6
CONTINUOUS
 62
    2
 10
1350.6648721636479
 20
626.74613373410386
 11
1365.7147861232288
 21
641.79604769368484
  0
LINE
  8
_0-0_計極細
  6
CONTINUOUS
 62
    2
 10
1347.1535922381649
 20
585.05108762454779
 11
1369.1715204707466
 21
607.06901585712933
  0
LINE
  8
_0-0_計極細
  6
CONTINUOUS
 62
    2
 10
1304.7271853669722
 20
585.05108762454779
 11
1320.4721455438398
 21
600.79604780141483
  0
LINE
  8
_0-0_計極細
  6
CONTINUOUS
 62
    2
 10
1350.6648721636479
 20
630.9887744212233
 11
1361.4721454664791
 21
641.79604772405457
  0
LINE
  8
_0-0_計極細
  6
CONTINUOUS
 62
    2
 10
1300.6648721636484
 20
600.79604780141483
 11
1300.6648721636484
 21
585.05108762454779
  0
LINE
  8
_0-0_計極細
  6
CONTINUOUS
 62
    2
 10
1350.6648721636479
 20
641.79604780141517
 11
1369.1715204507168
 21
641.79604780141517
  0
LINE
  8
_0-0_計極細
  6
CONTINUOUS
 62
    2
 10
1300.6648721636484
 20
600.79604780141483
 11
1350.6648721636479
 21
600.79604780141483
  0
LINE
  8
_0-0_計極細
  6
CONTINUOUS
 62
    2
 10
1350.6648721636479
 20
641.79604780141517
 11
1350.6648721636479
 21
600.79604780141483
  0
LINE
  8
_0-1_計細線
  6
CONTINUOUS
 62
    3
 10
1108.0148721642001
 20
656.09582880040807
 11
1112.464872164019
 21
656.09582880040807
  0
LINE
  8
_0-1_計細線
  6
CONTINUOUS
 62
    3
 10
1098.8648721638569
 20
656.09582880040807
 11
1103.3148721641999
 21
656.09582880040807
  0
LINE
  8
_0-1_計細線
  6
CONTINUOUS
 62
    3
 10
1108.0148721642001
 20
669.09582880040773
 11
1112.464872164019
 21
669.09582880040773
  0
LINE
  8
_0-1_計細線
  6
CONTINUOUS
 62
    3
 10
1098.8648721640193
 20
669.09582880040773
 11
1103.3148721642001
 21
669.09582880040773
  0
ARC
  8
_0-1_計細線
  6
CONTINUOUS
 62
    3
 10
1302.9648721656108
 20
656.29582880040789
 40
0.2000000000000001
 50
269.99999999999977
 51
359.99999999999966
  0
ARC
  8
_0-1_計細線
  6
CONTINUOUS
 62
    3
 10
1302.9648721656108
 20
668.89582880040791
 40
0.2000000000000001
 50
0
 51
89.999999999999915
  0
LINE
  8
_0-1_計細線
  6
CONTINUOUS
 62
    3
 10
1303.1648721656109
 20
662.09582880040784
 11
1303.1648721656109
 21
656.29582880040789
  0
LINE
  8
_0-1_計細線
  6
CONTINUOUS
 62
    3
 10
1303.1648721656109
 20
668.89582880040791
 11
1303.1648721656109
 21
662.09582880040784
  0
LINE
  8
_0-1_計細線
  6
CONTINUOUS
 62
    3
 10
1302.1648721651418
 20
656.09582880040807
 11
1302.9648721656108
 21
656.09582880040807
  0
LINE
  8
_0-1_計細線
  6
CONTINUOUS
 62
    3
 10
1302.1648721658557
 20
669.09582880040807
 11
1302.9648721656108
 21
669.09582880040807
  0
LINE
  8
_0-1_計細線
  6
CONTINUOUS
 62
    3
 10
1303.1648721656109
 20
662.59582880040784
 11
1306.1693881656108
 21
662.59582880040784
  0
LINE
  8
_0-1_計細線
  6
CONTINUOUS
 62
    3
 10
1303.1648721656109
 20
659.09582880040807
 11
1306.1694001656101
 21
659.09582880040807
  0
ARC
  8
_0-1_計細線
  6
CONTINUOUS
 62
    3
 10
1306.1694001656101
 20
659.29582880040789
 40
0.2000000000000001
 50
269.99999999999977
 51
359.99999999999966
  0
ARC
  8
_0-1_計細線
  6
CONTINUOUS
 62
    3
 10
1298.6114201656108
 20
660.84568280040844
 40
7.7579560000000019
 50
346.96432999999968
 51
13.038021999993759
  0
ARC
  8
_0-1_計細線
  6
CONTINUOUS
 62
    3
 10
1306.1694001656101
 20
665.89582880040837
 40
0.2000000000000001
 50
0
 51
89.999999999999915
  0
ARC
  8
_0-1_計細線
  6
CONTINUOUS
 62
    3
 10
1298.6114201656108
 20
664.34597280040748
 40
7.7579560000000019
 50
346.96197800000061
 51
13.035669999999625
  0
LINE
  8
_0-1_計細線
  6
CONTINUOUS
 62
    3
 10
1303.1648721656109
 20
666.09582880040819
 11
1306.1694001656101
 21
666.09582880040819
  0
LINE
  8
_0-1_計細線
  6
CONTINUOUS
 62
    3
 10
1306.3694001656106
 20
659.29582880040789
 11
1306.3694001656106
 21
665.89582880040837
  0
LINE
  8
_0-1_計細線
  6
CONTINUOUS
 62
    3
 10
908.16487216226108
 20
662.59582880040784
 11
905.16035616226134
 21
662.59582880040784
  0
LINE
  8
_0-1_計細線
  6
CONTINUOUS
 62
    3
 10
908.16487216226108
 20
659.09582880040807
 11
905.16034416226171
 21
659.09582880040807
  0
ARC
  8
_0-1_計細線
  6
CONTINUOUS
 62
    3
 10
905.16034416226171
 20
659.29582880040789
 40
0.2000000000000001
 50
179.99999999999983
 51
269.99999999999977
  0
ARC
  8
_0-1_計細線
  6
CONTINUOUS
 62
    3
 10
912.71832416226118
 20
660.84568280040844
 40
7.7579560000000019
 50
166.96197800000587
 51
193.03567000000001
  0
ARC
  8
_0-1_計細線
  6
CONTINUOUS
 62
    3
 10
905.16034416226171
 20
665.89582880040837
 40
0.2000000000000001
 50
89.999999999999915
 51
179.99999999999983
  0
ARC
  8
_0-1_計細線
  6
CONTINUOUS
 62
    3
 10
912.71832416226118
 20
664.34597280040748
 40
7.7579560000000019
 50
166.96432999999965
 51
193.03802199999868
  0
LINE
  8
_0-1_計細線
  6
CONTINUOUS
 62
    3
 10
908.16487216226108
 20
666.09582880040819
 11
905.16034416226171
 21
666.09582880040819
  0
LINE
  8
_0-1_計細線
  6
CONTINUOUS
 62
    3
 10
904.96034416226166
 20
659.29582880040789
 11
904.96034416226166
 21
665.89582880040837
  0
LINE
  8
_0-1_計細線
  6
CONTINUOUS
 62
    3
 10
1251.8648721642546
 20
669.09582880040773
 11
1265.4648721642548
 21
669.09582880040773
  0
LINE
  8
_0-1_計細線
  6
CONTINUOUS
 62
    3
 10
1234.8648721640825
 20
669.09582880040773
 11
1248.4648721640826
 21
669.09582880040773
  0
LINE
  8
_0-1_計細線
  6
CONTINUOUS
 62
    3
 10
1251.8648721642548
 20
656.09582880040807
 11
1265.464872164255
 21
656.09582880040807
  0
LINE
  8
_0-1_計細線
  6
CONTINUOUS
 62
    3
 10
1234.8648721640832
 20
656.09582880040807
 11
1248.4648721640826
 21
656.09582880040807
  0
LINE
  8
_0-1_計細線
  6
CONTINUOUS
 62
    3
 10
1285.5648721647885
 20
669.09582880040773
 11
1298.7648721647881
 21
669.09582880040773
  0
LINE
  8
_0-1_計細線
  6
CONTINUOUS
 62
    3
 10
1285.5648721647885
 20
656.09582880040807
 11
1298.7648721647881
 21
656.09582880040807
  0
LINE
  8
_0-1_計細線
  6
CONTINUOUS
 62
    3
 10
1268.8648721646164
 20
669.09582880040773
 11
1282.1648721646166
 21
669.09582880040773
  0
LINE
  8
_0-1_計細線
  6
CONTINUOUS
 62
    3
 10
1268.8648721646164
 20
656.09582880040807
 11
1282.1648721646166
 21
656.09582880040807
  0
LINE
  8
_0-1_計細線
  6
CONTINUOUS
 62
    3
 10
959.4648721635931
 20
669.09582880040773
 11
945.86487216359296
 21
669.09582880040773
  0
LINE
  8
_0-1_計細線
  6
CONTINUOUS
 62
    3
 10
959.46487216359287
 20
656.09582880040807
 11
945.86487216359262
 21
656.09582880040807
  0
LINE
  8
_0-1_計細線
  6
CONTINUOUS
 62
    3
 10
925.76487216250769
 20
669.09582880040773
 11
912.56487216250764
 21
669.09582880040773
  0
LINE
  8
_0-1_計細線
  6
CONTINUOUS
 62
    3
 10
925.76487216250769
 20
656.09582880040807
 11
912.5648721625073
 21
656.09582880040807
  0
LINE
  8
_0-1_計細線
  6
CONTINUOUS
 62
    3
 10
942.46487216267951
 20
669.09582880040773
 11
929.16487216267933
 21
669.09582880040773
  0
LINE
  8
_0-1_計細線
  6
CONTINUOUS
 62
    3
 10
942.46487216267906
 20
656.09582880040807
 11
929.16487216267933
 21
656.09582880040807
  0
LINE
  8
_0-1_計細線
  6
CONTINUOUS
 62
    3
 10
976.46487235248742
 20
669.09582880040773
 11
962.86487235248751
 21
669.09582880040773
  0
LINE
  8
_0-1_計細線
  6
CONTINUOUS
 62
    3
 10
993.46487235265954
 20
669.09582880040773
 11
979.86487235265929
 21
669.09582880040773
  0
LINE
  8
_0-1_計細線
  6
CONTINUOUS
 62
    3
 10
1010.4648723528312
 20
669.09582880040773
 11
996.86487235283107
 21
669.09582880040773
  0
LINE
  8
_0-1_計細線
  6
CONTINUOUS
 62
    3
 10
1027.4648723530031
 20
669.09582880040773
 11
1013.8648723530031
 21
669.09582880040773
  0
LINE
  8
_0-1_計細線
  6
CONTINUOUS
 62
    3
 10
976.46487235248742
 20
656.09582880040807
 11
962.86487235248751
 21
656.09582880040807
  0
LINE
  8
_0-1_計細線
  6
CONTINUOUS
 62
    3
 10
993.46487235265909
 20
656.09582880040807
 11
979.86487235265929
 21
656.09582880040807
  0
LINE
  8
_0-1_計細線
  6
CONTINUOUS
 62
    3
 10
1010.4648723528312
 20
656.09582880040807
 11
996.86487235283153
 21
656.09582880040807
  0
LINE
  8
_0-1_計細線
  6
CONTINUOUS
 62
    3
 10
1027.4648723530033
 20
656.09582880040807
 11
1013.8648723530031
 21
656.09582880040807
  0
LINE
  8
_0-1_計細線
  6
CONTINUOUS
 62
    3
 10
1217.8648721657914
 20
669.09582880040773
 11
1231.4648721657916
 21
669.09582880040773
  0
LINE
  8
_0-1_計細線
  6
CONTINUOUS
 62
    3
 10
1200.8648721656195
 20
669.09582880040773
 11
1214.4648721656197
 21
669.09582880040773
  0
LINE
  8
_0-1_計細線
  6
CONTINUOUS
 62
    3
 10
1183.8648721654477
 20
669.09582880040773
 11
1197.4648721654478
 21
669.09582880040773
  0
LINE
  8
_0-1_計細線
  6
CONTINUOUS
 62
    3
 10
1030.8648721629334
 20
669.09582880040773
 11
1044.4648721629335
 21
669.09582880040773
  0
LINE
  8
_0-1_計細線
  6
CONTINUOUS
 62
    3
 10
1166.8648721652762
 20
669.09582880040773
 11
1180.4648721652761
 21
669.09582880040773
  0
LINE
  8
_0-1_計細線
  6
CONTINUOUS
 62
    3
 10
1149.8648721649142
 20
669.09582880040773
 11
1163.4648721649141
 21
669.09582880040773
  0
LINE
  8
_0-1_計細線
  6
CONTINUOUS
 62
    3
 10
1047.8648721629334
 20
669.09582880040773
 11
1061.4648721629335
 21
669.09582880040773
  0
LINE
  8
_0-1_計細線
  6
CONTINUOUS
 62
    3
 10
1064.8648721632956
 20
669.09582880040773
 11
1078.4648721632955
 21
669.09582880040773
  0
LINE
  8
_0-1_計細線
  6
CONTINUOUS
 62
    3
 10
1081.8648721636573
 20
669.09582880040773
 11
1095.464872163657
 21
669.09582880040773
  0
LINE
  8
_0-1_計細線
  6
CONTINUOUS
 62
    3
 10
1115.8648721643806
 20
669.09582880040773
 11
1129.4648721643805
 21
669.09582880040773
  0
LINE
  8
_0-1_計細線
  6
CONTINUOUS
 62
    3
 10
1132.8648721647426
 20
669.09582880040773
 11
1146.4648721647425
 21
669.09582880040773
  0
LINE
  8
_0-1_計細線
  6
CONTINUOUS
 62
    3
 10
1217.8648721657917
 20
656.09582880040807
 11
1231.4648721657918
 21
656.09582880040807
  0
LINE
  8
_0-1_計細線
  6
CONTINUOUS
 62
    3
 10
1200.8648721656195
 20
656.09582880040807
 11
1214.4648721656197
 21
656.09582880040807
  0
LINE
  8
_0-1_計細線
  6
CONTINUOUS
 62
    3
 10
1183.8648721654477
 20
656.09582880040807
 11
1197.4648721654478
 21
656.09582880040807
  0
LINE
  8
_0-1_計細線
  6
CONTINUOUS
 62
    3
 10
1030.8648721629334
 20
656.09582880040807
 11
1044.4648721629335
 21
656.09582880040807
  0
LINE
  8
_0-1_計細線
  6
CONTINUOUS
 62
    3
 10
1166.8648721652755
 20
656.09582880040807
 11
1180.4648721652761
 21
656.09582880040807
  0
LINE
  8
_0-1_計細線
  6
CONTINUOUS
 62
    3
 10
1149.8648721649142
 20
656.09582880040807
 11
1163.4648721649141
 21
656.09582880040807
  0
LINE
  8
_0-1_計細線
  6
CONTINUOUS
 62
    3
 10
1047.8648721629334
 20
656.09582880040807
 11
1061.4648721629335
 21
656.09582880040807
  0
LINE
  8
_0-1_計細線
  6
CONTINUOUS
 62
    3
 10
1064.8648721632953
 20
656.09582880040807
 11
1078.4648721632952
 21
656.09582880040807
  0
LINE
  8
_0-1_計細線
  6
CONTINUOUS
 62
    3
 10
1081.8648721636573
 20
656.09582880040807
 11
1095.4648721636568
 21
656.09582880040807
  0
LINE
  8
_0-1_計細線
  6
CONTINUOUS
 62
    3
 10
1115.8648721643804
 20
656.09582880040807
 11
1129.4648721643805
 21
656.09582880040807
  0
LINE
  8
_0-1_計細線
  6
CONTINUOUS
 62
    3
 10
1132.8648721647426
 20
656.09582880040807
 11
1146.4648721647425
 21
656.09582880040807
  0
ARC
  8
_0-1_計細線
  6
CONTINUOUS
 62
    3
 10
1262.4648721651679
 20
671.795828800408
 40
1.0000000000000004
 50
89.999999999999915
 51
179.99999999999983
  0
ARC
  8
_0-1_計細線
  6
CONTINUOUS
 62
    3
 10
1262.9328213564959
 20
673.79582880040755
 40
1.0000000000000004
 50
269.99999999999977
 51
330.00000000000711
  0
ARC
  8
_0-1_計細線
  6
CONTINUOUS
 62
    3
 10
1264.6648721640645
 20
672.79582880040789
 40
1.0000000000000004
 50
89.999999999999915
 51
150.00000000000836
  0
LINE
  8
_0-1_計細線
  6
CONTINUOUS
 62
    3
 10
1262.4648721651679
 20
672.79582880040789
 11
1262.9328213564959
 21
672.79582880040789
  0
ARC
  8
_0-1_計細線
  6
CONTINUOUS
 62
    3
 10
1271.8648721629611
 20
671.795828800408
 40
1.0000000000000004
 50
0
 51
89.999999999999915
  0
ARC
  8
_0-1_計細線
  6
CONTINUOUS
 62
    3
 10
1271.3969229716333
 20
673.79582880040755
 40
1.0000000000000004
 50
209.99999999999216
 51
269.99999999999977
  0
ARC
  8
_0-1_計細線
  6
CONTINUOUS
 62
    3
 10
1269.6648721640647
 20
672.79582880040789
 40
1.0000000000000004
 50
29.99999999999816
 51
89.999999999999915
  0
LINE
  8
_0-1_計細線
  6
CONTINUOUS
 62
    3
 10
1271.8648721629611
 20
672.79582880040789
 11
1271.3969229716333
 21
672.79582880040789
  0
ARC
  8
_0-1_計細線
  6
CONTINUOUS
 62
    3
 10
1261.9648721651681
 20
670.39582880040814
 40
0.5000000000000002
 50
179.99999999999983
 51
269.99999999999977
  0
LINE
  8
_0-1_計細線
  6
CONTINUOUS
 62
    3
 10
1261.4648721651681
 20
671.795828800408
 11
1261.4648721651681
 21
670.39582880040814
  0
ARC
  8
_0-1_計細線
  6
CONTINUOUS
 62
    3
 10
1272.3648721629611
 20
670.39582880040814
 40
0.5000000000000002
 50
269.99999999999977
 51
359.99999999999966
  0
LINE
  8
_0-1_計細線
  6
CONTINUOUS
 62
    3
 10
1272.8648721629609
 20
671.795828800408
 11
1272.8648721629609
 21
670.39582880040814
  0
ARC
  8
_0-1_計細線
  6
CONTINUOUS
 62
    3
 10
1264.4648721651683
 20
668.89582880040803
 40
1.0000000000000004
 50
0
 51
89.999999999999915
  0
LINE
  8
_0-1_計細線
  6
CONTINUOUS
 62
    3
 10
1264.4648721651683
 20
669.89582880040768
 11
1261.9648721651681
 21
669.89582880040768
  0
ARC
  8
_0-1_計細線
  6
CONTINUOUS
 62
    3
 10
1269.864872165168
 20
668.89582880040803
 40
1.0000000000000004
 50
89.999999999999915
 51
179.99999999999983
  0
LINE
  8
_0-1_計細線
  6
CONTINUOUS
 62
    3
 10
1269.8648721629606
 20
669.89582880040768
 11
1272.3648721629611
 21
669.89582880040768
  0
LINE
  8
_0-1_計細線
  6
CONTINUOUS
 62
    3
 10
1269.6648721640647
 20
673.79582880040755
 11
1264.6648721640645
 21
673.79582880040755
  0
LINE
  8
_0-1_計細線
  6
CONTINUOUS
 62
    3
 10
1265.4648721640644
 20
648.79582880040789
 11
1265.4648721651679
 21
668.89582880040803
  0
LINE
  8
_0-1_計細線
  6
CONTINUOUS
 62
    3
 10
1268.8648721640648
 20
648.79582880040789
 11
1268.8648721651682
 21
668.89582880040803
  0
LINE
  8
_0-1_計細線
  6
CONTINUOUS
 62
    3
 10
1268.8648721640648
 20
648.79582880040789
 11
1265.4648721640644
 21
648.79582880040789
  0
ARC
  8
_0-1_計細線
  6
CONTINUOUS
 62
    3
 10
1245.4648721649962
 20
671.795828800408
 40
1.0000000000000004
 50
89.999999999999915
 51
179.99999999999983
  0
ARC
  8
_0-1_計細線
  6
CONTINUOUS
 62
    3
 10
1245.9328213563238
 20
673.79582880040755
 40
1.0000000000000004
 50
269.99999999999977
 51
330.00000000001364
  0
ARC
  8
_0-1_計細線
  6
CONTINUOUS
 62
    3
 10
1247.6648721638924
 20
672.79582880040789
 40
1.0000000000000004
 50
89.999999999999915
 51
149.99999999999534
  0
LINE
  8
_0-1_計細線
  6
CONTINUOUS
 62
    3
 10
1245.4648721649962
 20
672.79582880040789
 11
1245.9328213563238
 21
672.79582880040789
  0
ARC
  8
_0-1_計細線
  6
CONTINUOUS
 62
    3
 10
1254.8648721627894
 20
671.795828800408
 40
1.0000000000000004
 50
0
 51
89.999999999999915
  0
ARC
  8
_0-1_計細線
  6
CONTINUOUS
 62
    3
 10
1254.3969229714614
 20
673.79582880040755
 40
1.0000000000000004
 50
209.99999999999866
 51
269.99999999999977
  0
ARC
  8
_0-1_計細線
  6
CONTINUOUS
 62
    3
 10
1252.6648721638926
 20
672.79582880040789
 40
1.0000000000000004
 50
29.999999999985132
 51
89.999999999986969
  0
LINE
  8
_0-1_計細線
  6
CONTINUOUS
 62
    3
 10
1254.8648721627894
 20
672.79582880040789
 11
1254.3969229714614
 21
672.79582880040789
  0
ARC
  8
_0-1_計細線
  6
CONTINUOUS
 62
    3
 10
1244.9648721649965
 20
670.39582880040814
 40
0.5000000000000002
 50
179.99999999999983
 51
269.99999999999977
  0
LINE
  8
_0-1_計細線
  6
CONTINUOUS
 62
    3
 10
1244.4648721649965
 20
671.795828800408
 11
1244.4648721649965
 21
670.39582880040814
  0
ARC
  8
_0-1_計細線
  6
CONTINUOUS
 62
    3
 10
1255.3648721627894
 20
670.39582880040814
 40
0.5000000000000002
 50
269.99999999999977
 51
359.99999999999966
  0
LINE
  8
_0-1_計細線
  6
CONTINUOUS
 62
    3
 10
1255.8648721627892
 20
671.795828800408
 11
1255.8648721627892
 21
670.39582880040814
  0
ARC
  8
_0-1_計細線
  6
CONTINUOUS
 62
    3
 10
1247.4648721649962
 20
668.89582880040803
 40
1.0000000000000004
 50
0
 51
89.999999999999915
  0
LINE
  8
_0-1_計細線
  6
CONTINUOUS
 62
    3
 10
1247.4648721649962
 20
669.89582880040768
 11
1244.9648721649965
 21
669.89582880040768
  0
ARC
  8
_0-1_計細線
  6
CONTINUOUS
 62
    3
 10
1252.8648721649963
 20
668.89582880040803
 40
1.0000000000000004
 50
89.999999999999915
 51
179.99999999999983
  0
LINE
  8
_0-1_計細線
  6
CONTINUOUS
 62
    3
 10
1252.864872162789
 20
669.89582880040768
 11
1255.3648721627894
 21
669.89582880040768
  0
LINE
  8
_0-1_計細線
  6
CONTINUOUS
 62
    3
 10
1252.6648721638926
 20
673.79582880040755
 11
1247.6648721638924
 21
673.79582880040755
  0
LINE
  8
_0-1_計細線
  6
CONTINUOUS
 62
    3
 10
1248.4648721638926
 20
648.79582880040789
 11
1248.4648721649962
 21
668.89582880040803
  0
LINE
  8
_0-1_計細線
  6
CONTINUOUS
 62
    3
 10
1251.8648721638926
 20
648.79582880040789
 11
1251.8648721649965
 21
668.89582880040803
  0
LINE
  8
_0-1_計細線
  6
CONTINUOUS
 62
    3
 10
1251.8648721638926
 20
648.79582880040789
 11
1248.4648721638926
 21
648.79582880040789
  0
ARC
  8
_0-1_計細線
  6
CONTINUOUS
 62
    3
 10
1295.764872165855
 20
671.795828800408
 40
1.0000000000000004
 50
89.999999999999915
 51
179.99999999999983
  0
ARC
  8
_0-1_計細線
  6
CONTINUOUS
 62
    3
 10
1296.2328213571832
 20
673.79582880040755
 40
1.0000000000000004
 50
269.99999999999977
 51
330.00000000000711
  0
ARC
  8
_0-1_計細線
  6
CONTINUOUS
 62
    3
 10
1297.9648721647516
 20
672.79582880040789
 40
1.0000000000000004
 50
89.999999999999915
 51
150.00000000000185
  0
LINE
  8
_0-1_計細線
  6
CONTINUOUS
 62
    3
 10
1295.764872165855
 20
672.79582880040789
 11
1296.2328213571832
 21
672.79582880040789
  0
ARC
  8
_0-1_計細線
  6
CONTINUOUS
 62
    3
 10
1305.1648721636482
 20
671.795828800408
 40
1.0000000000000004
 50
0
 51
89.999999999999915
  0
ARC
  8
_0-1_計細線
  6
CONTINUOUS
 62
    3
 10
1304.6969229723206
 20
673.79582880040755
 40
1.0000000000000004
 50
209.99999999999216
 51
269.99999999999977
  0
ARC
  8
_0-1_計細線
  6
CONTINUOUS
 62
    3
 10
1302.9648721647516
 20
672.79582880040789
 40
1.0000000000000004
 50
29.999999999991644
 51
89.999999999973952
  0
LINE
  8
_0-1_計細線
  6
CONTINUOUS
 62
    3
 10
1305.1648721636482
 20
672.79582880040789
 11
1304.6969229723206
 21
672.79582880040789
  0
ARC
  8
_0-1_計細線
  6
CONTINUOUS
 62
    3
 10
1295.2648721658552
 20
670.39582880040814
 40
0.5000000000000002
 50
179.99999999999983
 51
269.99999999999977
  0
LINE
  8
_0-1_計細線
  6
CONTINUOUS
 62
    3
 10
1294.7648721658556
 20
671.795828800408
 11
1294.7648721658556
 21
670.39582880040814
  0
ARC
  8
_0-1_計細線
  6
CONTINUOUS
 62
    3
 10
1305.6648721636484
 20
670.39582880040814
 40
0.5000000000000002
 50
269.99999999999977
 51
359.99999999999966
  0
LINE
  8
_0-1_計細線
  6
CONTINUOUS
 62
    3
 10
1306.1648721636479
 20
671.795828800408
 11
1306.1648721636479
 21
670.39582880040814
  0
ARC
  8
_0-1_計細線
  6
CONTINUOUS
 62
    3
 10
1297.7648721658556
 20
668.89582880040803
 40
1.0000000000000004
 50
0
 51
89.999999999999915
  0
LINE
  8
_0-1_計細線
  6
CONTINUOUS
 62
    3
 10
1297.7648721658556
 20
669.89582880040768
 11
1295.2648721658552
 21
669.89582880040768
  0
ARC
  8
_0-1_計細線
  6
CONTINUOUS
 62
    3
 10
1303.1648721658551
 20
668.89582880040803
 40
1.0000000000000004
 50
89.999999999999915
 51
179.99999999999983
  0
LINE
  8
_0-1_計細線
  6
CONTINUOUS
 62
    3
 10
1303.1648721636479
 20
669.89582880040768
 11
1305.6648721636484
 21
669.89582880040768
  0
LINE
  8
_0-1_計細線
  6
CONTINUOUS
 62
    3
 10
1302.9648721647516
 20
673.79582880040755
 11
1297.9648721647516
 21
673.79582880040755
  0
LINE
  8
_0-1_計細線
  6
CONTINUOUS
 62
    3
 10
1298.7648721647518
 20
648.79582880040789
 11
1298.7648721658552
 21
668.89582880040803
  0
LINE
  8
_0-1_計細線
  6
CONTINUOUS
 62
    3
 10
1302.1648721647521
 20
648.79582880040789
 11
1302.1648721658557
 21
668.89582880040803
  0
LINE
  8
_0-1_計細線
  6
CONTINUOUS
 62
    3
 10
1302.1648721647521
 20
648.79582880040789
 11
1298.7648721647518
 21
648.79582880040789
  0
ARC
  8
_0-1_計細線
  6
CONTINUOUS
 62
    3
 10
1279.1648721655299
 20
671.795828800408
 40
1.0000000000000004
 50
89.999999999999915
 51
179.99999999999983
  0
ARC
  8
_0-1_計細線
  6
CONTINUOUS
 62
    3
 10
1279.6328213568574
 20
673.79582880040755
 40
1.0000000000000004
 50
269.99999999999977
 51
330.00000000001364
  0
ARC
  8
_0-1_計細線
  6
CONTINUOUS
 62
    3
 10
1281.3648721644263
 20
672.79582880040789
 40
1.0000000000000004
 50
89.999999999999915
 51
149.99999999999534
  0
LINE
  8
_0-1_計細線
  6
CONTINUOUS
 62
    3
 10
1279.1648721655299
 20
672.79582880040789
 11
1279.6328213568574
 21
672.79582880040789
  0
ARC
  8
_0-1_計細線
  6
CONTINUOUS
 62
    3
 10
1288.5648721633229
 20
671.795828800408
 40
1.0000000000000004
 50
0
 51
89.999999999999915
  0
ARC
  8
_0-1_計細線
  6
CONTINUOUS
 62
    3
 10
1288.0969229719954
 20
673.79582880040755
 40
1.0000000000000004
 50
209.99999999997914
 51
269.99999999999977
  0
ARC
  8
_0-1_計細線
  6
CONTINUOUS
 62
    3
 10
1286.3648721644263
 20
672.79582880040789
 40
1.0000000000000004
 50
29.999999999991644
 51
89.99999999996092
  0
LINE
  8
_0-1_計細線
  6
CONTINUOUS
 62
    3
 10
1288.5648721633229
 20
672.79582880040789
 11
1288.0969229719954
 21
672.79582880040789
  0
ARC
  8
_0-1_計細線
  6
CONTINUOUS
 62
    3
 10
1278.6648721655299
 20
670.39582880040814
 40
0.5000000000000002
 50
179.99999999999983
 51
269.99999999999977
  0
LINE
  8
_0-1_計細線
  6
CONTINUOUS
 62
    3
 10
1278.1648721655299
 20
671.795828800408
 11
1278.1648721655299
 21
670.39582880040814
  0
ARC
  8
_0-1_計細線
  6
CONTINUOUS
 62
    3
 10
1289.0648721633227
 20
670.39582880040814
 40
0.5000000000000002
 50
269.99999999999977
 51
359.99999999999966
  0
LINE
  8
_0-1_計細線
  6
CONTINUOUS
 62
    3
 10
1289.5648721633229
 20
671.795828800408
 11
1289.5648721633229
 21
670.39582880040814
  0
ARC
  8
_0-1_計細線
  6
CONTINUOUS
 62
    3
 10
1281.1648721655299
 20
668.89582880040803
 40
1.0000000000000004
 50
0
 51
89.999999999999915
  0
LINE
  8
_0-1_計細線
  6
CONTINUOUS
 62
    3
 10
1281.1648721655299
 20
669.89582880040768
 11
1278.6648721655299
 21
669.89582880040768
  0
ARC
  8
_0-1_計細線
  6
CONTINUOUS
 62
    3
 10
1286.5648721655302
 20
668.89582880040803
 40
1.0000000000000004
 50
89.999999999999915
 51
179.99999999999983
  0
LINE
  8
_0-1_計細線
  6
CONTINUOUS
 62
    3
 10
1286.5648721633227
 20
669.89582880040768
 11
1289.0648721633227
 21
669.89582880040768
  0
LINE
  8
_0-1_計細線
  6
CONTINUOUS
 62
    3
 10
1286.3648721644263
 20
673.79582880040755
 11
1281.3648721644263
 21
673.79582880040755
  0
LINE
  8
_0-1_計細線
  6
CONTINUOUS
 62
    3
 10
1282.1648721644265
 20
648.79582880040789
 11
1282.1648721655299
 21
668.89582880040803
  0
LINE
  8
_0-1_計細線
  6
CONTINUOUS
 62
    3
 10
1285.5648721644263
 20
648.79582880040789
 11
1285.56487216553
 21
668.89582880040803
  0
LINE
  8
_0-1_計細線
  6
CONTINUOUS
 62
    3
 10
1285.5648721644263
 20
648.79582880040789
 11
1282.1648721644265
 21
648.79582880040789
  0
ARC
  8
_0-1_計細線
  6
CONTINUOUS
 62
    3
 10
948.86487216267994
 20
671.795828800408
 40
1.0000000000000004
 50
0
 51
89.999999999999915
  0
ARC
  8
_0-1_計細線
  6
CONTINUOUS
 62
    3
 10
948.39692297135218
 20
673.79582880040755
 40
1.0000000000000004
 50
209.99999999998565
 51
269.99999999999977
  0
ARC
  8
_0-1_計細線
  6
CONTINUOUS
 62
    3
 10
946.66487216378323
 20
672.79582880040789
 40
1.0000000000000004
 50
29.99999999999816
 51
89.999999999999915
  0
LINE
  8
_0-1_計細線
  6
CONTINUOUS
 62
    3
 10
948.86487216267994
 20
672.79582880040789
 11
948.39692297135218
 21
672.79582880040789
  0
ARC
  8
_0-1_計細線
  6
CONTINUOUS
 62
    3
 10
939.46487216488663
 20
671.795828800408
 40
1.0000000000000004
 50
89.999999999999915
 51
179.99999999999983
  0
ARC
  8
_0-1_計細線
  6
CONTINUOUS
 62
    3
 10
939.93282135621428
 20
673.79582880040755
 40
1.0000000000000004
 50
269.99999999999977
 51
330.00000000002012
  0
ARC
  8
_0-1_計細線
  6
CONTINUOUS
 62
    3
 10
941.664872163783
 20
672.79582880040789
 40
1.0000000000000004
 50
89.999999999999915
 51
149.99999999999534
  0
LINE
  8
_0-1_計細線
  6
CONTINUOUS
 62
    3
 10
939.46487216488663
 20
672.79582880040789
 11
939.93282135621428
 21
672.79582880040789
  0
ARC
  8
_0-1_計細線
  6
CONTINUOUS
 62
    3
 10
949.36487216267949
 20
670.39582880040814
 40
0.5000000000000002
 50
269.99999999999977
 51
359.99999999999966
  0
LINE
  8
_0-1_計細線
  6
CONTINUOUS
 62
    3
 10
949.8648721626796
 20
671.795828800408
 11
949.8648721626796
 21
670.39582880040814
  0
ARC
  8
_0-1_計細線
  6
CONTINUOUS
 62
    3
 10
938.96487216488663
 20
670.39582880040814
 40
0.5000000000000002
 50
179.99999999999983
 51
269.99999999999977
  0
LINE
  8
_0-1_計細線
  6
CONTINUOUS
 62
    3
 10
938.46487216488697
 20
671.795828800408
 11
938.46487216488697
 21
670.39582880040814
  0
ARC
  8
_0-1_計細線
  6
CONTINUOUS
 62
    3
 10
946.86487216267949
 20
668.89582880040803
 40
1.0000000000000004
 50
89.999999999999915
 51
179.99999999999983
  0
LINE
  8
_0-1_計細線
  6
CONTINUOUS
 62
    3
 10
946.86487216267949
 20
669.89582880040768
 11
949.36487216267949
 21
669.89582880040768
  0
ARC
  8
_0-1_計細線
  6
CONTINUOUS
 62
    3
 10
941.46487216267985
 20
668.89582880040803
 40
1.0000000000000004
 50
0
 51
89.999999999999915
  0
LINE
  8
_0-1_計細線
  6
CONTINUOUS
 62
    3
 10
941.46487216488697
 20
669.89582880040768
 11
938.96487216488663
 21
669.89582880040768
  0
LINE
  8
_0-1_計細線
  6
CONTINUOUS
 62
    3
 10
941.664872163783
 20
673.79582880040755
 11
946.66487216378323
 21
673.79582880040755
  0
LINE
  8
_0-1_計細線
  6
CONTINUOUS
 62
    3
 10
945.86487216378316
 20
648.79582880040789
 11
945.86487216267972
 21
668.89582880040803
  0
LINE
  8
_0-1_計細線
  6
CONTINUOUS
 62
    3
 10
942.4648721637833
 20
648.79582880040789
 11
942.46487216267951
 21
668.89582880040803
  0
LINE
  8
_0-1_計細線
  6
CONTINUOUS
 62
    3
 10
942.4648721637833
 20
648.79582880040789
 11
945.86487216378316
 21
648.79582880040789
  0
ARC
  8
_0-1_計細線
  6
CONTINUOUS
 62
    3
 10
915.56487216144046
 20
671.795828800408
 40
1.0000000000000004
 50
0
 51
89.999999999999915
  0
ARC
  8
_0-1_計細線
  6
CONTINUOUS
 62
    3
 10
915.09692297011293
 20
673.79582880040755
 40
1.0000000000000004
 50
209.99999999998565
 51
269.99999999999977
  0
ARC
  8
_0-1_計細線
  6
CONTINUOUS
 62
    3
 10
913.36487216254443
 20
672.79582880040789
 40
1.0000000000000004
 50
30.000000000004672
 51
89.999999999999915
  0
LINE
  8
_0-1_計細線
  6
CONTINUOUS
 62
    3
 10
915.56487216144046
 20
672.79582880040789
 11
915.09692297011293
 21
672.79582880040789
  0
ARC
  8
_0-1_計細線
  6
CONTINUOUS
 62
    3
 10
906.1648721636476
 20
671.795828800408
 40
1.0000000000000004
 50
89.999999999999915
 51
179.99999999999983
  0
ARC
  8
_0-1_計細線
  6
CONTINUOUS
 62
    3
 10
906.63282135497525
 20
673.79582880040755
 40
1.0000000000000004
 50
269.99999999999977
 51
330.00000000001364
  0
ARC
  8
_0-1_計細線
  6
CONTINUOUS
 62
    3
 10
908.36487216254409
 20
672.79582880040789
 40
1.0000000000000004
 50
90.000000000013031
 51
150.00000000000185
  0
LINE
  8
_0-1_計細線
  6
CONTINUOUS
 62
    3
 10
906.1648721636476
 20
672.79582880040789
 11
906.63282135497525
 21
672.79582880040789
  0
ARC
  8
_0-1_計細線
  6
CONTINUOUS
 62
    3
 10
916.06487216144069
 20
670.39582880040814
 40
0.5000000000000002
 50
269.99999999999977
 51
359.99999999999966
  0
LINE
  8
_0-1_計細線
  6
CONTINUOUS
 62
    3
 10
916.56487216144058
 20
671.795828800408
 11
916.56487216144058
 21
670.39582880040814
  0
ARC
  8
_0-1_計細線
  6
CONTINUOUS
 62
    3
 10
905.66487216364737
 20
670.39582880040814
 40
0.5000000000000002
 50
179.99999999999983
 51
269.99999999999977
  0
LINE
  8
_0-1_計細線
  6
CONTINUOUS
 62
    3
 10
905.16487216364783
 20
671.795828800408
 11
905.16487216364783
 21
670.39582880040814
  0
ARC
  8
_0-1_計細線
  6
CONTINUOUS
 62
    3
 10
913.56487216144035
 20
668.89582880040803
 40
1.0000000000000004
 50
89.999999999999915
 51
179.99999999999983
  0
LINE
  8
_0-1_計細線
  6
CONTINUOUS
 62
    3
 10
913.56487216144035
 20
669.89582880040768
 11
916.06487216144069
 21
669.89582880040768
  0
ARC
  8
_0-1_計細線
  6
CONTINUOUS
 62
    3
 10
908.16487216144037
 20
668.89582880040803
 40
1.0000000000000004
 50
0
 51
89.999999999999915
  0
LINE
  8
_0-1_計細線
  6
CONTINUOUS
 62
    3
 10
908.16487216364806
 20
669.89582880040768
 11
905.66487216364737
 21
669.89582880040768
  0
LINE
  8
_0-1_計細線
  6
CONTINUOUS
 62
    3
 10
908.36487216254409
 20
673.79582880040755
 11
913.36487216254443
 21
673.79582880040755
  0
LINE
  8
_0-1_計細線
  6
CONTINUOUS
 62
    3
 10
912.56487216254413
 20
648.79582880040789
 11
912.5648721614408
 21
668.89582880040803
  0
LINE
  8
_0-1_計細線
  6
CONTINUOUS
 62
    3
 10
909.16487216254404
 20
648.79582880040789
 11
909.16487216144048
 21
668.89582880040803
  0
LINE
  8
_0-1_計細線
  6
CONTINUOUS
 62
    3
 10
909.16487216254404
 20
648.79582880040789
 11
912.56487216254413
 21
648.79582880040789
  0
ARC
  8
_0-1_計細線
  6
CONTINUOUS
 62
    3
 10
932.16487216176597
 20
671.795828800408
 40
1.0000000000000004
 50
0
 51
89.999999999999915
  0
ARC
  8
_0-1_計細線
  6
CONTINUOUS
 62
    3
 10
931.69692297043821
 20
673.79582880040755
 40
1.0000000000000004
 50
209.99999999999216
 51
269.99999999999977
  0
ARC
  8
_0-1_計細線
  6
CONTINUOUS
 62
    3
 10
929.9648721628696
 20
672.79582880040789
 40
1.0000000000000004
 50
29.99999999999816
 51
89.999999999999915
  0
LINE
  8
_0-1_計細線
  6
CONTINUOUS
 62
    3
 10
932.16487216176597
 20
672.79582880040789
 11
931.69692297043821
 21
672.79582880040789
  0
ARC
  8
_0-1_計細線
  6
CONTINUOUS
 62
    3
 10
922.76487216397288
 20
671.795828800408
 40
1.0000000000000004
 50
89.999999999999915
 51
179.99999999999983
  0
ARC
  8
_0-1_計細線
  6
CONTINUOUS
 62
    3
 10
923.23282135530064
 20
673.79582880040755
 40
1.0000000000000004
 50
269.99999999999977
 51
330.00000000001364
  0
ARC
  8
_0-1_計細線
  6
CONTINUOUS
 62
    3
 10
924.96487216286937
 20
672.79582880040789
 40
1.0000000000000004
 50
90.000000000013031
 51
150.00000000000185
  0
LINE
  8
_0-1_計細線
  6
CONTINUOUS
 62
    3
 10
922.76487216397288
 20
672.79582880040789
 11
923.23282135530064
 21
672.79582880040789
  0
ARC
  8
_0-1_計細線
  6
CONTINUOUS
 62
    3
 10
932.66487216176586
 20
670.39582880040814
 40
0.5000000000000002
 50
269.99999999999977
 51
359.99999999999966
  0
LINE
  8
_0-1_計細線
  6
CONTINUOUS
 62
    3
 10
933.16487216176586
 20
671.795828800408
 11
933.16487216176586
 21
670.39582880040814
  0
ARC
  8
_0-1_計細線
  6
CONTINUOUS
 62
    3
 10
922.26487216397288
 20
670.39582880040814
 40
0.5000000000000002
 50
179.99999999999983
 51
269.99999999999977
  0
LINE
  8
_0-1_計細線
  6
CONTINUOUS
 62
    3
 10
921.764872163973
 20
671.795828800408
 11
921.764872163973
 21
670.39582880040814
  0
ARC
  8
_0-1_計細線
  6
CONTINUOUS
 62
    3
 10
930.16487216176586
 20
668.89582880040803
 40
1.0000000000000004
 50
89.999999999999915
 51
179.99999999999983
  0
LINE
  8
_0-1_計細線
  6
CONTINUOUS
 62
    3
 10
930.16487216176586
 20
669.89582880040768
 11
932.66487216176586
 21
669.89582880040768
  0
ARC
  8
_0-1_計細線
  6
CONTINUOUS
 62
    3
 10
924.76487216176588
 20
668.89582880040803
 40
1.0000000000000004
 50
0
 51
89.999999999999915
  0
LINE
  8
_0-1_計細線
  6
CONTINUOUS
 62
    3
 10
924.76487216397334
 20
669.89582880040768
 11
922.26487216397288
 21
669.89582880040768
  0
LINE
  8
_0-1_計細線
  6
CONTINUOUS
 62
    3
 10
924.96487216286937
 20
673.79582880040755
 11
929.9648721628696
 21
673.79582880040755
  0
LINE
  8
_0-1_計細線
  6
CONTINUOUS
 62
    3
 10
929.16487216286953
 20
648.79582880040789
 11
929.16487216176608
 21
668.89582880040803
  0
LINE
  8
_0-1_計細線
  6
CONTINUOUS
 62
    3
 10
925.76487216286932
 20
648.79582880040789
 11
925.76487216176577
 21
668.89582880040803
  0
LINE
  8
_0-1_計細線
  6
CONTINUOUS
 62
    3
 10
925.76487216286932
 20
648.79582880040789
 11
929.16487216286953
 21
648.79582880040789
  0
ARC
  8
_0-1_計細線
  6
CONTINUOUS
 62
    3
 10
965.86487235157449
 20
671.795828800408
 40
1.0000000000000004
 50
0
 51
89.999999999999915
  0
ARC
  8
_0-1_計細線
  6
CONTINUOUS
 62
    3
 10
965.39692316024673
 20
673.79582880040755
 40
1.0000000000000004
 50
209.99999999999216
 51
269.99999999999977
  0
ARC
  8
_0-1_計細線
  6
CONTINUOUS
 62
    3
 10
963.66487235267778
 20
672.79582880040789
 40
1.0000000000000004
 50
29.999999999991644
 51
89.999999999999915
  0
LINE
  8
_0-1_計細線
  6
CONTINUOUS
 62
    3
 10
965.86487235157449
 20
672.79582880040789
 11
965.39692316024673
 21
672.79582880040789
  0
ARC
  8
_0-1_計細線
  6
CONTINUOUS
 62
    3
 10
956.46487235378106
 20
671.795828800408
 40
1.0000000000000004
 50
89.999999999999915
 51
179.99999999999983
  0
ARC
  8
_0-1_計細線
  6
CONTINUOUS
 62
    3
 10
956.93282154510848
 20
673.79582880040755
 40
1.0000000000000004
 50
269.99999999999977
 51
330.00000000002012
  0
ARC
  8
_0-1_計細線
  6
CONTINUOUS
 62
    3
 10
958.66487235267778
 20
672.79582880040789
 40
1.0000000000000004
 50
89.999999999999915
 51
150.00000000000836
  0
LINE
  8
_0-1_計細線
  6
CONTINUOUS
 62
    3
 10
956.46487235378106
 20
672.79582880040789
 11
956.93282154510848
 21
672.79582880040789
  0
ARC
  8
_0-1_計細線
  6
CONTINUOUS
 62
    3
 10
966.36487235157415
 20
670.39582880040814
 40
0.5000000000000002
 50
269.99999999999977
 51
359.99999999999966
  0
LINE
  8
_0-1_計細線
  6
CONTINUOUS
 62
    3
 10
966.86487235157404
 20
671.795828800408
 11
966.86487235157404
 21
670.39582880040814
  0
ARC
  8
_0-1_計細線
  6
CONTINUOUS
 62
    3
 10
955.96487235378117
 20
670.39582880040814
 40
0.5000000000000002
 50
179.99999999999983
 51
269.99999999999977
  0
LINE
  8
_0-1_計細線
  6
CONTINUOUS
 62
    3
 10
955.46487235378152
 20
671.795828800408
 11
955.46487235378152
 21
670.39582880040814
  0
ARC
  8
_0-1_計細線
  6
CONTINUOUS
 62
    3
 10
963.86487235157415
 20
668.89582880040803
 40
1.0000000000000004
 50
89.999999999999915
 51
179.99999999999983
  0
LINE
  8
_0-1_計細線
  6
CONTINUOUS
 62
    3
 10
963.86487235157415
 20
669.89582880040768
 11
966.36487235157415
 21
669.89582880040768
  0
ARC
  8
_0-1_計細線
  6
CONTINUOUS
 62
    3
 10
958.4648723515744
 20
668.89582880040803
 40
1.0000000000000004
 50
0
 51
89.999999999999915
  0
LINE
  8
_0-1_計細線
  6
CONTINUOUS
 62
    3
 10
958.46487235378163
 20
669.89582880040768
 11
955.96487235378117
 21
669.89582880040768
  0
LINE
  8
_0-1_計細線
  6
CONTINUOUS
 62
    3
 10
958.66487235267778
 20
673.79582880040755
 11
963.66487235267778
 21
673.79582880040755
  0
LINE
  8
_0-1_計細線
  6
CONTINUOUS
 62
    3
 10
962.86487235267737
 20
648.79582880040789
 11
962.86487235157438
 21
668.89582880040803
  0
LINE
  8
_0-1_計細線
  6
CONTINUOUS
 62
    3
 10
959.46487235267784
 20
648.79582880040789
 11
959.46487235157394
 21
668.89582880040803
  0
LINE
  8
_0-1_計細線
  6
CONTINUOUS
 62
    3
 10
959.46487235267784
 20
648.79582880040789
 11
962.86487235267737
 21
648.79582880040789
  0
ARC
  8
_0-1_計細線
  6
CONTINUOUS
 62
    3
 10
982.86487235174593
 20
671.795828800408
 40
1.0000000000000004
 50
0
 51
89.999999999999915
  0
ARC
  8
_0-1_計細線
  6
CONTINUOUS
 62
    3
 10
982.39692316041851
 20
673.79582880040755
 40
1.0000000000000004
 50
209.99999999998565
 51
269.99999999999977
  0
ARC
  8
_0-1_計細線
  6
CONTINUOUS
 62
    3
 10
980.66487235284956
 20
672.79582880040789
 40
1.0000000000000004
 50
29.999999999991644
 51
89.999999999999915
  0
LINE
  8
_0-1_計細線
  6
CONTINUOUS
 62
    3
 10
982.86487235174593
 20
672.79582880040789
 11
982.39692316041851
 21
672.79582880040789
  0
ARC
  8
_0-1_計細線
  6
CONTINUOUS
 62
    3
 10
973.46487235395284
 20
671.795828800408
 40
1.0000000000000004
 50
89.999999999999915
 51
179.99999999999983
  0
ARC
  8
_0-1_計細線
  6
CONTINUOUS
 62
    3
 10
973.9328215452806
 20
673.79582880040755
 40
1.0000000000000004
 50
269.99999999999977
 51
330.00000000002012
  0
ARC
  8
_0-1_計細線
  6
CONTINUOUS
 62
    3
 10
975.66487235284956
 20
672.79582880040789
 40
1.0000000000000004
 50
90.000000000013031
 51
149.99999999999534
  0
LINE
  8
_0-1_計細線
  6
CONTINUOUS
 62
    3
 10
973.46487235395284
 20
672.79582880040789
 11
973.9328215452806
 21
672.79582880040789
  0
ARC
  8
_0-1_計細線
  6
CONTINUOUS
 62
    3
 10
983.36487235174616
 20
670.39582880040814
 40
0.5000000000000002
 50
269.99999999999977
 51
359.99999999999966
  0
LINE
  8
_0-1_計細線
  6
CONTINUOUS
 62
    3
 10
983.86487235174616
 20
671.795828800408
 11
983.86487235174616
 21
670.39582880040814
  0
ARC
  8
_0-1_計細線
  6
CONTINUOUS
 62
    3
 10
972.96487235395318
 20
670.39582880040814
 40
0.5000000000000002
 50
179.99999999999983
 51
269.99999999999977
  0
LINE
  8
_0-1_計細線
  6
CONTINUOUS
 62
    3
 10
972.46487235395307
 20
671.795828800408
 11
972.46487235395307
 21
670.39582880040814
  0
ARC
  8
_0-1_計細線
  6
CONTINUOUS
 62
    3
 10
980.86487235174616
 20
668.89582880040803
 40
1.0000000000000004
 50
89.999999999999915
 51
179.99999999999983
  0
LINE
  8
_0-1_計細線
  6
CONTINUOUS
 62
    3
 10
980.86487235174616
 20
669.89582880040768
 11
983.36487235174616
 21
669.89582880040768
  0
ARC
  8
_0-1_計細線
  6
CONTINUOUS
 62
    3
 10
975.46487235174595
 20
668.89582880040803
 40
1.0000000000000004
 50
0
 51
89.999999999999915
  0
LINE
  8
_0-1_計細線
  6
CONTINUOUS
 62
    3
 10
975.4648723539533
 20
669.89582880040768
 11
972.96487235395318
 21
669.89582880040768
  0
LINE
  8
_0-1_計細線
  6
CONTINUOUS
 62
    3
 10
975.66487235284956
 20
673.79582880040755
 11
980.66487235284956
 21
673.79582880040755
  0
LINE
  8
_0-1_計細線
  6
CONTINUOUS
 62
    3
 10
979.86487235284949
 20
648.79582880040789
 11
979.86487235174604
 21
668.89582880040803
  0
LINE
  8
_0-1_計細線
  6
CONTINUOUS
 62
    3
 10
976.46487235284962
 20
648.79582880040789
 11
976.46487235174607
 21
668.89582880040803
  0
LINE
  8
_0-1_計細線
  6
CONTINUOUS
 62
    3
 10
976.46487235284962
 20
648.79582880040789
 11
979.86487235284949
 21
648.79582880040789
  0
ARC
  8
_0-1_計細線
  6
CONTINUOUS
 62
    3
 10
999.86487235191771
 20
671.795828800408
 40
1.0000000000000004
 50
0
 51
89.999999999999915
  0
ARC
  8
_0-1_計細線
  6
CONTINUOUS
 62
    3
 10
999.39692316059018
 20
673.79582880040755
 40
1.0000000000000004
 50
209.99999999998565
 51
269.99999999999977
  0
ARC
  8
_0-1_計細線
  6
CONTINUOUS
 62
    3
 10
997.66487235302134
 20
672.79582880040789
 40
1.0000000000000004
 50
29.99999999999816
 51
89.999999999999915
  0
LINE
  8
_0-1_計細線
  6
CONTINUOUS
 62
    3
 10
999.86487235191771
 20
672.79582880040789
 11
999.39692316059018
 21
672.79582880040789
  0
ARC
  8
_0-1_計細線
  6
CONTINUOUS
 62
    3
 10
990.46487235412496
 20
671.795828800408
 40
1.0000000000000004
 50
89.999999999999915
 51
179.99999999999983
  0
ARC
  8
_0-1_計細線
  6
CONTINUOUS
 62
    3
 10
990.93282154545238
 20
673.79582880040755
 40
1.0000000000000004
 50
269.99999999999977
 51
330.00000000002012
  0
ARC
  8
_0-1_計細線
  6
CONTINUOUS
 62
    3
 10
992.66487235302134
 20
672.79582880040789
 40
1.0000000000000004
 50
90.000000000013031
 51
150.00000000000185
  0
LINE
  8
_0-1_計細線
  6
CONTINUOUS
 62
    3
 10
990.46487235412496
 20
672.79582880040789
 11
990.93282154545238
 21
672.79582880040789
  0
ARC
  8
_0-1_計細線
  6
CONTINUOUS
 62
    3
 10
1000.3648723519179
 20
670.39582880040814
 40
0.5000000000000002
 50
269.99999999999977
 51
359.99999999999966
  0
LINE
  8
_0-1_計細線
  6
CONTINUOUS
 62
    3
 10
1000.8648723519178
 20
671.795828800408
 11
1000.8648723519178
 21
670.39582880040814
  0
ARC
  8
_0-1_計細線
  6
CONTINUOUS
 62
    3
 10
989.96487235412462
 20
670.39582880040814
 40
0.5000000000000002
 50
179.99999999999983
 51
269.99999999999977
  0
LINE
  8
_0-1_計細線
  6
CONTINUOUS
 62
    3
 10
989.46487235412508
 20
671.795828800408
 11
989.46487235412508
 21
670.39582880040814
  0
ARC
  8
_0-1_計細線
  6
CONTINUOUS
 62
    3
 10
997.86487235191771
 20
668.89582880040803
 40
1.0000000000000004
 50
89.999999999999915
 51
179.99999999999983
  0
LINE
  8
_0-1_計細線
  6
CONTINUOUS
 62
    3
 10
997.86487235191771
 20
669.89582880040768
 11
1000.3648723519179
 21
669.89582880040768
  0
ARC
  8
_0-1_計細線
  6
CONTINUOUS
 62
    3
 10
992.46487235191762
 20
668.89582880040803
 40
1.0000000000000004
 50
0
 51
89.999999999999915
  0
LINE
  8
_0-1_計細線
  6
CONTINUOUS
 62
    3
 10
992.46487235412496
 20
669.89582880040768
 11
989.96487235412462
 21
669.89582880040768
  0
LINE
  8
_0-1_計細線
  6
CONTINUOUS
 62
    3
 10
992.66487235302134
 20
673.79582880040755
 11
997.66487235302134
 21
673.79582880040755
  0
LINE
  8
_0-1_計細線
  6
CONTINUOUS
 62
    3
 10
996.86487235302127
 20
648.79582880040789
 11
996.86487235191771
 21
668.89582880040803
  0
LINE
  8
_0-1_計細線
  6
CONTINUOUS
 62
    3
 10
993.46487235302129
 20
648.79582880040789
 11
993.46487235191773
 21
668.89582880040803
  0
LINE
  8
_0-1_計細線
  6
CONTINUOUS
 62
    3
 10
993.46487235302129
 20
648.79582880040789
 11
996.86487235302127
 21
648.79582880040789
  0
ARC
  8
_0-1_計細線
  6
CONTINUOUS
 62
    3
 10
1016.8648723520894
 20
671.795828800408
 40
1.0000000000000004
 50
0
 51
89.999999999999915
  0
ARC
  8
_0-1_計細線
  6
CONTINUOUS
 62
    3
 10
1016.396923160762
 20
673.79582880040755
 40
1.0000000000000004
 50
209.99999999999866
 51
269.99999999999977
  0
ARC
  8
_0-1_計細線
  6
CONTINUOUS
 62
    3
 10
1014.6648723531933
 20
672.79582880040789
 40
1.0000000000000004
 50
29.999999999991644
 51
89.999999999999915
  0
LINE
  8
_0-1_計細線
  6
CONTINUOUS
 62
    3
 10
1016.8648723520894
 20
672.79582880040789
 11
1016.396923160762
 21
672.79582880040789
  0
ARC
  8
_0-1_計細線
  6
CONTINUOUS
 62
    3
 10
1007.4648723542966
 20
671.795828800408
 40
1.0000000000000004
 50
89.999999999999915
 51
179.99999999999983
  0
ARC
  8
_0-1_計細線
  6
CONTINUOUS
 62
    3
 10
1007.9328215456242
 20
673.79582880040755
 40
1.0000000000000004
 50
269.99999999999977
 51
330.00000000001364
  0
ARC
  8
_0-1_計細線
  6
CONTINUOUS
 62
    3
 10
1009.6648723531933
 20
672.79582880040789
 40
1.0000000000000004
 50
90.000000000026048
 51
150.00000000000836
  0
LINE
  8
_0-1_計細線
  6
CONTINUOUS
 62
    3
 10
1007.4648723542966
 20
672.79582880040789
 11
1007.9328215456242
 21
672.79582880040789
  0
ARC
  8
_0-1_計細線
  6
CONTINUOUS
 62
    3
 10
1017.3648723520897
 20
670.39582880040814
 40
0.5000000000000002
 50
269.99999999999977
 51
359.99999999999966
  0
LINE
  8
_0-1_計細線
  6
CONTINUOUS
 62
    3
 10
1017.8648723520896
 20
671.795828800408
 11
1017.8648723520896
 21
670.39582880040814
  0
ARC
  8
_0-1_計細線
  6
CONTINUOUS
 62
    3
 10
1006.9648723542969
 20
670.39582880040814
 40
0.5000000000000002
 50
179.99999999999983
 51
269.99999999999977
  0
LINE
  8
_0-1_計細線
  6
CONTINUOUS
 62
    3
 10
1006.4648723542967
 20
671.795828800408
 11
1006.4648723542967
 21
670.39582880040814
  0
ARC
  8
_0-1_計細線
  6
CONTINUOUS
 62
    3
 10
1014.8648723520894
 20
668.89582880040803
 40
1.0000000000000004
 50
89.999999999999915
 51
179.99999999999983
  0
LINE
  8
_0-1_計細線
  6
CONTINUOUS
 62
    3
 10
1014.8648723520894
 20
669.89582880040768
 11
1017.3648723520897
 21
669.89582880040768
  0
ARC
  8
_0-1_計細線
  6
CONTINUOUS
 62
    3
 10
1009.4648723520893
 20
668.89582880040803
 40
1.0000000000000004
 50
0
 51
89.999999999999915
  0
LINE
  8
_0-1_計細線
  6
CONTINUOUS
 62
    3
 10
1009.4648723542967
 20
669.89582880040768
 11
1006.9648723542969
 21
669.89582880040768
  0
LINE
  8
_0-1_計細線
  6
CONTINUOUS
 62
    3
 10
1009.6648723531933
 20
673.79582880040755
 11
1014.6648723531933
 21
673.79582880040755
  0
LINE
  8
_0-1_計細線
  6
CONTINUOUS
 62
    3
 10
1013.8648723531931
 20
648.79582880040789
 11
1013.8648723520895
 21
668.89582880040803
  0
LINE
  8
_0-1_計細線
  6
CONTINUOUS
 62
    3
 10
1010.4648723531931
 20
648.79582880040789
 11
1010.4648723520895
 21
668.89582880040803
  0
LINE
  8
_0-1_計細線
  6
CONTINUOUS
 62
    3
 10
1010.4648723531931
 20
648.79582880040789
 11
1013.8648723531931
 21
648.79582880040789
  0
ARC
  8
_0-1_計細線
  6
CONTINUOUS
 62
    3
 10
1228.4648721667049
 20
671.795828800408
 40
1.0000000000000004
 50
89.999999999999915
 51
179.99999999999983
  0
ARC
  8
_0-1_計細線
  6
CONTINUOUS
 62
    3
 10
1228.9328213580322
 20
673.79582880040755
 40
1.0000000000000004
 50
269.99999999999977
 51
330.00000000001364
  0
ARC
  8
_0-1_計細線
  6
CONTINUOUS
 62
    3
 10
1230.6648721656013
 20
672.79582880040789
 40
1.0000000000000004
 50
89.999999999999915
 51
150.00000000000836
  0
LINE
  8
_0-1_計細線
  6
CONTINUOUS
 62
    3
 10
1228.4648721667049
 20
672.79582880040789
 11
1228.9328213580322
 21
672.79582880040789
  0
ARC
  8
_0-1_計細線
  6
CONTINUOUS
 62
    3
 10
1237.8648721644981
 20
671.795828800408
 40
1.0000000000000004
 50
0
 51
89.999999999999915
  0
ARC
  8
_0-1_計細線
  6
CONTINUOUS
 62
    3
 10
1237.3969229731706
 20
673.79582880040755
 40
1.0000000000000004
 50
209.99999999998565
 51
269.99999999999977
  0
ARC
  8
_0-1_計細線
  6
CONTINUOUS
 62
    3
 10
1235.6648721656013
 20
672.79582880040789
 40
1.0000000000000004
 50
29.999999999991644
 51
89.999999999999915
  0
LINE
  8
_0-1_計細線
  6
CONTINUOUS
 62
    3
 10
1237.8648721644981
 20
672.79582880040789
 11
1237.3969229731706
 21
672.79582880040789
  0
ARC
  8
_0-1_計細線
  6
CONTINUOUS
 62
    3
 10
1227.9648721667049
 20
670.39582880040814
 40
0.5000000000000002
 50
179.99999999999983
 51
269.99999999999977
  0
LINE
  8
_0-1_計細線
  6
CONTINUOUS
 62
    3
 10
1227.4648721667052
 20
671.795828800408
 11
1227.4648721667052
 21
670.39582880040814
  0
ARC
  8
_0-1_計細線
  6
CONTINUOUS
 62
    3
 10
1238.3648721644977
 20
670.39582880040814
 40
0.5000000000000002
 50
269.99999999999977
 51
359.99999999999966
  0
LINE
  8
_0-1_計細線
  6
CONTINUOUS
 62
    3
 10
1238.8648721644977
 20
671.795828800408
 11
1238.8648721644977
 21
670.39582880040814
  0
ARC
  8
_0-1_計細線
  6
CONTINUOUS
 62
    3
 10
1230.4648721667047
 20
668.89582880040803
 40
1.0000000000000004
 50
0
 51
89.999999999999915
  0
LINE
  8
_0-1_計細線
  6
CONTINUOUS
 62
    3
 10
1230.4648721667047
 20
669.89582880040768
 11
1227.9648721667049
 21
669.89582880040768
  0
ARC
  8
_0-1_計細線
  6
CONTINUOUS
 62
    3
 10
1235.864872166705
 20
668.89582880040803
 40
1.0000000000000004
 50
89.999999999999915
 51
179.99999999999983
  0
LINE
  8
_0-1_計細線
  6
CONTINUOUS
 62
    3
 10
1235.8648721644975
 20
669.89582880040768
 11
1238.3648721644977
 21
669.89582880040768
  0
LINE
  8
_0-1_計細線
  6
CONTINUOUS
 62
    3
 10
1235.6648721656013
 20
673.79582880040755
 11
1230.6648721656013
 21
673.79582880040755
  0
LINE
  8
_0-1_計細線
  6
CONTINUOUS
 62
    3
 10
1231.4648721656017
 20
648.79582880040789
 11
1231.4648721667047
 21
668.89582880040803
  0
LINE
  8
_0-1_計細線
  6
CONTINUOUS
 62
    3
 10
1234.8648721656011
 20
648.79582880040789
 11
1234.8648721667053
 21
668.89582880040803
  0
LINE
  8
_0-1_計細線
  6
CONTINUOUS
 62
    3
 10
1234.8648721656011
 20
648.79582880040789
 11
1231.4648721656017
 21
648.79582880040789
  0
ARC
  8
_0-1_計細線
  6
CONTINUOUS
 62
    3
 10
1211.4648721665333
 20
671.795828800408
 40
1.0000000000000004
 50
89.999999999999915
 51
179.99999999999983
  0
ARC
  8
_0-1_計細線
  6
CONTINUOUS
 62
    3
 10
1211.932821357861
 20
673.79582880040755
 40
1.0000000000000004
 50
269.99999999999977
 51
330.00000000000057
  0
ARC
  8
_0-1_計細線
  6
CONTINUOUS
 62
    3
 10
1213.6648721654294
 20
672.79582880040789
 40
1.0000000000000004
 50
89.999999999999915
 51
150.00000000000836
  0
LINE
  8
_0-1_計細線
  6
CONTINUOUS
 62
    3
 10
1211.4648721665333
 20
672.79582880040789
 11
1211.932821357861
 21
672.79582880040789
  0
ARC
  8
_0-1_計細線
  6
CONTINUOUS
 62
    3
 10
1220.8648721643258
 20
671.795828800408
 40
1.0000000000000004
 50
0
 51
89.999999999999915
  0
ARC
  8
_0-1_計細線
  6
CONTINUOUS
 62
    3
 10
1220.3969229729983
 20
673.79582880040755
 40
1.0000000000000004
 50
209.99999999998565
 51
269.99999999999977
  0
ARC
  8
_0-1_計細線
  6
CONTINUOUS
 62
    3
 10
1218.6648721654296
 20
672.79582880040789
 40
1.0000000000000004
 50
30.000000000004672
 51
89.999999999999915
  0
LINE
  8
_0-1_計細線
  6
CONTINUOUS
 62
    3
 10
1220.8648721643258
 20
672.79582880040789
 11
1220.3969229729983
 21
672.79582880040789
  0
ARC
  8
_0-1_計細線
  6
CONTINUOUS
 62
    3
 10
1210.9648721665333
 20
670.39582880040814
 40
0.5000000000000002
 50
179.99999999999983
 51
269.99999999999977
  0
LINE
  8
_0-1_計細線
  6
CONTINUOUS
 62
    3
 10
1210.4648721665328
 20
671.795828800408
 11
1210.4648721665328
 21
670.39582880040814
  0
ARC
  8
_0-1_計細線
  6
CONTINUOUS
 62
    3
 10
1221.3648721643262
 20
670.39582880040814
 40
0.5000000000000002
 50
269.99999999999977
 51
359.99999999999966
  0
LINE
  8
_0-1_計細線
  6
CONTINUOUS
 62
    3
 10
1221.864872164326
 20
671.795828800408
 11
1221.864872164326
 21
670.39582880040814
  0
ARC
  8
_0-1_計細線
  6
CONTINUOUS
 62
    3
 10
1213.464872166533
 20
668.89582880040803
 40
1.0000000000000004
 50
0
 51
89.999999999999915
  0
LINE
  8
_0-1_計細線
  6
CONTINUOUS
 62
    3
 10
1213.464872166533
 20
669.89582880040768
 11
1210.9648721665333
 21
669.89582880040768
  0
ARC
  8
_0-1_計細線
  6
CONTINUOUS
 62
    3
 10
1218.8648721665334
 20
668.89582880040803
 40
1.0000000000000004
 50
89.999999999999915
 51
179.99999999999983
  0
LINE
  8
_0-1_計細線
  6
CONTINUOUS
 62
    3
 10
1218.8648721643258
 20
669.89582880040768
 11
1221.3648721643262
 21
669.89582880040768
  0
LINE
  8
_0-1_計細線
  6
CONTINUOUS
 62
    3
 10
1218.6648721654296
 20
673.79582880040755
 11
1213.6648721654294
 21
673.79582880040755
  0
LINE
  8
_0-1_計細線
  6
CONTINUOUS
 62
    3
 10
1214.4648721654294
 20
648.79582880040789
 11
1214.464872166533
 21
668.89582880040803
  0
LINE
  8
_0-1_計細線
  6
CONTINUOUS
 62
    3
 10
1217.8648721654299
 20
648.79582880040789
 11
1217.8648721665329
 21
668.89582880040803
  0
LINE
  8
_0-1_計細線
  6
CONTINUOUS
 62
    3
 10
1217.8648721654299
 20
648.79582880040789
 11
1214.4648721654294
 21
648.79582880040789
  0
ARC
  8
_0-1_計細線
  6
CONTINUOUS
 62
    3
 10
1194.4648721663614
 20
671.795828800408
 40
1.0000000000000004
 50
89.999999999999915
 51
179.99999999999983
  0
ARC
  8
_0-1_計細線
  6
CONTINUOUS
 62
    3
 10
1194.9328213576889
 20
673.79582880040755
 40
1.0000000000000004
 50
269.99999999999977
 51
330.00000000001364
  0
ARC
  8
_0-1_計細線
  6
CONTINUOUS
 62
    3
 10
1196.6648721652575
 20
672.79582880040789
 40
1.0000000000000004
 50
89.999999999999915
 51
149.99999999999534
  0
LINE
  8
_0-1_計細線
  6
CONTINUOUS
 62
    3
 10
1194.4648721663614
 20
672.79582880040789
 11
1194.9328213576889
 21
672.79582880040789
  0
ARC
  8
_0-1_計細線
  6
CONTINUOUS
 62
    3
 10
1203.8648721641541
 20
671.795828800408
 40
1.0000000000000004
 50
0
 51
89.999999999999915
  0
ARC
  8
_0-1_計細線
  6
CONTINUOUS
 62
    3
 10
1203.3969229728268
 20
673.79582880040755
 40
1.0000000000000004
 50
209.99999999997914
 51
269.99999999999977
  0
ARC
  8
_0-1_計細線
  6
CONTINUOUS
 62
    3
 10
1201.6648721652575
 20
672.79582880040789
 40
1.0000000000000004
 50
29.999999999991644
 51
89.999999999973952
  0
LINE
  8
_0-1_計細線
  6
CONTINUOUS
 62
    3
 10
1203.8648721641541
 20
672.79582880040789
 11
1203.3969229728268
 21
672.79582880040789
  0
ARC
  8
_0-1_計細線
  6
CONTINUOUS
 62
    3
 10
1193.9648721663611
 20
670.39582880040814
 40
0.5000000000000002
 50
179.99999999999983
 51
269.99999999999977
  0
LINE
  8
_0-1_計細線
  6
CONTINUOUS
 62
    3
 10
1193.4648721663616
 20
671.795828800408
 11
1193.4648721663616
 21
670.39582880040814
  0
ARC
  8
_0-1_計細線
  6
CONTINUOUS
 62
    3
 10
1204.3648721641546
 20
670.39582880040814
 40
0.5000000000000002
 50
269.99999999999977
 51
359.99999999999966
  0
LINE
  8
_0-1_計細線
  6
CONTINUOUS
 62
    3
 10
1204.8648721641541
 20
671.795828800408
 11
1204.8648721641541
 21
670.39582880040814
  0
ARC
  8
_0-1_計細線
  6
CONTINUOUS
 62
    3
 10
1196.4648721663614
 20
668.89582880040803
 40
1.0000000000000004
 50
0
 51
89.999999999999915
  0
LINE
  8
_0-1_計細線
  6
CONTINUOUS
 62
    3
 10
1196.4648721663614
 20
669.89582880040768
 11
1193.9648721663611
 21
669.89582880040768
  0
ARC
  8
_0-1_計細線
  6
CONTINUOUS
 62
    3
 10
1201.8648721663615
 20
668.89582880040803
 40
1.0000000000000004
 50
89.999999999999915
 51
179.99999999999983
  0
LINE
  8
_0-1_計細線
  6
CONTINUOUS
 62
    3
 10
1201.8648721641541
 20
669.89582880040768
 11
1204.3648721641546
 21
669.89582880040768
  0
LINE
  8
_0-1_計細線
  6
CONTINUOUS
 62
    3
 10
1201.6648721652575
 20
673.79582880040755
 11
1196.6648721652575
 21
673.79582880040755
  0
LINE
  8
_0-1_計細線
  6
CONTINUOUS
 62
    3
 10
1197.4648721652579
 20
648.79582880040789
 11
1197.4648721663614
 21
668.89582880040803
  0
LINE
  8
_0-1_計細線
  6
CONTINUOUS
 62
    3
 10
1200.8648721652578
 20
648.79582880040789
 11
1200.8648721663617
 21
668.89582880040803
  0
LINE
  8
_0-1_計細線
  6
CONTINUOUS
 62
    3
 10
1200.8648721652578
 20
648.79582880040789
 11
1197.4648721652579
 21
648.79582880040789
  0
ARC
  8
_0-1_計細線
  6
CONTINUOUS
 62
    3
 10
1024.4648721634851
 20
671.795828800408
 40
1.0000000000000004
 50
89.999999999999915
 51
179.99999999999983
  0
ARC
  8
_0-1_計細線
  6
CONTINUOUS
 62
    3
 10
1024.9328213548126
 20
673.79582880040755
 40
1.0000000000000004
 50
269.99999999999977
 51
330.00000000001364
  0
ARC
  8
_0-1_計細線
  6
CONTINUOUS
 62
    3
 10
1026.6648721623819
 20
672.79582880040789
 40
1.0000000000000004
 50
89.999999999999915
 51
150.00000000000836
  0
LINE
  8
_0-1_計細線
  6
CONTINUOUS
 62
    3
 10
1024.4648721634851
 20
672.79582880040789
 11
1024.9328213548126
 21
672.79582880040789
  0
ARC
  8
_0-1_計細線
  6
CONTINUOUS
 62
    3
 10
1033.8648721612778
 20
671.795828800408
 40
1.0000000000000004
 50
0
 51
89.999999999999915
  0
ARC
  8
_0-1_計細線
  6
CONTINUOUS
 62
    3
 10
1033.3969229699503
 20
673.79582880040755
 40
1.0000000000000004
 50
209.99999999998565
 51
269.99999999999977
  0
ARC
  8
_0-1_計細線
  6
CONTINUOUS
 62
    3
 10
1031.6648721623815
 20
672.79582880040789
 40
1.0000000000000004
 50
29.99999999999816
 51
89.999999999986969
  0
LINE
  8
_0-1_計細線
  6
CONTINUOUS
 62
    3
 10
1033.8648721612778
 20
672.79582880040789
 11
1033.3969229699503
 21
672.79582880040789
  0
ARC
  8
_0-1_計細線
  6
CONTINUOUS
 62
    3
 10
1023.9648721634853
 20
670.39582880040814
 40
0.5000000000000002
 50
179.99999999999983
 51
269.99999999999977
  0
LINE
  8
_0-1_計細線
  6
CONTINUOUS
 62
    3
 10
1023.4648721634852
 20
671.795828800408
 11
1023.4648721634852
 21
670.39582880040814
  0
ARC
  8
_0-1_計細線
  6
CONTINUOUS
 62
    3
 10
1034.3648721612783
 20
670.39582880040814
 40
0.5000000000000002
 50
269.99999999999977
 51
359.99999999999966
  0
LINE
  8
_0-1_計細線
  6
CONTINUOUS
 62
    3
 10
1034.8648721612785
 20
671.795828800408
 11
1034.8648721612785
 21
670.39582880040814
  0
ARC
  8
_0-1_計細線
  6
CONTINUOUS
 62
    3
 10
1026.4648721634851
 20
668.89582880040803
 40
1.0000000000000004
 50
0
 51
89.999999999999915
  0
LINE
  8
_0-1_計細線
  6
CONTINUOUS
 62
    3
 10
1026.4648721634851
 20
669.89582880040768
 11
1023.9648721634853
 21
669.89582880040768
  0
ARC
  8
_0-1_計細線
  6
CONTINUOUS
 62
    3
 10
1031.8648721634852
 20
668.89582880040803
 40
1.0000000000000004
 50
89.999999999999915
 51
179.99999999999983
  0
LINE
  8
_0-1_計細線
  6
CONTINUOUS
 62
    3
 10
1031.8648721612776
 20
669.89582880040768
 11
1034.3648721612783
 21
669.89582880040768
  0
LINE
  8
_0-1_計細線
  6
CONTINUOUS
 62
    3
 10
1031.6648721623815
 20
673.79582880040755
 11
1026.6648721623819
 21
673.79582880040755
  0
LINE
  8
_0-1_計細線
  6
CONTINUOUS
 62
    3
 10
1027.4648721623814
 20
648.79582880040789
 11
1027.4648721634849
 21
668.89582880040803
  0
LINE
  8
_0-1_計細線
  6
CONTINUOUS
 62
    3
 10
1030.8648721623815
 20
648.79582880040789
 11
1030.8648721634854
 21
668.89582880040803
  0
LINE
  8
_0-1_計細線
  6
CONTINUOUS
 62
    3
 10
1030.8648721623815
 20
648.79582880040789
 11
1027.4648721623814
 21
648.79582880040789
  0
ARC
  8
_0-1_計細線
  6
CONTINUOUS
 62
    3
 10
1177.4648721661897
 20
671.795828800408
 40
1.0000000000000004
 50
89.999999999999915
 51
179.99999999999983
  0
ARC
  8
_0-1_計細線
  6
CONTINUOUS
 62
    3
 10
1177.9328213575172
 20
673.79582880040755
 40
1.0000000000000004
 50
269.99999999999977
 51
330.00000000000057
  0
ARC
  8
_0-1_計細線
  6
CONTINUOUS
 62
    3
 10
1179.6648721650859
 20
672.79582880040789
 40
1.0000000000000004
 50
89.999999999999915
 51
150.00000000000836
  0
LINE
  8
_0-1_計細線
  6
CONTINUOUS
 62
    3
 10
1177.4648721661897
 20
672.79582880040789
 11
1177.9328213575172
 21
672.79582880040789
  0
ARC
  8
_0-1_計細線
  6
CONTINUOUS
 62
    3
 10
1186.8648721639825
 20
671.795828800408
 40
1.0000000000000004
 50
0
 51
89.999999999999915
  0
ARC
  8
_0-1_計細線
  6
CONTINUOUS
 62
    3
 10
1186.3969229726545
 20
673.79582880040755
 40
1.0000000000000004
 50
210.00000000000517
 51
269.99999999999977
  0
ARC
  8
_0-1_計細線
  6
CONTINUOUS
 62
    3
 10
1184.6648721650859
 20
672.79582880040789
 40
1.0000000000000004
 50
29.999999999985132
 51
89.999999999999915
  0
LINE
  8
_0-1_計細線
  6
CONTINUOUS
 62
    3
 10
1186.8648721639825
 20
672.79582880040789
 11
1186.3969229726545
 21
672.79582880040789
  0
ARC
  8
_0-1_計細線
  6
CONTINUOUS
 62
    3
 10
1176.9648721661895
 20
670.39582880040814
 40
0.5000000000000002
 50
179.99999999999983
 51
269.99999999999977
  0
LINE
  8
_0-1_計細線
  6
CONTINUOUS
 62
    3
 10
1176.4648721661897
 20
671.795828800408
 11
1176.4648721661897
 21
670.39582880040814
  0
ARC
  8
_0-1_計細線
  6
CONTINUOUS
 62
    3
 10
1187.3648721639822
 20
670.39582880040814
 40
0.5000000000000002
 50
269.99999999999977
 51
359.99999999999966
  0
LINE
  8
_0-1_計細線
  6
CONTINUOUS
 62
    3
 10
1187.8648721639827
 20
671.795828800408
 11
1187.8648721639827
 21
670.39582880040814
  0
ARC
  8
_0-1_計細線
  6
CONTINUOUS
 62
    3
 10
1179.4648721661895
 20
668.89582880040803
 40
1.0000000000000004
 50
0
 51
89.999999999999915
  0
LINE
  8
_0-1_計細線
  6
CONTINUOUS
 62
    3
 10
1179.4648721661895
 20
669.89582880040768
 11
1176.9648721661895
 21
669.89582880040768
  0
ARC
  8
_0-1_計細線
  6
CONTINUOUS
 62
    3
 10
1184.8648721661898
 20
668.89582880040803
 40
1.0000000000000004
 50
89.999999999999915
 51
179.99999999999983
  0
LINE
  8
_0-1_計細線
  6
CONTINUOUS
 62
    3
 10
1184.8648721639822
 20
669.89582880040768
 11
1187.3648721639822
 21
669.89582880040768
  0
LINE
  8
_0-1_計細線
  6
CONTINUOUS
 62
    3
 10
1184.6648721650859
 20
673.79582880040755
 11
1179.6648721650859
 21
673.79582880040755
  0
LINE
  8
_0-1_計細線
  6
CONTINUOUS
 62
    3
 10
1180.4648721650856
 20
648.79582880040789
 11
1180.4648721661895
 21
668.89582880040803
  0
LINE
  8
_0-1_計細線
  6
CONTINUOUS
 62
    3
 10
1183.8648721650861
 20
648.79582880040789
 11
1183.8648721661898
 21
668.89582880040803
  0
LINE
  8
_0-1_計細線
  6
CONTINUOUS
 62
    3
 10
1183.8648721650861
 20
648.79582880040789
 11
1180.4648721650856
 21
648.79582880040789
  0
ARC
  8
_0-1_計細線
  6
CONTINUOUS
 62
    3
 10
1160.4648721658277
 20
671.795828800408
 40
1.0000000000000004
 50
89.999999999999915
 51
179.99999999999983
  0
ARC
  8
_0-1_計細線
  6
CONTINUOUS
 62
    3
 10
1160.932821357155
 20
673.79582880040755
 40
1.0000000000000004
 50
269.99999999999977
 51
330.00000000001364
  0
ARC
  8
_0-1_計細線
  6
CONTINUOUS
 62
    3
 10
1162.6648721647239
 20
672.79582880040789
 40
1.0000000000000004
 50
89.999999999999915
 51
150.00000000000185
  0
LINE
  8
_0-1_計細線
  6
CONTINUOUS
 62
    3
 10
1160.4648721658277
 20
672.79582880040789
 11
1160.932821357155
 21
672.79582880040789
  0
ARC
  8
_0-1_計細線
  6
CONTINUOUS
 62
    3
 10
1169.8648721636205
 20
671.795828800408
 40
1.0000000000000004
 50
0
 51
89.999999999999915
  0
ARC
  8
_0-1_計細線
  6
CONTINUOUS
 62
    3
 10
1169.3969229722929
 20
673.79582880040755
 40
1.0000000000000004
 50
209.99999999998565
 51
269.99999999999977
  0
ARC
  8
_0-1_計細線
  6
CONTINUOUS
 62
    3
 10
1167.6648721647241
 20
672.79582880040789
 40
1.0000000000000004
 50
29.99999999999816
 51
89.999999999999915
  0
LINE
  8
_0-1_計細線
  6
CONTINUOUS
 62
    3
 10
1169.8648721636205
 20
672.79582880040789
 11
1169.3969229722929
 21
672.79582880040789
  0
ARC
  8
_0-1_計細線
  6
CONTINUOUS
 62
    3
 10
1159.9648721658282
 20
670.39582880040814
 40
0.5000000000000002
 50
179.99999999999983
 51
269.99999999999977
  0
LINE
  8
_0-1_計細線
  6
CONTINUOUS
 62
    3
 10
1159.4648721658275
 20
671.795828800408
 11
1159.4648721658275
 21
670.39582880040814
  0
ARC
  8
_0-1_計細線
  6
CONTINUOUS
 62
    3
 10
1170.3648721636207
 20
670.39582880040814
 40
0.5000000000000002
 50
269.99999999999977
 51
359.99999999999966
  0
LINE
  8
_0-1_計細線
  6
CONTINUOUS
 62
    3
 10
1170.8648721636205
 20
671.795828800408
 11
1170.8648721636205
 21
670.39582880040814
  0
ARC
  8
_0-1_計細線
  6
CONTINUOUS
 62
    3
 10
1162.4648721658275
 20
668.89582880040803
 40
1.0000000000000004
 50
0
 51
89.999999999999915
  0
LINE
  8
_0-1_計細線
  6
CONTINUOUS
 62
    3
 10
1162.4648721658275
 20
669.89582880040768
 11
1159.9648721658282
 21
669.89582880040768
  0
ARC
  8
_0-1_計細線
  6
CONTINUOUS
 62
    3
 10
1167.8648721658278
 20
668.89582880040803
 40
1.0000000000000004
 50
89.999999999999915
 51
179.99999999999983
  0
LINE
  8
_0-1_計細線
  6
CONTINUOUS
 62
    3
 10
1167.8648721636205
 20
669.89582880040768
 11
1170.3648721636207
 21
669.89582880040768
  0
LINE
  8
_0-1_計細線
  6
CONTINUOUS
 62
    3
 10
1167.6648721647241
 20
673.79582880040755
 11
1162.6648721647239
 21
673.79582880040755
  0
LINE
  8
_0-1_計細線
  6
CONTINUOUS
 62
    3
 10
1163.4648721647245
 20
648.79582880040789
 11
1163.4648721658277
 21
668.89582880040803
  0
LINE
  8
_0-1_計細線
  6
CONTINUOUS
 62
    3
 10
1166.8648721647239
 20
648.79582880040789
 11
1166.8648721658278
 21
668.89582880040803
  0
LINE
  8
_0-1_計細線
  6
CONTINUOUS
 62
    3
 10
1166.8648721647239
 20
648.79582880040789
 11
1163.4648721647245
 21
648.79582880040789
  0
ARC
  8
_0-1_計細線
  6
CONTINUOUS
 62
    3
 10
1041.4648721634851
 20
671.795828800408
 40
1.0000000000000004
 50
89.999999999999915
 51
179.99999999999983
  0
ARC
  8
_0-1_計細線
  6
CONTINUOUS
 62
    3
 10
1041.9328213548129
 20
673.79582880040755
 40
1.0000000000000004
 50
269.99999999999977
 51
330.00000000000711
  0
ARC
  8
_0-1_計細線
  6
CONTINUOUS
 62
    3
 10
1043.6648721623817
 20
672.79582880040789
 40
1.0000000000000004
 50
89.999999999999915
 51
150.00000000000836
  0
LINE
  8
_0-1_計細線
  6
CONTINUOUS
 62
    3
 10
1041.4648721634851
 20
672.79582880040789
 11
1041.9328213548129
 21
672.79582880040789
  0
ARC
  8
_0-1_計細線
  6
CONTINUOUS
 62
    3
 10
1050.8648721612781
 20
671.795828800408
 40
1.0000000000000004
 50
0
 51
89.999999999999915
  0
ARC
  8
_0-1_計細線
  6
CONTINUOUS
 62
    3
 10
1050.396922969951
 20
673.79582880040755
 40
1.0000000000000004
 50
209.9999999999726
 51
269.99999999999977
  0
ARC
  8
_0-1_計細線
  6
CONTINUOUS
 62
    3
 10
1048.6648721623815
 20
672.79582880040789
 40
1.0000000000000004
 50
29.999999999991644
 51
89.999999999999915
  0
LINE
  8
_0-1_計細線
  6
CONTINUOUS
 62
    3
 10
1050.8648721612781
 20
672.79582880040789
 11
1050.396922969951
 21
672.79582880040789
  0
ARC
  8
_0-1_計細線
  6
CONTINUOUS
 62
    3
 10
1040.9648721634853
 20
670.39582880040814
 40
0.5000000000000002
 50
179.99999999999983
 51
269.99999999999977
  0
LINE
  8
_0-1_計細線
  6
CONTINUOUS
 62
    3
 10
1040.4648721634853
 20
671.795828800408
 11
1040.4648721634853
 21
670.39582880040814
  0
ARC
  8
_0-1_計細線
  6
CONTINUOUS
 62
    3
 10
1051.3648721612781
 20
670.39582880040814
 40
0.5000000000000002
 50
269.99999999999977
 51
359.99999999999966
  0
LINE
  8
_0-1_計細線
  6
CONTINUOUS
 62
    3
 10
1051.8648721612783
 20
671.795828800408
 11
1051.8648721612783
 21
670.39582880040814
  0
ARC
  8
_0-1_計細線
  6
CONTINUOUS
 62
    3
 10
1043.4648721634853
 20
668.89582880040803
 40
1.0000000000000004
 50
0
 51
89.999999999999915
  0
LINE
  8
_0-1_計細線
  6
CONTINUOUS
 62
    3
 10
1043.4648721634853
 20
669.89582880040768
 11
1040.9648721634853
 21
669.89582880040768
  0
ARC
  8
_0-1_計細線
  6
CONTINUOUS
 62
    3
 10
1048.8648721634852
 20
668.89582880040803
 40
1.0000000000000004
 50
89.999999999999915
 51
179.99999999999983
  0
LINE
  8
_0-1_計細線
  6
CONTINUOUS
 62
    3
 10
1048.8648721612778
 20
669.89582880040768
 11
1051.3648721612781
 21
669.89582880040768
  0
LINE
  8
_0-1_計細線
  6
CONTINUOUS
 62
    3
 10
1048.6648721623815
 20
673.79582880040755
 11
1043.6648721623817
 21
673.79582880040755
  0
LINE
  8
_0-1_計細線
  6
CONTINUOUS
 62
    3
 10
1044.4648721623821
 20
648.79582880040789
 11
1044.4648721634856
 21
668.89582880040803
  0
LINE
  8
_0-1_計細線
  6
CONTINUOUS
 62
    3
 10
1047.8648721623817
 20
648.79582880040789
 11
1047.8648721634854
 21
668.89582880040803
  0
LINE
  8
_0-1_計細線
  6
CONTINUOUS
 62
    3
 10
1047.8648721623817
 20
648.79582880040789
 11
1044.4648721623821
 21
648.79582880040789
  0
ARC
  8
_0-1_計細線
  6
CONTINUOUS
 62
    3
 10
1058.4648721638471
 20
671.795828800408
 40
1.0000000000000004
 50
89.999999999999915
 51
179.99999999999983
  0
ARC
  8
_0-1_計細線
  6
CONTINUOUS
 62
    3
 10
1058.9328213551751
 20
673.79582880040755
 40
1.0000000000000004
 50
269.99999999999977
 51
330.00000000000057
  0
ARC
  8
_0-1_計細線
  6
CONTINUOUS
 62
    3
 10
1060.6648721627437
 20
672.79582880040789
 40
1.0000000000000004
 50
89.999999999999915
 51
150.00000000000836
  0
LINE
  8
_0-1_計細線
  6
CONTINUOUS
 62
    3
 10
1058.4648721638471
 20
672.79582880040789
 11
1058.9328213551751
 21
672.79582880040789
  0
ARC
  8
_0-1_計細線
  6
CONTINUOUS
 62
    3
 10
1067.8648721616398
 20
671.795828800408
 40
1.0000000000000004
 50
0
 51
89.999999999999915
  0
ARC
  8
_0-1_計細線
  6
CONTINUOUS
 62
    3
 10
1067.3969229703125
 20
673.79582880040755
 40
1.0000000000000004
 50
209.99999999997914
 51
269.99999999999977
  0
ARC
  8
_0-1_計細線
  6
CONTINUOUS
 62
    3
 10
1065.6648721627437
 20
672.79582880040789
 40
1.0000000000000004
 50
30.000000000011187
 51
89.999999999999915
  0
LINE
  8
_0-1_計細線
  6
CONTINUOUS
 62
    3
 10
1067.8648721616398
 20
672.79582880040789
 11
1067.3969229703125
 21
672.79582880040789
  0
ARC
  8
_0-1_計細線
  6
CONTINUOUS
 62
    3
 10
1057.9648721638473
 20
670.39582880040814
 40
0.5000000000000002
 50
179.99999999999983
 51
269.99999999999977
  0
LINE
  8
_0-1_計細線
  6
CONTINUOUS
 62
    3
 10
1057.4648721638468
 20
671.795828800408
 11
1057.4648721638468
 21
670.39582880040814
  0
ARC
  8
_0-1_計細線
  6
CONTINUOUS
 62
    3
 10
1068.3648721616401
 20
670.39582880040814
 40
0.5000000000000002
 50
269.99999999999977
 51
359.99999999999966
  0
LINE
  8
_0-1_計細線
  6
CONTINUOUS
 62
    3
 10
1068.8648721616398
 20
671.795828800408
 11
1068.8648721616398
 21
670.39582880040814
  0
ARC
  8
_0-1_計細線
  6
CONTINUOUS
 62
    3
 10
1060.4648721638473
 20
668.89582880040803
 40
1.0000000000000004
 50
0
 51
89.999999999999915
  0
LINE
  8
_0-1_計細線
  6
CONTINUOUS
 62
    3
 10
1060.4648721638473
 20
669.89582880040768
 11
1057.9648721638473
 21
669.89582880040768
  0
ARC
  8
_0-1_計細線
  6
CONTINUOUS
 62
    3
 10
1065.8648721638472
 20
668.89582880040803
 40
1.0000000000000004
 50
89.999999999999915
 51
179.99999999999983
  0
LINE
  8
_0-1_計細線
  6
CONTINUOUS
 62
    3
 10
1065.8648721616398
 20
669.89582880040768
 11
1068.3648721616401
 21
669.89582880040768
  0
LINE
  8
_0-1_計細線
  6
CONTINUOUS
 62
    3
 10
1065.6648721627437
 20
673.79582880040755
 11
1060.6648721627437
 21
673.79582880040755
  0
LINE
  8
_0-1_計細線
  6
CONTINUOUS
 62
    3
 10
1061.4648721627436
 20
648.79582880040789
 11
1061.4648721638471
 21
668.89582880040803
  0
LINE
  8
_0-1_計細線
  6
CONTINUOUS
 62
    3
 10
1064.8648721627439
 20
648.79582880040789
 11
1064.8648721638469
 21
668.89582880040803
  0
LINE
  8
_0-1_計細線
  6
CONTINUOUS
 62
    3
 10
1064.8648721627439
 20
648.79582880040789
 11
1061.4648721627436
 21
648.79582880040789
  0
ARC
  8
_0-1_計細線
  6
CONTINUOUS
 62
    3
 10
1075.4648721642093
 20
671.795828800408
 40
1.0000000000000004
 50
89.999999999999915
 51
179.99999999999983
  0
ARC
  8
_0-1_計細線
  6
CONTINUOUS
 62
    3
 10
1075.9328213555366
 20
673.79582880040755
 40
1.0000000000000004
 50
269.99999999999977
 51
330.00000000001364
  0
ARC
  8
_0-1_計細線
  6
CONTINUOUS
 62
    3
 10
1077.6648721631054
 20
672.79582880040789
 40
1.0000000000000004
 50
89.999999999999915
 51
150.00000000000185
  0
LINE
  8
_0-1_計細線
  6
CONTINUOUS
 62
    3
 10
1075.4648721642093
 20
672.79582880040789
 11
1075.9328213555366
 21
672.79582880040789
  0
ARC
  8
_0-1_計細線
  6
CONTINUOUS
 62
    3
 10
1084.8648721620018
 20
671.795828800408
 40
1.0000000000000004
 50
0
 51
89.999999999999915
  0
ARC
  8
_0-1_計細線
  6
CONTINUOUS
 62
    3
 10
1084.3969229706745
 20
673.79582880040755
 40
1.0000000000000004
 50
209.99999999998565
 51
269.99999999999977
  0
ARC
  8
_0-1_計細線
  6
CONTINUOUS
 62
    3
 10
1082.6648721631052
 20
672.79582880040789
 40
1.0000000000000004
 50
29.999999999991644
 51
89.999999999973952
  0
LINE
  8
_0-1_計細線
  6
CONTINUOUS
 62
    3
 10
1084.8648721620018
 20
672.79582880040789
 11
1084.3969229706745
 21
672.79582880040789
  0
ARC
  8
_0-1_計細線
  6
CONTINUOUS
 62
    3
 10
1074.9648721642093
 20
670.39582880040814
 40
0.5000000000000002
 50
179.99999999999983
 51
269.99999999999977
  0
LINE
  8
_0-1_計細線
  6
CONTINUOUS
 62
    3
 10
1074.4648721642091
 20
671.795828800408
 11
1074.4648721642091
 21
670.39582880040814
  0
ARC
  8
_0-1_計細線
  6
CONTINUOUS
 62
    3
 10
1085.3648721620018
 20
670.39582880040814
 40
0.5000000000000002
 50
269.99999999999977
 51
359.99999999999966
  0
LINE
  8
_0-1_計細線
  6
CONTINUOUS
 62
    3
 10
1085.8648721620023
 20
671.795828800408
 11
1085.8648721620023
 21
670.39582880040814
  0
ARC
  8
_0-1_計細線
  6
CONTINUOUS
 62
    3
 10
1077.4648721642093
 20
668.89582880040803
 40
1.0000000000000004
 50
0
 51
89.999999999999915
  0
LINE
  8
_0-1_計細線
  6
CONTINUOUS
 62
    3
 10
1077.4648721642093
 20
669.89582880040768
 11
1074.9648721642093
 21
669.89582880040768
  0
ARC
  8
_0-1_計細線
  6
CONTINUOUS
 62
    3
 10
1082.8648721642094
 20
668.89582880040803
 40
1.0000000000000004
 50
89.999999999999915
 51
179.99999999999983
  0
LINE
  8
_0-1_計細線
  6
CONTINUOUS
 62
    3
 10
1082.8648721620018
 20
669.89582880040768
 11
1085.3648721620018
 21
669.89582880040768
  0
LINE
  8
_0-1_計細線
  6
CONTINUOUS
 62
    3
 10
1082.6648721631052
 20
673.79582880040755
 11
1077.6648721631054
 21
673.79582880040755
  0
LINE
  8
_0-1_計細線
  6
CONTINUOUS
 62
    3
 10
1078.4648721631056
 20
648.79582880040789
 11
1078.4648721642091
 21
668.89582880040803
  0
LINE
  8
_0-1_計細線
  6
CONTINUOUS
 62
    3
 10
1081.8648721631055
 20
648.79582880040789
 11
1081.8648721642091
 21
668.89582880040803
  0
LINE
  8
_0-1_計細線
  6
CONTINUOUS
 62
    3
 10
1081.8648721631055
 20
648.79582880040789
 11
1078.4648721631056
 21
648.79582880040789
  0
ARC
  8
_0-1_計細線
  6
CONTINUOUS
 62
    3
 10
1092.4648721645708
 20
671.795828800408
 40
1.0000000000000004
 50
89.999999999999915
 51
179.99999999999983
  0
ARC
  8
_0-1_計細線
  6
CONTINUOUS
 62
    3
 10
1092.9328213558981
 20
673.79582880040755
 40
1.0000000000000004
 50
269.99999999999977
 51
330.00000000001364
  0
ARC
  8
_0-1_計細線
  6
CONTINUOUS
 62
    3
 10
1094.6648721634667
 20
672.79582880040789
 40
1.0000000000000004
 50
89.999999999999915
 51
149.99999999999534
  0
LINE
  8
_0-1_計細線
  6
CONTINUOUS
 62
    3
 10
1092.4648721645708
 20
672.79582880040789
 11
1092.9328213558981
 21
672.79582880040789
  0
ARC
  8
_0-1_計細線
  6
CONTINUOUS
 62
    3
 10
1101.864872162364
 20
671.795828800408
 40
1.0000000000000004
 50
0
 51
89.999999999999915
  0
ARC
  8
_0-1_計細線
  6
CONTINUOUS
 62
    3
 10
1101.3969229710365
 20
673.79582880040755
 40
1.0000000000000004
 50
209.99999999998565
 51
269.99999999999977
  0
ARC
  8
_0-1_計細線
  6
CONTINUOUS
 62
    3
 10
1099.6648721634672
 20
672.79582880040789
 40
1.0000000000000004
 50
29.999999999991644
 51
89.999999999999915
  0
LINE
  8
_0-1_計細線
  6
CONTINUOUS
 62
    3
 10
1101.864872162364
 20
672.79582880040789
 11
1101.3969229710365
 21
672.79582880040789
  0
ARC
  8
_0-1_計細線
  6
CONTINUOUS
 62
    3
 10
1091.9648721645708
 20
670.39582880040814
 40
0.5000000000000002
 50
179.99999999999983
 51
269.99999999999977
  0
LINE
  8
_0-1_計細線
  6
CONTINUOUS
 62
    3
 10
1091.4648721645706
 20
671.795828800408
 11
1091.4648721645706
 21
670.39582880040814
  0
ARC
  8
_0-1_計細線
  6
CONTINUOUS
 62
    3
 10
1102.3648721623638
 20
670.39582880040814
 40
0.5000000000000002
 50
269.99999999999977
 51
359.99999999999966
  0
LINE
  8
_0-1_計細線
  6
CONTINUOUS
 62
    3
 10
1102.8648721623636
 20
671.795828800408
 11
1102.8648721623636
 21
670.39582880040814
  0
ARC
  8
_0-1_計細線
  6
CONTINUOUS
 62
    3
 10
1094.4648721645704
 20
668.89582880040803
 40
1.0000000000000004
 50
0
 51
89.999999999999915
  0
LINE
  8
_0-1_計細線
  6
CONTINUOUS
 62
    3
 10
1094.4648721645704
 20
669.89582880040768
 11
1091.9648721645708
 21
669.89582880040768
  0
ARC
  8
_0-1_計細線
  6
CONTINUOUS
 62
    3
 10
1099.8648721645709
 20
668.89582880040803
 40
1.0000000000000004
 50
89.999999999999915
 51
179.99999999999983
  0
LINE
  8
_0-1_計細線
  6
CONTINUOUS
 62
    3
 10
1099.8648721623633
 20
669.89582880040768
 11
1102.3648721623638
 21
669.89582880040768
  0
LINE
  8
_0-1_計細線
  6
CONTINUOUS
 62
    3
 10
1099.6648721634672
 20
673.79582880040755
 11
1094.6648721634667
 21
673.79582880040755
  0
LINE
  8
_0-1_計細線
  6
CONTINUOUS
 62
    3
 10
1095.4648721634676
 20
648.79582880040789
 11
1095.4648721645706
 21
668.89582880040803
  0
LINE
  8
_0-1_計細線
  6
CONTINUOUS
 62
    3
 10
1098.864872163467
 20
648.79582880040789
 11
1098.8648721645707
 21
668.89582880040803
  0
LINE
  8
_0-1_計細線
  6
CONTINUOUS
 62
    3
 10
1098.864872163467
 20
648.79582880040789
 11
1095.4648721634676
 21
648.79582880040789
  0
ARC
  8
_0-1_計細線
  6
CONTINUOUS
 62
    3
 10
1109.4648721649328
 20
671.795828800408
 40
1.0000000000000004
 50
89.999999999999915
 51
179.99999999999983
  0
ARC
  8
_0-1_計細線
  6
CONTINUOUS
 62
    3
 10
1109.9328213562601
 20
673.79582880040755
 40
1.0000000000000004
 50
269.99999999999977
 51
330.00000000001364
  0
ARC
  8
_0-1_計細線
  6
CONTINUOUS
 62
    3
 10
1111.6648721638289
 20
672.79582880040789
 40
1.0000000000000004
 50
89.999999999999915
 51
150.00000000000185
  0
LINE
  8
_0-1_計細線
  6
CONTINUOUS
 62
    3
 10
1109.4648721649328
 20
672.79582880040789
 11
1109.9328213562601
 21
672.79582880040789
  0
ARC
  8
_0-1_計細線
  6
CONTINUOUS
 62
    3
 10
1118.8648721627255
 20
671.795828800408
 40
1.0000000000000004
 50
0
 51
89.999999999999915
  0
ARC
  8
_0-1_計細線
  6
CONTINUOUS
 62
    3
 10
1118.3969229713978
 20
673.79582880040755
 40
1.0000000000000004
 50
209.99999999998565
 51
269.99999999999977
  0
ARC
  8
_0-1_計細線
  6
CONTINUOUS
 62
    3
 10
1116.6648721638292
 20
672.79582880040789
 40
1.0000000000000004
 50
30.000000000004672
 51
89.999999999999915
  0
LINE
  8
_0-1_計細線
  6
CONTINUOUS
 62
    3
 10
1118.8648721627255
 20
672.79582880040789
 11
1118.3969229713978
 21
672.79582880040789
  0
ARC
  8
_0-1_計細線
  6
CONTINUOUS
 62
    3
 10
1108.9648721649323
 20
670.39582880040814
 40
0.5000000000000002
 50
179.99999999999983
 51
269.99999999999977
  0
LINE
  8
_0-1_計細線
  6
CONTINUOUS
 62
    3
 10
1108.4648721649326
 20
671.795828800408
 11
1108.4648721649326
 21
670.39582880040814
  0
ARC
  8
_0-1_計細線
  6
CONTINUOUS
 62
    3
 10
1119.3648721627253
 20
670.39582880040814
 40
0.5000000000000002
 50
269.99999999999977
 51
359.99999999999966
  0
LINE
  8
_0-1_計細線
  6
CONTINUOUS
 62
    3
 10
1119.8648721627253
 20
671.795828800408
 11
1119.8648721627253
 21
670.39582880040814
  0
ARC
  8
_0-1_計細線
  6
CONTINUOUS
 62
    3
 10
1111.4648721649326
 20
668.89582880040803
 40
1.0000000000000004
 50
0
 51
89.999999999999915
  0
LINE
  8
_0-1_計細線
  6
CONTINUOUS
 62
    3
 10
1111.4648721649326
 20
669.89582880040768
 11
1108.9648721649323
 21
669.89582880040768
  0
ARC
  8
_0-1_計細線
  6
CONTINUOUS
 62
    3
 10
1116.8648721649329
 20
668.89582880040803
 40
1.0000000000000004
 50
89.999999999999915
 51
179.99999999999983
  0
LINE
  8
_0-1_計細線
  6
CONTINUOUS
 62
    3
 10
1116.8648721627255
 20
669.89582880040768
 11
1119.3648721627253
 21
669.89582880040768
  0
LINE
  8
_0-1_計細線
  6
CONTINUOUS
 62
    3
 10
1116.6648721638292
 20
673.79582880040755
 11
1111.6648721638289
 21
673.79582880040755
  0
LINE
  8
_0-1_計細線
  6
CONTINUOUS
 62
    3
 10
1112.4648721638289
 20
648.79582880040789
 11
1112.4648721649328
 21
668.89582880040803
  0
LINE
  8
_0-1_計細線
  6
CONTINUOUS
 62
    3
 10
1115.864872163829
 20
648.79582880040789
 11
1115.8648721649326
 21
668.89582880040803
  0
LINE
  8
_0-1_計細線
  6
CONTINUOUS
 62
    3
 10
1115.864872163829
 20
648.79582880040789
 11
1112.4648721638289
 21
648.79582880040789
  0
ARC
  8
_0-1_計細線
  6
CONTINUOUS
 62
    3
 10
1126.4648721652948
 20
671.795828800408
 40
1.0000000000000004
 50
89.999999999999915
 51
179.99999999999983
  0
ARC
  8
_0-1_計細線
  6
CONTINUOUS
 62
    3
 10
1126.9328213566218
 20
673.79582880040755
 40
1.0000000000000004
 50
269.99999999999977
 51
330.00000000001364
  0
ARC
  8
_0-1_計細線
  6
CONTINUOUS
 62
    3
 10
1128.6648721641907
 20
672.79582880040789
 40
1.0000000000000004
 50
89.999999999999915
 51
150.00000000000836
  0
LINE
  8
_0-1_計細線
  6
CONTINUOUS
 62
    3
 10
1126.4648721652948
 20
672.79582880040789
 11
1126.9328213566218
 21
672.79582880040789
  0
ARC
  8
_0-1_計細線
  6
CONTINUOUS
 62
    3
 10
1135.8648721630866
 20
671.795828800408
 40
1.0000000000000004
 50
0
 51
89.999999999999915
  0
ARC
  8
_0-1_計細線
  6
CONTINUOUS
 62
    3
 10
1135.3969229717595
 20
673.79582880040755
 40
1.0000000000000004
 50
209.99999999999216
 51
269.99999999999977
  0
ARC
  8
_0-1_計細線
  6
CONTINUOUS
 62
    3
 10
1133.6648721641907
 20
672.79582880040789
 40
1.0000000000000004
 50
29.999999999991644
 51
89.999999999999915
  0
LINE
  8
_0-1_計細線
  6
CONTINUOUS
 62
    3
 10
1135.8648721630866
 20
672.79582880040789
 11
1135.3969229717595
 21
672.79582880040789
  0
ARC
  8
_0-1_計細線
  6
CONTINUOUS
 62
    3
 10
1125.9648721652945
 20
670.39582880040814
 40
0.5000000000000002
 50
179.99999999999983
 51
269.99999999999977
  0
LINE
  8
_0-1_計細線
  6
CONTINUOUS
 62
    3
 10
1125.4648721652941
 20
671.795828800408
 11
1125.4648721652941
 21
670.39582880040814
  0
ARC
  8
_0-1_計細線
  6
CONTINUOUS
 62
    3
 10
1136.3648721630871
 20
670.39582880040814
 40
0.5000000000000002
 50
269.99999999999977
 51
359.99999999999966
  0
LINE
  8
_0-1_計細線
  6
CONTINUOUS
 62
    3
 10
1136.8648721630868
 20
671.795828800408
 11
1136.8648721630868
 21
670.39582880040814
  0
ARC
  8
_0-1_計細線
  6
CONTINUOUS
 62
    3
 10
1128.4648721652941
 20
668.89582880040803
 40
1.0000000000000004
 50
0
 51
89.999999999999915
  0
LINE
  8
_0-1_計細線
  6
CONTINUOUS
 62
    3
 10
1128.4648721652941
 20
669.89582880040768
 11
1125.9648721652945
 21
669.89582880040768
  0
ARC
  8
_0-1_計細線
  6
CONTINUOUS
 62
    3
 10
1133.8648721652949
 20
668.89582880040803
 40
1.0000000000000004
 50
89.999999999999915
 51
179.99999999999983
  0
LINE
  8
_0-1_計細線
  6
CONTINUOUS
 62
    3
 10
1133.8648721630871
 20
669.89582880040768
 11
1136.3648721630871
 21
669.89582880040768
  0
LINE
  8
_0-1_計細線
  6
CONTINUOUS
 62
    3
 10
1133.6648721641907
 20
673.79582880040755
 11
1128.6648721641907
 21
673.79582880040755
  0
LINE
  8
_0-1_計細線
  6
CONTINUOUS
 62
    3
 10
1129.4648721641906
 20
648.79582880040789
 11
1129.4648721652943
 21
668.89582880040803
  0
LINE
  8
_0-1_計細線
  6
CONTINUOUS
 62
    3
 10
1132.8648721641907
 20
648.79582880040789
 11
1132.8648721652942
 21
668.89582880040803
  0
LINE
  8
_0-1_計細線
  6
CONTINUOUS
 62
    3
 10
1132.8648721641907
 20
648.79582880040789
 11
1129.4648721641906
 21
648.79582880040789
  0
ARC
  8
_0-1_計細線
  6
CONTINUOUS
 62
    3
 10
1143.4648721656561
 20
671.795828800408
 40
1.0000000000000004
 50
89.999999999999915
 51
179.99999999999983
  0
ARC
  8
_0-1_計細線
  6
CONTINUOUS
 62
    3
 10
1143.9328213569838
 20
673.79582880040755
 40
1.0000000000000004
 50
269.99999999999977
 51
330.00000000002012
  0
ARC
  8
_0-1_計細線
  6
CONTINUOUS
 62
    3
 10
1145.6648721645522
 20
672.79582880040789
 40
1.0000000000000004
 50
89.999999999999915
 51
149.9999999999888
  0
LINE
  8
_0-1_計細線
  6
CONTINUOUS
 62
    3
 10
1143.4648721656561
 20
672.79582880040789
 11
1143.9328213569838
 21
672.79582880040789
  0
ARC
  8
_0-1_計細線
  6
CONTINUOUS
 62
    3
 10
1152.8648721634488
 20
671.795828800408
 40
1.0000000000000004
 50
0
 51
89.999999999999915
  0
ARC
  8
_0-1_計細線
  6
CONTINUOUS
 62
    3
 10
1152.3969229721217
 20
673.79582880040755
 40
1.0000000000000004
 50
209.99999999997914
 51
269.99999999999977
  0
ARC
  8
_0-1_計細線
  6
CONTINUOUS
 62
    3
 10
1150.6648721645527
 20
672.79582880040789
 40
1.0000000000000004
 50
29.99999999999816
 51
89.999999999999915
  0
LINE
  8
_0-1_計細線
  6
CONTINUOUS
 62
    3
 10
1152.8648721634488
 20
672.79582880040789
 11
1152.3969229721217
 21
672.79582880040789
  0
ARC
  8
_0-1_計細線
  6
CONTINUOUS
 62
    3
 10
1142.9648721656561
 20
670.39582880040814
 40
0.5000000000000002
 50
179.99999999999983
 51
269.99999999999977
  0
LINE
  8
_0-1_計細線
  6
CONTINUOUS
 62
    3
 10
1142.4648721656561
 20
671.795828800408
 11
1142.4648721656561
 21
670.39582880040814
  0
ARC
  8
_0-1_計細線
  6
CONTINUOUS
 62
    3
 10
1153.364872163449
 20
670.39582880040814
 40
0.5000000000000002
 50
269.99999999999977
 51
359.99999999999966
  0
LINE
  8
_0-1_計細線
  6
CONTINUOUS
 62
    3
 10
1153.864872163449
 20
671.795828800408
 11
1153.864872163449
 21
670.39582880040814
  0
ARC
  8
_0-1_計細線
  6
CONTINUOUS
 62
    3
 10
1145.4648721656561
 20
668.89582880040803
 40
1.0000000000000004
 50
0
 51
89.999999999999915
  0
LINE
  8
_0-1_計細線
  6
CONTINUOUS
 62
    3
 10
1145.4648721656561
 20
669.89582880040768
 11
1142.9648721656561
 21
669.89582880040768
  0
ARC
  8
_0-1_計細線
  6
CONTINUOUS
 62
    3
 10
1150.8648721656562
 20
668.89582880040803
 40
1.0000000000000004
 50
89.999999999999915
 51
179.99999999999983
  0
LINE
  8
_0-1_計細線
  6
CONTINUOUS
 62
    3
 10
1150.864872163449
 20
669.89582880040768
 11
1153.364872163449
 21
669.89582880040768
  0
LINE
  8
_0-1_計細線
  6
CONTINUOUS
 62
    3
 10
1150.6648721645527
 20
673.79582880040755
 11
1145.6648721645522
 21
673.79582880040755
  0
LINE
  8
_0-1_計細線
  6
CONTINUOUS
 62
    3
 10
1146.4648721645528
 20
648.79582880040789
 11
1146.4648721656563
 21
668.89582880040803
  0
LINE
  8
_0-1_計細線
  6
CONTINUOUS
 62
    3
 10
1149.8648721645527
 20
648.79582880040789
 11
1149.8648721656562
 21
668.89582880040803
  0
LINE
  8
_0-1_計細線
  6
CONTINUOUS
 62
    3
 10
1149.8648721645527
 20
648.79582880040789
 11
1146.4648721645528
 21
648.79582880040789
  0
ARC
  8
_0-1_計細線
  6
CONTINUOUS
 62
    3
 10
903.66487216364806
 20
648.79604780141494
 40
3.0000000000000004
 50
179.99999999999983
 51
269.99999999999977
  0
LINE
  8
_0-1_計細線
  6
CONTINUOUS
 62
    3
 10
900.66487216364806
 20
648.79604780141494
 11
900.66487216364806
 21
673.29604780141483
  0
LINE
  8
_0-1_計細線
  6
CONTINUOUS
 62
    3
 10
903.66487216364806
 20
645.79604780141483
 11
930.16487216364783
 21
645.79604780141483
  0
LINE
  8
_0-1_計細線
  6
CONTINUOUS
 62
    3
 10
930.66487216364806
 20
646.29604780141517
 11
930.16487216364783
 21
645.79604780141483
  0
LINE
  8
_0-1_計細線
  6
CONTINUOUS
 62
    3
 10
930.66487216364806
 20
648.29604780141506
 11
930.66487216364806
 21
646.29604780141517
  0
LINE
  8
_0-1_計細線
  6
CONTINUOUS
 62
    3
 10
930.16487216364783
 20
648.79604780141494
 11
930.66487216364806
 21
648.29604780141506
  0
LINE
  8
_0-1_計細線
  6
CONTINUOUS
 62
    3
 10
903.66487216364806
 20
648.79604780141494
 11
930.16487216364783
 21
648.79604780141494
  0
LINE
  8
_0-1_計細線
  6
CONTINUOUS
 62
    3
 10
901.16487216364771
 20
673.79604780141517
 11
900.66487216364806
 21
673.29604780141483
  0
LINE
  8
_0-1_計細線
  6
CONTINUOUS
 62
    3
 10
903.16487216364806
 20
673.79604780141517
 11
901.16487216364771
 21
673.79604780141517
  0
LINE
  8
_0-1_計細線
  6
CONTINUOUS
 62
    3
 10
903.66487216364806
 20
673.29604780141483
 11
903.16487216364806
 21
673.79604780141517
  0
LINE
  8
_0-1_計細線
  6
CONTINUOUS
 62
    3
 10
903.66487216364806
 20
648.79604780141494
 11
903.66487216364806
 21
673.29604780141483
  0
ARC
  8
_0-1_計細線
  6
CONTINUOUS
 62
    3
 10
1307.6648721636477
 20
648.79604780141494
 40
3.0000000000000004
 50
269.99999999999977
 51
359.99999999999966
  0
LINE
  8
_0-1_計細線
  6
CONTINUOUS
 62
    3
 10
1310.6648721636479
 20
648.79604780141494
 11
1310.6648721636479
 21
673.29604780141483
  0
LINE
  8
_0-1_計細線
  6
CONTINUOUS
 62
    3
 10
1307.6648721636477
 20
645.79604780141483
 11
1281.1648721636475
 21
645.79604780141483
  0
LINE
  8
_0-1_計細線
  6
CONTINUOUS
 62
    3
 10
1280.6648721636477
 20
646.29604780141517
 11
1281.1648721636475
 21
645.79604780141483
  0
LINE
  8
_0-1_計細線
  6
CONTINUOUS
 62
    3
 10
1280.6648721636477
 20
648.29604780141506
 11
1280.6648721636477
 21
646.29604780141517
  0
LINE
  8
_0-1_計細線
  6
CONTINUOUS
 62
    3
 10
1281.1648721636475
 20
648.79604780141494
 11
1280.6648721636477
 21
648.29604780141506
  0
LINE
  8
_0-1_計細線
  6
CONTINUOUS
 62
    3
 10
1307.6648721636477
 20
648.79604780141494
 11
1281.1648721636475
 21
648.79604780141494
  0
LINE
  8
_0-1_計細線
  6
CONTINUOUS
 62
    3
 10
1310.1648721636479
 20
673.79604780141517
 11
1310.6648721636479
 21
673.29604780141483
  0
LINE
  8
_0-1_計細線
  6
CONTINUOUS
 62
    3
 10
1308.1648721636484
 20
673.79604780141517
 11
1310.1648721636479
 21
673.79604780141517
  0
LINE
  8
_0-1_計細線
  6
CONTINUOUS
 62
    3
 10
1307.6648721636477
 20
673.29604780141483
 11
1308.1648721636484
 21
673.79604780141517
  0
LINE
  8
_0-1_計細線
  6
CONTINUOUS
 62
    3
 10
1307.6648721636477
 20
648.79604780141494
 11
1307.6648721636477
 21
673.29604780141483
  0
LINE
  8
_0-5_寸法線
  6
CONTINUOUS
 62
    7
 10
1097.4733517207583
 20
654.53159316391839
 11
1067.5070450936307
 21
675.5142269565365
  0
LINE
  8
_0-5_寸法線
  6
CONTINUOUS
 62
    7
 10
1071.6028053150758
 20
672.64634477478126
 11
1069.0146148640506
 21
682.30560303767209
  0
LINE
  8
_0-5_寸法線
  6
CONTINUOUS
 62
    7
 10
1071.6028053150758
 20
672.64634477478126
 11
1074.190995766101
 21
682.30560303767209
  0
LINE
  8
_0-5_寸法線
  6
CONTINUOUS
 62
    7
 10
1097.4733517207583
 20
679.53159316391805
 11
1067.5070450936307
 21
700.51422695653628
  0
LINE
  8
_0-5_寸法線
  6
CONTINUOUS
 62
    7
 10
1071.6028053150758
 20
697.64634477478114
 11
1074.190995766101
 21
687.98708651189031
  0
LINE
  8
_0-5_寸法線
  6
CONTINUOUS
 62
    7
 10
1071.6028053150758
 20
697.64634477478114
 11
1069.0146148640506
 21
687.98708651189031
  0
LINE
  8
_0-5_寸法線
  6
CONTINUOUS
 62
    7
 10
1071.6028053150758
 20
672.64634477478126
 11
1071.6028053150758
 21
697.64634477478114
  0
TEXT
  8
_0-5_寸法線
 62
    7
 10
1071.602805315076
 20
677.64634477478126
 40
15
 41
1
 50
90
  1
25
  0
LINE
  8
_0-0_計極細
  6
CONTINUOUS
 62
    2
 10
898.36487216364799
 20
641.79604780141494
 11
900.66487216364806
 21
641.79604780141494
  0
LINE
  8
_0-0_計極細
  6
CONTINUOUS
 62
    2
 10
898.36487216364799
 20
643.79604780141506
 11
900.66487216364806
 21
643.79604780141506
  0
LINE
  8
_0-0_計極細
  6
CONTINUOUS
 62
    2
 10
898.36487216364799
 20
639.79604780141483
 11
900.66487216364806
 21
639.79604780141483
  0
LINE
  8
_0-0_計極細
  6
CONTINUOUS
 62
    2
 10
898.36487216364799
 20
645.79604780141483
 11
900.66487216364806
 21
645.79604780141483
  0
LINE
  8
_0-0_計極細
  6
CONTINUOUS
 62
    2
 10
900.66487216364806
 20
625.79604780141506
 11
898.36487216364799
 21
625.79604780141506
  0
LINE
  8
_0-0_計極細
  6
CONTINUOUS
 62
    2
 10
898.36487216364799
 20
655.79604780141506
 11
900.66487216364806
 21
655.79604780141506
  0
LINE
  8
_0-1_計細線
  6
CONTINUOUS
 62
    3
 10
900.66487216364806
 20
657.79604780141494
 11
900.66487216364806
 21
622.79604780141494
  0
LINE
  8
_0-1_計細線
  6
CONTINUOUS
 62
    3
 10
900.66487216364806
 20
622.79604780141494
 11
898.36487216364799
 21
622.79604780141494
  0
LINE
  8
_0-1_計細線
  6
CONTINUOUS
 62
    3
 10
898.36487216364799
 20
622.79604780141494
 11
898.36487216364799
 21
657.79604780141494
  0
LINE
  8
_0-1_計細線
  6
CONTINUOUS
 62
    3
 10
898.36487216364799
 20
657.79604780141494
 11
900.66487216364806
 21
657.79604780141494
  0
LINE
  8
_0-0_計極細
  6
CONTINUOUS
 62
    2
 10
1312.9648721636479
 20
641.79604780141494
 11
1310.6648721636479
 21
641.79604780141494
  0
LINE
  8
_0-0_計極細
  6
CONTINUOUS
 62
    2
 10
1312.9648721636479
 20
643.79604780141506
 11
1310.6648721636479
 21
643.79604780141506
  0
LINE
  8
_0-0_計極細
  6
CONTINUOUS
 62
    2
 10
1312.9648721636479
 20
639.79604780141483
 11
1310.6648721636479
 21
639.79604780141483
  0
LINE
  8
_0-0_計極細
  6
CONTINUOUS
 62
    2
 10
1312.9648721636479
 20
645.79604780141483
 11
1310.6648721636479
 21
645.79604780141483
  0
LINE
  8
_0-0_計極細
  6
CONTINUOUS
 62
    2
 10
1310.6648721636479
 20
625.79604780141506
 11
1312.9648721636479
 21
625.79604780141506
  0
LINE
  8
_0-0_計極細
  6
CONTINUOUS
 62
    2
 10
1312.9648721636479
 20
655.79604780141506
 11
1310.6648721636479
 21
655.79604780141506
  0
LINE
  8
_0-1_計細線
  6
CONTINUOUS
 62
    3
 10
1310.6648721636479
 20
657.79604780141494
 11
1310.6648721636479
 21
622.79604780141494
  0
LINE
  8
_0-1_計細線
  6
CONTINUOUS
 62
    3
 10
1310.6648721636479
 20
622.79604780141494
 11
1312.9648721636479
 21
622.79604780141494
  0
LINE
  8
_0-1_計細線
  6
CONTINUOUS
 62
    3
 10
1312.9648721636479
 20
622.79604780141494
 11
1312.9648721636479
 21
657.79604780141494
  0
LINE
  8
_0-1_計細線
  6
CONTINUOUS
 62
    3
 10
1312.9648721636479
 20
657.79604780141494
 11
1310.6648721636479
 21
657.79604780141494
  0
LINE
  8
_0-7_枠細線
  6
CONTINUOUS
 62
    5
 10
1329.6121779638302
 20
642.94413163247941
 11
1322.1121779638302
 21
657.94413163247941
  0
LINE
  8
_0-7_枠細線
  6
CONTINUOUS
 62
    5
 10
1314.6121779638302
 20
642.94413163247941
 11
1329.6121779638302
 21
642.94413163247941
  0
LINE
  8
_0-7_枠細線
  6
CONTINUOUS
 62
    5
 10
1322.1121779638302
 20
657.94413163247941
 11
1314.6121779638302
 21
642.94413163247941
  0
TEXT
  8
_0-7_枠細線
 62
    5
 10
1316.9773292319778
 20
641.99531166762949
 40
12.5
 41
0.8
 50
0
  1
５
  0
TEXT
  8
_0-7_枠細線
 62
    5
 10
1056.3474408707198
 20
535.07790672681654
 40
25
 41
0.8
 50
0
  1
断面詳細図
  0
TEXT
  8
_0-7_枠細線
 62
    5
 10
1171.2964106198876
 20
537.59301580700537
 40
20
 41
0.6
 50
0
  1
Ｓ＝１：５
  0
LINE
  8
_0-7_枠細線
  6
CONTINUOUS
 62
    5
 10
890
 20
820
 11
890
 21
959.99999999999909
  0
LINE
  8
_0-7_枠細線
  6
CONTINUOUS
 62
    5
 10
925
 20
820
 11
925
 21
959.99999999999909
  0
LINE
  8
_0-7_枠細線
  6
CONTINUOUS
 62
    5
 10
1175
 20
820
 11
1175
 21
959.99999999999909
  0
LINE
  8
_0-7_枠細線
  6
CONTINUOUS
 62
    5
 10
1275
 20
820
 11
1275
 21
959.99999999999909
  0
LINE
  8
_0-1_計細線
  6
CONTINUOUS
 62
    3
 10
1108.0148721642001
 20
673.59582880040591
 11
1108.0148721642001
 21
654.59582880040546
  0
LINE
  8
_0-1_計細線
  6
CONTINUOUS
 62
    3
 10
1103.3148721641999
 20
654.59582880040546
 11
1103.3148721641999
 21
673.59582880040591
  0
LINE
  8
_0-1_計細線
  6
CONTINUOUS
 62
    3
 10
1108.0148721642001
 20
654.59582880040546
 11
1103.3148721641999
 21
654.59582880040546
  0
LINE
  8
_0-1_計細線
  6
CONTINUOUS
 62
    3
 10
1103.3148721641999
 20
673.59582880040591
 11
1108.0148721642001
 21
673.59582880040591
  0
LINE
  8
_0-1_計細線
  6
DASHED2
 62
    3
 10
1103.3148721641999
 20
657.59582880040557
 11
1108.0148721642001
 21
657.59582880040557
  0
LINE
  8
_0-1_計細線
  6
DASHED2
 62
    3
 10
1103.3148721641999
 20
671.0958288004058
 11
1108.0148721642001
 21
671.0958288004058
  0
LINE
  8
_0-1_計細線
  6
CONTINUOUS
 62
    3
 10
297.39565491860287
 20
521.17457415939418
 11
350.39565491860287
 21
521.17457415939418
  0
LINE
  8
_0-1_計細線
  6
CONTINUOUS
 62
    3
 10
350.39565491860287
 20
525.874574159394
 11
297.39565491860287
 21
525.874574159394
  0
LINE
  8
_0-1_計細線
  6
CONTINUOUS
 62
    3
 10
297.39565491860287
 20
525.874574159394
 11
297.39565491860287
 21
521.17457415939418
  0
LINE
  8
_0-1_計細線
  6
CONTINUOUS
 62
    3
 10
340.39565491860287
 20
525.874574159394
 11
340.39565491860287
 21
521.17457415939418
  0
LINE
  8
_0-1_計細線
  6
CONTINUOUS
 62
    3
 10
348.39565491860293
 20
525.874574159394
 11
348.39565491860293
 21
521.17457415939418
  0
LINE
  8
_0-1_計細線
  6
CONTINUOUS
 62
    3
 10
350.39565491860287
 20
525.874574159394
 11
350.39565491860287
 21
521.17457415939418
  0
LINE
  8
_0-1_計細線
  6
CONTINUOUS
 62
    3
 10
346.39565491860287
 20
525.874574159394
 11
346.39565491860287
 21
521.17457415939418
  0
LINE
  8
_0-1_計細線
  6
CONTINUOUS
 62
    3
 10
344.39565491860287
 20
525.874574159394
 11
344.39565491860287
 21
521.17457415939418
  0
LINE
  8
_0-1_計細線
  6
CONTINUOUS
 62
    3
 10
342.39565491860287
 20
525.874574159394
 11
342.39565491860287
 21
521.17457415939418
  0
LINE
  8
_0-d_寸法3
  6
CONTINUOUS
 62
    7
 10
421.96967175644829
 20
229.09093285812048
 11
421.96967175644829
 21
270.75759952478705
  0
LINE
  8
_0-d_寸法3
  6
CONTINUOUS
 62
    7
 10
421.96967175644829
 20
265.75759952478705
 11
431.62893001933895
 21
268.34578997581224
  0
LINE
  8
_0-d_寸法3
  6
CONTINUOUS
 62
    7
 10
421.96967175644829
 20
265.75759952478705
 11
431.62893001933895
 21
263.16940907376187
  0
LINE
  8
_0-d_寸法3
  6
CONTINUOUS
 62
    7
 10
450.96967175705123
 20
229.09093285812048
 11
450.96967175705123
 21
270.75759952478705
  0
LINE
  8
_0-d_寸法3
  6
CONTINUOUS
 62
    7
 10
450.96967175705123
 20
265.75759952478705
 11
441.31041349416051
 21
263.16940907376187
  0
LINE
  8
_0-d_寸法3
  6
CONTINUOUS
 62
    7
 10
450.96967175705123
 20
265.75759952478705
 11
441.31041349416057
 21
268.34578997581229
  0
LINE
  8
_0-d_寸法3
  6
CONTINUOUS
 62
    7
 10
421.96967175644829
 20
265.75759952478705
 11
450.96967175705123
 21
265.75759952478705
  0
TEXT
  8
_0-d_寸法3
 62
    7
 10
410.42349384680699
 20
250.75759952478705
 40
15
 41
1
 50
0
  1
(17.4)
  0
LINE
  8
_0-d_寸法3
  6
CONTINUOUS
 62
    7
 10
450.96967175705123
 20
265.75759952478705
 11
460.628930019942
 21
268.34578997581218
  0
LINE
  8
_0-d_寸法3
  6
CONTINUOUS
 62
    7
 10
450.96967175705123
 20
265.75759952478705
 11
460.62893001994189
 21
263.16940907376181
  0
LINE
  8
_0-d_寸法3
  6
CONTINUOUS
 62
    7
 10
479.96967175765428
 20
229.09093285812048
 11
479.96967175765428
 21
270.75759952478705
  0
LINE
  8
_0-d_寸法3
  6
CONTINUOUS
 62
    7
 10
479.96967175765428
 20
265.75759952478705
 11
470.31041349476357
 21
263.16940907376187
  0
LINE
  8
_0-d_寸法3
  6
CONTINUOUS
 62
    7
 10
479.96967175765428
 20
265.75759952478705
 11
470.31041349476362
 21
268.34578997581229
  0
LINE
  8
_0-d_寸法3
  6
CONTINUOUS
 62
    7
 10
450.96967175705123
 20
265.75759952478705
 11
479.96967175765428
 21
265.75759952478705
  0
TEXT
  8
_0-d_寸法3
 62
    7
 10
447.4901605134736
 20
265.75759952478705
 40
15
 41
1
 50
0
  1
(17.4)
  0
ARC
  8
_0-a_極細3
  6
CONTINUOUS
 62
    7
 10
510.79907508218446
 20
207.57765036643551
 40
17.558839598481345
 50
150.03871396148173
 51
205.23810402387869
  0
ARC
  8
_0-a_極細3
  6
CONTINUOUS
 62
    7
 10
479.03359989228642
 20
192.60414115380485
 40
17.558839598481345
 50
330.03871396148202
 51
25.238104023878119
  0
ARC
  8
_0-a_極細3
  6
CONTINUOUS
 62
    7
 10
365.8792596438505
 20
207.57765036643551
 40
17.558839598481345
 50
150.03871396148173
 51
205.23810402387869
  0
ARC
  8
_0-a_極細3
  6
CONTINUOUS
 62
    7
 10
334.11378445395246
 20
192.60414115380485
 40
17.558839598481345
 50
330.03871396148202
 51
25.238104023878119
  0
ARC
  8
_0-b_細線3
  6
CONTINUOUS
 62
    7
 10
414.13633842495415
 20
215.75759952478705
 40
1.666666666666667
 50
89.999999999999915
 51
179.99999999999983
  0
ARC
  8
_0-b_細線3
  6
CONTINUOUS
 62
    7
 10
414.91625374383318
 20
219.09093285812048
 40
1.666666666666667
 50
269.99999999999977
 51
330.00000000000279
  0
ARC
  8
_0-b_細線3
  6
CONTINUOUS
 62
    7
 10
417.80300508978121
 20
217.42426619145405
 40
1.666666666666667
 50
89.999999999999915
 51
150.00000000000134
  0
LINE
  8
_0-b_細線3
  6
CONTINUOUS
 62
    7
 10
414.13633842495415
 20
217.42426619145405
 11
414.91625374383318
 21
217.42426619145405
  0
ARC
  8
_0-b_細線3
  6
CONTINUOUS
 62
    7
 10
429.80300508794221
 20
215.75759952478705
 40
1.666666666666667
 50
0
 51
89.999999999999915
  0
ARC
  8
_0-b_細線3
  6
CONTINUOUS
 62
    7
 10
429.02308976906284
 20
219.09093285812048
 40
1.666666666666667
 50
210.00000000000236
 51
269.99999999999977
  0
ARC
  8
_0-b_細線3
  6
CONTINUOUS
 62
    7
 10
426.13633842311481
 20
217.42426619145405
 40
1.666666666666667
 50
29.999999999991843
 51
89.999999999986329
  0
LINE
  8
_0-b_細線3
  6
CONTINUOUS
 62
    7
 10
429.80300508794221
 20
217.42426619145405
 11
429.02308976906284
 21
217.42426619145405
  0
ARC
  8
_0-b_細線3
  6
CONTINUOUS
 62
    7
 10
413.30300509162072
 20
213.424266191454
 40
0.8333333333333334
 50
179.99999999999983
 51
269.99999999999977
  0
LINE
  8
_0-b_細線3
  6
CONTINUOUS
 62
    7
 10
412.46967175828729
 20
215.75759952478705
 11
412.46967175828729
 21
213.424266191454
  0
ARC
  8
_0-b_細線3
  6
CONTINUOUS
 62
    7
 10
430.6363384212753
 20
213.424266191454
 40
0.8333333333333334
 50
269.99999999999977
 51
359.99999999999966
  0
LINE
  8
_0-b_細線3
  6
CONTINUOUS
 62
    7
 10
431.46967175460873
 20
215.75759952478705
 11
431.46967175460873
 21
213.424266191454
  0
ARC
  8
_0-b_細線3
  6
CONTINUOUS
 62
    7
 10
417.46967175828729
 20
210.924266191454
 40
1.666666666666667
 50
0
 51
89.999999999999915
  0
LINE
  8
_0-b_細線3
  6
CONTINUOUS
 62
    7
 10
417.46967175828729
 20
212.59093285812057
 11
413.30300509162072
 21
212.59093285812057
  0
ARC
  8
_0-b_細線3
  6
CONTINUOUS
 62
    7
 10
426.46967175828763
 20
210.924266191454
 40
1.666666666666667
 50
89.999999999999915
 51
179.99999999999983
  0
LINE
  8
_0-b_細線3
  6
CONTINUOUS
 62
    7
 10
426.46967175460873
 20
212.59093285812057
 11
430.6363384212753
 21
212.59093285812057
  0
LINE
  8
_0-b_細線3
  6
CONTINUOUS
 62
    7
 10
426.13633842311481
 20
219.09093285812048
 11
417.80300508978121
 21
219.09093285812048
  0
LINE
  8
_0-b_細線3
  6
CONTINUOUS
 62
    7
 10
419.13633842311469
 20
177.42426619145405
 11
419.13633842495415
 21
210.924266191454
  0
LINE
  8
_0-b_細線3
  6
CONTINUOUS
 62
    7
 10
424.80300508978132
 20
177.42426619145405
 11
424.80300509162112
 21
210.924266191454
  0
LINE
  8
_0-b_細線3
  6
CONTINUOUS
 62
    7
 10
424.80300508978132
 20
177.42426619145405
 11
419.13633842311469
 21
177.42426619145405
  0
ARC
  8
_0-b_細線3
  6
CONTINUOUS
 62
    7
 10
443.13633842555726
 20
215.75759952478705
 40
1.666666666666667
 50
89.999999999999915
 51
179.99999999999983
  0
ARC
  8
_0-b_細線3
  6
CONTINUOUS
 62
    7
 10
443.91625374443606
 20
219.09093285812048
 40
1.666666666666667
 50
269.99999999999977
 51
329.9999999999979
  0
ARC
  8
_0-b_細線3
  6
CONTINUOUS
 62
    7
 10
446.80300509038426
 20
217.42426619145405
 40
1.666666666666667
 50
89.999999999999915
 51
150.00000000000819
  0
LINE
  8
_0-b_細線3
  6
CONTINUOUS
 62
    7
 10
443.13633842555726
 20
217.42426619145405
 11
443.91625374443606
 21
217.42426619145405
  0
ARC
  8
_0-b_細線3
  6
CONTINUOUS
 62
    7
 10
458.80300508854526
 20
215.75759952478705
 40
1.666666666666667
 50
0
 51
89.999999999999915
  0
ARC
  8
_0-b_細線3
  6
CONTINUOUS
 62
    7
 10
458.02308976966594
 20
219.09093285812048
 40
1.666666666666667
 50
209.99999999999451
 51
269.99999999999977
  0
ARC
  8
_0-b_細線3
  6
CONTINUOUS
 62
    7
 10
455.13633842371775
 20
217.42426619145405
 40
1.666666666666667
 50
29.999999999998682
 51
89.999999999999915
  0
LINE
  8
_0-b_細線3
  6
CONTINUOUS
 62
    7
 10
458.80300508854526
 20
217.42426619145405
 11
458.02308976966594
 21
217.42426619145405
  0
ARC
  8
_0-b_細線3
  6
CONTINUOUS
 62
    7
 10
442.30300509222417
 20
213.424266191454
 40
0.8333333333333334
 50
179.99999999999983
 51
269.99999999999977
  0
LINE
  8
_0-b_細線3
  6
CONTINUOUS
 62
    7
 10
441.46967175889017
 20
215.75759952478705
 11
441.46967175889017
 21
213.424266191454
  0
ARC
  8
_0-b_細線3
  6
CONTINUOUS
 62
    7
 10
459.63633842187824
 20
213.424266191454
 40
0.8333333333333334
 50
269.99999999999977
 51
359.99999999999966
  0
LINE
  8
_0-b_細線3
  6
CONTINUOUS
 62
    7
 10
460.46967175521183
 20
215.75759952478705
 11
460.46967175521183
 21
213.424266191454
  0
ARC
  8
_0-b_細線3
  6
CONTINUOUS
 62
    7
 10
446.46967175889023
 20
210.924266191454
 40
1.666666666666667
 50
0
 51
89.999999999999915
  0
LINE
  8
_0-b_細線3
  6
CONTINUOUS
 62
    7
 10
446.46967175889023
 20
212.59093285812057
 11
442.30300509222417
 21
212.59093285812057
  0
ARC
  8
_0-b_細線3
  6
CONTINUOUS
 62
    7
 10
455.46967175889074
 20
210.924266191454
 40
1.666666666666667
 50
89.999999999999915
 51
179.99999999999983
  0
LINE
  8
_0-b_細線3
  6
CONTINUOUS
 62
    7
 10
455.46967175521183
 20
212.59093285812057
 11
459.63633842187824
 21
212.59093285812057
  0
LINE
  8
_0-b_細線3
  6
CONTINUOUS
 62
    7
 10
455.13633842371775
 20
219.09093285812048
 11
446.80300509038426
 21
219.09093285812048
  0
LINE
  8
_0-b_細線3
  6
CONTINUOUS
 62
    7
 10
448.1363384237178
 20
177.42426619145405
 11
448.13633842555726
 21
210.924266191454
  0
LINE
  8
_0-b_細線3
  6
CONTINUOUS
 62
    7
 10
453.80300509038426
 20
177.42426619145405
 11
453.80300509222417
 21
210.924266191454
  0
LINE
  8
_0-b_細線3
  6
CONTINUOUS
 62
    7
 10
453.80300509038426
 20
177.42426619145405
 11
448.1363384237178
 21
177.42426619145405
  0
ARC
  8
_0-b_細線3
  6
CONTINUOUS
 62
    7
 10
472.13633842616025
 20
215.75759952478705
 40
1.666666666666667
 50
89.999999999999915
 51
179.99999999999983
  0
ARC
  8
_0-b_細線3
  6
CONTINUOUS
 62
    7
 10
472.91625374503917
 20
219.09093285812048
 40
1.666666666666667
 50
269.99999999999977
 51
329.9999999999979
  0
ARC
  8
_0-b_細線3
  6
CONTINUOUS
 62
    7
 10
475.80300509098726
 20
217.42426619145405
 40
1.666666666666667
 50
89.999999999999915
 51
150.00000000000819
  0
LINE
  8
_0-b_細線3
  6
CONTINUOUS
 62
    7
 10
472.13633842616025
 20
217.42426619145405
 11
472.91625374503917
 21
217.42426619145405
  0
ARC
  8
_0-b_細線3
  6
CONTINUOUS
 62
    7
 10
487.80300508914826
 20
215.75759952478705
 40
1.666666666666667
 50
0
 51
89.999999999999915
  0
ARC
  8
_0-b_細線3
  6
CONTINUOUS
 62
    7
 10
487.02308977026894
 20
219.09093285812048
 40
1.666666666666667
 50
210.00000000000136
 51
269.99999999999977
  0
ARC
  8
_0-b_細線3
  6
CONTINUOUS
 62
    7
 10
484.13633842432085
 20
217.42426619145405
 40
1.666666666666667
 50
29.999999999991843
 51
89.999999999984382
  0
LINE
  8
_0-b_細線3
  6
CONTINUOUS
 62
    7
 10
487.80300508914826
 20
217.42426619145405
 11
487.02308977026894
 21
217.42426619145405
  0
ARC
  8
_0-b_細線3
  6
CONTINUOUS
 62
    7
 10
471.30300509282677
 20
213.424266191454
 40
0.8333333333333334
 50
179.99999999999983
 51
269.99999999999977
  0
LINE
  8
_0-b_細線3
  6
CONTINUOUS
 62
    7
 10
470.46967175949328
 20
215.75759952478705
 11
470.46967175949328
 21
213.424266191454
  0
ARC
  8
_0-b_細線3
  6
CONTINUOUS
 62
    7
 10
488.63633842248134
 20
213.424266191454
 40
0.8333333333333334
 50
269.99999999999977
 51
359.99999999999966
  0
LINE
  8
_0-b_細線3
  6
CONTINUOUS
 62
    7
 10
489.46967175581483
 20
215.75759952478705
 11
489.46967175581483
 21
213.424266191454
  0
ARC
  8
_0-b_細線3
  6
CONTINUOUS
 62
    7
 10
475.46967175949328
 20
210.924266191454
 40
1.666666666666667
 50
0
 51
89.999999999999915
  0
LINE
  8
_0-b_細線3
  6
CONTINUOUS
 62
    7
 10
475.46967175949328
 20
212.59093285812057
 11
471.30300509282677
 21
212.59093285812057
  0
ARC
  8
_0-b_細線3
  6
CONTINUOUS
 62
    7
 10
484.46967175949334
 20
210.924266191454
 40
1.666666666666667
 50
89.999999999999915
 51
179.99999999999983
  0
LINE
  8
_0-b_細線3
  6
CONTINUOUS
 62
    7
 10
484.46967175581443
 20
212.59093285812057
 11
488.63633842248134
 21
212.59093285812057
  0
LINE
  8
_0-b_細線3
  6
CONTINUOUS
 62
    7
 10
484.13633842432085
 20
219.09093285812048
 11
475.80300509098726
 21
219.09093285812048
  0
LINE
  8
_0-b_細線3
  6
CONTINUOUS
 62
    7
 10
477.1363384243208
 20
177.42426619145405
 11
477.13633842616025
 21
210.924266191454
  0
LINE
  8
_0-b_細線3
  6
CONTINUOUS
 62
    7
 10
482.80300509098731
 20
177.42426619145405
 11
482.80300509282716
 21
210.924266191454
  0
LINE
  8
_0-b_細線3
  6
CONTINUOUS
 62
    7
 10
482.80300509098731
 20
177.42426619145405
 11
477.1363384243208
 21
177.42426619145405
  0
ARC
  8
_0-b_細線3
  6
CONTINUOUS
 62
    7
 10
356.1363384234312
 20
215.75759952478705
 40
1.666666666666667
 50
89.999999999999915
 51
179.99999999999983
  0
ARC
  8
_0-b_細線3
  6
CONTINUOUS
 62
    7
 10
356.91625374231018
 20
219.09093285812048
 40
1.666666666666667
 50
269.99999999999977
 51
330.00000000000375
  0
ARC
  8
_0-b_細線3
  6
CONTINUOUS
 62
    7
 10
359.80300508825837
 20
217.42426619145405
 40
1.666666666666667
 50
89.999999999999915
 51
150.0000000000023
  0
LINE
  8
_0-b_細線3
  6
CONTINUOUS
 62
    7
 10
356.1363384234312
 20
217.42426619145405
 11
356.91625374231018
 21
217.42426619145405
  0
ARC
  8
_0-b_細線3
  6
CONTINUOUS
 62
    7
 10
371.80300508641938
 20
215.75759952478705
 40
1.666666666666667
 50
0
 51
89.999999999999915
  0
ARC
  8
_0-b_細線3
  6
CONTINUOUS
 62
    7
 10
371.0230897675404
 20
219.09093285812048
 40
1.666666666666667
 50
209.99999999999451
 51
269.99999999999977
  0
ARC
  8
_0-b_細線3
  6
CONTINUOUS
 62
    7
 10
368.13633842159186
 20
217.42426619145405
 40
1.666666666666667
 50
29.999999999990862
 51
89.999999999986315
  0
LINE
  8
_0-b_細線3
  6
CONTINUOUS
 62
    7
 10
371.80300508641938
 20
217.42426619145405
 11
371.0230897675404
 21
217.42426619145405
  0
ARC
  8
_0-b_細線3
  6
CONTINUOUS
 62
    7
 10
355.30300509009828
 20
213.424266191454
 40
0.8333333333333334
 50
179.99999999999983
 51
269.99999999999977
  0
LINE
  8
_0-b_細線3
  6
CONTINUOUS
 62
    7
 10
354.46967175676428
 20
215.75759952478705
 11
354.46967175676428
 21
213.424266191454
  0
ARC
  8
_0-b_細線3
  6
CONTINUOUS
 62
    7
 10
372.63633841975235
 20
213.424266191454
 40
0.8333333333333334
 50
269.99999999999977
 51
359.99999999999966
  0
LINE
  8
_0-b_細線3
  6
CONTINUOUS
 62
    7
 10
373.46967175308629
 20
215.75759952478705
 11
373.46967175308629
 21
213.424266191454
  0
ARC
  8
_0-b_細線3
  6
CONTINUOUS
 62
    7
 10
359.46967175676428
 20
210.924266191454
 40
1.666666666666667
 50
0
 51
89.999999999999915
  0
LINE
  8
_0-b_細線3
  6
CONTINUOUS
 62
    7
 10
359.46967175676428
 20
212.59093285812057
 11
355.30300509009828
 21
212.59093285812057
  0
ARC
  8
_0-b_細線3
  6
CONTINUOUS
 62
    7
 10
368.46967175676468
 20
210.924266191454
 40
1.666666666666667
 50
89.999999999999915
 51
179.99999999999983
  0
LINE
  8
_0-b_細線3
  6
CONTINUOUS
 62
    7
 10
368.46967175308578
 20
212.59093285812057
 11
372.63633841975235
 21
212.59093285812057
  0
LINE
  8
_0-b_細線3
  6
CONTINUOUS
 62
    7
 10
368.13633842159186
 20
219.09093285812048
 11
359.80300508825837
 21
219.09093285812048
  0
LINE
  8
_0-b_細線3
  6
CONTINUOUS
 62
    7
 10
361.13633842159226
 20
177.42426619145405
 11
361.1363384234312
 21
210.924266191454
  0
LINE
  8
_0-b_細線3
  6
CONTINUOUS
 62
    7
 10
366.80300508825832
 20
177.42426619145405
 11
366.80300509009828
 21
210.924266191454
  0
LINE
  8
_0-b_細線3
  6
CONTINUOUS
 62
    7
 10
366.80300508825832
 20
177.42426619145405
 11
361.13633842159226
 21
177.42426619145405
  0
ARC
  8
_0-b_細線3
  6
CONTINUOUS
 62
    7
 10
385.13633842403431
 20
215.75759952478705
 40
1.666666666666667
 50
89.999999999999915
 51
179.99999999999983
  0
ARC
  8
_0-b_細線3
  6
CONTINUOUS
 62
    7
 10
385.91625374291368
 20
219.09093285812048
 40
1.666666666666667
 50
269.99999999999977
 51
329.99999999998812
  0
ARC
  8
_0-b_細線3
  6
CONTINUOUS
 62
    7
 10
388.80300508886137
 20
217.42426619145405
 40
1.666666666666667
 50
89.999999999999915
 51
150.00000000001012
  0
LINE
  8
_0-b_細線3
  6
CONTINUOUS
 62
    7
 10
385.13633842403431
 20
217.42426619145405
 11
385.91625374291368
 21
217.42426619145405
  0
ARC
  8
_0-b_細線3
  6
CONTINUOUS
 62
    7
 10
400.80300508702237
 20
215.75759952478705
 40
1.666666666666667
 50
0
 51
89.999999999999915
  0
ARC
  8
_0-b_細線3
  6
CONTINUOUS
 62
    7
 10
400.023089768143
 20
219.09093285812048
 40
1.666666666666667
 50
210.00000000000333
 51
269.99999999999977
  0
ARC
  8
_0-b_細線3
  6
CONTINUOUS
 62
    7
 10
397.13633842219531
 20
217.42426619145405
 40
1.666666666666667
 50
29.999999999997708
 51
89.999999999999901
  0
LINE
  8
_0-b_細線3
  6
CONTINUOUS
 62
    7
 10
400.80300508702237
 20
217.42426619145405
 11
400.023089768143
 21
217.42426619145405
  0
ARC
  8
_0-b_細線3
  6
CONTINUOUS
 62
    7
 10
384.30300509070122
 20
213.424266191454
 40
0.8333333333333334
 50
179.99999999999983
 51
269.99999999999977
  0
LINE
  8
_0-b_細線3
  6
CONTINUOUS
 62
    7
 10
383.46967175736779
 20
215.75759952478705
 11
383.46967175736779
 21
213.424266191454
  0
ARC
  8
_0-b_細線3
  6
CONTINUOUS
 62
    7
 10
401.63633842035529
 20
213.424266191454
 40
0.8333333333333334
 50
269.99999999999977
 51
359.99999999999966
  0
LINE
  8
_0-b_細線3
  6
CONTINUOUS
 62
    7
 10
402.46967175368889
 20
215.75759952478705
 11
402.46967175368889
 21
213.424266191454
  0
ARC
  8
_0-b_細線3
  6
CONTINUOUS
 62
    7
 10
388.46967175736779
 20
210.924266191454
 40
1.666666666666667
 50
0
 51
89.999999999999915
  0
LINE
  8
_0-b_細線3
  6
CONTINUOUS
 62
    7
 10
388.46967175736779
 20
212.59093285812057
 11
384.30300509070122
 21
212.59093285812057
  0
ARC
  8
_0-b_細線3
  6
CONTINUOUS
 62
    7
 10
397.46967175736779
 20
210.924266191454
 40
1.666666666666667
 50
89.999999999999915
 51
179.99999999999983
  0
LINE
  8
_0-b_細線3
  6
CONTINUOUS
 62
    7
 10
397.46967175368889
 20
212.59093285812057
 11
401.63633842035529
 21
212.59093285812057
  0
LINE
  8
_0-b_細線3
  6
CONTINUOUS
 62
    7
 10
397.13633842219531
 20
219.09093285812048
 11
388.80300508886137
 21
219.09093285812048
  0
LINE
  8
_0-b_細線3
  6
CONTINUOUS
 62
    7
 10
390.13633842219485
 20
177.42426619145405
 11
390.13633842403431
 21
210.924266191454
  0
LINE
  8
_0-b_細線3
  6
CONTINUOUS
 62
    7
 10
395.80300508886182
 20
177.42426619145405
 11
395.80300509070128
 21
210.924266191454
  0
LINE
  8
_0-b_細線3
  6
CONTINUOUS
 62
    7
 10
395.80300508886182
 20
177.42426619145405
 11
390.13633842219485
 21
177.42426619145405
  0
LINE
  8
_0-d_寸法3
  6
CONTINUOUS
 62
    7
 10
488.16119220086023
 20
183.16003055496452
 11
523.51353392654562
 21
207.91400672465528
  0
LINE
  8
_0-d_寸法3
  6
CONTINUOUS
 62
    7
 10
519.41777370510067
 20
205.0461245429
 11
516.82958325407549
 21
214.70538280579069
  0
LINE
  8
_0-d_寸法3
  6
CONTINUOUS
 62
    7
 10
519.41777370510067
 20
205.0461245429
 11
522.00596415612586
 21
214.70538280579069
  0
LINE
  8
_0-d_寸法3
  6
CONTINUOUS
 62
    7
 10
488.16119220086023
 20
224.82669722163098
 11
523.51353392654562
 21
249.58067339132182
  0
LINE
  8
_0-d_寸法3
  6
CONTINUOUS
 62
    7
 10
519.41777370510067
 20
246.71279120956655
 11
522.00596415612586
 21
237.05353294667589
  0
LINE
  8
_0-d_寸法3
  6
CONTINUOUS
 62
    7
 10
519.41777370510067
 20
246.71279120956655
 11
516.82958325407537
 21
237.05353294667589
  0
LINE
  8
_0-d_寸法3
  6
CONTINUOUS
 62
    7
 10
519.41777370510067
 20
205.0461245429
 11
519.41777370510067
 21
246.71279120956655
  0
TEXT
  8
_0-d_寸法3
 62
    7
 10
519.41777370510067
 20
218.37945787623437
 40
15
 41
1
 50
90
  1
25
  0
LINE
  8
_0-a_極細3
  6
CENTER1
 62
    7
 10
500.76843874674415
 20
200.42426619145374
 11
338.18989611881841
 21
200.42426619145374
  0
LINE
  8
_0-b_細線3
  6
CONTINUOUS
 62
    7
 10
424.80300509070128
 20
189.5909328581206
 11
448.1363384240347
 21
189.5909328581206
  0
LINE
  8
_0-b_細線3
  6
CONTINUOUS
 62
    7
 10
453.80300509130421
 20
189.5909328581206
 11
477.1363384246377
 21
189.5909328581206
  0
LINE
  8
_0-b_細線3
  6
CONTINUOUS
 62
    7
 10
366.80300508917833
 20
189.5909328581206
 11
390.13633842251181
 21
189.5909328581206
  0
LINE
  8
_0-b_細線3
  6
CONTINUOUS
 62
    7
 10
395.80300508978178
 20
189.5909328581206
 11
419.13633842311469
 21
189.5909328581206
  0
LINE
  8
_0-b_細線3
  6
CONTINUOUS
 62
    7
 10
424.80300509070128
 20
211.25759952478731
 11
448.1363384240347
 21
211.25759952478731
  0
LINE
  8
_0-b_細線3
  6
CONTINUOUS
 62
    7
 10
453.80300509130421
 20
211.25759952478731
 11
477.1363384246377
 21
211.25759952478731
  0
LINE
  8
_0-b_細線3
  6
CONTINUOUS
 62
    7
 10
366.80300508917833
 20
211.25759952478731
 11
390.13633842251181
 21
211.25759952478731
  0
LINE
  8
_0-b_細線3
  6
CONTINUOUS
 62
    7
 10
395.80300508978178
 20
211.25759952478731
 11
419.13633842311469
 21
211.25759952478731
  0
LINE
  8
_0-b_細線3
  6
CONTINUOUS
 62
    7
 10
482.80300509190732
 20
211.25759952478731
 11
493.56210148270742
 21
211.25759952478731
  0
LINE
  8
_0-b_細線3
  6
CONTINUOUS
 62
    7
 10
482.80300509190732
 20
189.5909328581206
 11
496.27057349176346
 21
189.5909328581206
  0
LINE
  8
_0-b_細線3
  6
CONTINUOUS
 62
    7
 10
348.64228604437346
 20
211.25759952478731
 11
361.13633842190882
 21
211.25759952478731
  0
LINE
  8
_0-b_細線3
  6
CONTINUOUS
 62
    7
 10
351.3507580534295
 20
189.5909328581206
 11
361.13633842190882
 21
189.5909328581206
  0
TEXT
  8
_0-7_枠細線
 62
    5
 10
382.23633842219436
 20
128.5404661036894
 40
25.000000000000007
 41
0.8
 50
0
  1
断面詳細
  0
TEXT
  8
_0-7_枠細線
 62
    5
 10
487.18530817136252
 20
131.49990592400917
 40
20.000000000000004
 41
0.5999999999999999
 50
0
  1
Ｓ＝１：３
  0
LINE
  8
_0-d_寸法3
  6
CONTINUOUS
 62
    7
 10
373.46967175308629
 20
229.09093285812048
 11
373.46967175308635
 21
270.75759952478705
  0
LINE
  8
_0-d_寸法3
  6
CONTINUOUS
 62
    7
 10
373.46967175308635
 20
265.75759952478705
 11
363.81041349019563
 21
263.16940907376187
  0
LINE
  8
_0-d_寸法3
  6
CONTINUOUS
 62
    7
 10
373.46967175308635
 20
265.75759952478705
 11
363.81041349019569
 21
268.34578997581229
  0
LINE
  8
_0-d_寸法3
  6
CONTINUOUS
 62
    7
 10
383.46967175736779
 20
229.09093285812048
 11
383.46967175736785
 21
270.75759952478705
  0
LINE
  8
_0-d_寸法3
  6
CONTINUOUS
 62
    7
 10
349.09571606991932
 20
265.75759952478705
 11
383.46967175736785
 21
265.75759952478705
  0
TEXT
  8
_0-d_寸法3
 62
    7
 10
349.09571606991932
 20
250.75759952478705
 40
15
 41
1
 50
0
  1
(6)
  0
LINE
  8
_0-d_寸法3
  6
CONTINUOUS
 62
    7
 10
383.46967175736785
 20
265.75759952478705
 11
393.12893002025851
 21
268.34578997581224
  0
LINE
  8
_0-d_寸法3
  6
CONTINUOUS
 62
    7
 10
383.46967175736785
 20
265.75759952478705
 11
393.12893002025851
 21
263.16940907376187
  0
LINE
  8
_0-d_寸法3
  6
CONTINUOUS
 62
    7
 10
402.46967175368889
 20
229.09093285812048
 11
402.46967175368894
 21
270.75759952478705
  0
LINE
  8
_0-d_寸法3
  6
CONTINUOUS
 62
    7
 10
402.46967175368894
 20
265.75759952478705
 11
392.81041349079828
 21
263.16940907376187
  0
LINE
  8
_0-d_寸法3
  6
CONTINUOUS
 62
    7
 10
402.46967175368894
 20
265.75759952478705
 11
392.81041349079828
 21
268.34578997581229
  0
LINE
  8
_0-d_寸法3
  6
CONTINUOUS
 62
    7
 10
383.46967175736785
 20
265.75759952478705
 11
402.46967175368894
 21
265.75759952478705
  0
TEXT
  8
_0-d_寸法3
 62
    7
 10
374.2049753291783
 20
265.75759952478705
 40
15
 41
1
 50
0
  1
11.4
  0
LINE
  8
_0-5_寸法線
  6
CONTINUOUS
 62
    7
 10
930.66487216364806
 20
640.79604780141483
 11
930.66487216364771
 21
567.79604780141472
  0
LINE
  8
_0-5_寸法線
  6
CONTINUOUS
 62
    7
 10
930.66487216364771
 20
572.79604780141472
 11
940.32413042653843
 21
575.3842382524399
  0
LINE
  8
_0-5_寸法線
  6
CONTINUOUS
 62
    7
 10
930.66487216364771
 20
572.79604780141472
 11
940.32413042653843
 21
570.20785735038953
  0
LINE
  8
_0-5_寸法線
  6
CONTINUOUS
 62
    7
 10
1280.6648721636477
 20
640.79604780141483
 11
1280.6648721636475
 21
567.79604780141472
  0
LINE
  8
_0-5_寸法線
  6
CONTINUOUS
 62
    7
 10
1280.6648721636475
 20
572.79604780141472
 11
1271.0056139007568
 21
570.20785735038953
  0
LINE
  8
_0-5_寸法線
  6
CONTINUOUS
 62
    7
 10
1280.6648721636475
 20
572.79604780141472
 11
1271.0056139007568
 21
575.3842382524399
  0
LINE
  8
_0-5_寸法線
  6
CONTINUOUS
 62
    7
 10
930.66487216364771
 20
572.79604780141472
 11
1280.6648721636475
 21
572.79604780141472
  0
TEXT
  8
_0-5_寸法線
 62
    7
 10
1094.4148721636475
 20
572.79604780141472
 40
15
 41
1
 50
0
  1
350
  0
LINE
  8
_0-5_寸法線
  6
CONTINUOUS
 62
    7
 10
900.66487216364794
 20
612.79604780141494
 11
900.66487216364726
 21
567.79604780141472
  0
LINE
  8
_0-5_寸法線
  6
CONTINUOUS
 62
    7
 10
900.66487216364737
 20
572.79604780141472
 11
910.32413042653798
 21
575.3842382524399
  0
LINE
  8
_0-5_寸法線
  6
CONTINUOUS
 62
    7
 10
900.66487216364737
 20
572.79604780141472
 11
910.32413042653798
 21
570.20785735038953
  0
LINE
  8
_0-5_寸法線
  6
CONTINUOUS
 62
    7
 10
930.66487216364794
 20
635.79604780141483
 11
930.66487216364692
 21
567.79604780141472
  0
LINE
  8
_0-5_寸法線
  6
CONTINUOUS
 62
    7
 10
930.66487216364692
 20
572.79604780141472
 11
921.00561390075632
 21
570.20785735038953
  0
LINE
  8
_0-5_寸法線
  6
CONTINUOUS
 62
    7
 10
930.66487216364692
 20
572.79604780141472
 11
921.00561390075632
 21
575.3842382524399
  0
LINE
  8
_0-5_寸法線
  6
CONTINUOUS
 62
    7
 10
900.66487216364737
 20
572.79604780141472
 11
930.66487216364692
 21
572.79604780141472
  0
TEXT
  8
_0-5_寸法線
 62
    7
 10
908.16487216364703
 20
572.79604780141472
 40
15
 41
1
 50
0
  1
30
  0
LINE
  8
_0-5_寸法線
  6
CONTINUOUS
 62
    7
 10
1310.6648721636479
 20
612.79604780141494
 11
1310.6648721636477
 21
567.79604780141472
  0
LINE
  8
_0-5_寸法線
  6
CONTINUOUS
 62
    7
 10
1310.6648721636477
 20
572.79604780141472
 11
1301.005613900757
 21
570.20785735038953
  0
LINE
  8
_0-5_寸法線
  6
CONTINUOUS
 62
    7
 10
1310.6648721636477
 20
572.79604780141472
 11
1301.005613900757
 21
575.3842382524399
  0
LINE
  8
_0-5_寸法線
  6
CONTINUOUS
 62
    7
 10
1280.6648721636479
 20
635.79604780141483
 11
1280.6648721636477
 21
567.79604780141472
  0
LINE
  8
_0-5_寸法線
  6
CONTINUOUS
 62
    7
 10
1280.6648721636477
 20
572.79604780141472
 11
1290.3241304265384
 21
575.3842382524399
  0
LINE
  8
_0-5_寸法線
  6
CONTINUOUS
 62
    7
 10
1280.6648721636477
 20
572.79604780141472
 11
1290.3241304265384
 21
570.20785735038953
  0
LINE
  8
_0-5_寸法線
  6
CONTINUOUS
 62
    7
 10
1310.6648721636477
 20
572.79604780141472
 11
1280.6648721636477
 21
572.79604780141472
  0
TEXT
  8
_0-5_寸法線
 62
    7
 10
1288.1648721636477
 20
572.79604780141472
 40
15
 41
1
 50
0
  1
30
  0
LINE
  8
_0-5_寸法線
  6
CONTINUOUS
 62
    7
 10
890.66487216364806
 20
673.79604780141494
 11
843.36487216364867
 21
673.79604780141517
  0
LINE
  8
_0-5_寸法線
  6
CONTINUOUS
 62
    7
 10
848.36487216364867
 20
673.79604780141517
 11
850.95306261467385
 21
664.13678953852457
  0
LINE
  8
_0-5_寸法線
  6
CONTINUOUS
 62
    7
 10
848.36487216364867
 20
673.79604780141517
 11
845.7766817126236
 21
664.13678953852457
  0
LINE
  8
_0-5_寸法線
  6
CONTINUOUS
 62
    7
 10
888.36487216364867
 20
645.79604780141483
 11
843.36487216364867
 21
645.79604780141483
  0
LINE
  8
_0-5_寸法線
  6
CONTINUOUS
 62
    7
 10
848.36487216364867
 20
645.79604780141483
 11
845.7766817126236
 21
655.45530606430566
  0
LINE
  8
_0-5_寸法線
  6
CONTINUOUS
 62
    7
 10
848.36487216364867
 20
645.79604780141483
 11
850.95306261467385
 21
655.45530606430566
  0
LINE
  8
_0-5_寸法線
  6
CONTINUOUS
 62
    7
 10
848.36487216364867
 20
673.79604780141517
 11
848.36487216364867
 21
645.79604780141483
  0
TEXT
  8
_0-5_寸法線
 62
    7
 10
848.36487216364867
 20
652.29604780141494
 40
15
 41
1
 50
90
  1
28
  0
LINE
  8
_0-5_寸法線
  6
CONTINUOUS
 62
    7
 10
888.36487216364867
 20
645.79604780141483
 11
843.36487216364867
 21
645.79604780141483
  0
LINE
  8
_0-5_寸法線
  6
CONTINUOUS
 62
    7
 10
848.36487216364867
 20
645.79604780141483
 11
850.95306261467385
 21
636.13678953852411
  0
LINE
  8
_0-5_寸法線
  6
CONTINUOUS
 62
    7
 10
848.36487216364867
 20
645.79604780141483
 11
845.7766817126236
 21
636.13678953852411
  0
LINE
  8
_0-5_寸法線
  6
CONTINUOUS
 62
    7
 10
888.36487216364867
 20
622.79604780141483
 11
843.36487216364867
 21
622.79604780141483
  0
LINE
  8
_0-5_寸法線
  6
CONTINUOUS
 62
    7
 10
848.36487216364867
 20
622.79604780141483
 11
845.7766817126236
 21
632.45530606430555
  0
LINE
  8
_0-5_寸法線
  6
CONTINUOUS
 62
    7
 10
848.36487216364867
 20
622.79604780141483
 11
850.95306261467385
 21
632.45530606430555
  0
LINE
  8
_0-5_寸法線
  6
CONTINUOUS
 62
    7
 10
848.36487216364867
 20
645.79604780141483
 11
848.36487216364867
 21
622.79604780141483
  0
TEXT
  8
_0-5_寸法線
 62
    7
 10
848.36487216364867
 20
626.79604780141494
 40
15
 41
1
 50
90
  1
23
  0
LINE
  8
_0-5_寸法線
  6
CONTINUOUS
 62
    7
 10
1310.6648721636479
 20
683.79604780141517
 11
1310.6648721636484
 21
798.79604780141472
  0
LINE
  8
_0-5_寸法線
  6
CONTINUOUS
 62
    7
 10
1310.6648721636484
 20
793.79604780141472
 11
1301.0056139007577
 21
791.20785735038965
  0
LINE
  8
_0-5_寸法線
  6
CONTINUOUS
 62
    7
 10
1310.6648721636484
 20
793.79604780141472
 11
1301.0056139007577
 21
796.3842382524399
  0
LINE
  8
_0-5_寸法線
  6
CONTINUOUS
 62
    7
 10
900.66487216364806
 20
683.79604780141517
 11
900.66487216364817
 21
798.79604780141517
  0
LINE
  8
_0-5_寸法線
  6
CONTINUOUS
 62
    7
 10
900.66487216364817
 20
793.79604780141517
 11
910.324130426539
 21
796.38423825244047
  0
LINE
  8
_0-5_寸法線
  6
CONTINUOUS
 62
    7
 10
900.66487216364817
 20
793.79604780141517
 11
910.324130426539
 21
791.2078573503901
  0
LINE
  8
_0-5_寸法線
  6
CONTINUOUS
 62
    7
 10
1310.6648721636484
 20
793.79604780141472
 11
900.66487216364817
 21
793.79604780141517
  0
TEXT
  8
_0-5_寸法線
 62
    7
 10
1094.4148721636484
 20
793.79604780141506
 40
15
 41
1
 50
0
  1
410
  0
LINE
  8
_0-5_寸法線
  6
CONTINUOUS
 62
    7
 10
900.66487268271794
 20
683.79604780141517
 11
900.66487268271817
 21
763.79604780141517
  0
LINE
  8
_0-5_寸法線
  6
CONTINUOUS
 62
    7
 10
900.66487268271817
 20
758.79604780141517
 11
891.00561441982734
 21
756.2078573503901
  0
LINE
  8
_0-5_寸法線
  6
CONTINUOUS
 62
    7
 10
900.66487268271817
 20
758.79604780141517
 11
891.00561441982734
 21
761.38423825244035
  0
LINE
  8
_0-5_寸法線
  6
CONTINUOUS
 62
    7
 10
903.66487216364806
 20
683.79604780141517
 11
903.66487216364817
 21
763.79604780141517
  0
CIRCLE
  8
_0-5_寸法線
  6
CONTINUOUS
 62
    1
 10
903.66487216364817
 20
758.79604780141517
 40
1.5000000000000002
  0
LINE
  8
_0-5_寸法線
  6
CONTINUOUS
 62
    7
 10
875.66487268271817
 20
758.79604780141517
 11
903.66487216364817
 21
758.79604780141517
  0
TEXT
  8
_0-5_寸法線
 62
    7
 10
880.61084082640548
 20
758.79604780141517
 40
15
 41
1
 50
0
  1
3
  0
LINE
  8
_0-5_寸法線
  6
CONTINUOUS
 62
    7
 10
905.16487216364783
 20
683.79604780141517
 11
905.16487216364794
 21
763.79604780141517
  0
LINE
  8
_0-5_寸法線
  6
CONTINUOUS
 62
    7
 10
903.66487216364817
 20
758.79604780141517
 11
905.16487216364794
 21
758.79604780141517
  0
TEXT
  8
_0-5_寸法線
 62
    7
 10
905.80088542060025
 20
758.79604780141517
 40
15
 41
1
 50
0
  1
1.5
  0
LINE
  8
_0-5_寸法線
  6
CONTINUOUS
 62
    7
 10
905.16487216364794
 20
758.79604780141517
 11
914.82413042653866
 21
761.38423825244035
  0
LINE
  8
_0-5_寸法線
  6
CONTINUOUS
 62
    7
 10
905.16487216364794
 20
758.79604780141517
 11
914.82413042653866
 21
756.20785735038999
  0
LINE
  8
_0-5_寸法線
  6
CONTINUOUS
 62
    7
 10
1306.1648721636479
 20
683.79582880040755
 11
1306.1648721636482
 21
763.79604780141517
  0
LINE
  8
_0-5_寸法線
  6
CONTINUOUS
 62
    7
 10
1306.1648721636482
 20
758.79604780141517
 11
1296.5056139007575
 21
756.2078573503901
  0
LINE
  8
_0-5_寸法線
  6
CONTINUOUS
 62
    7
 10
1306.1648721636482
 20
758.79604780141517
 11
1296.5056139007575
 21
761.38423825244035
  0
LINE
  8
_0-5_寸法線
  6
CONTINUOUS
 62
    7
 10
905.16487216364794
 20
758.79604780141517
 11
1306.1648721636482
 21
758.79604780141517
  0
TEXT
  8
_0-5_寸法線
 62
    7
 10
1094.4148721636479
 20
758.79604780141517
 40
15
 41
1
 50
0
  1
401
  0
LINE
  8
_0-5_寸法線
  6
CONTINUOUS
 62
    7
 10
1307.6648721636477
 20
683.79604780141517
 11
1307.6648721636479
 21
763.79604780141517
  0
CIRCLE
  8
_0-5_寸法線
  6
CONTINUOUS
 62
    1
 10
1307.6648721636479
 20
758.79604780141517
 40
1.5000000000000002
  0
LINE
  8
_0-5_寸法線
  6
CONTINUOUS
 62
    7
 10
1306.1648721636482
 20
758.79604780141517
 11
1307.6648721636479
 21
758.79604780141517
  0
TEXT
  8
_0-5_寸法線
 62
    7
 10
1281.4607879789223
 20
758.79604780141517
 40
15
 41
1
 50
0
  1
1.5
  0
LINE
  8
_0-5_寸法線
  6
CONTINUOUS
 62
    7
 10
1310.6648721636479
 20
683.79604780141517
 11
1310.6648721636484
 21
763.79604780141517
  0
LINE
  8
_0-5_寸法線
  6
CONTINUOUS
 62
    7
 10
1310.6648721636484
 20
758.79604780141517
 11
1320.3241304265389
 21
761.38423825244035
  0
LINE
  8
_0-5_寸法線
  6
CONTINUOUS
 62
    7
 10
1310.6648721636484
 20
758.79604780141517
 11
1320.3241304265389
 21
756.20785735038999
  0
LINE
  8
_0-5_寸法線
  6
CONTINUOUS
 62
    7
 10
1307.6648721636479
 20
758.79604780141517
 11
1335.6648721636484
 21
758.79604780141517
  0
TEXT
  8
_0-5_寸法線
 62
    7
 10
1324.9208308930997
 20
758.79604780141517
 40
15
 41
1
 50
0
  1
3
  0
LINE
  8
_0-5_寸法線
  6
CONTINUOUS
 62
    7
 10
1165.1648721647239
 20
683.79582880040755
 11
1165.1648721647241
 21
728.79582880040834
  0
LINE
  8
_0-5_寸法線
  6
CONTINUOUS
 62
    7
 10
1165.1648721647241
 20
723.79582880040834
 11
1174.8241304276148
 21
726.38401925143341
  0
LINE
  8
_0-5_寸法線
  6
CONTINUOUS
 62
    7
 10
1165.1648721647241
 20
723.79582880040834
 11
1174.8241304276148
 21
721.20763834938305
  0
LINE
  8
_0-5_寸法線
  6
CONTINUOUS
 62
    7
 10
1182.1648721650859
 20
683.79582880040755
 11
1182.1648721650861
 21
728.79582880040834
  0
LINE
  8
_0-5_寸法線
  6
CONTINUOUS
 62
    7
 10
1182.1648721650861
 20
723.79582880040834
 11
1172.5056139021954
 21
721.20763834938305
  0
LINE
  8
_0-5_寸法線
  6
CONTINUOUS
 62
    7
 10
1182.1648721650861
 20
723.79582880040834
 11
1172.5056139021954
 21
726.38401925143341
  0
LINE
  8
_0-5_寸法線
  6
CONTINUOUS
 62
    7
 10
1165.1648721647241
 20
723.79582880040834
 11
1182.1648721650861
 21
723.79582880040834
  0
TEXT
  8
_0-5_寸法線
 62
    7
 10
1157.5088948723001
 20
708.79582880040834
 40
15
 41
1
 50
0
  1
(17)
  0
LINE
  8
_0-5_寸法線
  6
CONTINUOUS
 62
    7
 10
1182.1648721650861
 20
723.79582880040834
 11
1191.8241304279768
 21
726.38401925143341
  0
LINE
  8
_0-5_寸法線
  6
CONTINUOUS
 62
    7
 10
1182.1648721650861
 20
723.79582880040834
 11
1191.8241304279768
 21
721.20763834938305
  0
LINE
  8
_0-5_寸法線
  6
CONTINUOUS
 62
    7
 10
1199.1648721652575
 20
683.79582880040755
 11
1199.1648721652577
 21
728.79582880040834
  0
LINE
  8
_0-5_寸法線
  6
CONTINUOUS
 62
    7
 10
1199.1648721652577
 20
723.79582880040834
 11
1189.5056139023673
 21
721.20763834938305
  0
LINE
  8
_0-5_寸法線
  6
CONTINUOUS
 62
    7
 10
1199.1648721652577
 20
723.79582880040834
 11
1189.5056139023673
 21
726.38401925143341
  0
LINE
  8
_0-5_寸法線
  6
CONTINUOUS
 62
    7
 10
1182.1648721650861
 20
723.79582880040834
 11
1199.1648721652577
 21
723.79582880040834
  0
TEXT
  8
_0-5_寸法線
 62
    7
 10
1176.5755615386306
 20
723.79582880040834
 40
15
 41
1
 50
0
  1
(17)
  0
LINE
  8
_0-5_寸法線
  6
CONTINUOUS
 62
    7
 10
1017.8648723520894
 20
683.79582880040755
 11
1017.8648723520896
 21
728.79582880040834
  0
LINE
  8
_0-5_寸法線
  6
CONTINUOUS
 62
    7
 10
1017.8648723520896
 20
723.79582880040834
 11
1008.205614089199
 21
721.20763834938305
  0
LINE
  8
_0-5_寸法線
  6
CONTINUOUS
 62
    7
 10
1017.8648723520896
 20
723.79582880040834
 11
1008.205614089199
 21
726.38401925143341
  0
LINE
  8
_0-5_寸法線
  6
CONTINUOUS
 62
    7
 10
1023.4648721634852
 20
683.79582880040755
 11
1023.4648721634856
 21
728.79582880040834
  0
LINE
  8
_0-5_寸法線
  6
CONTINUOUS
 62
    7
 10
978.49091666873176
 20
723.79582880040834
 11
1023.4648721634856
 21
723.79582880040834
  0
TEXT
  8
_0-5_寸法線
 62
    7
 10
978.49091666873164
 20
708.79582880040834
 40
15
 41
1
 50
0
  1
(5.6)
  0
LINE
  8
_0-5_寸法線
  6
CONTINUOUS
 62
    7
 10
1023.4648721634856
 20
723.79582880040834
 11
1033.1241304263763
 21
726.38401925143341
  0
LINE
  8
_0-5_寸法線
  6
CONTINUOUS
 62
    7
 10
1023.4648721634856
 20
723.79582880040834
 11
1033.1241304263763
 21
721.20763834938305
  0
LINE
  8
_0-5_寸法線
  6
CONTINUOUS
 62
    7
 10
1034.8648721612785
 20
683.79582880040755
 11
1034.8648721612785
 21
728.79582880040834
  0
LINE
  8
_0-5_寸法線
  6
CONTINUOUS
 62
    7
 10
1034.8648721612785
 20
723.79582880040834
 11
1025.2056138983878
 21
721.20763834938305
  0
LINE
  8
_0-5_寸法線
  6
CONTINUOUS
 62
    7
 10
1034.8648721612785
 20
723.79582880040834
 11
1025.2056138983878
 21
726.38401925143341
  0
LINE
  8
_0-5_寸法線
  6
CONTINUOUS
 62
    7
 10
1023.4648721634856
 20
723.79582880040834
 11
1034.8648721612785
 21
723.79582880040834
  0
TEXT
  8
_0-5_寸法線
 62
    7
 10
1010.4001757359623
 20
723.79582880040834
 40
15
 41
1
 50
0
  1
11.4
  0
LINE
  8
_0-5_寸法線
  6
CONTINUOUS
 62
    7
 10
635.95073793003723
 20
464.92923068874939
 11
639.89525054507942
 21
474.11839932523503
  0
LINE
  8
_0-5_寸法線
  6
CONTINUOUS
 62
    7
 10
635.95073793003723
 20
464.92923068874939
 11
643.96137037845494
 21
470.91502786008414
  0
LINE
  8
_0-5_寸法線
  6
CONTINUOUS
 62
    7
 10
635.95073793003723
 20
464.92923068874939
 11
658.84666189584459
 21
493.9916018666222
  0
LINE
  8
_0-5_寸法線
  6
CONTINUOUS
 62
    7
 10
658.84666189584459
 20
493.9916018666222
 11
766.84666189584459
 21
493.9916018666222
  0
TEXT
  8
_0-5_寸法線
 62
    7
 10
658.84666189584459
 20
493.9916018666222
 40
15
 41
0.8000000000000001
 50
0
  1
ＳＵＳアングル受枠
  0
TEXT
  8
_0-5_寸法線
 62
    7
 10
659.88686168923709
 20
478.91687518135518
 40
15
 41
0.8000000000000001
 50
0
  1
ＧＳＬ－２５
  0
LINE
  8
_0-5_寸法線
  6
CONTINUOUS
 62
    7
 10
611.00238480067583
 20
581.11034066311538
 11
614.94689741571801
 21
590.29950929960114
  0
LINE
  8
_0-5_寸法線
  6
CONTINUOUS
 62
    7
 10
611.00238480067583
 20
581.11034066311538
 11
619.01301724909342
 21
587.09613783445013
  0
LINE
  8
_0-5_寸法線
  6
CONTINUOUS
 62
    7
 10
611.00238480067583
 20
581.11034066311538
 11
658.84666189584459
 21
641.84028289009507
  0
LINE
  8
_0-5_寸法線
  6
CONTINUOUS
 62
    7
 10
658.84666189584459
 20
641.84028289009507
 11
790.84666189584493
 21
641.84028289009507
  0
TEXT
  8
_0-5_寸法線
 62
    7
 10
658.84666189584482
 20
641.84028289009507
 40
15
 41
0.8000000000000001
 50
0
  1
セーフティグレーチング
  0
TEXT
  8
_0-5_寸法線
 62
    7
 10
659.81378910108106
 20
626.76555620482793
 40
15
 41
0.8000000000000001
 50
0
  1
ＧＲＳ－２５Ｋ４００
  0
LINE
  8
_0-5_寸法線
  6
CONTINUOUS
 62
    7
 10
217.39565491860333
 20
318.52457415938909
 11
137.3956549186031
 21
318.52457415938932
  0
LINE
  8
_0-5_寸法線
  6
CONTINUOUS
 62
    7
 10
142.3956549186031
 20
318.52457415938932
 11
139.80746446757792
 21
328.18383242228003
  0
LINE
  8
_0-5_寸法線
  6
CONTINUOUS
 62
    7
 10
142.3956549186031
 20
318.52457415938932
 11
144.98384536962831
 21
328.18383242228003
  0
LINE
  8
_0-5_寸法線
  6
CONTINUOUS
 62
    7
 10
217.39565491860333
 20
728.5245741593892
 11
137.3956549186031
 21
728.52457415938932
  0
LINE
  8
_0-5_寸法線
  6
CONTINUOUS
 62
    7
 10
142.3956549186031
 20
728.52457415938932
 11
144.98384536962831
 21
718.8653158964986
  0
LINE
  8
_0-5_寸法線
  6
CONTINUOUS
 62
    7
 10
142.3956549186031
 20
728.52457415938932
 11
139.80746446757792
 21
718.8653158964986
  0
LINE
  8
_0-5_寸法線
  6
CONTINUOUS
 62
    7
 10
142.3956549186031
 20
318.52457415938932
 11
142.3956549186031
 21
728.52457415938932
  0
TEXT
  8
_0-5_寸法線
 62
    7
 10
142.39565491860304
 20
512.27457415938932
 40
15
 41
1
 50
89.999999999999815
  1
410
  0
LINE
  8
_0-5_寸法線
  6
CONTINUOUS
 62
    7
 10
217.39565491860333
 20
318.52457415938909
 11
172.39565491860333
 21
318.5245741593892
  0
LINE
  8
_0-5_寸法線
  6
CONTINUOUS
 62
    7
 10
177.39565491860333
 20
318.5245741593892
 11
179.98384536962845
 21
308.86531589649849
  0
LINE
  8
_0-5_寸法線
  6
CONTINUOUS
 62
    7
 10
177.39565491860333
 20
318.5245741593892
 11
174.80746446757806
 21
308.86531589649854
  0
LINE
  8
_0-5_寸法線
  6
CONTINUOUS
 62
    7
 10
217.39565491860333
 20
321.52457415938909
 11
172.39565491860333
 21
321.5245741593892
  0
CIRCLE
  8
_0-5_寸法線
  6
CONTINUOUS
 62
    1
 10
177.39565491860333
 20
321.5245741593892
 40
1.5000000000000002
  0
LINE
  8
_0-5_寸法線
  6
CONTINUOUS
 62
    7
 10
177.39565491860333
 20
293.5245741593892
 11
177.39565491860333
 21
321.5245741593892
  0
TEXT
  8
_0-5_寸法線
 62
    7
 10
177.39565491860333
 20
297.11944894351831
 40
15
 41
1
 50
90
  1
3
  0
LINE
  8
_0-5_寸法線
  6
CONTINUOUS
 62
    7
 10
217.39565491860333
 20
323.0245741593892
 11
172.39565491860333
 21
323.02457415938909
  0
LINE
  8
_0-5_寸法線
  6
CONTINUOUS
 62
    7
 10
177.39565491860333
 20
321.5245741593892
 11
177.39565491860333
 21
323.02457415938909
  0
TEXT
  8
_0-5_寸法線
 62
    7
 10
195.98024919709781
 20
325.58595353474942
 40
15
 41
1
 50
89.999999999999815
  1
1.5
  0
LINE
  8
_0-5_寸法線
  6
CONTINUOUS
 62
    7
 10
177.39565491860333
 20
323.02457415938909
 11
174.8074644675782
 21
332.68383242227975
  0
LINE
  8
_0-5_寸法線
  6
CONTINUOUS
 62
    7
 10
177.39565491860333
 20
323.02457415938909
 11
179.9838453696286
 21
332.68383242227975
  0
LINE
  8
_0-5_寸法線
  6
CONTINUOUS
 62
    7
 10
217.39565491860333
 20
724.02457415938909
 11
172.39565491860333
 21
724.02457415938909
  0
LINE
  8
_0-5_寸法線
  6
CONTINUOUS
 62
    7
 10
177.39565491860333
 20
724.02457415938909
 11
179.98384536962845
 21
714.36531589649849
  0
LINE
  8
_0-5_寸法線
  6
CONTINUOUS
 62
    7
 10
177.39565491860333
 20
724.02457415938909
 11
174.80746446757806
 21
714.36531589649849
  0
LINE
  8
_0-5_寸法線
  6
CONTINUOUS
 62
    7
 10
177.39565491860333
 20
323.02457415938909
 11
177.39565491860333
 21
724.02457415938909
  0
TEXT
  8
_0-5_寸法線
 62
    7
 10
177.39565491860333
 20
512.2745741593892
 40
15
 41
1
 50
90
  1
401
  0
LINE
  8
_0-5_寸法線
  6
CONTINUOUS
 62
    7
 10
217.39565491860333
 20
725.5245741593892
 11
172.39565491860333
 21
725.52457415938932
  0
CIRCLE
  8
_0-5_寸法線
  6
CONTINUOUS
 62
    1
 10
177.39565491860333
 20
725.52457415938932
 40
1.5000000000000002
  0
LINE
  8
_0-5_寸法線
  6
CONTINUOUS
 62
    7
 10
177.39565491860333
 20
724.02457415938909
 11
177.39565491860333
 21
725.52457415938932
  0
TEXT
  8
_0-5_寸法線
 62
    7
 10
196.03434411643235
 20
699.14033280649267
 40
15
 41
1
 50
90
  1
1.5
  0
LINE
  8
_0-5_寸法線
  6
CONTINUOUS
 62
    7
 10
217.39565491860333
 20
728.5245741593892
 11
172.39565491860333
 21
728.52457415938932
  0
LINE
  8
_0-5_寸法線
  6
CONTINUOUS
 62
    7
 10
177.39565491860333
 20
728.52457415938932
 11
174.8074644675782
 21
738.18383242228015
  0
LINE
  8
_0-5_寸法線
  6
CONTINUOUS
 62
    7
 10
177.39565491860333
 20
728.52457415938932
 11
179.9838453696286
 21
738.18383242228015
  0
LINE
  8
_0-5_寸法線
  6
CONTINUOUS
 62
    7
 10
177.39565491860333
 20
725.52457415938932
 11
177.39565491860333
 21
753.52457415938932
  0
TEXT
  8
_0-5_寸法線
 62
    7
 10
177.39565491860333
 20
742.61140443448357
 40
15
 41
1
 50
90
  1
3
  0
ARC
  8
_0-1_計細線
  6
CONTINUOUS
 62
    3
 10
908.36487216168564
 20
656.29582880040789
 40
0.2000000000000001
 50
179.99999999999983
 51
269.99999999999977
  0
ARC
  8
_0-1_計細線
  6
CONTINUOUS
 62
    3
 10
908.36487216168564
 20
668.89582880040791
 40
0.2000000000000001
 50
89.999999999999915
 51
179.99999999999983
  0
LINE
  8
_0-1_計細線
  6
CONTINUOUS
 62
    3
 10
908.16487216168548
 20
662.09582880040784
 11
908.16487216168548
 21
656.29582880040789
  0
LINE
  8
_0-1_計細線
  6
CONTINUOUS
 62
    3
 10
908.16487216168548
 20
668.89582880040791
 11
908.16487216168548
 21
662.09582880040784
  0
LINE
  8
_0-1_計細線
  6
CONTINUOUS
 62
    3
 10
909.16487216215489
 20
656.09582880040807
 11
908.36487216168564
 21
656.09582880040807
  0
LINE
  8
_0-1_計細線
  6
CONTINUOUS
 62
    3
 10
909.16487216144094
 20
669.09582880040807
 11
908.36487216168564
 21
669.09582880040807
  0
LINE
  8
_0-0_計極細
  6
CENTER1
 62
    2
 10
1309.358735028678
 20
662.59582880040784
 11
902.16207582816492
 21
662.59582880040784
  0
ENDSEC
  0
EOF
