  0
SECTION
  2
HEADER
  9
$ACADVER
  1
AC1009
  9
$INSBASE
 10
0
 20
0
 30
0
  9
$EXTMIN
 10
0
 20
0
  9
$EXTMAX
 10
1782
 20
1260
  9
$LIMMIN
 10
0
 20
0
  9
$LIMMAX
 10
1782
 20
1260
  9
$LTSCALE
 40
6
  0
ENDSEC
  0
SECTION
  2
TABLES
  0
TABLE
  2
LTYPE
 70
     9
  0
LTYPE
  2
CONTINUOUS
 70
    64
  3
実線
 72
    65
 73
     0
 40
0.0
  0
LTYPE
  2
DASHED1
 70
    64
  3
--  --  --  --  --  --  --  --  
 72
    65
 73
     2
 40
2.5
 49
1.25
 49
-1.25
  0
LTYPE
  2
DASHED2
 70
    64
  3
----    ----    ----    ----    
 72
    65
 73
     2
 40
5.0
 49
2.5
 49
-2.5
  0
LTYPE
  2
DASHED3
 70
    64
  3
------  ------  ------  ------  
 72
    65
 73
     2
 40
5.0
 49
3.75
 49
-1.25
  0
LTYPE
  2
CENTER1
 70
    64
  3
----- - ----- - ----- - ----- - 
 72
    65
 73
     4
 40
10.0
 49
6.25
 49
-1.25
 49
1.25
 49
-1.25
  0
LTYPE
  2
CENTER2
 70
    64
  3
----------  --  ----------  --  
 72
    65
 73
     4
 40
20.0
 49
12.5
 49
-2.5
 49
2.5
 49
-2.5
  0
LTYPE
  2
PHANTOM1
 70
    64
  3
--- - - --- - - --- - - --- - - 
 72
    65
 73
     6
 40
10.0
 49
3.25
 49
-1.25
 49
1.25
 49
-1.25
 49
1.25
 49
-1.25
  0
LTYPE
  2
PHANTOM2
 70
    64
  3
--------  -  -  --------  -  -  
 72
    65
 73
     6
 40
20.0
 49
10.0
 49
-2.5
 49
1.25
 49
-2.5
 49
1.25
 49
-2.5
  0
LTYPE
  2
DOT
 70
    64
  3
-   -   -   -   -   -   -   -   
 72
    65
 73
     2
 40
2.5
 49
0.625
 49
-1.875
  0
LTYPE
  2
DUMMY
 70
    64
  3
ダミー
 72
    65
 73
     0
 40
0.0
  0
LTYPE
  2
RAND1
 70
    64
  3
ランダム線1
 72
    65
 73
     4
 40
10.0
 49
1.0
 49
-2.0
 49
3.0
 49
-4.0
  0
LTYPE
  2
RAND2
 70
    64
  3
ランダム線2
 72
    65
 73
     4
 40
14.0
 49
2.0
 49
-3.0
 49
4.0
 49
-5.0
  0
LTYPE
  2
RAND3
 70
    64
  3
ランダム線3
 72
    65
 73
     4
 40
18.0
 49
3.0
 49
-4.0
 49
5.0
 49
-6.0
  0
LTYPE
  2
RAND4
 70
    64
  3
ランダム線4
 72
    65
 73
     4
 40
22.0
 49
4.0
 49
-5.0
 49
6.0
 49
-7.0
  0
LTYPE
  2
RAND5
 70
    64
  3
ランダム線5
 72
    65
 73
     4
 40
26.0
 49
5.0
 49
-6.0
 49
7.0
 49
-8.0
  0
LTYPE
  2
LONG1
 70
    64
  3
----------  --  ----------  --  
 72
    65
 73
     4
 40
40.0
 49
32.5
 49
-2.5
 49
2.5
 49
-2.5
  0
LTYPE
  2
LONG2
 70
    64
  3
--------  -  -  --------  -  -  
 72
    65
 73
     6
 40
40.0
 49
30.0
 49
-2.5
 49
1.25
 49
-2.5
 49
1.25
 49
-2.5
  0
LTYPE
  2
LONG3
 70
    64
  3
+++++++++++++++..+++++++++++++++
 72
    65
 73
     2
 40
40.0
 49
37.5
 49
-2.5
  0
LTYPE
  2
LONG4
 70
    64
  3
+++++++++++++++..+++++++++++++++
 72
    65
 73
     2
 40
80.0
 49
75.0
 49
-5.0
  0
LTYPE
  2
LONG5
 70
    64
  3
----------  --  ----------  --  
 72
    65
 73
     4
 40
60.0
 49
37.5
 49
-7.5
 49
7.5
 49
-7.5
  0
LTYPE
  2
dashed
 70
   64
  3
-------   -------------   ------
 72
   65
 73
    2
 40
7.5
 49
6
 49
-1.5
  0
LTYPE
  2
dashed_spaced
 70
   64
  3
----        --------        ----
 72
   65
 73
    2
 40
12
 49
6
 49
-6
  0
LTYPE
  2
long_dashed_dotted
 70
   64
  3
------------- --- --------------
 72
   65
 73
    4
 40
15.25
 49
12
 49
-1.5
 49
0.25
 49
-1.5
  0
LTYPE
  2
long_dashed_double-dotted
 70
   64
  3
----------- --- --- ------------
 72
   65
 73
    6
 40
17
 49
12
 49
-1.5
 49
0.25
 49
-1.5
 49
0.25
 49
-1.5
  0
LTYPE
  2
long_dashed_triplicate-dotted
 70
   64
  3
--------- --- --- --- ----------
 72
   65
 73
    8
 40
18.75
 49
12
 49
-1.5
 49
0.25
 49
-1.5
 49
0.25
 49
-1.5
 49
0.25
 49
-1.5
  0
LTYPE
  2
dotted
 70
   64
  3
   -       -       -       -    
 72
   65
 73
    2
 40
1.75
 49
0.25
 49
-1.5
  0
LTYPE
  2
chain
 70
   64
  3
-------------- -- --------------
 72
   65
 73
    4
 40
18.5
 49
12
 49
-1.5
 49
3.5
 49
-1.5
  0
LTYPE
  2
chain_double_dash
 70
   64
  3
------------ -- -- -------------
 72
   65
 73
    6
 40
23.5
 49
12
 49
-1.5
 49
3.5
 49
-1.5
 49
3.5
 49
-1.5
  0
LTYPE
  2
dashed_dotted
 70
   64
  3
-----------     -     ----------
 72
   65
 73
    4
 40
9.25
 49
6
 49
-1.5
 49
0.25
 49
-1.5
  0
LTYPE
  2
double-dashed_dotted
 70
   64
  3
------   -----------   -   -----
 72
   65
 73
    6
 40
16.75
 49
6
 49
-1.5
 49
6
 49
-1.5
 49
0.25
 49
-1.5
  0
LTYPE
  2
dashed_double-dotted
 70
   64
  3
---------    -    -    ---------
 72
   65
 73
    6
 40
11
 49
6
 49
-1.5
 49
0.25
 49
-1.5
 49
0.25
 49
-1.5
  0
LTYPE
  2
double-dashed_double-dotted
 70
   64
  3
-----   ---------   -   -   ----
 72
   65
 73
    8
 40
18.5
 49
6
 49
-1.5
 49
6
 49
-1.5
 49
0.25
 49
-1.5
 49
0.25
 49
-1.5
  0
LTYPE
  2
dashed_triplicate-dotted
 70
   64
  3
-------    -    -    -    ------
 72
   65
 73
    8
 40
12.75
 49
6
 49
-1.5
 49
0.25
 49
-1.5
 49
0.25
 49
-1.5
 49
0.25
 49
-1.5
  0
LTYPE
  2
double-dashed_triplicate-dotted
 70
   64
  3
-----  ---------  -  -  -  -----
 72
   65
 73
   10
 40
20.25
 49
6
 49
-1.5
 49
6
 49
-1.5
 49
0.25
 49
-1.5
 49
0.25
 49
-1.5
 49
0.25
 49
-1.5
  0
LTYPE
  2
undefined
 70
   64
  3
--------------------------------
 72
   65
 73
    0
 40
0
  0
ENDTAB
  0
TABLE
  2
STYLE
  5
3
100
AcDbSymbolTable
 70
     1
  0
STYLE
  5
10
100
AcDbSymbolTableRecord
100
AcDbTextStyleTableRecord
  2
STANDARD
 70
     0
 40
0.0
 41
1.0
 50
0.0
 71
     0
 42
0.2
  3
txt
  4
bigfont.shx
  0
STYLE
  5
26
100
AcDbSymbolTableRecord
100
AcDbTextStyleTableRecord
  2
TATEGAKI
 70
    68
 40
0.0
 41
1.0
 50
0.0
 71
     0
 42
1.0
  3
txt
  4
bigfont.shx
  0
ENDTAB
  0
TABLE
  2
LAYER
 70
   11
  0
LAYER
  2
_0-0_計極細
 70
   64
 62
    7
  6
CONTINUOUS
  0
LAYER
  2
_0-1_計細線
 70
   64
 62
    7
  6
CONTINUOUS
  0
LAYER
  2
_0-5_寸法線
 70
   64
 62
    7
  6
CONTINUOUS
  0
LAYER
  2
_0-7_枠細線
 70
   64
 62
    7
  6
CONTINUOUS
  0
LAYER
  2
_0-8_枠中線
 70
   64
 62
    7
  6
CONTINUOUS
  0
LAYER
  2
_0-9_枠極太
 70
   64
 62
    7
  6
CONTINUOUS
  0
LAYER
  2
_0-a_極細3
 70
   64
 62
    7
  6
CONTINUOUS
  0
LAYER
  2
_0-b_細線3
 70
   64
 62
    7
  6
CONTINUOUS
  0
LAYER
  2
_0-d_寸法3
 70
   64
 62
    7
  6
CONTINUOUS
  0
LAYER
  2
_1-1_寸法8
 70
   64
 62
    7
  6
CONTINUOUS
  0
LAYER
  2
ADD_LINE
 70
   64
 62
    7
  6
CONTINUOUS
  0
ENDTAB
  0
ENDSEC
  0
SECTION
  2
BLOCKS
  0
ENDSEC
  0
SECTION
  2
ENTITIES
  0
LINE
  8
_0-7_枠細線
  6
CONTINUOUS
 62
    5
 10
1422
 20
216
 11
1422
 21
120
  0
TEXT
  8
_0-7_枠細線
 62
    5
 10
1125
 20
117
 40
21
 41
1
 50
0
  1
備考
  7
TATEGAKI
  0
TEXT
  8
_0-7_枠細線
 62
    5
 10
1125
 20
165
 40
21
 41
1
 50
0
  1
品番
  7
TATEGAKI
  0
TEXT
  8
_0-7_枠細線
 62
    5
 10
1125
 20
213
 40
21
 41
1
 50
0
  1
品名
  7
TATEGAKI
  0
LINE
  8
_0-7_枠細線
  6
CONTINUOUS
 62
    5
 10
1422
 20
168
 11
1110
 21
168
  0
LINE
  8
_0-7_枠細線
  6
CONTINUOUS
 62
    5
 10
1140
 20
216
 11
1140
 21
72
  0
LINE
  8
_0-8_枠中線
  6
CONTINUOUS
 62
    5
 10
1710
 20
216
 11
1110
 21
216
  0
LINE
  8
_0-8_枠中線
  6
CONTINUOUS
 62
    5
 10
1110
 20
216
 11
1110
 21
72
  0
LINE
  8
_0-7_枠細線
  6
CONTINUOUS
 62
    5
 10
1494
 20
216
 11
1494
 21
72
  0
TEXT
  8
_0-7_枠細線
 62
    5
 10
1431
 20
192
 40
18
 41
1
 50
0
  1
縮　尺
  0
LINE
  8
_0-7_枠細線
  6
CONTINUOUS
 62
    5
 10
1422
 20
186
 11
1494
 21
186
  0
LINE
  8
_0-7_枠細線
  6
CONTINUOUS
 62
    5
 10
1494
 20
120
 11
1110
 21
120
  0
LINE
  8
_0-7_枠細線
  6
CONTINUOUS
 62
    5
 10
1710
 20
108
 11
1494
 21
108
  0
LINE
  8
_0-7_枠細線
  6
CONTINUOUS
 62
    5
 10
1494
 20
144
 11
1710
 21
144
  0
LINE
  8
_0-7_枠細線
  6
CONTINUOUS
 62
    5
 10
1710
 20
168
 11
1494
 21
168
  0
TEXT
  8
_0-7_枠細線
 62
    5
 10
1506
 20
177
 40
30
 41
0.8
 50
0
  1
株式会社シマブン
  0
TEXT
  8
_0-7_枠細線
 62
    5
 10
1503
 20
72
 40
18
 41
1
 50
0
  1
年月日
  0
TEXT
  8
_0-7_枠細線
 62
    5
 10
1503
 20
90
 40
18
 41
1
 50
0
  1
作　成
  0
TEXT
  8
_0-7_枠細線
 62
    5
 10
1507.5
 20
147
 40
18
 41
1
 50
0
  1
承 認
  0
LINE
  8
_0-7_枠細線
  6
CONTINUOUS
 62
    5
 10
1566
 20
168
 11
1566
 21
72
  0
TEXT
  8
_0-7_枠細線
 62
    5
 10
1579.5
 20
147
 40
18
 41
1
 50
0
  1
検 図
  0
LINE
  8
_0-7_枠細線
  6
CONTINUOUS
 62
    5
 10
1638
 20
168
 11
1638
 21
108
  0
TEXT
  8
_0-7_枠細線
 62
    5
 10
1650
 20
114
 40
24
 41
1
 50
0
  1
藤戸
  0
TEXT
  8
_0-7_枠細線
 62
    5
 10
1651.5
 20
147
 40
18
 41
1
 50
0
  1
設 計
  0
TEXT
  8
_0-7_枠細線
 62
    5
 10
1152.5999999999999
 20
83.999999999999829
 40
24
 41
0.5999999999999997
 50
0
  1
色については表参照のこと
  0
TEXT
  8
_0-7_枠細線
 62
    5
 10
1432.8
 20
141
 40
24
 41
0.6999999999999999
 50
0
  1
１：６
  0
LINE
  8
_0-9_枠極太
  6
CONTINUOUS
 62
    5
 10
72
 20
72
 11
72
 21
1152
  0
LINE
  8
_0-9_枠極太
  6
CONTINUOUS
 62
    5
 10
72
 20
1152
 11
1710
 21
1152
  0
LINE
  8
_0-9_枠極太
  6
CONTINUOUS
 62
    5
 10
1710
 20
1152
 11
1710
 21
72
  0
LINE
  8
_0-9_枠極太
  6
CONTINUOUS
 62
    5
 10
1710
 20
72
 11
72
 21
72
  0
LINE
  8
_0-7_枠細線
  6
CONTINUOUS
 62
    5
 10
1710
 20
1131
 11
1068
 21
1131
  0
TEXT
  8
_0-7_枠細線
 62
    5
 10
1074
 20
1134
 40
15
 41
1
 50
0
  1
記号
  0
TEXT
  8
_0-7_枠細線
 62
    5
 10
1196.25
 20
1134
 40
15
 41
1
 50
0
  1
訂　 正　 記　 事
  0
TEXT
  8
_0-7_枠細線
 62
    5
 10
1417.5
 20
1134
 40
15
 41
1
 50
0
  1
訂 正 年 月 日
  0
TEXT
  8
_0-7_枠細線
 62
    5
 10
1567.5
 20
1134
 40
15
 41
1
 50
0
  1
備　　　　　考
  0
LINE
  8
_0-7_枠細線
  6
CONTINUOUS
 62
    5
 10
1710
 20
1110
 11
1068
 21
1110
  0
TEXT
  8
_0-7_枠細線
 62
    5
 10
1126.6204444444443
 20
1113
 40
15
 41
1
 50
0
  1
品番・色記号変更
  0
TEXT
  8
_0-7_枠細線
 62
    5
 10
1416
 20
1113
 40
15
 41
0.7199999999999999
 50
0
  1
２０１３．０３．１３
  0
LINE
  8
_0-7_枠細線
  6
CONTINUOUS
 62
    5
 10
1710
 20
1089
 11
1068
 21
1089
  0
LINE
  8
_0-7_枠細線
  6
CONTINUOUS
 62
    5
 10
1710
 20
1068
 11
1068
 21
1068
  0
TEXT
  8
_0-7_枠細線
 62
    5
 10
1126.6204444444443
 20
1092
 40
15
 41
1
 50
0
  1
クロスバーピッチ変更
  0
TEXT
  8
_0-7_枠細線
 62
    5
 10
1126.6204444444443
 20
1071
 40
15
 41
1
 50
0
  1
取外具形状変更
  0
TEXT
  8
_0-7_枠細線
 62
    5
 10
1416
 20
1092
 40
15
 41
0.7199999999999999
 50
0
  1
２０１５．１１．２０
  0
LINE
  8
_0-7_枠細線
  6
CONTINUOUS
 62
    5
 10
1098
 20
1090.7308007660963
 11
1089
 21
1108.7308007660963
  0
LINE
  8
_0-7_枠細線
  6
CONTINUOUS
 62
    5
 10
1080
 20
1090.7308007660963
 11
1098
 21
1090.7308007660963
  0
LINE
  8
_0-7_枠細線
  6
CONTINUOUS
 62
    5
 10
1089
 20
1108.7308007660963
 11
1080
 21
1090.7308007660963
  0
TEXT
  8
_0-7_枠細線
 62
    5
 10
1082.8381815217776
 20
1090.3623980716397
 40
15
 41
0.8
 50
0
  1
１
  0
TEXT
  8
_0-7_枠細線
 62
    5
 10
1082.8381815217776
 20
1069.3623980716397
 40
15
 41
0.8
 50
0
  1
２
  0
LINE
  8
_0-7_枠細線
  6
CONTINUOUS
 62
    5
 10
1710
 20
1047
 11
1068
 21
1047
  0
LINE
  8
_0-7_枠細線
  6
CONTINUOUS
 62
    5
 10
1089
 20
1087.7308007660963
 11
1080
 21
1069.7308007660963
  0
LINE
  8
_0-7_枠細線
  6
CONTINUOUS
 62
    5
 10
1080
 20
1069.7308007660963
 11
1098
 21
1069.7308007660963
  0
LINE
  8
_0-7_枠細線
  6
CONTINUOUS
 62
    5
 10
1098
 20
1069.7308007660963
 11
1089
 21
1087.7308007660963
  0
TEXT
  8
_0-7_枠細線
 62
    5
 10
1082.8381815217776
 20
1048.0735800978787
 40
15
 41
0.8
 50
0
  1
３
  0
TEXT
  8
_0-7_枠細線
 62
    5
 10
1416
 20
1050
 40
15
 41
0.7199999999999999
 50
0
  1
２０１７．０４．０１
  0
LINE
  8
_0-7_枠細線
  6
CONTINUOUS
 62
    5
 10
1098
 20
1027.7308007660963
 11
1089
 21
1045.7308007660963
  0
LINE
  8
_0-7_枠細線
  6
CONTINUOUS
 62
    5
 10
1080
 20
1027.7308007660963
 11
1098
 21
1027.7308007660963
  0
LINE
  8
_0-7_枠細線
  6
CONTINUOUS
 62
    5
 10
1089
 20
1045.7308007660963
 11
1080
 21
1027.7308007660963
  0
TEXT
  8
_0-7_枠細線
 62
    5
 10
1416
 20
1029
 40
15
 41
0.7199999999999999
 50
0
  1
２０１７．０４．０１
  0
TEXT
  8
_0-7_枠細線
 62
    5
 10
1126.6204444444443
 20
1029
 40
15
 41
1
 50
0
  1
ブラウン色（Ｃ）追加
  0
LINE
  8
_0-7_枠細線
  6
CONTINUOUS
 62
    5
 10
1710
 20
1026
 11
1068
 21
1026
  0
LINE
  8
_0-7_枠細線
  6
CONTINUOUS
 62
    5
 10
1089
 20
1066.7308007660963
 11
1080
 21
1048.7308007660963
  0
LINE
  8
_0-7_枠細線
  6
CONTINUOUS
 62
    5
 10
1080
 20
1048.7308007660963
 11
1098
 21
1048.7308007660963
  0
LINE
  8
_0-7_枠細線
  6
CONTINUOUS
 62
    5
 10
1098
 20
1048.7308007660963
 11
1089
 21
1066.7308007660963
  0
TEXT
  8
_0-7_枠細線
 62
    5
 10
1082.8381815217776
 20
1026.5922168082761
 40
15
 41
0.8
 50
0
  1
４
  0
TEXT
  8
_0-7_枠細線
 62
    5
 10
1126.6204444444443
 20
1050
 40
15
 41
1
 50
0
  1
取外具形状変更
  0
TEXT
  8
_0-7_枠細線
 62
    5
 10
1416
 20
1071
 40
15
 41
0.7199999999999999
 50
0
  1
２０１５．１１．２０
  0
LINE
  8
_0-7_枠細線
  6
CONTINUOUS
 62
    5
 10
1098
 20
1006.7308007660961
 11
1089
 21
1024.7308007660963
  0
LINE
  8
_0-7_枠細線
  6
CONTINUOUS
 62
    5
 10
1080
 20
1006.7308007660961
 11
1098
 21
1006.7308007660961
  0
LINE
  8
_0-7_枠細線
  6
CONTINUOUS
 62
    5
 10
1089
 20
1024.7308007660963
 11
1080
 21
1006.7308007660961
  0
LINE
  8
_0-7_枠細線
  6
CONTINUOUS
 62
    5
 10
1710
 20
1005
 11
1068
 21
1005
  0
TEXT
  8
_0-7_枠細線
 62
    5
 10
1416
 20
1008
 40
15
 41
0.7199999999999999
 50
0
  1
２０１９．０９．０１
  0
TEXT
  8
_0-7_枠細線
 62
    5
 10
1082.8381815217776
 20
1005.5922168082762
 40
15
 41
0.8
 50
0
  1
５
  0
TEXT
  8
_0-7_枠細線
 62
    5
 10
1126.6204444444443
 20
1008
 40
15
 41
1
 50
0
  1
アンカー材質･厚み変更
  0
LINE
  8
_0-7_枠細線
  6
CONTINUOUS
 62
    5
 10
1109.9999999999995
 20
388.47600000000074
 11
1470.0000000000007
 21
388.47600000000074
  0
LINE
  8
_0-7_枠細線
  6
CONTINUOUS
 62
    5
 10
1109.9999999999995
 20
418.47600000000057
 11
1470.0000000000007
 21
418.47600000000057
  0
LINE
  8
_0-7_枠細線
  6
CONTINUOUS
 62
    5
 10
1109.9999999999995
 20
448.47600000000057
 11
1470.0000000000007
 21
448.47600000000057
  0
LINE
  8
_0-7_枠細線
  6
CONTINUOUS
 62
    5
 10
1109.9999999999995
 20
478.47600000000079
 11
1470.0000000000007
 21
478.47600000000079
  0
TEXT
  8
_0-7_枠細線
 62
    5
 10
1257.6000000000004
 20
484.47600000000079
 40
18.000000000000004
 41
0.5999999999999999
 50
0
  1
ライトグレー
  0
LINE
  8
_0-7_枠細線
  6
CONTINUOUS
 62
    5
 10
1109.9999999999995
 20
508.47600000000057
 11
1470.0000000000007
 21
508.47600000000057
  0
TEXT
  8
_0-7_枠細線
 62
    5
 10
1268.4000000000005
 20
514.47600000000057
 40
18.000000000000004
 41
0.5999999999999999
 50
0
  1
ベージュ
  0
LINE
  8
_0-7_枠細線
  6
CONTINUOUS
 62
    5
 10
1109.9999999999995
 20
538.47600000000057
 11
1470.0000000000007
 21
538.47600000000057
  0
TEXT
  8
_0-7_枠細線
 62
    5
 10
1282.8000000000006
 20
544.47600000000057
 40
18.000000000000004
 41
0.8
 50
0
  1
色
  0
TEXT
  8
_0-7_枠細線
 62
    5
 10
1141.2000000000005
 20
544.47600000000057
 40
18.000000000000004
 41
0.8
 50
0
  1
品　　番
  0
TEXT
  8
_0-7_枠細線
 62
    5
 10
1381.2000000000007
 20
544.47600000000057
 40
18.000000000000004
 41
0.8
 50
0
  1
備　　考
  0
LINE
  8
_0-7_枠細線
  6
CONTINUOUS
 62
    5
 10
1109.9999999999995
 20
568.47600000000057
 11
1470.0000000000007
 21
568.47600000000057
  0
TEXT
  8
_0-7_枠細線
 62
    5
 10
1216.5
 20
574.47600000000057
 40
21.000000000000004
 41
1
 50
0
  1
品番表
  0
LINE
  8
_0-7_枠細線
  6
CONTINUOUS
 62
    5
 10
1109.9999999999995
 20
298.4760000000004
 11
1470.0000000000007
 21
298.4760000000004
  0
LINE
  8
_0-7_枠細線
  6
CONTINUOUS
 62
    5
 10
1109.9999999999995
 20
328.47600000000074
 11
1470.0000000000007
 21
328.47600000000074
  0
LINE
  8
_0-7_枠細線
  6
CONTINUOUS
 62
    5
 10
1109.9999999999995
 20
358.47600000000079
 11
1470.0000000000007
 21
358.47600000000079
  0
TEXT
  8
_0-7_枠細線
 62
    5
 10
1268.400000000001
 20
454.47600000000091
 40
18.000000000000004
 41
0.5999999999999999
 50
0
  1
ホワイト
  0
TEXT
  8
_0-7_枠細線
 62
    5
 10
1273.8000000000006
 20
424.47600000000057
 40
18.000000000000004
 41
0.5999999999999999
 50
0
  1
ピンク
  0
TEXT
  8
_0-7_枠細線
 62
    5
 10
1273.8000000000006
 20
394.47600000000057
 40
18.000000000000004
 41
0.5999999999999999
 50
0
  1
ブルー
  0
TEXT
  8
_0-7_枠細線
 62
    5
 10
1257.5999999999999
 20
364.47600000000074
 40
18.000000000000004
 41
0.5999999999999999
 50
0
  1
ダークグレー
  0
TEXT
  8
_0-7_枠細線
 62
    5
 10
1273.8000000000006
 20
334.47600000000079
 40
18.000000000000004
 41
0.5999999999999999
 50
0
  1
ウッド
  0
LINE
  8
_0-7_枠細線
  6
CONTINUOUS
 62
    5
 10
1109.9999999999995
 20
268.476
 11
1470.0000000000007
 21
268.476
  0
TEXT
  8
_0-7_枠細線
 62
    5
 10
1268.400000000001
 20
274.47600000000011
 40
18.000000000000004
 41
0.5999999999999999
 50
0
  1
ブラック
  0
LINE
  8
_0-7_枠細線
  6
CONTINUOUS
 62
    5
 10
1470.0000000000007
 20
568.47600000000057
 11
1470.0000000000007
 21
268.476
  0
LINE
  8
_0-7_枠細線
  6
CONTINUOUS
 62
    5
 10
1350
 20
568.47600000000057
 11
1350
 21
268.476
  0
LINE
  8
_0-7_枠細線
  6
CONTINUOUS
 62
    5
 10
1230.0000000000005
 20
568.47600000000057
 11
1230.0000000000005
 21
268.476
  0
LINE
  8
_0-7_枠細線
  6
CONTINUOUS
 62
    5
 10
1109.9999999999995
 20
568.47600000000057
 11
1109.9999999999995
 21
268.476
  0
TEXT
  8
_0-7_枠細線
 62
    5
 10
1268.4000000000005
 20
304.4760000000004
 40
18.000000000000004
 41
0.5999999999999999
 50
0
  1
ブラウン
  0
LINE
  8
_0-7_枠細線
  6
CONTINUOUS
 62
    5
 10
1102.2331495986659
 20
305.16724946552819
 11
1093.2331495986659
 21
323.16724946552824
  0
LINE
  8
_0-7_枠細線
  6
CONTINUOUS
 62
    5
 10
1084.2331495986659
 20
305.16724946552819
 11
1102.2331495986659
 21
305.16724946552819
  0
LINE
  8
_0-7_枠細線
  6
CONTINUOUS
 62
    5
 10
1093.2331495986659
 20
323.16724946552824
 11
1084.2331495986659
 21
305.16724946552819
  0
TEXT
  8
_0-7_枠細線
 62
    5
 10
1087.071331120444
 20
304.0286655077083
 40
15
 41
0.8
 50
0
  1
４
  0
LINE
  8
_0-7_枠細線
  6
CONTINUOUS
 62
    5
 10
1524.8760000000007
 20
472.47600000000074
 11
1524.8760000000007
 21
568.47600000000079
  0
TEXT
  8
_0-7_枠細線
 62
    5
 10
1551.8760000000004
 20
541.47600000000079
 40
18.000000000000004
 41
1
 50
0
  1
耐荷重
  0
TEXT
  8
_0-7_枠細線
 62
    5
 10
1542.8760000000004
 20
505.47600000000074
 40
18.000000000000004
 41
1
 50
0
  1
3.5kN/㎡
  0
TEXT
  8
_0-7_枠細線
 62
    5
 10
1533.8760000000007
 20
481.47600000000074
 40
18.000000000000004
 41
1
 50
0
  1
（歩道用）
  0
LINE
  8
_0-7_枠細線
  6
CONTINUOUS
 62
    5
 10
1632.8760000000004
 20
472.47600000000074
 11
1632.8760000000004
 21
568.47600000000079
  0
LINE
  8
_0-7_枠細線
  6
CONTINUOUS
 62
    5
 10
1524.8760000000007
 20
472.47600000000074
 11
1632.8760000000004
 21
472.47600000000074
  0
LINE
  8
_0-7_枠細線
  6
CONTINUOUS
 62
    5
 10
1524.8760000000007
 20
532.47600000000079
 11
1632.8760000000004
 21
532.47600000000079
  0
LINE
  8
_0-7_枠細線
  6
CONTINUOUS
 62
    5
 10
1524.8760000000007
 20
568.47600000000079
 11
1632.8760000000004
 21
568.47600000000079
  0
TEXT
  8
_0-7_枠細線
 62
    5
 10
1354.1999999999998
 20
171
 40
24.000000000000011
 41
0.5999999999999998
 50
0
  1
集水マス
  0
TEXT
  8
_0-7_枠細線
 62
    5
 10
1152.5999999999999
 20
192
 40
24.000000000000011
 41
0.5999999999999998
 50
0
  1
セーフティグレーチングＨ２５タイプ
  0
TEXT
  8
_0-7_枠細線
 62
    5
 10
1152.5999999999999
 20
131.99999999999983
 40
24.000000000000007
 41
0.5999999999999997
 50
0
  1
ＧＲＳ－２５Ｋ４５０
  0
TEXT
  8
_0-7_枠細線
 62
    5
 10
1571.9999999999995
 20
80.999999999999744
 40
18.000000000000011
 41
0.6666666666666665
 50
0
  1
２０１０年０３月０１日
  0
TEXT
  8
_0-7_枠細線
 62
    5
 10
1506
 20
113.99999999999974
 40
24.000000000000007
 41
1
 50
0
  1
隠塚
  0
TEXT
  8
_0-7_枠細線
 62
    5
 10
1578
 20
113.99999999999974
 40
24.000000000000007
 41
1
 50
0
  1
渋田
  0
LINE
  8
_0-1_計細線
  6
CONTINUOUS
 62
    3
 10
341.10052219321113
 20
892.97231522212815
 11
341.10052219321113
 21
432.97231522213264
  0
LINE
  8
_0-1_計細線
  6
CONTINUOUS
 62
    3
 10
344.10052219321113
 20
435.97231522213264
 11
344.10052219321113
 21
889.97231522212815
  0
LINE
  8
_0-1_計細線
  6
CONTINUOUS
 62
    3
 10
341.10052219321113
 20
892.97231522212815
 11
801.10052219321074
 21
892.97231522212815
  0
LINE
  8
_0-1_計細線
  6
CONTINUOUS
 62
    3
 10
344.10052219321113
 20
889.97231522212815
 11
798.10052219321074
 21
889.97231522212815
  0
LINE
  8
_0-1_計細線
  6
CONTINUOUS
 62
    3
 10
798.10052219321074
 20
435.97231522213264
 11
344.10052219321113
 21
435.97231522213264
  0
LINE
  8
_0-1_計細線
  6
CONTINUOUS
 62
    3
 10
801.10052219321074
 20
432.97231522213264
 11
341.10052219321113
 21
432.97231522213264
  0
LINE
  8
_0-1_計細線
  6
CONTINUOUS
 62
    3
 10
801.10052219321074
 20
892.97231522212815
 11
801.10052219321074
 21
432.97231522213264
  0
LINE
  8
_0-1_計細線
  6
CONTINUOUS
 62
    3
 10
798.10052219321074
 20
435.97231522213264
 11
798.10052219321074
 21
889.97231522212815
  0
LINE
  8
_0-5_寸法線
  6
CONTINUOUS
 62
    7
 10
312.10052249937257
 20
892.97231522212815
 11
191.10052219321113
 21
892.97231522212917
  0
LINE
  8
_0-5_寸法線
  6
CONTINUOUS
 62
    7
 10
197.10052219321113
 20
892.97231522212917
 11
200.20635073444146
 21
881.38120530666038
  0
LINE
  8
_0-5_寸法線
  6
CONTINUOUS
 62
    7
 10
197.10052219321113
 20
892.97231522212917
 11
193.99469365198098
 21
881.38120530666038
  0
LINE
  8
_0-5_寸法線
  6
CONTINUOUS
 62
    7
 10
312.10052249937303
 20
432.9723152221282
 11
191.10052219321113
 21
432.9723152221294
  0
LINE
  8
_0-5_寸法線
  6
CONTINUOUS
 62
    7
 10
197.10052219321113
 20
432.97231522212928
 11
193.99469365198098
 21
444.56342513759819
  0
LINE
  8
_0-5_寸法線
  6
CONTINUOUS
 62
    7
 10
197.10052219321113
 20
432.97231522212928
 11
200.20635073444146
 21
444.56342513759807
  0
LINE
  8
_0-5_寸法線
  6
CONTINUOUS
 62
    7
 10
197.10052219321113
 20
892.97231522212917
 11
197.10052219321113
 21
432.97231522212928
  0
TEXT
  8
_0-5_寸法線
 62
    7
 10
197.10052219321113
 20
649.47231522212928
 40
18
 41
1
 50
89.999999999999815
  1
460
  0
LINE
  8
_0-5_寸法線
  6
CONTINUOUS
 62
    7
 10
329.10052219321113
 20
438.97231522215725
 11
275.10052219321113
 21
438.97231522215748
  0
LINE
  8
_0-5_寸法線
  6
CONTINUOUS
 62
    7
 10
281.10052219321113
 20
438.97231522215748
 11
277.99469365198098
 21
450.56342513762633
  0
LINE
  8
_0-5_寸法線
  6
CONTINUOUS
 62
    7
 10
281.10052219321113
 20
438.97231522215748
 11
284.20635073444146
 21
450.56342513762627
  0
LINE
  8
_0-5_寸法線
  6
CONTINUOUS
 62
    7
 10
329.10052219321113
 20
886.9723152221527
 11
275.10052219321113
 21
886.9723152221527
  0
LINE
  8
_0-5_寸法線
  6
CONTINUOUS
 62
    7
 10
281.10052219321113
 20
886.9723152221527
 11
284.20635073444146
 21
875.38120530668391
  0
LINE
  8
_0-5_寸法線
  6
CONTINUOUS
 62
    7
 10
281.10052219321113
 20
886.9723152221527
 11
277.99469365198098
 21
875.38120530668391
  0
LINE
  8
_0-5_寸法線
  6
CONTINUOUS
 62
    7
 10
281.10052219321113
 20
438.97231522215748
 11
281.10052219321113
 21
886.9723152221527
  0
TEXT
  8
_0-5_寸法線
 62
    7
 10
281.10052219321113
 20
649.4723152221552
 40
18
 41
1
 50
90
  1
448
  0
LINE
  8
_0-5_寸法線
  6
CONTINUOUS
 62
    7
 10
345.60052219321113
 20
904.97231522212815
 11
345.60052219321113
 21
1000.9723152221281
  0
LINE
  8
_0-5_寸法線
  6
CONTINUOUS
 62
    7
 10
345.60052219321113
 20
994.97231522212815
 11
357.19163210867993
 21
998.0781437633583
  0
LINE
  8
_0-5_寸法線
  6
CONTINUOUS
 62
    7
 10
345.60052219321113
 20
994.97231522212815
 11
357.19163210867993
 21
991.86648668089788
  0
LINE
  8
_0-5_寸法線
  6
CONTINUOUS
 62
    7
 10
795.60052219321096
 20
904.97231522212815
 11
795.60052219321096
 21
1000.9723152221281
  0
LINE
  8
_0-5_寸法線
  6
CONTINUOUS
 62
    7
 10
795.60052219321096
 20
994.97231522212815
 11
784.00941227774217
 21
991.86648668089799
  0
LINE
  8
_0-5_寸法線
  6
CONTINUOUS
 62
    7
 10
795.60052219321096
 20
994.97231522212815
 11
784.00941227774217
 21
998.0781437633583
  0
LINE
  8
_0-5_寸法線
  6
CONTINUOUS
 62
    7
 10
345.60052219321113
 20
994.97231522212815
 11
795.60052219321096
 21
994.97231522212815
  0
TEXT
  8
_0-5_寸法線
 62
    7
 10
557.10052219321119
 20
994.97231522212815
 40
18
 41
1
 50
0
  1
450
  0
LINE
  8
_1-1_寸法8
  6
CONTINUOUS
 62
    7
 10
329.10052219321113
 20
892.97231522212815
 11
233.10052219321113
 21
892.97231522212815
  0
LINE
  8
_1-1_寸法8
  6
CONTINUOUS
 62
    7
 10
239.10052219321113
 20
892.97231522212815
 11
235.99469365198098
 21
904.56342513759694
  0
LINE
  8
_1-1_寸法8
  6
CONTINUOUS
 62
    7
 10
239.10052219321113
 20
892.97231522212815
 11
242.20635073444146
 21
904.56342513759694
  0
LINE
  8
_1-1_寸法8
  6
CONTINUOUS
 62
    7
 10
329.10052219321113
 20
889.97231522212815
 11
233.10052219321113
 21
889.97231522212815
  0
LINE
  8
_1-1_寸法8
  6
CONTINUOUS
 62
    7
 10
239.10052219321113
 20
922.97231522212815
 11
239.10052219321113
 21
889.97231522212815
  0
TEXT
  8
_1-1_寸法8
 62
    7
 10
239.10052219321113
 20
905.86646951150556
 40
18
 41
1
 50
89.99999999999946
  1
3
  0
LINE
  8
_1-1_寸法8
  6
CONTINUOUS
 62
    7
 10
239.10052219321113
 20
889.97231522212815
 11
242.20635073444146
 21
878.38120530665935
  0
LINE
  8
_1-1_寸法8
  6
CONTINUOUS
 62
    7
 10
239.10052219321113
 20
889.97231522212815
 11
235.99469365198098
 21
878.38120530665935
  0
LINE
  8
_1-1_寸法8
  6
CONTINUOUS
 62
    7
 10
329.10052219321113
 20
435.97231522213264
 11
233.10052219321113
 21
435.97231522213264
  0
LINE
  8
_1-1_寸法8
  6
CONTINUOUS
 62
    7
 10
239.10052219321113
 20
435.97231522213264
 11
235.99469365198098
 21
447.56342513760143
  0
LINE
  8
_1-1_寸法8
  6
CONTINUOUS
 62
    7
 10
239.10052219321113
 20
435.97231522213264
 11
242.20635073444146
 21
447.56342513760143
  0
LINE
  8
_1-1_寸法8
  6
CONTINUOUS
 62
    7
 10
239.10052219321113
 20
889.97231522212815
 11
239.10052219321113
 21
435.97231522213264
  0
TEXT
  8
_1-1_寸法8
 62
    7
 10
239.10052219321148
 20
649.47231522214292
 40
18
 41
1
 50
89.999999999999815
  1
454
  0
LINE
  8
_1-1_寸法8
  6
CONTINUOUS
 62
    7
 10
329.10052219321113
 20
432.97231522213269
 11
233.10052219321113
 21
432.97231522213264
  0
LINE
  8
_1-1_寸法8
  6
CONTINUOUS
 62
    7
 10
239.10052219321113
 20
432.97231522213264
 11
242.20635073444137
 21
421.38120530666384
  0
LINE
  8
_1-1_寸法8
  6
CONTINUOUS
 62
    7
 10
239.10052219321113
 20
432.97231522213264
 11
235.9946936519809
 21
421.38120530666384
  0
LINE
  8
_1-1_寸法8
  6
CONTINUOUS
 62
    7
 10
239.10052219321113
 20
435.97231522213264
 11
239.10052219321113
 21
402.97231522213264
  0
TEXT
  8
_1-1_寸法8
 62
    7
 10
239.10052219321113
 20
407.63873524984143
 40
18
 41
1
 50
90
  1
3
  0
LINE
  8
_0-d_寸法3
  6
CONTINUOUS
 62
    7
 10
566.29108252284118
 20
274.90911942974458
 11
566.29108252284118
 21
324.90911942974446
  0
LINE
  8
_0-d_寸法3
  6
CONTINUOUS
 62
    7
 10
566.29108252284118
 20
318.90911942974446
 11
577.88219243830986
 21
322.01494797097473
  0
LINE
  8
_0-d_寸法3
  6
CONTINUOUS
 62
    7
 10
566.29108252284118
 20
318.90911942974446
 11
577.88219243830986
 21
315.8032908885142
  0
LINE
  8
_0-d_寸法3
  6
CONTINUOUS
 62
    7
 10
601.09108252356475
 20
274.90911942974458
 11
601.09108252356475
 21
324.90911942974446
  0
LINE
  8
_0-d_寸法3
  6
CONTINUOUS
 62
    7
 10
601.09108252356475
 20
318.90911942974446
 11
589.49997260809596
 21
315.8032908885142
  0
LINE
  8
_0-d_寸法3
  6
CONTINUOUS
 62
    7
 10
601.09108252356475
 20
318.90911942974446
 11
589.49997260809596
 21
322.01494797097473
  0
LINE
  8
_0-d_寸法3
  6
CONTINUOUS
 62
    7
 10
566.29108252284118
 20
318.90911942974446
 11
601.09108252356475
 21
318.90911942974446
  0
TEXT
  8
_0-d_寸法3
 62
    7
 10
552.43566903127157
 20
300.90911942974446
 40
18
 41
1
 50
0
  1
(17.4)
  0
LINE
  8
_0-d_寸法3
  6
CONTINUOUS
 62
    7
 10
601.09108252356475
 20
318.90911942974446
 11
612.68219243903354
 21
322.01494797097462
  0
LINE
  8
_0-d_寸法3
  6
CONTINUOUS
 62
    7
 10
601.09108252356475
 20
318.90911942974446
 11
612.68219243903354
 21
315.80329088851414
  0
LINE
  8
_0-d_寸法3
  6
CONTINUOUS
 62
    7
 10
635.89108252428832
 20
274.90911942974458
 11
635.89108252428832
 21
324.90911942974446
  0
LINE
  8
_0-d_寸法3
  6
CONTINUOUS
 62
    7
 10
635.89108252428832
 20
318.90911942974446
 11
624.29997260881953
 21
315.8032908885142
  0
LINE
  8
_0-d_寸法3
  6
CONTINUOUS
 62
    7
 10
635.89108252428832
 20
318.90911942974446
 11
624.29997260881953
 21
322.01494797097473
  0
LINE
  8
_0-d_寸法3
  6
CONTINUOUS
 62
    7
 10
601.09108252356475
 20
318.90911942974446
 11
635.89108252428832
 21
318.90911942974446
  0
TEXT
  8
_0-d_寸法3
 62
    7
 10
596.91566903127159
 20
318.90911942974446
 40
18
 41
1
 50
0
  1
(17.4)
  0
ARC
  8
_0-a_極細3
  6
CONTINUOUS
 62
    7
 10
672.88636651372462
 20
249.09318043972257
 40
21.070607518177614
 50
150.0387139614817
 51
205.23810402387866
  0
ARC
  8
_0-a_極細3
  6
CONTINUOUS
 62
    7
 10
634.76779628584688
 20
231.12496938456582
 40
21.070607518177614
 50
330.03871396148202
 51
25.238104023878119
  0
ARC
  8
_0-a_極細3
  6
CONTINUOUS
 62
    7
 10
498.98258798772378
 20
249.09318043972257
 40
21.070607518177614
 50
150.0387139614817
 51
205.23810402387869
  0
ARC
  8
_0-a_極細3
  6
CONTINUOUS
 62
    7
 10
460.86401775984609
 20
231.12496938456582
 40
21.070607518177614
 50
330.03871396148202
 51
25.238104023878119
  0
ARC
  8
_0-b_細線3
  6
CONTINUOUS
 62
    7
 10
556.8910825250482
 20
258.90911942974446
 40
2
 50
89.999999999999915
 51
179.99999999999983
  0
ARC
  8
_0-b_細線3
  6
CONTINUOUS
 62
    7
 10
557.82698090770305
 20
262.90911942974458
 40
2
 50
269.99999999999977
 51
330.00000000000279
  0
ARC
  8
_0-b_細線3
  6
CONTINUOUS
 62
    7
 10
561.29108252284072
 20
260.90911942974481
 40
2
 50
89.999999999999915
 51
150.00000000000142
  0
LINE
  8
_0-b_細線3
  6
CONTINUOUS
 62
    7
 10
556.8910825250482
 20
260.90911942974481
 11
557.82698090770305
 21
260.90911942974481
  0
ARC
  8
_0-b_細線3
  6
CONTINUOUS
 62
    7
 10
575.69108252063393
 20
258.90911942974446
 40
2
 50
0
 51
89.999999999999915
  0
ARC
  8
_0-b_細線3
  6
CONTINUOUS
 62
    7
 10
574.75518413797863
 20
262.90911942974458
 40
2
 50
210.00000000000298
 51
269.99999999999977
  0
ARC
  8
_0-b_細線3
  6
CONTINUOUS
 62
    7
 10
571.29108252284095
 20
260.90911942974481
 40
2
 50
29.999999999992085
 51
89.999999999986969
  0
LINE
  8
_0-b_細線3
  6
CONTINUOUS
 62
    7
 10
575.69108252063393
 20
260.90911942974481
 11
574.75518413797863
 21
260.90911942974481
  0
ARC
  8
_0-b_細線3
  6
CONTINUOUS
 62
    7
 10
555.89108252504798
 20
256.10911942974474
 40
1
 50
179.99999999999983
 51
269.99999999999977
  0
LINE
  8
_0-b_細線3
  6
CONTINUOUS
 62
    7
 10
554.89108252504798
 20
258.90911942974446
 11
554.89108252504798
 21
256.10911942974474
  0
ARC
  8
_0-b_細線3
  6
CONTINUOUS
 62
    7
 10
576.69108252063347
 20
256.10911942974474
 40
1
 50
269.99999999999977
 51
359.99999999999966
  0
LINE
  8
_0-b_細線3
  6
CONTINUOUS
 62
    7
 10
577.6910825206337
 20
258.90911942974446
 11
577.6910825206337
 21
256.10911942974474
  0
ARC
  8
_0-b_細線3
  6
CONTINUOUS
 62
    7
 10
560.89108252504798
 20
253.10911942974474
 40
2
 50
0
 51
89.999999999999915
  0
LINE
  8
_0-b_細線3
  6
CONTINUOUS
 62
    7
 10
560.89108252504798
 20
255.10911942974462
 11
555.89108252504798
 21
255.10911942974462
  0
ARC
  8
_0-b_細線3
  6
CONTINUOUS
 62
    7
 10
571.69108252504839
 20
253.10911942974474
 40
2
 50
89.999999999999915
 51
179.99999999999983
  0
LINE
  8
_0-b_細線3
  6
CONTINUOUS
 62
    7
 10
571.6910825206337
 20
255.10911942974462
 11
576.69108252063347
 21
255.10911942974462
  0
LINE
  8
_0-b_細線3
  6
CONTINUOUS
 62
    7
 10
571.29108252284095
 20
262.90911942974458
 11
561.29108252284072
 21
262.90911942974458
  0
LINE
  8
_0-b_細線3
  6
CONTINUOUS
 62
    7
 10
562.89108252284086
 20
212.90911942974486
 11
562.8910825250482
 21
253.10911942974474
  0
LINE
  8
_0-b_細線3
  6
CONTINUOUS
 62
    7
 10
569.69108252284082
 20
212.90911942974486
 11
569.69108252504861
 21
253.10911942974474
  0
LINE
  8
_0-b_細線3
  6
CONTINUOUS
 62
    7
 10
569.69108252284082
 20
212.90911942974486
 11
562.89108252284086
 21
212.90911942974486
  0
ARC
  8
_0-b_細線3
  6
CONTINUOUS
 62
    7
 10
591.69108252577189
 20
258.90911942974446
 40
2
 50
89.999999999999915
 51
179.99999999999983
  0
ARC
  8
_0-b_細線3
  6
CONTINUOUS
 62
    7
 10
592.6269809084265
 20
262.90911942974458
 40
2
 50
269.99999999999977
 51
329.9999999999979
  0
ARC
  8
_0-b_細線3
  6
CONTINUOUS
 62
    7
 10
596.0910825235643
 20
260.90911942974481
 40
2
 50
89.999999999999915
 51
150.00000000000793
  0
LINE
  8
_0-b_細線3
  6
CONTINUOUS
 62
    7
 10
591.69108252577189
 20
260.90911942974481
 11
592.6269809084265
 21
260.90911942974481
  0
ARC
  8
_0-b_細線3
  6
CONTINUOUS
 62
    7
 10
610.4910825213575
 20
258.90911942974446
 40
2
 50
0
 51
89.999999999999915
  0
ARC
  8
_0-b_細線3
  6
CONTINUOUS
 62
    7
 10
609.55518413870232
 20
262.90911942974458
 40
2
 50
209.99999999999486
 51
269.99999999999977
  0
ARC
  8
_0-b_細線3
  6
CONTINUOUS
 62
    7
 10
606.09108252356441
 20
260.90911942974481
 40
2
 50
29.999999999998597
 51
89.999999999999901
  0
LINE
  8
_0-b_細線3
  6
CONTINUOUS
 62
    7
 10
610.4910825213575
 20
260.90911942974481
 11
609.55518413870232
 21
260.90911942974481
  0
ARC
  8
_0-b_細線3
  6
CONTINUOUS
 62
    7
 10
590.69108252577212
 20
256.10911942974474
 40
1
 50
179.99999999999983
 51
269.99999999999977
  0
LINE
  8
_0-b_細線3
  6
CONTINUOUS
 62
    7
 10
589.69108252577144
 20
258.90911942974446
 11
589.69108252577144
 21
256.10911942974474
  0
ARC
  8
_0-b_細線3
  6
CONTINUOUS
 62
    7
 10
611.49108252135716
 20
256.10911942974474
 40
1
 50
269.99999999999977
 51
359.99999999999966
  0
LINE
  8
_0-b_細線3
  6
CONTINUOUS
 62
    7
 10
612.49108252135738
 20
258.90911942974446
 11
612.49108252135738
 21
256.10911942974474
  0
ARC
  8
_0-b_細線3
  6
CONTINUOUS
 62
    7
 10
595.69108252577155
 20
253.10911942974474
 40
2
 50
0
 51
89.999999999999915
  0
LINE
  8
_0-b_細線3
  6
CONTINUOUS
 62
    7
 10
595.69108252577155
 20
255.10911942974462
 11
590.69108252577212
 21
255.10911942974462
  0
ARC
  8
_0-b_細線3
  6
CONTINUOUS
 62
    7
 10
606.49108252577207
 20
253.10911942974474
 40
2
 50
89.999999999999915
 51
179.99999999999983
  0
LINE
  8
_0-b_細線3
  6
CONTINUOUS
 62
    7
 10
606.49108252135738
 20
255.10911942974462
 11
611.49108252135716
 21
255.10911942974462
  0
LINE
  8
_0-b_細線3
  6
CONTINUOUS
 62
    7
 10
606.09108252356441
 20
262.90911942974458
 11
596.0910825235643
 21
262.90911942974458
  0
LINE
  8
_0-b_細線3
  6
CONTINUOUS
 62
    7
 10
597.69108252356455
 20
212.90911942974486
 11
597.69108252577189
 21
253.10911942974474
  0
LINE
  8
_0-b_細線3
  6
CONTINUOUS
 62
    7
 10
604.49108252356439
 20
212.90911942974486
 11
604.49108252577219
 21
253.10911942974474
  0
LINE
  8
_0-b_細線3
  6
CONTINUOUS
 62
    7
 10
604.49108252356439
 20
212.90911942974486
 11
597.69108252356455
 21
212.90911942974486
  0
ARC
  8
_0-b_細線3
  6
CONTINUOUS
 62
    7
 10
626.49108252649557
 20
258.90911942974446
 40
2
 50
89.999999999999915
 51
179.99999999999983
  0
ARC
  8
_0-b_細線3
  6
CONTINUOUS
 62
    7
 10
627.42698090915019
 20
262.90911942974458
 40
2
 50
269.99999999999977
 51
329.9999999999979
  0
ARC
  8
_0-b_細線3
  6
CONTINUOUS
 62
    7
 10
630.89108252428798
 20
260.90911942974481
 40
2
 50
89.999999999999915
 51
150.00000000000793
  0
LINE
  8
_0-b_細線3
  6
CONTINUOUS
 62
    7
 10
626.49108252649557
 20
260.90911942974481
 11
627.42698090915019
 21
260.90911942974481
  0
ARC
  8
_0-b_細線3
  6
CONTINUOUS
 62
    7
 10
645.29108252208118
 20
258.90911942974446
 40
2
 50
0
 51
89.999999999999915
  0
ARC
  8
_0-b_細線3
  6
CONTINUOUS
 62
    7
 10
644.355184139426
 20
262.90911942974458
 40
2
 50
210.00000000000136
 51
269.99999999999977
  0
ARC
  8
_0-b_細線3
  6
CONTINUOUS
 62
    7
 10
640.89108252428821
 20
260.90911942974481
 40
2
 50
29.999999999992085
 51
89.999999999983714
  0
LINE
  8
_0-b_細線3
  6
CONTINUOUS
 62
    7
 10
645.29108252208118
 20
260.90911942974481
 11
644.355184139426
 21
260.90911942974481
  0
ARC
  8
_0-b_細線3
  6
CONTINUOUS
 62
    7
 10
625.49108252649535
 20
256.10911942974474
 40
1
 50
179.99999999999983
 51
269.99999999999977
  0
LINE
  8
_0-b_細線3
  6
CONTINUOUS
 62
    7
 10
624.49108252649512
 20
258.90911942974446
 11
624.49108252649512
 21
256.10911942974474
  0
ARC
  8
_0-b_細線3
  6
CONTINUOUS
 62
    7
 10
646.29108252208084
 20
256.10911942974474
 40
1
 50
269.99999999999977
 51
359.99999999999966
  0
LINE
  8
_0-b_細線3
  6
CONTINUOUS
 62
    7
 10
647.29108252208107
 20
258.90911942974446
 11
647.29108252208107
 21
256.10911942974474
  0
ARC
  8
_0-b_細線3
  6
CONTINUOUS
 62
    7
 10
630.49108252649512
 20
253.10911942974474
 40
2
 50
0
 51
89.999999999999915
  0
LINE
  8
_0-b_細線3
  6
CONTINUOUS
 62
    7
 10
630.49108252649512
 20
255.10911942974462
 11
625.49108252649535
 21
255.10911942974462
  0
ARC
  8
_0-b_細線3
  6
CONTINUOUS
 62
    7
 10
641.29108252649519
 20
253.10911942974474
 40
2
 50
89.999999999999915
 51
179.99999999999983
  0
LINE
  8
_0-b_細線3
  6
CONTINUOUS
 62
    7
 10
641.2910825220805
 20
255.10911942974462
 11
646.29108252208084
 21
255.10911942974462
  0
LINE
  8
_0-b_細線3
  6
CONTINUOUS
 62
    7
 10
640.89108252428821
 20
262.90911942974458
 11
630.89108252428798
 21
262.90911942974458
  0
LINE
  8
_0-b_細線3
  6
CONTINUOUS
 62
    7
 10
632.49108252428823
 20
212.90911942974486
 11
632.49108252649557
 21
253.10911942974474
  0
LINE
  8
_0-b_細線3
  6
CONTINUOUS
 62
    7
 10
639.29108252428796
 20
212.90911942974486
 11
639.29108252649587
 21
253.10911942974474
  0
LINE
  8
_0-b_細線3
  6
CONTINUOUS
 62
    7
 10
639.29108252428796
 20
212.90911942974486
 11
632.49108252428823
 21
212.90911942974486
  0
ARC
  8
_0-b_細線3
  6
CONTINUOUS
 62
    7
 10
487.29108252322067
 20
258.90911942974446
 40
2
 50
89.999999999999915
 51
179.99999999999983
  0
ARC
  8
_0-b_細線3
  6
CONTINUOUS
 62
    7
 10
488.22698090587545
 20
262.90911942974458
 40
2
 50
269.99999999999977
 51
330.00000000000443
  0
ARC
  8
_0-b_細線3
  6
CONTINUOUS
 62
    7
 10
491.69108252101319
 20
260.90911942974481
 40
2
 50
89.999999999999915
 51
150.00000000000142
  0
LINE
  8
_0-b_細線3
  6
CONTINUOUS
 62
    7
 10
487.29108252322067
 20
260.90911942974481
 11
488.22698090587545
 21
260.90911942974481
  0
ARC
  8
_0-b_細線3
  6
CONTINUOUS
 62
    7
 10
506.09108251880639
 20
258.90911942974446
 40
2
 50
0
 51
89.999999999999915
  0
ARC
  8
_0-b_細線3
  6
CONTINUOUS
 62
    7
 10
505.15518413615172
 20
262.90911942974458
 40
2
 50
209.99999999999486
 51
269.99999999999977
  0
ARC
  8
_0-b_細線3
  6
CONTINUOUS
 62
    7
 10
501.69108252101341
 20
260.90911942974481
 40
2
 50
29.999999999991271
 51
89.999999999985349
  0
LINE
  8
_0-b_細線3
  6
CONTINUOUS
 62
    7
 10
506.09108251880639
 20
260.90911942974481
 11
505.15518413615172
 21
260.90911942974481
  0
ARC
  8
_0-b_細線3
  6
CONTINUOUS
 62
    7
 10
486.29108252322112
 20
256.10911942974474
 40
1
 50
179.99999999999983
 51
269.99999999999977
  0
LINE
  8
_0-b_細線3
  6
CONTINUOUS
 62
    7
 10
485.29108252322038
 20
258.90911942974446
 11
485.29108252322038
 21
256.10911942974474
  0
ARC
  8
_0-b_細線3
  6
CONTINUOUS
 62
    7
 10
507.09108251880599
 20
256.10911942974474
 40
1
 50
269.99999999999977
 51
359.99999999999966
  0
LINE
  8
_0-b_細線3
  6
CONTINUOUS
 62
    7
 10
508.09108251880679
 20
258.90911942974446
 11
508.09108251880679
 21
256.10911942974474
  0
ARC
  8
_0-b_細線3
  6
CONTINUOUS
 62
    7
 10
491.29108252322038
 20
253.10911942974474
 40
2
 50
0
 51
89.999999999999915
  0
LINE
  8
_0-b_細線3
  6
CONTINUOUS
 62
    7
 10
491.29108252322038
 20
255.10911942974462
 11
486.29108252322112
 21
255.10911942974462
  0
ARC
  8
_0-b_細線3
  6
CONTINUOUS
 62
    7
 10
502.09108252322085
 20
253.10911942974474
 40
2
 50
89.999999999999915
 51
179.99999999999983
  0
LINE
  8
_0-b_細線3
  6
CONTINUOUS
 62
    7
 10
502.09108251880616
 20
255.10911942974462
 11
507.09108251880599
 21
255.10911942974462
  0
LINE
  8
_0-b_細線3
  6
CONTINUOUS
 62
    7
 10
501.69108252101341
 20
262.90911942974458
 11
491.69108252101319
 21
262.90911942974458
  0
LINE
  8
_0-b_細線3
  6
CONTINUOUS
 62
    7
 10
493.29108252101395
 20
212.90911942974486
 11
493.29108252322067
 21
253.10911942974474
  0
LINE
  8
_0-b_細線3
  6
CONTINUOUS
 62
    7
 10
500.09108252101322
 20
212.90911942974486
 11
500.09108252322108
 21
253.10911942974474
  0
LINE
  8
_0-b_細線3
  6
CONTINUOUS
 62
    7
 10
500.09108252101322
 20
212.90911942974486
 11
493.29108252101395
 21
212.90911942974486
  0
ARC
  8
_0-b_細線3
  6
CONTINUOUS
 62
    7
 10
522.09108252394435
 20
258.90911942974446
 40
2
 50
89.999999999999915
 51
179.99999999999983
  0
ARC
  8
_0-b_細線3
  6
CONTINUOUS
 62
    7
 10
523.02698090659965
 20
262.90911942974458
 40
2
 50
269.99999999999977
 51
329.99999999998812
  0
ARC
  8
_0-b_細線3
  6
CONTINUOUS
 62
    7
 10
526.49108252173687
 20
260.90911942974481
 40
2
 50
89.999999999999915
 51
150.00000000000955
  0
LINE
  8
_0-b_細線3
  6
CONTINUOUS
 62
    7
 10
522.09108252394435
 20
260.90911942974481
 11
523.02698090659965
 21
260.90911942974481
  0
ARC
  8
_0-b_細線3
  6
CONTINUOUS
 62
    7
 10
540.89108251953007
 20
258.90911942974446
 40
2
 50
0
 51
89.999999999999915
  0
ARC
  8
_0-b_細線3
  6
CONTINUOUS
 62
    7
 10
539.95518413687478
 20
262.90911942974458
 40
2
 50
210.00000000000298
 51
269.99999999999977
  0
ARC
  8
_0-b_細線3
  6
CONTINUOUS
 62
    7
 10
536.49108252173755
 20
260.90911942974481
 40
2
 50
29.999999999998597
 51
89.999999999999901
  0
LINE
  8
_0-b_細線3
  6
CONTINUOUS
 62
    7
 10
540.89108251953007
 20
260.90911942974481
 11
539.95518413687478
 21
260.90911942974481
  0
ARC
  8
_0-b_細線3
  6
CONTINUOUS
 62
    7
 10
521.09108252394458
 20
256.10911942974474
 40
1
 50
179.99999999999983
 51
269.99999999999977
  0
LINE
  8
_0-b_細線3
  6
CONTINUOUS
 62
    7
 10
520.09108252394458
 20
258.90911942974446
 11
520.09108252394458
 21
256.10911942974474
  0
ARC
  8
_0-b_細線3
  6
CONTINUOUS
 62
    7
 10
541.89108251952962
 20
256.10911942974474
 40
1
 50
269.99999999999977
 51
359.99999999999966
  0
LINE
  8
_0-b_細線3
  6
CONTINUOUS
 62
    7
 10
542.89108251952985
 20
258.90911942974446
 11
542.89108251952985
 21
256.10911942974474
  0
ARC
  8
_0-b_細線3
  6
CONTINUOUS
 62
    7
 10
526.09108252394458
 20
253.10911942974474
 40
2
 50
0
 51
89.999999999999915
  0
LINE
  8
_0-b_細線3
  6
CONTINUOUS
 62
    7
 10
526.09108252394458
 20
255.10911942974462
 11
521.09108252394458
 21
255.10911942974462
  0
ARC
  8
_0-b_細線3
  6
CONTINUOUS
 62
    7
 10
536.89108252394453
 20
253.10911942974474
 40
2
 50
89.999999999999915
 51
179.99999999999983
  0
LINE
  8
_0-b_細線3
  6
CONTINUOUS
 62
    7
 10
536.89108251952985
 20
255.10911942974462
 11
541.89108251952962
 21
255.10911942974462
  0
LINE
  8
_0-b_細線3
  6
CONTINUOUS
 62
    7
 10
536.49108252173755
 20
262.90911942974458
 11
526.49108252173687
 21
262.90911942974458
  0
LINE
  8
_0-b_細線3
  6
CONTINUOUS
 62
    7
 10
528.09108252173701
 20
212.90911942974486
 11
528.09108252394435
 21
253.10911942974474
  0
LINE
  8
_0-b_細線3
  6
CONTINUOUS
 62
    7
 10
534.89108252173742
 20
212.90911942974486
 11
534.89108252394476
 21
253.10911942974474
  0
LINE
  8
_0-b_細線3
  6
CONTINUOUS
 62
    7
 10
534.89108252173742
 20
212.90911942974486
 11
528.09108252173701
 21
212.90911942974486
  0
LINE
  8
_0-d_寸法3
  6
CONTINUOUS
 62
    7
 10
645.7209070561355
 20
219.79203666595743
 11
688.14371712695811
 21
249.49680806958625
  0
LINE
  8
_0-d_寸法3
  6
CONTINUOUS
 62
    7
 10
683.22880486122415
 20
246.05534945147997
 11
680.12297631999377
 21
257.64645936694882
  0
LINE
  8
_0-d_寸法3
  6
CONTINUOUS
 62
    7
 10
683.22880486122415
 20
246.05534945147997
 11
686.33463340245441
 21
257.64645936694882
  0
LINE
  8
_0-d_寸法3
  6
CONTINUOUS
 62
    7
 10
645.7209070561355
 20
269.79203666595714
 11
688.14371712695811
 21
299.49680806958611
  0
LINE
  8
_0-d_寸法3
  6
CONTINUOUS
 62
    7
 10
683.22880486122415
 20
296.05534945147986
 11
686.3346334024543
 21
284.46423953601095
  0
LINE
  8
_0-d_寸法3
  6
CONTINUOUS
 62
    7
 10
683.22880486122415
 20
296.05534945147986
 11
680.12297631999377
 21
284.46423953601106
  0
LINE
  8
_0-d_寸法3
  6
CONTINUOUS
 62
    7
 10
683.22880486122415
 20
246.05534945147997
 11
683.22880486122415
 21
296.05534945147986
  0
TEXT
  8
_0-d_寸法3
 62
    7
 10
683.22880486122415
 20
262.05534945148122
 40
18
 41
1
 50
90
  1
25
  0
LINE
  8
_0-a_極細3
  6
CENTER1
 62
    7
 10
660.84960291119626
 20
240.50911942974449
 11
465.75535175768528
 21
240.50911942974449
  0
LINE
  8
_0-b_細線3
  6
CONTINUOUS
 62
    7
 10
569.69108252394471
 20
227.50911942974463
 11
597.69108252394483
 21
227.50911942974463
  0
LINE
  8
_0-b_細線3
  6
CONTINUOUS
 62
    7
 10
604.49108252466817
 20
227.50911942974463
 11
632.49108252466851
 21
227.50911942974463
  0
LINE
  8
_0-b_細線3
  6
CONTINUOUS
 62
    7
 10
500.09108252211718
 20
227.50911942974463
 11
528.0910825221174
 21
227.50911942974463
  0
LINE
  8
_0-b_細線3
  6
CONTINUOUS
 62
    7
 10
534.89108252284132
 20
227.50911942974463
 11
562.89108252284086
 21
227.50911942974463
  0
LINE
  8
_0-b_細線3
  6
CONTINUOUS
 62
    7
 10
569.69108252394471
 20
253.50911942974471
 11
597.69108252394483
 21
253.50911942974471
  0
LINE
  8
_0-b_細線3
  6
CONTINUOUS
 62
    7
 10
604.49108252466817
 20
253.50911942974471
 11
632.49108252466851
 21
253.50911942974471
  0
LINE
  8
_0-b_細線3
  6
CONTINUOUS
 62
    7
 10
500.09108252211718
 20
253.50911942974471
 11
528.0910825221174
 21
253.50911942974471
  0
LINE
  8
_0-b_細線3
  6
CONTINUOUS
 62
    7
 10
534.89108252284132
 20
253.50911942974471
 11
562.89108252284086
 21
253.50911942974471
  0
LINE
  8
_0-b_細線3
  6
CONTINUOUS
 62
    7
 10
639.29108252539197
 20
253.50911942974471
 11
652.20199819435209
 21
253.50911942974471
  0
LINE
  8
_0-b_細線3
  6
CONTINUOUS
 62
    7
 10
639.29108252539197
 20
227.50911942974463
 11
655.45216460521942
 21
227.50911942974463
  0
LINE
  8
_0-b_細線3
  6
CONTINUOUS
 62
    7
 10
478.29821966835129
 20
253.50911942974471
 11
493.29108252139372
 21
253.50911942974471
  0
LINE
  8
_0-b_細線3
  6
CONTINUOUS
 62
    7
 10
481.54838607921857
 20
227.50911942974463
 11
493.29108252139372
 21
227.50911942974463
  0
TEXT
  8
_0-7_枠細線
 62
    5
 10
518.61108252173653
 20
154.24855932442728
 40
30.000000000000007
 41
0.8
 50
0
  1
断面詳細
  0
TEXT
  8
_0-7_枠細線
 62
    5
 10
644.54984622073835
 20
157.79988710881102
 40
24
 41
0.6
 50
0
  1
Ｓ＝１：３
  0
LINE
  8
_0-7_枠細線
  6
CONTINUOUS
 62
    5
 10
814.42659877990309
 20
976.1593479079695
 11
805.42659877990309
 21
958.1593479079695
  0
LINE
  8
_0-7_枠細線
  6
CONTINUOUS
 62
    5
 10
805.42659877990309
 20
958.1593479079695
 11
823.42659877990309
 21
958.1593479079695
  0
LINE
  8
_0-7_枠細線
  6
CONTINUOUS
 62
    5
 10
823.42659877990309
 20
958.1593479079695
 11
814.42659877990309
 21
976.1593479079695
  0
TEXT
  8
_0-7_枠細線
 62
    5
 10
811.26478030168073
 20
957.50212723975187
 40
15
 41
0.8
 50
0
  1
1
  0
TEXT
  8
_0-7_枠細線
 62
    5
 10
1116.0000000000005
 20
514.47600000000057
 40
18.000000000000004
 41
0.5
 50
0
  1
ＧＲＳ－２５Ｋ４５０－Ｂ
  0
TEXT
  8
_0-7_枠細線
 62
    5
 10
1116.0000000000005
 20
484.47600000000057
 40
18.000000000000004
 41
0.5
 50
0
  1
ＧＲＳ－２５Ｋ４５０－Ｇ
  0
TEXT
  8
_0-7_枠細線
 62
    5
 10
1116.0000000000005
 20
454.47600000000091
 40
18.000000000000004
 41
0.5
 50
0
  1
ＧＲＳ－２５Ｋ４５０－Ｓ
  0
TEXT
  8
_0-7_枠細線
 62
    5
 10
1116.0000000000005
 20
424.47600000000057
 40
18.000000000000004
 41
0.5
 50
0
  1
ＧＲＳ－２５Ｋ４５０－Ｐ
  0
TEXT
  8
_0-7_枠細線
 62
    5
 10
1116.0000000000005
 20
394.47600000000057
 40
18.000000000000004
 41
0.5
 50
0
  1
ＧＲＳ－２５Ｋ４５０－Ａ
  0
TEXT
  8
_0-7_枠細線
 62
    5
 10
1116.0000000000005
 20
364.47600000000074
 40
18.000000000000004
 41
0.5
 50
0
  1
ＧＲＳ－２５Ｋ４５０－Ｄ
  0
TEXT
  8
_0-7_枠細線
 62
    5
 10
1116.0000000000005
 20
334.47600000000079
 40
18.000000000000004
 41
0.5
 50
0
  1
ＧＲＳ－２５Ｋ４５０－Ｍ
  0
TEXT
  8
_0-7_枠細線
 62
    5
 10
1116.0000000000005
 20
304.47600000000045
 40
18.000000000000004
 41
0.5
 50
0
  1
ＧＲＳ－２５Ｋ４５０－Ｃ
  0
TEXT
  8
_0-7_枠細線
 62
    5
 10
1116.0000000000005
 20
274.47600000000011
 40
18.000000000000004
 41
0.5
 50
0
  1
ＧＲＳ－２５Ｋ４５０－Ｋ
  0
TEXT
  8
_0-7_枠細線
 62
    5
 10
1126.6204444444443
 20
986.99999999999977
 40
15
 41
1
 50
0
  1
取外具形状変更
  0
LINE
  8
_0-7_枠細線
  6
CONTINUOUS
 62
    5
 10
1089
 20
1003.7308007660961
 11
1080
 21
985.73080076609608
  0
LINE
  8
_0-7_枠細線
  6
CONTINUOUS
 62
    5
 10
1080
 20
985.73080076609608
 11
1098
 21
985.73080076609608
  0
LINE
  8
_0-7_枠細線
  6
CONTINUOUS
 62
    5
 10
1098
 20
985.73080076609608
 11
1089
 21
1003.7308007660961
  0
TEXT
  8
_0-7_枠細線
 62
    5
 10
1082.8381815217776
 20
985.36239807163963
 40
14.999999999999995
 41
0.8000000000000002
 50
0
  1
６
  0
TEXT
  8
_0-7_枠細線
 62
    5
 10
1416
 20
986.99999999999977
 40
15
 41
0.7199999999999999
 50
0
  1
２０２１．０５．０６
  0
LINE
  8
_0-7_枠細線
  6
CONTINUOUS
 62
    5
 10
1710
 20
983.99999999999977
 11
1068
 21
983.99999999999977
  0
LINE
  8
_0-7_枠細線
  6
CONTINUOUS
 62
    5
 10
1068
 20
984
 11
1068
 21
1151.9999999999989
  0
LINE
  8
_0-7_枠細線
  6
CONTINUOUS
 62
    5
 10
1110
 20
984
 11
1110
 21
1151.9999999999989
  0
LINE
  8
_0-7_枠細線
  6
CONTINUOUS
 62
    5
 10
1410
 20
984
 11
1410
 21
1151.9999999999989
  0
LINE
  8
_0-7_枠細線
  6
CONTINUOUS
 62
    5
 10
1530
 20
984
 11
1530
 21
1151.9999999999989
  0
LINE
  8
_0-0_計極細
  6
CENTER1
 62
    2
 10
353.10052219321148
 20
896.72303464662082
 11
353.10052219321148
 21
430.41449148114543
  0
LINE
  8
_0-0_計極細
  6
CONTINUOUS
 62
    2
 10
346.60052219321142
 20
875.57231522214943
 11
346.60052219321142
 21
869.17231522215252
  0
LINE
  8
_0-0_計極細
  6
CONTINUOUS
 62
    2
 10
359.60052219321142
 20
875.57231522214943
 11
359.60052219321142
 21
869.17231522215252
  0
LINE
  8
_0-0_計極細
  6
CONTINUOUS
 62
    2
 10
346.60052219321142
 20
857.77231522214925
 11
346.60052219321142
 21
851.37231522215234
  0
LINE
  8
_0-0_計極細
  6
CONTINUOUS
 62
    2
 10
359.60052219321142
 20
857.77231522214925
 11
359.60052219321142
 21
851.37231522215234
  0
LINE
  8
_0-0_計極細
  6
CONTINUOUS
 62
    2
 10
346.60052219321142
 20
474.57231522214852
 11
346.60052219321142
 21
468.17231522215161
  0
LINE
  8
_0-0_計極細
  6
CONTINUOUS
 62
    2
 10
359.60052219321142
 20
474.57231522214852
 11
359.60052219321142
 21
468.17231522215161
  0
LINE
  8
_0-0_計極細
  6
CONTINUOUS
 62
    2
 10
346.60052219321142
 20
456.77231522214834
 11
346.60052219321142
 21
450.37231522215143
  0
LINE
  8
_0-0_計極細
  6
CONTINUOUS
 62
    2
 10
359.60052219321142
 20
456.77231522214834
 11
359.60052219321142
 21
450.37231522215143
  0
LINE
  8
_0-0_計極細
  6
CONTINUOUS
 62
    2
 10
346.60052219321142
 20
839.97231522214906
 11
346.60052219321142
 21
833.97231522215179
  0
LINE
  8
_0-0_計極細
  6
CONTINUOUS
 62
    2
 10
359.60052219321142
 20
839.97231522214906
 11
359.60052219321142
 21
833.97231522215179
  0
LINE
  8
_0-0_計極細
  6
CONTINUOUS
 62
    2
 10
346.60052219321142
 20
822.57231522214852
 11
346.60052219321142
 21
816.57231522215125
  0
LINE
  8
_0-0_計極細
  6
CONTINUOUS
 62
    2
 10
359.60052219321142
 20
822.57231522214852
 11
359.60052219321142
 21
816.57231522215125
  0
LINE
  8
_0-0_計極細
  6
CONTINUOUS
 62
    2
 10
346.60052219321142
 20
805.17231522214888
 11
346.60052219321142
 21
799.17231522215161
  0
LINE
  8
_0-0_計極細
  6
CONTINUOUS
 62
    2
 10
359.60052219321142
 20
805.17231522214888
 11
359.60052219321142
 21
799.17231522215161
  0
LINE
  8
_0-0_計極細
  6
CONTINUOUS
 62
    2
 10
346.60052219321142
 20
787.77231522214834
 11
346.60052219321142
 21
781.77231522215106
  0
LINE
  8
_0-0_計極細
  6
CONTINUOUS
 62
    2
 10
359.60052219321142
 20
787.77231522214834
 11
359.60052219321142
 21
781.77231522215106
  0
LINE
  8
_0-0_計極細
  6
CONTINUOUS
 62
    2
 10
346.60052219321142
 20
770.37231522214859
 11
346.60052219321142
 21
764.37231522215143
  0
LINE
  8
_0-0_計極細
  6
CONTINUOUS
 62
    2
 10
359.60052219321142
 20
770.37231522214859
 11
359.60052219321142
 21
764.37231522215143
  0
LINE
  8
_0-0_計極細
  6
CONTINUOUS
 62
    2
 10
346.60052219321142
 20
752.97231522214815
 11
346.60052219321142
 21
746.97231522215088
  0
LINE
  8
_0-0_計極細
  6
CONTINUOUS
 62
    2
 10
359.60052219321142
 20
752.97231522214815
 11
359.60052219321142
 21
746.97231522215088
  0
LINE
  8
_0-0_計極細
  6
CONTINUOUS
 62
    2
 10
346.60052219321142
 20
735.57231522214852
 11
346.60052219321142
 21
729.57231522215125
  0
LINE
  8
_0-0_計極細
  6
CONTINUOUS
 62
    2
 10
359.60052219321142
 20
735.57231522214852
 11
359.60052219321142
 21
729.57231522215125
  0
LINE
  8
_0-0_計極細
  6
CONTINUOUS
 62
    2
 10
346.60052219321142
 20
718.17231522214888
 11
346.60052219321142
 21
712.17231522215161
  0
LINE
  8
_0-0_計極細
  6
CONTINUOUS
 62
    2
 10
359.60052219321142
 20
718.17231522214888
 11
359.60052219321142
 21
712.17231522215161
  0
LINE
  8
_0-0_計極細
  6
CONTINUOUS
 62
    2
 10
346.60052219321142
 20
700.77231522214834
 11
346.60052219321142
 21
694.77231522215106
  0
LINE
  8
_0-0_計極細
  6
CONTINUOUS
 62
    2
 10
359.60052219321142
 20
700.77231522214834
 11
359.60052219321142
 21
694.77231522215106
  0
LINE
  8
_0-0_計極細
  6
CONTINUOUS
 62
    2
 10
346.60052219321142
 20
683.3723152221487
 11
346.60052219321142
 21
677.37231522215143
  0
LINE
  8
_0-0_計極細
  6
CONTINUOUS
 62
    2
 10
359.60052219321142
 20
683.3723152221487
 11
359.60052219321142
 21
677.37231522215143
  0
LINE
  8
_0-0_計極細
  6
CONTINUOUS
 62
    2
 10
346.60052219321142
 20
665.97231522214815
 11
346.60052219321142
 21
659.97231522215088
  0
LINE
  8
_0-0_計極細
  6
CONTINUOUS
 62
    2
 10
359.60052219321142
 20
665.97231522214815
 11
359.60052219321142
 21
659.97231522215088
  0
LINE
  8
_0-0_計極細
  6
CONTINUOUS
 62
    2
 10
346.60052219321142
 20
648.57231522214852
 11
346.60052219321142
 21
642.57231522215125
  0
LINE
  8
_0-0_計極細
  6
CONTINUOUS
 62
    2
 10
359.60052219321142
 20
648.57231522214852
 11
359.60052219321142
 21
642.57231522215125
  0
LINE
  8
_0-0_計極細
  6
CONTINUOUS
 62
    2
 10
346.60052219321142
 20
631.17231522214888
 11
346.60052219321142
 21
625.17231522215161
  0
LINE
  8
_0-0_計極細
  6
CONTINUOUS
 62
    2
 10
359.60052219321142
 20
631.17231522214888
 11
359.60052219321142
 21
625.17231522215161
  0
LINE
  8
_0-0_計極細
  6
CONTINUOUS
 62
    2
 10
346.60052219321142
 20
613.77231522214834
 11
346.60052219321142
 21
607.77231522215106
  0
LINE
  8
_0-0_計極細
  6
CONTINUOUS
 62
    2
 10
359.60052219321142
 20
613.77231522214834
 11
359.60052219321142
 21
607.77231522215106
  0
LINE
  8
_0-0_計極細
  6
CONTINUOUS
 62
    2
 10
346.60052219321142
 20
596.3723152221487
 11
346.60052219321142
 21
590.37231522215143
  0
LINE
  8
_0-0_計極細
  6
CONTINUOUS
 62
    2
 10
359.60052219321142
 20
596.3723152221487
 11
359.60052219321142
 21
590.37231522215143
  0
LINE
  8
_0-0_計極細
  6
CONTINUOUS
 62
    2
 10
346.60052219321142
 20
578.97231522214815
 11
346.60052219321142
 21
572.97231522215088
  0
LINE
  8
_0-0_計極細
  6
CONTINUOUS
 62
    2
 10
359.60052219321142
 20
578.97231522214815
 11
359.60052219321142
 21
572.97231522215088
  0
LINE
  8
_0-0_計極細
  6
CONTINUOUS
 62
    2
 10
346.60052219321142
 20
561.57231522214852
 11
346.60052219321142
 21
555.57231522215125
  0
LINE
  8
_0-0_計極細
  6
CONTINUOUS
 62
    2
 10
359.60052219321142
 20
561.57231522214852
 11
359.60052219321142
 21
555.57231522215125
  0
LINE
  8
_0-0_計極細
  6
CONTINUOUS
 62
    2
 10
346.60052219321142
 20
544.17231522214888
 11
346.60052219321142
 21
538.17231522215161
  0
LINE
  8
_0-0_計極細
  6
CONTINUOUS
 62
    2
 10
359.60052219321142
 20
544.17231522214888
 11
359.60052219321142
 21
538.17231522215161
  0
LINE
  8
_0-0_計極細
  6
CONTINUOUS
 62
    2
 10
346.60052219321142
 20
526.77231522214834
 11
346.60052219321142
 21
520.77231522215106
  0
LINE
  8
_0-0_計極細
  6
CONTINUOUS
 62
    2
 10
359.60052219321142
 20
526.77231522214834
 11
359.60052219321142
 21
520.77231522215106
  0
LINE
  8
_0-0_計極細
  6
CONTINUOUS
 62
    2
 10
346.60052219321142
 20
509.3723152221487
 11
346.60052219321142
 21
503.37231522215143
  0
LINE
  8
_0-0_計極細
  6
CONTINUOUS
 62
    2
 10
359.60052219321142
 20
509.3723152221487
 11
359.60052219321142
 21
503.37231522215143
  0
LINE
  8
_0-0_計極細
  6
CONTINUOUS
 62
    2
 10
346.60052219321142
 20
491.97231522214906
 11
346.60052219321142
 21
485.97231522215179
  0
LINE
  8
_0-0_計極細
  6
CONTINUOUS
 62
    2
 10
359.60052219321142
 20
491.97231522214906
 11
359.60052219321142
 21
485.97231522215179
  0
LINE
  8
_0-0_計極細
  6
CENTER2
 62
    2
 10
330.21192265619197
 20
662.97231522212996
 11
813.14525598956857
 21
662.97231522212996
  0
LINE
  8
_0-1_計細線
  6
CONTINUOUS
 62
    3
 10
346.10052219321119
 20
886.9723152221527
 11
796.10052219321085
 21
886.9723152221527
  0
LINE
  8
_0-1_計細線
  6
CONTINUOUS
 62
    3
 10
346.10052219321119
 20
875.57231522215216
 11
796.10052219321085
 21
875.57231522215216
  0
LINE
  8
_0-1_計細線
  6
CONTINUOUS
 62
    3
 10
346.10052219321119
 20
886.9723152221527
 11
346.10052219321119
 21
875.57231522215216
  0
LINE
  8
_0-1_計細線
  6
CONTINUOUS
 62
    3
 10
796.10052219321085
 20
886.9723152221527
 11
796.10052219321085
 21
875.57231522215216
  0
LINE
  8
_0-0_計極細
  6
CONTINUOUS
 62
    2
 10
346.10052219321119
 20
878.77231522215288
 11
796.10052219321085
 21
878.77231522215288
  0
LINE
  8
_0-0_計極細
  6
CONTINUOUS
 62
    2
 10
346.10052219321119
 20
883.77231522215288
 11
796.10052219321085
 21
883.77231522215288
  0
LINE
  8
_0-1_計細線
  6
CONTINUOUS
 62
    3
 10
346.10052219321119
 20
485.97231522215179
 11
796.10052219321085
 21
485.97231522215179
  0
LINE
  8
_0-1_計細線
  6
CONTINUOUS
 62
    3
 10
346.10052219321119
 20
474.57231522215125
 11
796.10052219321085
 21
474.57231522215125
  0
LINE
  8
_0-1_計細線
  6
CONTINUOUS
 62
    3
 10
346.10052219321119
 20
485.97231522215179
 11
346.10052219321119
 21
474.57231522215125
  0
LINE
  8
_0-1_計細線
  6
CONTINUOUS
 62
    3
 10
796.10052219321085
 20
485.97231522215179
 11
796.10052219321085
 21
474.57231522215125
  0
LINE
  8
_0-0_計極細
  6
CONTINUOUS
 62
    2
 10
346.10052219321119
 20
477.77231522215192
 11
796.10052219321085
 21
477.77231522215192
  0
LINE
  8
_0-0_計極細
  6
CONTINUOUS
 62
    2
 10
346.10052219321119
 20
482.77231522215197
 11
796.10052219321085
 21
482.77231522215197
  0
LINE
  8
_0-1_計細線
  6
CONTINUOUS
 62
    3
 10
346.10052219321119
 20
816.57231522215125
 11
796.10052219321085
 21
816.57231522215125
  0
LINE
  8
_0-1_計細線
  6
CONTINUOUS
 62
    3
 10
346.10052219321119
 20
805.1723152221507
 11
796.10052219321085
 21
805.1723152221507
  0
LINE
  8
_0-1_計細線
  6
CONTINUOUS
 62
    3
 10
346.10052219321119
 20
816.57231522215125
 11
346.10052219321119
 21
805.1723152221507
  0
LINE
  8
_0-1_計細線
  6
CONTINUOUS
 62
    3
 10
796.10052219321085
 20
816.57231522215125
 11
796.10052219321085
 21
805.1723152221507
  0
LINE
  8
_0-0_計極細
  6
CONTINUOUS
 62
    2
 10
346.10052219321119
 20
808.37231522215143
 11
796.10052219321085
 21
808.37231522215143
  0
LINE
  8
_0-0_計極細
  6
CONTINUOUS
 62
    2
 10
346.10052219321119
 20
813.37231522215143
 11
796.10052219321085
 21
813.37231522215143
  0
LINE
  8
_0-1_計細線
  6
CONTINUOUS
 62
    3
 10
346.10052219321119
 20
799.17231522215161
 11
796.10052219321085
 21
799.17231522215161
  0
LINE
  8
_0-1_計細線
  6
CONTINUOUS
 62
    3
 10
346.10052219321119
 20
787.77231522215106
 11
796.10052219321085
 21
787.77231522215106
  0
LINE
  8
_0-1_計細線
  6
CONTINUOUS
 62
    3
 10
346.10052219321119
 20
799.17231522215161
 11
346.10052219321119
 21
787.77231522215106
  0
LINE
  8
_0-1_計細線
  6
CONTINUOUS
 62
    3
 10
796.10052219321085
 20
799.17231522215161
 11
796.10052219321085
 21
787.77231522215106
  0
LINE
  8
_0-0_計極細
  6
CONTINUOUS
 62
    2
 10
346.10052219321119
 20
790.97231522215168
 11
796.10052219321085
 21
790.97231522215168
  0
LINE
  8
_0-0_計極細
  6
CONTINUOUS
 62
    2
 10
346.10052219321119
 20
795.97231522215179
 11
796.10052219321085
 21
795.97231522215179
  0
LINE
  8
_0-1_計細線
  6
CONTINUOUS
 62
    3
 10
346.10052219321119
 20
781.77231522215106
 11
796.10052219321085
 21
781.77231522215106
  0
LINE
  8
_0-1_計細線
  6
CONTINUOUS
 62
    3
 10
346.10052219321119
 20
770.37231522215052
 11
796.10052219321085
 21
770.37231522215052
  0
LINE
  8
_0-1_計細線
  6
CONTINUOUS
 62
    3
 10
346.10052219321119
 20
781.77231522215106
 11
346.10052219321119
 21
770.37231522215052
  0
LINE
  8
_0-1_計細線
  6
CONTINUOUS
 62
    3
 10
796.10052219321085
 20
781.77231522215106
 11
796.10052219321085
 21
770.37231522215052
  0
LINE
  8
_0-0_計極細
  6
CONTINUOUS
 62
    2
 10
346.10052219321119
 20
773.57231522215113
 11
796.10052219321085
 21
773.57231522215113
  0
LINE
  8
_0-0_計極細
  6
CONTINUOUS
 62
    2
 10
346.10052219321119
 20
778.57231522215125
 11
796.10052219321085
 21
778.57231522215125
  0
LINE
  8
_0-1_計細線
  6
CONTINUOUS
 62
    3
 10
346.10052219321119
 20
764.37231522215143
 11
796.10052219321085
 21
764.37231522215143
  0
LINE
  8
_0-1_計細線
  6
CONTINUOUS
 62
    3
 10
346.10052219321119
 20
752.97231522215088
 11
796.10052219321085
 21
752.97231522215088
  0
LINE
  8
_0-1_計細線
  6
CONTINUOUS
 62
    3
 10
346.10052219321119
 20
764.37231522215143
 11
346.10052219321119
 21
752.97231522215088
  0
LINE
  8
_0-1_計細線
  6
CONTINUOUS
 62
    3
 10
796.10052219321085
 20
764.37231522215143
 11
796.10052219321085
 21
752.97231522215088
  0
LINE
  8
_0-0_計極細
  6
CONTINUOUS
 62
    2
 10
346.10052219321119
 20
756.17231522215161
 11
796.10052219321085
 21
756.17231522215161
  0
LINE
  8
_0-0_計極細
  6
CONTINUOUS
 62
    2
 10
346.10052219321119
 20
761.17231522215161
 11
796.10052219321085
 21
761.17231522215161
  0
LINE
  8
_0-1_計細線
  6
CONTINUOUS
 62
    3
 10
346.10052219321119
 20
746.97231522215088
 11
796.10052219321085
 21
746.97231522215088
  0
LINE
  8
_0-1_計細線
  6
CONTINUOUS
 62
    3
 10
346.10052219321119
 20
735.57231522215034
 11
796.10052219321085
 21
735.57231522215034
  0
LINE
  8
_0-1_計細線
  6
CONTINUOUS
 62
    3
 10
346.10052219321119
 20
746.97231522215088
 11
346.10052219321119
 21
735.57231522215034
  0
LINE
  8
_0-1_計細線
  6
CONTINUOUS
 62
    3
 10
796.10052219321085
 20
746.97231522215088
 11
796.10052219321085
 21
735.57231522215034
  0
LINE
  8
_0-0_計極細
  6
CONTINUOUS
 62
    2
 10
346.10052219321119
 20
738.77231522215106
 11
796.10052219321085
 21
738.77231522215106
  0
LINE
  8
_0-0_計極細
  6
CONTINUOUS
 62
    2
 10
346.10052219321119
 20
743.77231522215106
 11
796.10052219321085
 21
743.77231522215106
  0
LINE
  8
_0-1_計細線
  6
CONTINUOUS
 62
    3
 10
346.10052219321119
 20
729.57231522215125
 11
796.10052219321085
 21
729.57231522215125
  0
LINE
  8
_0-1_計細線
  6
CONTINUOUS
 62
    3
 10
346.10052219321119
 20
718.1723152221507
 11
796.10052219321085
 21
718.1723152221507
  0
LINE
  8
_0-1_計細線
  6
CONTINUOUS
 62
    3
 10
346.10052219321119
 20
729.57231522215125
 11
346.10052219321119
 21
718.1723152221507
  0
LINE
  8
_0-1_計細線
  6
CONTINUOUS
 62
    3
 10
796.10052219321085
 20
729.57231522215125
 11
796.10052219321085
 21
718.1723152221507
  0
LINE
  8
_0-0_計極細
  6
CONTINUOUS
 62
    2
 10
346.10052219321119
 20
721.37231522215143
 11
796.10052219321085
 21
721.37231522215143
  0
LINE
  8
_0-0_計極細
  6
CONTINUOUS
 62
    2
 10
346.10052219321119
 20
726.37231522215143
 11
796.10052219321085
 21
726.37231522215143
  0
LINE
  8
_0-1_計細線
  6
CONTINUOUS
 62
    3
 10
346.10052219321119
 20
712.17231522215161
 11
796.10052219321085
 21
712.17231522215161
  0
LINE
  8
_0-1_計細線
  6
CONTINUOUS
 62
    3
 10
346.10052219321119
 20
700.77231522215106
 11
796.10052219321085
 21
700.77231522215106
  0
LINE
  8
_0-1_計細線
  6
CONTINUOUS
 62
    3
 10
346.10052219321119
 20
712.17231522215161
 11
346.10052219321119
 21
700.77231522215106
  0
LINE
  8
_0-1_計細線
  6
CONTINUOUS
 62
    3
 10
796.10052219321085
 20
712.17231522215161
 11
796.10052219321085
 21
700.77231522215106
  0
LINE
  8
_0-0_計極細
  6
CONTINUOUS
 62
    2
 10
346.10052219321119
 20
703.97231522215179
 11
796.10052219321085
 21
703.97231522215179
  0
LINE
  8
_0-0_計極細
  6
CONTINUOUS
 62
    2
 10
346.10052219321119
 20
708.97231522215179
 11
796.10052219321085
 21
708.97231522215179
  0
LINE
  8
_0-1_計細線
  6
CONTINUOUS
 62
    3
 10
346.10052219321119
 20
694.77231522215106
 11
796.10052219321085
 21
694.77231522215106
  0
LINE
  8
_0-1_計細線
  6
CONTINUOUS
 62
    3
 10
346.10052219321119
 20
683.37231522215052
 11
796.10052219321085
 21
683.37231522215052
  0
LINE
  8
_0-1_計細線
  6
CONTINUOUS
 62
    3
 10
346.10052219321119
 20
694.77231522215106
 11
346.10052219321119
 21
683.37231522215052
  0
LINE
  8
_0-1_計細線
  6
CONTINUOUS
 62
    3
 10
796.10052219321085
 20
694.77231522215106
 11
796.10052219321085
 21
683.37231522215052
  0
LINE
  8
_0-0_計極細
  6
CONTINUOUS
 62
    2
 10
346.10052219321119
 20
686.57231522215125
 11
796.10052219321085
 21
686.57231522215125
  0
LINE
  8
_0-0_計極細
  6
CONTINUOUS
 62
    2
 10
346.10052219321119
 20
691.57231522215125
 11
796.10052219321085
 21
691.57231522215125
  0
LINE
  8
_0-1_計細線
  6
CONTINUOUS
 62
    3
 10
346.10052219321119
 20
677.37231522215143
 11
796.10052219321085
 21
677.37231522215143
  0
LINE
  8
_0-1_計細線
  6
CONTINUOUS
 62
    3
 10
346.10052219321119
 20
665.97231522215088
 11
796.10052219321085
 21
665.97231522215088
  0
LINE
  8
_0-1_計細線
  6
CONTINUOUS
 62
    3
 10
346.10052219321119
 20
677.37231522215143
 11
346.10052219321119
 21
665.97231522215088
  0
LINE
  8
_0-1_計細線
  6
CONTINUOUS
 62
    3
 10
796.10052219321085
 20
677.37231522215143
 11
796.10052219321085
 21
665.97231522215088
  0
LINE
  8
_0-0_計極細
  6
CONTINUOUS
 62
    2
 10
346.10052219321119
 20
669.17231522215161
 11
796.10052219321085
 21
669.17231522215161
  0
LINE
  8
_0-0_計極細
  6
CONTINUOUS
 62
    2
 10
346.10052219321119
 20
674.17231522215161
 11
796.10052219321085
 21
674.17231522215161
  0
LINE
  8
_0-1_計細線
  6
CONTINUOUS
 62
    3
 10
346.10052219321119
 20
659.97231522215088
 11
796.10052219321085
 21
659.97231522215088
  0
LINE
  8
_0-1_計細線
  6
CONTINUOUS
 62
    3
 10
346.10052219321119
 20
648.57231522215034
 11
796.10052219321085
 21
648.57231522215034
  0
LINE
  8
_0-1_計細線
  6
CONTINUOUS
 62
    3
 10
346.10052219321119
 20
659.97231522215088
 11
346.10052219321119
 21
648.57231522215034
  0
LINE
  8
_0-1_計細線
  6
CONTINUOUS
 62
    3
 10
796.10052219321085
 20
659.97231522215088
 11
796.10052219321085
 21
648.57231522215034
  0
LINE
  8
_0-0_計極細
  6
CONTINUOUS
 62
    2
 10
346.10052219321119
 20
651.77231522215106
 11
796.10052219321085
 21
651.77231522215106
  0
LINE
  8
_0-0_計極細
  6
CONTINUOUS
 62
    2
 10
346.10052219321119
 20
656.77231522215106
 11
796.10052219321085
 21
656.77231522215106
  0
LINE
  8
_0-1_計細線
  6
CONTINUOUS
 62
    3
 10
346.10052219321119
 20
642.57231522215125
 11
796.10052219321085
 21
642.57231522215125
  0
LINE
  8
_0-1_計細線
  6
CONTINUOUS
 62
    3
 10
346.10052219321119
 20
631.1723152221507
 11
796.10052219321085
 21
631.1723152221507
  0
LINE
  8
_0-1_計細線
  6
CONTINUOUS
 62
    3
 10
346.10052219321119
 20
642.57231522215125
 11
346.10052219321119
 21
631.1723152221507
  0
LINE
  8
_0-1_計細線
  6
CONTINUOUS
 62
    3
 10
796.10052219321085
 20
642.57231522215125
 11
796.10052219321085
 21
631.1723152221507
  0
LINE
  8
_0-0_計極細
  6
CONTINUOUS
 62
    2
 10
346.10052219321119
 20
634.37231522215143
 11
796.10052219321085
 21
634.37231522215143
  0
LINE
  8
_0-0_計極細
  6
CONTINUOUS
 62
    2
 10
346.10052219321119
 20
639.37231522215143
 11
796.10052219321085
 21
639.37231522215143
  0
LINE
  8
_0-1_計細線
  6
CONTINUOUS
 62
    3
 10
346.10052219321119
 20
625.17231522215161
 11
796.10052219321085
 21
625.17231522215161
  0
LINE
  8
_0-1_計細線
  6
CONTINUOUS
 62
    3
 10
346.10052219321119
 20
613.77231522215106
 11
796.10052219321085
 21
613.77231522215106
  0
LINE
  8
_0-1_計細線
  6
CONTINUOUS
 62
    3
 10
346.10052219321119
 20
625.17231522215161
 11
346.10052219321119
 21
613.77231522215106
  0
LINE
  8
_0-1_計細線
  6
CONTINUOUS
 62
    3
 10
796.10052219321085
 20
625.17231522215161
 11
796.10052219321085
 21
613.77231522215106
  0
LINE
  8
_0-0_計極細
  6
CONTINUOUS
 62
    2
 10
346.10052219321119
 20
616.97231522215179
 11
796.10052219321085
 21
616.97231522215179
  0
LINE
  8
_0-0_計極細
  6
CONTINUOUS
 62
    2
 10
346.10052219321119
 20
621.97231522215179
 11
796.10052219321085
 21
621.97231522215179
  0
LINE
  8
_0-1_計細線
  6
CONTINUOUS
 62
    3
 10
346.10052219321119
 20
607.77231522215106
 11
796.10052219321085
 21
607.77231522215106
  0
LINE
  8
_0-1_計細線
  6
CONTINUOUS
 62
    3
 10
346.10052219321119
 20
596.37231522215052
 11
796.10052219321085
 21
596.37231522215052
  0
LINE
  8
_0-1_計細線
  6
CONTINUOUS
 62
    3
 10
346.10052219321119
 20
607.77231522215106
 11
346.10052219321119
 21
596.37231522215052
  0
LINE
  8
_0-1_計細線
  6
CONTINUOUS
 62
    3
 10
796.10052219321085
 20
607.77231522215106
 11
796.10052219321085
 21
596.37231522215052
  0
LINE
  8
_0-0_計極細
  6
CONTINUOUS
 62
    2
 10
346.10052219321119
 20
599.57231522215125
 11
796.10052219321085
 21
599.57231522215125
  0
LINE
  8
_0-0_計極細
  6
CONTINUOUS
 62
    2
 10
346.10052219321119
 20
604.57231522215125
 11
796.10052219321085
 21
604.57231522215125
  0
LINE
  8
_0-1_計細線
  6
CONTINUOUS
 62
    3
 10
346.10052219321119
 20
590.37231522215143
 11
796.10052219321085
 21
590.37231522215143
  0
LINE
  8
_0-1_計細線
  6
CONTINUOUS
 62
    3
 10
346.10052219321119
 20
578.97231522215088
 11
796.10052219321085
 21
578.97231522215088
  0
LINE
  8
_0-1_計細線
  6
CONTINUOUS
 62
    3
 10
346.10052219321119
 20
590.37231522215143
 11
346.10052219321119
 21
578.97231522215088
  0
LINE
  8
_0-1_計細線
  6
CONTINUOUS
 62
    3
 10
796.10052219321085
 20
590.37231522215143
 11
796.10052219321085
 21
578.97231522215088
  0
LINE
  8
_0-0_計極細
  6
CONTINUOUS
 62
    2
 10
346.10052219321119
 20
582.17231522215161
 11
796.10052219321085
 21
582.17231522215161
  0
LINE
  8
_0-0_計極細
  6
CONTINUOUS
 62
    2
 10
346.10052219321119
 20
587.17231522215161
 11
796.10052219321085
 21
587.17231522215161
  0
LINE
  8
_0-1_計細線
  6
CONTINUOUS
 62
    3
 10
346.10052219321119
 20
572.97231522215088
 11
796.10052219321085
 21
572.97231522215088
  0
LINE
  8
_0-1_計細線
  6
CONTINUOUS
 62
    3
 10
346.10052219321119
 20
561.57231522215034
 11
796.10052219321085
 21
561.57231522215034
  0
LINE
  8
_0-1_計細線
  6
CONTINUOUS
 62
    3
 10
346.10052219321119
 20
572.97231522215088
 11
346.10052219321119
 21
561.57231522215034
  0
LINE
  8
_0-1_計細線
  6
CONTINUOUS
 62
    3
 10
796.10052219321085
 20
572.97231522215088
 11
796.10052219321085
 21
561.57231522215034
  0
LINE
  8
_0-0_計極細
  6
CONTINUOUS
 62
    2
 10
346.10052219321119
 20
564.77231522215106
 11
796.10052219321085
 21
564.77231522215106
  0
LINE
  8
_0-0_計極細
  6
CONTINUOUS
 62
    2
 10
346.10052219321119
 20
569.77231522215106
 11
796.10052219321085
 21
569.77231522215106
  0
LINE
  8
_0-1_計細線
  6
CONTINUOUS
 62
    3
 10
346.10052219321119
 20
555.57231522215125
 11
796.10052219321085
 21
555.57231522215125
  0
LINE
  8
_0-1_計細線
  6
CONTINUOUS
 62
    3
 10
346.10052219321119
 20
544.1723152221507
 11
796.10052219321085
 21
544.1723152221507
  0
LINE
  8
_0-1_計細線
  6
CONTINUOUS
 62
    3
 10
346.10052219321119
 20
555.57231522215125
 11
346.10052219321119
 21
544.1723152221507
  0
LINE
  8
_0-1_計細線
  6
CONTINUOUS
 62
    3
 10
796.10052219321085
 20
555.57231522215125
 11
796.10052219321085
 21
544.1723152221507
  0
LINE
  8
_0-0_計極細
  6
CONTINUOUS
 62
    2
 10
346.10052219321119
 20
547.37231522215143
 11
796.10052219321085
 21
547.37231522215143
  0
LINE
  8
_0-0_計極細
  6
CONTINUOUS
 62
    2
 10
346.10052219321119
 20
552.37231522215143
 11
796.10052219321085
 21
552.37231522215143
  0
LINE
  8
_0-1_計細線
  6
CONTINUOUS
 62
    3
 10
346.10052219321119
 20
538.17231522215161
 11
796.10052219321085
 21
538.17231522215161
  0
LINE
  8
_0-1_計細線
  6
CONTINUOUS
 62
    3
 10
346.10052219321119
 20
526.77231522215106
 11
796.10052219321085
 21
526.77231522215106
  0
LINE
  8
_0-1_計細線
  6
CONTINUOUS
 62
    3
 10
346.10052219321119
 20
538.17231522215161
 11
346.10052219321119
 21
526.77231522215106
  0
LINE
  8
_0-1_計細線
  6
CONTINUOUS
 62
    3
 10
796.10052219321085
 20
538.17231522215161
 11
796.10052219321085
 21
526.77231522215106
  0
LINE
  8
_0-0_計極細
  6
CONTINUOUS
 62
    2
 10
346.10052219321119
 20
529.97231522215179
 11
796.10052219321085
 21
529.97231522215179
  0
LINE
  8
_0-0_計極細
  6
CONTINUOUS
 62
    2
 10
346.10052219321119
 20
534.97231522215179
 11
796.10052219321085
 21
534.97231522215179
  0
LINE
  8
_0-1_計細線
  6
CONTINUOUS
 62
    3
 10
346.10052219321119
 20
520.77231522215106
 11
796.10052219321085
 21
520.77231522215106
  0
LINE
  8
_0-1_計細線
  6
CONTINUOUS
 62
    3
 10
346.10052219321119
 20
509.37231522215046
 11
796.10052219321085
 21
509.37231522215046
  0
LINE
  8
_0-1_計細線
  6
CONTINUOUS
 62
    3
 10
346.10052219321119
 20
520.77231522215106
 11
346.10052219321119
 21
509.37231522215046
  0
LINE
  8
_0-1_計細線
  6
CONTINUOUS
 62
    3
 10
796.10052219321085
 20
520.77231522215106
 11
796.10052219321085
 21
509.37231522215046
  0
LINE
  8
_0-0_計極細
  6
CONTINUOUS
 62
    2
 10
346.10052219321119
 20
512.57231522215125
 11
796.10052219321085
 21
512.57231522215125
  0
LINE
  8
_0-0_計極細
  6
CONTINUOUS
 62
    2
 10
346.10052219321119
 20
517.57231522215125
 11
796.10052219321085
 21
517.57231522215125
  0
LINE
  8
_0-1_計細線
  6
CONTINUOUS
 62
    3
 10
346.10052219321119
 20
503.37231522215143
 11
796.10052219321085
 21
503.37231522215143
  0
LINE
  8
_0-1_計細線
  6
CONTINUOUS
 62
    3
 10
346.10052219321119
 20
491.97231522215088
 11
796.10052219321085
 21
491.97231522215088
  0
LINE
  8
_0-1_計細線
  6
CONTINUOUS
 62
    3
 10
346.10052219321119
 20
503.37231522215143
 11
346.10052219321119
 21
491.97231522215088
  0
LINE
  8
_0-1_計細線
  6
CONTINUOUS
 62
    3
 10
796.10052219321085
 20
503.37231522215143
 11
796.10052219321085
 21
491.97231522215088
  0
LINE
  8
_0-0_計極細
  6
CONTINUOUS
 62
    2
 10
346.10052219321119
 20
495.17231522215161
 11
796.10052219321085
 21
495.17231522215161
  0
LINE
  8
_0-0_計極細
  6
CONTINUOUS
 62
    2
 10
346.10052219321119
 20
500.17231522215161
 11
796.10052219321085
 21
500.17231522215161
  0
LINE
  8
_0-0_計極細
  6
CENTER1
 62
    2
 10
789.10052219321096
 20
896.72303464662082
 11
789.10052219321096
 21
430.41449148114543
  0
LINE
  8
_0-0_計極細
  6
CONTINUOUS
 62
    2
 10
782.60052219321085
 20
875.57231522214943
 11
782.60052219321085
 21
869.17231522215252
  0
LINE
  8
_0-0_計極細
  6
CONTINUOUS
 62
    2
 10
795.60052219321096
 20
875.57231522214943
 11
795.60052219321096
 21
869.17231522215252
  0
LINE
  8
_0-0_計極細
  6
CONTINUOUS
 62
    2
 10
782.60052219321085
 20
857.77231522214925
 11
782.60052219321085
 21
851.37231522215234
  0
LINE
  8
_0-0_計極細
  6
CONTINUOUS
 62
    2
 10
795.60052219321096
 20
857.77231522214925
 11
795.60052219321096
 21
851.37231522215234
  0
LINE
  8
_0-0_計極細
  6
CONTINUOUS
 62
    2
 10
782.60052219321085
 20
474.57231522214852
 11
782.60052219321085
 21
468.17231522215161
  0
LINE
  8
_0-0_計極細
  6
CONTINUOUS
 62
    2
 10
795.60052219321096
 20
474.57231522214852
 11
795.60052219321096
 21
468.17231522215161
  0
LINE
  8
_0-0_計極細
  6
CONTINUOUS
 62
    2
 10
782.60052219321085
 20
456.77231522214834
 11
782.60052219321085
 21
450.37231522215143
  0
LINE
  8
_0-0_計極細
  6
CONTINUOUS
 62
    2
 10
795.60052219321096
 20
456.77231522214834
 11
795.60052219321096
 21
450.37231522215143
  0
LINE
  8
_0-0_計極細
  6
CONTINUOUS
 62
    2
 10
782.60052219321085
 20
839.97231522214906
 11
782.60052219321085
 21
833.97231522215179
  0
LINE
  8
_0-0_計極細
  6
CONTINUOUS
 62
    2
 10
795.60052219321096
 20
839.97231522214906
 11
795.60052219321096
 21
833.97231522215179
  0
LINE
  8
_0-0_計極細
  6
CONTINUOUS
 62
    2
 10
782.60052219321085
 20
822.57231522214852
 11
782.60052219321085
 21
816.57231522215125
  0
LINE
  8
_0-0_計極細
  6
CONTINUOUS
 62
    2
 10
795.60052219321096
 20
822.57231522214852
 11
795.60052219321096
 21
816.57231522215125
  0
LINE
  8
_0-0_計極細
  6
CONTINUOUS
 62
    2
 10
782.60052219321085
 20
805.17231522214888
 11
782.60052219321085
 21
799.17231522215161
  0
LINE
  8
_0-0_計極細
  6
CONTINUOUS
 62
    2
 10
795.60052219321096
 20
805.17231522214888
 11
795.60052219321096
 21
799.17231522215161
  0
LINE
  8
_0-0_計極細
  6
CONTINUOUS
 62
    2
 10
782.60052219321085
 20
787.77231522214834
 11
782.60052219321085
 21
781.77231522215106
  0
LINE
  8
_0-0_計極細
  6
CONTINUOUS
 62
    2
 10
795.60052219321096
 20
787.77231522214834
 11
795.60052219321096
 21
781.77231522215106
  0
LINE
  8
_0-0_計極細
  6
CONTINUOUS
 62
    2
 10
782.60052219321085
 20
770.37231522214859
 11
782.60052219321085
 21
764.37231522215143
  0
LINE
  8
_0-0_計極細
  6
CONTINUOUS
 62
    2
 10
795.60052219321096
 20
770.37231522214859
 11
795.60052219321096
 21
764.37231522215143
  0
LINE
  8
_0-0_計極細
  6
CONTINUOUS
 62
    2
 10
782.60052219321085
 20
752.97231522214815
 11
782.60052219321085
 21
746.97231522215088
  0
LINE
  8
_0-0_計極細
  6
CONTINUOUS
 62
    2
 10
795.60052219321096
 20
752.97231522214815
 11
795.60052219321096
 21
746.97231522215088
  0
LINE
  8
_0-0_計極細
  6
CONTINUOUS
 62
    2
 10
782.60052219321085
 20
735.57231522214852
 11
782.60052219321085
 21
729.57231522215125
  0
LINE
  8
_0-0_計極細
  6
CONTINUOUS
 62
    2
 10
795.60052219321096
 20
735.57231522214852
 11
795.60052219321096
 21
729.57231522215125
  0
LINE
  8
_0-0_計極細
  6
CONTINUOUS
 62
    2
 10
782.60052219321085
 20
718.17231522214888
 11
782.60052219321085
 21
712.17231522215161
  0
LINE
  8
_0-0_計極細
  6
CONTINUOUS
 62
    2
 10
795.60052219321096
 20
718.17231522214888
 11
795.60052219321096
 21
712.17231522215161
  0
LINE
  8
_0-0_計極細
  6
CONTINUOUS
 62
    2
 10
782.60052219321085
 20
700.77231522214834
 11
782.60052219321085
 21
694.77231522215106
  0
LINE
  8
_0-0_計極細
  6
CONTINUOUS
 62
    2
 10
795.60052219321096
 20
700.77231522214834
 11
795.60052219321096
 21
694.77231522215106
  0
LINE
  8
_0-0_計極細
  6
CONTINUOUS
 62
    2
 10
782.60052219321085
 20
683.3723152221487
 11
782.60052219321085
 21
677.37231522215143
  0
LINE
  8
_0-0_計極細
  6
CONTINUOUS
 62
    2
 10
795.60052219321096
 20
683.3723152221487
 11
795.60052219321096
 21
677.37231522215143
  0
LINE
  8
_0-0_計極細
  6
CONTINUOUS
 62
    2
 10
782.60052219321085
 20
665.97231522214815
 11
782.60052219321085
 21
659.97231522215088
  0
LINE
  8
_0-0_計極細
  6
CONTINUOUS
 62
    2
 10
795.60052219321096
 20
665.97231522214815
 11
795.60052219321096
 21
659.97231522215088
  0
LINE
  8
_0-0_計極細
  6
CONTINUOUS
 62
    2
 10
782.60052219321085
 20
648.57231522214852
 11
782.60052219321085
 21
642.57231522215125
  0
LINE
  8
_0-0_計極細
  6
CONTINUOUS
 62
    2
 10
795.60052219321096
 20
648.57231522214852
 11
795.60052219321096
 21
642.57231522215125
  0
LINE
  8
_0-0_計極細
  6
CONTINUOUS
 62
    2
 10
782.60052219321085
 20
631.17231522214888
 11
782.60052219321085
 21
625.17231522215161
  0
LINE
  8
_0-0_計極細
  6
CONTINUOUS
 62
    2
 10
795.60052219321096
 20
631.17231522214888
 11
795.60052219321096
 21
625.17231522215161
  0
LINE
  8
_0-0_計極細
  6
CONTINUOUS
 62
    2
 10
782.60052219321085
 20
613.77231522214834
 11
782.60052219321085
 21
607.77231522215106
  0
LINE
  8
_0-0_計極細
  6
CONTINUOUS
 62
    2
 10
795.60052219321096
 20
613.77231522214834
 11
795.60052219321096
 21
607.77231522215106
  0
LINE
  8
_0-0_計極細
  6
CONTINUOUS
 62
    2
 10
782.60052219321085
 20
596.3723152221487
 11
782.60052219321085
 21
590.37231522215143
  0
LINE
  8
_0-0_計極細
  6
CONTINUOUS
 62
    2
 10
795.60052219321096
 20
596.3723152221487
 11
795.60052219321096
 21
590.37231522215143
  0
LINE
  8
_0-0_計極細
  6
CONTINUOUS
 62
    2
 10
782.60052219321085
 20
578.97231522214815
 11
782.60052219321085
 21
572.97231522215088
  0
LINE
  8
_0-0_計極細
  6
CONTINUOUS
 62
    2
 10
795.60052219321096
 20
578.97231522214815
 11
795.60052219321096
 21
572.97231522215088
  0
LINE
  8
_0-0_計極細
  6
CONTINUOUS
 62
    2
 10
782.60052219321085
 20
561.57231522214852
 11
782.60052219321085
 21
555.57231522215125
  0
LINE
  8
_0-0_計極細
  6
CONTINUOUS
 62
    2
 10
795.60052219321096
 20
561.57231522214852
 11
795.60052219321096
 21
555.57231522215125
  0
LINE
  8
_0-0_計極細
  6
CONTINUOUS
 62
    2
 10
782.60052219321085
 20
544.17231522214888
 11
782.60052219321085
 21
538.17231522215161
  0
LINE
  8
_0-0_計極細
  6
CONTINUOUS
 62
    2
 10
795.60052219321096
 20
544.17231522214888
 11
795.60052219321096
 21
538.17231522215161
  0
LINE
  8
_0-0_計極細
  6
CONTINUOUS
 62
    2
 10
782.60052219321085
 20
526.77231522214834
 11
782.60052219321085
 21
520.77231522215106
  0
LINE
  8
_0-0_計極細
  6
CONTINUOUS
 62
    2
 10
795.60052219321096
 20
526.77231522214834
 11
795.60052219321096
 21
520.77231522215106
  0
LINE
  8
_0-0_計極細
  6
CONTINUOUS
 62
    2
 10
782.60052219321085
 20
509.3723152221487
 11
782.60052219321085
 21
503.37231522215143
  0
LINE
  8
_0-0_計極細
  6
CONTINUOUS
 62
    2
 10
795.60052219321096
 20
509.3723152221487
 11
795.60052219321096
 21
503.37231522215143
  0
LINE
  8
_0-0_計極細
  6
CONTINUOUS
 62
    2
 10
782.60052219321085
 20
491.97231522214906
 11
782.60052219321085
 21
485.97231522215179
  0
LINE
  8
_0-0_計極細
  6
CONTINUOUS
 62
    2
 10
795.60052219321096
 20
491.97231522214906
 11
795.60052219321096
 21
485.97231522215179
  0
LINE
  8
_0-0_計極細
  6
CENTER1
 62
    2
 10
450.10052219321193
 20
896.72303464662082
 11
450.10052219321193
 21
430.41449148114543
  0
LINE
  8
_0-0_計極細
  6
CONTINUOUS
 62
    2
 10
443.60052219321187
 20
875.57231522214943
 11
443.60052219321187
 21
869.17231522215252
  0
LINE
  8
_0-0_計極細
  6
CONTINUOUS
 62
    2
 10
456.60052219321187
 20
875.57231522214943
 11
456.60052219321187
 21
869.17231522215252
  0
LINE
  8
_0-0_計極細
  6
CONTINUOUS
 62
    2
 10
443.60052219321187
 20
857.77231522214925
 11
443.60052219321187
 21
851.37231522215234
  0
LINE
  8
_0-0_計極細
  6
CONTINUOUS
 62
    2
 10
456.60052219321187
 20
857.77231522214925
 11
456.60052219321187
 21
851.37231522215234
  0
LINE
  8
_0-0_計極細
  6
CONTINUOUS
 62
    2
 10
443.60052219321187
 20
474.57231522214852
 11
443.60052219321187
 21
468.17231522215161
  0
LINE
  8
_0-0_計極細
  6
CONTINUOUS
 62
    2
 10
456.60052219321187
 20
474.57231522214852
 11
456.60052219321187
 21
468.17231522215161
  0
LINE
  8
_0-0_計極細
  6
CONTINUOUS
 62
    2
 10
443.60052219321187
 20
456.77231522214834
 11
443.60052219321187
 21
450.37231522215143
  0
LINE
  8
_0-0_計極細
  6
CONTINUOUS
 62
    2
 10
456.60052219321187
 20
456.77231522214834
 11
456.60052219321187
 21
450.37231522215143
  0
LINE
  8
_0-0_計極細
  6
CONTINUOUS
 62
    2
 10
443.60052219321187
 20
839.97231522214906
 11
443.60052219321187
 21
833.97231522215179
  0
LINE
  8
_0-0_計極細
  6
CONTINUOUS
 62
    2
 10
456.60052219321187
 20
839.97231522214906
 11
456.60052219321187
 21
833.97231522215179
  0
LINE
  8
_0-0_計極細
  6
CONTINUOUS
 62
    2
 10
443.60052219321187
 20
822.57231522214852
 11
443.60052219321187
 21
816.57231522215125
  0
LINE
  8
_0-0_計極細
  6
CONTINUOUS
 62
    2
 10
456.60052219321187
 20
822.57231522214852
 11
456.60052219321187
 21
816.57231522215125
  0
LINE
  8
_0-0_計極細
  6
CONTINUOUS
 62
    2
 10
443.60052219321187
 20
805.17231522214888
 11
443.60052219321187
 21
799.17231522215161
  0
LINE
  8
_0-0_計極細
  6
CONTINUOUS
 62
    2
 10
456.60052219321187
 20
805.17231522214888
 11
456.60052219321187
 21
799.17231522215161
  0
LINE
  8
_0-0_計極細
  6
CONTINUOUS
 62
    2
 10
443.60052219321187
 20
787.77231522214834
 11
443.60052219321187
 21
781.77231522215106
  0
LINE
  8
_0-0_計極細
  6
CONTINUOUS
 62
    2
 10
456.60052219321187
 20
787.77231522214834
 11
456.60052219321187
 21
781.77231522215106
  0
LINE
  8
_0-0_計極細
  6
CONTINUOUS
 62
    2
 10
443.60052219321187
 20
770.37231522214859
 11
443.60052219321187
 21
764.37231522215143
  0
LINE
  8
_0-0_計極細
  6
CONTINUOUS
 62
    2
 10
456.60052219321187
 20
770.37231522214859
 11
456.60052219321187
 21
764.37231522215143
  0
LINE
  8
_0-0_計極細
  6
CONTINUOUS
 62
    2
 10
443.60052219321187
 20
752.97231522214815
 11
443.60052219321187
 21
746.97231522215088
  0
LINE
  8
_0-0_計極細
  6
CONTINUOUS
 62
    2
 10
456.60052219321187
 20
752.97231522214815
 11
456.60052219321187
 21
746.97231522215088
  0
LINE
  8
_0-0_計極細
  6
CONTINUOUS
 62
    2
 10
443.60052219321187
 20
735.57231522214852
 11
443.60052219321187
 21
729.57231522215125
  0
LINE
  8
_0-0_計極細
  6
CONTINUOUS
 62
    2
 10
456.60052219321187
 20
735.57231522214852
 11
456.60052219321187
 21
729.57231522215125
  0
LINE
  8
_0-0_計極細
  6
CONTINUOUS
 62
    2
 10
443.60052219321187
 20
718.17231522214888
 11
443.60052219321187
 21
712.17231522215161
  0
LINE
  8
_0-0_計極細
  6
CONTINUOUS
 62
    2
 10
456.60052219321187
 20
718.17231522214888
 11
456.60052219321187
 21
712.17231522215161
  0
LINE
  8
_0-0_計極細
  6
CONTINUOUS
 62
    2
 10
443.60052219321187
 20
700.77231522214834
 11
443.60052219321187
 21
694.77231522215106
  0
LINE
  8
_0-0_計極細
  6
CONTINUOUS
 62
    2
 10
456.60052219321187
 20
700.77231522214834
 11
456.60052219321187
 21
694.77231522215106
  0
LINE
  8
_0-0_計極細
  6
CONTINUOUS
 62
    2
 10
443.60052219321187
 20
683.3723152221487
 11
443.60052219321187
 21
677.37231522215143
  0
LINE
  8
_0-0_計極細
  6
CONTINUOUS
 62
    2
 10
456.60052219321187
 20
683.3723152221487
 11
456.60052219321187
 21
677.37231522215143
  0
LINE
  8
_0-0_計極細
  6
CONTINUOUS
 62
    2
 10
443.60052219321187
 20
648.57231522214852
 11
443.60052219321187
 21
642.57231522215125
  0
LINE
  8
_0-0_計極細
  6
CONTINUOUS
 62
    2
 10
456.60052219321187
 20
648.57231522214852
 11
456.60052219321187
 21
642.57231522215125
  0
LINE
  8
_0-0_計極細
  6
CONTINUOUS
 62
    2
 10
443.60052219321187
 20
631.17231522214888
 11
443.60052219321187
 21
625.17231522215161
  0
LINE
  8
_0-0_計極細
  6
CONTINUOUS
 62
    2
 10
456.60052219321187
 20
631.17231522214888
 11
456.60052219321187
 21
625.17231522215161
  0
LINE
  8
_0-0_計極細
  6
CONTINUOUS
 62
    2
 10
443.60052219321187
 20
613.77231522214834
 11
443.60052219321187
 21
607.77231522215106
  0
LINE
  8
_0-0_計極細
  6
CONTINUOUS
 62
    2
 10
456.60052219321187
 20
613.77231522214834
 11
456.60052219321187
 21
607.77231522215106
  0
LINE
  8
_0-0_計極細
  6
CONTINUOUS
 62
    2
 10
443.60052219321187
 20
596.3723152221487
 11
443.60052219321187
 21
590.37231522215143
  0
LINE
  8
_0-0_計極細
  6
CONTINUOUS
 62
    2
 10
456.60052219321187
 20
596.3723152221487
 11
456.60052219321187
 21
590.37231522215143
  0
LINE
  8
_0-0_計極細
  6
CONTINUOUS
 62
    2
 10
443.60052219321187
 20
578.97231522214815
 11
443.60052219321187
 21
572.97231522215088
  0
LINE
  8
_0-0_計極細
  6
CONTINUOUS
 62
    2
 10
456.60052219321187
 20
578.97231522214815
 11
456.60052219321187
 21
572.97231522215088
  0
LINE
  8
_0-0_計極細
  6
CONTINUOUS
 62
    2
 10
443.60052219321187
 20
561.57231522214852
 11
443.60052219321187
 21
555.57231522215125
  0
LINE
  8
_0-0_計極細
  6
CONTINUOUS
 62
    2
 10
456.60052219321187
 20
561.57231522214852
 11
456.60052219321187
 21
555.57231522215125
  0
LINE
  8
_0-0_計極細
  6
CONTINUOUS
 62
    2
 10
443.60052219321187
 20
544.17231522214888
 11
443.60052219321187
 21
538.17231522215161
  0
LINE
  8
_0-0_計極細
  6
CONTINUOUS
 62
    2
 10
456.60052219321187
 20
544.17231522214888
 11
456.60052219321187
 21
538.17231522215161
  0
LINE
  8
_0-0_計極細
  6
CONTINUOUS
 62
    2
 10
443.60052219321187
 20
526.77231522214834
 11
443.60052219321187
 21
520.77231522215106
  0
LINE
  8
_0-0_計極細
  6
CONTINUOUS
 62
    2
 10
456.60052219321187
 20
526.77231522214834
 11
456.60052219321187
 21
520.77231522215106
  0
LINE
  8
_0-0_計極細
  6
CONTINUOUS
 62
    2
 10
443.60052219321187
 20
509.3723152221487
 11
443.60052219321187
 21
503.37231522215143
  0
LINE
  8
_0-0_計極細
  6
CONTINUOUS
 62
    2
 10
456.60052219321187
 20
509.3723152221487
 11
456.60052219321187
 21
503.37231522215143
  0
LINE
  8
_0-0_計極細
  6
CONTINUOUS
 62
    2
 10
443.60052219321187
 20
491.97231522214906
 11
443.60052219321187
 21
485.97231522215179
  0
LINE
  8
_0-0_計極細
  6
CONTINUOUS
 62
    2
 10
456.60052219321187
 20
491.97231522214906
 11
456.60052219321187
 21
485.97231522215179
  0
LINE
  8
_0-0_計極細
  6
CENTER1
 62
    2
 10
692.10052219321142
 20
896.72303464662082
 11
692.10052219321142
 21
430.41449148114543
  0
LINE
  8
_0-0_計極細
  6
CONTINUOUS
 62
    2
 10
685.60052219321142
 20
875.57231522214943
 11
685.60052219321142
 21
869.17231522215252
  0
LINE
  8
_0-0_計極細
  6
CONTINUOUS
 62
    2
 10
698.60052219321142
 20
875.57231522214943
 11
698.60052219321142
 21
869.17231522215252
  0
LINE
  8
_0-0_計極細
  6
CONTINUOUS
 62
    2
 10
685.60052219321142
 20
857.77231522214925
 11
685.60052219321142
 21
851.37231522215234
  0
LINE
  8
_0-0_計極細
  6
CONTINUOUS
 62
    2
 10
698.60052219321142
 20
857.77231522214925
 11
698.60052219321142
 21
851.37231522215234
  0
LINE
  8
_0-0_計極細
  6
CONTINUOUS
 62
    2
 10
685.60052219321142
 20
474.57231522214852
 11
685.60052219321142
 21
468.17231522215161
  0
LINE
  8
_0-0_計極細
  6
CONTINUOUS
 62
    2
 10
698.60052219321142
 20
474.57231522214852
 11
698.60052219321142
 21
468.17231522215161
  0
LINE
  8
_0-0_計極細
  6
CONTINUOUS
 62
    2
 10
685.60052219321142
 20
456.77231522214834
 11
685.60052219321142
 21
450.37231522215143
  0
LINE
  8
_0-0_計極細
  6
CONTINUOUS
 62
    2
 10
698.60052219321142
 20
456.77231522214834
 11
698.60052219321142
 21
450.37231522215143
  0
LINE
  8
_0-0_計極細
  6
CONTINUOUS
 62
    2
 10
685.60052219321142
 20
839.97231522214906
 11
685.60052219321142
 21
833.97231522215179
  0
LINE
  8
_0-0_計極細
  6
CONTINUOUS
 62
    2
 10
698.60052219321142
 20
839.97231522214906
 11
698.60052219321142
 21
833.97231522215179
  0
LINE
  8
_0-0_計極細
  6
CONTINUOUS
 62
    2
 10
685.60052219321142
 20
822.57231522214852
 11
685.60052219321142
 21
816.57231522215125
  0
LINE
  8
_0-0_計極細
  6
CONTINUOUS
 62
    2
 10
698.60052219321142
 20
822.57231522214852
 11
698.60052219321142
 21
816.57231522215125
  0
LINE
  8
_0-0_計極細
  6
CONTINUOUS
 62
    2
 10
685.60052219321142
 20
805.17231522214888
 11
685.60052219321142
 21
799.17231522215161
  0
LINE
  8
_0-0_計極細
  6
CONTINUOUS
 62
    2
 10
698.60052219321142
 20
805.17231522214888
 11
698.60052219321142
 21
799.17231522215161
  0
LINE
  8
_0-0_計極細
  6
CONTINUOUS
 62
    2
 10
685.60052219321142
 20
787.77231522214834
 11
685.60052219321142
 21
781.77231522215106
  0
LINE
  8
_0-0_計極細
  6
CONTINUOUS
 62
    2
 10
698.60052219321142
 20
787.77231522214834
 11
698.60052219321142
 21
781.77231522215106
  0
LINE
  8
_0-0_計極細
  6
CONTINUOUS
 62
    2
 10
685.60052219321142
 20
770.37231522214859
 11
685.60052219321142
 21
764.37231522215143
  0
LINE
  8
_0-0_計極細
  6
CONTINUOUS
 62
    2
 10
698.60052219321142
 20
770.37231522214859
 11
698.60052219321142
 21
764.37231522215143
  0
LINE
  8
_0-0_計極細
  6
CONTINUOUS
 62
    2
 10
685.60052219321142
 20
752.97231522214815
 11
685.60052219321142
 21
746.97231522215088
  0
LINE
  8
_0-0_計極細
  6
CONTINUOUS
 62
    2
 10
698.60052219321142
 20
752.97231522214815
 11
698.60052219321142
 21
746.97231522215088
  0
LINE
  8
_0-0_計極細
  6
CONTINUOUS
 62
    2
 10
685.60052219321142
 20
735.57231522214852
 11
685.60052219321142
 21
729.57231522215125
  0
LINE
  8
_0-0_計極細
  6
CONTINUOUS
 62
    2
 10
698.60052219321142
 20
735.57231522214852
 11
698.60052219321142
 21
729.57231522215125
  0
LINE
  8
_0-0_計極細
  6
CONTINUOUS
 62
    2
 10
685.60052219321142
 20
718.17231522214888
 11
685.60052219321142
 21
712.17231522215161
  0
LINE
  8
_0-0_計極細
  6
CONTINUOUS
 62
    2
 10
698.60052219321142
 20
718.17231522214888
 11
698.60052219321142
 21
712.17231522215161
  0
LINE
  8
_0-0_計極細
  6
CONTINUOUS
 62
    2
 10
685.60052219321142
 20
700.77231522214834
 11
685.60052219321142
 21
694.77231522215106
  0
LINE
  8
_0-0_計極細
  6
CONTINUOUS
 62
    2
 10
698.60052219321142
 20
700.77231522214834
 11
698.60052219321142
 21
694.77231522215106
  0
LINE
  8
_0-0_計極細
  6
CONTINUOUS
 62
    2
 10
685.60052219321142
 20
683.3723152221487
 11
685.60052219321142
 21
677.37231522215143
  0
LINE
  8
_0-0_計極細
  6
CONTINUOUS
 62
    2
 10
698.60052219321142
 20
683.3723152221487
 11
698.60052219321142
 21
677.37231522215143
  0
LINE
  8
_0-0_計極細
  6
CONTINUOUS
 62
    2
 10
685.60052219321142
 20
665.97231522214815
 11
685.60052219321142
 21
659.97231522215088
  0
LINE
  8
_0-0_計極細
  6
CONTINUOUS
 62
    2
 10
698.60052219321142
 20
665.97231522214815
 11
698.60052219321142
 21
659.97231522215088
  0
LINE
  8
_0-0_計極細
  6
CONTINUOUS
 62
    2
 10
685.60052219321142
 20
648.57231522214852
 11
685.60052219321142
 21
642.57231522215125
  0
LINE
  8
_0-0_計極細
  6
CONTINUOUS
 62
    2
 10
698.60052219321142
 20
648.57231522214852
 11
698.60052219321142
 21
642.57231522215125
  0
LINE
  8
_0-0_計極細
  6
CONTINUOUS
 62
    2
 10
685.60052219321142
 20
631.17231522214888
 11
685.60052219321142
 21
625.17231522215161
  0
LINE
  8
_0-0_計極細
  6
CONTINUOUS
 62
    2
 10
698.60052219321142
 20
631.17231522214888
 11
698.60052219321142
 21
625.17231522215161
  0
LINE
  8
_0-0_計極細
  6
CONTINUOUS
 62
    2
 10
685.60052219321142
 20
613.77231522214834
 11
685.60052219321142
 21
607.77231522215106
  0
LINE
  8
_0-0_計極細
  6
CONTINUOUS
 62
    2
 10
698.60052219321142
 20
613.77231522214834
 11
698.60052219321142
 21
607.77231522215106
  0
LINE
  8
_0-0_計極細
  6
CONTINUOUS
 62
    2
 10
685.60052219321142
 20
596.3723152221487
 11
685.60052219321142
 21
590.37231522215143
  0
LINE
  8
_0-0_計極細
  6
CONTINUOUS
 62
    2
 10
698.60052219321142
 20
596.3723152221487
 11
698.60052219321142
 21
590.37231522215143
  0
LINE
  8
_0-0_計極細
  6
CONTINUOUS
 62
    2
 10
685.60052219321142
 20
578.97231522214815
 11
685.60052219321142
 21
572.97231522215088
  0
LINE
  8
_0-0_計極細
  6
CONTINUOUS
 62
    2
 10
698.60052219321142
 20
578.97231522214815
 11
698.60052219321142
 21
572.97231522215088
  0
LINE
  8
_0-0_計極細
  6
CONTINUOUS
 62
    2
 10
685.60052219321142
 20
561.57231522214852
 11
685.60052219321142
 21
555.57231522215125
  0
LINE
  8
_0-0_計極細
  6
CONTINUOUS
 62
    2
 10
698.60052219321142
 20
561.57231522214852
 11
698.60052219321142
 21
555.57231522215125
  0
LINE
  8
_0-0_計極細
  6
CONTINUOUS
 62
    2
 10
685.60052219321142
 20
544.17231522214888
 11
685.60052219321142
 21
538.17231522215161
  0
LINE
  8
_0-0_計極細
  6
CONTINUOUS
 62
    2
 10
698.60052219321142
 20
544.17231522214888
 11
698.60052219321142
 21
538.17231522215161
  0
LINE
  8
_0-0_計極細
  6
CONTINUOUS
 62
    2
 10
685.60052219321142
 20
526.77231522214834
 11
685.60052219321142
 21
520.77231522215106
  0
LINE
  8
_0-0_計極細
  6
CONTINUOUS
 62
    2
 10
698.60052219321142
 20
526.77231522214834
 11
698.60052219321142
 21
520.77231522215106
  0
LINE
  8
_0-0_計極細
  6
CONTINUOUS
 62
    2
 10
685.60052219321142
 20
509.3723152221487
 11
685.60052219321142
 21
503.37231522215143
  0
LINE
  8
_0-0_計極細
  6
CONTINUOUS
 62
    2
 10
698.60052219321142
 20
509.3723152221487
 11
698.60052219321142
 21
503.37231522215143
  0
LINE
  8
_0-0_計極細
  6
CONTINUOUS
 62
    2
 10
685.60052219321142
 20
491.97231522214906
 11
685.60052219321142
 21
485.97231522215179
  0
LINE
  8
_0-0_計極細
  6
CONTINUOUS
 62
    2
 10
698.60052219321142
 20
491.97231522214906
 11
698.60052219321142
 21
485.97231522215179
  0
LINE
  8
_0-0_計極細
  6
CENTER1
 62
    2
 10
547.10052219321187
 20
896.72303464662082
 11
547.10052219321187
 21
430.41449148114543
  0
LINE
  8
_0-0_計極細
  6
CONTINUOUS
 62
    2
 10
540.60052219321187
 20
875.57231522214943
 11
540.60052219321187
 21
869.17231522215252
  0
LINE
  8
_0-0_計極細
  6
CONTINUOUS
 62
    2
 10
553.60052219321187
 20
875.57231522214943
 11
553.60052219321187
 21
869.17231522215252
  0
LINE
  8
_0-0_計極細
  6
CONTINUOUS
 62
    2
 10
540.60052219321187
 20
857.77231522214925
 11
540.60052219321187
 21
851.37231522215234
  0
LINE
  8
_0-0_計極細
  6
CONTINUOUS
 62
    2
 10
553.60052219321187
 20
857.77231522214925
 11
553.60052219321187
 21
851.37231522215234
  0
LINE
  8
_0-0_計極細
  6
CONTINUOUS
 62
    2
 10
540.60052219321187
 20
474.57231522214852
 11
540.60052219321187
 21
468.17231522215161
  0
LINE
  8
_0-0_計極細
  6
CONTINUOUS
 62
    2
 10
553.60052219321187
 20
474.57231522214852
 11
553.60052219321187
 21
468.17231522215161
  0
LINE
  8
_0-0_計極細
  6
CONTINUOUS
 62
    2
 10
540.60052219321187
 20
456.77231522214834
 11
540.60052219321187
 21
450.37231522215143
  0
LINE
  8
_0-0_計極細
  6
CONTINUOUS
 62
    2
 10
553.60052219321187
 20
456.77231522214834
 11
553.60052219321187
 21
450.37231522215143
  0
LINE
  8
_0-0_計極細
  6
CONTINUOUS
 62
    2
 10
540.60052219321187
 20
839.97231522214906
 11
540.60052219321187
 21
833.97231522215179
  0
LINE
  8
_0-0_計極細
  6
CONTINUOUS
 62
    2
 10
553.60052219321187
 20
839.97231522214906
 11
553.60052219321187
 21
833.97231522215179
  0
LINE
  8
_0-0_計極細
  6
CONTINUOUS
 62
    2
 10
540.60052219321187
 20
822.57231522214852
 11
540.60052219321187
 21
816.57231522215125
  0
LINE
  8
_0-0_計極細
  6
CONTINUOUS
 62
    2
 10
553.60052219321187
 20
822.57231522214852
 11
553.60052219321187
 21
816.57231522215125
  0
LINE
  8
_0-0_計極細
  6
CONTINUOUS
 62
    2
 10
540.60052219321187
 20
805.17231522214888
 11
540.60052219321187
 21
799.17231522215161
  0
LINE
  8
_0-0_計極細
  6
CONTINUOUS
 62
    2
 10
553.60052219321187
 20
805.17231522214888
 11
553.60052219321187
 21
799.17231522215161
  0
LINE
  8
_0-0_計極細
  6
CONTINUOUS
 62
    2
 10
540.60052219321187
 20
787.77231522214834
 11
540.60052219321187
 21
781.77231522215106
  0
LINE
  8
_0-0_計極細
  6
CONTINUOUS
 62
    2
 10
553.60052219321187
 20
787.77231522214834
 11
553.60052219321187
 21
781.77231522215106
  0
LINE
  8
_0-0_計極細
  6
CONTINUOUS
 62
    2
 10
540.60052219321187
 20
770.37231522214859
 11
540.60052219321187
 21
764.37231522215143
  0
LINE
  8
_0-0_計極細
  6
CONTINUOUS
 62
    2
 10
553.60052219321187
 20
770.37231522214859
 11
553.60052219321187
 21
764.37231522215143
  0
LINE
  8
_0-0_計極細
  6
CONTINUOUS
 62
    2
 10
540.60052219321187
 20
752.97231522214815
 11
540.60052219321187
 21
746.97231522215088
  0
LINE
  8
_0-0_計極細
  6
CONTINUOUS
 62
    2
 10
553.60052219321187
 20
752.97231522214815
 11
553.60052219321187
 21
746.97231522215088
  0
LINE
  8
_0-0_計極細
  6
CONTINUOUS
 62
    2
 10
540.60052219321187
 20
735.57231522214852
 11
540.60052219321187
 21
729.57231522215125
  0
LINE
  8
_0-0_計極細
  6
CONTINUOUS
 62
    2
 10
553.60052219321187
 20
735.57231522214852
 11
553.60052219321187
 21
729.57231522215125
  0
LINE
  8
_0-0_計極細
  6
CONTINUOUS
 62
    2
 10
540.60052219321187
 20
718.17231522214888
 11
540.60052219321187
 21
712.17231522215161
  0
LINE
  8
_0-0_計極細
  6
CONTINUOUS
 62
    2
 10
553.60052219321187
 20
718.17231522214888
 11
553.60052219321187
 21
712.17231522215161
  0
LINE
  8
_0-0_計極細
  6
CONTINUOUS
 62
    2
 10
540.60052219321187
 20
700.77231522214834
 11
540.60052219321187
 21
694.77231522215106
  0
LINE
  8
_0-0_計極細
  6
CONTINUOUS
 62
    2
 10
553.60052219321187
 20
700.77231522214834
 11
553.60052219321187
 21
694.77231522215106
  0
LINE
  8
_0-0_計極細
  6
CONTINUOUS
 62
    2
 10
540.60052219321187
 20
683.3723152221487
 11
540.60052219321187
 21
677.37231522215143
  0
LINE
  8
_0-0_計極細
  6
CONTINUOUS
 62
    2
 10
553.60052219321187
 20
683.3723152221487
 11
553.60052219321187
 21
677.37231522215143
  0
LINE
  8
_0-0_計極細
  6
CONTINUOUS
 62
    2
 10
540.60052219321187
 20
665.97231522214815
 11
540.60052219321187
 21
659.97231522215088
  0
LINE
  8
_0-0_計極細
  6
CONTINUOUS
 62
    2
 10
553.60052219321187
 20
665.97231522214815
 11
553.60052219321187
 21
659.97231522215088
  0
LINE
  8
_0-0_計極細
  6
CONTINUOUS
 62
    2
 10
540.60052219321187
 20
648.57231522214852
 11
540.60052219321187
 21
642.57231522215125
  0
LINE
  8
_0-0_計極細
  6
CONTINUOUS
 62
    2
 10
553.60052219321187
 20
648.57231522214852
 11
553.60052219321187
 21
642.57231522215125
  0
LINE
  8
_0-0_計極細
  6
CONTINUOUS
 62
    2
 10
540.60052219321187
 20
631.17231522214888
 11
540.60052219321187
 21
625.17231522215161
  0
LINE
  8
_0-0_計極細
  6
CONTINUOUS
 62
    2
 10
553.60052219321187
 20
631.17231522214888
 11
553.60052219321187
 21
625.17231522215161
  0
LINE
  8
_0-0_計極細
  6
CONTINUOUS
 62
    2
 10
540.60052219321187
 20
613.77231522214834
 11
540.60052219321187
 21
607.77231522215106
  0
LINE
  8
_0-0_計極細
  6
CONTINUOUS
 62
    2
 10
553.60052219321187
 20
613.77231522214834
 11
553.60052219321187
 21
607.77231522215106
  0
LINE
  8
_0-0_計極細
  6
CONTINUOUS
 62
    2
 10
540.60052219321187
 20
596.3723152221487
 11
540.60052219321187
 21
590.37231522215143
  0
LINE
  8
_0-0_計極細
  6
CONTINUOUS
 62
    2
 10
553.60052219321187
 20
596.3723152221487
 11
553.60052219321187
 21
590.37231522215143
  0
LINE
  8
_0-0_計極細
  6
CONTINUOUS
 62
    2
 10
540.60052219321187
 20
578.97231522214815
 11
540.60052219321187
 21
572.97231522215088
  0
LINE
  8
_0-0_計極細
  6
CONTINUOUS
 62
    2
 10
553.60052219321187
 20
578.97231522214815
 11
553.60052219321187
 21
572.97231522215088
  0
LINE
  8
_0-0_計極細
  6
CONTINUOUS
 62
    2
 10
540.60052219321187
 20
561.57231522214852
 11
540.60052219321187
 21
555.57231522215125
  0
LINE
  8
_0-0_計極細
  6
CONTINUOUS
 62
    2
 10
553.60052219321187
 20
561.57231522214852
 11
553.60052219321187
 21
555.57231522215125
  0
LINE
  8
_0-0_計極細
  6
CONTINUOUS
 62
    2
 10
540.60052219321187
 20
544.17231522214888
 11
540.60052219321187
 21
538.17231522215161
  0
LINE
  8
_0-0_計極細
  6
CONTINUOUS
 62
    2
 10
553.60052219321187
 20
544.17231522214888
 11
553.60052219321187
 21
538.17231522215161
  0
LINE
  8
_0-0_計極細
  6
CONTINUOUS
 62
    2
 10
540.60052219321187
 20
526.77231522214834
 11
540.60052219321187
 21
520.77231522215106
  0
LINE
  8
_0-0_計極細
  6
CONTINUOUS
 62
    2
 10
553.60052219321187
 20
526.77231522214834
 11
553.60052219321187
 21
520.77231522215106
  0
LINE
  8
_0-0_計極細
  6
CONTINUOUS
 62
    2
 10
540.60052219321187
 20
509.3723152221487
 11
540.60052219321187
 21
503.37231522215143
  0
LINE
  8
_0-0_計極細
  6
CONTINUOUS
 62
    2
 10
553.60052219321187
 20
509.3723152221487
 11
553.60052219321187
 21
503.37231522215143
  0
LINE
  8
_0-0_計極細
  6
CONTINUOUS
 62
    2
 10
540.60052219321187
 20
491.97231522214906
 11
540.60052219321187
 21
485.97231522215179
  0
LINE
  8
_0-0_計極細
  6
CONTINUOUS
 62
    2
 10
553.60052219321187
 20
491.97231522214906
 11
553.60052219321187
 21
485.97231522215179
  0
LINE
  8
_0-0_計極細
  6
CENTER1
 62
    2
 10
595.10052219321142
 20
896.72303464662082
 11
595.10052219321142
 21
430.41449148114543
  0
LINE
  8
_0-0_計極細
  6
CONTINUOUS
 62
    2
 10
588.60052219321142
 20
875.57231522214943
 11
588.60052219321142
 21
869.17231522215252
  0
LINE
  8
_0-0_計極細
  6
CONTINUOUS
 62
    2
 10
601.60052219321142
 20
875.57231522214943
 11
601.60052219321142
 21
869.17231522215252
  0
LINE
  8
_0-0_計極細
  6
CONTINUOUS
 62
    2
 10
588.60052219321142
 20
857.77231522214925
 11
588.60052219321142
 21
851.37231522215234
  0
LINE
  8
_0-0_計極細
  6
CONTINUOUS
 62
    2
 10
601.60052219321142
 20
857.77231522214925
 11
601.60052219321142
 21
851.37231522215234
  0
LINE
  8
_0-0_計極細
  6
CONTINUOUS
 62
    2
 10
588.60052219321142
 20
474.57231522214852
 11
588.60052219321142
 21
468.17231522215161
  0
LINE
  8
_0-0_計極細
  6
CONTINUOUS
 62
    2
 10
601.60052219321142
 20
474.57231522214852
 11
601.60052219321142
 21
468.17231522215161
  0
LINE
  8
_0-0_計極細
  6
CONTINUOUS
 62
    2
 10
588.60052219321142
 20
456.77231522214834
 11
588.60052219321142
 21
450.37231522215143
  0
LINE
  8
_0-0_計極細
  6
CONTINUOUS
 62
    2
 10
601.60052219321142
 20
456.77231522214834
 11
601.60052219321142
 21
450.37231522215143
  0
LINE
  8
_0-0_計極細
  6
CONTINUOUS
 62
    2
 10
588.60052219321142
 20
839.97231522214906
 11
588.60052219321142
 21
833.97231522215179
  0
LINE
  8
_0-0_計極細
  6
CONTINUOUS
 62
    2
 10
601.60052219321142
 20
839.97231522214906
 11
601.60052219321142
 21
833.97231522215179
  0
LINE
  8
_0-0_計極細
  6
CONTINUOUS
 62
    2
 10
588.60052219321142
 20
822.57231522214852
 11
588.60052219321142
 21
816.57231522215125
  0
LINE
  8
_0-0_計極細
  6
CONTINUOUS
 62
    2
 10
601.60052219321142
 20
822.57231522214852
 11
601.60052219321142
 21
816.57231522215125
  0
LINE
  8
_0-0_計極細
  6
CONTINUOUS
 62
    2
 10
588.60052219321142
 20
805.17231522214888
 11
588.60052219321142
 21
799.17231522215161
  0
LINE
  8
_0-0_計極細
  6
CONTINUOUS
 62
    2
 10
601.60052219321142
 20
805.17231522214888
 11
601.60052219321142
 21
799.17231522215161
  0
LINE
  8
_0-0_計極細
  6
CONTINUOUS
 62
    2
 10
588.60052219321142
 20
787.77231522214834
 11
588.60052219321142
 21
781.77231522215106
  0
LINE
  8
_0-0_計極細
  6
CONTINUOUS
 62
    2
 10
601.60052219321142
 20
787.77231522214834
 11
601.60052219321142
 21
781.77231522215106
  0
LINE
  8
_0-0_計極細
  6
CONTINUOUS
 62
    2
 10
588.60052219321142
 20
770.37231522214859
 11
588.60052219321142
 21
764.37231522215143
  0
LINE
  8
_0-0_計極細
  6
CONTINUOUS
 62
    2
 10
601.60052219321142
 20
770.37231522214859
 11
601.60052219321142
 21
764.37231522215143
  0
LINE
  8
_0-0_計極細
  6
CONTINUOUS
 62
    2
 10
588.60052219321142
 20
752.97231522214815
 11
588.60052219321142
 21
746.97231522215088
  0
LINE
  8
_0-0_計極細
  6
CONTINUOUS
 62
    2
 10
601.60052219321142
 20
752.97231522214815
 11
601.60052219321142
 21
746.97231522215088
  0
LINE
  8
_0-0_計極細
  6
CONTINUOUS
 62
    2
 10
588.60052219321142
 20
735.57231522214852
 11
588.60052219321142
 21
729.57231522215125
  0
LINE
  8
_0-0_計極細
  6
CONTINUOUS
 62
    2
 10
601.60052219321142
 20
735.57231522214852
 11
601.60052219321142
 21
729.57231522215125
  0
LINE
  8
_0-0_計極細
  6
CONTINUOUS
 62
    2
 10
588.60052219321142
 20
718.17231522214888
 11
588.60052219321142
 21
712.17231522215161
  0
LINE
  8
_0-0_計極細
  6
CONTINUOUS
 62
    2
 10
601.60052219321142
 20
718.17231522214888
 11
601.60052219321142
 21
712.17231522215161
  0
LINE
  8
_0-0_計極細
  6
CONTINUOUS
 62
    2
 10
588.60052219321142
 20
700.77231522214834
 11
588.60052219321142
 21
694.77231522215106
  0
LINE
  8
_0-0_計極細
  6
CONTINUOUS
 62
    2
 10
601.60052219321142
 20
700.77231522214834
 11
601.60052219321142
 21
694.77231522215106
  0
LINE
  8
_0-0_計極細
  6
CONTINUOUS
 62
    2
 10
588.60052219321142
 20
683.3723152221487
 11
588.60052219321142
 21
677.37231522215143
  0
LINE
  8
_0-0_計極細
  6
CONTINUOUS
 62
    2
 10
601.60052219321142
 20
683.3723152221487
 11
601.60052219321142
 21
677.37231522215143
  0
LINE
  8
_0-0_計極細
  6
CONTINUOUS
 62
    2
 10
588.60052219321142
 20
665.97231522214815
 11
588.60052219321142
 21
659.97231522215088
  0
LINE
  8
_0-0_計極細
  6
CONTINUOUS
 62
    2
 10
601.60052219321142
 20
665.97231522214815
 11
601.60052219321142
 21
659.97231522215088
  0
LINE
  8
_0-0_計極細
  6
CONTINUOUS
 62
    2
 10
588.60052219321142
 20
648.57231522214852
 11
588.60052219321142
 21
642.57231522215125
  0
LINE
  8
_0-0_計極細
  6
CONTINUOUS
 62
    2
 10
601.60052219321142
 20
648.57231522214852
 11
601.60052219321142
 21
642.57231522215125
  0
LINE
  8
_0-0_計極細
  6
CONTINUOUS
 62
    2
 10
588.60052219321142
 20
631.17231522214888
 11
588.60052219321142
 21
625.17231522215161
  0
LINE
  8
_0-0_計極細
  6
CONTINUOUS
 62
    2
 10
601.60052219321142
 20
631.17231522214888
 11
601.60052219321142
 21
625.17231522215161
  0
LINE
  8
_0-0_計極細
  6
CONTINUOUS
 62
    2
 10
588.60052219321142
 20
613.77231522214834
 11
588.60052219321142
 21
607.77231522215106
  0
LINE
  8
_0-0_計極細
  6
CONTINUOUS
 62
    2
 10
601.60052219321142
 20
613.77231522214834
 11
601.60052219321142
 21
607.77231522215106
  0
LINE
  8
_0-0_計極細
  6
CONTINUOUS
 62
    2
 10
588.60052219321142
 20
596.3723152221487
 11
588.60052219321142
 21
590.37231522215143
  0
LINE
  8
_0-0_計極細
  6
CONTINUOUS
 62
    2
 10
601.60052219321142
 20
596.3723152221487
 11
601.60052219321142
 21
590.37231522215143
  0
LINE
  8
_0-0_計極細
  6
CONTINUOUS
 62
    2
 10
588.60052219321142
 20
578.97231522214815
 11
588.60052219321142
 21
572.97231522215088
  0
LINE
  8
_0-0_計極細
  6
CONTINUOUS
 62
    2
 10
601.60052219321142
 20
578.97231522214815
 11
601.60052219321142
 21
572.97231522215088
  0
LINE
  8
_0-0_計極細
  6
CONTINUOUS
 62
    2
 10
588.60052219321142
 20
561.57231522214852
 11
588.60052219321142
 21
555.57231522215125
  0
LINE
  8
_0-0_計極細
  6
CONTINUOUS
 62
    2
 10
601.60052219321142
 20
561.57231522214852
 11
601.60052219321142
 21
555.57231522215125
  0
LINE
  8
_0-0_計極細
  6
CONTINUOUS
 62
    2
 10
588.60052219321142
 20
544.17231522214888
 11
588.60052219321142
 21
538.17231522215161
  0
LINE
  8
_0-0_計極細
  6
CONTINUOUS
 62
    2
 10
601.60052219321142
 20
544.17231522214888
 11
601.60052219321142
 21
538.17231522215161
  0
LINE
  8
_0-0_計極細
  6
CONTINUOUS
 62
    2
 10
588.60052219321142
 20
526.77231522214834
 11
588.60052219321142
 21
520.77231522215106
  0
LINE
  8
_0-0_計極細
  6
CONTINUOUS
 62
    2
 10
601.60052219321142
 20
526.77231522214834
 11
601.60052219321142
 21
520.77231522215106
  0
LINE
  8
_0-0_計極細
  6
CONTINUOUS
 62
    2
 10
588.60052219321142
 20
509.3723152221487
 11
588.60052219321142
 21
503.37231522215143
  0
LINE
  8
_0-0_計極細
  6
CONTINUOUS
 62
    2
 10
601.60052219321142
 20
509.3723152221487
 11
601.60052219321142
 21
503.37231522215143
  0
LINE
  8
_0-0_計極細
  6
CONTINUOUS
 62
    2
 10
588.60052219321142
 20
491.97231522214906
 11
588.60052219321142
 21
485.97231522215179
  0
LINE
  8
_0-0_計極細
  6
CONTINUOUS
 62
    2
 10
601.60052219321142
 20
491.97231522214906
 11
601.60052219321142
 21
485.97231522215179
  0
LINE
  8
_0-0_計極細
  6
CONTINUOUS
 62
    2
 10
443.60052219321187
 20
665.97231522214815
 11
443.60052219321187
 21
665.32231522212987
  0
LINE
  8
_0-0_計極細
  6
CONTINUOUS
 62
    2
 10
443.60052219321187
 20
660.62231522213006
 11
443.60052219321187
 21
659.97231522215088
  0
LINE
  8
_0-0_計極細
  6
CONTINUOUS
 62
    2
 10
456.60052219321187
 20
665.97231522214815
 11
456.60052219321187
 21
665.32231522212987
  0
LINE
  8
_0-0_計極細
  6
CONTINUOUS
 62
    2
 10
456.60052219321187
 20
660.62231522213006
 11
456.60052219321187
 21
659.97231522215088
  0
LINE
  8
_0-1_計細線
  6
CONTINUOUS
 62
    3
 10
346.10052219321119
 20
869.17231522215252
 11
796.10052219321085
 21
869.17231522215252
  0
LINE
  8
_0-1_計細線
  6
CONTINUOUS
 62
    3
 10
346.10052219321119
 20
857.77231522215197
 11
796.10052219321085
 21
857.77231522215197
  0
LINE
  8
_0-1_計細線
  6
CONTINUOUS
 62
    3
 10
346.10052219321119
 20
869.17231522215252
 11
346.10052219321119
 21
857.77231522215197
  0
LINE
  8
_0-1_計細線
  6
CONTINUOUS
 62
    3
 10
796.10052219321085
 20
869.17231522215252
 11
796.10052219321085
 21
857.77231522215197
  0
LINE
  8
_0-0_計極細
  6
CONTINUOUS
 62
    2
 10
346.10052219321119
 20
860.9723152221527
 11
796.10052219321085
 21
860.9723152221527
  0
LINE
  8
_0-0_計極細
  6
CONTINUOUS
 62
    2
 10
346.10052219321119
 20
865.9723152221527
 11
796.10052219321085
 21
865.9723152221527
  0
LINE
  8
_0-1_計細線
  6
CONTINUOUS
 62
    3
 10
346.10052219321119
 20
851.37231522215234
 11
796.10052219321085
 21
851.37231522215234
  0
LINE
  8
_0-1_計細線
  6
CONTINUOUS
 62
    3
 10
346.10052219321119
 20
839.97231522215179
 11
796.10052219321085
 21
839.97231522215179
  0
LINE
  8
_0-1_計細線
  6
CONTINUOUS
 62
    3
 10
346.10052219321119
 20
851.37231522215234
 11
346.10052219321119
 21
839.97231522215179
  0
LINE
  8
_0-1_計細線
  6
CONTINUOUS
 62
    3
 10
796.10052219321085
 20
851.37231522215234
 11
796.10052219321085
 21
839.97231522215179
  0
LINE
  8
_0-0_計極細
  6
CONTINUOUS
 62
    2
 10
346.10052219321119
 20
843.17231522215252
 11
796.10052219321085
 21
843.17231522215252
  0
LINE
  8
_0-0_計極細
  6
CONTINUOUS
 62
    2
 10
346.10052219321119
 20
848.17231522215252
 11
796.10052219321085
 21
848.17231522215252
  0
LINE
  8
_0-1_計細線
  6
CONTINUOUS
 62
    3
 10
346.10052219321119
 20
833.97231522215179
 11
796.10052219321085
 21
833.97231522215179
  0
LINE
  8
_0-1_計細線
  6
CONTINUOUS
 62
    3
 10
346.10052219321119
 20
822.57231522215125
 11
796.10052219321085
 21
822.57231522215125
  0
LINE
  8
_0-1_計細線
  6
CONTINUOUS
 62
    3
 10
346.10052219321119
 20
833.97231522215179
 11
346.10052219321119
 21
822.57231522215125
  0
LINE
  8
_0-1_計細線
  6
CONTINUOUS
 62
    3
 10
796.10052219321085
 20
833.97231522215179
 11
796.10052219321085
 21
822.57231522215125
  0
LINE
  8
_0-0_計極細
  6
CONTINUOUS
 62
    2
 10
346.10052219321119
 20
825.77231522215197
 11
796.10052219321085
 21
825.77231522215197
  0
LINE
  8
_0-0_計極細
  6
CONTINUOUS
 62
    2
 10
346.10052219321119
 20
830.77231522215197
 11
796.10052219321085
 21
830.77231522215197
  0
LINE
  8
_0-1_計細線
  6
CONTINUOUS
 62
    3
 10
346.10052219321119
 20
438.97231522215719
 11
796.10052219321085
 21
438.97231522215719
  0
LINE
  8
_0-1_計細線
  6
CONTINUOUS
 62
    3
 10
346.10052219321119
 20
450.37231522215774
 11
796.10052219321085
 21
450.37231522215774
  0
LINE
  8
_0-1_計細線
  6
CONTINUOUS
 62
    3
 10
346.10052219321119
 20
438.97231522215719
 11
346.10052219321119
 21
450.37231522215774
  0
LINE
  8
_0-1_計細線
  6
CONTINUOUS
 62
    3
 10
796.10052219321085
 20
438.97231522215719
 11
796.10052219321085
 21
450.37231522215774
  0
LINE
  8
_0-0_計極細
  6
CONTINUOUS
 62
    2
 10
346.10052219321119
 20
447.17231522215707
 11
796.10052219321085
 21
447.17231522215707
  0
LINE
  8
_0-0_計極細
  6
CONTINUOUS
 62
    2
 10
346.10052219321119
 20
442.17231522215701
 11
796.10052219321085
 21
442.17231522215701
  0
LINE
  8
_0-1_計細線
  6
CONTINUOUS
 62
    3
 10
346.10052219321119
 20
468.17231522215161
 11
796.10052219321085
 21
468.17231522215161
  0
LINE
  8
_0-1_計細線
  6
CONTINUOUS
 62
    3
 10
346.10052219321119
 20
456.77231522215106
 11
796.10052219321085
 21
456.77231522215106
  0
LINE
  8
_0-1_計細線
  6
CONTINUOUS
 62
    3
 10
346.10052219321119
 20
468.17231522215161
 11
346.10052219321119
 21
456.77231522215106
  0
LINE
  8
_0-1_計細線
  6
CONTINUOUS
 62
    3
 10
796.10052219321085
 20
468.17231522215161
 11
796.10052219321085
 21
456.77231522215106
  0
LINE
  8
_0-0_計極細
  6
CONTINUOUS
 62
    2
 10
346.10052219321119
 20
459.97231522215174
 11
796.10052219321085
 21
459.97231522215174
  0
LINE
  8
_0-0_計極細
  6
CONTINUOUS
 62
    2
 10
346.10052219321119
 20
464.97231522215179
 11
796.10052219321085
 21
464.97231522215179
  0
LINE
  8
_0-5_寸法線
  6
CONTINUOUS
 62
    7
 10
341.10052219321119
 20
904.97231522212815
 11
341.10052219321153
 21
1084.9723152221281
  0
LINE
  8
_0-5_寸法線
  6
CONTINUOUS
 62
    7
 10
341.10052219321153
 20
1078.9723152221281
 11
352.69163210868044
 21
1082.0781437633582
  0
LINE
  8
_0-5_寸法線
  6
CONTINUOUS
 62
    7
 10
341.10052219321153
 20
1078.9723152221281
 11
352.69163210868044
 21
1075.8664866808979
  0
LINE
  8
_0-5_寸法線
  6
CONTINUOUS
 62
    7
 10
801.10052219321074
 20
904.97231522212815
 11
801.10052219321108
 21
1084.9723152221281
  0
LINE
  8
_0-5_寸法線
  6
CONTINUOUS
 62
    7
 10
801.10052219321108
 20
1078.9723152221281
 11
789.50941227774229
 21
1075.8664866808979
  0
LINE
  8
_0-5_寸法線
  6
CONTINUOUS
 62
    7
 10
801.10052219321108
 20
1078.9723152221281
 11
789.50941227774229
 21
1082.0781437633582
  0
LINE
  8
_0-5_寸法線
  6
CONTINUOUS
 62
    7
 10
341.10052219321153
 20
1078.9723152221281
 11
801.10052219321108
 21
1078.9723152221281
  0
TEXT
  8
_0-5_寸法線
 62
    7
 10
557.60052219321119
 20
1078.9723152221281
 40
18
 41
1
 50
0
  1
460
  0
LINE
  8
_0-5_寸法線
  6
CONTINUOUS
 62
    7
 10
341.10052219321119
 20
904.97231522212815
 11
341.10052219321153
 21
1042.9723152221281
  0
LINE
  8
_0-5_寸法線
  6
CONTINUOUS
 62
    7
 10
341.10052219321153
 20
1036.9723152221281
 11
329.50941227774268
 21
1033.8664866808979
  0
LINE
  8
_0-5_寸法線
  6
CONTINUOUS
 62
    7
 10
341.10052219321153
 20
1036.9723152221281
 11
329.50941227774274
 21
1040.0781437633582
  0
LINE
  8
_0-5_寸法線
  6
CONTINUOUS
 62
    7
 10
344.10052219321113
 20
904.97231522212815
 11
344.10052219321148
 21
1042.9723152221281
  0
LINE
  8
_0-5_寸法線
  6
CONTINUOUS
 62
    7
 10
311.10052219321153
 20
1036.9723152221281
 11
344.10052219321148
 21
1036.9723152221281
  0
TEXT
  8
_0-5_寸法線
 62
    7
 10
318.80243503130282
 20
1036.9723152221281
 40
18
 41
1
 50
0
  1
3
  0
LINE
  8
_0-5_寸法線
  6
CONTINUOUS
 62
    7
 10
344.10052219321148
 20
1036.9723152221281
 11
355.69163210868032
 21
1040.0781437633582
  0
LINE
  8
_0-5_寸法線
  6
CONTINUOUS
 62
    7
 10
344.10052219321148
 20
1036.9723152221281
 11
355.69163210868027
 21
1033.8664866808979
  0
LINE
  8
_0-5_寸法線
  6
CONTINUOUS
 62
    7
 10
798.10052219321074
 20
904.97231522212815
 11
798.10052219321108
 21
1042.9723152221281
  0
LINE
  8
_0-5_寸法線
  6
CONTINUOUS
 62
    7
 10
798.10052219321108
 20
1036.9723152221281
 11
786.50941227774229
 21
1033.8664866808979
  0
LINE
  8
_0-5_寸法線
  6
CONTINUOUS
 62
    7
 10
798.10052219321108
 20
1036.9723152221281
 11
786.50941227774229
 21
1040.0781437633582
  0
LINE
  8
_0-5_寸法線
  6
CONTINUOUS
 62
    7
 10
344.10052219321148
 20
1036.9723152221281
 11
798.10052219321108
 21
1036.9723152221281
  0
TEXT
  8
_0-5_寸法線
 62
    7
 10
557.60052219321096
 20
1036.9723152221281
 40
18
 41
1
 50
0
  1
454
  0
LINE
  8
_0-5_寸法線
  6
CONTINUOUS
 62
    7
 10
801.10052219321074
 20
904.97231522212815
 11
801.10052219321108
 21
1042.9723152221281
  0
LINE
  8
_0-5_寸法線
  6
CONTINUOUS
 62
    7
 10
801.10052219321108
 20
1036.9723152221281
 11
812.69163210867987
 21
1040.0781437633582
  0
LINE
  8
_0-5_寸法線
  6
CONTINUOUS
 62
    7
 10
801.10052219321108
 20
1036.9723152221281
 11
812.69163210867987
 21
1033.8664866808979
  0
LINE
  8
_0-5_寸法線
  6
CONTINUOUS
 62
    7
 10
798.10052219321108
 20
1036.9723152221281
 11
831.10052219321108
 21
1036.9723152221281
  0
TEXT
  8
_0-5_寸法線
 62
    7
 10
816.97940050851537
 20
1036.9723152221281
 40
18
 41
1
 50
0
  1
3
  0
LINE
  8
_0-5_寸法線
  6
CONTINUOUS
 62
    7
 10
346.10052219321119
 20
904.97231522212815
 11
346.10052219321119
 21
958.97231522212815
  0
LINE
  8
_0-5_寸法線
  6
CONTINUOUS
 62
    7
 10
346.10052219321119
 20
952.97231522212815
 11
357.69163210867998
 21
956.07814376335841
  0
LINE
  8
_0-5_寸法線
  6
CONTINUOUS
 62
    7
 10
346.10052219321119
 20
952.97231522212815
 11
357.69163210867998
 21
949.86648668089799
  0
LINE
  8
_0-5_寸法線
  6
CONTINUOUS
 62
    7
 10
353.10052219321113
 20
904.97231522212815
 11
353.1005221932113
 21
958.97231522212815
  0
LINE
  8
_0-5_寸法線
  6
CONTINUOUS
 62
    7
 10
353.1005221932113
 20
952.97231522212815
 11
341.5094122777424
 21
949.86648668089799
  0
LINE
  8
_0-5_寸法線
  6
CONTINUOUS
 62
    7
 10
353.1005221932113
 20
952.97231522212815
 11
341.50941227774251
 21
956.07814376335841
  0
LINE
  8
_0-5_寸法線
  6
CONTINUOUS
 62
    7
 10
346.10052219321119
 20
952.97231522212815
 11
353.1005221932113
 21
952.97231522212815
  0
TEXT
  8
_0-5_寸法線
 62
    7
 10
348.60052219321176
 20
952.97231522212815
 40
18
 41
1
 50
0
  1
7
  0
LINE
  8
_0-5_寸法線
  6
CONTINUOUS
 62
    7
 10
353.1005221932113
 20
952.97231522212815
 11
364.6916321086801
 21
956.0781437633583
  0
LINE
  8
_0-5_寸法線
  6
CONTINUOUS
 62
    7
 10
353.1005221932113
 20
952.97231522212815
 11
364.6916321086801
 21
949.86648668089799
  0
LINE
  8
_0-5_寸法線
  6
CONTINUOUS
 62
    7
 10
547.10052219321187
 20
904.97231522212815
 11
547.10052219321199
 21
958.97231522212815
  0
LINE
  8
_0-5_寸法線
  6
CONTINUOUS
 62
    7
 10
547.10052219321199
 20
952.97231522212815
 11
535.50941227774319
 21
949.86648668089799
  0
LINE
  8
_0-5_寸法線
  6
CONTINUOUS
 62
    7
 10
547.10052219321199
 20
952.97231522212815
 11
535.50941227774319
 21
956.07814376335841
  0
LINE
  8
_0-5_寸法線
  6
CONTINUOUS
 62
    7
 10
353.1005221932113
 20
952.97231522212815
 11
547.10052219321199
 21
952.97231522212815
  0
TEXT
  8
_0-5_寸法線
 62
    7
 10
414.10052219321176
 20
952.97231522212815
 40
18
 41
1
 50
0
  1
2@97=194
  0
LINE
  8
_0-5_寸法線
  6
CONTINUOUS
 62
    7
 10
547.10052219321199
 20
952.97231522212815
 11
558.69163210868078
 21
956.0781437633583
  0
LINE
  8
_0-5_寸法線
  6
CONTINUOUS
 62
    7
 10
547.10052219321199
 20
952.97231522212815
 11
558.69163210868078
 21
949.86648668089799
  0
LINE
  8
_0-5_寸法線
  6
CONTINUOUS
 62
    7
 10
595.10052219321142
 20
904.97231522212815
 11
595.10052219321153
 21
958.97231522212815
  0
LINE
  8
_0-5_寸法線
  6
CONTINUOUS
 62
    7
 10
595.10052219321153
 20
952.97231522212815
 11
583.50941227774274
 21
949.86648668089799
  0
LINE
  8
_0-5_寸法線
  6
CONTINUOUS
 62
    7
 10
595.10052219321153
 20
952.97231522212815
 11
583.50941227774274
 21
956.07814376335841
  0
LINE
  8
_0-5_寸法線
  6
CONTINUOUS
 62
    7
 10
547.10052219321199
 20
952.97231522212815
 11
595.10052219321153
 21
952.97231522212815
  0
TEXT
  8
_0-5_寸法線
 62
    7
 10
562.10052219321165
 20
952.97231522212815
 40
18
 41
1
 50
0
  1
48
  0
LINE
  8
_0-5_寸法線
  6
CONTINUOUS
 62
    7
 10
595.10052219321153
 20
952.97231522212815
 11
606.69163210868032
 21
956.0781437633583
  0
LINE
  8
_0-5_寸法線
  6
CONTINUOUS
 62
    7
 10
595.10052219321153
 20
952.97231522212815
 11
606.69163210868032
 21
949.86648668089799
  0
LINE
  8
_0-5_寸法線
  6
CONTINUOUS
 62
    7
 10
789.10052219321096
 20
904.97231522212815
 11
789.10052219321108
 21
958.97231522212815
  0
LINE
  8
_0-5_寸法線
  6
CONTINUOUS
 62
    7
 10
789.10052219321108
 20
952.97231522212815
 11
777.50941227774229
 21
949.86648668089799
  0
LINE
  8
_0-5_寸法線
  6
CONTINUOUS
 62
    7
 10
789.10052219321108
 20
952.97231522212815
 11
777.50941227774229
 21
956.07814376335841
  0
LINE
  8
_0-5_寸法線
  6
CONTINUOUS
 62
    7
 10
595.10052219321153
 20
952.97231522212815
 11
789.10052219321108
 21
952.97231522212815
  0
TEXT
  8
_0-5_寸法線
 62
    7
 10
656.1005221932113
 20
952.97231522212815
 40
18
 41
1
 50
0
  1
2@97=194
  0
LINE
  8
_0-5_寸法線
  6
CONTINUOUS
 62
    7
 10
789.10052219321108
 20
952.97231522212815
 11
800.69163210867987
 21
956.0781437633583
  0
LINE
  8
_0-5_寸法線
  6
CONTINUOUS
 62
    7
 10
789.10052219321108
 20
952.97231522212815
 11
800.69163210867987
 21
949.86648668089799
  0
LINE
  8
_0-5_寸法線
  6
CONTINUOUS
 62
    7
 10
796.10052219321119
 20
904.97231522212815
 11
796.10052219321119
 21
958.97231522212815
  0
LINE
  8
_0-5_寸法線
  6
CONTINUOUS
 62
    7
 10
796.10052219321119
 20
952.97231522212815
 11
784.5094122777424
 21
949.86648668089799
  0
LINE
  8
_0-5_寸法線
  6
CONTINUOUS
 62
    7
 10
796.10052219321119
 20
952.97231522212815
 11
784.5094122777424
 21
956.07814376335841
  0
LINE
  8
_0-5_寸法線
  6
CONTINUOUS
 62
    7
 10
789.10052219321108
 20
952.97231522212815
 11
796.10052219321119
 21
952.97231522212815
  0
TEXT
  8
_0-5_寸法線
 62
    7
 10
784.60052219321051
 20
952.97231522212815
 40
18
 41
1
 50
0
  1
7
  0
LINE
  8
_0-d_寸法3
  6
CONTINUOUS
 62
    7
 10
508.09108251880679
 20
274.90911942974446
 11
508.09108251880684
 21
324.90911942974446
  0
LINE
  8
_0-d_寸法3
  6
CONTINUOUS
 62
    7
 10
508.09108251880684
 20
318.90911942974446
 11
496.49997260333799
 21
315.8032908885142
  0
LINE
  8
_0-d_寸法3
  6
CONTINUOUS
 62
    7
 10
508.09108251880684
 20
318.90911942974446
 11
496.49997260333805
 21
322.01494797097473
  0
LINE
  8
_0-d_寸法3
  6
CONTINUOUS
 62
    7
 10
520.09108252394458
 20
274.90911942974458
 11
520.09108252394469
 21
324.90911942974446
  0
LINE
  8
_0-d_寸法3
  6
CONTINUOUS
 62
    7
 10
478.84233569900636
 20
318.90911942974446
 11
520.09108252394469
 21
318.90911942974446
  0
TEXT
  8
_0-d_寸法3
 62
    7
 10
478.84233569900636
 20
300.90911942974446
 40
18
 41
1
 50
0
  1
(6)
  0
LINE
  8
_0-d_寸法3
  6
CONTINUOUS
 62
    7
 10
520.09108252394469
 20
318.90911942974446
 11
531.68219243941348
 21
322.01494797097473
  0
LINE
  8
_0-d_寸法3
  6
CONTINUOUS
 62
    7
 10
520.09108252394469
 20
318.90911942974446
 11
531.68219243941348
 21
315.8032908885142
  0
LINE
  8
_0-d_寸法3
  6
CONTINUOUS
 62
    7
 10
542.89108251952985
 20
274.90911942974458
 11
542.89108251952985
 21
324.90911942974446
  0
LINE
  8
_0-d_寸法3
  6
CONTINUOUS
 62
    7
 10
542.89108251952985
 20
318.90911942974446
 11
531.29997260406117
 21
315.8032908885142
  0
LINE
  8
_0-d_寸法3
  6
CONTINUOUS
 62
    7
 10
542.89108251952985
 20
318.90911942974446
 11
531.29997260406117
 21
322.01494797097473
  0
LINE
  8
_0-d_寸法3
  6
CONTINUOUS
 62
    7
 10
520.09108252394469
 20
318.90911942974446
 11
542.89108251952985
 21
318.90911942974446
  0
TEXT
  8
_0-d_寸法3
 62
    7
 10
508.9734468101172
 20
318.90911942974446
 40
18
 41
1
 50
0
  1
11.4
  0
LINE
  8
_0-1_計細線
  6
CONTINUOUS
 62
    3
 10
411.10052219321142
 20
660.62231522213006
 11
464.10052219321148
 21
660.62231522213006
  0
LINE
  8
_0-1_計細線
  6
CONTINUOUS
 62
    3
 10
464.10052219321148
 20
665.32231522212987
 11
411.10052219321142
 21
665.32231522212987
  0
LINE
  8
_0-1_計細線
  6
CONTINUOUS
 62
    3
 10
411.10052219321142
 20
665.32231522212987
 11
411.10052219321142
 21
660.62231522213006
  0
LINE
  8
_0-1_計細線
  6
CONTINUOUS
 62
    3
 10
454.10052219321142
 20
665.32231522212987
 11
454.10052219321142
 21
660.62231522213006
  0
LINE
  8
_0-1_計細線
  6
CONTINUOUS
 62
    3
 10
462.10052219321142
 20
665.32231522212987
 11
462.10052219321142
 21
660.62231522213006
  0
LINE
  8
_0-1_計細線
  6
CONTINUOUS
 62
    3
 10
464.10052219321148
 20
665.32231522212987
 11
464.10052219321148
 21
660.62231522213006
  0
LINE
  8
_0-1_計細線
  6
CONTINUOUS
 62
    3
 10
460.10052219321142
 20
665.32231522212987
 11
460.10052219321142
 21
660.62231522213006
  0
LINE
  8
_0-1_計細線
  6
CONTINUOUS
 62
    3
 10
458.10052219321148
 20
665.32231522212987
 11
458.10052219321148
 21
660.62231522213006
  0
LINE
  8
_0-1_計細線
  6
CONTINUOUS
 62
    3
 10
456.10052219321142
 20
665.32231522212987
 11
456.10052219321142
 21
660.62231522213006
  0
LINE
  8
_0-0_計極細
  6
CENTER1
 62
    2
 10
1356.482939430445
 20
760.34176752196686
 11
1356.482939430445
 21
798.41176752197055
  0
LINE
  8
_0-0_計極細
  6
CONTINUOUS
 62
    2
 10
1126.482939430445
 20
790.05326521323695
 11
1067.9762911433761
 21
790.05326521323695
  0
CIRCLE
  8
_0-0_計極細
  6
CONTINUOUS
 62
    2
 10
1108.5908608863133
 20
778.28790405582447
 40
1.0953188836088352
  0
LINE
  8
_0-0_計極細
  6
CONTINUOUS
 62
    2
 10
1116.1817476238664
 20
783.05326520956044
 11
1121.4829394304447
 21
788.35445701613889
  0
LINE
  8
_0-0_計極細
  6
CONTINUOUS
 62
    2
 10
1103.453825553682
 20
783.05326520073379
 11
1110.4538255661851
 21
790.05326521323673
  0
LINE
  8
_0-0_計極細
  6
CONTINUOUS
 62
    2
 10
1090.7259034834972
 20
783.05326519190703
 11
1097.7259035048271
 21
790.05326521323695
  0
LINE
  8
_0-0_計極細
  6
CONTINUOUS
 62
    2
 10
1077.9979814133128
 20
783.05326518307993
 11
1084.9979814434691
 21
790.05326521323695
  0
LINE
  8
_0-0_計極細
  6
CONTINUOUS
 62
    2
 10
1067.9762911433761
 20
785.75949697450142
 11
1072.2700593821116
 21
790.05326521323673
  0
LINE
  8
_0-0_計極細
  6
DASHED2
 62
    2
 10
1109.8177865887744
 20
783.053265205147
 11
1116.8177865968644
 21
790.05326521323695
  0
LINE
  8
_0-0_計極細
  6
DASHED2
 62
    2
 10
1097.0898645185894
 20
783.05326519632035
 11
1104.0898645355062
 21
790.05326521323695
  0
LINE
  8
_0-0_計極細
  6
DASHED2
 62
    2
 10
1084.3619424484052
 20
783.05326518749371
 11
1091.3619424741478
 21
790.05326521323695
  0
LINE
  8
_0-0_計極細
  6
DASHED2
 62
    2
 10
1071.6340203782199
 20
783.05326517866706
 11
1078.6340204127903
 21
790.05326521323695
  0
LINE
  8
_0-0_計極細
  6
CONTINUOUS
 62
    2
 10
1126.3640852766291
 20
783.05326521323695
 11
1126.482939430445
 21
783.17211936705235
  0
LINE
  8
_0-0_計極細
  6
CONTINUOUS
 62
    2
 10
1123.8185008643579
 20
783.05326521323695
 11
1126.482939430445
 21
785.71770377932353
  0
LINE
  8
_0-0_計極細
  6
CONTINUOUS
 62
    2
 10
1121.4829394304447
 20
783.26328819159539
 11
1126.482939430445
 21
788.26328819159539
  0
LINE
  8
_0-0_計極細
  6
CONTINUOUS
 62
    2
 10
1121.4829394304447
 20
785.80887260386703
 11
1125.7273320398147
 21
790.05326521323695
  0
LINE
  8
_0-0_計極細
  6
CONTINUOUS
 62
    2
 10
1121.4829394304447
 20
788.35445701613889
 11
1123.181747627543
 21
790.05326521323695
  0
LINE
  8
_0-0_計極細
  6
CONTINUOUS
 62
    2
 10
1126.482939430445
 20
788.68468508988144
 11
1125.1143593070899
 21
790.05326521323695
  0
LINE
  8
_0-0_計極細
  6
CONTINUOUS
 62
    2
 10
1126.482939430445
 20
786.13910067760992
 11
1122.568774894818
 21
790.05326521323695
  0
LINE
  8
_0-0_計極細
  6
CONTINUOUS
 62
    2
 10
1121.4829394304447
 20
788.59351626533862
 11
1126.482939430445
 21
783.59351626533862
  0
LINE
  8
_0-0_計極細
  6
CONTINUOUS
 62
    2
 10
1121.4829394304447
 20
786.04793185306676
 11
1124.4776060702748
 21
783.05326521323695
  0
LINE
  8
_0-0_計極細
  6
CONTINUOUS
 62
    2
 10
1121.4829394304447
 20
783.50234744079523
 11
1121.9320216580034
 21
783.05326521323695
  0
LINE
  8
_0-0_計極細
  6
CONTINUOUS
 62
    2
 10
1126.482939430445
 20
789.55326521323661
 11
1126.482939430445
 21
790.05326521323695
  0
LINE
  8
_0-0_計極細
  6
CONTINUOUS
 62
    2
 10
1126.482939430445
 20
783.05326521323695
 11
1067.9762911433761
 21
783.05326521323695
  0
LINE
  8
_0-0_計極細
  6
CONTINUOUS
 62
    2
 10
1121.4829394304447
 20
790.05326521323695
 11
1121.4829394304447
 21
783.05326521323695
  0
CIRCLE
  8
_0-0_計極細
  6
CONTINUOUS
 62
    2
 10
1099.8930831085356
 20
779.96197812989919
 40
0.3318518518518431
  0
CIRCLE
  8
_0-0_計極細
  6
CONTINUOUS
 62
    2
 10
1118.4530831085356
 20
781.02864479656603
 40
0.3318518518518431
  0
LINE
  8
_0-0_計極細
  6
CENTER1
 62
    2
 10
1106.982939430445
 20
712.08722104256492
 11
1106.982939430445
 21
746.07003412099175
  0
LINE
  8
_0-0_計極細
  6
CONTINUOUS
 62
    2
 10
1102.482939430445
 20
743.50460202222621
 11
1102.482939430445
 21
717.05326521323673
  0
LINE
  8
_0-0_計極細
  6
CONTINUOUS
 62
    2
 10
1111.482939430445
 20
743.50460202222621
 11
1102.482939430445
 21
743.50460202222621
  0
LINE
  8
_0-0_計極細
  6
CONTINUOUS
 62
    2
 10
1111.482939430445
 20
717.05326521323673
 11
1111.482939430445
 21
743.50460202222621
  0
LINE
  8
_0-0_計極細
  6
CENTER1
 62
    2
 10
1095.7865478179924
 20
735.12872468025762
 11
1134.2051601075323
 21
749.11195597127858
  0
LINE
  8
_0-0_計極細
  6
CONTINUOUS
 62
    2
 10
1100.2988984981537
 20
731.98228591073871
 11
1133.3735053923626
 21
744.02045833028637
  0
LINE
  8
_0-0_計極細
  6
CONTINUOUS
 62
    2
 10
1097.2207172082228
 20
740.43951949781194
 11
1130.2953241024311
 21
752.47769191735983
  0
LINE
  8
_0-0_計極細
  6
CONTINUOUS
 62
    2
 10
1130.2953241024311
 20
752.47769191735983
 11
1133.3735053923626
 21
744.02045833028637
  0
LINE
  8
_0-0_計極細
  6
CONTINUOUS
 62
    2
 10
1100.2988984981537
 20
731.98228591073871
 11
1097.2207172082228
 21
740.43951949781194
  0
CIRCLE
  8
_0-0_計極細
  6
CONTINUOUS
 62
    2
 10
1145.1330831085327
 20
740.99457072249243
 40
1.0953188836088352
  0
CIRCLE
  8
_0-0_計極細
  6
CONTINUOUS
 62
    2
 10
1152.5553053307578
 20
706.04166884333131
 40
0.3318518518518431
  0
CIRCLE
  8
_0-0_計極細
  6
CONTINUOUS
 62
    2
 10
1151.7553053307572
 20
719.63531146323317
 40
0.3318518518518431
  0
CIRCLE
  8
_0-0_計極細
  6
CONTINUOUS
 62
    2
 10
1152.3504789418678
 20
752.46123738915912
 40
1.0953188836088352
  0
LINE
  8
_0-0_計極細
  6
CONTINUOUS
 62
    2
 10
1156.482939430445
 20
762.05326521323673
 11
1156.482939430445
 21
701.30830503636957
  0
LINE
  8
_0-0_計極細
  6
CONTINUOUS
 62
    2
 10
1155.9829394304447
 20
762.05326521323673
 11
1156.482939430445
 21
762.05326521323673
  0
CIRCLE
  8
_0-0_計極細
  6
CONTINUOUS
 62
    2
 10
1072.7975635630271
 20
771.07457072249201
 40
1.0953188836088352
  0
CIRCLE
  8
_0-0_計極細
  6
CONTINUOUS
 62
    2
 10
1145.4664164418684
 20
708.86123738915967
 40
1.0953188836088352
  0
CIRCLE
  8
_0-0_計極細
  6
CONTINUOUS
 62
    2
 10
1142.5864164418686
 20
720.06123738915926
 40
1.0953188836088352
  0
CIRCLE
  8
_0-0_計極細
  6
CONTINUOUS
 62
    2
 10
1120.9997497752017
 20
722.22123738915923
 40
1.0953188836088352
  0
CIRCLE
  8
_0-0_計極細
  6
CONTINUOUS
 62
    2
 10
1089.0797497752023
 20
729.90123738915906
 40
1.0953188836088352
  0
CIRCLE
  8
_0-0_計極細
  6
CONTINUOUS
 62
    2
 10
1100.8397497752019
 20
752.70123738915913
 40
1.0953188836088352
  0
CIRCLE
  8
_0-0_計極細
  6
CONTINUOUS
 62
    2
 10
1114.2797497752024
 20
746.62123738915921
 40
1.0953188836088352
  0
CIRCLE
  8
_0-0_計極細
  6
CONTINUOUS
 62
    2
 10
1084.9158112876746
 20
770.53900595397749
 40
1.0953188836088352
  0
CIRCLE
  8
_0-0_計極細
  6
CONTINUOUS
 62
    2
 10
1115.973083108536
 20
766.38123738915863
 40
1.0953188836088352
  0
CIRCLE
  8
_0-0_計極細
  6
CONTINUOUS
 62
    2
 10
1128.1464164418692
 20
753.19086701878859
 40
0.3318518518518431
  0
CIRCLE
  8
_0-0_計極細
  6
CONTINUOUS
 62
    2
 10
1149.293083108535
 20
735.35086701878868
 40
0.3318518518518431
  0
CIRCLE
  8
_0-0_計極細
  6
CONTINUOUS
 62
    2
 10
1148.9730831085351
 20
746.12420035212187
 40
0.3318518518518431
  0
CIRCLE
  8
_0-0_計極細
  6
CONTINUOUS
 62
    2
 10
1139.9064164418683
 20
752.09753368545512
 40
0.3318518518518431
  0
CIRCLE
  8
_0-0_計極細
  6
CONTINUOUS
 62
    2
 10
1131.0530831085352
 20
731.61753368545544
 40
0.3318518518518431
  0
CIRCLE
  8
_0-0_計極細
  6
CONTINUOUS
 62
    2
 10
1141.0530831085355
 20
705.44864479656667
 40
0.3318518518518431
  0
CIRCLE
  8
_0-0_計極細
  6
CONTINUOUS
 62
    2
 10
1145.2130831085353
 20
714.4086447965667
 40
0.3318518518518431
  0
CIRCLE
  8
_0-0_計極細
  6
CONTINUOUS
 62
    2
 10
1136.9997497752017
 20
723.36864479656651
 40
0.3318518518518431
  0
CIRCLE
  8
_0-0_計極細
  6
CONTINUOUS
 62
    2
 10
1129.2130831085356
 20
721.44864479656644
 40
0.3318518518518431
  0
CIRCLE
  8
_0-0_計極細
  6
CONTINUOUS
 62
    2
 10
1117.2664164418691
 20
720.80864479656634
 40
0.3318518518518431
  0
CIRCLE
  8
_0-0_計極細
  6
CONTINUOUS
 62
    2
 10
1119.3997497752021
 20
726.35531146323308
 40
0.3318518518518431
  0
CIRCLE
  8
_0-0_計極細
  6
CONTINUOUS
 62
    2
 10
1115.6664164418685
 20
727.84864479656653
 40
0.3318518518518431
  0
CIRCLE
  8
_0-0_計極細
  6
CONTINUOUS
 62
    2
 10
1122.386416441869
 20
731.15531146323292
 40
0.3318518518518431
  0
CIRCLE
  8
_0-0_計極細
  6
CONTINUOUS
 62
    2
 10
1098.8064164418688
 20
720.42197812989991
 40
0.3318518518518431
  0
CIRCLE
  8
_0-0_計極細
  6
CONTINUOUS
 62
    2
 10
1095.0730831085352
 20
725.54197812989969
 40
0.3318518518518431
  0
CIRCLE
  8
_0-0_計極細
  6
CONTINUOUS
 62
    2
 10
1089.8464164418688
 20
721.48864479656663
 40
0.3318518518518431
  0
CIRCLE
  8
_0-0_計極細
  6
CONTINUOUS
 62
    2
 10
1093.2597497752024
 20
732.26197812989972
 40
0.3318518518518431
  0
CIRCLE
  8
_0-0_計極細
  6
CONTINUOUS
 62
    2
 10
1117.9264164418689
 20
748.52864479656625
 40
0.3318518518518431
  0
CIRCLE
  8
_0-0_計極細
  6
CONTINUOUS
 62
    2
 10
1101.4997497752026
 20
744.15531146323303
 40
0.3318518518518431
  0
CIRCLE
  8
_0-0_計極細
  6
CONTINUOUS
 62
    2
 10
1110.353083108535
 20
752.2619781298996
 40
0.3318518518518431
  0
CIRCLE
  8
_0-0_計極細
  6
CONTINUOUS
 62
    2
 10
1117.9264164418689
 20
755.6753114632329
 40
0.3318518518518431
  0
CIRCLE
  8
_0-0_計極細
  6
CONTINUOUS
 62
    2
 10
1102.886416441869
 20
757.9153114632328
 40
0.3318518518518431
  0
CIRCLE
  8
_0-0_計極細
  6
CONTINUOUS
 62
    2
 10
1090.6197497752023
 20
758.66197812989947
 40
0.3318518518518431
  0
CIRCLE
  8
_0-0_計極細
  6
CONTINUOUS
 62
    2
 10
1106.933083108536
 20
766.00197812989973
 40
0.3318518518518431
  0
CIRCLE
  8
_0-0_計極細
  6
CONTINUOUS
 62
    2
 10
1121.8664164418683
 20
766.32197812989943
 40
0.3318518518518431
  0
CIRCLE
  8
_0-0_計極細
  6
CONTINUOUS
 62
    2
 10
1103.5197497752022
 20
770.0553114632329
 40
0.3318518518518431
  0
CIRCLE
  8
_0-0_計極細
  6
CONTINUOUS
 62
    2
 10
1086.453083108536
 20
763.01531146323282
 40
0.3318518518518431
  0
CIRCLE
  8
_0-0_計極細
  6
CONTINUOUS
 62
    2
 10
1078.8797497752028
 20
761.84197812989964
 40
0.3318518518518431
  0
CIRCLE
  8
_0-0_計極細
  6
CONTINUOUS
 62
    2
 10
1072.5153053307583
 20
761.20197812989966
 40
0.3318518518518431
  0
CIRCLE
  8
_0-0_計極細
  6
CONTINUOUS
 62
    2
 10
1078.7138238492769
 20
767.17531146323279
 40
0.3318518518518431
  0
LINE
  8
_0-0_計極細
  6
CONTINUOUS
 62
    2
 10
1114.0297546914514
 20
701.30830510623139
 11
1129.7747147984571
 21
717.05326521323673
  0
LINE
  8
_0-0_計極細
  6
CONTINUOUS
 62
    2
 10
1071.6033479522664
 20
701.30830523823954
 11
1087.3483079272639
 21
717.05326521323673
  0
LINE
  8
_0-0_計極細
  6
CONTINUOUS
 62
    2
 10
1067.9762911433761
 20
740.10765530054186
 11
1085.9219010560707
 21
758.05326521323707
  0
LINE
  8
_0-0_計極細
  6
CONTINUOUS
 62
    2
 10
1109.7871140175328
 20
701.30830511943213
 11
1125.5320741113371
 21
717.05326521323673
  0
LINE
  8
_0-0_計極細
  6
CONTINUOUS
 62
    2
 10
1067.9762911433761
 20
701.92388911646856
 11
1086.482939430445
 21
720.43053740353753
  0
LINE
  8
_0-0_計極細
  6
CONTINUOUS
 62
    2
 10
1067.9762911433761
 20
744.35029598766141
 11
1081.6792603689516
 21
758.05326521323707
  0
LINE
  8
_0-0_計極細
  6
CONTINUOUS
 62
    2
 10
1105.5444733436138
 20
701.30830513263322
 11
1121.2894334242178
 21
717.05326521323673
  0
LINE
  8
_0-0_計極細
  6
CONTINUOUS
 62
    2
 10
1067.9762911433761
 20
706.16652980358799
 11
1086.482939430445
 21
724.67317809065673
  0
LINE
  8
_0-0_計極細
  6
CONTINUOUS
 62
    2
 10
1067.9762911433761
 20
748.59293667478096
 11
1077.4366196818321
 21
758.05326521323707
  0
LINE
  8
_0-0_計極細
  6
CONTINUOUS
 62
    2
 10
1136.4829394304447
 20
717.05326521323673
 11
1136.4829394304447
 21
701.30830503636957
  0
LINE
  8
_0-0_計極細
  6
CONTINUOUS
 62
    2
 10
1086.482939430445
 20
758.05326521323707
 11
1067.9762911433761
 21
758.05326521323707
  0
LINE
  8
_0-0_計極細
  6
CONTINUOUS
 62
    2
 10
1136.4829394304447
 20
717.05326521323673
 11
1086.482939430445
 21
717.05326521323673
  0
LINE
  8
_0-0_計極細
  6
CONTINUOUS
 62
    2
 10
1086.482939430445
 20
758.05326521323707
 11
1086.482939430445
 21
717.05326521323673
  0
ARC
  8
_0-1_計細線
  6
CONTINUOUS
 62
    3
 10
1129.482939430445
 20
765.05326521323673
 40
3
 50
179.99999999999983
 51
269.99999999999977
  0
LINE
  8
_0-1_計細線
  6
CONTINUOUS
 62
    3
 10
1126.482939430445
 20
765.05326521323673
 11
1126.482939430445
 21
789.55326521323661
  0
LINE
  8
_0-1_計細線
  6
CONTINUOUS
 62
    3
 10
1129.482939430445
 20
762.05326521323673
 11
1155.9829394304447
 21
762.05326521323673
  0
LINE
  8
_0-1_計細線
  6
CONTINUOUS
 62
    3
 10
1156.482939430445
 20
762.55326521323707
 11
1155.9829394304447
 21
762.05326521323673
  0
LINE
  8
_0-1_計細線
  6
CONTINUOUS
 62
    3
 10
1156.482939430445
 20
764.55326521323695
 11
1156.482939430445
 21
762.55326521323707
  0
LINE
  8
_0-1_計細線
  6
CONTINUOUS
 62
    3
 10
1155.9829394304447
 20
765.05326521323673
 11
1156.482939430445
 21
764.55326521323695
  0
LINE
  8
_0-1_計細線
  6
CONTINUOUS
 62
    3
 10
1129.482939430445
 20
765.05326521323673
 11
1155.9829394304447
 21
765.05326521323673
  0
LINE
  8
_0-1_計細線
  6
CONTINUOUS
 62
    3
 10
1126.982939430445
 20
790.05326521323695
 11
1126.482939430445
 21
789.55326521323661
  0
LINE
  8
_0-1_計細線
  6
CONTINUOUS
 62
    3
 10
1128.9829394304447
 20
790.05326521323695
 11
1126.982939430445
 21
790.05326521323695
  0
LINE
  8
_0-1_計細線
  6
CONTINUOUS
 62
    3
 10
1129.482939430445
 20
789.55326521323661
 11
1128.9829394304447
 21
790.05326521323695
  0
LINE
  8
_0-1_計細線
  6
CONTINUOUS
 62
    3
 10
1129.482939430445
 20
765.05326521323673
 11
1129.482939430445
 21
789.55326521323661
  0
LINE
  8
_0-0_計極細
  6
CONTINUOUS
 62
    2
 10
1586.4829394304447
 20
790.05326521323695
 11
1644.9895877175136
 21
790.05326521323695
  0
CIRCLE
  8
_0-0_計極細
  6
CONTINUOUS
 62
    2
 10
1591.2530831085339
 20
773.75920035212152
 40
0.3318518518518431
  0
LINE
  8
_0-0_計極細
  6
CONTINUOUS
 62
    2
 10
1632.5564226706263
 20
783.05326521323695
 11
1639.5564222945529
 21
790.05326483716362
  0
LINE
  8
_0-0_計極細
  6
CONTINUOUS
 62
    2
 10
1619.828500609269
 20
783.05326521323695
 11
1626.8285003327642
 21
790.05326493673238
  0
LINE
  8
_0-0_計極細
  6
CONTINUOUS
 62
    2
 10
1607.1005785479106
 20
783.05326521323695
 11
1614.1005783709757
 21
790.05326503630158
  0
LINE
  8
_0-0_計極細
  6
CONTINUOUS
 62
    2
 10
1594.3726564865533
 20
783.05326521323695
 11
1601.3726564091874
 21
790.05326513587079
  0
LINE
  8
_0-0_計極細
  6
DASHED2
 62
    2
 10
1638.9203837013051
 20
783.05326521323695
 11
1644.9895877175136
 21
789.12246922944473
  0
LINE
  8
_0-0_計極細
  6
DASHED2
 62
    2
 10
1626.1924616399469
 20
783.05326521323695
 11
1633.1924613136584
 21
790.05326488694777
  0
LINE
  8
_0-0_計極細
  6
DASHED2
 62
    2
 10
1613.4645395785897
 20
783.05326521323695
 11
1620.4645393518701
 21
790.05326498651698
  0
LINE
  8
_0-0_計極細
  6
DASHED2
 62
    2
 10
1600.7366175172317
 20
783.05326521323695
 11
1607.7366173900807
 21
790.05326508608618
  0
LINE
  8
_0-0_計極細
  6
DASHED2
 62
    2
 10
1591.4829394304447
 20
786.52750918780771
 11
1595.008695428292
 21
790.05326518565539
  0
LINE
  8
_0-0_計極細
  6
CONTINUOUS
 62
    2
 10
1591.4829394304447
 20
785.25471698167144
 11
1589.2814876620093
 21
783.05326521323695
  0
LINE
  8
_0-0_計極細
  6
CONTINUOUS
 62
    2
 10
1591.4829394304447
 20
787.80030139394296
 11
1586.7359032497384
 21
783.05326521323695
  0
LINE
  8
_0-0_計極細
  6
CONTINUOUS
 62
    2
 10
1586.4829394304447
 20
785.34588580621494
 11
1591.1903188374667
 21
790.05326521323695
  0
LINE
  8
_0-0_計極細
  6
CONTINUOUS
 62
    2
 10
1586.4829394304447
 20
787.89147021848646
 11
1588.6447344251951
 21
790.05326521323673
  0
LINE
  8
_0-0_計極細
  6
CONTINUOUS
 62
    2
 10
1591.4829394304447
 20
789.14767188753376
 11
1590.5773461047418
 21
790.05326521323695
  0
LINE
  8
_0-0_計極細
  6
CONTINUOUS
 62
    2
 10
1591.4829394304447
 20
786.6020874752619
 11
1588.0317616924699
 21
790.05326521323695
  0
LINE
  8
_0-0_計極細
  6
CONTINUOUS
 62
    2
 10
1591.4829394304447
 20
784.05650306299049
 11
1586.4829394304447
 21
789.05650306299037
  0
LINE
  8
_0-0_計極細
  6
CONTINUOUS
 62
    2
 10
1589.9405928679266
 20
783.05326521323695
 11
1586.4829394304447
 21
786.51091865071862
  0
LINE
  8
_0-0_計極細
  6
CONTINUOUS
 62
    2
 10
1587.395008455655
 20
783.05326521323695
 11
1586.4829394304447
 21
783.96533423844699
  0
LINE
  8
_0-0_計極細
  6
CONTINUOUS
 62
    2
 10
1586.4829394304447
 20
789.55326521323661
 11
1586.4829394304447
 21
790.05326521323695
  0
LINE
  8
_0-0_計極細
  6
CONTINUOUS
 62
    2
 10
1586.4829394304447
 20
783.05326521323695
 11
1644.9895877175136
 21
783.05326521323695
  0
LINE
  8
_0-0_計極細
  6
CONTINUOUS
 62
    2
 10
1591.4829394304447
 20
790.05326521323695
 11
1591.4829394304447
 21
783.05326521323695
  0
CIRCLE
  8
_0-0_計極細
  6
CONTINUOUS
 62
    2
 10
1598.4797497752002
 20
781.77253368545507
 40
0.3318518518518431
  0
CIRCLE
  8
_0-0_計極細
  6
CONTINUOUS
 62
    2
 10
1611.1997497751995
 20
778.17253368545494
 40
0.3318518518518431
  0
CIRCLE
  8
_0-0_計極細
  6
CONTINUOUS
 62
    2
 10
1629.6797497752002
 20
781.21253368545513
 40
0.3318518518518431
  0
CIRCLE
  8
_0-0_計極細
  6
CONTINUOUS
 62
    2
 10
1602.8797497752
 20
750.16512627804786
 40
0.3318518518518431
  0
CIRCLE
  8
_0-0_計極細
  6
CONTINUOUS
 62
    2
 10
1614.6397497752002
 20
746.80512627804751
 40
0.3318518518518431
  0
LINE
  8
_0-0_計極細
  6
CONTINUOUS
 62
    2
 10
1601.4829394304447
 20
743.50460202222621
 11
1610.4829394304447
 21
743.50460202222621
  0
LINE
  8
_0-0_計極細
  6
CENTER1
 62
    2
 10
1605.9829394304447
 20
712.08722104256492
 11
1605.9829394304447
 21
746.07003412099175
  0
LINE
  8
_0-0_計極細
  6
CONTINUOUS
 62
    2
 10
1610.4829394304447
 20
743.50460202222621
 11
1610.4829394304447
 21
717.05326521323673
  0
LINE
  8
_0-0_計極細
  6
CONTINUOUS
 62
    2
 10
1601.4829394304447
 20
717.05326521323673
 11
1601.4829394304447
 21
743.50460202222621
  0
LINE
  8
_0-0_計極細
  6
CENTER1
 62
    2
 10
1617.179331042897
 20
735.12872468025762
 11
1578.7607187533572
 21
749.11195597127858
  0
LINE
  8
_0-0_計極細
  6
CONTINUOUS
 62
    2
 10
1612.6669803627362
 20
731.98228591073871
 11
1579.5923734685271
 21
744.02045833028637
  0
LINE
  8
_0-0_計極細
  6
CONTINUOUS
 62
    2
 10
1615.7451616526673
 20
740.43951949781194
 11
1582.6705547584577
 21
752.47769191735983
  0
LINE
  8
_0-0_計極細
  6
CONTINUOUS
 62
    2
 10
1582.6705547584577
 20
752.47769191735983
 11
1579.5923734685271
 21
744.02045833028637
  0
LINE
  8
_0-0_計極細
  6
CONTINUOUS
 62
    2
 10
1612.6669803627362
 20
731.98228591073871
 11
1615.7451616526673
 21
740.43951949781194
  0
CIRCLE
  8
_0-0_計極細
  6
CONTINUOUS
 62
    2
 10
1562.2430831085337
 20
710.46457072249245
 40
1.0953188836088352
  0
CIRCLE
  8
_0-0_計極細
  6
CONTINUOUS
 62
    2
 10
1560.4741942196449
 20
754.03790405582595
 40
1.0953188836088352
  0
CIRCLE
  8
_0-0_計極細
  6
CONTINUOUS
 62
    2
 10
1560.8575275529781
 20
714.46586701878891
 40
0.3318518518518431
  0
CIRCLE
  8
_0-0_計極細
  6
CONTINUOUS
 62
    2
 10
1560.0735769356947
 20
738.01920035212197
 40
0.3318518518518431
  0
LINE
  8
_0-0_計極細
  6
CONTINUOUS
 62
    2
 10
1556.4829394304447
 20
762.05326521323673
 11
1556.4829394304447
 21
701.30830503636957
  0
LINE
  8
_0-0_計極細
  6
CONTINUOUS
 62
    2
 10
1556.982939430444
 20
762.05326521323673
 11
1556.4829394304447
 21
762.05326521323673
  0
CIRCLE
  8
_0-0_計極細
  6
CONTINUOUS
 62
    2
 10
1611.2797497751994
 20
769.38123738915863
 40
1.0953188836088352
  0
CIRCLE
  8
_0-0_計極細
  6
CONTINUOUS
 62
    2
 10
1565.0567868122378
 20
732.94398081160409
 40
0.3318518518518431
  0
CIRCLE
  8
_0-0_計極細
  6
CONTINUOUS
 62
    2
 10
1564.9367868122379
 20
747.3173141449372
 40
0.3318518518518431
  0
CIRCLE
  8
_0-0_計極細
  6
CONTINUOUS
 62
    2
 10
1593.4164164418669
 20
750.57123738915902
 40
1.0953188836088352
  0
CIRCLE
  8
_0-0_計極細
  6
CONTINUOUS
 62
    2
 10
1623.8155320230369
 20
718.53900595397749
 40
1.0953188836088352
  0
CIRCLE
  8
_0-0_計極細
  6
CONTINUOUS
 62
    2
 10
1596.0564164418672
 20
724.65123738915918
 40
1.0953188836088352
  0
CIRCLE
  8
_0-0_計極細
  6
CONTINUOUS
 62
    2
 10
1574.9364164418673
 20
738.09123738915912
 40
1.0953188836088352
  0
CIRCLE
  8
_0-0_計極細
  6
CONTINUOUS
 62
    2
 10
1568.8030831085339
 20
720.17123738915939
 40
1.0953188836088352
  0
CIRCLE
  8
_0-0_計極細
  6
CONTINUOUS
 62
    2
 10
1611.0397497751997
 20
746.90123738915872
 40
1.0953188836088352
  0
CIRCLE
  8
_0-0_計極細
  6
CONTINUOUS
 62
    2
 10
1591.8397497751998
 20
766.101237389159
 40
1.0953188836088352
  0
CIRCLE
  8
_0-0_計極細
  6
CONTINUOUS
 62
    2
 10
1625.0930831085332
 20
762.15457072249228
 40
1.0953188836088352
  0
CIRCLE
  8
_0-0_計極細
  6
CONTINUOUS
 62
    2
 10
1634.4797497751993
 20
771.43457072249203
 40
1.0953188836088352
  0
CIRCLE
  8
_0-0_計極細
  6
CONTINUOUS
 62
    2
 10
1637.3597497751994
 20
763.17253368545494
 40
0.3318518518518431
  0
CIRCLE
  8
_0-0_計極細
  6
CONTINUOUS
 62
    2
 10
1619.5997497752001
 20
750.45253368545525
 40
0.3318518518518431
  0
CIRCLE
  8
_0-0_計極細
  6
CONTINUOUS
 62
    2
 10
1621.2797497751997
 20
766.53253368545506
 40
0.3318518518518431
  0
CIRCLE
  8
_0-0_計極細
  6
CONTINUOUS
 62
    2
 10
1611.1997497751995
 20
754.77253368545519
 40
0.3318518518518431
  0
CIRCLE
  8
_0-0_計極細
  6
CONTINUOUS
 62
    2
 10
1621.9997497751997
 20
742.05253368545527
 40
0.3318518518518431
  0
CIRCLE
  8
_0-0_計極細
  6
CONTINUOUS
 62
    2
 10
1622.9597497751997
 20
729.57253368545548
 40
0.3318518518518431
  0
CIRCLE
  8
_0-0_計極細
  6
CONTINUOUS
 62
    2
 10
1618.6397497751993
 20
721.17253368545539
 40
0.3318518518518431
  0
CIRCLE
  8
_0-0_計極細
  6
CONTINUOUS
 62
    2
 10
1595.1197497751996
 20
753.09253368545535
 40
0.3318518518518431
  0
CIRCLE
  8
_0-0_計極細
  6
CONTINUOUS
 62
    2
 10
1589.7597497751999
 20
761.91920035212183
 40
0.3318518518518431
  0
CIRCLE
  8
_0-0_計極細
  6
CONTINUOUS
 62
    2
 10
1596.9464164418673
 20
729.34586701878879
 40
0.3318518518518431
  0
CIRCLE
  8
_0-0_計極細
  6
CONTINUOUS
 62
    2
 10
1590.2264164418671
 20
725.98586701878889
 40
0.3318518518518431
  0
CIRCLE
  8
_0-0_計極細
  6
CONTINUOUS
 62
    2
 10
1597.4264164418669
 20
720.54586701878884
 40
0.3318518518518431
  0
CIRCLE
  8
_0-0_計極細
  6
CONTINUOUS
 62
    2
 10
1581.266416441867
 20
720.38586701878876
 40
0.3318518518518431
  0
CIRCLE
  8
_0-0_計極細
  6
CONTINUOUS
 62
    2
 10
1572.9464164418664
 20
723.26586701878887
 40
0.3318518518518431
  0
CIRCLE
  8
_0-0_計極細
  6
CONTINUOUS
 62
    2
 10
1566.0664164418672
 20
705.34586701878902
 40
0.3318518518518431
  0
CIRCLE
  8
_0-0_計極細
  6
CONTINUOUS
 62
    2
 10
1571.6664164418669
 20
716.06586701878882
 40
0.3318518518518431
  0
CIRCLE
  8
_0-0_計極細
  6
CONTINUOUS
 62
    2
 10
1582.3664164418667
 20
730.04586701878873
 40
0.3318518518518431
  0
CIRCLE
  8
_0-0_計極細
  6
CONTINUOUS
 62
    2
 10
1571.8464164418669
 20
740.25920035212221
 40
0.3318518518518431
  0
CIRCLE
  8
_0-0_計極細
  6
CONTINUOUS
 62
    2
 10
1574.2997497752001
 20
755.24586701878843
 40
0.3318518518518431
  0
CIRCLE
  8
_0-0_計極細
  6
CONTINUOUS
 62
    2
 10
1568.3264164418665
 20
752.36586701878855
 40
0.3318518518518431
  0
LINE
  8
_0-0_計極細
  6
CONTINUOUS
 62
    2
 10
1631.4569408792001
 20
701.30830503636957
 11
1644.9895877424374
 21
714.84095189960681
  0
LINE
  8
_0-0_計極細
  6
CONTINUOUS
 62
    2
 10
1589.0305340080072
 20
701.30830503636957
 11
1604.7754941848748
 21
717.05326521323673
  0
LINE
  8
_0-0_計極細
  6
CONTINUOUS
 62
    2
 10
1626.482939430445
 20
738.76071045880667
 11
1644.9895877179665
 21
757.26735874632823
  0
LINE
  8
_0-0_計極細
  6
CONTINUOUS
 62
    2
 10
1627.2143001920808
 20
701.30830503636957
 11
1644.9895877399908
 21
719.08359258427902
  0
LINE
  8
_0-0_計極細
  6
CONTINUOUS
 62
    2
 10
1584.7878933208883
 20
701.30830503636957
 11
1600.5328534977559
 21
717.05326521323673
  0
LINE
  8
_0-0_計極細
  6
CONTINUOUS
 62
    2
 10
1626.482939430445
 20
743.00335114592576
 11
1641.5328533900254
 21
758.05326510550663
  0
LINE
  8
_0-0_計極細
  6
CONTINUOUS
 62
    2
 10
1622.9716595049617
 20
701.30830503636957
 11
1644.9895877375434
 21
723.32623326895123
  0
LINE
  8
_0-0_計極細
  6
CONTINUOUS
 62
    2
 10
1580.545252633769
 20
701.30830503636957
 11
1596.2902128106366
 21
717.05326521323673
  0
LINE
  8
_0-0_計極細
  6
CONTINUOUS
 62
    2
 10
1626.482939430445
 20
747.2459918330452
 11
1637.2902127332761
 21
758.05326513587647
  0
LINE
  8
_0-0_計極細
  6
CONTINUOUS
 62
    2
 10
1576.4829394304447
 20
717.05326521323673
 11
1576.4829394304447
 21
701.30830503636957
  0
LINE
  8
_0-0_計極細
  6
CONTINUOUS
 62
    2
 10
1626.482939430445
 20
758.05326521323707
 11
1644.9895877175136
 21
758.05326521323707
  0
LINE
  8
_0-0_計極細
  6
CONTINUOUS
 62
    2
 10
1576.4829394304447
 20
717.05326521323673
 11
1626.482939430445
 21
717.05326521323673
  0
LINE
  8
_0-0_計極細
  6
CONTINUOUS
 62
    2
 10
1626.482939430445
 20
758.05326521323707
 11
1626.482939430445
 21
717.05326521323673
  0
ARC
  8
_0-1_計細線
  6
CONTINUOUS
 62
    3
 10
1583.4829394304447
 20
765.05326521323673
 40
3
 50
269.99999999999977
 51
359.99999999999966
  0
LINE
  8
_0-1_計細線
  6
CONTINUOUS
 62
    3
 10
1586.4829394304447
 20
765.05326521323673
 11
1586.4829394304447
 21
789.55326521323661
  0
LINE
  8
_0-1_計細線
  6
CONTINUOUS
 62
    3
 10
1583.4829394304447
 20
762.05326521323673
 11
1556.982939430444
 21
762.05326521323673
  0
LINE
  8
_0-1_計細線
  6
CONTINUOUS
 62
    3
 10
1556.4829394304447
 20
762.55326521323707
 11
1556.982939430444
 21
762.05326521323673
  0
LINE
  8
_0-1_計細線
  6
CONTINUOUS
 62
    3
 10
1556.4829394304447
 20
764.55326521323695
 11
1556.4829394304447
 21
762.55326521323707
  0
LINE
  8
_0-1_計細線
  6
CONTINUOUS
 62
    3
 10
1556.982939430444
 20
765.05326521323673
 11
1556.4829394304447
 21
764.55326521323695
  0
LINE
  8
_0-1_計細線
  6
CONTINUOUS
 62
    3
 10
1583.4829394304447
 20
765.05326521323673
 11
1556.982939430444
 21
765.05326521323673
  0
LINE
  8
_0-1_計細線
  6
CONTINUOUS
 62
    3
 10
1585.982939430445
 20
790.05326521323695
 11
1586.4829394304447
 21
789.55326521323661
  0
LINE
  8
_0-1_計細線
  6
CONTINUOUS
 62
    3
 10
1583.9829394304447
 20
790.05326521323695
 11
1585.982939430445
 21
790.05326521323695
  0
LINE
  8
_0-1_計細線
  6
CONTINUOUS
 62
    3
 10
1583.4829394304447
 20
789.55326521323661
 11
1583.9829394304447
 21
790.05326521323695
  0
LINE
  8
_0-1_計細線
  6
CONTINUOUS
 62
    3
 10
1583.4829394304447
 20
765.05326521323673
 11
1583.4829394304447
 21
789.55326521323661
  0
LINE
  8
_0-1_計細線
  6
CONTINUOUS
 62
    3
 10
1349.4829394304447
 20
772.35304621222986
 11
1354.1329394309964
 21
772.35304621222986
  0
LINE
  8
_0-1_計細線
  6
CONTINUOUS
 62
    3
 10
1349.4829394304447
 20
785.35304621222963
 11
1354.1329394309971
 21
785.35304621222963
  0
LINE
  8
_0-1_計細線
  6
CONTINUOUS
 62
    3
 10
1358.8329394309974
 20
785.35304621222963
 11
1363.4829394298822
 21
785.35304621222963
  0
LINE
  8
_0-1_計細線
  6
CONTINUOUS
 62
    3
 10
1358.8329394309974
 20
772.35304621222986
 11
1363.4829394305957
 21
772.35304621222986
  0
ARC
  8
_0-1_計細線
  6
CONTINUOUS
 62
    3
 10
1369.8829394298934
 20
788.0530462122299
 40
1
 50
0
 51
89.999999999999915
  0
ARC
  8
_0-1_計細線
  6
CONTINUOUS
 62
    3
 10
1369.4149902385657
 20
790.05304621222945
 40
1
 50
209.99999999999866
 51
269.99999999999977
  0
ARC
  8
_0-1_計細線
  6
CONTINUOUS
 62
    3
 10
1367.6829394309968
 20
789.05304621222979
 40
1
 50
29.99999999997862
 51
89.999999999999915
  0
LINE
  8
_0-1_計細線
  6
CONTINUOUS
 62
    3
 10
1369.8829394298934
 20
789.05304621222979
 11
1369.4149902385657
 21
789.05304621222979
  0
ARC
  8
_0-1_計細線
  6
CONTINUOUS
 62
    3
 10
1360.4829394321005
 20
788.0530462122299
 40
1
 50
89.999999999999915
 51
179.99999999999983
  0
ARC
  8
_0-1_計細線
  6
CONTINUOUS
 62
    3
 10
1360.9508886234275
 20
790.05304621222945
 40
1
 50
269.99999999999977
 51
330.00000000002666
  0
ARC
  8
_0-1_計細線
  6
CONTINUOUS
 62
    3
 10
1362.6829394309973
 20
789.05304621222979
 40
1
 50
89.999999999999915
 51
150.00000000000836
  0
LINE
  8
_0-1_計細線
  6
CONTINUOUS
 62
    3
 10
1360.4829394321005
 20
789.05304621222979
 11
1360.9508886234275
 21
789.05304621222979
  0
ARC
  8
_0-1_計細線
  6
CONTINUOUS
 62
    3
 10
1370.3829394298934
 20
786.65304621222992
 40
0.5
 50
269.99999999999977
 51
359.99999999999966
  0
LINE
  8
_0-1_計細線
  6
CONTINUOUS
 62
    3
 10
1370.8829394298932
 20
788.0530462122299
 11
1370.8829394298932
 21
786.65304621222992
  0
ARC
  8
_0-1_計細線
  6
CONTINUOUS
 62
    3
 10
1359.9829394321007
 20
786.65304621222992
 40
0.5
 50
179.99999999999983
 51
269.99999999999977
  0
LINE
  8
_0-1_計細線
  6
CONTINUOUS
 62
    3
 10
1359.4829394321
 20
788.0530462122299
 11
1359.4829394321
 21
786.65304621222992
  0
ARC
  8
_0-1_計細線
  6
CONTINUOUS
 62
    3
 10
1367.8829394298932
 20
785.15304621222992
 40
1
 50
89.999999999999915
 51
179.99999999999983
  0
LINE
  8
_0-1_計細線
  6
CONTINUOUS
 62
    3
 10
1367.8829394298932
 20
786.15304621222958
 11
1370.3829394298934
 21
786.15304621222958
  0
ARC
  8
_0-1_計細線
  6
CONTINUOUS
 62
    3
 10
1362.4829394298938
 20
785.15304621222992
 40
1
 50
0
 51
89.999999999999915
  0
LINE
  8
_0-1_計細線
  6
CONTINUOUS
 62
    3
 10
1362.4829394321011
 20
786.15304621222958
 11
1359.9829394321007
 21
786.15304621222958
  0
LINE
  8
_0-1_計細線
  6
CONTINUOUS
 62
    3
 10
1362.6829394309973
 20
790.05304621222945
 11
1367.6829394309968
 21
790.05304621222945
  0
LINE
  8
_0-1_計細線
  6
CONTINUOUS
 62
    3
 10
1366.8829394309964
 20
765.05304621222967
 11
1366.8829394298934
 21
785.15304621222992
  0
LINE
  8
_0-1_計細線
  6
CONTINUOUS
 62
    3
 10
1363.4829394309968
 20
765.05304621222967
 11
1363.4829394298931
 21
785.15304621222992
  0
LINE
  8
_0-1_計細線
  6
CONTINUOUS
 62
    3
 10
1363.4829394309968
 20
765.05304621222967
 11
1366.8829394309964
 21
765.05304621222967
  0
ARC
  8
_0-1_計細線
  6
CONTINUOUS
 62
    3
 10
1325.6829394316123
 20
788.0530462122299
 40
1
 50
89.999999999999915
 51
179.99999999999983
  0
ARC
  8
_0-1_計細線
  6
CONTINUOUS
 62
    3
 10
1326.1508886229401
 20
790.05304621222945
 40
1
 50
269.99999999999977
 51
330.00000000001364
  0
ARC
  8
_0-1_計細線
  6
CONTINUOUS
 62
    3
 10
1327.8829394305092
 20
789.05304621222979
 40
1
 50
89.999999999999915
 51
150.00000000000836
  0
LINE
  8
_0-1_計細線
  6
CONTINUOUS
 62
    3
 10
1325.6829394316123
 20
789.05304621222979
 11
1326.1508886229401
 21
789.05304621222979
  0
ARC
  8
_0-1_計細線
  6
CONTINUOUS
 62
    3
 10
1335.0829394294053
 20
788.0530462122299
 40
1
 50
0
 51
89.999999999999915
  0
ARC
  8
_0-1_計細線
  6
CONTINUOUS
 62
    3
 10
1334.6149902380776
 20
790.05304621222945
 40
1
 50
209.99999999998565
 51
269.99999999999977
  0
ARC
  8
_0-1_計細線
  6
CONTINUOUS
 62
    3
 10
1332.8829394305089
 20
789.05304621222979
 40
1
 50
30.000000000004672
 51
89.999999999999915
  0
LINE
  8
_0-1_計細線
  6
CONTINUOUS
 62
    3
 10
1335.0829394294053
 20
789.05304621222979
 11
1334.6149902380776
 21
789.05304621222979
  0
ARC
  8
_0-1_計細線
  6
CONTINUOUS
 62
    3
 10
1325.1829394316126
 20
786.65304621222992
 40
0.5
 50
179.99999999999983
 51
269.99999999999977
  0
LINE
  8
_0-1_計細線
  6
CONTINUOUS
 62
    3
 10
1324.6829394316126
 20
788.0530462122299
 11
1324.6829394316126
 21
786.65304621222992
  0
ARC
  8
_0-1_計細線
  6
CONTINUOUS
 62
    3
 10
1335.5829394294055
 20
786.65304621222992
 40
0.5
 50
269.99999999999977
 51
359.99999999999966
  0
LINE
  8
_0-1_計細線
  6
CONTINUOUS
 62
    3
 10
1336.0829394294058
 20
788.0530462122299
 11
1336.0829394294058
 21
786.65304621222992
  0
ARC
  8
_0-1_計細線
  6
CONTINUOUS
 62
    3
 10
1327.6829394316126
 20
785.15304621222992
 40
1
 50
0
 51
89.999999999999915
  0
LINE
  8
_0-1_計細線
  6
CONTINUOUS
 62
    3
 10
1327.6829394316126
 20
786.15304621222958
 11
1325.1829394316126
 21
786.15304621222958
  0
ARC
  8
_0-1_計細線
  6
CONTINUOUS
 62
    3
 10
1333.0829394316124
 20
785.15304621222992
 40
1
 50
89.999999999999915
 51
179.99999999999983
  0
LINE
  8
_0-1_計細線
  6
CONTINUOUS
 62
    3
 10
1333.0829394294049
 20
786.15304621222958
 11
1335.5829394294055
 21
786.15304621222958
  0
LINE
  8
_0-1_計細線
  6
CONTINUOUS
 62
    3
 10
1332.8829394305089
 20
790.05304621222945
 11
1327.8829394305092
 21
790.05304621222945
  0
LINE
  8
_0-1_計細線
  6
CONTINUOUS
 62
    3
 10
1328.6829394305087
 20
765.05304621222967
 11
1328.6829394316123
 21
785.15304621222992
  0
LINE
  8
_0-1_計細線
  6
CONTINUOUS
 62
    3
 10
1332.082939430509
 20
765.05304621222967
 11
1332.0829394316127
 21
785.15304621222992
  0
LINE
  8
_0-1_計細線
  6
CONTINUOUS
 62
    3
 10
1332.082939430509
 20
765.05304621222967
 11
1328.6829394305087
 21
765.05304621222967
  0
LINE
  8
_0-1_計細線
  6
CONTINUOUS
 62
    3
 10
1332.0829394310608
 20
785.35304621222963
 11
1346.0829394310083
 21
785.35304621222963
  0
ARC
  8
_0-1_計細線
  6
CONTINUOUS
 62
    3
 10
1343.0829394309962
 20
788.0530462122299
 40
1
 50
89.999999999999915
 51
179.99999999999983
  0
ARC
  8
_0-1_計細線
  6
CONTINUOUS
 62
    3
 10
1343.5508886223245
 20
790.05304621222945
 40
1
 50
269.99999999999977
 51
330.00000000001364
  0
ARC
  8
_0-1_計細線
  6
CONTINUOUS
 62
    3
 10
1345.2829394298931
 20
789.05304621222979
 40
1
 50
89.999999999999915
 51
149.99999999999534
  0
LINE
  8
_0-1_計細線
  6
CONTINUOUS
 62
    3
 10
1343.0829394309962
 20
789.05304621222979
 11
1343.5508886223245
 21
789.05304621222979
  0
ARC
  8
_0-1_計細線
  6
CONTINUOUS
 62
    3
 10
1352.4829394287897
 20
788.0530462122299
 40
1
 50
0
 51
89.999999999999915
  0
ARC
  8
_0-1_計細線
  6
CONTINUOUS
 62
    3
 10
1352.0149902374626
 20
790.05304621222945
 40
1
 50
209.9999999999726
 51
269.99999999999977
  0
ARC
  8
_0-1_計細線
  6
CONTINUOUS
 62
    3
 10
1350.2829394298928
 20
789.05304621222979
 40
1
 50
29.999999999991644
 51
89.999999999999915
  0
LINE
  8
_0-1_計細線
  6
CONTINUOUS
 62
    3
 10
1352.4829394287897
 20
789.05304621222979
 11
1352.0149902374626
 21
789.05304621222979
  0
ARC
  8
_0-1_計細線
  6
CONTINUOUS
 62
    3
 10
1342.5829394309967
 20
786.65304621222992
 40
0.5
 50
179.99999999999983
 51
269.99999999999977
  0
LINE
  8
_0-1_計細線
  6
CONTINUOUS
 62
    3
 10
1342.0829394309969
 20
788.0530462122299
 11
1342.0829394309969
 21
786.65304621222992
  0
ARC
  8
_0-1_計細線
  6
CONTINUOUS
 62
    3
 10
1352.9829394287895
 20
786.65304621222992
 40
0.5
 50
269.99999999999977
 51
359.99999999999966
  0
LINE
  8
_0-1_計細線
  6
CONTINUOUS
 62
    3
 10
1353.4829394287897
 20
788.0530462122299
 11
1353.4829394287897
 21
786.65304621222992
  0
ARC
  8
_0-1_計細線
  6
CONTINUOUS
 62
    3
 10
1345.0829394309965
 20
785.15304621222992
 40
1
 50
0
 51
89.999999999999915
  0
LINE
  8
_0-1_計細線
  6
CONTINUOUS
 62
    3
 10
1345.0829394309965
 20
786.15304621222958
 11
1342.5829394309967
 21
786.15304621222958
  0
ARC
  8
_0-1_計細線
  6
CONTINUOUS
 62
    3
 10
1350.482939430997
 20
785.15304621222992
 40
1
 50
89.999999999999915
 51
179.99999999999983
  0
LINE
  8
_0-1_計細線
  6
CONTINUOUS
 62
    3
 10
1350.4829394287897
 20
786.15304621222958
 11
1352.9829394287895
 21
786.15304621222958
  0
LINE
  8
_0-1_計細線
  6
CONTINUOUS
 62
    3
 10
1350.2829394298928
 20
790.05304621222945
 11
1345.2829394298931
 21
790.05304621222945
  0
LINE
  8
_0-1_計細線
  6
CONTINUOUS
 62
    3
 10
1346.0829394298937
 20
765.05304621222967
 11
1346.0829394309974
 21
785.15304621222992
  0
LINE
  8
_0-1_計細線
  6
CONTINUOUS
 62
    3
 10
1349.4829394298933
 20
765.05304621222967
 11
1349.482939430997
 21
785.15304621222992
  0
LINE
  8
_0-1_計細線
  6
CONTINUOUS
 62
    3
 10
1349.4829394298933
 20
765.05304621222967
 11
1346.0829394298937
 21
765.05304621222967
  0
LINE
  8
_0-1_計細線
  6
CONTINUOUS
 62
    3
 10
1332.0829394310608
 20
772.35304621222986
 11
1346.0829394302943
 21
772.35304621222986
  0
ARC
  8
_0-1_計細線
  6
CONTINUOUS
 62
    3
 10
1308.2829394322277
 20
788.0530462122299
 40
1
 50
89.999999999999915
 51
179.99999999999983
  0
ARC
  8
_0-1_計細線
  6
CONTINUOUS
 62
    3
 10
1308.7508886235553
 20
790.05304621222945
 40
1
 50
269.99999999999977
 51
330.00000000001364
  0
ARC
  8
_0-1_計細線
  6
CONTINUOUS
 62
    3
 10
1310.4829394311241
 20
789.05304621222979
 40
1
 50
89.999999999999915
 51
150.00000000000836
  0
LINE
  8
_0-1_計細線
  6
CONTINUOUS
 62
    3
 10
1308.2829394322277
 20
789.05304621222979
 11
1308.7508886235553
 21
789.05304621222979
  0
ARC
  8
_0-1_計細線
  6
CONTINUOUS
 62
    3
 10
1317.6829394300205
 20
788.0530462122299
 40
1
 50
0
 51
89.999999999999915
  0
ARC
  8
_0-1_計細線
  6
CONTINUOUS
 62
    3
 10
1317.214990238693
 20
790.05304621222945
 40
1
 50
209.99999999998565
 51
269.99999999999977
  0
ARC
  8
_0-1_計細線
  6
CONTINUOUS
 62
    3
 10
1315.4829394311244
 20
789.05304621222979
 40
1
 50
30.000000000004672
 51
89.999999999999915
  0
LINE
  8
_0-1_計細線
  6
CONTINUOUS
 62
    3
 10
1317.6829394300205
 20
789.05304621222979
 11
1317.214990238693
 21
789.05304621222979
  0
ARC
  8
_0-1_計細線
  6
CONTINUOUS
 62
    3
 10
1307.7829394322275
 20
786.65304621222992
 40
0.5
 50
179.99999999999983
 51
269.99999999999977
  0
LINE
  8
_0-1_計細線
  6
CONTINUOUS
 62
    3
 10
1307.2829394322277
 20
788.0530462122299
 11
1307.2829394322277
 21
786.65304621222992
  0
ARC
  8
_0-1_計細線
  6
CONTINUOUS
 62
    3
 10
1318.182939430021
 20
786.65304621222992
 40
0.5
 50
269.99999999999977
 51
359.99999999999966
  0
LINE
  8
_0-1_計細線
  6
CONTINUOUS
 62
    3
 10
1318.682939430021
 20
788.0530462122299
 11
1318.682939430021
 21
786.65304621222992
  0
ARC
  8
_0-1_計細線
  6
CONTINUOUS
 62
    3
 10
1310.2829394322277
 20
785.15304621222992
 40
1
 50
0
 51
89.999999999999915
  0
LINE
  8
_0-1_計細線
  6
CONTINUOUS
 62
    3
 10
1310.2829394322277
 20
786.15304621222958
 11
1307.7829394322275
 21
786.15304621222958
  0
ARC
  8
_0-1_計細線
  6
CONTINUOUS
 62
    3
 10
1315.6829394322278
 20
785.15304621222992
 40
1
 50
89.999999999999915
 51
179.99999999999983
  0
LINE
  8
_0-1_計細線
  6
CONTINUOUS
 62
    3
 10
1315.6829394300198
 20
786.15304621222958
 11
1318.182939430021
 21
786.15304621222958
  0
LINE
  8
_0-1_計細線
  6
CONTINUOUS
 62
    3
 10
1315.4829394311244
 20
790.05304621222945
 11
1310.4829394311241
 21
790.05304621222945
  0
LINE
  8
_0-1_計細線
  6
CONTINUOUS
 62
    3
 10
1311.2829394311241
 20
765.05304621222967
 11
1311.2829394322277
 21
785.15304621222992
  0
LINE
  8
_0-1_計細線
  6
CONTINUOUS
 62
    3
 10
1314.6829394311242
 20
765.05304621222967
 11
1314.6829394322278
 21
785.15304621222992
  0
LINE
  8
_0-1_計細線
  6
CONTINUOUS
 62
    3
 10
1314.6829394311242
 20
765.05304621222967
 11
1311.2829394311241
 21
765.05304621222967
  0
LINE
  8
_0-1_計細線
  6
CONTINUOUS
 62
    3
 10
1314.6829394316762
 20
785.35304621222963
 11
1328.6829394316233
 21
785.35304621222963
  0
LINE
  8
_0-1_計細線
  6
CONTINUOUS
 62
    3
 10
1314.6829394316762
 20
772.35304621222986
 11
1328.6829394309095
 21
772.35304621222986
  0
ARC
  8
_0-1_計細線
  6
CONTINUOUS
 62
    3
 10
1290.8829394328429
 20
788.0530462122299
 40
1
 50
89.999999999999915
 51
179.99999999999983
  0
ARC
  8
_0-1_計細線
  6
CONTINUOUS
 62
    3
 10
1291.3508886241702
 20
790.05304621222945
 40
1
 50
269.99999999999977
 51
330.00000000001364
  0
ARC
  8
_0-1_計細線
  6
CONTINUOUS
 62
    3
 10
1293.0829394317395
 20
789.05304621222979
 40
1
 50
89.999999999999915
 51
150.00000000000836
  0
LINE
  8
_0-1_計細線
  6
CONTINUOUS
 62
    3
 10
1290.8829394328429
 20
789.05304621222979
 11
1291.3508886241702
 21
789.05304621222979
  0
ARC
  8
_0-1_計細線
  6
CONTINUOUS
 62
    3
 10
1300.2829394306355
 20
788.0530462122299
 40
1
 50
0
 51
89.999999999999915
  0
ARC
  8
_0-1_計細線
  6
CONTINUOUS
 62
    3
 10
1299.8149902393081
 20
790.05304621222945
 40
1
 50
209.99999999998565
 51
269.99999999999977
  0
ARC
  8
_0-1_計細線
  6
CONTINUOUS
 62
    3
 10
1298.0829394317395
 20
789.05304621222979
 40
1
 50
30.000000000004672
 51
89.999999999999915
  0
LINE
  8
_0-1_計細線
  6
CONTINUOUS
 62
    3
 10
1300.2829394306355
 20
789.05304621222979
 11
1299.8149902393081
 21
789.05304621222979
  0
ARC
  8
_0-1_計細線
  6
CONTINUOUS
 62
    3
 10
1290.3829394328429
 20
786.65304621222992
 40
0.5
 50
179.99999999999983
 51
269.99999999999977
  0
LINE
  8
_0-1_計細線
  6
CONTINUOUS
 62
    3
 10
1289.8829394328427
 20
788.0530462122299
 11
1289.8829394328427
 21
786.65304621222992
  0
ARC
  8
_0-1_計細線
  6
CONTINUOUS
 62
    3
 10
1300.7829394306361
 20
786.65304621222992
 40
0.5
 50
269.99999999999977
 51
359.99999999999966
  0
LINE
  8
_0-1_計細線
  6
CONTINUOUS
 62
    3
 10
1301.2829394306359
 20
788.0530462122299
 11
1301.2829394306359
 21
786.65304621222992
  0
ARC
  8
_0-1_計細線
  6
CONTINUOUS
 62
    3
 10
1292.8829394328427
 20
785.15304621222992
 40
1
 50
0
 51
89.999999999999915
  0
LINE
  8
_0-1_計細線
  6
CONTINUOUS
 62
    3
 10
1292.8829394328427
 20
786.15304621222958
 11
1290.3829394328429
 21
786.15304621222958
  0
ARC
  8
_0-1_計細線
  6
CONTINUOUS
 62
    3
 10
1298.282939432843
 20
785.15304621222992
 40
1
 50
89.999999999999915
 51
179.99999999999983
  0
LINE
  8
_0-1_計細線
  6
CONTINUOUS
 62
    3
 10
1298.2829394306352
 20
786.15304621222958
 11
1300.7829394306361
 21
786.15304621222958
  0
LINE
  8
_0-1_計細線
  6
CONTINUOUS
 62
    3
 10
1298.0829394317395
 20
790.05304621222945
 11
1293.0829394317395
 21
790.05304621222945
  0
LINE
  8
_0-1_計細線
  6
CONTINUOUS
 62
    3
 10
1293.8829394317393
 20
765.05304621222967
 11
1293.8829394328429
 21
785.15304621222992
  0
LINE
  8
_0-1_計細線
  6
CONTINUOUS
 62
    3
 10
1297.2829394317391
 20
765.05304621222967
 11
1297.2829394328428
 21
785.15304621222992
  0
LINE
  8
_0-1_計細線
  6
CONTINUOUS
 62
    3
 10
1297.2829394317391
 20
765.05304621222967
 11
1293.8829394317393
 21
765.05304621222967
  0
LINE
  8
_0-1_計細線
  6
CONTINUOUS
 62
    3
 10
1297.2829394322914
 20
785.35304621222963
 11
1311.2829394322387
 21
785.35304621222963
  0
LINE
  8
_0-1_計細線
  6
CONTINUOUS
 62
    3
 10
1297.2829394322914
 20
772.35304621222986
 11
1311.2829394315245
 21
772.35304621222986
  0
ARC
  8
_0-1_計細線
  6
CONTINUOUS
 62
    3
 10
1273.4829394334579
 20
788.0530462122299
 40
1
 50
89.999999999999915
 51
179.99999999999983
  0
ARC
  8
_0-1_計細線
  6
CONTINUOUS
 62
    3
 10
1273.9508886247856
 20
790.05304621222945
 40
1
 50
269.99999999999977
 51
330.00000000001364
  0
ARC
  8
_0-1_計細線
  6
CONTINUOUS
 62
    3
 10
1275.6829394323547
 20
789.05304621222979
 40
1
 50
89.999999999999915
 51
150.00000000000836
  0
LINE
  8
_0-1_計細線
  6
CONTINUOUS
 62
    3
 10
1273.4829394334579
 20
789.05304621222979
 11
1273.9508886247856
 21
789.05304621222979
  0
ARC
  8
_0-1_計細線
  6
CONTINUOUS
 62
    3
 10
1282.8829394312509
 20
788.0530462122299
 40
1
 50
0
 51
89.999999999999915
  0
ARC
  8
_0-1_計細線
  6
CONTINUOUS
 62
    3
 10
1282.4149902399231
 20
790.05304621222945
 40
1
 50
209.99999999998565
 51
269.99999999999977
  0
ARC
  8
_0-1_計細線
  6
CONTINUOUS
 62
    3
 10
1280.6829394323545
 20
789.05304621222979
 40
1
 50
30.000000000004672
 51
89.999999999999915
  0
LINE
  8
_0-1_計細線
  6
CONTINUOUS
 62
    3
 10
1282.8829394312509
 20
789.05304621222979
 11
1282.4149902399231
 21
789.05304621222979
  0
ARC
  8
_0-1_計細線
  6
CONTINUOUS
 62
    3
 10
1272.9829394334581
 20
786.65304621222992
 40
0.5
 50
179.99999999999983
 51
269.99999999999977
  0
LINE
  8
_0-1_計細線
  6
CONTINUOUS
 62
    3
 10
1272.4829394334581
 20
788.0530462122299
 11
1272.4829394334581
 21
786.65304621222992
  0
ARC
  8
_0-1_計細線
  6
CONTINUOUS
 62
    3
 10
1283.3829394312511
 20
786.65304621222992
 40
0.5
 50
269.99999999999977
 51
359.99999999999966
  0
LINE
  8
_0-1_計細線
  6
CONTINUOUS
 62
    3
 10
1283.8829394312513
 20
788.0530462122299
 11
1283.8829394312513
 21
786.65304621222992
  0
ARC
  8
_0-1_計細線
  6
CONTINUOUS
 62
    3
 10
1275.4829394334581
 20
785.15304621222992
 40
1
 50
0
 51
89.999999999999915
  0
LINE
  8
_0-1_計細線
  6
CONTINUOUS
 62
    3
 10
1275.4829394334581
 20
786.15304621222958
 11
1272.9829394334581
 21
786.15304621222958
  0
ARC
  8
_0-1_計細線
  6
CONTINUOUS
 62
    3
 10
1280.882939433458
 20
785.15304621222992
 40
1
 50
89.999999999999915
 51
179.99999999999983
  0
LINE
  8
_0-1_計細線
  6
CONTINUOUS
 62
    3
 10
1280.8829394312504
 20
786.15304621222958
 11
1283.3829394312511
 21
786.15304621222958
  0
LINE
  8
_0-1_計細線
  6
CONTINUOUS
 62
    3
 10
1280.6829394323545
 20
790.05304621222945
 11
1275.6829394323547
 21
790.05304621222945
  0
LINE
  8
_0-1_計細線
  6
CONTINUOUS
 62
    3
 10
1276.4829394323542
 20
765.05304621222967
 11
1276.4829394334579
 21
785.15304621222992
  0
LINE
  8
_0-1_計細線
  6
CONTINUOUS
 62
    3
 10
1279.8829394323545
 20
765.05304621222967
 11
1279.8829394334582
 21
785.15304621222992
  0
LINE
  8
_0-1_計細線
  6
CONTINUOUS
 62
    3
 10
1279.8829394323545
 20
765.05304621222967
 11
1276.4829394323542
 21
765.05304621222967
  0
LINE
  8
_0-1_計細線
  6
CONTINUOUS
 62
    3
 10
1279.8829394329064
 20
785.35304621222963
 11
1293.8829394328538
 21
785.35304621222963
  0
LINE
  8
_0-1_計細線
  6
CONTINUOUS
 62
    3
 10
1279.8829394329064
 20
772.35304621222986
 11
1293.8829394321399
 21
772.35304621222986
  0
ARC
  8
_0-1_計細線
  6
CONTINUOUS
 62
    3
 10
1256.0829394340733
 20
788.0530462122299
 40
1
 50
89.999999999999915
 51
179.99999999999983
  0
ARC
  8
_0-1_計細線
  6
CONTINUOUS
 62
    3
 10
1256.5508886254008
 20
790.05304621222945
 40
1
 50
269.99999999999977
 51
330.00000000001364
  0
ARC
  8
_0-1_計細線
  6
CONTINUOUS
 62
    3
 10
1258.2829394329697
 20
789.05304621222979
 40
1
 50
89.999999999999915
 51
150.00000000000836
  0
LINE
  8
_0-1_計細線
  6
CONTINUOUS
 62
    3
 10
1256.0829394340733
 20
789.05304621222979
 11
1256.5508886254008
 21
789.05304621222979
  0
ARC
  8
_0-1_計細線
  6
CONTINUOUS
 62
    3
 10
1265.482939431866
 20
788.0530462122299
 40
1
 50
0
 51
89.999999999999915
  0
ARC
  8
_0-1_計細線
  6
CONTINUOUS
 62
    3
 10
1265.0149902405385
 20
790.05304621222945
 40
1
 50
209.99999999998565
 51
269.99999999999977
  0
ARC
  8
_0-1_計細線
  6
CONTINUOUS
 62
    3
 10
1263.2829394329699
 20
789.05304621222979
 40
1
 50
30.000000000004672
 51
89.999999999999915
  0
LINE
  8
_0-1_計細線
  6
CONTINUOUS
 62
    3
 10
1265.482939431866
 20
789.05304621222979
 11
1265.0149902405385
 21
789.05304621222979
  0
ARC
  8
_0-1_計細線
  6
CONTINUOUS
 62
    3
 10
1255.5829394340731
 20
786.65304621222992
 40
0.5
 50
179.99999999999983
 51
269.99999999999977
  0
LINE
  8
_0-1_計細線
  6
CONTINUOUS
 62
    3
 10
1255.0829394340733
 20
788.0530462122299
 11
1255.0829394340733
 21
786.65304621222992
  0
ARC
  8
_0-1_計細線
  6
CONTINUOUS
 62
    3
 10
1265.9829394318665
 20
786.65304621222992
 40
0.5
 50
269.99999999999977
 51
359.99999999999966
  0
LINE
  8
_0-1_計細線
  6
CONTINUOUS
 62
    3
 10
1266.4829394318665
 20
788.0530462122299
 11
1266.4829394318665
 21
786.65304621222992
  0
ARC
  8
_0-1_計細線
  6
CONTINUOUS
 62
    3
 10
1258.0829394340733
 20
785.15304621222992
 40
1
 50
0
 51
89.999999999999915
  0
LINE
  8
_0-1_計細線
  6
CONTINUOUS
 62
    3
 10
1258.0829394340733
 20
786.15304621222958
 11
1255.5829394340731
 21
786.15304621222958
  0
ARC
  8
_0-1_計細線
  6
CONTINUOUS
 62
    3
 10
1263.4829394340734
 20
785.15304621222992
 40
1
 50
89.999999999999915
 51
179.99999999999983
  0
LINE
  8
_0-1_計細線
  6
CONTINUOUS
 62
    3
 10
1263.4829394318654
 20
786.15304621222958
 11
1265.9829394318665
 21
786.15304621222958
  0
LINE
  8
_0-1_計細線
  6
CONTINUOUS
 62
    3
 10
1263.2829394329699
 20
790.05304621222945
 11
1258.2829394329697
 21
790.05304621222945
  0
LINE
  8
_0-1_計細線
  6
CONTINUOUS
 62
    3
 10
1259.0829394329696
 20
765.05304621222967
 11
1259.0829394340733
 21
785.15304621222992
  0
LINE
  8
_0-1_計細線
  6
CONTINUOUS
 62
    3
 10
1262.4829394329697
 20
765.05304621222967
 11
1262.4829394340734
 21
785.15304621222992
  0
LINE
  8
_0-1_計細線
  6
CONTINUOUS
 62
    3
 10
1262.4829394329697
 20
765.05304621222967
 11
1259.0829394329696
 21
765.05304621222967
  0
LINE
  8
_0-1_計細線
  6
CONTINUOUS
 62
    3
 10
1262.4829394335218
 20
785.35304621222963
 11
1276.4829394334688
 21
785.35304621222963
  0
LINE
  8
_0-1_計細線
  6
CONTINUOUS
 62
    3
 10
1262.4829394335218
 20
772.35304621222986
 11
1276.4829394327551
 21
772.35304621222986
  0
ARC
  8
_0-1_計細線
  6
CONTINUOUS
 62
    3
 10
1238.6829394346885
 20
788.0530462122299
 40
1
 50
89.999999999999915
 51
179.99999999999983
  0
ARC
  8
_0-1_計細線
  6
CONTINUOUS
 62
    3
 10
1239.1508886260158
 20
790.05304621222945
 40
1
 50
269.99999999999977
 51
330.00000000001364
  0
ARC
  8
_0-1_計細線
  6
CONTINUOUS
 62
    3
 10
1240.8829394335851
 20
789.05304621222979
 40
1
 50
89.999999999999915
 51
150.00000000000836
  0
LINE
  8
_0-1_計細線
  6
CONTINUOUS
 62
    3
 10
1238.6829394346885
 20
789.05304621222979
 11
1239.1508886260158
 21
789.05304621222979
  0
ARC
  8
_0-1_計細線
  6
CONTINUOUS
 62
    3
 10
1248.082939432481
 20
788.0530462122299
 40
1
 50
0
 51
89.999999999999915
  0
ARC
  8
_0-1_計細線
  6
CONTINUOUS
 62
    3
 10
1247.6149902411537
 20
790.05304621222945
 40
1
 50
209.99999999998565
 51
269.99999999999977
  0
ARC
  8
_0-1_計細線
  6
CONTINUOUS
 62
    3
 10
1245.8829394335851
 20
789.05304621222979
 40
1
 50
30.000000000004672
 51
89.999999999999915
  0
LINE
  8
_0-1_計細線
  6
CONTINUOUS
 62
    3
 10
1248.082939432481
 20
789.05304621222979
 11
1247.6149902411537
 21
789.05304621222979
  0
ARC
  8
_0-1_計細線
  6
CONTINUOUS
 62
    3
 10
1238.1829394346885
 20
786.65304621222992
 40
0.5
 50
179.99999999999983
 51
269.99999999999977
  0
LINE
  8
_0-1_計細線
  6
CONTINUOUS
 62
    3
 10
1237.6829394346883
 20
788.0530462122299
 11
1237.6829394346883
 21
786.65304621222992
  0
ARC
  8
_0-1_計細線
  6
CONTINUOUS
 62
    3
 10
1248.5829394324817
 20
786.65304621222992
 40
0.5
 50
269.99999999999977
 51
359.99999999999966
  0
LINE
  8
_0-1_計細線
  6
CONTINUOUS
 62
    3
 10
1249.0829394324815
 20
788.0530462122299
 11
1249.0829394324815
 21
786.65304621222992
  0
ARC
  8
_0-1_計細線
  6
CONTINUOUS
 62
    3
 10
1240.6829394346883
 20
785.15304621222992
 40
1
 50
0
 51
89.999999999999915
  0
LINE
  8
_0-1_計細線
  6
CONTINUOUS
 62
    3
 10
1240.6829394346883
 20
786.15304621222958
 11
1238.1829394346885
 21
786.15304621222958
  0
ARC
  8
_0-1_計細線
  6
CONTINUOUS
 62
    3
 10
1246.0829394346886
 20
785.15304621222992
 40
1
 50
89.999999999999915
 51
179.99999999999983
  0
LINE
  8
_0-1_計細線
  6
CONTINUOUS
 62
    3
 10
1246.0829394324808
 20
786.15304621222958
 11
1248.5829394324817
 21
786.15304621222958
  0
LINE
  8
_0-1_計細線
  6
CONTINUOUS
 62
    3
 10
1245.8829394335851
 20
790.05304621222945
 11
1240.8829394335851
 21
790.05304621222945
  0
LINE
  8
_0-1_計細線
  6
CONTINUOUS
 62
    3
 10
1241.6829394335848
 20
765.05304621222967
 11
1241.6829394346885
 21
785.15304621222992
  0
LINE
  8
_0-1_計細線
  6
CONTINUOUS
 62
    3
 10
1245.0829394335847
 20
765.05304621222967
 11
1245.0829394346883
 21
785.15304621222992
  0
LINE
  8
_0-1_計細線
  6
CONTINUOUS
 62
    3
 10
1245.0829394335847
 20
765.05304621222967
 11
1241.6829394335848
 21
765.05304621222967
  0
LINE
  8
_0-1_計細線
  6
CONTINUOUS
 62
    3
 10
1245.082939434137
 20
785.35304621222963
 11
1259.0829394340842
 21
785.35304621222963
  0
LINE
  8
_0-1_計細線
  6
CONTINUOUS
 62
    3
 10
1245.082939434137
 20
772.35304621222986
 11
1259.08293943337
 21
772.35304621222986
  0
ARC
  8
_0-1_計細線
  6
CONTINUOUS
 62
    3
 10
1221.2829394353034
 20
788.0530462122299
 40
1
 50
89.999999999999915
 51
179.99999999999983
  0
ARC
  8
_0-1_計細線
  6
CONTINUOUS
 62
    3
 10
1221.7508886266312
 20
790.05304621222945
 40
1
 50
269.99999999999977
 51
330.00000000001364
  0
ARC
  8
_0-1_計細線
  6
CONTINUOUS
 62
    3
 10
1223.4829394342003
 20
789.05304621222979
 40
1
 50
89.999999999999915
 51
150.00000000000836
  0
LINE
  8
_0-1_計細線
  6
CONTINUOUS
 62
    3
 10
1221.2829394353034
 20
789.05304621222979
 11
1221.7508886266312
 21
789.05304621222979
  0
ARC
  8
_0-1_計細線
  6
CONTINUOUS
 62
    3
 10
1230.6829394330964
 20
788.0530462122299
 40
1
 50
0
 51
89.999999999999915
  0
ARC
  8
_0-1_計細線
  6
CONTINUOUS
 62
    3
 10
1230.2149902417686
 20
790.05304621222945
 40
1
 50
209.99999999998565
 51
269.99999999999977
  0
ARC
  8
_0-1_計細線
  6
CONTINUOUS
 62
    3
 10
1228.4829394342
 20
789.05304621222979
 40
1
 50
30.000000000004672
 51
89.999999999999915
  0
LINE
  8
_0-1_計細線
  6
CONTINUOUS
 62
    3
 10
1230.6829394330964
 20
789.05304621222979
 11
1230.2149902417686
 21
789.05304621222979
  0
ARC
  8
_0-1_計細線
  6
CONTINUOUS
 62
    3
 10
1220.7829394353037
 20
786.65304621222992
 40
0.5
 50
179.99999999999983
 51
269.99999999999977
  0
LINE
  8
_0-1_計細線
  6
CONTINUOUS
 62
    3
 10
1220.2829394353037
 20
788.0530462122299
 11
1220.2829394353037
 21
786.65304621222992
  0
ARC
  8
_0-1_計細線
  6
CONTINUOUS
 62
    3
 10
1231.1829394330966
 20
786.65304621222992
 40
0.5
 50
269.99999999999977
 51
359.99999999999966
  0
LINE
  8
_0-1_計細線
  6
CONTINUOUS
 62
    3
 10
1231.6829394330969
 20
788.0530462122299
 11
1231.6829394330969
 21
786.65304621222992
  0
ARC
  8
_0-1_計細線
  6
CONTINUOUS
 62
    3
 10
1223.2829394353037
 20
785.15304621222992
 40
1
 50
0
 51
89.999999999999915
  0
LINE
  8
_0-1_計細線
  6
CONTINUOUS
 62
    3
 10
1223.2829394353037
 20
786.15304621222958
 11
1220.7829394353037
 21
786.15304621222958
  0
ARC
  8
_0-1_計細線
  6
CONTINUOUS
 62
    3
 10
1228.6829394353035
 20
785.15304621222992
 40
1
 50
89.999999999999915
 51
179.99999999999983
  0
LINE
  8
_0-1_計細線
  6
CONTINUOUS
 62
    3
 10
1228.682939433096
 20
786.15304621222958
 11
1231.1829394330966
 21
786.15304621222958
  0
LINE
  8
_0-1_計細線
  6
CONTINUOUS
 62
    3
 10
1228.4829394342
 20
790.05304621222945
 11
1223.4829394342003
 21
790.05304621222945
  0
LINE
  8
_0-1_計細線
  6
CONTINUOUS
 62
    3
 10
1224.2829394341998
 20
765.05304621222967
 11
1224.2829394353034
 21
785.15304621222992
  0
LINE
  8
_0-1_計細線
  6
CONTINUOUS
 62
    3
 10
1227.6829394342001
 20
765.05304621222967
 11
1227.6829394353038
 21
785.15304621222992
  0
LINE
  8
_0-1_計細線
  6
CONTINUOUS
 62
    3
 10
1227.6829394342001
 20
765.05304621222967
 11
1224.2829394341998
 21
765.05304621222967
  0
LINE
  8
_0-1_計細線
  6
CONTINUOUS
 62
    3
 10
1227.6829394347519
 20
785.35304621222963
 11
1241.6829394346994
 21
785.35304621222963
  0
LINE
  8
_0-1_計細線
  6
CONTINUOUS
 62
    3
 10
1227.6829394347519
 20
772.35304621222986
 11
1241.6829394339854
 21
772.35304621222986
  0
ARC
  8
_0-1_計細線
  6
CONTINUOUS
 62
    3
 10
1203.8829394359188
 20
788.0530462122299
 40
1
 50
89.999999999999915
 51
179.99999999999983
  0
ARC
  8
_0-1_計細線
  6
CONTINUOUS
 62
    3
 10
1204.3508886272464
 20
790.05304621222945
 40
1
 50
269.99999999999977
 51
330.00000000001364
  0
ARC
  8
_0-1_計細線
  6
CONTINUOUS
 62
    3
 10
1206.0829394348152
 20
789.05304621222979
 40
1
 50
89.999999999999915
 51
150.00000000000836
  0
LINE
  8
_0-1_計細線
  6
CONTINUOUS
 62
    3
 10
1203.8829394359188
 20
789.05304621222979
 11
1204.3508886272464
 21
789.05304621222979
  0
ARC
  8
_0-1_計細線
  6
CONTINUOUS
 62
    3
 10
1213.2829394337116
 20
788.0530462122299
 40
1
 50
0
 51
89.999999999999915
  0
ARC
  8
_0-1_計細線
  6
CONTINUOUS
 62
    3
 10
1212.8149902423841
 20
790.05304621222945
 40
1
 50
209.99999999998565
 51
269.99999999999977
  0
ARC
  8
_0-1_計細線
  6
CONTINUOUS
 62
    3
 10
1211.0829394348154
 20
789.05304621222979
 40
1
 50
30.000000000004672
 51
89.999999999999915
  0
LINE
  8
_0-1_計細線
  6
CONTINUOUS
 62
    3
 10
1213.2829394337116
 20
789.05304621222979
 11
1212.8149902423841
 21
789.05304621222979
  0
ARC
  8
_0-1_計細線
  6
CONTINUOUS
 62
    3
 10
1203.3829394359186
 20
786.65304621222992
 40
0.5
 50
179.99999999999983
 51
269.99999999999977
  0
LINE
  8
_0-1_計細線
  6
CONTINUOUS
 62
    3
 10
1202.8829394359188
 20
788.0530462122299
 11
1202.8829394359188
 21
786.65304621222992
  0
ARC
  8
_0-1_計細線
  6
CONTINUOUS
 62
    3
 10
1213.782939433712
 20
786.65304621222992
 40
0.5
 50
269.99999999999977
 51
359.99999999999966
  0
LINE
  8
_0-1_計細線
  6
CONTINUOUS
 62
    3
 10
1214.282939433712
 20
788.0530462122299
 11
1214.282939433712
 21
786.65304621222992
  0
ARC
  8
_0-1_計細線
  6
CONTINUOUS
 62
    3
 10
1205.8829394359188
 20
785.15304621222992
 40
1
 50
0
 51
89.999999999999915
  0
LINE
  8
_0-1_計細線
  6
CONTINUOUS
 62
    3
 10
1205.8829394359188
 20
786.15304621222958
 11
1203.3829394359186
 21
786.15304621222958
  0
ARC
  8
_0-1_計細線
  6
CONTINUOUS
 62
    3
 10
1211.2829394359189
 20
785.15304621222992
 40
1
 50
89.999999999999915
 51
179.99999999999983
  0
LINE
  8
_0-1_計細線
  6
CONTINUOUS
 62
    3
 10
1211.2829394337109
 20
786.15304621222958
 11
1213.782939433712
 21
786.15304621222958
  0
LINE
  8
_0-1_計細線
  6
CONTINUOUS
 62
    3
 10
1211.0829394348154
 20
790.05304621222945
 11
1206.0829394348152
 21
790.05304621222945
  0
LINE
  8
_0-1_計細線
  6
CONTINUOUS
 62
    3
 10
1206.8829394348152
 20
765.05304621222967
 11
1206.8829394359188
 21
785.15304621222992
  0
LINE
  8
_0-1_計細線
  6
CONTINUOUS
 62
    3
 10
1210.2829394348153
 20
765.05304621222967
 11
1210.2829394359189
 21
785.15304621222992
  0
LINE
  8
_0-1_計細線
  6
CONTINUOUS
 62
    3
 10
1210.2829394348153
 20
765.05304621222967
 11
1206.8829394348152
 21
765.05304621222967
  0
LINE
  8
_0-1_計細線
  6
CONTINUOUS
 62
    3
 10
1210.2829394353673
 20
785.35304621222963
 11
1224.2829394353143
 21
785.35304621222963
  0
LINE
  8
_0-1_計細線
  6
CONTINUOUS
 62
    3
 10
1210.2829394353673
 20
772.35304621222986
 11
1224.2829394346006
 21
772.35304621222986
  0
ARC
  8
_0-1_計細線
  6
CONTINUOUS
 62
    3
 10
1186.482939436534
 20
788.0530462122299
 40
1
 50
89.999999999999915
 51
179.99999999999983
  0
ARC
  8
_0-1_計細線
  6
CONTINUOUS
 62
    3
 10
1186.9508886278613
 20
790.05304621222945
 40
1
 50
269.99999999999977
 51
330.00000000001364
  0
ARC
  8
_0-1_計細線
  6
CONTINUOUS
 62
    3
 10
1188.6829394354306
 20
789.05304621222979
 40
1
 50
89.999999999999915
 51
150.00000000000836
  0
LINE
  8
_0-1_計細線
  6
CONTINUOUS
 62
    3
 10
1186.482939436534
 20
789.05304621222979
 11
1186.9508886278613
 21
789.05304621222979
  0
ARC
  8
_0-1_計細線
  6
CONTINUOUS
 62
    3
 10
1195.8829394343265
 20
788.0530462122299
 40
1
 50
0
 51
89.999999999999915
  0
ARC
  8
_0-1_計細線
  6
CONTINUOUS
 62
    3
 10
1195.4149902429992
 20
790.05304621222945
 40
1
 50
209.99999999998565
 51
269.99999999999977
  0
ARC
  8
_0-1_計細線
  6
CONTINUOUS
 62
    3
 10
1193.6829394354306
 20
789.05304621222979
 40
1
 50
30.000000000004672
 51
89.999999999999915
  0
LINE
  8
_0-1_計細線
  6
CONTINUOUS
 62
    3
 10
1195.8829394343265
 20
789.05304621222979
 11
1195.4149902429992
 21
789.05304621222979
  0
ARC
  8
_0-1_計細線
  6
CONTINUOUS
 62
    3
 10
1185.982939436534
 20
786.65304621222992
 40
0.5
 50
179.99999999999983
 51
269.99999999999977
  0
LINE
  8
_0-1_計細線
  6
CONTINUOUS
 62
    3
 10
1185.4829394365338
 20
788.0530462122299
 11
1185.4829394365338
 21
786.65304621222992
  0
ARC
  8
_0-1_計細線
  6
CONTINUOUS
 62
    3
 10
1196.3829394343272
 20
786.65304621222992
 40
0.5
 50
269.99999999999977
 51
359.99999999999966
  0
LINE
  8
_0-1_計細線
  6
CONTINUOUS
 62
    3
 10
1196.882939434327
 20
788.0530462122299
 11
1196.882939434327
 21
786.65304621222992
  0
ARC
  8
_0-1_計細線
  6
CONTINUOUS
 62
    3
 10
1188.4829394365338
 20
785.15304621222992
 40
1
 50
0
 51
89.999999999999915
  0
LINE
  8
_0-1_計細線
  6
CONTINUOUS
 62
    3
 10
1188.4829394365338
 20
786.15304621222958
 11
1185.982939436534
 21
786.15304621222958
  0
ARC
  8
_0-1_計細線
  6
CONTINUOUS
 62
    3
 10
1193.8829394365341
 20
785.15304621222992
 40
1
 50
89.999999999999915
 51
179.99999999999983
  0
LINE
  8
_0-1_計細線
  6
CONTINUOUS
 62
    3
 10
1193.8829394343263
 20
786.15304621222958
 11
1196.3829394343272
 21
786.15304621222958
  0
LINE
  8
_0-1_計細線
  6
CONTINUOUS
 62
    3
 10
1193.6829394354306
 20
790.05304621222945
 11
1188.6829394354306
 21
790.05304621222945
  0
LINE
  8
_0-1_計細線
  6
CONTINUOUS
 62
    3
 10
1189.4829394354304
 20
765.05304621222967
 11
1189.482939436534
 21
785.15304621222992
  0
LINE
  8
_0-1_計細線
  6
CONTINUOUS
 62
    3
 10
1192.8829394354302
 20
765.05304621222967
 11
1192.8829394365339
 21
785.15304621222992
  0
LINE
  8
_0-1_計細線
  6
CONTINUOUS
 62
    3
 10
1192.8829394354302
 20
765.05304621222967
 11
1189.4829394354304
 21
765.05304621222967
  0
LINE
  8
_0-1_計細線
  6
CONTINUOUS
 62
    3
 10
1192.8829394359825
 20
785.35304621222963
 11
1206.8829394359298
 21
785.35304621222963
  0
LINE
  8
_0-1_計細線
  6
CONTINUOUS
 62
    3
 10
1192.8829394359825
 20
772.35304621222986
 11
1206.8829394352156
 21
772.35304621222986
  0
ARC
  8
_0-1_計細線
  6
CONTINUOUS
 62
    3
 10
1169.082939437149
 20
788.0530462122299
 40
1
 50
89.999999999999915
 51
179.99999999999983
  0
ARC
  8
_0-1_計細線
  6
CONTINUOUS
 62
    3
 10
1169.5508886284767
 20
790.05304621222945
 40
1
 50
269.99999999999977
 51
330.00000000001364
  0
ARC
  8
_0-1_計細線
  6
CONTINUOUS
 62
    3
 10
1171.2829394360458
 20
789.05304621222979
 40
1
 50
89.999999999999915
 51
150.00000000000836
  0
LINE
  8
_0-1_計細線
  6
CONTINUOUS
 62
    3
 10
1169.082939437149
 20
789.05304621222979
 11
1169.5508886284767
 21
789.05304621222979
  0
ARC
  8
_0-1_計細線
  6
CONTINUOUS
 62
    3
 10
1178.482939434942
 20
788.0530462122299
 40
1
 50
0
 51
89.999999999999915
  0
ARC
  8
_0-1_計細線
  6
CONTINUOUS
 62
    3
 10
1178.0149902436142
 20
790.05304621222945
 40
1
 50
209.99999999998565
 51
269.99999999999977
  0
ARC
  8
_0-1_計細線
  6
CONTINUOUS
 62
    3
 10
1176.2829394360456
 20
789.05304621222979
 40
1
 50
30.000000000004672
 51
89.999999999999915
  0
LINE
  8
_0-1_計細線
  6
CONTINUOUS
 62
    3
 10
1178.482939434942
 20
789.05304621222979
 11
1178.0149902436142
 21
789.05304621222979
  0
ARC
  8
_0-1_計細線
  6
CONTINUOUS
 62
    3
 10
1168.5829394371492
 20
786.65304621222992
 40
0.5
 50
179.99999999999983
 51
269.99999999999977
  0
LINE
  8
_0-1_計細線
  6
CONTINUOUS
 62
    3
 10
1168.0829394371492
 20
788.0530462122299
 11
1168.0829394371492
 21
786.65304621222992
  0
ARC
  8
_0-1_計細線
  6
CONTINUOUS
 62
    3
 10
1178.9829394349422
 20
786.65304621222992
 40
0.5
 50
269.99999999999977
 51
359.99999999999966
  0
LINE
  8
_0-1_計細線
  6
CONTINUOUS
 62
    3
 10
1179.4829394349424
 20
788.0530462122299
 11
1179.4829394349424
 21
786.65304621222992
  0
ARC
  8
_0-1_計細線
  6
CONTINUOUS
 62
    3
 10
1171.0829394371492
 20
785.15304621222992
 40
1
 50
0
 51
89.999999999999915
  0
LINE
  8
_0-1_計細線
  6
CONTINUOUS
 62
    3
 10
1171.0829394371492
 20
786.15304621222958
 11
1168.5829394371492
 21
786.15304621222958
  0
ARC
  8
_0-1_計細線
  6
CONTINUOUS
 62
    3
 10
1176.4829394371491
 20
785.15304621222992
 40
1
 50
89.999999999999915
 51
179.99999999999983
  0
LINE
  8
_0-1_計細線
  6
CONTINUOUS
 62
    3
 10
1176.4829394349415
 20
786.15304621222958
 11
1178.9829394349422
 21
786.15304621222958
  0
LINE
  8
_0-1_計細線
  6
CONTINUOUS
 62
    3
 10
1176.2829394360456
 20
790.05304621222945
 11
1171.2829394360458
 21
790.05304621222945
  0
LINE
  8
_0-1_計細線
  6
CONTINUOUS
 62
    3
 10
1172.0829394360453
 20
765.05304621222967
 11
1172.082939437149
 21
785.15304621222992
  0
LINE
  8
_0-1_計細線
  6
CONTINUOUS
 62
    3
 10
1175.4829394360456
 20
765.05304621222967
 11
1175.4829394371493
 21
785.15304621222992
  0
LINE
  8
_0-1_計細線
  6
CONTINUOUS
 62
    3
 10
1175.4829394360456
 20
765.05304621222967
 11
1172.0829394360453
 21
765.05304621222967
  0
LINE
  8
_0-1_計細線
  6
CONTINUOUS
 62
    3
 10
1175.4829394365975
 20
785.35304621222963
 11
1189.4829394365449
 21
785.35304621222963
  0
LINE
  8
_0-1_計細線
  6
CONTINUOUS
 62
    3
 10
1175.4829394365975
 20
772.35304621222986
 11
1189.482939435831
 21
772.35304621222986
  0
ARC
  8
_0-1_計細線
  6
CONTINUOUS
 62
    3
 10
1151.6829394377644
 20
788.0530462122299
 40
1
 50
89.999999999999915
 51
179.99999999999983
  0
ARC
  8
_0-1_計細線
  6
CONTINUOUS
 62
    3
 10
1152.1508886290919
 20
790.05304621222945
 40
1
 50
269.99999999999977
 51
330.00000000001364
  0
ARC
  8
_0-1_計細線
  6
CONTINUOUS
 62
    3
 10
1153.8829394366608
 20
789.05304621222979
 40
1
 50
89.999999999999915
 51
150.00000000000836
  0
LINE
  8
_0-1_計細線
  6
CONTINUOUS
 62
    3
 10
1151.6829394377644
 20
789.05304621222979
 11
1152.1508886290919
 21
789.05304621222979
  0
ARC
  8
_0-1_計細線
  6
CONTINUOUS
 62
    3
 10
1161.0829394355571
 20
788.0530462122299
 40
1
 50
0
 51
89.999999999999915
  0
ARC
  8
_0-1_計細線
  6
CONTINUOUS
 62
    3
 10
1160.6149902442296
 20
790.05304621222945
 40
1
 50
209.99999999998565
 51
269.99999999999977
  0
ARC
  8
_0-1_計細線
  6
CONTINUOUS
 62
    3
 10
1158.882939436661
 20
789.05304621222979
 40
1
 50
30.000000000004672
 51
89.999999999999915
  0
LINE
  8
_0-1_計細線
  6
CONTINUOUS
 62
    3
 10
1161.0829394355571
 20
789.05304621222979
 11
1160.6149902442296
 21
789.05304621222979
  0
ARC
  8
_0-1_計細線
  6
CONTINUOUS
 62
    3
 10
1151.1829394377642
 20
786.65304621222992
 40
0.5
 50
179.99999999999983
 51
269.99999999999977
  0
LINE
  8
_0-1_計細線
  6
CONTINUOUS
 62
    3
 10
1150.6829394377644
 20
788.0530462122299
 11
1150.6829394377644
 21
786.65304621222992
  0
ARC
  8
_0-1_計細線
  6
CONTINUOUS
 62
    3
 10
1161.5829394355576
 20
786.65304621222992
 40
0.5
 50
269.99999999999977
 51
359.99999999999966
  0
LINE
  8
_0-1_計細線
  6
CONTINUOUS
 62
    3
 10
1162.0829394355576
 20
788.0530462122299
 11
1162.0829394355576
 21
786.65304621222992
  0
ARC
  8
_0-1_計細線
  6
CONTINUOUS
 62
    3
 10
1153.6829394377644
 20
785.15304621222992
 40
1
 50
0
 51
89.999999999999915
  0
LINE
  8
_0-1_計細線
  6
CONTINUOUS
 62
    3
 10
1153.6829394377644
 20
786.15304621222958
 11
1151.1829394377642
 21
786.15304621222958
  0
ARC
  8
_0-1_計細線
  6
CONTINUOUS
 62
    3
 10
1159.0829394377645
 20
785.15304621222992
 40
1
 50
89.999999999999915
 51
179.99999999999983
  0
LINE
  8
_0-1_計細線
  6
CONTINUOUS
 62
    3
 10
1159.0829394355565
 20
786.15304621222958
 11
1161.5829394355576
 21
786.15304621222958
  0
LINE
  8
_0-1_計細線
  6
CONTINUOUS
 62
    3
 10
1158.882939436661
 20
790.05304621222945
 11
1153.8829394366608
 21
790.05304621222945
  0
LINE
  8
_0-1_計細線
  6
CONTINUOUS
 62
    3
 10
1154.6829394366607
 20
765.05304621222967
 11
1154.6829394377644
 21
785.15304621222992
  0
LINE
  8
_0-1_計細線
  6
CONTINUOUS
 62
    3
 10
1158.0829394366608
 20
765.05304621222967
 11
1158.0829394377645
 21
785.15304621222992
  0
LINE
  8
_0-1_計細線
  6
CONTINUOUS
 62
    3
 10
1158.0829394366608
 20
765.05304621222967
 11
1154.6829394366607
 21
765.05304621222967
  0
LINE
  8
_0-1_計細線
  6
CONTINUOUS
 62
    3
 10
1158.0829394372129
 20
785.35304621222963
 11
1172.0829394371599
 21
785.35304621222963
  0
LINE
  8
_0-1_計細線
  6
CONTINUOUS
 62
    3
 10
1158.0829394372129
 20
772.35304621222986
 11
1172.0829394364462
 21
772.35304621222986
  0
LINE
  8
_0-1_計細線
  6
CONTINUOUS
 62
    3
 10
1139.882939428941
 20
772.35304621222986
 11
1154.6829394370611
 21
772.35304621222986
  0
LINE
  8
_0-1_計細線
  6
CONTINUOUS
 62
    3
 10
1139.8829394282272
 20
785.35304621222963
 11
1154.6829394377753
 21
785.35304621222963
  0
ARC
  8
_0-1_計細線
  6
CONTINUOUS
 62
    3
 10
1142.8829394282382
 20
788.0530462122299
 40
1
 50
0
 51
89.999999999999915
  0
ARC
  8
_0-1_計細線
  6
CONTINUOUS
 62
    3
 10
1142.4149902369106
 20
790.05304621222945
 40
1
 50
209.99999999998565
 51
269.99999999999977
  0
ARC
  8
_0-1_計細線
  6
CONTINUOUS
 62
    3
 10
1140.682939429342
 20
789.05304621222979
 40
1
 50
30.000000000004672
 51
89.999999999999915
  0
LINE
  8
_0-1_計細線
  6
CONTINUOUS
 62
    3
 10
1142.8829394282382
 20
789.05304621222979
 11
1142.4149902369106
 21
789.05304621222979
  0
ARC
  8
_0-1_計細線
  6
CONTINUOUS
 62
    3
 10
1133.4829394304447
 20
788.0530462122299
 40
1
 50
89.999999999999915
 51
179.99999999999983
  0
ARC
  8
_0-1_計細線
  6
CONTINUOUS
 62
    3
 10
1133.9508886217729
 20
790.05304621222945
 40
1
 50
269.99999999999977
 51
330.00000000001364
  0
ARC
  8
_0-1_計細線
  6
CONTINUOUS
 62
    3
 10
1135.6829394293416
 20
789.05304621222979
 40
1
 50
89.999999999999915
 51
149.99999999999534
  0
LINE
  8
_0-1_計細線
  6
CONTINUOUS
 62
    3
 10
1133.4829394304447
 20
789.05304621222979
 11
1133.9508886217729
 21
789.05304621222979
  0
ARC
  8
_0-1_計細線
  6
CONTINUOUS
 62
    3
 10
1143.3829394282379
 20
786.65304621222992
 40
0.5
 50
269.99999999999977
 51
359.99999999999966
  0
LINE
  8
_0-1_計細線
  6
CONTINUOUS
 62
    3
 10
1143.8829394282382
 20
788.0530462122299
 11
1143.8829394282382
 21
786.65304621222992
  0
ARC
  8
_0-1_計細線
  6
CONTINUOUS
 62
    3
 10
1132.982939430445
 20
786.65304621222992
 40
0.5
 50
179.99999999999983
 51
269.99999999999977
  0
LINE
  8
_0-1_計細線
  6
CONTINUOUS
 62
    3
 10
1132.4829394304454
 20
788.0530462122299
 11
1132.4829394304454
 21
786.65304621222992
  0
ARC
  8
_0-1_計細線
  6
CONTINUOUS
 62
    3
 10
1140.8829394282382
 20
785.15304621222992
 40
1
 50
89.999999999999915
 51
179.99999999999983
  0
LINE
  8
_0-1_計細線
  6
CONTINUOUS
 62
    3
 10
1140.8829394282382
 20
786.15304621222958
 11
1143.3829394282379
 21
786.15304621222958
  0
ARC
  8
_0-1_計細線
  6
CONTINUOUS
 62
    3
 10
1135.4829394282381
 20
785.15304621222992
 40
1
 50
0
 51
89.999999999999915
  0
LINE
  8
_0-1_計細線
  6
CONTINUOUS
 62
    3
 10
1135.4829394304456
 20
786.15304621222958
 11
1132.982939430445
 21
786.15304621222958
  0
LINE
  8
_0-1_計細線
  6
CONTINUOUS
 62
    3
 10
1135.6829394293416
 20
790.05304621222945
 11
1140.682939429342
 21
790.05304621222945
  0
LINE
  8
_0-1_計細線
  6
CONTINUOUS
 62
    3
 10
1139.8829394293418
 20
765.05304621222967
 11
1139.8829394282382
 21
785.15304621222992
  0
LINE
  8
_0-1_計細線
  6
CONTINUOUS
 62
    3
 10
1136.4829394293417
 20
765.05304621222967
 11
1136.4829394282381
 21
785.15304621222992
  0
LINE
  8
_0-1_計細線
  6
CONTINUOUS
 62
    3
 10
1136.4829394293417
 20
765.05304621222967
 11
1139.8829394293418
 21
765.05304621222967
  0
ARC
  8
_0-1_計細線
  6
CONTINUOUS
 62
    3
 10
1387.2829394292778
 20
788.0530462122299
 40
1
 50
0
 51
89.999999999999915
  0
ARC
  8
_0-1_計細線
  6
CONTINUOUS
 62
    3
 10
1386.8149902379503
 20
790.05304621222945
 40
1
 50
209.99999999998565
 51
269.99999999999977
  0
ARC
  8
_0-1_計細線
  6
CONTINUOUS
 62
    3
 10
1385.082939430381
 20
789.05304621222979
 40
1
 50
29.999999999991644
 51
89.999999999999915
  0
LINE
  8
_0-1_計細線
  6
CONTINUOUS
 62
    3
 10
1387.2829394292778
 20
789.05304621222979
 11
1386.8149902379503
 21
789.05304621222979
  0
ARC
  8
_0-1_計細線
  6
CONTINUOUS
 62
    3
 10
1377.8829394314851
 20
788.0530462122299
 40
1
 50
89.999999999999915
 51
179.99999999999983
  0
ARC
  8
_0-1_計細線
  6
CONTINUOUS
 62
    3
 10
1378.3508886228126
 20
790.05304621222945
 40
1
 50
269.99999999999977
 51
330.00000000001364
  0
ARC
  8
_0-1_計細線
  6
CONTINUOUS
 62
    3
 10
1380.0829394303814
 20
789.05304621222979
 40
1
 50
90.000000000026048
 51
150.00000000000836
  0
LINE
  8
_0-1_計細線
  6
CONTINUOUS
 62
    3
 10
1377.8829394314851
 20
789.05304621222979
 11
1378.3508886228126
 21
789.05304621222979
  0
ARC
  8
_0-1_計細線
  6
CONTINUOUS
 62
    3
 10
1387.7829394292773
 20
786.65304621222992
 40
0.5
 50
269.99999999999977
 51
359.99999999999966
  0
LINE
  8
_0-1_計細線
  6
CONTINUOUS
 62
    3
 10
1388.2829394292778
 20
788.0530462122299
 11
1388.2829394292778
 21
786.65304621222992
  0
ARC
  8
_0-1_計細線
  6
CONTINUOUS
 62
    3
 10
1377.3829394314846
 20
786.65304621222992
 40
0.5
 50
179.99999999999983
 51
269.99999999999977
  0
LINE
  8
_0-1_計細線
  6
CONTINUOUS
 62
    3
 10
1376.8829394314846
 20
788.0530462122299
 11
1376.8829394314846
 21
786.65304621222992
  0
ARC
  8
_0-1_計細線
  6
CONTINUOUS
 62
    3
 10
1385.2829394292778
 20
785.15304621222992
 40
1
 50
89.999999999999915
 51
179.99999999999983
  0
LINE
  8
_0-1_計細線
  6
CONTINUOUS
 62
    3
 10
1385.2829394292778
 20
786.15304621222958
 11
1387.7829394292773
 21
786.15304621222958
  0
ARC
  8
_0-1_計細線
  6
CONTINUOUS
 62
    3
 10
1379.8829394292777
 20
785.15304621222992
 40
1
 50
0
 51
89.999999999999915
  0
LINE
  8
_0-1_計細線
  6
CONTINUOUS
 62
    3
 10
1379.8829394314851
 20
786.15304621222958
 11
1377.3829394314846
 21
786.15304621222958
  0
LINE
  8
_0-1_計細線
  6
CONTINUOUS
 62
    3
 10
1380.0829394303814
 20
790.05304621222945
 11
1385.082939430381
 21
790.05304621222945
  0
LINE
  8
_0-1_計細線
  6
CONTINUOUS
 62
    3
 10
1384.2829394303815
 20
765.05304621222967
 11
1384.282939429278
 21
785.15304621222992
  0
LINE
  8
_0-1_計細線
  6
CONTINUOUS
 62
    3
 10
1380.8829394303814
 20
765.05304621222967
 11
1380.8829394292777
 21
785.15304621222992
  0
LINE
  8
_0-1_計細線
  6
CONTINUOUS
 62
    3
 10
1380.8829394303814
 20
765.05304621222967
 11
1384.2829394303815
 21
765.05304621222967
  0
LINE
  8
_0-1_計細線
  6
CONTINUOUS
 62
    3
 10
1380.8829394298295
 20
785.35304621222963
 11
1366.8829394298818
 21
785.35304621222963
  0
LINE
  8
_0-1_計細線
  6
CONTINUOUS
 62
    3
 10
1380.8829394298295
 20
772.35304621222986
 11
1366.8829394305953
 21
772.35304621222986
  0
ARC
  8
_0-1_計細線
  6
CONTINUOUS
 62
    3
 10
1404.6829394286626
 20
788.0530462122299
 40
1
 50
0
 51
89.999999999999915
  0
ARC
  8
_0-1_計細線
  6
CONTINUOUS
 62
    3
 10
1404.2149902373349
 20
790.05304621222945
 40
1
 50
209.99999999998565
 51
269.99999999999977
  0
ARC
  8
_0-1_計細線
  6
CONTINUOUS
 62
    3
 10
1402.482939429766
 20
789.05304621222979
 40
1
 50
29.999999999991644
 51
89.999999999999915
  0
LINE
  8
_0-1_計細線
  6
CONTINUOUS
 62
    3
 10
1404.6829394286626
 20
789.05304621222979
 11
1404.2149902373349
 21
789.05304621222979
  0
ARC
  8
_0-1_計細線
  6
CONTINUOUS
 62
    3
 10
1395.2829394308696
 20
788.0530462122299
 40
1
 50
89.999999999999915
 51
179.99999999999983
  0
ARC
  8
_0-1_計細線
  6
CONTINUOUS
 62
    3
 10
1395.7508886221974
 20
790.05304621222945
 40
1
 50
269.99999999999977
 51
330.00000000001364
  0
ARC
  8
_0-1_計細線
  6
CONTINUOUS
 62
    3
 10
1397.4829394297665
 20
789.05304621222979
 40
1
 50
90.000000000026048
 51
150.00000000000836
  0
LINE
  8
_0-1_計細線
  6
CONTINUOUS
 62
    3
 10
1395.2829394308696
 20
789.05304621222979
 11
1395.7508886221974
 21
789.05304621222979
  0
ARC
  8
_0-1_計細線
  6
CONTINUOUS
 62
    3
 10
1405.1829394286622
 20
786.65304621222992
 40
0.5
 50
269.99999999999977
 51
359.99999999999966
  0
LINE
  8
_0-1_計細線
  6
CONTINUOUS
 62
    3
 10
1405.6829394286624
 20
788.0530462122299
 11
1405.6829394286624
 21
786.65304621222992
  0
ARC
  8
_0-1_計細線
  6
CONTINUOUS
 62
    3
 10
1394.7829394308694
 20
786.65304621222992
 40
0.5
 50
179.99999999999983
 51
269.99999999999977
  0
LINE
  8
_0-1_計細線
  6
CONTINUOUS
 62
    3
 10
1394.2829394308692
 20
788.0530462122299
 11
1394.2829394308692
 21
786.65304621222992
  0
ARC
  8
_0-1_計細線
  6
CONTINUOUS
 62
    3
 10
1402.6829394286624
 20
785.15304621222992
 40
1
 50
89.999999999999915
 51
179.99999999999983
  0
LINE
  8
_0-1_計細線
  6
CONTINUOUS
 62
    3
 10
1402.6829394286624
 20
786.15304621222958
 11
1405.1829394286622
 21
786.15304621222958
  0
ARC
  8
_0-1_計細線
  6
CONTINUOUS
 62
    3
 10
1397.2829394286625
 20
785.15304621222992
 40
1
 50
0
 51
89.999999999999915
  0
LINE
  8
_0-1_計細線
  6
CONTINUOUS
 62
    3
 10
1397.2829394308699
 20
786.15304621222958
 11
1394.7829394308694
 21
786.15304621222958
  0
LINE
  8
_0-1_計細線
  6
CONTINUOUS
 62
    3
 10
1397.4829394297665
 20
790.05304621222945
 11
1402.482939429766
 21
790.05304621222945
  0
LINE
  8
_0-1_計細線
  6
CONTINUOUS
 62
    3
 10
1401.6829394297663
 20
765.05304621222967
 11
1401.6829394286631
 21
785.15304621222992
  0
LINE
  8
_0-1_計細線
  6
CONTINUOUS
 62
    3
 10
1398.282939429766
 20
765.05304621222967
 11
1398.2829394286623
 21
785.15304621222992
  0
LINE
  8
_0-1_計細線
  6
CONTINUOUS
 62
    3
 10
1398.282939429766
 20
765.05304621222967
 11
1401.6829394297663
 21
765.05304621222967
  0
LINE
  8
_0-1_計細線
  6
CONTINUOUS
 62
    3
 10
1398.2829394292146
 20
785.35304621222963
 11
1384.2829394292669
 21
785.35304621222963
  0
LINE
  8
_0-1_計細線
  6
CONTINUOUS
 62
    3
 10
1398.2829394292146
 20
772.35304621222986
 11
1384.2829394299804
 21
772.35304621222986
  0
ARC
  8
_0-1_計細線
  6
CONTINUOUS
 62
    3
 10
1422.0829394280472
 20
788.0530462122299
 40
1
 50
0
 51
89.999999999999915
  0
ARC
  8
_0-1_計細線
  6
CONTINUOUS
 62
    3
 10
1421.6149902367199
 20
790.05304621222945
 40
1
 50
209.99999999998565
 51
269.99999999999977
  0
ARC
  8
_0-1_計細線
  6
CONTINUOUS
 62
    3
 10
1419.8829394291508
 20
789.05304621222979
 40
1
 50
29.999999999991644
 51
89.999999999999915
  0
LINE
  8
_0-1_計細線
  6
CONTINUOUS
 62
    3
 10
1422.0829394280472
 20
789.05304621222979
 11
1421.6149902367199
 21
789.05304621222979
  0
ARC
  8
_0-1_計細線
  6
CONTINUOUS
 62
    3
 10
1412.6829394302547
 20
788.0530462122299
 40
1
 50
89.999999999999915
 51
179.99999999999983
  0
ARC
  8
_0-1_計細線
  6
CONTINUOUS
 62
    3
 10
1413.150888621582
 20
790.05304621222945
 40
1
 50
269.99999999999977
 51
330.00000000001364
  0
ARC
  8
_0-1_計細線
  6
CONTINUOUS
 62
    3
 10
1414.8829394291513
 20
789.05304621222979
 40
1
 50
90.000000000026048
 51
150.00000000000836
  0
LINE
  8
_0-1_計細線
  6
CONTINUOUS
 62
    3
 10
1412.6829394302547
 20
789.05304621222979
 11
1413.150888621582
 21
789.05304621222979
  0
ARC
  8
_0-1_計細線
  6
CONTINUOUS
 62
    3
 10
1422.5829394280468
 20
786.65304621222992
 40
0.5
 50
269.99999999999977
 51
359.99999999999966
  0
LINE
  8
_0-1_計細線
  6
CONTINUOUS
 62
    3
 10
1423.0829394280474
 20
788.0530462122299
 11
1423.0829394280474
 21
786.65304621222992
  0
ARC
  8
_0-1_計細線
  6
CONTINUOUS
 62
    3
 10
1412.182939430254
 20
786.65304621222992
 40
0.5
 50
179.99999999999983
 51
269.99999999999977
  0
LINE
  8
_0-1_計細線
  6
CONTINUOUS
 62
    3
 10
1411.6829394302542
 20
788.0530462122299
 11
1411.6829394302542
 21
786.65304621222992
  0
ARC
  8
_0-1_計細線
  6
CONTINUOUS
 62
    3
 10
1420.0829394280474
 20
785.15304621222992
 40
1
 50
89.999999999999915
 51
179.99999999999983
  0
LINE
  8
_0-1_計細線
  6
CONTINUOUS
 62
    3
 10
1420.0829394280474
 20
786.15304621222958
 11
1422.5829394280468
 21
786.15304621222958
  0
ARC
  8
_0-1_計細線
  6
CONTINUOUS
 62
    3
 10
1414.6829394280471
 20
785.15304621222992
 40
1
 50
0
 51
89.999999999999915
  0
LINE
  8
_0-1_計細線
  6
CONTINUOUS
 62
    3
 10
1414.6829394302545
 20
786.15304621222958
 11
1412.182939430254
 21
786.15304621222958
  0
LINE
  8
_0-1_計細線
  6
CONTINUOUS
 62
    3
 10
1414.8829394291513
 20
790.05304621222945
 11
1419.8829394291508
 21
790.05304621222945
  0
LINE
  8
_0-1_計細線
  6
CONTINUOUS
 62
    3
 10
1419.0829394291509
 20
765.05304621222967
 11
1419.0829394280479
 21
785.15304621222992
  0
LINE
  8
_0-1_計細線
  6
CONTINUOUS
 62
    3
 10
1415.682939429151
 20
765.05304621222967
 11
1415.6829394280473
 21
785.15304621222992
  0
LINE
  8
_0-1_計細線
  6
CONTINUOUS
 62
    3
 10
1415.682939429151
 20
765.05304621222967
 11
1419.0829394291509
 21
765.05304621222967
  0
LINE
  8
_0-1_計細線
  6
CONTINUOUS
 62
    3
 10
1415.6829394285994
 20
785.35304621222963
 11
1401.6829394286517
 21
785.35304621222963
  0
LINE
  8
_0-1_計細線
  6
CONTINUOUS
 62
    3
 10
1415.6829394285994
 20
772.35304621222986
 11
1401.6829394293652
 21
772.35304621222986
  0
ARC
  8
_0-1_計細線
  6
CONTINUOUS
 62
    3
 10
1439.4829394274323
 20
788.0530462122299
 40
1
 50
0
 51
89.999999999999915
  0
ARC
  8
_0-1_計細線
  6
CONTINUOUS
 62
    3
 10
1439.0149902361047
 20
790.05304621222945
 40
1
 50
209.99999999998565
 51
269.99999999999977
  0
ARC
  8
_0-1_計細線
  6
CONTINUOUS
 62
    3
 10
1437.2829394285354
 20
789.05304621222979
 40
1
 50
29.999999999991644
 51
89.999999999999915
  0
LINE
  8
_0-1_計細線
  6
CONTINUOUS
 62
    3
 10
1439.4829394274323
 20
789.05304621222979
 11
1439.0149902361047
 21
789.05304621222979
  0
ARC
  8
_0-1_計細線
  6
CONTINUOUS
 62
    3
 10
1430.0829394296395
 20
788.0530462122299
 40
1
 50
89.999999999999915
 51
179.99999999999983
  0
ARC
  8
_0-1_計細線
  6
CONTINUOUS
 62
    3
 10
1430.550888620967
 20
790.05304621222945
 40
1
 50
269.99999999999977
 51
330.00000000001364
  0
ARC
  8
_0-1_計細線
  6
CONTINUOUS
 62
    3
 10
1432.2829394285359
 20
789.05304621222979
 40
1
 50
90.000000000026048
 51
150.00000000000836
  0
LINE
  8
_0-1_計細線
  6
CONTINUOUS
 62
    3
 10
1430.0829394296395
 20
789.05304621222979
 11
1430.550888620967
 21
789.05304621222979
  0
ARC
  8
_0-1_計細線
  6
CONTINUOUS
 62
    3
 10
1439.9829394274318
 20
786.65304621222992
 40
0.5
 50
269.99999999999977
 51
359.99999999999966
  0
LINE
  8
_0-1_計細線
  6
CONTINUOUS
 62
    3
 10
1440.4829394274323
 20
788.0530462122299
 11
1440.4829394274323
 21
786.65304621222992
  0
ARC
  8
_0-1_計細線
  6
CONTINUOUS
 62
    3
 10
1429.5829394296391
 20
786.65304621222992
 40
0.5
 50
179.99999999999983
 51
269.99999999999977
  0
LINE
  8
_0-1_計細線
  6
CONTINUOUS
 62
    3
 10
1429.0829394296391
 20
788.0530462122299
 11
1429.0829394296391
 21
786.65304621222992
  0
ARC
  8
_0-1_計細線
  6
CONTINUOUS
 62
    3
 10
1437.4829394274323
 20
785.15304621222992
 40
1
 50
89.999999999999915
 51
179.99999999999983
  0
LINE
  8
_0-1_計細線
  6
CONTINUOUS
 62
    3
 10
1437.4829394274323
 20
786.15304621222958
 11
1439.9829394274318
 21
786.15304621222958
  0
ARC
  8
_0-1_計細線
  6
CONTINUOUS
 62
    3
 10
1432.0829394274322
 20
785.15304621222992
 40
1
 50
0
 51
89.999999999999915
  0
LINE
  8
_0-1_計細線
  6
CONTINUOUS
 62
    3
 10
1432.0829394296395
 20
786.15304621222958
 11
1429.5829394296391
 21
786.15304621222958
  0
LINE
  8
_0-1_計細線
  6
CONTINUOUS
 62
    3
 10
1432.2829394285359
 20
790.05304621222945
 11
1437.2829394285354
 21
790.05304621222945
  0
LINE
  8
_0-1_計細線
  6
CONTINUOUS
 62
    3
 10
1436.4829394285359
 20
765.05304621222967
 11
1436.4829394274325
 21
785.15304621222992
  0
LINE
  8
_0-1_計細線
  6
CONTINUOUS
 62
    3
 10
1433.0829394285358
 20
765.05304621222967
 11
1433.0829394274322
 21
785.15304621222992
  0
LINE
  8
_0-1_計細線
  6
CONTINUOUS
 62
    3
 10
1433.0829394285358
 20
765.05304621222967
 11
1436.4829394285359
 21
765.05304621222967
  0
LINE
  8
_0-1_計細線
  6
CONTINUOUS
 62
    3
 10
1433.082939427984
 20
785.35304621222963
 11
1419.0829394280363
 21
785.35304621222963
  0
LINE
  8
_0-1_計細線
  6
CONTINUOUS
 62
    3
 10
1433.082939427984
 20
772.35304621222986
 11
1419.0829394287498
 21
772.35304621222986
  0
ARC
  8
_0-1_計細線
  6
CONTINUOUS
 62
    3
 10
1456.8829394268171
 20
788.0530462122299
 40
1
 50
0
 51
89.999999999999915
  0
ARC
  8
_0-1_計細線
  6
CONTINUOUS
 62
    3
 10
1456.4149902354893
 20
790.05304621222945
 40
1
 50
209.99999999998565
 51
269.99999999999977
  0
ARC
  8
_0-1_計細線
  6
CONTINUOUS
 62
    3
 10
1454.6829394279205
 20
789.05304621222979
 40
1
 50
29.999999999991644
 51
89.999999999999915
  0
LINE
  8
_0-1_計細線
  6
CONTINUOUS
 62
    3
 10
1456.8829394268171
 20
789.05304621222979
 11
1456.4149902354893
 21
789.05304621222979
  0
ARC
  8
_0-1_計細線
  6
CONTINUOUS
 62
    3
 10
1447.4829394290241
 20
788.0530462122299
 40
1
 50
89.999999999999915
 51
179.99999999999983
  0
ARC
  8
_0-1_計細線
  6
CONTINUOUS
 62
    3
 10
1447.9508886203519
 20
790.05304621222945
 40
1
 50
269.99999999999977
 51
330.00000000001364
  0
ARC
  8
_0-1_計細線
  6
CONTINUOUS
 62
    3
 10
1449.6829394279209
 20
789.05304621222979
 40
1
 50
90.000000000026048
 51
150.00000000000836
  0
LINE
  8
_0-1_計細線
  6
CONTINUOUS
 62
    3
 10
1447.4829394290241
 20
789.05304621222979
 11
1447.9508886203519
 21
789.05304621222979
  0
ARC
  8
_0-1_計細線
  6
CONTINUOUS
 62
    3
 10
1457.3829394268166
 20
786.65304621222992
 40
0.5
 50
269.99999999999977
 51
359.99999999999966
  0
LINE
  8
_0-1_計細線
  6
CONTINUOUS
 62
    3
 10
1457.8829394268168
 20
788.0530462122299
 11
1457.8829394268168
 21
786.65304621222992
  0
ARC
  8
_0-1_計細線
  6
CONTINUOUS
 62
    3
 10
1446.9829394290239
 20
786.65304621222992
 40
0.5
 50
179.99999999999983
 51
269.99999999999977
  0
LINE
  8
_0-1_計細線
  6
CONTINUOUS
 62
    3
 10
1446.4829394290236
 20
788.0530462122299
 11
1446.4829394290236
 21
786.65304621222992
  0
ARC
  8
_0-1_計細線
  6
CONTINUOUS
 62
    3
 10
1454.8829394268168
 20
785.15304621222992
 40
1
 50
89.999999999999915
 51
179.99999999999983
  0
LINE
  8
_0-1_計細線
  6
CONTINUOUS
 62
    3
 10
1454.8829394268168
 20
786.15304621222958
 11
1457.3829394268166
 21
786.15304621222958
  0
ARC
  8
_0-1_計細線
  6
CONTINUOUS
 62
    3
 10
1449.482939426817
 20
785.15304621222992
 40
1
 50
0
 51
89.999999999999915
  0
LINE
  8
_0-1_計細線
  6
CONTINUOUS
 62
    3
 10
1449.4829394290243
 20
786.15304621222958
 11
1446.9829394290239
 21
786.15304621222958
  0
LINE
  8
_0-1_計細線
  6
CONTINUOUS
 62
    3
 10
1449.6829394279209
 20
790.05304621222945
 11
1454.6829394279205
 21
790.05304621222945
  0
LINE
  8
_0-1_計細線
  6
CONTINUOUS
 62
    3
 10
1453.8829394279207
 20
765.05304621222967
 11
1453.8829394268175
 21
785.15304621222992
  0
LINE
  8
_0-1_計細線
  6
CONTINUOUS
 62
    3
 10
1450.4829394279204
 20
765.05304621222967
 11
1450.4829394268168
 21
785.15304621222992
  0
LINE
  8
_0-1_計細線
  6
CONTINUOUS
 62
    3
 10
1450.4829394279204
 20
765.05304621222967
 11
1453.8829394279207
 21
765.05304621222967
  0
LINE
  8
_0-1_計細線
  6
CONTINUOUS
 62
    3
 10
1450.482939427369
 20
785.35304621222963
 11
1436.4829394274213
 21
785.35304621222963
  0
LINE
  8
_0-1_計細線
  6
CONTINUOUS
 62
    3
 10
1450.482939427369
 20
772.35304621222986
 11
1436.4829394281348
 21
772.35304621222986
  0
ARC
  8
_0-1_計細線
  6
CONTINUOUS
 62
    3
 10
1474.2829394262017
 20
788.0530462122299
 40
1
 50
0
 51
89.999999999999915
  0
ARC
  8
_0-1_計細線
  6
CONTINUOUS
 62
    3
 10
1473.8149902348744
 20
790.05304621222945
 40
1
 50
209.99999999998565
 51
269.99999999999977
  0
ARC
  8
_0-1_計細線
  6
CONTINUOUS
 62
    3
 10
1472.0829394273053
 20
789.05304621222979
 40
1
 50
29.999999999991644
 51
89.999999999999915
  0
LINE
  8
_0-1_計細線
  6
CONTINUOUS
 62
    3
 10
1474.2829394262017
 20
789.05304621222979
 11
1473.8149902348744
 21
789.05304621222979
  0
ARC
  8
_0-1_計細線
  6
CONTINUOUS
 62
    3
 10
1464.8829394284091
 20
788.0530462122299
 40
1
 50
89.999999999999915
 51
179.99999999999983
  0
ARC
  8
_0-1_計細線
  6
CONTINUOUS
 62
    3
 10
1465.3508886197365
 20
790.05304621222945
 40
1
 50
269.99999999999977
 51
330.00000000001364
  0
ARC
  8
_0-1_計細線
  6
CONTINUOUS
 62
    3
 10
1467.0829394273057
 20
789.05304621222979
 40
1
 50
90.000000000026048
 51
150.00000000000836
  0
LINE
  8
_0-1_計細線
  6
CONTINUOUS
 62
    3
 10
1464.8829394284091
 20
789.05304621222979
 11
1465.3508886197365
 21
789.05304621222979
  0
ARC
  8
_0-1_計細線
  6
CONTINUOUS
 62
    3
 10
1474.7829394262012
 20
786.65304621222992
 40
0.5
 50
269.99999999999977
 51
359.99999999999966
  0
LINE
  8
_0-1_計細線
  6
CONTINUOUS
 62
    3
 10
1475.2829394262019
 20
788.0530462122299
 11
1475.2829394262019
 21
786.65304621222992
  0
ARC
  8
_0-1_計細線
  6
CONTINUOUS
 62
    3
 10
1464.3829394284085
 20
786.65304621222992
 40
0.5
 50
179.99999999999983
 51
269.99999999999977
  0
LINE
  8
_0-1_計細線
  6
CONTINUOUS
 62
    3
 10
1463.8829394284087
 20
788.0530462122299
 11
1463.8829394284087
 21
786.65304621222992
  0
ARC
  8
_0-1_計細線
  6
CONTINUOUS
 62
    3
 10
1472.2829394262019
 20
785.15304621222992
 40
1
 50
89.999999999999915
 51
179.99999999999983
  0
LINE
  8
_0-1_計細線
  6
CONTINUOUS
 62
    3
 10
1472.2829394262019
 20
786.15304621222958
 11
1474.7829394262012
 21
786.15304621222958
  0
ARC
  8
_0-1_計細線
  6
CONTINUOUS
 62
    3
 10
1466.8829394262016
 20
785.15304621222992
 40
1
 50
0
 51
89.999999999999915
  0
LINE
  8
_0-1_計細線
  6
CONTINUOUS
 62
    3
 10
1466.8829394284089
 20
786.15304621222958
 11
1464.3829394284085
 21
786.15304621222958
  0
LINE
  8
_0-1_計細線
  6
CONTINUOUS
 62
    3
 10
1467.0829394273057
 20
790.05304621222945
 11
1472.0829394273053
 21
790.05304621222945
  0
LINE
  8
_0-1_計細線
  6
CONTINUOUS
 62
    3
 10
1471.2829394273053
 20
765.05304621222967
 11
1471.2829394262023
 21
785.15304621222992
  0
LINE
  8
_0-1_計細線
  6
CONTINUOUS
 62
    3
 10
1467.8829394273055
 20
765.05304621222967
 11
1467.8829394262018
 21
785.15304621222992
  0
LINE
  8
_0-1_計細線
  6
CONTINUOUS
 62
    3
 10
1467.8829394273055
 20
765.05304621222967
 11
1471.2829394273053
 21
765.05304621222967
  0
LINE
  8
_0-1_計細線
  6
CONTINUOUS
 62
    3
 10
1467.8829394267539
 20
785.35304621222963
 11
1453.8829394268062
 21
785.35304621222963
  0
LINE
  8
_0-1_計細線
  6
CONTINUOUS
 62
    3
 10
1467.8829394267539
 20
772.35304621222986
 11
1453.8829394275197
 21
772.35304621222986
  0
ARC
  8
_0-1_計細線
  6
CONTINUOUS
 62
    3
 10
1491.6829394255867
 20
788.0530462122299
 40
1
 50
0
 51
89.999999999999915
  0
ARC
  8
_0-1_計細線
  6
CONTINUOUS
 62
    3
 10
1491.2149902342592
 20
790.05304621222945
 40
1
 50
209.99999999998565
 51
269.99999999999977
  0
ARC
  8
_0-1_計細線
  6
CONTINUOUS
 62
    3
 10
1489.4829394266899
 20
789.05304621222979
 40
1
 50
29.999999999991644
 51
89.999999999999915
  0
LINE
  8
_0-1_計細線
  6
CONTINUOUS
 62
    3
 10
1491.6829394255867
 20
789.05304621222979
 11
1491.2149902342592
 21
789.05304621222979
  0
ARC
  8
_0-1_計細線
  6
CONTINUOUS
 62
    3
 10
1482.282939427794
 20
788.0530462122299
 40
1
 50
89.999999999999915
 51
179.99999999999983
  0
ARC
  8
_0-1_計細線
  6
CONTINUOUS
 62
    3
 10
1482.7508886191215
 20
790.05304621222945
 40
1
 50
269.99999999999977
 51
330.00000000001364
  0
ARC
  8
_0-1_計細線
  6
CONTINUOUS
 62
    3
 10
1484.4829394266903
 20
789.05304621222979
 40
1
 50
90.000000000026048
 51
150.00000000000836
  0
LINE
  8
_0-1_計細線
  6
CONTINUOUS
 62
    3
 10
1482.282939427794
 20
789.05304621222979
 11
1482.7508886191215
 21
789.05304621222979
  0
ARC
  8
_0-1_計細線
  6
CONTINUOUS
 62
    3
 10
1492.1829394255863
 20
786.65304621222992
 40
0.5
 50
269.99999999999977
 51
359.99999999999966
  0
LINE
  8
_0-1_計細線
  6
CONTINUOUS
 62
    3
 10
1492.6829394255867
 20
788.0530462122299
 11
1492.6829394255867
 21
786.65304621222992
  0
ARC
  8
_0-1_計細線
  6
CONTINUOUS
 62
    3
 10
1481.7829394277935
 20
786.65304621222992
 40
0.5
 50
179.99999999999983
 51
269.99999999999977
  0
LINE
  8
_0-1_計細線
  6
CONTINUOUS
 62
    3
 10
1481.2829394277935
 20
788.0530462122299
 11
1481.2829394277935
 21
786.65304621222992
  0
ARC
  8
_0-1_計細線
  6
CONTINUOUS
 62
    3
 10
1489.6829394255867
 20
785.15304621222992
 40
1
 50
89.999999999999915
 51
179.99999999999983
  0
LINE
  8
_0-1_計細線
  6
CONTINUOUS
 62
    3
 10
1489.6829394255867
 20
786.15304621222958
 11
1492.1829394255863
 21
786.15304621222958
  0
ARC
  8
_0-1_計細線
  6
CONTINUOUS
 62
    3
 10
1484.2829394255866
 20
785.15304621222992
 40
1
 50
0
 51
89.999999999999915
  0
LINE
  8
_0-1_計細線
  6
CONTINUOUS
 62
    3
 10
1484.282939427794
 20
786.15304621222958
 11
1481.7829394277935
 21
786.15304621222958
  0
LINE
  8
_0-1_計細線
  6
CONTINUOUS
 62
    3
 10
1484.4829394266903
 20
790.05304621222945
 11
1489.4829394266899
 21
790.05304621222945
  0
LINE
  8
_0-1_計細線
  6
CONTINUOUS
 62
    3
 10
1488.6829394266904
 20
765.05304621222967
 11
1488.6829394255869
 21
785.15304621222992
  0
LINE
  8
_0-1_計細線
  6
CONTINUOUS
 62
    3
 10
1485.2829394266903
 20
765.05304621222967
 11
1485.2829394255866
 21
785.15304621222992
  0
LINE
  8
_0-1_計細線
  6
CONTINUOUS
 62
    3
 10
1485.2829394266903
 20
765.05304621222967
 11
1488.6829394266904
 21
765.05304621222967
  0
LINE
  8
_0-1_計細線
  6
CONTINUOUS
 62
    3
 10
1485.2829394261385
 20
785.35304621222963
 11
1471.2829394261908
 21
785.35304621222963
  0
LINE
  8
_0-1_計細線
  6
CONTINUOUS
 62
    3
 10
1485.2829394261385
 20
772.35304621222986
 11
1471.2829394269042
 21
772.35304621222986
  0
ARC
  8
_0-1_計細線
  6
CONTINUOUS
 62
    3
 10
1509.0829394249715
 20
788.0530462122299
 40
1
 50
0
 51
89.999999999999915
  0
ARC
  8
_0-1_計細線
  6
CONTINUOUS
 62
    3
 10
1508.6149902336438
 20
790.05304621222945
 40
1
 50
209.99999999998565
 51
269.99999999999977
  0
ARC
  8
_0-1_計細線
  6
CONTINUOUS
 62
    3
 10
1506.8829394260749
 20
789.05304621222979
 40
1
 50
29.999999999991644
 51
89.999999999999915
  0
LINE
  8
_0-1_計細線
  6
CONTINUOUS
 62
    3
 10
1509.0829394249715
 20
789.05304621222979
 11
1508.6149902336438
 21
789.05304621222979
  0
ARC
  8
_0-1_計細線
  6
CONTINUOUS
 62
    3
 10
1499.6829394271786
 20
788.0530462122299
 40
1
 50
89.999999999999915
 51
179.99999999999983
  0
ARC
  8
_0-1_計細線
  6
CONTINUOUS
 62
    3
 10
1500.1508886185063
 20
790.05304621222945
 40
1
 50
269.99999999999977
 51
330.00000000001364
  0
ARC
  8
_0-1_計細線
  6
CONTINUOUS
 62
    3
 10
1501.8829394260754
 20
789.05304621222979
 40
1
 50
90.000000000026048
 51
150.00000000000836
  0
LINE
  8
_0-1_計細線
  6
CONTINUOUS
 62
    3
 10
1499.6829394271786
 20
789.05304621222979
 11
1500.1508886185063
 21
789.05304621222979
  0
ARC
  8
_0-1_計細線
  6
CONTINUOUS
 62
    3
 10
1509.5829394249711
 20
786.65304621222992
 40
0.5
 50
269.99999999999977
 51
359.99999999999966
  0
LINE
  8
_0-1_計細線
  6
CONTINUOUS
 62
    3
 10
1510.0829394249713
 20
788.0530462122299
 11
1510.0829394249713
 21
786.65304621222992
  0
ARC
  8
_0-1_計細線
  6
CONTINUOUS
 62
    3
 10
1499.1829394271783
 20
786.65304621222992
 40
0.5
 50
179.99999999999983
 51
269.99999999999977
  0
LINE
  8
_0-1_計細線
  6
CONTINUOUS
 62
    3
 10
1498.6829394271781
 20
788.0530462122299
 11
1498.6829394271781
 21
786.65304621222992
  0
ARC
  8
_0-1_計細線
  6
CONTINUOUS
 62
    3
 10
1507.0829394249713
 20
785.15304621222992
 40
1
 50
89.999999999999915
 51
179.99999999999983
  0
LINE
  8
_0-1_計細線
  6
CONTINUOUS
 62
    3
 10
1507.0829394249713
 20
786.15304621222958
 11
1509.5829394249711
 21
786.15304621222958
  0
ARC
  8
_0-1_計細線
  6
CONTINUOUS
 62
    3
 10
1501.6829394249714
 20
785.15304621222992
 40
1
 50
0
 51
89.999999999999915
  0
LINE
  8
_0-1_計細線
  6
CONTINUOUS
 62
    3
 10
1501.6829394271788
 20
786.15304621222958
 11
1499.1829394271783
 21
786.15304621222958
  0
LINE
  8
_0-1_計細線
  6
CONTINUOUS
 62
    3
 10
1501.8829394260754
 20
790.05304621222945
 11
1506.8829394260749
 21
790.05304621222945
  0
LINE
  8
_0-1_計細線
  6
CONTINUOUS
 62
    3
 10
1506.0829394260752
 20
765.05304621222967
 11
1506.082939424972
 21
785.15304621222992
  0
LINE
  8
_0-1_計細線
  6
CONTINUOUS
 62
    3
 10
1502.6829394260749
 20
765.05304621222967
 11
1502.6829394249712
 21
785.15304621222992
  0
LINE
  8
_0-1_計細線
  6
CONTINUOUS
 62
    3
 10
1502.6829394260749
 20
765.05304621222967
 11
1506.0829394260752
 21
765.05304621222967
  0
LINE
  8
_0-1_計細線
  6
CONTINUOUS
 62
    3
 10
1502.6829394255235
 20
785.35304621222963
 11
1488.6829394255758
 21
785.35304621222963
  0
LINE
  8
_0-1_計細線
  6
CONTINUOUS
 62
    3
 10
1502.6829394255235
 20
772.35304621222986
 11
1488.6829394262893
 21
772.35304621222986
  0
ARC
  8
_0-1_計細線
  6
CONTINUOUS
 62
    3
 10
1526.4829394243561
 20
788.0530462122299
 40
1
 50
0
 51
89.999999999999915
  0
ARC
  8
_0-1_計細線
  6
CONTINUOUS
 62
    3
 10
1526.0149902330288
 20
790.05304621222945
 40
1
 50
209.99999999998565
 51
269.99999999999977
  0
ARC
  8
_0-1_計細線
  6
CONTINUOUS
 62
    3
 10
1524.2829394254597
 20
789.05304621222979
 40
1
 50
29.999999999991644
 51
89.999999999999915
  0
LINE
  8
_0-1_計細線
  6
CONTINUOUS
 62
    3
 10
1526.4829394243561
 20
789.05304621222979
 11
1526.0149902330288
 21
789.05304621222979
  0
ARC
  8
_0-1_計細線
  6
CONTINUOUS
 62
    3
 10
1517.0829394265636
 20
788.0530462122299
 40
1
 50
89.999999999999915
 51
179.99999999999983
  0
ARC
  8
_0-1_計細線
  6
CONTINUOUS
 62
    3
 10
1517.5508886178909
 20
790.05304621222945
 40
1
 50
269.99999999999977
 51
330.00000000001364
  0
ARC
  8
_0-1_計細線
  6
CONTINUOUS
 62
    3
 10
1519.2829394254602
 20
789.05304621222979
 40
1
 50
90.000000000026048
 51
150.00000000000836
  0
LINE
  8
_0-1_計細線
  6
CONTINUOUS
 62
    3
 10
1517.0829394265636
 20
789.05304621222979
 11
1517.5508886178909
 21
789.05304621222979
  0
ARC
  8
_0-1_計細線
  6
CONTINUOUS
 62
    3
 10
1526.9829394243557
 20
786.65304621222992
 40
0.5
 50
269.99999999999977
 51
359.99999999999966
  0
LINE
  8
_0-1_計細線
  6
CONTINUOUS
 62
    3
 10
1527.4829394243559
 20
788.0530462122299
 11
1527.4829394243559
 21
786.65304621222992
  0
ARC
  8
_0-1_計細線
  6
CONTINUOUS
 62
    3
 10
1516.5829394265629
 20
786.65304621222992
 40
0.5
 50
179.99999999999983
 51
269.99999999999977
  0
LINE
  8
_0-1_計細線
  6
CONTINUOUS
 62
    3
 10
1516.0829394265631
 20
788.0530462122299
 11
1516.0829394265631
 21
786.65304621222992
  0
ARC
  8
_0-1_計細線
  6
CONTINUOUS
 62
    3
 10
1524.4829394243563
 20
785.15304621222992
 40
1
 50
89.999999999999915
 51
179.99999999999983
  0
LINE
  8
_0-1_計細線
  6
CONTINUOUS
 62
    3
 10
1524.4829394243563
 20
786.15304621222958
 11
1526.9829394243557
 21
786.15304621222958
  0
ARC
  8
_0-1_計細線
  6
CONTINUOUS
 62
    3
 10
1519.082939424356
 20
785.15304621222992
 40
1
 50
0
 51
89.999999999999915
  0
LINE
  8
_0-1_計細線
  6
CONTINUOUS
 62
    3
 10
1519.0829394265634
 20
786.15304621222958
 11
1516.5829394265629
 21
786.15304621222958
  0
LINE
  8
_0-1_計細線
  6
CONTINUOUS
 62
    3
 10
1519.2829394254602
 20
790.05304621222945
 11
1524.2829394254597
 21
790.05304621222945
  0
LINE
  8
_0-1_計細線
  6
CONTINUOUS
 62
    3
 10
1523.4829394254598
 20
765.05304621222967
 11
1523.4829394243568
 21
785.15304621222992
  0
LINE
  8
_0-1_計細線
  6
CONTINUOUS
 62
    3
 10
1520.0829394254599
 20
765.05304621222967
 11
1520.0829394243563
 21
785.15304621222992
  0
LINE
  8
_0-1_計細線
  6
CONTINUOUS
 62
    3
 10
1520.0829394254599
 20
765.05304621222967
 11
1523.4829394254598
 21
765.05304621222967
  0
LINE
  8
_0-1_計細線
  6
CONTINUOUS
 62
    3
 10
1520.0829394249083
 20
785.35304621222963
 11
1506.0829394249606
 21
785.35304621222963
  0
LINE
  8
_0-1_計細線
  6
CONTINUOUS
 62
    3
 10
1520.0829394249083
 20
772.35304621222986
 11
1506.0829394256741
 21
772.35304621222986
  0
ARC
  8
_0-1_計細線
  6
CONTINUOUS
 62
    3
 10
1543.8829394237405
 20
788.0530462122299
 40
1
 50
0
 51
89.999999999999915
  0
ARC
  8
_0-1_計細線
  6
CONTINUOUS
 62
    3
 10
1543.4149902324129
 20
790.05304621222945
 40
1
 50
209.99999999999866
 51
269.99999999999977
  0
ARC
  8
_0-1_計細線
  6
CONTINUOUS
 62
    3
 10
1541.6829394248441
 20
789.05304621222979
 40
1
 50
29.99999999997862
 51
89.999999999999915
  0
LINE
  8
_0-1_計細線
  6
CONTINUOUS
 62
    3
 10
1543.8829394237405
 20
789.05304621222979
 11
1543.4149902324129
 21
789.05304621222979
  0
ARC
  8
_0-1_計細線
  6
CONTINUOUS
 62
    3
 10
1534.4829394259484
 20
788.0530462122299
 40
1
 50
89.999999999999915
 51
179.99999999999983
  0
ARC
  8
_0-1_計細線
  6
CONTINUOUS
 62
    3
 10
1534.950888617276
 20
790.05304621222945
 40
1
 50
269.99999999999977
 51
330.00000000000057
  0
ARC
  8
_0-1_計細線
  6
CONTINUOUS
 62
    3
 10
1536.6829394248448
 20
789.05304621222979
 40
1
 50
90.000000000052111
 51
150.00000000002137
  0
LINE
  8
_0-1_計細線
  6
CONTINUOUS
 62
    3
 10
1534.4829394259484
 20
789.05304621222979
 11
1534.950888617276
 21
789.05304621222979
  0
ARC
  8
_0-1_計細線
  6
CONTINUOUS
 62
    3
 10
1544.3829394237407
 20
786.65304621222992
 40
0.5
 50
269.99999999999977
 51
359.99999999999966
  0
LINE
  8
_0-1_計細線
  6
CONTINUOUS
 62
    3
 10
1544.8829394237405
 20
788.0530462122299
 11
1544.8829394237405
 21
786.65304621222992
  0
ARC
  8
_0-1_計細線
  6
CONTINUOUS
 62
    3
 10
1533.9829394259475
 20
786.65304621222992
 40
0.5
 50
179.99999999999983
 51
269.99999999999977
  0
LINE
  8
_0-1_計細線
  6
CONTINUOUS
 62
    3
 10
1533.4829394259473
 20
788.0530462122299
 11
1533.4829394259473
 21
786.65304621222992
  0
ARC
  8
_0-1_計細線
  6
CONTINUOUS
 62
    3
 10
1541.8829394237405
 20
785.15304621222992
 40
1
 50
89.999999999999915
 51
179.99999999999983
  0
LINE
  8
_0-1_計細線
  6
CONTINUOUS
 62
    3
 10
1541.8829394237405
 20
786.15304621222958
 11
1544.3829394237407
 21
786.15304621222958
  0
ARC
  8
_0-1_計細線
  6
CONTINUOUS
 62
    3
 10
1536.4829394237411
 20
785.15304621222992
 40
1
 50
0
 51
89.999999999999915
  0
LINE
  8
_0-1_計細線
  6
CONTINUOUS
 62
    3
 10
1536.4829394259484
 20
786.15304621222958
 11
1533.9829394259475
 21
786.15304621222958
  0
LINE
  8
_0-1_計細線
  6
CONTINUOUS
 62
    3
 10
1536.6829394248448
 20
790.05304621222945
 11
1541.6829394248441
 21
790.05304621222945
  0
LINE
  8
_0-1_計細線
  6
CONTINUOUS
 62
    3
 10
1540.8829394248448
 20
765.05304621222967
 11
1540.8829394237414
 21
785.15304621222992
  0
LINE
  8
_0-1_計細線
  6
CONTINUOUS
 62
    3
 10
1537.4829394248441
 20
765.05304621222967
 11
1537.4829394237408
 21
785.15304621222992
  0
LINE
  8
_0-1_計細線
  6
CONTINUOUS
 62
    3
 10
1537.4829394248441
 20
765.05304621222967
 11
1540.8829394248448
 21
765.05304621222967
  0
LINE
  8
_0-1_計細線
  6
CONTINUOUS
 62
    3
 10
1537.4829394242929
 20
785.35304621222963
 11
1523.4829394243452
 21
785.35304621222963
  0
LINE
  8
_0-1_計細線
  6
CONTINUOUS
 62
    3
 10
1537.4829394242929
 20
772.35304621222986
 11
1523.4829394250587
 21
772.35304621222986
  0
ARC
  8
_0-1_計細線
  6
CONTINUOUS
 62
    3
 10
1561.2829394231253
 20
788.0530462122299
 40
1
 50
0
 51
89.999999999999915
  0
ARC
  8
_0-1_計細線
  6
CONTINUOUS
 62
    3
 10
1560.814990231798
 20
790.05304621222945
 40
1
 50
209.99999999999866
 51
269.99999999999977
  0
ARC
  8
_0-1_計細線
  6
CONTINUOUS
 62
    3
 10
1559.0829394242287
 20
789.05304621222979
 40
1
 50
29.99999999997862
 51
89.999999999999915
  0
LINE
  8
_0-1_計細線
  6
CONTINUOUS
 62
    3
 10
1561.2829394231253
 20
789.05304621222979
 11
1560.814990231798
 21
789.05304621222979
  0
ARC
  8
_0-1_計細線
  6
CONTINUOUS
 62
    3
 10
1551.882939425333
 20
788.0530462122299
 40
1
 50
89.999999999999915
 51
179.99999999999983
  0
ARC
  8
_0-1_計細線
  6
CONTINUOUS
 62
    3
 10
1552.3508886166605
 20
790.05304621222945
 40
1
 50
269.99999999999977
 51
330.00000000000057
  0
ARC
  8
_0-1_計細線
  6
CONTINUOUS
 62
    3
 10
1554.0829394242298
 20
789.05304621222979
 40
1
 50
90.000000000052111
 51
150.00000000002137
  0
LINE
  8
_0-1_計細線
  6
CONTINUOUS
 62
    3
 10
1551.882939425333
 20
789.05304621222979
 11
1552.3508886166605
 21
789.05304621222979
  0
ARC
  8
_0-1_計細線
  6
CONTINUOUS
 62
    3
 10
1561.7829394231253
 20
786.65304621222992
 40
0.5
 50
269.99999999999977
 51
359.99999999999966
  0
LINE
  8
_0-1_計細線
  6
CONTINUOUS
 62
    3
 10
1562.2829394231255
 20
788.0530462122299
 11
1562.2829394231255
 21
786.65304621222992
  0
ARC
  8
_0-1_計細線
  6
CONTINUOUS
 62
    3
 10
1551.3829394253321
 20
786.65304621222992
 40
0.5
 50
179.99999999999983
 51
269.99999999999977
  0
LINE
  8
_0-1_計細線
  6
CONTINUOUS
 62
    3
 10
1550.8829394253323
 20
788.0530462122299
 11
1550.8829394253323
 21
786.65304621222992
  0
ARC
  8
_0-1_計細線
  6
CONTINUOUS
 62
    3
 10
1559.2829394231255
 20
785.15304621222992
 40
1
 50
89.999999999999915
 51
179.99999999999983
  0
LINE
  8
_0-1_計細線
  6
CONTINUOUS
 62
    3
 10
1559.2829394231255
 20
786.15304621222958
 11
1561.7829394231253
 21
786.15304621222958
  0
ARC
  8
_0-1_計細線
  6
CONTINUOUS
 62
    3
 10
1553.8829394231257
 20
785.15304621222992
 40
1
 50
0
 51
89.999999999999915
  0
LINE
  8
_0-1_計細線
  6
CONTINUOUS
 62
    3
 10
1553.882939425333
 20
786.15304621222958
 11
1551.3829394253321
 21
786.15304621222958
  0
LINE
  8
_0-1_計細線
  6
CONTINUOUS
 62
    3
 10
1554.0829394242298
 20
790.05304621222945
 11
1559.0829394242287
 21
790.05304621222945
  0
LINE
  8
_0-1_計細線
  6
CONTINUOUS
 62
    3
 10
1558.2829394242294
 20
765.05304621222967
 11
1558.2829394231264
 21
785.15304621222992
  0
LINE
  8
_0-1_計細線
  6
CONTINUOUS
 62
    3
 10
1554.8829394242291
 20
765.05304621222967
 11
1554.8829394231257
 21
785.15304621222992
  0
LINE
  8
_0-1_計細線
  6
CONTINUOUS
 62
    3
 10
1554.8829394242291
 20
765.05304621222967
 11
1558.2829394242294
 21
765.05304621222967
  0
LINE
  8
_0-1_計細線
  6
CONTINUOUS
 62
    3
 10
1554.882939423678
 20
785.35304621222963
 11
1540.8829394237296
 21
785.35304621222963
  0
LINE
  8
_0-1_計細線
  6
CONTINUOUS
 62
    3
 10
1554.882939423678
 20
772.35304621222986
 11
1540.8829394244437
 21
772.35304621222986
  0
LINE
  8
_0-1_計細線
  6
CONTINUOUS
 62
    3
 10
1573.0829394319494
 20
772.35304621222986
 11
1558.2829394238283
 21
772.35304621222986
  0
LINE
  8
_0-1_計細線
  6
CONTINUOUS
 62
    3
 10
1573.0829394326627
 20
785.35304621222963
 11
1558.2829394231144
 21
785.35304621222963
  0
ARC
  8
_0-1_計細線
  6
CONTINUOUS
 62
    3
 10
1570.0829394326518
 20
788.0530462122299
 40
1
 50
89.999999999999915
 51
179.99999999999983
  0
ARC
  8
_0-1_計細線
  6
CONTINUOUS
 62
    3
 10
1570.5508886239802
 20
790.05304621222945
 40
1
 50
269.99999999999977
 51
330.00000000000057
  0
ARC
  8
_0-1_計細線
  6
CONTINUOUS
 62
    3
 10
1572.2829394315481
 20
789.05304621222979
 40
1
 50
89.999999999999915
 51
149.99999999999534
  0
LINE
  8
_0-1_計細線
  6
CONTINUOUS
 62
    3
 10
1570.0829394326518
 20
789.05304621222979
 11
1570.5508886239802
 21
789.05304621222979
  0
ARC
  8
_0-1_計細線
  6
CONTINUOUS
 62
    3
 10
1579.4829394304447
 20
788.0530462122299
 40
1
 50
0
 51
89.999999999999915
  0
ARC
  8
_0-1_計細線
  6
CONTINUOUS
 62
    3
 10
1579.0149902391172
 20
790.05304621222945
 40
1
 50
209.99999999999866
 51
269.99999999999977
  0
ARC
  8
_0-1_計細線
  6
CONTINUOUS
 62
    3
 10
1577.2829394315484
 20
789.05304621222979
 40
1
 50
29.99999999997862
 51
89.999999999947889
  0
LINE
  8
_0-1_計細線
  6
CONTINUOUS
 62
    3
 10
1579.4829394304447
 20
789.05304621222979
 11
1579.0149902391172
 21
789.05304621222979
  0
ARC
  8
_0-1_計細線
  6
CONTINUOUS
 62
    3
 10
1569.5829394326515
 20
786.65304621222992
 40
0.5
 50
179.99999999999983
 51
269.99999999999977
  0
LINE
  8
_0-1_計細線
  6
CONTINUOUS
 62
    3
 10
1569.0829394326527
 20
788.0530462122299
 11
1569.0829394326527
 21
786.65304621222992
  0
ARC
  8
_0-1_計細線
  6
CONTINUOUS
 62
    3
 10
1579.982939430445
 20
786.65304621222992
 40
0.5
 50
269.99999999999977
 51
359.99999999999966
  0
LINE
  8
_0-1_計細線
  6
CONTINUOUS
 62
    3
 10
1580.4829394304447
 20
788.0530462122299
 11
1580.4829394304447
 21
786.65304621222992
  0
ARC
  8
_0-1_計細線
  6
CONTINUOUS
 62
    3
 10
1572.0829394326527
 20
785.15304621222992
 40
1
 50
0
 51
89.999999999999915
  0
LINE
  8
_0-1_計細線
  6
CONTINUOUS
 62
    3
 10
1572.0829394326527
 20
786.15304621222958
 11
1569.5829394326515
 21
786.15304621222958
  0
ARC
  8
_0-1_計細線
  6
CONTINUOUS
 62
    3
 10
1577.4829394326521
 20
785.15304621222992
 40
1
 50
89.999999999999915
 51
179.99999999999983
  0
LINE
  8
_0-1_計細線
  6
CONTINUOUS
 62
    3
 10
1577.4829394304447
 20
786.15304621222958
 11
1579.982939430445
 21
786.15304621222958
  0
LINE
  8
_0-1_計細線
  6
CONTINUOUS
 62
    3
 10
1577.2829394315484
 20
790.05304621222945
 11
1572.2829394315481
 21
790.05304621222945
  0
LINE
  8
_0-1_計細線
  6
CONTINUOUS
 62
    3
 10
1573.0829394315483
 20
765.05304621222967
 11
1573.0829394326518
 21
785.15304621222992
  0
LINE
  8
_0-1_計細線
  6
CONTINUOUS
 62
    3
 10
1576.4829394315491
 20
765.05304621222967
 11
1576.4829394326521
 21
785.15304621222992
  0
LINE
  8
_0-1_計細線
  6
CONTINUOUS
 62
    3
 10
1576.4829394315491
 20
765.05304621222967
 11
1573.0829394315483
 21
765.05304621222967
  0
LINE
  8
_0-5_寸法線
  6
CONTINUOUS
 62
    7
 10
1346.653114898977
 20
771.93596344844218
 11
1320.7311741319015
 21
790.08670177857414
  0
LINE
  8
_0-5_寸法線
  6
CONTINUOUS
 62
    7
 10
1325.6460863976354
 20
786.645243160468
 11
1322.5402578564051
 21
798.23635307593668
  0
LINE
  8
_0-5_寸法線
  6
CONTINUOUS
 62
    7
 10
1325.6460863976354
 20
786.645243160468
 11
1328.7519149388656
 21
798.23635307593668
  0
LINE
  8
_0-5_寸法線
  6
CONTINUOUS
 62
    7
 10
1346.653114898977
 20
796.93596344844195
 11
1320.7311741319015
 21
815.08670177857391
  0
LINE
  8
_0-5_寸法線
  6
CONTINUOUS
 62
    7
 10
1325.6460863976354
 20
811.64524316046777
 11
1328.7519149388656
 21
800.05413324499887
  0
LINE
  8
_0-5_寸法線
  6
CONTINUOUS
 62
    7
 10
1325.6460863976354
 20
811.64524316046777
 11
1322.5402578564051
 21
800.05413324499887
  0
LINE
  8
_0-5_寸法線
  6
CONTINUOUS
 62
    7
 10
1325.6460863976354
 20
786.645243160468
 11
1325.6460863976354
 21
811.64524316046777
  0
TEXT
  8
_0-5_寸法線
 62
    7
 10
1325.6460863976356
 20
790.145243160468
 40
18
 41
1
 50
90
  1
25
  0
LINE
  8
_0-7_枠細線
  6
CONTINUOUS
 62
    5
 10
1607.6197740154291
 20
756.23096581051414
 11
1598.6197740154291
 21
774.23096581051414
  0
LINE
  8
_0-7_枠細線
  6
CONTINUOUS
 62
    5
 10
1589.6197740154291
 20
756.23096581051414
 11
1607.6197740154291
 21
756.23096581051414
  0
LINE
  8
_0-7_枠細線
  6
CONTINUOUS
 62
    5
 10
1598.6197740154291
 20
774.23096581051414
 11
1589.6197740154291
 21
756.23096581051414
  0
TEXT
  8
_0-7_枠細線
 62
    5
 10
1592.4579555372065
 20
755.0923818526943
 40
15
 41
0.8
 50
0
  1
５
  0
LINE
  8
_0-0_計極細
  6
CONTINUOUS
 62
    2
 10
1588.7829394304449
 20
758.05326521323673
 11
1586.4829394304447
 21
758.05326521323673
  0
LINE
  8
_0-0_計極細
  6
CONTINUOUS
 62
    2
 10
1588.7829394304449
 20
760.05326521323695
 11
1586.4829394304447
 21
760.05326521323695
  0
LINE
  8
_0-0_計極細
  6
CONTINUOUS
 62
    2
 10
1588.7829394304449
 20
756.05326521323673
 11
1586.4829394304447
 21
756.05326521323673
  0
LINE
  8
_0-0_計極細
  6
CONTINUOUS
 62
    2
 10
1588.7829394304449
 20
762.05326521323673
 11
1586.4829394304447
 21
762.05326521323673
  0
LINE
  8
_0-0_計極細
  6
CONTINUOUS
 62
    2
 10
1586.4829394304447
 20
742.05326521323695
 11
1588.7829394304449
 21
742.05326521323695
  0
LINE
  8
_0-0_計極細
  6
CONTINUOUS
 62
    2
 10
1588.7829394304449
 20
772.05326521323684
 11
1586.4829394304447
 21
772.05326521323684
  0
LINE
  8
_0-1_計細線
  6
CONTINUOUS
 62
    3
 10
1586.4829394304447
 20
774.05326521323673
 11
1586.4829394304447
 21
739.05326521323684
  0
LINE
  8
_0-1_計細線
  6
CONTINUOUS
 62
    3
 10
1586.4829394304447
 20
739.05326521323684
 11
1588.7829394304449
 21
739.05326521323684
  0
LINE
  8
_0-1_計細線
  6
CONTINUOUS
 62
    3
 10
1588.7829394304449
 20
739.05326521323684
 11
1588.7829394304449
 21
774.05326521323673
  0
LINE
  8
_0-1_計細線
  6
CONTINUOUS
 62
    3
 10
1588.7829394304449
 20
774.05326521323673
 11
1586.4829394304447
 21
774.05326521323673
  0
LINE
  8
_0-0_計極細
  6
CONTINUOUS
 62
    2
 10
1124.182939430445
 20
758.05326521323673
 11
1126.482939430445
 21
758.05326521323673
  0
LINE
  8
_0-0_計極細
  6
CONTINUOUS
 62
    2
 10
1124.182939430445
 20
760.05326521323695
 11
1126.482939430445
 21
760.05326521323695
  0
LINE
  8
_0-0_計極細
  6
CONTINUOUS
 62
    2
 10
1124.182939430445
 20
756.05326521323673
 11
1126.482939430445
 21
756.05326521323673
  0
LINE
  8
_0-0_計極細
  6
CONTINUOUS
 62
    2
 10
1124.182939430445
 20
762.05326521323673
 11
1126.482939430445
 21
762.05326521323673
  0
LINE
  8
_0-0_計極細
  6
CONTINUOUS
 62
    2
 10
1126.482939430445
 20
742.05326521323695
 11
1124.182939430445
 21
742.05326521323695
  0
LINE
  8
_0-0_計極細
  6
CONTINUOUS
 62
    2
 10
1124.182939430445
 20
772.05326521323684
 11
1126.482939430445
 21
772.05326521323684
  0
LINE
  8
_0-1_計細線
  6
CONTINUOUS
 62
    3
 10
1126.482939430445
 20
774.05326521323673
 11
1126.482939430445
 21
739.05326521323684
  0
LINE
  8
_0-1_計細線
  6
CONTINUOUS
 62
    3
 10
1126.482939430445
 20
739.05326521323684
 11
1124.182939430445
 21
739.05326521323684
  0
LINE
  8
_0-1_計細線
  6
CONTINUOUS
 62
    3
 10
1124.182939430445
 20
739.05326521323684
 11
1124.182939430445
 21
774.05326521323673
  0
LINE
  8
_0-1_計細線
  6
CONTINUOUS
 62
    3
 10
1124.182939430445
 20
774.05326521323673
 11
1126.482939430445
 21
774.05326521323673
  0
LINE
  8
_0-1_計細線
  6
CONTINUOUS
 62
    3
 10
1358.8329394309974
 20
789.8530462122277
 11
1358.8329394309974
 21
770.85304621222724
  0
LINE
  8
_0-1_計細線
  6
CONTINUOUS
 62
    3
 10
1354.1329394309971
 20
770.85304621222724
 11
1354.1329394309971
 21
789.8530462122277
  0
LINE
  8
_0-1_計細線
  6
CONTINUOUS
 62
    3
 10
1358.8329394309974
 20
770.85304621222724
 11
1354.1329394309971
 21
770.85304621222724
  0
LINE
  8
_0-1_計細線
  6
CONTINUOUS
 62
    3
 10
1354.1329394309971
 20
789.8530462122277
 11
1358.8329394309974
 21
789.8530462122277
  0
LINE
  8
_0-1_計細線
  6
DASHED2
 62
    3
 10
1354.1329394309971
 20
773.85304621222724
 11
1358.8329394309974
 21
773.85304621222724
  0
LINE
  8
_0-1_計細線
  6
DASHED2
 62
    3
 10
1354.1329394309971
 20
787.35304621222758
 11
1358.8329394309974
 21
787.35304621222758
  0
LINE
  8
_0-5_寸法線
  6
CONTINUOUS
 62
    7
 10
1126.4829394304447
 20
727.05326521323684
 11
1126.4829394304443
 21
673.05326521323684
  0
LINE
  8
_0-5_寸法線
  6
CONTINUOUS
 62
    7
 10
1126.4829394304443
 20
679.05326521323684
 11
1138.0740493459132
 21
682.15909375446711
  0
LINE
  8
_0-5_寸法線
  6
CONTINUOUS
 62
    7
 10
1126.4829394304443
 20
679.05326521323684
 11
1138.0740493459132
 21
675.94743667200646
  0
LINE
  8
_0-5_寸法線
  6
CONTINUOUS
 62
    7
 10
1156.4829394304447
 20
750.05326521323673
 11
1156.4829394304438
 21
673.05326521323684
  0
LINE
  8
_0-5_寸法線
  6
CONTINUOUS
 62
    7
 10
1156.4829394304438
 20
679.05326521323684
 11
1144.8918295149749
 21
675.94743667200669
  0
LINE
  8
_0-5_寸法線
  6
CONTINUOUS
 62
    7
 10
1156.4829394304438
 20
679.05326521323684
 11
1144.8918295149749
 21
682.15909375446711
  0
LINE
  8
_0-5_寸法線
  6
CONTINUOUS
 62
    7
 10
1126.4829394304443
 20
679.05326521323684
 11
1156.4829394304438
 21
679.05326521323684
  0
TEXT
  8
_0-5_寸法線
 62
    7
 10
1132.4829394304443
 20
679.05326521323684
 40
18
 41
1
 50
0
  1
30
  0
LINE
  8
_0-5_寸法線
  6
CONTINUOUS
 62
    7
 10
1156.482939430445
 20
756.05326521323673
 11
1156.482939430445
 21
673.05326521323684
  0
LINE
  8
_0-5_寸法線
  6
CONTINUOUS
 62
    7
 10
1156.482939430445
 20
679.05326521323684
 11
1168.0740493459139
 21
682.15909375446711
  0
LINE
  8
_0-5_寸法線
  6
CONTINUOUS
 62
    7
 10
1156.482939430445
 20
679.05326521323684
 11
1168.0740493459139
 21
675.94743667200646
  0
LINE
  8
_0-5_寸法線
  6
CONTINUOUS
 62
    7
 10
1556.4829394304447
 20
756.05326521323673
 11
1556.4829394304438
 21
673.05326521323684
  0
LINE
  8
_0-5_寸法線
  6
CONTINUOUS
 62
    7
 10
1556.4829394304438
 20
679.05326521323684
 11
1544.8918295149751
 21
675.94743667200669
  0
LINE
  8
_0-5_寸法線
  6
CONTINUOUS
 62
    7
 10
1556.4829394304438
 20
679.05326521323684
 11
1544.8918295149751
 21
682.15909375446711
  0
LINE
  8
_0-5_寸法線
  6
CONTINUOUS
 62
    7
 10
1156.482939430445
 20
679.05326521323684
 11
1556.4829394304438
 21
679.05326521323684
  0
TEXT
  8
_0-5_寸法線
 62
    7
 10
1342.9829394304445
 20
679.05326521323684
 40
18
 41
1
 50
0
  1
400
  0
LINE
  8
_0-5_寸法線
  6
CONTINUOUS
 62
    7
 10
1586.4829394304447
 20
727.05326521323684
 11
1586.4829394304447
 21
673.05326521323684
  0
LINE
  8
_0-5_寸法線
  6
CONTINUOUS
 62
    7
 10
1586.4829394304447
 20
679.05326521323684
 11
1574.8918295149761
 21
675.94743667200669
  0
LINE
  8
_0-5_寸法線
  6
CONTINUOUS
 62
    7
 10
1586.4829394304447
 20
679.05326521323684
 11
1574.8918295149761
 21
682.15909375446711
  0
LINE
  8
_0-5_寸法線
  6
CONTINUOUS
 62
    7
 10
1556.4829394304447
 20
750.05326521323673
 11
1556.4829394304447
 21
673.05326521323684
  0
LINE
  8
_0-5_寸法線
  6
CONTINUOUS
 62
    7
 10
1556.4829394304447
 20
679.05326521323684
 11
1568.0740493459136
 21
682.15909375446711
  0
LINE
  8
_0-5_寸法線
  6
CONTINUOUS
 62
    7
 10
1556.4829394304447
 20
679.05326521323684
 11
1568.0740493459136
 21
675.94743667200646
  0
LINE
  8
_0-5_寸法線
  6
CONTINUOUS
 62
    7
 10
1586.4829394304447
 20
679.05326521323684
 11
1556.4829394304447
 21
679.05326521323684
  0
TEXT
  8
_0-5_寸法線
 62
    7
 10
1562.4829394304447
 20
679.05326521323684
 40
18
 41
1
 50
0
  1
30
  0
LINE
  8
_0-5_寸法線
  6
CONTINUOUS
 62
    7
 10
1114.482939430445
 20
790.05326521323673
 11
1058.182939430445
 21
790.05326521323673
  0
LINE
  8
_0-5_寸法線
  6
CONTINUOUS
 62
    7
 10
1064.182939430445
 20
790.05326521323673
 11
1067.2887679716753
 21
778.46215529776782
  0
LINE
  8
_0-5_寸法線
  6
CONTINUOUS
 62
    7
 10
1064.182939430445
 20
790.05326521323673
 11
1061.0771108892145
 21
778.46215529776782
  0
LINE
  8
_0-5_寸法線
  6
CONTINUOUS
 62
    7
 10
1112.182939430445
 20
762.05326521323673
 11
1058.182939430445
 21
762.05326521323673
  0
LINE
  8
_0-5_寸法線
  6
CONTINUOUS
 62
    7
 10
1064.182939430445
 20
762.05326521323673
 11
1061.0771108892145
 21
773.64437512870552
  0
LINE
  8
_0-5_寸法線
  6
CONTINUOUS
 62
    7
 10
1064.182939430445
 20
762.05326521323673
 11
1067.2887679716753
 21
773.64437512870552
  0
LINE
  8
_0-5_寸法線
  6
CONTINUOUS
 62
    7
 10
1064.182939430445
 20
790.05326521323673
 11
1064.182939430445
 21
762.05326521323673
  0
TEXT
  8
_0-5_寸法線
 62
    7
 10
1064.182939430445
 20
767.05326521323673
 40
18
 41
1
 50
90
  1
28
  0
LINE
  8
_0-5_寸法線
  6
CONTINUOUS
 62
    7
 10
1112.1829394304448
 20
762.05326521323673
 11
1058.182939430445
 21
762.05326521323673
  0
LINE
  8
_0-5_寸法線
  6
CONTINUOUS
 62
    7
 10
1064.182939430445
 20
762.05326521323673
 11
1067.2887679716753
 21
750.46215529776794
  0
LINE
  8
_0-5_寸法線
  6
CONTINUOUS
 62
    7
 10
1064.182939430445
 20
762.05326521323673
 11
1061.0771108892145
 21
750.46215529776794
  0
LINE
  8
_0-5_寸法線
  6
CONTINUOUS
 62
    7
 10
1112.182939430445
 20
739.0532652132365
 11
1058.182939430445
 21
739.0532652132365
  0
LINE
  8
_0-5_寸法線
  6
CONTINUOUS
 62
    7
 10
1064.182939430445
 20
739.0532652132365
 11
1061.0771108892145
 21
750.64437512870529
  0
LINE
  8
_0-5_寸法線
  6
CONTINUOUS
 62
    7
 10
1064.182939430445
 20
739.0532652132365
 11
1067.2887679716753
 21
750.64437512870529
  0
LINE
  8
_0-5_寸法線
  6
CONTINUOUS
 62
    7
 10
1064.182939430445
 20
762.05326521323673
 11
1064.182939430445
 21
739.0532652132365
  0
TEXT
  8
_0-5_寸法線
 62
    7
 10
1064.182939430445
 20
741.55326521323661
 40
18
 41
1
 50
90
  1
23
  0
LINE
  8
_0-0_計極細
  6
CENTER1
 62
    2
 10
1584.9691329329657
 20
778.85304621222951
 11
1127.7743482714723
 21
778.85304621222951
  0
LINE
  8
_0-1_計細線
  6
CONTINUOUS
 62
    3
 10
1578.9829394323065
 20
778.85304621222951
 11
1581.9874554323062
 21
778.85304621222951
  0
LINE
  8
_0-1_計細線
  6
CONTINUOUS
 62
    3
 10
1578.9829394323065
 20
775.35304621222986
 11
1581.9874674323059
 21
775.35304621222986
  0
ARC
  8
_0-1_計細線
  6
CONTINUOUS
 62
    3
 10
1581.9874674323059
 20
775.55304621222967
 40
0.2
 50
269.99999999999977
 51
359.99999999999966
  0
ARC
  8
_0-1_計細線
  6
CONTINUOUS
 62
    3
 10
1574.4294874323064
 20
777.10290021223011
 40
7.7579560000000001
 50
346.96433000000042
 51
13.038021999993047
  0
ARC
  8
_0-1_計細線
  6
CONTINUOUS
 62
    3
 10
1581.9874674323059
 20
782.15304621223027
 40
0.2
 50
0
 51
89.999999999999915
  0
ARC
  8
_0-1_計細線
  6
CONTINUOUS
 62
    3
 10
1574.4294874323064
 20
780.60319021222926
 40
7.7579560000000001
 50
346.96197800000135
 51
13.035669999998861
  0
LINE
  8
_0-1_計細線
  6
CONTINUOUS
 62
    3
 10
1578.9829394323065
 20
782.35304621223008
 11
1581.9874674323059
 21
782.35304621223008
  0
LINE
  8
_0-1_計細線
  6
CONTINUOUS
 62
    3
 10
1582.1874674323067
 20
775.55304621222967
 11
1582.1874674323067
 21
782.15304621223027
  0
ARC
  8
_0-1_計細線
  6
CONTINUOUS
 62
    3
 10
1577.7829394321006
 20
772.55304621222967
 40
0.2
 50
269.99999999999977
 51
359.99999999999966
  0
ARC
  8
_0-1_計細線
  6
CONTINUOUS
 62
    3
 10
1577.7829394321006
 20
785.15304621222981
 40
0.2
 50
0
 51
89.999999999999915
  0
LINE
  8
_0-1_計細線
  6
CONTINUOUS
 62
    3
 10
1577.9829394321005
 20
778.35304621222963
 11
1577.9829394321005
 21
772.55304621222967
  0
LINE
  8
_0-1_計細線
  6
CONTINUOUS
 62
    3
 10
1577.9829394321005
 20
785.15304621222981
 11
1577.9829394321005
 21
778.35304621222963
  0
LINE
  8
_0-1_計細線
  6
CONTINUOUS
 62
    3
 10
1576.482939432663
 20
785.35304621222974
 11
1577.7829394321006
 21
785.35304621222974
  0
LINE
  8
_0-1_計細線
  6
CONTINUOUS
 62
    3
 10
1576.4829394319495
 20
772.35304621222986
 11
1577.7829394321006
 21
772.35304621222986
  0
ARC
  8
_0-1_計細線
  6
CONTINUOUS
 62
    3
 10
1578.7829394323066
 20
772.55304621222967
 40
0.2
 50
269.99999999999977
 51
359.99999999999966
  0
ARC
  8
_0-1_計細線
  6
CONTINUOUS
 62
    3
 10
1578.7829394323066
 20
785.15304621222981
 40
0.2
 50
0
 51
89.999999999999915
  0
LINE
  8
_0-1_計細線
  6
CONTINUOUS
 62
    3
 10
1578.9829394323065
 20
778.35304621222963
 11
1578.9829394323065
 21
772.55304621222967
  0
LINE
  8
_0-1_計細線
  6
CONTINUOUS
 62
    3
 10
1578.9829394323065
 20
785.15304621222981
 11
1578.9829394323065
 21
778.35304621222963
  0
LINE
  8
_0-1_計細線
  6
CONTINUOUS
 62
    3
 10
1577.7829394321018
 20
772.35304621222963
 11
1578.7829394323066
 21
772.35304621222986
  0
LINE
  8
_0-1_計細線
  6
CONTINUOUS
 62
    3
 10
1577.7829394321006
 20
785.35304621222974
 11
1578.7829394323066
 21
785.35304621222974
  0
LINE
  8
_0-1_計細線
  6
CONTINUOUS
 62
    3
 10
1133.9829394285834
 20
778.85304621222951
 11
1130.9784234285835
 21
778.85304621222951
  0
LINE
  8
_0-1_計細線
  6
CONTINUOUS
 62
    3
 10
1133.9829394285834
 20
775.35304621222986
 11
1130.978411428584
 21
775.35304621222986
  0
ARC
  8
_0-1_計細線
  6
CONTINUOUS
 62
    3
 10
1130.978411428584
 20
775.55304621222967
 40
0.2
 50
179.99999999999983
 51
269.99999999999977
  0
ARC
  8
_0-1_計細線
  6
CONTINUOUS
 62
    3
 10
1138.5363914285836
 20
777.10290021223011
 40
7.7579560000000001
 50
166.96197800000661
 51
193.03566999999887
  0
ARC
  8
_0-1_計細線
  6
CONTINUOUS
 62
    3
 10
1130.978411428584
 20
782.15304621223027
 40
0.2
 50
89.999999999999915
 51
179.99999999999983
  0
ARC
  8
_0-1_計細線
  6
CONTINUOUS
 62
    3
 10
1138.5363914285836
 20
780.60319021222926
 40
7.7579560000000001
 50
166.96433000000079
 51
193.03802199999794
  0
LINE
  8
_0-1_計細線
  6
CONTINUOUS
 62
    3
 10
1133.9829394285834
 20
782.35304621223008
 11
1130.978411428584
 21
782.35304621223008
  0
LINE
  8
_0-1_計細線
  6
CONTINUOUS
 62
    3
 10
1130.7784114285832
 20
775.55304621222967
 11
1130.7784114285832
 21
782.15304621223027
  0
ARC
  8
_0-1_計細線
  6
CONTINUOUS
 62
    3
 10
1135.182939428789
 20
772.55304621222967
 40
0.2
 50
179.99999999999983
 51
269.99999999999977
  0
ARC
  8
_0-1_計細線
  6
CONTINUOUS
 62
    3
 10
1135.182939428789
 20
785.15304621222981
 40
0.2
 50
89.999999999999915
 51
179.99999999999983
  0
LINE
  8
_0-1_計細線
  6
CONTINUOUS
 62
    3
 10
1134.9829394287892
 20
778.35304621222963
 11
1134.9829394287892
 21
772.55304621222967
  0
LINE
  8
_0-1_計細線
  6
CONTINUOUS
 62
    3
 10
1134.9829394287892
 20
785.15304621222981
 11
1134.9829394287892
 21
778.35304621222963
  0
LINE
  8
_0-1_計細線
  6
CONTINUOUS
 62
    3
 10
1136.4829394282265
 20
785.35304621222974
 11
1135.182939428789
 21
785.35304621222974
  0
LINE
  8
_0-1_計細線
  6
CONTINUOUS
 62
    3
 10
1136.48293942894
 20
772.35304621222986
 11
1135.182939428789
 21
772.35304621222986
  0
ARC
  8
_0-1_計細線
  6
CONTINUOUS
 62
    3
 10
1134.1829394285833
 20
772.55304621222967
 40
0.2
 50
179.99999999999983
 51
269.99999999999977
  0
ARC
  8
_0-1_計細線
  6
CONTINUOUS
 62
    3
 10
1134.1829394285833
 20
785.15304621222981
 40
0.2
 50
89.999999999999915
 51
179.99999999999983
  0
LINE
  8
_0-1_計細線
  6
CONTINUOUS
 62
    3
 10
1133.9829394285834
 20
778.35304621222963
 11
1133.9829394285834
 21
772.55304621222967
  0
LINE
  8
_0-1_計細線
  6
CONTINUOUS
 62
    3
 10
1133.9829394285834
 20
785.15304621222981
 11
1133.9829394285834
 21
778.35304621222963
  0
LINE
  8
_0-1_計細線
  6
CONTINUOUS
 62
    3
 10
1135.1829394287879
 20
772.35304621222963
 11
1134.1829394285833
 21
772.35304621222986
  0
LINE
  8
_0-1_計細線
  6
CONTINUOUS
 62
    3
 10
1135.182939428789
 20
785.35304621222974
 11
1134.1829394285833
 21
785.35304621222974
  0
LINE
  8
_0-5_寸法線
  6
CONTINUOUS
 62
    7
 10
1249.0829394324815
 20
802.05304621222945
 11
1249.0829394324819
 21
856.05326521323695
  0
LINE
  8
_0-5_寸法線
  6
CONTINUOUS
 62
    7
 10
1249.0829394324819
 20
850.05326521323695
 11
1237.491829517013
 21
846.94743667200692
  0
LINE
  8
_0-5_寸法線
  6
CONTINUOUS
 62
    7
 10
1249.0829394324819
 20
850.05326521323695
 11
1237.491829517013
 21
853.15909375446734
  0
LINE
  8
_0-5_寸法線
  6
CONTINUOUS
 62
    7
 10
1255.0829394340733
 20
802.05304621222945
 11
1255.0829394340735
 21
856.05326521323695
  0
LINE
  8
_0-5_寸法線
  6
CONTINUOUS
 62
    7
 10
1219.8341926124522
 20
850.05326521323695
 11
1255.0829394340735
 21
850.05326521323695
  0
TEXT
  8
_0-5_寸法線
 62
    7
 10
1219.8341926124522
 20
832.05326521323695
 40
18
 41
1
 50
0
  1
(6)
  0
LINE
  8
_0-5_寸法線
  6
CONTINUOUS
 62
    7
 10
1255.0829394340735
 20
850.05326521323695
 11
1266.6740493495424
 21
853.15909375446734
  0
LINE
  8
_0-5_寸法線
  6
CONTINUOUS
 62
    7
 10
1255.0829394340735
 20
850.05326521323695
 11
1266.6740493495424
 21
846.94743667200669
  0
LINE
  8
_0-5_寸法線
  6
CONTINUOUS
 62
    7
 10
1266.4829394318665
 20
802.05304621222956
 11
1266.4829394318667
 21
856.05326521323695
  0
LINE
  8
_0-5_寸法線
  6
CONTINUOUS
 62
    7
 10
1266.4829394318667
 20
850.05326521323695
 11
1254.8918295163976
 21
846.94743667200692
  0
LINE
  8
_0-5_寸法線
  6
CONTINUOUS
 62
    7
 10
1266.4829394318667
 20
850.05326521323695
 11
1254.8918295163976
 21
853.15909375446734
  0
LINE
  8
_0-5_寸法線
  6
CONTINUOUS
 62
    7
 10
1255.0829394340735
 20
850.05326521323695
 11
1266.4829394318667
 21
850.05326521323695
  0
TEXT
  8
_0-5_寸法線
 62
    7
 10
1238.2653037212665
 20
850.05326521323695
 40
18
 41
1
 50
0
  1
11.4
  0
LINE
  8
_0-5_寸法線
  6
CONTINUOUS
 62
    7
 10
1417.3829394291511
 20
802.05304621222945
 11
1417.3829394291511
 21
856.05326521323695
  0
LINE
  8
_0-5_寸法線
  6
CONTINUOUS
 62
    7
 10
1417.3829394291511
 20
850.05326521323695
 11
1428.9740493446202
 21
853.15909375446734
  0
LINE
  8
_0-5_寸法線
  6
CONTINUOUS
 62
    7
 10
1417.3829394291511
 20
850.05326521323695
 11
1428.9740493446202
 21
846.94743667200669
  0
LINE
  8
_0-5_寸法線
  6
CONTINUOUS
 62
    7
 10
1434.7829394285359
 20
802.05304621222945
 11
1434.7829394285361
 21
856.05326521323695
  0
LINE
  8
_0-5_寸法線
  6
CONTINUOUS
 62
    7
 10
1434.7829394285361
 20
850.05326521323695
 11
1423.1918295130672
 21
846.94743667200692
  0
LINE
  8
_0-5_寸法線
  6
CONTINUOUS
 62
    7
 10
1434.7829394285361
 20
850.05326521323695
 11
1423.1918295130672
 21
853.15909375446734
  0
LINE
  8
_0-5_寸法線
  6
CONTINUOUS
 62
    7
 10
1380.6891908905714
 20
850.05326521323695
 11
1434.7829394285361
 21
850.05326521323695
  0
TEXT
  8
_0-5_寸法線
 62
    7
 10
1380.6891908905714
 20
832.05326521323695
 40
18
 41
1
 50
0
  1
(17.4)
  0
LINE
  8
_0-5_寸法線
  6
CONTINUOUS
 62
    7
 10
1434.7829394285361
 20
850.05326521323695
 11
1446.374049344005
 21
853.15909375446722
  0
LINE
  8
_0-5_寸法線
  6
CONTINUOUS
 62
    7
 10
1434.7829394285361
 20
850.05326521323695
 11
1446.374049344005
 21
846.94743667200669
  0
LINE
  8
_0-5_寸法線
  6
CONTINUOUS
 62
    7
 10
1452.1829394279207
 20
802.05304621222945
 11
1452.1829394279209
 21
856.05326521323695
  0
LINE
  8
_0-5_寸法線
  6
CONTINUOUS
 62
    7
 10
1452.1829394279209
 20
850.05326521323695
 11
1440.591829512452
 21
846.94743667200692
  0
LINE
  8
_0-5_寸法線
  6
CONTINUOUS
 62
    7
 10
1452.1829394279209
 20
850.05326521323695
 11
1440.591829512452
 21
853.15909375446734
  0
LINE
  8
_0-5_寸法線
  6
CONTINUOUS
 62
    7
 10
1434.7829394285361
 20
850.05326521323695
 11
1452.1829394279209
 21
850.05326521323695
  0
TEXT
  8
_0-5_寸法線
 62
    7
 10
1417.5757666763789
 20
850.05326521323695
 40
18
 41
1
 50
0
  1
(17.4)
  0
LINE
  8
_0-5_寸法線
  6
CONTINUOUS
 62
    7
 10
1126.482939949515
 20
802.05326521323695
 11
1126.4829399495152
 21
898.05326521323695
  0
LINE
  8
_0-5_寸法線
  6
CONTINUOUS
 62
    7
 10
1126.4829399495152
 20
892.05326521323695
 11
1114.8918300340461
 21
888.94743667200692
  0
LINE
  8
_0-5_寸法線
  6
CONTINUOUS
 62
    7
 10
1126.4829399495152
 20
892.05326521323695
 11
1114.8918300340461
 21
895.15909375446734
  0
LINE
  8
_0-5_寸法線
  6
CONTINUOUS
 62
    7
 10
1129.482939430445
 20
802.05326521323695
 11
1129.4829394304452
 21
898.05326521323695
  0
CIRCLE
  8
_0-5_寸法線
  6
CONTINUOUS
 62
    1
 10
1129.4829394304452
 20
892.05326521323695
 40
1.7999999999999996
  0
LINE
  8
_0-5_寸法線
  6
CONTINUOUS
 62
    7
 10
1096.4829399495152
 20
892.05326521323695
 11
1129.4829394304452
 21
892.05326521323695
  0
TEXT
  8
_0-5_寸法線
 62
    7
 10
1102.4181017219398
 20
892.05326521323695
 40
18
 41
1
 50
0
  1
3
  0
LINE
  8
_0-5_寸法線
  6
CONTINUOUS
 62
    7
 10
1132.4829394304454
 20
802.05304621222945
 11
1132.4829394304456
 21
898.05326521323695
  0
LINE
  8
_0-5_寸法線
  6
CONTINUOUS
 62
    7
 10
1129.4829394304452
 20
892.05326521323695
 11
1132.4829394304456
 21
892.05326521323695
  0
TEXT
  8
_0-5_寸法線
 62
    7
 10
1133.2461553387884
 20
892.05326521323695
 40
18
 41
1
 50
0
  1
3
  0
LINE
  8
_0-5_寸法線
  6
CONTINUOUS
 62
    7
 10
1132.4829394304456
 20
892.05326521323695
 11
1144.0740493459145
 21
895.15909375446722
  0
LINE
  8
_0-5_寸法線
  6
CONTINUOUS
 62
    7
 10
1132.4829394304456
 20
892.05326521323695
 11
1144.0740493459145
 21
888.94743667200669
  0
LINE
  8
_0-5_寸法線
  6
CONTINUOUS
 62
    7
 10
1580.4829394304445
 20
802.05304621222945
 11
1580.4829394304447
 21
898.05326521323695
  0
LINE
  8
_0-5_寸法線
  6
CONTINUOUS
 62
    7
 10
1580.4829394304447
 20
892.05326521323695
 11
1568.8918295149761
 21
888.94743667200692
  0
LINE
  8
_0-5_寸法線
  6
CONTINUOUS
 62
    7
 10
1580.4829394304447
 20
892.05326521323695
 11
1568.8918295149761
 21
895.15909375446734
  0
LINE
  8
_0-5_寸法線
  6
CONTINUOUS
 62
    7
 10
1132.4829394304456
 20
892.05326521323695
 11
1580.4829394304447
 21
892.05326521323695
  0
TEXT
  8
_0-5_寸法線
 62
    7
 10
1342.9829394304452
 20
892.05326521323695
 40
18
 41
1
 50
0
  1
448
  0
LINE
  8
_0-5_寸法線
  6
CONTINUOUS
 62
    7
 10
1583.4829394304447
 20
802.05326521323695
 11
1583.4829394304452
 21
898.05326521323695
  0
CIRCLE
  8
_0-5_寸法線
  6
CONTINUOUS
 62
    1
 10
1583.4829394304452
 20
892.05326521323695
 40
1.7999999999999996
  0
LINE
  8
_0-5_寸法線
  6
CONTINUOUS
 62
    7
 10
1580.4829394304447
 20
892.05326521323695
 11
1583.4829394304452
 21
892.05326521323695
  0
TEXT
  8
_0-5_寸法線
 62
    7
 10
1568.8380384087736
 20
892.05326521323695
 40
18
 41
1
 50
0
  1
3
  0
LINE
  8
_0-5_寸法線
  6
CONTINUOUS
 62
    7
 10
1586.4829394304447
 20
802.05326521323695
 11
1586.4829394304452
 21
898.05326521323695
  0
LINE
  8
_0-5_寸法線
  6
CONTINUOUS
 62
    7
 10
1586.4829394304452
 20
892.05326521323695
 11
1598.0740493459139
 21
895.15909375446722
  0
LINE
  8
_0-5_寸法線
  6
CONTINUOUS
 62
    7
 10
1586.4829394304452
 20
892.05326521323695
 11
1598.0740493459139
 21
888.94743667200669
  0
LINE
  8
_0-5_寸法線
  6
CONTINUOUS
 62
    7
 10
1583.4829394304452
 20
892.05326521323695
 11
1616.4829394304452
 21
892.05326521323695
  0
TEXT
  8
_0-5_寸法線
 62
    7
 10
1603.590089905787
 20
892.05326521323695
 40
18
 41
1
 50
0
  1
3
  0
LINE
  8
_0-5_寸法線
  6
CONTINUOUS
 62
    7
 10
1586.4829394304447
 20
802.05326521323695
 11
1586.4829394304452
 21
940.05326521323695
  0
LINE
  8
_0-5_寸法線
  6
CONTINUOUS
 62
    7
 10
1586.4829394304452
 20
934.05326521323695
 11
1574.8918295149765
 21
930.94743667200692
  0
LINE
  8
_0-5_寸法線
  6
CONTINUOUS
 62
    7
 10
1586.4829394304452
 20
934.05326521323695
 11
1574.8918295149765
 21
937.15909375446734
  0
LINE
  8
_0-5_寸法線
  6
CONTINUOUS
 62
    7
 10
1126.482939430445
 20
802.05326521323695
 11
1126.4829394304452
 21
940.05326521323695
  0
LINE
  8
_0-5_寸法線
  6
CONTINUOUS
 62
    7
 10
1126.4829394304452
 20
934.05326521323695
 11
1138.0740493459141
 21
937.15909375446734
  0
LINE
  8
_0-5_寸法線
  6
CONTINUOUS
 62
    7
 10
1126.4829394304452
 20
934.05326521323695
 11
1138.0740493459141
 21
930.94743667200669
  0
LINE
  8
_0-5_寸法線
  6
CONTINUOUS
 62
    7
 10
1586.4829394304452
 20
934.05326521323695
 11
1126.4829394304452
 21
934.05326521323695
  0
TEXT
  8
_0-5_寸法線
 62
    7
 10
1342.9829394304452
 20
934.05326521323718
 40
18
 41
1
 50
0
  1
460
  0
TEXT
  8
_0-7_枠細線
 62
    5
 10
1296.8256030369648
 20
624.68859822962213
 40
30
 41
0.8
 50
0
  1
断面詳細図
  0
TEXT
  8
_0-7_枠細線
 62
    5
 10
1432.9070554152122
 20
627.94225367523086
 40
24.000000000000007
 41
0.5999999999999999
 50
0
  1
Ｓ＝１：６
  0
LINE
  8
_0-5_寸法線
  6
CONTINUOUS
 62
    7
 10
799.65560520464464
 20
604.37697175148514
 11
804.38902034269529
 21
615.40397411526806
  0
LINE
  8
_0-5_寸法線
  6
CONTINUOUS
 62
    7
 10
799.65560520464464
 20
604.37697175148514
 11
809.26836414274578
 21
611.55992835708685
  0
LINE
  8
_0-5_寸法線
  6
CONTINUOUS
 62
    7
 10
799.65560520464464
 20
604.37697175148514
 11
822.55152917045211
 21
633.43934292935808
  0
LINE
  8
_0-5_寸法線
  6
CONTINUOUS
 62
    7
 10
822.55152917045211
 20
633.43934292935808
 11
952.15152917045202
 21
633.43934292935808
  0
TEXT
  8
_0-5_寸法線
 62
    7
 10
822.55152917045211
 20
633.43934292935808
 40
18
 41
0.7999999999999998
 50
0
  1
ＳＵＳアングル受枠
  0
LINE
  8
_0-5_寸法線
  6
CONTINUOUS
 62
    7
 10
774.70725207528335
 20
740.09038453996141
 11
779.44066721333388
 21
751.11738690374432
  0
LINE
  8
_0-5_寸法線
  6
CONTINUOUS
 62
    7
 10
774.70725207528335
 20
740.09038453996141
 11
784.32001101338437
 21
747.27334114556311
  0
LINE
  8
_0-5_寸法線
  6
CONTINUOUS
 62
    7
 10
774.70725207528335
 20
740.09038453996141
 11
822.55152917045211
 21
800.82032676694098
  0
LINE
  8
_0-5_寸法線
  6
CONTINUOUS
 62
    7
 10
822.55152917045211
 20
800.82032676694098
 11
980.95152917045243
 21
800.82032676694098
  0
TEXT
  8
_0-5_寸法線
 62
    7
 10
822.55152917045223
 20
800.82032676694098
 40
18
 41
0.7999999999999998
 50
0
  1
セーフティグレーチング
  0
TEXT
  8
_0-5_寸法線
 62
    7
 10
823.5917289638445
 20
615.36461624409094
 40
18
 41
0.7999999999999998
 50
0
  1
ＧＳＬ－２５
  0
TEXT
  8
_0-5_寸法線
 62
    7
 10
823.51865637568858
 20
782.74560008167384
 40
18
 41
0.7999999999999998
 50
0
  1
ＧＲＳ－２５Ｋ４５０
  0
TEXT
  8
_0-5_寸法線
 62
    7
 10
182.62469937822212
 20
944.97008692508246
 40
18
 41
0.7999999999999998
 50
0
  1
(標準付属)
  0
TEXT
  8
_0-7_枠細線
 62
    5
 10
183.19487363714134
 20
984.75438143812823
 40
15
 41
0.8
 50
0
  1
２
  0
LINE
  8
_0-7_枠細線
  6
CONTINUOUS
 62
    5
 10
198.35669211536373
 20
985.12278413258468
 11
189.35669211536373
 21
1003.1227841325847
  0
LINE
  8
_0-7_枠細線
  6
CONTINUOUS
 62
    5
 10
180.35669211536373
 20
985.12278413258468
 11
198.35669211536373
 21
985.12278413258468
  0
LINE
  8
_0-7_枠細線
  6
CONTINUOUS
 62
    5
 10
189.35669211536373
 20
1003.1227841325847
 11
180.35669211536373
 21
985.12278413258468
  0
TEXT
  8
_0-7_枠細線
 62
    5
 10
205.86514623059287
 20
984.4026101716488
 40
15
 41
0.8
 50
0
  1
３
  0
LINE
  8
_0-7_枠細線
  6
CONTINUOUS
 62
    5
 10
212.02696470881509
 20
1003.0598308398664
 11
203.02696470881509
 21
985.05983083986644
  0
LINE
  8
_0-7_枠細線
  6
CONTINUOUS
 62
    5
 10
203.02696470881509
 20
985.05983083986644
 11
221.02696470881509
 21
985.05983083986644
  0
LINE
  8
_0-7_枠細線
  6
CONTINUOUS
 62
    5
 10
221.02696470881509
 20
985.05983083986644
 11
212.02696470881509
 21
1003.0598308398664
  0
LINE
  8
_0-7_枠細線
  6
CONTINUOUS
 62
    5
 10
243.48374534501068
 20
985.05983083986644
 11
234.48374534501068
 21
1003.0598308398664
  0
LINE
  8
_0-7_枠細線
  6
CONTINUOUS
 62
    5
 10
225.48374534501068
 20
985.05983083986644
 11
243.48374534501068
 21
985.05983083986644
  0
LINE
  8
_0-7_枠細線
  6
CONTINUOUS
 62
    5
 10
234.48374534501068
 20
1003.0598308398664
 11
225.48374534501068
 21
985.05983083986644
  0
TEXT
  8
_0-7_枠細線
 62
    5
 10
228.32192686678837
 20
984.4026101716488
 40
14.999999999999995
 41
0.8000000000000002
 50
0
  1
６
  0
LINE
  8
_0-5_寸法線
  6
CONTINUOUS
 62
    7
 10
430.39793289822109
 20
662.97231522212996
 11
421.91265152398262
 21
671.4575965963686
  0
LINE
  8
_0-5_寸法線
  6
CONTINUOUS
 62
    7
 10
430.39793289822109
 20
662.97231522212996
 11
427.29210435699093
 21
674.56342513759876
  0
LINE
  8
_0-5_寸法線
  6
CONTINUOUS
 62
    7
 10
430.39793289822109
 20
662.97231522212996
 11
255.96938824295981
 21
965.09141685534064
  0
LINE
  8
_0-5_寸法線
  6
CONTINUOUS
 62
    7
 10
255.96938824295981
 20
965.09141685534064
 11
183.96938824295972
 21
965.09141685534064
  0
TEXT
  8
_0-5_寸法線
 62
    7
 10
183.96938824295981
 20
965.09141685534064
 40
18
 41
0.7999999999999998
 50
0
  1
取　外　具
  0
ENDSEC
  0
EOF
