  0
SECTION
  2
HEADER
  9
$ACADVER
  1
AC1009
  9
$INSBASE
 10
0
 20
0
 30
0
  9
$EXTMIN
 10
0
 20
0
  9
$EXTMAX
 10
1485
 20
1050
  9
$LIMMIN
 10
0
 20
0
  9
$LIMMAX
 10
1485
 20
1050
  9
$LTSCALE
 40
5
  0
ENDSEC
  0
SECTION
  2
TABLES
  0
TABLE
  2
LTYPE
 70
     9
  0
LTYPE
  2
CONTINUOUS
 70
    64
  3
実線
 72
    65
 73
     0
 40
0.0
  0
LTYPE
  2
DASHED1
 70
    64
  3
--  --  --  --  --  --  --  --  
 72
    65
 73
     2
 40
2.5
 49
1.25
 49
-1.25
  0
LTYPE
  2
DASHED2
 70
    64
  3
----    ----    ----    ----    
 72
    65
 73
     2
 40
5.0
 49
2.5
 49
-2.5
  0
LTYPE
  2
DASHED3
 70
    64
  3
------  ------  ------  ------  
 72
    65
 73
     2
 40
5.0
 49
3.75
 49
-1.25
  0
LTYPE
  2
CENTER1
 70
    64
  3
----- - ----- - ----- - ----- - 
 72
    65
 73
     4
 40
10.0
 49
6.25
 49
-1.25
 49
1.25
 49
-1.25
  0
LTYPE
  2
CENTER2
 70
    64
  3
----------  --  ----------  --  
 72
    65
 73
     4
 40
20.0
 49
12.5
 49
-2.5
 49
2.5
 49
-2.5
  0
LTYPE
  2
PHANTOM1
 70
    64
  3
--- - - --- - - --- - - --- - - 
 72
    65
 73
     6
 40
10.0
 49
3.25
 49
-1.25
 49
1.25
 49
-1.25
 49
1.25
 49
-1.25
  0
LTYPE
  2
PHANTOM2
 70
    64
  3
--------  -  -  --------  -  -  
 72
    65
 73
     6
 40
20.0
 49
10.0
 49
-2.5
 49
1.25
 49
-2.5
 49
1.25
 49
-2.5
  0
LTYPE
  2
DOT
 70
    64
  3
-   -   -   -   -   -   -   -   
 72
    65
 73
     2
 40
2.5
 49
0.625
 49
-1.875
  0
LTYPE
  2
DUMMY
 70
    64
  3
ダミー
 72
    65
 73
     0
 40
0.0
  0
LTYPE
  2
RAND1
 70
    64
  3
ランダム線1
 72
    65
 73
     4
 40
10.0
 49
1.0
 49
-2.0
 49
3.0
 49
-4.0
  0
LTYPE
  2
RAND2
 70
    64
  3
ランダム線2
 72
    65
 73
     4
 40
14.0
 49
2.0
 49
-3.0
 49
4.0
 49
-5.0
  0
LTYPE
  2
RAND3
 70
    64
  3
ランダム線3
 72
    65
 73
     4
 40
18.0
 49
3.0
 49
-4.0
 49
5.0
 49
-6.0
  0
LTYPE
  2
RAND4
 70
    64
  3
ランダム線4
 72
    65
 73
     4
 40
22.0
 49
4.0
 49
-5.0
 49
6.0
 49
-7.0
  0
LTYPE
  2
RAND5
 70
    64
  3
ランダム線5
 72
    65
 73
     4
 40
26.0
 49
5.0
 49
-6.0
 49
7.0
 49
-8.0
  0
LTYPE
  2
LONG1
 70
    64
  3
----------  --  ----------  --  
 72
    65
 73
     4
 40
40.0
 49
32.5
 49
-2.5
 49
2.5
 49
-2.5
  0
LTYPE
  2
LONG2
 70
    64
  3
--------  -  -  --------  -  -  
 72
    65
 73
     6
 40
40.0
 49
30.0
 49
-2.5
 49
1.25
 49
-2.5
 49
1.25
 49
-2.5
  0
LTYPE
  2
LONG3
 70
    64
  3
+++++++++++++++..+++++++++++++++
 72
    65
 73
     2
 40
40.0
 49
37.5
 49
-2.5
  0
LTYPE
  2
LONG4
 70
    64
  3
+++++++++++++++..+++++++++++++++
 72
    65
 73
     2
 40
80.0
 49
75.0
 49
-5.0
  0
LTYPE
  2
LONG5
 70
    64
  3
----------  --  ----------  --  
 72
    65
 73
     4
 40
60.0
 49
37.5
 49
-7.5
 49
7.5
 49
-7.5
  0
LTYPE
  2
dashed
 70
   64
  3
-------   -------------   ------
 72
   65
 73
    2
 40
7.5
 49
6
 49
-1.5
  0
LTYPE
  2
dashed_spaced
 70
   64
  3
----        --------        ----
 72
   65
 73
    2
 40
12
 49
6
 49
-6
  0
LTYPE
  2
long_dashed_dotted
 70
   64
  3
------------- --- --------------
 72
   65
 73
    4
 40
15.25
 49
12
 49
-1.5
 49
0.25
 49
-1.5
  0
LTYPE
  2
long_dashed_double-dotted
 70
   64
  3
----------- --- --- ------------
 72
   65
 73
    6
 40
17
 49
12
 49
-1.5
 49
0.25
 49
-1.5
 49
0.25
 49
-1.5
  0
LTYPE
  2
long_dashed_triplicate-dotted
 70
   64
  3
--------- --- --- --- ----------
 72
   65
 73
    8
 40
18.75
 49
12
 49
-1.5
 49
0.25
 49
-1.5
 49
0.25
 49
-1.5
 49
0.25
 49
-1.5
  0
LTYPE
  2
dotted
 70
   64
  3
   -       -       -       -    
 72
   65
 73
    2
 40
1.75
 49
0.25
 49
-1.5
  0
LTYPE
  2
chain
 70
   64
  3
-------------- -- --------------
 72
   65
 73
    4
 40
18.5
 49
12
 49
-1.5
 49
3.5
 49
-1.5
  0
LTYPE
  2
chain_double_dash
 70
   64
  3
------------ -- -- -------------
 72
   65
 73
    6
 40
23.5
 49
12
 49
-1.5
 49
3.5
 49
-1.5
 49
3.5
 49
-1.5
  0
LTYPE
  2
dashed_dotted
 70
   64
  3
-----------     -     ----------
 72
   65
 73
    4
 40
9.25
 49
6
 49
-1.5
 49
0.25
 49
-1.5
  0
LTYPE
  2
double-dashed_dotted
 70
   64
  3
------   -----------   -   -----
 72
   65
 73
    6
 40
16.75
 49
6
 49
-1.5
 49
6
 49
-1.5
 49
0.25
 49
-1.5
  0
LTYPE
  2
dashed_double-dotted
 70
   64
  3
---------    -    -    ---------
 72
   65
 73
    6
 40
11
 49
6
 49
-1.5
 49
0.25
 49
-1.5
 49
0.25
 49
-1.5
  0
LTYPE
  2
double-dashed_double-dotted
 70
   64
  3
-----   ---------   -   -   ----
 72
   65
 73
    8
 40
18.5
 49
6
 49
-1.5
 49
6
 49
-1.5
 49
0.25
 49
-1.5
 49
0.25
 49
-1.5
  0
LTYPE
  2
dashed_triplicate-dotted
 70
   64
  3
-------    -    -    -    ------
 72
   65
 73
    8
 40
12.75
 49
6
 49
-1.5
 49
0.25
 49
-1.5
 49
0.25
 49
-1.5
 49
0.25
 49
-1.5
  0
LTYPE
  2
double-dashed_triplicate-dotted
 70
   64
  3
-----  ---------  -  -  -  -----
 72
   65
 73
   10
 40
20.25
 49
6
 49
-1.5
 49
6
 49
-1.5
 49
0.25
 49
-1.5
 49
0.25
 49
-1.5
 49
0.25
 49
-1.5
  0
LTYPE
  2
undefined
 70
   64
  3
--------------------------------
 72
   65
 73
    0
 40
0
  0
ENDTAB
  0
TABLE
  2
STYLE
  5
3
100
AcDbSymbolTable
 70
     1
  0
STYLE
  5
10
100
AcDbSymbolTableRecord
100
AcDbTextStyleTableRecord
  2
STANDARD
 70
     0
 40
0.0
 41
1.0
 50
0.0
 71
     0
 42
0.2
  3
txt
  4
bigfont.shx
  0
STYLE
  5
26
100
AcDbSymbolTableRecord
100
AcDbTextStyleTableRecord
  2
TATEGAKI
 70
    68
 40
0.0
 41
1.0
 50
0.0
 71
     0
 42
1.0
  3
txt
  4
bigfont.shx
  0
ENDTAB
  0
TABLE
  2
LAYER
 70
   10
  0
LAYER
  2
_0-0_計極細
 70
   64
 62
    7
  6
CONTINUOUS
  0
LAYER
  2
_0-1_計細線
 70
   64
 62
    7
  6
CONTINUOUS
  0
LAYER
  2
_0-5_寸法線
 70
   64
 62
    7
  6
CONTINUOUS
  0
LAYER
  2
_0-7_枠細線
 70
   64
 62
    7
  6
CONTINUOUS
  0
LAYER
  2
_0-8_枠中線
 70
   64
 62
    7
  6
CONTINUOUS
  0
LAYER
  2
_0-9_枠極太
 70
   64
 62
    7
  6
CONTINUOUS
  0
LAYER
  2
_0-a_極細3
 70
   64
 62
    7
  6
CONTINUOUS
  0
LAYER
  2
_0-b_細線3
 70
   64
 62
    7
  6
CONTINUOUS
  0
LAYER
  2
_0-d_寸法3
 70
   64
 62
    7
  6
CONTINUOUS
  0
LAYER
  2
ADD_LINE
 70
   64
 62
    7
  6
CONTINUOUS
  0
ENDTAB
  0
ENDSEC
  0
SECTION
  2
BLOCKS
  0
ENDSEC
  0
SECTION
  2
ENTITIES
  0
LINE
  8
_0-7_枠細線
  6
CONTINUOUS
 62
    5
 10
1185
 20
180
 11
1185
 21
100
  0
TEXT
  8
_0-7_枠細線
 62
    5
 10
937.5
 20
97.5
 40
17.5
 41
1
 50
0
  1
備考
  7
TATEGAKI
  0
TEXT
  8
_0-7_枠細線
 62
    5
 10
937.5
 20
137.5
 40
17.5
 41
1
 50
0
  1
品番
  7
TATEGAKI
  0
TEXT
  8
_0-7_枠細線
 62
    5
 10
937.5
 20
177.5
 40
17.5
 41
1
 50
0
  1
品名
  7
TATEGAKI
  0
LINE
  8
_0-7_枠細線
  6
CONTINUOUS
 62
    5
 10
1185
 20
140
 11
925
 21
140
  0
LINE
  8
_0-7_枠細線
  6
CONTINUOUS
 62
    5
 10
950
 20
180
 11
950
 21
60
  0
LINE
  8
_0-8_枠中線
  6
CONTINUOUS
 62
    5
 10
1425
 20
180
 11
925
 21
180
  0
LINE
  8
_0-8_枠中線
  6
CONTINUOUS
 62
    5
 10
925
 20
180
 11
925
 21
60
  0
LINE
  8
_0-7_枠細線
  6
CONTINUOUS
 62
    5
 10
1245
 20
180
 11
1245
 21
60
  0
TEXT
  8
_0-7_枠細線
 62
    5
 10
1192.5
 20
160
 40
15
 41
1
 50
0
  1
縮　尺
  0
TEXT
  8
_0-7_枠細線
 62
    5
 10
1194
 20
117.5
 40
20
 41
0.7
 50
0
  1
１：５
  0
LINE
  8
_0-7_枠細線
  6
CONTINUOUS
 62
    5
 10
1185
 20
155
 11
1245
 21
155
  0
LINE
  8
_0-7_枠細線
  6
CONTINUOUS
 62
    5
 10
1245
 20
100
 11
925
 21
100
  0
LINE
  8
_0-7_枠細線
  6
CONTINUOUS
 62
    5
 10
1425
 20
90
 11
1245
 21
90
  0
LINE
  8
_0-7_枠細線
  6
CONTINUOUS
 62
    5
 10
1245
 20
120
 11
1425
 21
120
  0
LINE
  8
_0-7_枠細線
  6
CONTINUOUS
 62
    5
 10
1425
 20
140
 11
1245
 21
140
  0
TEXT
  8
_0-7_枠細線
 62
    5
 10
1255
 20
147.5
 40
25
 41
0.8
 50
0
  1
株式会社シマブン
  0
TEXT
  8
_0-7_枠細線
 62
    5
 10
1252.5
 20
60
 40
15
 41
1
 50
0
  1
年月日
  0
TEXT
  8
_0-7_枠細線
 62
    5
 10
1252.5
 20
75
 40
15
 41
1
 50
0
  1
作　成
  0
TEXT
  8
_0-7_枠細線
 62
    5
 10
1250
 20
95
 40
20
 41
1
 50
0
  1
島 英
  0
TEXT
  8
_0-7_枠細線
 62
    5
 10
1256.25
 20
122.5
 40
15
 41
1
 50
0
  1
承 認
  0
LINE
  8
_0-7_枠細線
  6
CONTINUOUS
 62
    5
 10
1305
 20
140
 11
1305
 21
60
  0
TEXT
  8
_0-7_枠細線
 62
    5
 10
1315
 20
95
 40
20
 41
1
 50
0
  1
隠塚
  0
TEXT
  8
_0-7_枠細線
 62
    5
 10
1316.25
 20
122.5
 40
15
 41
1
 50
0
  1
検 図
  0
LINE
  8
_0-7_枠細線
  6
CONTINUOUS
 62
    5
 10
1365
 20
140
 11
1365
 21
90
  0
TEXT
  8
_0-7_枠細線
 62
    5
 10
1375
 20
95
 40
20
 41
1
 50
0
  1
藤戸
  0
TEXT
  8
_0-7_枠細線
 62
    5
 10
1376.25
 20
122.5
 40
15
 41
1
 50
0
  1
設 計
  0
TEXT
  8
_0-7_枠細線
 62
    5
 10
965.50000000000011
 20
150
 40
20
 41
0.6
 50
0
  1
セーフティグレーチングＨ２５タイプ
  0
LINE
  8
_0-a_極細3
  6
CENTER1
 62
    7
 10
493.0754906479404
 20
227.52699371523795
 11
493.0754906479404
 21
299.31032704857762
  0
LINE
  8
_0-a_極細3
  6
CONTINUOUS
 62
    7
 10
251.40882398127317
 20
232.04615653402107
 11
251.40882398127317
 21
163.71282320068758
  0
LINE
  8
_0-a_極細3
  6
CONTINUOUS
 62
    7
 10
334.74215731460669
 20
163.71282320068758
 11
251.40882398127317
 21
163.71282320068758
  0
LINE
  8
_0-a_極細3
  6
CONTINUOUS
 62
    7
 10
251.40882398127317
 20
232.04615653402107
 11
220.56441016949208
 21
232.04615653402107
  0
LINE
  8
_0-a_極細3
  6
CONTINUOUS
 62
    7
 10
334.74215731460669
 20
163.71282320068758
 11
334.74215731460669
 21
137.47122290590866
  0
LINE
  8
_0-a_極細3
  6
CONTINUOUS
 62
    7
 10
297.32018274961689
 20
137.47122302234538
 11
323.56178292795954
 21
163.71282320068758
  0
LINE
  8
_0-a_極細3
  6
CONTINUOUS
 62
    7
 10
226.60950485097558
 20
137.47122324235875
 11
252.85110480930462
 21
163.71282320068758
  0
LINE
  8
_0-a_極細3
  6
CONTINUOUS
 62
    7
 10
220.56441016949208
 20
202.13680667952985
 11
250.47376002398323
 21
232.04615653402107
  0
LINE
  8
_0-a_極細3
  6
CONTINUOUS
 62
    7
 10
290.24911495975266
 20
137.47122304434674
 11
316.49071511609378
 21
163.71282320068758
  0
LINE
  8
_0-a_極細3
  6
CONTINUOUS
 62
    7
 10
220.56441016949208
 20
138.49719637274077
 11
251.40882398127317
 21
169.3416101845223
  0
LINE
  8
_0-a_極細3
  6
CONTINUOUS
 62
    7
 10
220.56441016949208
 20
209.20787449139564
 11
243.40269221211747
 21
232.04615653402107
  0
LINE
  8
_0-a_極細3
  6
CONTINUOUS
 62
    7
 10
283.17804716988894
 20
137.47122306634807
 11
309.41964730422842
 21
163.71282320068758
  0
LINE
  8
_0-a_極細3
  6
CONTINUOUS
 62
    7
 10
220.56441016949208
 20
145.56826418460602
 11
251.40882398127317
 21
176.41267799638769
  0
LINE
  8
_0-a_極細3
  6
CONTINUOUS
 62
    7
 10
220.56441016949208
 20
216.27894230326092
 11
236.33162440025217
 21
232.04615653402107
  0
CIRCLE
  8
_0-a_極細3
  6
CONTINUOUS
 62
    7
 10
238.46029801265928
 20
247.24956695068116
 40
0.5530864197530718
  0
CIRCLE
  8
_0-a_極細3
  6
CONTINUOUS
 62
    7
 10
228.12943381512881
 20
237.29401139512586
 40
0.5530864197530718
  0
CIRCLE
  8
_0-a_極細3
  6
CONTINUOUS
 62
    7
 10
238.73684122253599
 20
238.36067806179244
 40
0.5530864197530718
  0
CIRCLE
  8
_0-a_極細3
  6
CONTINUOUS
 62
    7
 10
251.35906344475828
 20
240.31623361734773
 40
0.5530864197530718
  0
CIRCLE
  8
_0-a_極細3
  6
CONTINUOUS
 62
    7
 10
279.80350788920219
 20
252.04956695068088
 40
0.5530864197530718
  0
CIRCLE
  8
_0-a_極細3
  6
CONTINUOUS
 62
    7
 10
304.69239677809082
 20
262.0051225062366
 40
0.5530864197530718
  0
CIRCLE
  8
_0-a_極細3
  6
CONTINUOUS
 62
    7
 10
310.38128566697969
 20
245.82734472845871
 40
0.5530864197530718
  0
CIRCLE
  8
_0-a_極細3
  6
CONTINUOUS
 62
    7
 10
285.49239677809101
 20
245.29401139512541
 40
0.5530864197530718
  0
CIRCLE
  8
_0-a_極細3
  6
CONTINUOUS
 62
    7
 10
273.75906344475794
 20
260.22734472845877
 40
0.5530864197530718
  0
CIRCLE
  8
_0-a_極細3
  6
CONTINUOUS
 62
    7
 10
258.30350788920259
 20
233.06067806179229
 40
0.5530864197530718
  0
CIRCLE
  8
_0-a_極細3
  6
CONTINUOUS
 62
    7
 10
278.74795233364648
 20
231.81623361734776
 40
0.5530864197530718
  0
CIRCLE
  8
_0-a_極細3
  6
CONTINUOUS
 62
    7
 10
303.81461900031309
 20
228.08290028401461
 40
0.5530864197530718
  0
CIRCLE
  8
_0-a_極細3
  6
CONTINUOUS
 62
    7
 10
291.19239677809082
 20
222.39401139512577
 40
0.5530864197530718
  0
CIRCLE
  8
_0-a_極細3
  6
CONTINUOUS
 62
    7
 10
276.4368412225358
 20
208.88290028401482
 40
0.5530864197530718
  0
CIRCLE
  8
_0-a_極細3
  6
CONTINUOUS
 62
    7
 10
303.81461900031309
 20
216.1717891729036
 40
0.5530864197530718
  0
CIRCLE
  8
_0-a_極細3
  6
CONTINUOUS
 62
    7
 10
262.70350788920223
 20
189.06067806179271
 40
0.5530864197530718
  0
CIRCLE
  8
_0-a_極細3
  6
CONTINUOUS
 62
    7
 10
257.01461900031336
 20
171.10512250623742
 40
0.5530864197530718
  0
CIRCLE
  8
_0-a_極細3
  6
CONTINUOUS
 62
    7
 10
265.72573011142458
 20
177.8606780617929
 40
0.5530864197530718
  0
CIRCLE
  8
_0-a_極細3
  6
CONTINUOUS
 62
    7
 10
271.94795233364675
 20
169.32734472845965
 40
0.5530864197530718
  0
CIRCLE
  8
_0-a_極細3
  6
CONTINUOUS
 62
    7
 10
311.24795233364648
 20
187.21623361734828
 40
0.5530864197530718
  0
CIRCLE
  8
_0-a_極細3
  6
CONTINUOUS
 62
    7
 10
300.04795233364666
 20
181.7051225062373
 40
0.5530864197530718
  0
CIRCLE
  8
_0-a_極細3
  6
CONTINUOUS
 62
    7
 10
306.27017455586883
 20
179.21623361734831
 40
0.5530864197530718
  0
CIRCLE
  8
_0-a_極細3
  6
CONTINUOUS
 62
    7
 10
302.71461900031318
 20
169.97178917290375
 40
0.5530864197530718
  0
CIRCLE
  8
_0-a_極細3
  6
CONTINUOUS
 62
    7
 10
322.62573011142422
 20
171.03845583957082
 40
0.5530864197530718
  0
CIRCLE
  8
_0-a_極細3
  6
CONTINUOUS
 62
    7
 10
335.60350788920186
 20
174.23845583957061
 40
0.5530864197530718
  0
CIRCLE
  8
_0-a_極細3
  6
CONTINUOUS
 62
    7
 10
349.29239677809073
 20
159.30512250623721
 40
0.5530864197530718
  0
CIRCLE
  8
_0-a_極細3
  6
CONTINUOUS
 62
    7
 10
342.35906344475734
 20
144.3717891729041
 40
0.5530864197530718
  0
CIRCLE
  8
_0-a_極細3
  6
CONTINUOUS
 62
    7
 10
325.69239677809088
 20
187.98660398771887
 40
0.5530864197530718
  0
CIRCLE
  8
_0-a_極細3
  6
CONTINUOUS
 62
    7
 10
340.4479523336463
 20
222.11993732105157
 40
0.5530864197530718
  0
CIRCLE
  8
_0-a_極細3
  6
CONTINUOUS
 62
    7
 10
355.55906344475716
 20
212.1643817654963
 40
0.5530864197530718
  0
CIRCLE
  8
_0-a_極細3
  6
CONTINUOUS
 62
    7
 10
356.09239677809052
 20
194.20882620994098
 40
0.5530864197530718
  0
CIRCLE
  8
_0-a_極細3
  6
CONTINUOUS
 62
    7
 10
320.84795233364639
 20
223.9421595432741
 40
0.5530864197530718
  0
CIRCLE
  8
_0-a_極細3
  6
CONTINUOUS
 62
    7
 10
300.55906344475761
 20
245.92611016055756
 40
1.825531472681392
  0
CIRCLE
  8
_0-a_極細3
  6
CONTINUOUS
 62
    7
 10
248.7969437433226
 20
252.85572443525552
 40
1.825531472681392
  0
CIRCLE
  8
_0-a_極細3
  6
CONTINUOUS
 62
    7
 10
297.73684122253553
 20
212.99277682722462
 40
1.825531472681392
  0
CIRCLE
  8
_0-a_極細3
  6
CONTINUOUS
 62
    7
 10
275.33684122253544
 20
223.12611016055783
 40
1.825531472681392
  0
CIRCLE
  8
_0-a_極細3
  6
CONTINUOUS
 62
    7
 10
255.73684122253553
 20
185.12611016055828
 40
1.825531472681392
  0
CIRCLE
  8
_0-a_極細3
  6
CONTINUOUS
 62
    7
 10
308.93684122253489
 20
172.32611016055856
 40
1.825531472681392
  0
CIRCLE
  8
_0-a_極細3
  6
CONTINUOUS
 62
    7
 10
344.91461900031254
 20
168.72611016055862
 40
1.825531472681392
  0
CIRCLE
  8
_0-a_極細3
  6
CONTINUOUS
 62
    7
 10
349.71461900031227
 20
150.0594434938921
 40
1.825531472681392
  0
LINE
  8
_0-a_極細3
  6
CONTINUOUS
 62
    7
 10
309.74215731460663
 20
285.37948986735455
 11
309.74215731460663
 21
273.71282320068758
  0
LINE
  8
_0-a_極細3
  6
CONTINUOUS
 62
    7
 10
309.74215731460663
 20
285.37948986735455
 11
220.56441016949208
 21
285.37948986735455
  0
LINE
  8
_0-a_極細3
  6
CONTINUOUS
 62
    7
 10
318.07549064794017
 20
273.71282320068758
 11
220.56441016949208
 21
273.71282320068758
  0
LINE
  8
_0-a_極細3
  6
CONTINUOUS
 62
    7
 10
318.07549064794017
 20
285.37948986735455
 11
309.74215731460663
 21
285.37948986735455
  0
LINE
  8
_0-a_極細3
  6
CONTINUOUS
 62
    7
 10
318.07549064794017
 20
284.54615653402107
 11
318.07549064794017
 21
285.37948986735455
  0
LINE
  8
_0-a_極細3
  6
CONTINUOUS
 62
    7
 10
317.87740039158052
 20
273.71282320068758
 11
318.07549064793966
 21
273.91091345704717
  0
LINE
  8
_0-a_極細3
  6
CONTINUOUS
 62
    7
 10
313.63475970446143
 20
273.71282320068758
 11
318.07549064794017
 21
278.15355414416626
  0
LINE
  8
_0-a_極細3
  6
CONTINUOUS
 62
    7
 10
309.74215731460663
 20
274.06286149795233
 11
318.07549064794017
 21
282.39619483128581
  0
LINE
  8
_0-a_極細3
  6
CONTINUOUS
 62
    7
 10
309.74215731460663
 20
278.30550218507142
 11
316.81614499688931
 21
285.37948986735455
  0
LINE
  8
_0-a_極細3
  6
CONTINUOUS
 62
    7
 10
309.74215731460663
 20
282.54814287219097
 11
312.57350430977027
 21
285.37948986735455
  0
LINE
  8
_0-a_極細3
  6
CONTINUOUS
 62
    7
 10
318.07549064794017
 20
283.09852299509612
 11
315.79452377568174
 21
285.37948986735455
  0
LINE
  8
_0-a_極細3
  6
CONTINUOUS
 62
    7
 10
318.07549064794017
 20
278.85588230797657
 11
311.55188308856214
 21
285.37948986735455
  0
LINE
  8
_0-a_極細3
  6
CONTINUOUS
 62
    7
 10
309.74215731460663
 20
282.94657495419096
 11
318.07549064794017
 21
274.61324162085748
  0
LINE
  8
_0-a_極細3
  6
CONTINUOUS
 62
    7
 10
309.74215731460663
 20
278.70393426707142
 11
314.73326838099001
 21
273.71282320068758
  0
LINE
  8
_0-a_極細3
  6
CONTINUOUS
 62
    7
 10
309.74215731460663
 20
274.46129357995233
 11
310.49062769387092
 21
273.71282320068758
  0
LINE
  8
_0-a_極細3
  6
CONTINUOUS
 62
    7
 10
300.90683763697598
 20
273.71282319456031
 11
309.74215731460663
 21
282.54814287219097
  0
LINE
  8
_0-a_極細3
  6
CONTINUOUS
 62
    7
 10
279.69363418666859
 20
273.71282317984924
 11
291.36030087417384
 21
285.37948986735455
  0
LINE
  8
_0-a_極細3
  6
CONTINUOUS
 62
    7
 10
258.48043073636063
 20
273.71282316513771
 11
270.14709743857708
 21
285.37948986735455
  0
LINE
  8
_0-a_極細3
  6
CONTINUOUS
 62
    7
 10
237.26722728605273
 20
273.71282315042663
 11
248.93389400298062
 21
285.37948986735455
  0
LINE
  8
_0-a_極細3
  6
CONTINUOUS
 62
    7
 10
220.56441016949208
 20
278.22320946946184
 11
227.72069056738431
 21
285.37948986735455
  0
LINE
  8
_0-a_極細3
  6
DASHED2
 62
    7
 10
290.30023591182226
 20
273.71282318720478
 11
301.96690259197203
 21
285.37948986735455
  0
LINE
  8
_0-a_極細3
  6
DASHED2
 62
    7
 10
269.08703246151435
 20
273.7128231724937
 11
280.75369915637566
 21
285.37948986735455
  0
LINE
  8
_0-a_極細3
  6
DASHED2
 62
    7
 10
247.87382901120694
 20
273.71282315778217
 11
259.54049572077884
 21
285.37948986735455
  0
LINE
  8
_0-a_極細3
  6
DASHED2
 62
    7
 10
226.66062556089898
 20
273.71282314307109
 11
238.32729228518247
 21
285.37948986735455
  0
CIRCLE
  8
_0-a_極細3
  6
CONTINUOUS
 62
    7
 10
228.12943381512881
 20
266.91376448154506
 40
0.5530864197530718
  0
CIRCLE
  8
_0-a_極細3
  6
CONTINUOUS
 62
    7
 10
243.18128566698036
 20
266.36067806179199
 40
0.5530864197530718
  0
CIRCLE
  8
_0-a_極細3
  6
CONTINUOUS
 62
    7
 10
288.51461900031336
 20
260.40512250623669
 40
0.5530864197530718
  0
CIRCLE
  8
_0-a_極細3
  6
CONTINUOUS
 62
    7
 10
287.75906344475789
 20
264.72611016055771
 40
1.825531472681392
  0
CIRCLE
  8
_0-a_極細3
  6
CONTINUOUS
 62
    7
 10
228.59986420224323
 20
253.74833238278006
 40
1.825531472681392
  0
LINE
  8
_0-a_極細3
  6
CONTINUOUS
 62
    7
 10
367.24215731460669
 20
238.71282320068758
 11
368.07549064794011
 21
238.71282320068758
  0
LINE
  8
_0-a_極細3
  6
CONTINUOUS
 62
    7
 10
368.07549064794011
 20
238.71282320068758
 11
368.07549064794011
 21
137.47122290590866
  0
ARC
  8
_0-b_細線3
  6
CONTINUOUS
 62
    7
 10
323.07549064794011
 20
243.71282320068758
 40
5
 50
179.99999999999983
 51
269.99999999999977
  0
LINE
  8
_0-b_細線3
  6
CONTINUOUS
 62
    7
 10
318.07549064794017
 20
243.71282320068758
 11
318.07549064794017
 21
284.54615653402107
  0
LINE
  8
_0-b_細線3
  6
CONTINUOUS
 62
    7
 10
323.07549064794011
 20
238.71282320068758
 11
367.24215731460669
 21
238.71282320068758
  0
LINE
  8
_0-b_細線3
  6
CONTINUOUS
 62
    7
 10
368.07549064794011
 20
239.54615653402107
 11
367.24215731460669
 21
238.71282320068758
  0
LINE
  8
_0-b_細線3
  6
CONTINUOUS
 62
    7
 10
368.07549064794011
 20
242.87948986735458
 11
368.07549064794011
 21
239.54615653402107
  0
LINE
  8
_0-b_細線3
  6
CONTINUOUS
 62
    7
 10
367.24215731460669
 20
243.71282320068758
 11
368.07549064794011
 21
242.87948986735458
  0
LINE
  8
_0-b_細線3
  6
CONTINUOUS
 62
    7
 10
323.07549064794011
 20
243.71282320068758
 11
367.24215731460669
 21
243.71282320068758
  0
LINE
  8
_0-b_細線3
  6
CONTINUOUS
 62
    7
 10
318.90882398127314
 20
285.37948986735455
 11
318.07549064794017
 21
284.54615653402107
  0
LINE
  8
_0-b_細線3
  6
CONTINUOUS
 62
    7
 10
322.24215731460669
 20
285.37948986735455
 11
318.90882398127314
 21
285.37948986735455
  0
LINE
  8
_0-b_細線3
  6
CONTINUOUS
 62
    7
 10
323.07549064794011
 20
284.54615653402107
 11
322.24215731460669
 21
285.37948986735455
  0
LINE
  8
_0-b_細線3
  6
CONTINUOUS
 62
    7
 10
323.07549064794011
 20
243.71282320068758
 11
323.07549064794011
 21
284.54615653402107
  0
CIRCLE
  8
_0-a_極細3
  6
CONTINUOUS
 62
    7
 10
361.18805650031118
 20
222.72611016055819
 40
1.825531472681392
  0
CIRCLE
  8
_0-a_極細3
  6
CONTINUOUS
 62
    7
 10
360.19610048179402
 20
168.01623361734846
 40
0.5530864197530718
  0
CIRCLE
  8
_0-a_極細3
  6
CONTINUOUS
 62
    7
 10
361.52943381512796
 20
145.3601625841784
 40
0.5530864197530718
  0
CIRCLE
  8
_0-a_極細3
  6
CONTINUOUS
 62
    7
 10
349.15906344475297
 20
203.61499904944736
 40
1.825531472681392
  0
LINE
  8
_0-a_極細3
  6
CONTINUOUS
 62
    7
 10
734.74215731460663
 20
232.04615653402107
 11
734.74215731460663
 21
163.71282320068758
  0
LINE
  8
_0-a_極細3
  6
CONTINUOUS
 62
    7
 10
651.4088239812736
 20
163.71282320068758
 11
734.74215731460663
 21
163.71282320068758
  0
LINE
  8
_0-a_極細3
  6
CONTINUOUS
 62
    7
 10
734.74215731460663
 20
232.04615653402107
 11
765.58657112638821
 21
232.04615653402107
  0
LINE
  8
_0-a_極細3
  6
CONTINUOUS
 62
    7
 10
651.4088239812736
 20
163.71282320068758
 11
651.4088239812736
 21
137.47122290590866
  0
LINE
  8
_0-a_極細3
  6
CONTINUOUS
 62
    7
 10
743.03215972919998
 20
137.47122290590866
 11
765.58657116792904
 21
160.02563434463767
  0
LINE
  8
_0-a_極細3
  6
CONTINUOUS
 62
    7
 10
672.32148161054511
 20
137.47122290590866
 11
698.563081905324
 21
163.71282320068758
  0
LINE
  8
_0-a_極細3
  6
CONTINUOUS
 62
    7
 10
734.74215731460663
 20
199.89189860997072
 11
765.58657112714354
 21
230.73631242250713
  0
LINE
  8
_0-a_極細3
  6
CONTINUOUS
 62
    7
 10
735.96109191733422
 20
137.47122290590866
 11
765.58657116385029
 21
167.09670215242483
  0
LINE
  8
_0-a_極細3
  6
CONTINUOUS
 62
    7
 10
665.25041379867946
 20
137.47122290590866
 11
691.49201409345881
 21
163.71282320068758
  0
LINE
  8
_0-a_極細3
  6
CONTINUOUS
 62
    7
 10
734.74215731460663
 20
206.96296642183597
 11
759.82534724724155
 21
232.0461563544709
  0
LINE
  8
_0-a_極細3
  6
CONTINUOUS
 62
    7
 10
728.89002410546891
 20
137.47122290590866
 11
765.58657115977167
 21
174.16776996021142
  0
LINE
  8
_0-a_極細3
  6
CONTINUOUS
 62
    7
 10
658.17934598681404
 20
137.47122290590866
 11
684.42094628159339
 21
163.71282320068758
  0
LINE
  8
_0-a_極細3
  6
CONTINUOUS
 62
    7
 10
734.74215731460663
 20
214.03403423370128
 11
752.75427948599247
 21
232.04615640508703
  0
CIRCLE
  8
_0-a_極細3
  6
CONTINUOUS
 62
    7
 10
637.81461900031081
 20
222.5671595432741
 40
0.5530864197530718
  0
CIRCLE
  8
_0-a_極細3
  6
CONTINUOUS
 62
    7
 10
647.77017455586611
 20
227.36715954327383
 40
0.5530864197530718
  0
CIRCLE
  8
_0-a_極細3
  6
CONTINUOUS
 62
    7
 10
643.6812856669776
 20
202.38938176549624
 40
0.5530864197530718
  0
CIRCLE
  8
_0-a_極細3
  6
CONTINUOUS
 62
    7
 10
661.2146190003109
 20
185.36715954327434
 40
0.5530864197530718
  0
CIRCLE
  8
_0-a_極細3
  6
CONTINUOUS
 62
    7
 10
643.38128566697742
 20
162.06715954327456
 40
0.5530864197530718
  0
CIRCLE
  8
_0-a_極細3
  6
CONTINUOUS
 62
    7
 10
634.04795233364439
 20
144.20049287660802
 40
0.5530864197530718
  0
CIRCLE
  8
_0-a_極細3
  6
CONTINUOUS
 62
    7
 10
645.51461900031074
 20
174.06715954327453
 40
0.5530864197530718
  0
CIRCLE
  8
_0-a_極細3
  6
CONTINUOUS
 62
    7
 10
659.38128566697742
 20
169.26715954327435
 40
0.5530864197530718
  0
CIRCLE
  8
_0-a_極細3
  6
CONTINUOUS
 62
    7
 10
686.31461900031081
 20
169.53382620994125
 40
0.5530864197530718
  0
CIRCLE
  8
_0-a_極細3
  6
CONTINUOUS
 62
    7
 10
674.31461900031081
 20
178.60049287660786
 40
0.5530864197530718
  0
CIRCLE
  8
_0-a_極細3
  6
CONTINUOUS
 62
    7
 10
685.51461900031074
 20
184.20049287660774
 40
0.5530864197530718
  0
CIRCLE
  8
_0-a_極細3
  6
CONTINUOUS
 62
    7
 10
676.02573011142158
 20
258.22271509882921
 40
0.5530864197530718
  0
CIRCLE
  8
_0-a_極細3
  6
CONTINUOUS
 62
    7
 10
673.53684122253253
 20
238.48938176549609
 40
0.5530864197530718
  0
CIRCLE
  8
_0-a_極細3
  6
CONTINUOUS
 62
    7
 10
694.07017455586583
 20
237.77827065438487
 40
0.5530864197530718
  0
CIRCLE
  8
_0-a_極細3
  6
CONTINUOUS
 62
    7
 10
682.47017455586604
 20
223.77827065438487
 40
0.5530864197530718
  0
CIRCLE
  8
_0-a_極細3
  6
CONTINUOUS
 62
    7
 10
721.67017455586574
 20
170.57827065438551
 40
0.5530864197530718
  0
CIRCLE
  8
_0-a_極細3
  6
CONTINUOUS
 62
    7
 10
728.87017455586556
 20
184.57827065438551
 40
0.5530864197530718
  0
CIRCLE
  8
_0-a_極細3
  6
CONTINUOUS
 62
    7
 10
727.2701745558652
 20
205.37827065438523
 40
0.5530864197530718
  0
CIRCLE
  8
_0-a_極細3
  6
CONTINUOUS
 62
    7
 10
709.27017455586565
 20
226.57827065438508
 40
0.5530864197530718
  0
CIRCLE
  8
_0-a_極細3
  6
CONTINUOUS
 62
    7
 10
726.07017455586538
 20
246.17827065438451
 40
0.5530864197530718
  0
CIRCLE
  8
_0-a_極細3
  6
CONTINUOUS
 62
    7
 10
723.27017455586531
 20
219.37827065438526
 40
0.5530864197530718
  0
CIRCLE
  8
_0-a_極細3
  6
CONTINUOUS
 62
    7
 10
752.87017455586511
 20
240.5782706543846
 40
0.5530864197530718
  0
CIRCLE
  8
_0-a_極細3
  6
CONTINUOUS
 62
    7
 10
748.07017455586492
 20
254.34833238278
 40
1.825531472681392
  0
CIRCLE
  8
_0-a_極細3
  6
CONTINUOUS
 62
    7
 10
732.42573011142088
 20
238.88166571611328
 40
1.825531472681392
  0
CIRCLE
  8
_0-a_極細3
  6
CONTINUOUS
 62
    7
 10
677.00350788919923
 20
245.45944349389086
 40
1.825531472681392
  0
CIRCLE
  8
_0-a_極細3
  6
CONTINUOUS
 62
    7
 10
709.00350788919877
 20
213.45944349389129
 40
1.825531472681392
  0
CIRCLE
  8
_0-a_極細3
  6
CONTINUOUS
 62
    7
 10
638.60906344475552
 20
168.90944349389201
 40
1.825531472681392
  0
CIRCLE
  8
_0-a_極細3
  6
CONTINUOUS
 62
    7
 10
648.83128566697724
 20
198.77611016055837
 40
1.825531472681392
  0
CIRCLE
  8
_0-a_極細3
  6
CONTINUOUS
 62
    7
 10
684.03128566697706
 20
176.37611016055871
 40
1.825531472681392
  0
CIRCLE
  8
_0-a_極細3
  6
CONTINUOUS
 62
    7
 10
730.29647830226077
 20
166.18905776858901
 40
1.825531472681392
  0
CIRCLE
  8
_0-a_極細3
  6
CONTINUOUS
 62
    7
 10
679.63128566697708
 20
219.57611016055807
 40
1.825531472681392
  0
CIRCLE
  8
_0-a_極細3
  6
CONTINUOUS
 62
    7
 10
632.16523628426148
 20
214.15290475352185
 40
0.5530864197530718
  0
CIRCLE
  8
_0-a_極細3
  6
CONTINUOUS
 62
    7
 10
632.36523628426221
 20
190.1973491979661
 40
0.5530864197530718
  0
LINE
  8
_0-a_極細3
  6
CONTINUOUS
 62
    7
 10
676.4088239812736
 20
285.37948986735455
 11
676.4088239812736
 21
273.71282320068758
  0
LINE
  8
_0-a_極細3
  6
CONTINUOUS
 62
    7
 10
676.4088239812736
 20
285.37948986735455
 11
765.58657112638821
 21
285.37948986735455
  0
LINE
  8
_0-a_極細3
  6
CONTINUOUS
 62
    7
 10
668.07549064794011
 20
273.71282320068758
 11
765.58657112638821
 21
273.71282320068758
  0
LINE
  8
_0-a_極細3
  6
CONTINUOUS
 62
    7
 10
668.07549064794011
 20
285.37948986735455
 11
676.4088239812736
 21
285.37948986735455
  0
LINE
  8
_0-a_極細3
  6
CONTINUOUS
 62
    7
 10
668.07549064794011
 20
284.54615653402107
 11
668.07549064794011
 21
285.37948986735455
  0
LINE
  8
_0-a_極細3
  6
CONTINUOUS
 62
    7
 10
676.4088239812736
 20
277.38190948141255
 11
672.73973770054863
 21
273.71282320068758
  0
LINE
  8
_0-a_極細3
  6
CONTINUOUS
 62
    7
 10
676.4088239812736
 20
281.62455016853164
 11
668.49709701342954
 21
273.71282320068758
  0
LINE
  8
_0-a_極細3
  6
CONTINUOUS
 62
    7
 10
668.07549064794011
 20
277.5338575223177
 11
675.92112299297696
 21
285.37948986735455
  0
LINE
  8
_0-a_極細3
  6
CONTINUOUS
 62
    7
 10
668.07549064794011
 20
281.77649820943725
 11
671.67848230585741
 21
285.37948986735455
  0
LINE
  8
_0-a_極細3
  6
CONTINUOUS
 62
    7
 10
676.4088239812736
 20
283.87016765784892
 11
674.89950177176797
 21
285.37948986735455
  0
LINE
  8
_0-a_極細3
  6
CONTINUOUS
 62
    7
 10
676.4088239812736
 20
279.62752697072983
 11
670.65686108464888
 21
285.37948986735455
  0
LINE
  8
_0-a_極細3
  6
CONTINUOUS
 62
    7
 10
676.4088239812736
 20
275.38488628361029
 11
668.07549064794011
 21
283.71821961694377
  0
LINE
  8
_0-a_極細3
  6
CONTINUOUS
 62
    7
 10
673.83824637707676
 20
273.71282320068758
 11
668.07549064794011
 21
279.47557892982468
  0
LINE
  8
_0-a_極細3
  6
CONTINUOUS
 62
    7
 10
669.59560568995767
 20
273.71282320068758
 11
668.07549064794011
 21
275.23293824270513
  0
LINE
  8
_0-a_極細3
  6
CONTINUOUS
 62
    7
 10
744.86462938157638
 20
273.71282320068758
 11
756.53129542145416
 21
285.37948924056536
  0
LINE
  8
_0-a_極細3
  6
CONTINUOUS
 62
    7
 10
723.65142594598001
 20
273.71282320068804
 11
735.31809215180647
 21
285.37948940651404
  0
LINE
  8
_0-a_極細3
  6
CONTINUOUS
 62
    7
 10
702.43822251038364
 20
273.71282320068758
 11
714.10488888215832
 21
285.37948957246226
  0
LINE
  8
_0-a_極細3
  6
CONTINUOUS
 62
    7
 10
681.22501907478738
 20
273.71282320068758
 11
692.89168561251063
 21
285.37948973841094
  0
LINE
  8
_0-a_極細3
  6
DASHED2
 62
    7
 10
755.47123109937502
 20
273.71282320068804
 11
765.58657112638821
 21
283.82816322770122
  0
LINE
  8
_0-a_極細3
  6
DASHED2
 62
    7
 10
734.25802766377831
 20
273.71282320068758
 11
745.92469378663009
 21
285.37948932353947
  0
LINE
  8
_0-a_極細3
  6
DASHED2
 62
    7
 10
713.04482422818182
 20
273.71282320068758
 11
724.71149051698251
 21
285.37948948948815
  0
LINE
  8
_0-a_極細3
  6
DASHED2
 62
    7
 10
691.83162079258545
 20
273.71282320068758
 11
703.49828724733425
 21
285.37948965543683
  0
LINE
  8
_0-a_極細3
  6
DASHED2
 62
    7
 10
676.4088239812736
 20
279.5032298249721
 11
682.28508397768667
 21
285.37948982138505
  0
CIRCLE
  8
_0-a_極細3
  6
CONTINUOUS
 62
    7
 10
756.87017455586511
 20
262.31160398771772
 40
0.5530864197530718
  0
CIRCLE
  8
_0-a_極細3
  6
CONTINUOUS
 62
    7
 10
740.07017455586538
 20
262.31160398771772
 40
0.5530864197530718
  0
CIRCLE
  8
_0-a_極細3
  6
CONTINUOUS
 62
    7
 10
713.27017455586565
 20
265.1116039877179
 40
0.5530864197530718
  0
CIRCLE
  8
_0-a_極細3
  6
CONTINUOUS
 62
    7
 10
724.60350788919868
 20
263.19277682722395
 40
1.825531472681392
  0
CIRCLE
  8
_0-a_極細3
  6
CONTINUOUS
 62
    7
 10
709.27017455586565
 20
257.24493732105157
 40
0.5530864197530718
  0
CIRCLE
  8
_0-a_極細3
  6
CONTINUOUS
 62
    7
 10
709.40350788919886
 20
250.92611016055756
 40
1.825531472681392
  0
CIRCLE
  8
_0-a_極細3
  6
CONTINUOUS
 62
    7
 10
688.07017455586583
 20
263.24493732105111
 40
0.5530864197530718
  0
LINE
  8
_0-a_極細3
  6
CONTINUOUS
 62
    7
 10
618.90882398127269
 20
238.71282320068758
 11
618.07549064793966
 21
238.71282320068758
  0
LINE
  8
_0-a_極細3
  6
CONTINUOUS
 62
    7
 10
618.07549064793966
 20
238.71282320068758
 11
618.07549064793966
 21
137.47122290590866
  0
ARC
  8
_0-b_細線3
  6
CONTINUOUS
 62
    7
 10
663.07549064794011
 20
243.71282320068758
 40
5
 50
269.99999999999977
 51
359.99999999999966
  0
LINE
  8
_0-b_細線3
  6
CONTINUOUS
 62
    7
 10
668.07549064794011
 20
243.71282320068758
 11
668.07549064794011
 21
284.54615653402107
  0
LINE
  8
_0-b_細線3
  6
CONTINUOUS
 62
    7
 10
663.07549064794011
 20
238.71282320068758
 11
618.90882398127269
 21
238.71282320068758
  0
LINE
  8
_0-b_細線3
  6
CONTINUOUS
 62
    7
 10
618.07549064793966
 20
239.54615653402107
 11
618.90882398127269
 21
238.71282320068758
  0
LINE
  8
_0-b_細線3
  6
CONTINUOUS
 62
    7
 10
618.07549064793966
 20
242.87948986735458
 11
618.07549064793966
 21
239.54615653402107
  0
LINE
  8
_0-b_細線3
  6
CONTINUOUS
 62
    7
 10
618.90882398127269
 20
243.71282320068758
 11
618.07549064793966
 21
242.87948986735458
  0
LINE
  8
_0-b_細線3
  6
CONTINUOUS
 62
    7
 10
663.07549064794011
 20
243.71282320068758
 11
618.90882398127269
 21
243.71282320068758
  0
LINE
  8
_0-b_細線3
  6
CONTINUOUS
 62
    7
 10
667.2421573146072
 20
285.37948986735455
 11
668.07549064794011
 21
284.54615653402107
  0
LINE
  8
_0-b_細線3
  6
CONTINUOUS
 62
    7
 10
663.9088239812736
 20
285.37948986735455
 11
667.2421573146072
 21
285.37948986735455
  0
LINE
  8
_0-b_細線3
  6
CONTINUOUS
 62
    7
 10
663.07549064794011
 20
284.54615653402107
 11
663.9088239812736
 21
285.37948986735455
  0
LINE
  8
_0-b_細線3
  6
CONTINUOUS
 62
    7
 10
663.07549064794011
 20
243.71282320068758
 11
663.07549064794011
 21
284.54615653402107
  0
CIRCLE
  8
_0-a_極細3
  6
CONTINUOUS
 62
    7
 10
624.05988649002302
 20
198.65604843216303
 40
0.5530864197530718
  0
CIRCLE
  8
_0-a_極細3
  6
CONTINUOUS
 62
    7
 10
625.36647085216282
 20
159.40049287660804
 40
0.5530864197530718
  0
CIRCLE
  8
_0-a_極細3
  6
CONTINUOUS
 62
    7
 10
624.72758196327322
 20
225.35388793833636
 40
1.825531472681392
  0
CIRCLE
  8
_0-a_極細3
  6
CONTINUOUS
 62
    7
 10
627.67573011142122
 20
152.73166571611364
 40
1.825531472681392
  0
ARC
  8
_0-b_細線3
  6
CONTINUOUS
 62
    7
 10
556.07549065158832
 20
282.04615653402061
 40
1.666666666666667
 50
89.999999999999915
 51
179.99999999999983
  0
ARC
  8
_0-b_細線3
  6
CONTINUOUS
 62
    7
 10
556.8554059704677
 20
285.3794898673541
 40
1.666666666666667
 50
269.99999999999977
 51
329.99999999999523
  0
ARC
  8
_0-b_細線3
  6
CONTINUOUS
 62
    7
 10
559.74215731641561
 20
283.71282320068758
 40
1.666666666666667
 50
89.999999999999915
 51
150.00000000000523
  0
LINE
  8
_0-b_細線3
  6
CONTINUOUS
 62
    7
 10
556.07549065158832
 20
283.71282320068758
 11
556.8554059704677
 21
283.71282320068758
  0
ARC
  8
_0-b_細線3
  6
CONTINUOUS
 62
    7
 10
571.74215731457662
 20
282.04615653402061
 40
1.666666666666667
 50
0
 51
89.999999999999915
  0
ARC
  8
_0-b_細線3
  6
CONTINUOUS
 62
    7
 10
570.9622419956977
 20
285.3794898673541
 40
1.666666666666667
 50
210.00000000000404
 51
269.99999999999977
  0
ARC
  8
_0-b_細線3
  6
CONTINUOUS
 62
    7
 10
568.07549064974955
 20
283.71282320068758
 40
1.666666666666667
 50
29.999999999990862
 51
89.999999999999901
  0
LINE
  8
_0-b_細線3
  6
CONTINUOUS
 62
    7
 10
571.74215731457662
 20
283.71282320068758
 11
570.9622419956977
 21
283.71282320068758
  0
ARC
  8
_0-b_細線3
  6
CONTINUOUS
 62
    7
 10
555.24215731825507
 20
279.71282320068758
 40
0.8333333333333334
 50
179.99999999999983
 51
269.99999999999977
  0
LINE
  8
_0-b_細線3
  6
CONTINUOUS
 62
    7
 10
554.40882398492181
 20
282.04615653402061
 11
554.40882398492181
 21
279.71282320068758
  0
ARC
  8
_0-b_細線3
  6
CONTINUOUS
 62
    7
 10
572.57549064790965
 20
279.71282320068758
 40
0.8333333333333334
 50
269.99999999999977
 51
359.99999999999966
  0
LINE
  8
_0-b_細線3
  6
CONTINUOUS
 62
    7
 10
573.40882398124359
 20
282.04615653402061
 11
573.40882398124359
 21
279.71282320068758
  0
ARC
  8
_0-b_細線3
  6
CONTINUOUS
 62
    7
 10
559.40882398492181
 20
277.21282320068758
 40
1.666666666666667
 50
0
 51
89.999999999999915
  0
LINE
  8
_0-b_細線3
  6
CONTINUOUS
 62
    7
 10
559.40882398492181
 20
278.8794898673541
 11
555.24215731825507
 21
278.8794898673541
  0
ARC
  8
_0-b_細線3
  6
CONTINUOUS
 62
    7
 10
568.40882398492158
 20
277.21282320068758
 40
1.666666666666667
 50
89.999999999999915
 51
179.99999999999983
  0
LINE
  8
_0-b_細線3
  6
CONTINUOUS
 62
    7
 10
568.40882398124268
 20
278.8794898673541
 11
572.57549064790965
 21
278.8794898673541
  0
LINE
  8
_0-b_細線3
  6
CONTINUOUS
 62
    7
 10
568.07549064974955
 20
285.3794898673541
 11
559.74215731641561
 21
285.3794898673541
  0
LINE
  8
_0-b_細線3
  6
CONTINUOUS
 62
    7
 10
561.0754906497491
 20
243.71282320068758
 11
561.07549065158832
 21
277.21282320068758
  0
LINE
  8
_0-b_細線3
  6
CONTINUOUS
 62
    7
 10
566.74215731641561
 20
243.71282320068758
 11
566.74215731825552
 21
277.21282320068758
  0
LINE
  8
_0-b_細線3
  6
CONTINUOUS
 62
    7
 10
566.74215731641561
 20
243.71282320068758
 11
561.0754906497491
 21
243.71282320068758
  0
ARC
  8
_0-b_細線3
  6
CONTINUOUS
 62
    7
 10
527.7421573176523
 20
282.04615653402061
 40
1.666666666666667
 50
89.999999999999915
 51
179.99999999999983
  0
ARC
  8
_0-b_細線3
  6
CONTINUOUS
 62
    7
 10
528.52207263653122
 20
285.3794898673541
 40
1.666666666666667
 50
269.99999999999977
 51
329.99999999999523
  0
ARC
  8
_0-b_細線3
  6
CONTINUOUS
 62
    7
 10
531.40882398247936
 20
283.71282320068758
 40
1.666666666666667
 50
89.999999999999915
 51
150.00000000000915
  0
LINE
  8
_0-b_細線3
  6
CONTINUOUS
 62
    7
 10
527.7421573176523
 20
283.71282320068758
 11
528.52207263653122
 21
283.71282320068758
  0
ARC
  8
_0-b_細線3
  6
CONTINUOUS
 62
    7
 10
543.40882398063991
 20
282.04615653402061
 40
1.666666666666667
 50
0
 51
89.999999999999915
  0
ARC
  8
_0-b_細線3
  6
CONTINUOUS
 62
    7
 10
542.62890866176099
 20
285.3794898673541
 40
1.666666666666667
 50
209.99999999999622
 51
269.99999999999977
  0
ARC
  8
_0-b_細線3
  6
CONTINUOUS
 62
    7
 10
539.74215731581285
 20
283.71282320068758
 40
1.666666666666667
 50
29.999999999998682
 51
89.999999999999915
  0
LINE
  8
_0-b_細線3
  6
CONTINUOUS
 62
    7
 10
543.40882398063991
 20
283.71282320068758
 11
542.62890866176099
 21
283.71282320068758
  0
ARC
  8
_0-b_細線3
  6
CONTINUOUS
 62
    7
 10
526.90882398431881
 20
279.71282320068758
 40
0.8333333333333334
 50
179.99999999999983
 51
269.99999999999977
  0
LINE
  8
_0-b_細線3
  6
CONTINUOUS
 62
    7
 10
526.07549065098533
 20
282.04615653402061
 11
526.07549065098533
 21
279.71282320068758
  0
ARC
  8
_0-b_細線3
  6
CONTINUOUS
 62
    7
 10
544.24215731397339
 20
279.71282320068758
 40
0.8333333333333334
 50
269.99999999999977
 51
359.99999999999966
  0
LINE
  8
_0-b_細線3
  6
CONTINUOUS
 62
    7
 10
545.07549064730688
 20
282.04615653402061
 11
545.07549064730688
 21
279.71282320068758
  0
ARC
  8
_0-b_細線3
  6
CONTINUOUS
 62
    7
 10
531.07549065098533
 20
277.21282320068758
 40
1.666666666666667
 50
0
 51
89.999999999999915
  0
LINE
  8
_0-b_細線3
  6
CONTINUOUS
 62
    7
 10
531.07549065098533
 20
278.8794898673541
 11
526.90882398431881
 21
278.8794898673541
  0
ARC
  8
_0-b_細線3
  6
CONTINUOUS
 62
    7
 10
540.07549065098578
 20
277.21282320068758
 40
1.666666666666667
 50
89.999999999999915
 51
179.99999999999983
  0
LINE
  8
_0-b_細線3
  6
CONTINUOUS
 62
    7
 10
540.07549064730688
 20
278.8794898673541
 11
544.24215731397339
 21
278.8794898673541
  0
LINE
  8
_0-b_細線3
  6
CONTINUOUS
 62
    7
 10
539.74215731581285
 20
285.3794898673541
 11
531.40882398247936
 21
285.3794898673541
  0
LINE
  8
_0-b_細線3
  6
CONTINUOUS
 62
    7
 10
532.74215731581285
 20
243.71282320068758
 11
532.7421573176523
 21
277.21282320068758
  0
LINE
  8
_0-b_細線3
  6
CONTINUOUS
 62
    7
 10
538.40882398247936
 20
243.71282320068758
 11
538.40882398431881
 21
277.21282320068758
  0
LINE
  8
_0-b_細線3
  6
CONTINUOUS
 62
    7
 10
538.40882398247936
 20
243.71282320068758
 11
532.74215731581285
 21
243.71282320068758
  0
ARC
  8
_0-b_細線3
  6
CONTINUOUS
 62
    7
 10
499.40882398371582
 20
282.04615653402061
 40
1.666666666666667
 50
89.999999999999915
 51
179.99999999999983
  0
ARC
  8
_0-b_細線3
  6
CONTINUOUS
 62
    7
 10
500.18873930259525
 20
285.3794898673541
 40
1.666666666666667
 50
269.99999999999977
 51
329.99999999999523
  0
ARC
  8
_0-b_細線3
  6
CONTINUOUS
 62
    7
 10
503.07549064854334
 20
283.71282320068758
 40
1.666666666666667
 50
89.999999999999915
 51
150.00000000000915
  0
LINE
  8
_0-b_細線3
  6
CONTINUOUS
 62
    7
 10
499.40882398371582
 20
283.71282320068758
 11
500.18873930259525
 21
283.71282320068758
  0
ARC
  8
_0-b_細線3
  6
CONTINUOUS
 62
    7
 10
515.07549064670388
 20
282.04615653402061
 40
1.666666666666667
 50
0
 51
89.999999999999915
  0
ARC
  8
_0-b_細線3
  6
CONTINUOUS
 62
    7
 10
514.29557532782451
 20
285.3794898673541
 40
1.666666666666667
 50
210.00000000000404
 51
269.99999999999977
  0
ARC
  8
_0-b_細線3
  6
CONTINUOUS
 62
    7
 10
511.40882398187642
 20
283.71282320068758
 40
1.666666666666667
 50
29.999999999990862
 51
89.999999999984354
  0
LINE
  8
_0-b_細線3
  6
CONTINUOUS
 62
    7
 10
515.07549064670388
 20
283.71282320068758
 11
514.29557532782451
 21
283.71282320068758
  0
ARC
  8
_0-b_細線3
  6
CONTINUOUS
 62
    7
 10
498.57549065038233
 20
279.71282320068758
 40
0.8333333333333334
 50
179.99999999999983
 51
269.99999999999977
  0
LINE
  8
_0-b_細線3
  6
CONTINUOUS
 62
    7
 10
497.74215731704936
 20
282.04615653402061
 11
497.74215731704936
 21
279.71282320068758
  0
ARC
  8
_0-b_細線3
  6
CONTINUOUS
 62
    7
 10
515.90882398003737
 20
279.71282320068758
 40
0.8333333333333334
 50
269.99999999999977
 51
359.99999999999966
  0
LINE
  8
_0-b_細線3
  6
CONTINUOUS
 62
    7
 10
516.7421573133704
 20
282.04615653402061
 11
516.7421573133704
 21
279.71282320068758
  0
ARC
  8
_0-b_細線3
  6
CONTINUOUS
 62
    7
 10
502.74215731704936
 20
277.21282320068758
 40
1.666666666666667
 50
0
 51
89.999999999999915
  0
LINE
  8
_0-b_細線3
  6
CONTINUOUS
 62
    7
 10
502.74215731704936
 20
278.8794898673541
 11
498.57549065038233
 21
278.8794898673541
  0
ARC
  8
_0-b_細線3
  6
CONTINUOUS
 62
    7
 10
511.7421573170493
 20
277.21282320068758
 40
1.666666666666667
 50
89.999999999999915
 51
179.99999999999983
  0
LINE
  8
_0-b_細線3
  6
CONTINUOUS
 62
    7
 10
511.7421573133704
 20
278.8794898673541
 11
515.90882398003737
 21
278.8794898673541
  0
LINE
  8
_0-b_細線3
  6
CONTINUOUS
 62
    7
 10
511.40882398187642
 20
285.3794898673541
 11
503.07549064854334
 21
285.3794898673541
  0
LINE
  8
_0-b_細線3
  6
CONTINUOUS
 62
    7
 10
504.40882398187637
 20
243.71282320068758
 11
504.40882398371582
 21
277.21282320068758
  0
LINE
  8
_0-b_細線3
  6
CONTINUOUS
 62
    7
 10
510.07549064854339
 20
243.71282320068758
 11
510.07549065038285
 21
277.21282320068758
  0
LINE
  8
_0-b_細線3
  6
CONTINUOUS
 62
    7
 10
510.07549064854339
 20
243.71282320068758
 11
504.40882398187637
 21
243.71282320068758
  0
ARC
  8
_0-b_細線3
  6
CONTINUOUS
 62
    7
 10
442.74215731584331
 20
282.04615653402061
 40
1.666666666666667
 50
89.999999999999915
 51
179.99999999999983
  0
ARC
  8
_0-b_細線3
  6
CONTINUOUS
 62
    7
 10
443.52207263472275
 20
285.3794898673541
 40
1.666666666666667
 50
269.99999999999977
 51
329.99999999999523
  0
ARC
  8
_0-b_細線3
  6
CONTINUOUS
 62
    7
 10
446.40882398067083
 20
283.71282320068758
 40
1.666666666666667
 50
89.999999999999915
 51
150.00000000000915
  0
LINE
  8
_0-b_細線3
  6
CONTINUOUS
 62
    7
 10
442.74215731584331
 20
283.71282320068758
 11
443.52207263472275
 21
283.71282320068758
  0
ARC
  8
_0-b_細線3
  6
CONTINUOUS
 62
    7
 10
458.40882397883144
 20
282.04615653402061
 40
1.666666666666667
 50
0
 51
89.999999999999915
  0
ARC
  8
_0-b_細線3
  6
CONTINUOUS
 62
    7
 10
457.62890865995246
 20
285.3794898673541
 40
1.666666666666667
 50
209.99999999999622
 51
269.99999999999977
  0
ARC
  8
_0-b_細線3
  6
CONTINUOUS
 62
    7
 10
454.74215731400392
 20
283.71282320068758
 40
1.666666666666667
 50
29.999999999990862
 51
89.999999999984354
  0
LINE
  8
_0-b_細線3
  6
CONTINUOUS
 62
    7
 10
458.40882397883144
 20
283.71282320068758
 11
457.62890865995246
 21
283.71282320068758
  0
ARC
  8
_0-b_細線3
  6
CONTINUOUS
 62
    7
 10
441.90882398250983
 20
279.71282320068758
 40
0.8333333333333334
 50
179.99999999999983
 51
269.99999999999977
  0
LINE
  8
_0-b_細線3
  6
CONTINUOUS
 62
    7
 10
441.07549064917686
 20
282.04615653402061
 11
441.07549064917686
 21
279.71282320068758
  0
ARC
  8
_0-b_細線3
  6
CONTINUOUS
 62
    7
 10
459.24215731216492
 20
279.71282320068758
 40
0.8333333333333334
 50
269.99999999999977
 51
359.99999999999966
  0
LINE
  8
_0-b_細線3
  6
CONTINUOUS
 62
    7
 10
460.07549064549835
 20
282.04615653402061
 11
460.07549064549835
 21
279.71282320068758
  0
ARC
  8
_0-b_細線3
  6
CONTINUOUS
 62
    7
 10
446.07549064917686
 20
277.21282320068758
 40
1.666666666666667
 50
0
 51
89.999999999999915
  0
LINE
  8
_0-b_細線3
  6
CONTINUOUS
 62
    7
 10
446.07549064917686
 20
278.8794898673541
 11
441.90882398250983
 21
278.8794898673541
  0
ARC
  8
_0-b_細線3
  6
CONTINUOUS
 62
    7
 10
455.0754906491768
 20
277.21282320068758
 40
1.666666666666667
 50
89.999999999999915
 51
179.99999999999983
  0
LINE
  8
_0-b_細線3
  6
CONTINUOUS
 62
    7
 10
455.07549064549789
 20
278.8794898673541
 11
459.24215731216492
 21
278.8794898673541
  0
LINE
  8
_0-b_細線3
  6
CONTINUOUS
 62
    7
 10
454.74215731400392
 20
285.3794898673541
 11
446.40882398067083
 21
285.3794898673541
  0
LINE
  8
_0-b_細線3
  6
CONTINUOUS
 62
    7
 10
447.74215731400432
 20
243.71282320068758
 11
447.74215731584331
 21
277.21282320068758
  0
LINE
  8
_0-b_細線3
  6
CONTINUOUS
 62
    7
 10
453.40882398067089
 20
243.71282320068758
 11
453.40882398251034
 21
277.21282320068758
  0
LINE
  8
_0-b_細線3
  6
CONTINUOUS
 62
    7
 10
453.40882398067089
 20
243.71282320068758
 11
447.74215731400432
 21
243.71282320068758
  0
ARC
  8
_0-b_細線3
  6
CONTINUOUS
 62
    7
 10
414.40882398190689
 20
282.04615653402061
 40
1.666666666666667
 50
89.999999999999915
 51
179.99999999999983
  0
ARC
  8
_0-b_細線3
  6
CONTINUOUS
 62
    7
 10
415.18873930078627
 20
285.3794898673541
 40
1.666666666666667
 50
269.99999999999977
 51
329.99999999999523
  0
ARC
  8
_0-b_細線3
  6
CONTINUOUS
 62
    7
 10
418.07549064673435
 20
283.71282320068758
 40
1.666666666666667
 50
89.999999999999915
 51
150.00000000000915
  0
LINE
  8
_0-b_細線3
  6
CONTINUOUS
 62
    7
 10
414.40882398190689
 20
283.71282320068758
 11
415.18873930078627
 21
283.71282320068758
  0
ARC
  8
_0-b_細線3
  6
CONTINUOUS
 62
    7
 10
430.07549064489496
 20
282.04615653402061
 40
1.666666666666667
 50
0
 51
89.999999999999915
  0
ARC
  8
_0-b_細線3
  6
CONTINUOUS
 62
    7
 10
429.29557532601558
 20
285.3794898673541
 40
1.666666666666667
 50
210.00000000000404
 51
269.99999999999977
  0
ARC
  8
_0-b_細線3
  6
CONTINUOUS
 62
    7
 10
426.40882398006789
 20
283.71282320068758
 40
1.666666666666667
 50
29.999999999998682
 51
89.999999999999915
  0
LINE
  8
_0-b_細線3
  6
CONTINUOUS
 62
    7
 10
430.07549064489496
 20
283.71282320068758
 11
429.29557532601558
 21
283.71282320068758
  0
ARC
  8
_0-b_細線3
  6
CONTINUOUS
 62
    7
 10
413.5754906485738
 20
279.71282320068758
 40
0.8333333333333334
 50
179.99999999999983
 51
269.99999999999977
  0
LINE
  8
_0-b_細線3
  6
CONTINUOUS
 62
    7
 10
412.74215731524038
 20
282.04615653402061
 11
412.74215731524038
 21
279.71282320068758
  0
ARC
  8
_0-b_細線3
  6
CONTINUOUS
 62
    7
 10
430.90882397822838
 20
279.71282320068758
 40
0.8333333333333334
 50
269.99999999999977
 51
359.99999999999966
  0
LINE
  8
_0-b_細線3
  6
CONTINUOUS
 62
    7
 10
431.74215731156147
 20
282.04615653402061
 11
431.74215731156147
 21
279.71282320068758
  0
ARC
  8
_0-b_細線3
  6
CONTINUOUS
 62
    7
 10
417.74215731524038
 20
277.21282320068758
 40
1.666666666666667
 50
0
 51
89.999999999999915
  0
LINE
  8
_0-b_細線3
  6
CONTINUOUS
 62
    7
 10
417.74215731524038
 20
278.8794898673541
 11
413.5754906485738
 21
278.8794898673541
  0
ARC
  8
_0-b_細線3
  6
CONTINUOUS
 62
    7
 10
426.74215731524038
 20
277.21282320068758
 40
1.666666666666667
 50
89.999999999999915
 51
179.99999999999983
  0
LINE
  8
_0-b_細線3
  6
CONTINUOUS
 62
    7
 10
426.74215731156147
 20
278.8794898673541
 11
430.90882397822838
 21
278.8794898673541
  0
LINE
  8
_0-b_細線3
  6
CONTINUOUS
 62
    7
 10
426.40882398006789
 20
285.3794898673541
 11
418.07549064673435
 21
285.3794898673541
  0
LINE
  8
_0-b_細線3
  6
CONTINUOUS
 62
    7
 10
419.40882398006744
 20
243.71282320068758
 11
419.40882398190689
 21
277.21282320068758
  0
LINE
  8
_0-b_細線3
  6
CONTINUOUS
 62
    7
 10
425.07549064673441
 20
243.71282320068758
 11
425.07549064857386
 21
277.21282320068758
  0
LINE
  8
_0-b_細線3
  6
CONTINUOUS
 62
    7
 10
425.07549064673441
 20
243.71282320068758
 11
419.40882398006744
 21
243.71282320068758
  0
ARC
  8
_0-b_細線3
  6
CONTINUOUS
 62
    7
 10
386.07549064797041
 20
282.04615653402061
 40
1.666666666666667
 50
89.999999999999915
 51
179.99999999999983
  0
ARC
  8
_0-b_細線3
  6
CONTINUOUS
 62
    7
 10
386.85540596684973
 20
285.3794898673541
 40
1.666666666666667
 50
269.99999999999977
 51
329.99999999999523
  0
ARC
  8
_0-b_細線3
  6
CONTINUOUS
 62
    7
 10
389.74215731279793
 20
283.71282320068758
 40
1.666666666666667
 50
89.999999999999915
 51
150.00000000000915
  0
LINE
  8
_0-b_細線3
  6
CONTINUOUS
 62
    7
 10
386.07549064797041
 20
283.71282320068758
 11
386.85540596684973
 21
283.71282320068758
  0
ARC
  8
_0-b_細線3
  6
CONTINUOUS
 62
    7
 10
401.74215731095842
 20
282.04615653402061
 40
1.666666666666667
 50
0
 51
89.999999999999915
  0
ARC
  8
_0-b_細線3
  6
CONTINUOUS
 62
    7
 10
400.9622419920795
 20
285.3794898673541
 40
1.666666666666667
 50
209.99999999999622
 51
269.99999999999977
  0
ARC
  8
_0-b_細線3
  6
CONTINUOUS
 62
    7
 10
398.0754906461309
 20
283.71282320068758
 40
1.666666666666667
 50
29.999999999990862
 51
89.999999999984354
  0
LINE
  8
_0-b_細線3
  6
CONTINUOUS
 62
    7
 10
401.74215731095842
 20
283.71282320068758
 11
400.9622419920795
 21
283.71282320068758
  0
ARC
  8
_0-b_細線3
  6
CONTINUOUS
 62
    7
 10
385.24215731463732
 20
279.71282320068758
 40
0.8333333333333334
 50
179.99999999999983
 51
269.99999999999977
  0
LINE
  8
_0-b_細線3
  6
CONTINUOUS
 62
    7
 10
384.40882398130384
 20
282.04615653402061
 11
384.40882398130384
 21
279.71282320068758
  0
ARC
  8
_0-b_細線3
  6
CONTINUOUS
 62
    7
 10
402.5754906442919
 20
279.71282320068758
 40
0.8333333333333334
 50
269.99999999999977
 51
359.99999999999966
  0
LINE
  8
_0-b_細線3
  6
CONTINUOUS
 62
    7
 10
403.40882397762539
 20
282.04615653402061
 11
403.40882397762539
 21
279.71282320068758
  0
ARC
  8
_0-b_細線3
  6
CONTINUOUS
 62
    7
 10
389.40882398130384
 20
277.21282320068758
 40
1.666666666666667
 50
0
 51
89.999999999999915
  0
LINE
  8
_0-b_細線3
  6
CONTINUOUS
 62
    7
 10
389.40882398130384
 20
278.8794898673541
 11
385.24215731463732
 21
278.8794898673541
  0
ARC
  8
_0-b_細線3
  6
CONTINUOUS
 62
    7
 10
398.4088239813039
 20
277.21282320068758
 40
1.666666666666667
 50
89.999999999999915
 51
179.99999999999983
  0
LINE
  8
_0-b_細線3
  6
CONTINUOUS
 62
    7
 10
398.40882397762499
 20
278.8794898673541
 11
402.5754906442919
 21
278.8794898673541
  0
LINE
  8
_0-b_細線3
  6
CONTINUOUS
 62
    7
 10
398.0754906461309
 20
285.3794898673541
 11
389.74215731279793
 21
285.3794898673541
  0
LINE
  8
_0-b_細線3
  6
CONTINUOUS
 62
    7
 10
391.07549064613136
 20
243.71282320068758
 11
391.07549064797041
 21
277.21282320068758
  0
LINE
  8
_0-b_細線3
  6
CONTINUOUS
 62
    7
 10
396.74215731279787
 20
243.71282320068758
 11
396.74215731463732
 21
277.21282320068758
  0
LINE
  8
_0-b_細線3
  6
CONTINUOUS
 62
    7
 10
396.74215731279787
 20
243.71282320068758
 11
391.07549064613136
 21
243.71282320068758
  0
ARC
  8
_0-b_細線3
  6
CONTINUOUS
 62
    7
 10
584.40882398520807
 20
282.04615653402061
 40
1.666666666666667
 50
89.999999999999915
 51
179.99999999999983
  0
ARC
  8
_0-b_細線3
  6
CONTINUOUS
 62
    7
 10
585.18873930408699
 20
285.3794898673541
 40
1.666666666666667
 50
269.99999999999977
 51
329.99999999999523
  0
ARC
  8
_0-b_細線3
  6
CONTINUOUS
 62
    7
 10
588.07549065003514
 20
283.71282320068758
 40
1.666666666666667
 50
89.999999999999915
 51
150.00000000000915
  0
LINE
  8
_0-b_細線3
  6
CONTINUOUS
 62
    7
 10
584.40882398520807
 20
283.71282320068758
 11
585.18873930408699
 21
283.71282320068758
  0
ARC
  8
_0-b_細線3
  6
CONTINUOUS
 62
    7
 10
600.07549064819614
 20
282.04615653402061
 40
1.666666666666667
 50
0
 51
89.999999999999915
  0
ARC
  8
_0-b_細線3
  6
CONTINUOUS
 62
    7
 10
599.29557532931631
 20
285.3794898673541
 40
1.666666666666667
 50
210.00000000000404
 51
269.99999999999977
  0
ARC
  8
_0-b_細線3
  6
CONTINUOUS
 62
    7
 10
596.40882398336817
 20
283.71282320068758
 40
1.666666666666667
 50
29.999999999990862
 51
89.999999999999901
  0
LINE
  8
_0-b_細線3
  6
CONTINUOUS
 62
    7
 10
600.07549064819614
 20
283.71282320068758
 11
599.29557532931631
 21
283.71282320068758
  0
ARC
  8
_0-b_細線3
  6
CONTINUOUS
 62
    7
 10
583.57549065187504
 20
279.71282320068758
 40
0.8333333333333334
 50
179.99999999999983
 51
269.99999999999977
  0
LINE
  8
_0-b_細線3
  6
CONTINUOUS
 62
    7
 10
582.7421573185411
 20
282.04615653402061
 11
582.7421573185411
 21
279.71282320068758
  0
ARC
  8
_0-b_細線3
  6
CONTINUOUS
 62
    7
 10
600.90882398152917
 20
279.71282320068758
 40
0.8333333333333334
 50
269.99999999999977
 51
359.99999999999966
  0
LINE
  8
_0-b_細線3
  6
CONTINUOUS
 62
    7
 10
601.7421573148622
 20
282.04615653402061
 11
601.7421573148622
 21
279.71282320068758
  0
ARC
  8
_0-b_細線3
  6
CONTINUOUS
 62
    7
 10
587.7421573185411
 20
277.21282320068758
 40
1.666666666666667
 50
0
 51
89.999999999999915
  0
LINE
  8
_0-b_細線3
  6
CONTINUOUS
 62
    7
 10
587.7421573185411
 20
278.8794898673541
 11
583.57549065187504
 21
278.8794898673541
  0
ARC
  8
_0-b_細線3
  6
CONTINUOUS
 62
    7
 10
596.7421573185411
 20
277.21282320068758
 40
1.666666666666667
 50
89.999999999999915
 51
179.99999999999983
  0
LINE
  8
_0-b_細線3
  6
CONTINUOUS
 62
    7
 10
596.7421573148622
 20
278.8794898673541
 11
600.90882398152917
 21
278.8794898673541
  0
LINE
  8
_0-b_細線3
  6
CONTINUOUS
 62
    7
 10
596.40882398336817
 20
285.3794898673541
 11
588.07549065003514
 21
285.3794898673541
  0
LINE
  8
_0-b_細線3
  6
CONTINUOUS
 62
    7
 10
589.40882398336907
 20
243.71282320068758
 11
589.40882398520807
 21
277.21282320068758
  0
LINE
  8
_0-b_細線3
  6
CONTINUOUS
 62
    7
 10
595.07549065003514
 20
243.71282320068758
 11
595.07549065187504
 21
277.21282320068758
  0
LINE
  8
_0-b_細線3
  6
CONTINUOUS
 62
    7
 10
595.07549065003514
 20
243.71282320068758
 11
589.40882398336907
 21
243.71282320068758
  0
ARC
  8
_0-b_細線3
  6
CONTINUOUS
 62
    7
 10
357.07549064797035
 20
282.04615653402061
 40
1.666666666666667
 50
89.999999999999915
 51
179.99999999999983
  0
ARC
  8
_0-b_細線3
  6
CONTINUOUS
 62
    7
 10
357.85540596684973
 20
285.3794898673541
 40
1.666666666666667
 50
269.99999999999977
 51
329.99999999999523
  0
ARC
  8
_0-b_細線3
  6
CONTINUOUS
 62
    7
 10
360.74215731279787
 20
283.71282320068758
 40
1.666666666666667
 50
89.999999999999915
 51
150.00000000000915
  0
LINE
  8
_0-b_細線3
  6
CONTINUOUS
 62
    7
 10
357.07549064797035
 20
283.71282320068758
 11
357.85540596684973
 21
283.71282320068758
  0
ARC
  8
_0-b_細線3
  6
CONTINUOUS
 62
    7
 10
372.74215731095842
 20
282.04615653402061
 40
1.666666666666667
 50
0
 51
89.999999999999915
  0
ARC
  8
_0-b_細線3
  6
CONTINUOUS
 62
    7
 10
371.96224199207956
 20
285.3794898673541
 40
1.666666666666667
 50
209.99999999999622
 51
269.99999999999977
  0
ARC
  8
_0-b_細線3
  6
CONTINUOUS
 62
    7
 10
369.0754906461309
 20
283.71282320068758
 40
1.666666666666667
 50
29.999999999990862
 51
89.999999999984354
  0
LINE
  8
_0-b_細線3
  6
CONTINUOUS
 62
    7
 10
372.74215731095842
 20
283.71282320068758
 11
371.96224199207956
 21
283.71282320068758
  0
ARC
  8
_0-b_細線3
  6
CONTINUOUS
 62
    7
 10
356.24215731463732
 20
279.71282320068758
 40
0.8333333333333334
 50
179.99999999999983
 51
269.99999999999977
  0
LINE
  8
_0-b_細線3
  6
CONTINUOUS
 62
    7
 10
355.40882398130384
 20
282.04615653402061
 11
355.40882398130384
 21
279.71282320068758
  0
ARC
  8
_0-b_細線3
  6
CONTINUOUS
 62
    7
 10
373.5754906442919
 20
279.71282320068758
 40
0.8333333333333334
 50
269.99999999999977
 51
359.99999999999966
  0
LINE
  8
_0-b_細線3
  6
CONTINUOUS
 62
    7
 10
374.40882397762545
 20
282.04615653402061
 11
374.40882397762545
 21
279.71282320068758
  0
ARC
  8
_0-b_細線3
  6
CONTINUOUS
 62
    7
 10
360.40882398130384
 20
277.21282320068758
 40
1.666666666666667
 50
0
 51
89.999999999999915
  0
LINE
  8
_0-b_細線3
  6
CONTINUOUS
 62
    7
 10
360.40882398130384
 20
278.8794898673541
 11
356.24215731463732
 21
278.8794898673541
  0
ARC
  8
_0-b_細線3
  6
CONTINUOUS
 62
    7
 10
369.40882398130384
 20
277.21282320068758
 40
1.666666666666667
 50
89.999999999999915
 51
179.99999999999983
  0
LINE
  8
_0-b_細線3
  6
CONTINUOUS
 62
    7
 10
369.40882397762493
 20
278.8794898673541
 11
373.5754906442919
 21
278.8794898673541
  0
LINE
  8
_0-b_細線3
  6
CONTINUOUS
 62
    7
 10
369.0754906461309
 20
285.3794898673541
 11
360.74215731279787
 21
285.3794898673541
  0
LINE
  8
_0-b_細線3
  6
CONTINUOUS
 62
    7
 10
362.07549064613141
 20
243.71282320068758
 11
362.07549064797035
 21
277.21282320068758
  0
LINE
  8
_0-b_細線3
  6
CONTINUOUS
 62
    7
 10
367.74215731279787
 20
243.71282320068758
 11
367.74215731463732
 21
277.21282320068758
  0
LINE
  8
_0-b_細線3
  6
CONTINUOUS
 62
    7
 10
367.74215731279787
 20
243.71282320068758
 11
362.07549064613141
 21
243.71282320068758
  0
ARC
  8
_0-b_細線3
  6
CONTINUOUS
 62
    7
 10
328.07549064736781
 20
282.04615653402061
 40
1.666666666666667
 50
89.999999999999915
 51
179.99999999999983
  0
ARC
  8
_0-b_細線3
  6
CONTINUOUS
 62
    7
 10
328.85540596624674
 20
285.3794898673541
 40
1.666666666666667
 50
269.99999999999977
 51
329.99999999999523
  0
ARC
  8
_0-b_細線3
  6
CONTINUOUS
 62
    7
 10
331.74215731219488
 20
283.71282320068758
 40
1.666666666666667
 50
89.999999999999915
 51
150.00000000000915
  0
LINE
  8
_0-b_細線3
  6
CONTINUOUS
 62
    7
 10
328.07549064736781
 20
283.71282320068758
 11
328.85540596624674
 21
283.71282320068758
  0
ARC
  8
_0-b_細線3
  6
CONTINUOUS
 62
    7
 10
343.74215731035588
 20
282.04615653402061
 40
1.666666666666667
 50
0
 51
89.999999999999915
  0
ARC
  8
_0-b_細線3
  6
CONTINUOUS
 62
    7
 10
342.9622419914765
 20
285.3794898673541
 40
1.666666666666667
 50
210.00000000000404
 51
269.99999999999977
  0
ARC
  8
_0-b_細線3
  6
CONTINUOUS
 62
    7
 10
340.07549064552842
 20
283.71282320068758
 40
1.666666666666667
 50
29.999999999990862
 51
89.999999999999901
  0
LINE
  8
_0-b_細線3
  6
CONTINUOUS
 62
    7
 10
343.74215731035588
 20
283.71282320068758
 11
342.9622419914765
 21
283.71282320068758
  0
ARC
  8
_0-b_細線3
  6
CONTINUOUS
 62
    7
 10
327.24215731403433
 20
279.71282320068758
 40
0.8333333333333334
 50
179.99999999999983
 51
269.99999999999977
  0
LINE
  8
_0-b_細線3
  6
CONTINUOUS
 62
    7
 10
326.40882398070084
 20
282.04615653402061
 11
326.40882398070084
 21
279.71282320068758
  0
ARC
  8
_0-b_細線3
  6
CONTINUOUS
 62
    7
 10
344.57549064368942
 20
279.71282320068758
 40
0.8333333333333334
 50
269.99999999999977
 51
359.99999999999966
  0
LINE
  8
_0-b_細線3
  6
CONTINUOUS
 62
    7
 10
345.40882397702239
 20
282.04615653402061
 11
345.40882397702239
 21
279.71282320068758
  0
ARC
  8
_0-b_細線3
  6
CONTINUOUS
 62
    7
 10
331.40882398070084
 20
277.21282320068758
 40
1.666666666666667
 50
0
 51
89.999999999999915
  0
LINE
  8
_0-b_細線3
  6
CONTINUOUS
 62
    7
 10
331.40882398070084
 20
278.8794898673541
 11
327.24215731403433
 21
278.8794898673541
  0
ARC
  8
_0-b_細線3
  6
CONTINUOUS
 62
    7
 10
340.4088239807013
 20
277.21282320068758
 40
1.666666666666667
 50
89.999999999999915
 51
179.99999999999983
  0
LINE
  8
_0-b_細線3
  6
CONTINUOUS
 62
    7
 10
340.40882397702239
 20
278.8794898673541
 11
344.57549064368942
 21
278.8794898673541
  0
LINE
  8
_0-b_細線3
  6
CONTINUOUS
 62
    7
 10
340.07549064552842
 20
285.3794898673541
 11
331.74215731219488
 21
285.3794898673541
  0
LINE
  8
_0-b_細線3
  6
CONTINUOUS
 62
    7
 10
333.07549064552836
 20
243.71282320068758
 11
333.07549064736781
 21
277.21282320068758
  0
LINE
  8
_0-b_細線3
  6
CONTINUOUS
 62
    7
 10
338.74215731219488
 20
243.71282320068758
 11
338.74215731403433
 21
277.21282320068758
  0
LINE
  8
_0-b_細線3
  6
CONTINUOUS
 62
    7
 10
338.74215731219488
 20
243.71282320068758
 11
333.07549064552836
 21
243.71282320068758
  0
ARC
  8
_0-b_細線3
  6
CONTINUOUS
 62
    7
 10
613.40882398581107
 20
282.04615653402061
 40
1.666666666666667
 50
89.999999999999915
 51
179.99999999999983
  0
ARC
  8
_0-b_細線3
  6
CONTINUOUS
 62
    7
 10
614.18873930468999
 20
285.3794898673541
 40
1.666666666666667
 50
269.99999999999977
 51
329.99999999999523
  0
ARC
  8
_0-b_細線3
  6
CONTINUOUS
 62
    7
 10
617.07549065063813
 20
283.71282320068758
 40
1.666666666666667
 50
89.999999999999915
 51
150.00000000000915
  0
LINE
  8
_0-b_細線3
  6
CONTINUOUS
 62
    7
 10
613.40882398581107
 20
283.71282320068758
 11
614.18873930468999
 21
283.71282320068758
  0
ARC
  8
_0-b_細線3
  6
CONTINUOUS
 62
    7
 10
629.07549064879913
 20
282.04615653402061
 40
1.666666666666667
 50
0
 51
89.999999999999915
  0
ARC
  8
_0-b_細線3
  6
CONTINUOUS
 62
    7
 10
628.2955753299193
 20
285.3794898673541
 40
1.666666666666667
 50
210.00000000000404
 51
269.99999999999977
  0
ARC
  8
_0-b_細線3
  6
CONTINUOUS
 62
    7
 10
625.40882398397116
 20
283.71282320068758
 40
1.666666666666667
 50
29.999999999990862
 51
89.999999999968722
  0
LINE
  8
_0-b_細線3
  6
CONTINUOUS
 62
    7
 10
629.07549064879913
 20
283.71282320068758
 11
628.2955753299193
 21
283.71282320068758
  0
ARC
  8
_0-b_細線3
  6
CONTINUOUS
 62
    7
 10
612.57549065247713
 20
279.71282320068758
 40
0.8333333333333334
 50
179.99999999999983
 51
269.99999999999977
  0
LINE
  8
_0-b_細線3
  6
CONTINUOUS
 62
    7
 10
611.7421573191441
 20
282.04615653402061
 11
611.7421573191441
 21
279.71282320068758
  0
ARC
  8
_0-b_細線3
  6
CONTINUOUS
 62
    7
 10
629.90882398213216
 20
279.71282320068758
 40
0.8333333333333334
 50
269.99999999999977
 51
359.99999999999966
  0
LINE
  8
_0-b_細線3
  6
CONTINUOUS
 62
    7
 10
630.74215731546519
 20
282.04615653402061
 11
630.74215731546519
 21
279.71282320068758
  0
ARC
  8
_0-b_細線3
  6
CONTINUOUS
 62
    7
 10
616.7421573191441
 20
277.21282320068758
 40
1.666666666666667
 50
0
 51
89.999999999999915
  0
LINE
  8
_0-b_細線3
  6
CONTINUOUS
 62
    7
 10
616.7421573191441
 20
278.8794898673541
 11
612.57549065247713
 21
278.8794898673541
  0
ARC
  8
_0-b_細線3
  6
CONTINUOUS
 62
    7
 10
625.7421573191441
 20
277.21282320068758
 40
1.666666666666667
 50
89.999999999999915
 51
179.99999999999983
  0
LINE
  8
_0-b_細線3
  6
CONTINUOUS
 62
    7
 10
625.74215731546519
 20
278.8794898673541
 11
629.90882398213216
 21
278.8794898673541
  0
LINE
  8
_0-b_細線3
  6
CONTINUOUS
 62
    7
 10
625.40882398397116
 20
285.3794898673541
 11
617.07549065063813
 21
285.3794898673541
  0
LINE
  8
_0-b_細線3
  6
CONTINUOUS
 62
    7
 10
618.40882398397116
 20
243.71282320068758
 11
618.40882398581107
 21
277.21282320068758
  0
LINE
  8
_0-b_細線3
  6
CONTINUOUS
 62
    7
 10
624.07549065063813
 20
243.71282320068758
 11
624.07549065247804
 21
277.21282320068758
  0
LINE
  8
_0-b_細線3
  6
CONTINUOUS
 62
    7
 10
624.07549065063813
 20
243.71282320068758
 11
618.40882398397116
 21
243.71282320068758
  0
ARC
  8
_0-b_細線3
  6
CONTINUOUS
 62
    7
 10
642.40882398552458
 20
282.04615653402061
 40
1.666666666666667
 50
89.999999999999915
 51
179.99999999999983
  0
ARC
  8
_0-b_細線3
  6
CONTINUOUS
 62
    7
 10
643.1887393044035
 20
285.3794898673541
 40
1.666666666666667
 50
269.99999999999977
 51
329.99999999999523
  0
ARC
  8
_0-b_細線3
  6
CONTINUOUS
 62
    7
 10
646.07549065035175
 20
283.71282320068758
 40
1.666666666666667
 50
89.999999999999915
 51
150.00000000000915
  0
LINE
  8
_0-b_細線3
  6
CONTINUOUS
 62
    7
 10
642.40882398552458
 20
283.71282320068758
 11
643.1887393044035
 21
283.71282320068758
  0
ARC
  8
_0-b_細線3
  6
CONTINUOUS
 62
    7
 10
658.07549064851275
 20
282.04615653402061
 40
1.666666666666667
 50
0
 51
89.999999999999915
  0
ARC
  8
_0-b_細線3
  6
CONTINUOUS
 62
    7
 10
657.29557532963372
 20
285.3794898673541
 40
1.666666666666667
 50
209.9999999999884
 51
269.99999999999977
  0
ARC
  8
_0-b_細線3
  6
CONTINUOUS
 62
    7
 10
654.40882398368558
 20
283.71282320068758
 40
1.666666666666667
 50
30.000000000006498
 51
89.999999999999929
  0
LINE
  8
_0-b_細線3
  6
CONTINUOUS
 62
    7
 10
658.07549064851275
 20
283.71282320068758
 11
657.29557532963372
 21
283.71282320068758
  0
ARC
  8
_0-b_細線3
  6
CONTINUOUS
 62
    7
 10
641.57549065219155
 20
279.71282320068758
 40
0.8333333333333334
 50
179.99999999999983
 51
269.99999999999977
  0
LINE
  8
_0-b_細線3
  6
CONTINUOUS
 62
    7
 10
640.74215731885761
 20
282.04615653402061
 11
640.74215731885761
 21
279.71282320068758
  0
ARC
  8
_0-b_細線3
  6
CONTINUOUS
 62
    7
 10
658.90882398184567
 20
279.71282320068758
 40
0.8333333333333334
 50
269.99999999999977
 51
359.99999999999966
  0
LINE
  8
_0-b_細線3
  6
CONTINUOUS
 62
    7
 10
659.74215731517961
 20
282.04615653402061
 11
659.74215731517961
 21
279.71282320068758
  0
ARC
  8
_0-b_細線3
  6
CONTINUOUS
 62
    7
 10
645.74215731885761
 20
277.21282320068758
 40
1.666666666666667
 50
0
 51
89.999999999999915
  0
LINE
  8
_0-b_細線3
  6
CONTINUOUS
 62
    7
 10
645.74215731885761
 20
278.8794898673541
 11
641.57549065219155
 21
278.8794898673541
  0
ARC
  8
_0-b_細線3
  6
CONTINUOUS
 62
    7
 10
654.74215731885761
 20
277.21282320068758
 40
1.666666666666667
 50
89.999999999999915
 51
179.99999999999983
  0
LINE
  8
_0-b_細線3
  6
CONTINUOUS
 62
    7
 10
654.7421573151787
 20
278.8794898673541
 11
658.90882398184567
 21
278.8794898673541
  0
LINE
  8
_0-b_細線3
  6
CONTINUOUS
 62
    7
 10
654.40882398368558
 20
285.3794898673541
 11
646.07549065035175
 21
285.3794898673541
  0
LINE
  8
_0-b_細線3
  6
CONTINUOUS
 62
    7
 10
647.40882398368558
 20
243.71282320068758
 11
647.40882398552458
 21
277.21282320068758
  0
LINE
  8
_0-b_細線3
  6
CONTINUOUS
 62
    7
 10
653.07549065035164
 20
243.71282320068758
 11
653.07549065219166
 21
277.21282320068758
  0
LINE
  8
_0-b_細線3
  6
CONTINUOUS
 62
    7
 10
653.07549065035164
 20
243.71282320068758
 11
647.40882398368558
 21
243.71282320068758
  0
LINE
  8
_0-d_寸法3
  6
CONTINUOUS
 62
    7
 10
368.07549064794011
 20
233.71282320068758
 11
368.07549064794011
 21
173.23479796644918
  0
LINE
  8
_0-d_寸法3
  6
CONTINUOUS
 62
    7
 10
368.07549064794011
 20
178.23479796644918
 11
377.73474891083077
 21
180.82298841747439
  0
LINE
  8
_0-d_寸法3
  6
CONTINUOUS
 62
    7
 10
368.07549064794011
 20
178.23479796644918
 11
377.73474891083077
 21
175.64660751542391
  0
LINE
  8
_0-d_寸法3
  6
CONTINUOUS
 62
    7
 10
618.07549064793966
 20
233.71282320068758
 11
618.07549064793966
 21
173.23479796644918
  0
LINE
  8
_0-d_寸法3
  6
CONTINUOUS
 62
    7
 10
618.07549064793966
 20
178.23479796644918
 11
608.41623238504894
 21
175.64660751542397
  0
LINE
  8
_0-d_寸法3
  6
CONTINUOUS
 62
    7
 10
618.07549064793966
 20
178.23479796644918
 11
608.41623238504894
 21
180.82298841747445
  0
LINE
  8
_0-d_寸法3
  6
CONTINUOUS
 62
    7
 10
368.07549064794011
 20
178.23479796644918
 11
618.07549064793966
 21
178.23479796644918
  0
TEXT
  8
_0-d_寸法3
 62
    7
 10
481.82549064794017
 20
178.23479796644918
 40
15
 41
1
 50
0
  1
150
  0
LINE
  8
_0-a_極細3
  6
CONTINUOUS
 62
    7
 10
274.4354224274548
 20
188.59452436319117
 11
269.30512027756959
 21
202.68991367497989
  0
LINE
  8
_0-a_極細3
  6
CONTINUOUS
 62
    7
 10
324.42946510125125
 20
222.75353437422586
 11
329.55976725113601
 21
208.65814506243737
  0
LINE
  8
_0-a_極細3
  6
CONTINUOUS
 62
    7
 10
269.30512027756959
 20
202.68991367497989
 11
324.42946510125125
 21
222.75353437422609
  0
LINE
  8
_0-a_極細3
  6
CONTINUOUS
 62
    7
 10
274.4354224274548
 20
188.59452436319117
 11
329.55976725113601
 21
208.65814506243737
  0
LINE
  8
_0-a_極細3
  6
CENTER1
 62
    7
 10
266.91483796051944
 20
193.83858897905569
 11
330.9458584430854
 21
217.14397446409092
  0
LINE
  8
_0-a_極細3
  6
CONTINUOUS
 62
    7
 10
293.07549064794017
 20
163.71282320068758
 11
293.07549064794017
 21
207.79838454900371
  0
LINE
  8
_0-a_極細3
  6
CONTINUOUS
 62
    7
 10
293.07549064794017
 20
207.79838454900371
 11
278.07549064794017
 21
207.79838454900371
  0
LINE
  8
_0-a_極細3
  6
CONTINUOUS
 62
    7
 10
278.07549064794017
 20
207.79838454900371
 11
278.07549064794017
 21
163.71282320068758
  0
LINE
  8
_0-a_極細3
  6
CENTER1
 62
    7
 10
285.57549064794017
 20
155.43608291623471
 11
285.57549064794017
 21
212.07410471361325
  0
LINE
  8
_0-d_寸法3
  6
CONTINUOUS
 62
    7
 10
318.07549064794
 20
190.37948986735429
 11
318.07549064793989
 21
173.23479796644889
  0
LINE
  8
_0-d_寸法3
  6
CONTINUOUS
 62
    7
 10
318.07549064793989
 20
178.23479796644889
 11
327.73474891083055
 21
180.82298841747416
  0
LINE
  8
_0-d_寸法3
  6
CONTINUOUS
 62
    7
 10
318.07549064793989
 20
178.23479796644889
 11
327.73474891083055
 21
175.64660751542377
  0
LINE
  8
_0-d_寸法3
  6
CONTINUOUS
 62
    7
 10
368.07549064794011
 20
228.71282320068758
 11
368.0754906479396
 21
173.23479796644889
  0
LINE
  8
_0-d_寸法3
  6
CONTINUOUS
 62
    7
 10
368.07549064793966
 20
178.23479796644889
 11
358.41623238504894
 21
175.64660751542377
  0
LINE
  8
_0-d_寸法3
  6
CONTINUOUS
 62
    7
 10
368.07549064793966
 20
178.23479796644889
 11
358.416232385049
 21
180.82298841747416
  0
LINE
  8
_0-d_寸法3
  6
CONTINUOUS
 62
    7
 10
318.07549064793989
 20
178.23479796644889
 11
368.07549064793966
 21
178.23479796644889
  0
TEXT
  8
_0-d_寸法3
 62
    7
 10
335.57549064793966
 20
178.23479796644889
 40
15
 41
1
 50
0
  1
30
  0
LINE
  8
_0-a_極細3
  6
CONTINUOUS
 62
    7
 10
711.71555886842543
 20
188.59452436319117
 11
716.84586101831076
 21
202.68991367497989
  0
LINE
  8
_0-a_極細3
  6
CONTINUOUS
 62
    7
 10
661.7215161946292
 20
222.75353437422586
 11
656.59121404474445
 21
208.65814506243737
  0
LINE
  8
_0-a_極細3
  6
CONTINUOUS
 62
    7
 10
716.84586101831076
 20
202.68991367497989
 11
661.7215161946292
 21
222.75353437422609
  0
LINE
  8
_0-a_極細3
  6
CONTINUOUS
 62
    7
 10
711.71555886842543
 20
188.59452436319117
 11
656.59121404474445
 21
208.65814506243737
  0
LINE
  8
_0-a_極細3
  6
CENTER1
 62
    7
 10
719.23614333536079
 20
193.83858897905569
 11
655.2051228527954
 21
217.14397446409092
  0
LINE
  8
_0-a_極細3
  6
CONTINUOUS
 62
    7
 10
693.07549064794011
 20
163.71282320068758
 11
693.07549064794011
 21
207.79838454900371
  0
LINE
  8
_0-a_極細3
  6
CONTINUOUS
 62
    7
 10
708.07549064794011
 20
207.79838454900371
 11
708.07549064794011
 21
163.71282320068758
  0
LINE
  8
_0-a_極細3
  6
CENTER1
 62
    7
 10
700.57549064794011
 20
155.43608291623471
 11
700.57549064794011
 21
212.07410471361325
  0
LINE
  8
_0-d_寸法3
  6
CONTINUOUS
 62
    7
 10
668.07549064794057
 20
190.37948986735429
 11
668.07549064794057
 21
173.23479796644889
  0
LINE
  8
_0-d_寸法3
  6
CONTINUOUS
 62
    7
 10
668.07549064794057
 20
178.23479796644889
 11
658.41623238504997
 21
175.64660751542377
  0
LINE
  8
_0-d_寸法3
  6
CONTINUOUS
 62
    7
 10
668.07549064794057
 20
178.23479796644889
 11
658.41623238504997
 21
180.82298841747416
  0
LINE
  8
_0-d_寸法3
  6
CONTINUOUS
 62
    7
 10
618.07549064794057
 20
228.71282320068758
 11
618.07549064794057
 21
173.23479796644889
  0
LINE
  8
_0-d_寸法3
  6
CONTINUOUS
 62
    7
 10
618.07549064794057
 20
178.23479796644889
 11
627.73474891083129
 21
180.82298841747416
  0
LINE
  8
_0-d_寸法3
  6
CONTINUOUS
 62
    7
 10
618.07549064794057
 20
178.23479796644889
 11
627.73474891083129
 21
175.64660751542377
  0
LINE
  8
_0-d_寸法3
  6
CONTINUOUS
 62
    7
 10
668.07549064794057
 20
178.23479796644889
 11
618.07549064794057
 21
178.23479796644889
  0
TEXT
  8
_0-d_寸法3
 62
    7
 10
635.57549064794057
 20
178.23479796644889
 40
15
 41
1
 50
0.0000000000002714
  1
30
  0
LINE
  8
_0-a_極細3
  6
CONTINUOUS
 62
    7
 10
693.07549064794011
 20
207.79838454900371
 11
708.07549064794011
 21
207.79838454900371
  0
CIRCLE
  8
_0-a_極細3
  6
CONTINUOUS
 62
    7
 10
715.87264369166996
 20
212.74617188895377
 40
0.5530864197530718
  0
CIRCLE
  8
_0-a_極細3
  6
CONTINUOUS
 62
    7
 10
696.27264369167005
 20
218.34617188895368
 40
0.5530864197530718
  0
TEXT
  8
_0-7_枠細線
 62
    5
 10
965.50000000000011
 20
70
 40
20
 41
0.5999999999999998
 50
0
  1
色については品番表参照のこと
  0
TEXT
  8
_0-7_枠細線
 62
    5
 10
443.15344300870657
 20
93.712458199009703
 40
25
 41
0.8
 50
0
  1
断面詳細図
  0
TEXT
  8
_0-7_枠細線
 62
    5
 10
1310
 20
67.5
 40
15
 41
0.6666666666666666
 50
0
  1
２００９年０１月３０日
  0
TEXT
  8
_0-7_枠細線
 62
    5
 10
965.50000000000011
 20
110
 40
20
 41
0.6
 50
0
  1
ＧＲＳ－２５Ｗ２００　ＳＥＴ
  0
LINE
  8
_0-b_細線3
  6
CONTINUOUS
 62
    7
 10
538.40882398339932
 20
255.87948986735395
 11
561.07549065006606
 21
255.87948986735395
  0
LINE
  8
_0-b_細線3
  6
CONTINUOUS
 62
    7
 10
510.07549064946289
 20
255.87948986735395
 11
532.74215731612935
 21
255.87948986735395
  0
LINE
  8
_0-b_細線3
  6
CONTINUOUS
 62
    7
 10
453.40882398159039
 20
255.87948986735395
 11
476.0754906482569
 21
255.87948986735395
  0
LINE
  8
_0-b_細線3
  6
CONTINUOUS
 62
    7
 10
425.07549064765436
 20
255.87948986735395
 11
447.74215731432088
 21
255.87948986735395
  0
LINE
  8
_0-b_細線3
  6
CONTINUOUS
 62
    7
 10
396.74215731371737
 20
255.87948986735395
 11
419.4088239803844
 21
255.87948986735395
  0
LINE
  8
_0-b_細線3
  6
CONTINUOUS
 62
    7
 10
566.74215731701861
 20
255.87948986735395
 11
589.40882398368558
 21
255.87948986735395
  0
LINE
  8
_0-b_細線3
  6
CONTINUOUS
 62
    7
 10
367.74215731371737
 20
255.87948986735395
 11
391.07549064705108
 21
255.87948986735395
  0
LINE
  8
_0-b_細線3
  6
CONTINUOUS
 62
    7
 10
338.74215731311489
 20
255.87948986735395
 11
362.07549064705086
 21
255.87948986735395
  0
LINE
  8
_0-b_細線3
  6
CONTINUOUS
 62
    7
 10
595.07549065095463
 20
255.87948986735395
 11
618.40882398428857
 21
255.87948986735395
  0
LINE
  8
_0-b_細線3
  6
CONTINUOUS
 62
    7
 10
624.07549065124113
 20
255.87948986735395
 11
647.40882398457518
 21
255.87948986735395
  0
LINE
  8
_0-b_細線3
  6
CONTINUOUS
 62
    7
 10
538.40882398339932
 20
277.54615653402044
 11
561.07549065006606
 21
277.54615653402044
  0
LINE
  8
_0-b_細線3
  6
CONTINUOUS
 62
    7
 10
510.07549064946289
 20
277.54615653402044
 11
532.74215731612935
 21
277.54615653402044
  0
LINE
  8
_0-b_細線3
  6
CONTINUOUS
 62
    7
 10
453.40882398159039
 20
277.54615653402044
 11
476.0754906482569
 21
277.54615653402044
  0
LINE
  8
_0-b_細線3
  6
CONTINUOUS
 62
    7
 10
425.07549064765436
 20
277.54615653402044
 11
447.74215731432088
 21
277.54615653402044
  0
LINE
  8
_0-b_細線3
  6
CONTINUOUS
 62
    7
 10
396.74215731371737
 20
277.54615653402044
 11
419.4088239803844
 21
277.54615653402044
  0
LINE
  8
_0-b_細線3
  6
CONTINUOUS
 62
    7
 10
566.74215731701861
 20
277.54615653402044
 11
589.40882398368558
 21
277.54615653402044
  0
LINE
  8
_0-b_細線3
  6
CONTINUOUS
 62
    7
 10
367.74215731371737
 20
277.54615653402044
 11
391.07549064705108
 21
277.54615653402044
  0
LINE
  8
_0-b_細線3
  6
CONTINUOUS
 62
    7
 10
338.74215731311489
 20
277.54615653402044
 11
362.07549064705086
 21
277.54615653402044
  0
LINE
  8
_0-b_細線3
  6
CONTINUOUS
 62
    7
 10
595.07549065095463
 20
277.54615653402044
 11
618.40882398428857
 21
277.54615653402044
  0
LINE
  8
_0-b_細線3
  6
CONTINUOUS
 62
    7
 10
624.07549065124113
 20
277.54615653402044
 11
647.40882398457518
 21
277.54615653402044
  0
LINE
  8
_0-7_枠細線
  6
CONTINUOUS
 62
    5
 10
1075
 20
480.00000000000028
 11
1075
 21
560.00000000000023
  0
TEXT
  8
_0-7_枠細線
 62
    5
 10
1097.5
 20
537.50000000000023
 40
15
 41
1
 50
0
  1
耐荷重
  0
TEXT
  8
_0-7_枠細線
 62
    5
 10
1090
 20
507.50000000000028
 40
15
 41
1
 50
0
  1
3.5kN/㎡
  0
TEXT
  8
_0-7_枠細線
 62
    5
 10
1082.5
 20
487.50000000000028
 40
15
 41
1
 50
0
  1
（歩道用）
  0
LINE
  8
_0-7_枠細線
  6
CONTINUOUS
 62
    5
 10
1165
 20
480.00000000000028
 11
1165
 21
560.00000000000023
  0
TEXT
  8
_0-7_枠細線
 62
    5
 10
1187.5
 20
537.50000000000023
 40
15
 41
1
 50
0
  1
蓋重量
  0
LINE
  8
_0-7_枠細線
  6
CONTINUOUS
 62
    5
 10
1255
 20
480.00000000000028
 11
1255
 21
560.00000000000023
  0
TEXT
  8
_0-7_枠細線
 62
    5
 10
1277.5
 20
537.50000000000023
 40
15
 41
1
 50
0
  1
枠重量
  0
LINE
  8
_0-7_枠細線
  6
CONTINUOUS
 62
    5
 10
1075
 20
530.00000000000023
 11
1345
 21
530.00000000000023
  0
LINE
  8
_0-7_枠細線
  6
CONTINUOUS
 62
    5
 10
1075
 20
560.00000000000023
 11
1345
 21
560.00000000000023
  0
LINE
  8
_0-7_枠細線
  6
CONTINUOUS
 62
    5
 10
1075
 20
480.00000000000028
 11
1345
 21
480.00000000000028
  0
LINE
  8
_0-7_枠細線
  6
CONTINUOUS
 62
    5
 10
1345
 20
480.00000000000028
 11
1345
 21
560.00000000000023
  0
LINE
  8
_0-7_枠細線
  6
CONTINUOUS
 62
    5
 10
1074.9999999999998
 20
300.00000000000034
 11
1375
 21
300.00000000000034
  0
LINE
  8
_0-7_枠細線
  6
CONTINUOUS
 62
    5
 10
1074.9999999999998
 20
325.00000000000034
 11
1375
 21
325.00000000000034
  0
LINE
  8
_0-7_枠細線
  6
CONTINUOUS
 62
    5
 10
1074.9999999999998
 20
350.00000000000034
 11
1375
 21
350.00000000000034
  0
LINE
  8
_0-7_枠細線
  6
CONTINUOUS
 62
    5
 10
1074.9999999999998
 20
375.00000000000051
 11
1375
 21
375.00000000000051
  0
TEXT
  8
_0-7_枠細線
 62
    5
 10
1198.0000000000002
 20
380.00000000000051
 40
15
 41
0.5999999999999999
 50
0
  1
ライトグレー
  0
LINE
  8
_0-7_枠細線
  6
CONTINUOUS
 62
    5
 10
1074.9999999999998
 20
400.00000000000034
 11
1375
 21
400.00000000000034
  0
TEXT
  8
_0-7_枠細線
 62
    5
 10
1207.0000000000002
 20
405.00000000000028
 40
15
 41
0.5999999999999999
 50
0
  1
ベージュ
  0
LINE
  8
_0-7_枠細線
  6
CONTINUOUS
 62
    5
 10
1074.9999999999998
 20
425.00000000000028
 11
1375
 21
425.00000000000028
  0
TEXT
  8
_0-7_枠細線
 62
    5
 10
1219.0000000000005
 20
430.00000000000028
 40
15
 41
0.8000000000000001
 50
0
  1
色
  0
TEXT
  8
_0-7_枠細線
 62
    5
 10
1101
 20
430.00000000000028
 40
15
 41
0.8000000000000001
 50
0
  1
品　　番
  0
TEXT
  8
_0-7_枠細線
 62
    5
 10
1301
 20
430.00000000000028
 40
15
 41
0.8000000000000001
 50
0
  1
備　　考
  0
LINE
  8
_0-7_枠細線
  6
CONTINUOUS
 62
    5
 10
1074.9999999999998
 20
450.00000000000028
 11
1375
 21
450.00000000000028
  0
TEXT
  8
_0-7_枠細線
 62
    5
 10
1163.7499999999998
 20
455.00000000000028
 40
17.5
 41
1
 50
0
  1
品番表
  0
LINE
  8
_0-7_枠細線
  6
CONTINUOUS
 62
    5
 10
1074.9999999999998
 20
225.00000000000014
 11
1375
 21
225.00000000000014
  0
LINE
  8
_0-7_枠細線
  6
CONTINUOUS
 62
    5
 10
1074.9999999999998
 20
250.0000000000004
 11
1375
 21
250.0000000000004
  0
LINE
  8
_0-7_枠細線
  6
CONTINUOUS
 62
    5
 10
1074.9999999999998
 20
275.00000000000045
 11
1375
 21
275.00000000000045
  0
TEXT
  8
_0-7_枠細線
 62
    5
 10
1207.0000000000007
 20
355.00000000000051
 40
15
 41
0.5999999999999999
 50
0
  1
ホワイト
  0
TEXT
  8
_0-7_枠細線
 62
    5
 10
1211.5
 20
330.00000000000034
 40
15
 41
0.5999999999999999
 50
0
  1
ピンク
  0
TEXT
  8
_0-7_枠細線
 62
    5
 10
1211.5
 20
305.00000000000034
 40
15
 41
0.5999999999999999
 50
0
  1
ブルー
  0
TEXT
  8
_0-7_枠細線
 62
    5
 10
1197.9999999999998
 20
280.00000000000034
 40
15
 41
0.5999999999999999
 50
0
  1
ダークグレー
  0
TEXT
  8
_0-7_枠細線
 62
    5
 10
1080
 20
405.00000000000028
 40
15
 41
0.5
 50
0
  1
ＧＲＳ－２５Ｗ２００－Ｂ
  0
TEXT
  8
_0-7_枠細線
 62
    5
 10
1080
 20
380.00000000000034
 40
15
 41
0.5
 50
0
  1
ＧＲＳ－２５Ｗ２００－Ｇ
  0
TEXT
  8
_0-7_枠細線
 62
    5
 10
1080
 20
355.00000000000051
 40
15
 41
0.5
 50
0
  1
ＧＲＳ－２５Ｗ２００－Ｓ
  0
TEXT
  8
_0-7_枠細線
 62
    5
 10
1080
 20
330.00000000000034
 40
15
 41
0.5
 50
0
  1
ＧＲＳ－２５Ｗ２００－Ｐ
  0
TEXT
  8
_0-7_枠細線
 62
    5
 10
1080
 20
305.00000000000034
 40
15
 41
0.5
 50
0
  1
ＧＲＳ－２５Ｗ２００－Ａ
  0
TEXT
  8
_0-7_枠細線
 62
    5
 10
1080
 20
280.00000000000034
 40
15
 41
0.5
 50
0
  1
ＧＲＳ－２５Ｗ２００－Ｄ
  0
TEXT
  8
_0-7_枠細線
 62
    5
 10
1080
 20
255.00000000000043
 40
15
 41
0.5
 50
0
  1
ＧＲＳ－２５Ｗ２００－Ｍ
  0
TEXT
  8
_0-7_枠細線
 62
    5
 10
1211.5
 20
255.00000000000043
 40
15
 41
0.5999999999999999
 50
0
  1
ウッド
  0
LINE
  8
_0-7_枠細線
  6
CONTINUOUS
 62
    5
 10
1074.9999999999998
 20
199.99999999999986
 11
1375
 21
199.99999999999986
  0
TEXT
  8
_0-7_枠細線
 62
    5
 10
1207.0000000000007
 20
204.99999999999994
 40
15
 41
0.5999999999999999
 50
0
  1
ブラック
  0
TEXT
  8
_0-7_枠細線
 62
    5
 10
1080
 20
204.99999999999994
 40
15
 41
0.5
 50
0
  1
ＧＲＳ－２５Ｗ２００－Ｋ
  0
LINE
  8
_0-7_枠細線
  6
CONTINUOUS
 62
    5
 10
1375
 20
450.00000000000028
 11
1375
 21
199.99999999999986
  0
LINE
  8
_0-7_枠細線
  6
CONTINUOUS
 62
    5
 10
1274.9999999999998
 20
450.00000000000028
 11
1274.9999999999998
 21
199.99999999999986
  0
LINE
  8
_0-7_枠細線
  6
CONTINUOUS
 62
    5
 10
1175.0000000000002
 20
450.00000000000028
 11
1175.0000000000002
 21
199.99999999999986
  0
LINE
  8
_0-7_枠細線
  6
CONTINUOUS
 62
    5
 10
1074.9999999999998
 20
450.00000000000028
 11
1074.9999999999998
 21
199.99999999999986
  0
TEXT
  8
_0-7_枠細線
 62
    5
 10
1080
 20
230.00000000000017
 40
15
 41
0.5
 50
0
  1
ＧＲＳ－２５Ｗ２００－Ｃ
  0
TEXT
  8
_0-7_枠細線
 62
    5
 10
1207.0000000000002
 20
230.00000000000017
 40
15
 41
0.5999999999999999
 50
0
  1
ブラウン
  0
LINE
  8
_0-7_枠細線
  6
CONTINUOUS
 62
    5
 10
1068.5276246655549
 20
230.57604122127282
 11
1061.0276246655549
 21
245.57604122127282
  0
LINE
  8
_0-7_枠細線
  6
CONTINUOUS
 62
    5
 10
1053.5276246655549
 20
230.57604122127282
 11
1068.5276246655549
 21
230.57604122127282
  0
LINE
  8
_0-7_枠細線
  6
CONTINUOUS
 62
    5
 10
1061.0276246655549
 20
245.57604122127282
 11
1053.5276246655549
 21
230.57604122127282
  0
TEXT
  8
_0-7_枠細線
 62
    5
 10
1055.892775933703
 20
229.62722125642287
 40
12.5
 41
0.8
 50
0
  1
４
  0
ARC
  8
_0-b_細線3
  6
CONTINUOUS
 62
    7
 10
471.0754906497794
 20
282.04615653402061
 40
1.666666666666667
 50
89.999999999999915
 51
179.99999999999983
  0
ARC
  8
_0-b_細線3
  6
CONTINUOUS
 62
    7
 10
471.85540596865877
 20
285.3794898673541
 40
1.666666666666667
 50
269.99999999999977
 51
329.99999999999523
  0
ARC
  8
_0-b_細線3
  6
CONTINUOUS
 62
    7
 10
474.74215731460686
 20
283.71282320068758
 40
1.666666666666667
 50
89.999999999999915
 51
150.00000000000915
  0
LINE
  8
_0-b_細線3
  6
CONTINUOUS
 62
    7
 10
471.0754906497794
 20
283.71282320068758
 11
471.85540596865877
 21
283.71282320068758
  0
ARC
  8
_0-b_細線3
  6
CONTINUOUS
 62
    7
 10
486.74215731276786
 20
282.04615653402061
 40
1.666666666666667
 50
0
 51
89.999999999999915
  0
ARC
  8
_0-b_細線3
  6
CONTINUOUS
 62
    7
 10
485.96224199388848
 20
285.3794898673541
 40
1.666666666666667
 50
210.00000000000404
 51
269.99999999999977
  0
ARC
  8
_0-b_細線3
  6
CONTINUOUS
 62
    7
 10
483.0754906479404
 20
283.71282320068758
 40
1.666666666666667
 50
29.999999999990862
 51
89.999999999999901
  0
LINE
  8
_0-b_細線3
  6
CONTINUOUS
 62
    7
 10
486.74215731276786
 20
283.71282320068758
 11
485.96224199388848
 21
283.71282320068758
  0
ARC
  8
_0-b_細線3
  6
CONTINUOUS
 62
    7
 10
470.24215731644631
 20
279.71282320068758
 40
0.8333333333333334
 50
179.99999999999983
 51
269.99999999999977
  0
LINE
  8
_0-b_細線3
  6
CONTINUOUS
 62
    7
 10
469.40882398311288
 20
282.04615653402061
 11
469.40882398311288
 21
279.71282320068758
  0
ARC
  8
_0-b_細線3
  6
CONTINUOUS
 62
    7
 10
487.5754906461014
 20
279.71282320068758
 40
0.8333333333333334
 50
269.99999999999977
 51
359.99999999999966
  0
LINE
  8
_0-b_細線3
  6
CONTINUOUS
 62
    7
 10
488.40882397943437
 20
282.04615653402061
 11
488.40882397943437
 21
279.71282320068758
  0
ARC
  8
_0-b_細線3
  6
CONTINUOUS
 62
    7
 10
474.40882398311288
 20
277.21282320068758
 40
1.666666666666667
 50
0
 51
89.999999999999915
  0
LINE
  8
_0-b_細線3
  6
CONTINUOUS
 62
    7
 10
474.40882398311288
 20
278.8794898673541
 11
470.24215731644631
 21
278.8794898673541
  0
ARC
  8
_0-b_細線3
  6
CONTINUOUS
 62
    7
 10
483.40882398311288
 20
277.21282320068758
 40
1.666666666666667
 50
89.999999999999915
 51
179.99999999999983
  0
LINE
  8
_0-b_細線3
  6
CONTINUOUS
 62
    7
 10
483.40882397943398
 20
278.8794898673541
 11
487.5754906461014
 21
278.8794898673541
  0
LINE
  8
_0-b_細線3
  6
CONTINUOUS
 62
    7
 10
483.0754906479404
 20
285.3794898673541
 11
474.74215731460686
 21
285.3794898673541
  0
LINE
  8
_0-b_細線3
  6
CONTINUOUS
 62
    7
 10
476.07549064794034
 20
243.71282320068758
 11
476.0754906497794
 21
277.21282320068758
  0
LINE
  8
_0-b_細線3
  6
CONTINUOUS
 62
    7
 10
481.74215731460691
 20
243.71282320068758
 11
481.74215731644637
 21
277.21282320068758
  0
LINE
  8
_0-b_細線3
  6
CONTINUOUS
 62
    7
 10
481.74215731460691
 20
243.71282320068758
 11
476.07549064794034
 21
243.71282320068758
  0
LINE
  8
_0-b_細線3
  6
CONTINUOUS
 62
    7
 10
481.74215731646473
 20
277.54615653402044
 11
489.15882398127337
 21
277.54615653402044
  0
LINE
  8
_0-b_細線3
  6
CONTINUOUS
 62
    7
 10
496.99215731460731
 20
277.54615653402044
 11
504.40882398219338
 21
277.54615653402044
  0
LINE
  8
_0-b_細線3
  6
CONTINUOUS
 62
    7
 10
481.74215731525669
 20
255.87948986735395
 11
489.15882398127337
 21
255.87948986735395
  0
LINE
  8
_0-b_細線3
  6
CONTINUOUS
 62
    7
 10
496.99215731460731
 20
255.87948986735395
 11
504.40882398219338
 21
255.87948986735395
  0
LINE
  8
_0-7_枠細線
  6
CONTINUOUS
 62
    5
 10
1425
 20
942.5
 11
890
 21
942.5
  0
TEXT
  8
_0-7_枠細線
 62
    5
 10
895
 20
945
 40
12.5
 41
1
 50
0
  1
記号
  0
TEXT
  8
_0-7_枠細線
 62
    5
 10
996.875
 20
945
 40
12.5
 41
1
 50
0
  1
訂　 正　 記　 事
  0
TEXT
  8
_0-7_枠細線
 62
    5
 10
1181.25
 20
945
 40
12.5
 41
1
 50
0
  1
訂 正 年 月 日
  0
TEXT
  8
_0-7_枠細線
 62
    5
 10
1306.25
 20
945
 40
12.5
 41
1
 50
0
  1
備　　　　　考
  0
LINE
  8
_0-7_枠細線
  6
CONTINUOUS
 62
    5
 10
1425
 20
925
 11
890
 21
925
  0
TEXT
  8
_0-7_枠細線
 62
    5
 10
938.85037037037023
 20
927.5
 40
12.5
 41
1
 50
0
  1
品番・色記号変更
  0
TEXT
  8
_0-7_枠細線
 62
    5
 10
1180
 20
927.5
 40
12.5
 41
0.7199999999999999
 50
0
  1
２０１３．０３．１３
  0
LINE
  8
_0-7_枠細線
  6
CONTINUOUS
 62
    5
 10
1425
 20
907.5
 11
890
 21
907.5
  0
LINE
  8
_0-7_枠細線
  6
CONTINUOUS
 62
    5
 10
1425
 20
890
 11
890
 21
890
  0
TEXT
  8
_0-7_枠細線
 62
    5
 10
938.85037037037023
 20
910
 40
12.5
 41
1
 50
0
  1
クロスバーピッチ変更
  0
TEXT
  8
_0-7_枠細線
 62
    5
 10
938.85037037037023
 20
892.5
 40
12.5
 41
1
 50
0
  1
取外具形状変更
  0
TEXT
  8
_0-7_枠細線
 62
    5
 10
1180
 20
910
 40
12.5
 41
0.7199999999999999
 50
0
  1
２０１５．１１．２０
  0
LINE
  8
_0-7_枠細線
  6
CONTINUOUS
 62
    5
 10
915
 20
908.94233397174673
 11
907.5
 21
923.94233397174673
  0
LINE
  8
_0-7_枠細線
  6
CONTINUOUS
 62
    5
 10
900
 20
908.94233397174673
 11
915
 21
908.94233397174673
  0
LINE
  8
_0-7_枠細線
  6
CONTINUOUS
 62
    5
 10
907.5
 20
923.94233397174673
 11
900
 21
908.94233397174673
  0
TEXT
  8
_0-7_枠細線
 62
    5
 10
902.36515126814822
 20
908.63533172636653
 40
12.5
 41
0.8
 50
0
  1
１
  0
TEXT
  8
_0-7_枠細線
 62
    5
 10
902.36515126814822
 20
891.13533172636653
 40
12.5
 41
0.8
 50
0
  1
２
  0
LINE
  8
_0-7_枠細線
  6
CONTINUOUS
 62
    5
 10
1425
 20
872.5
 11
890
 21
872.5
  0
LINE
  8
_0-7_枠細線
  6
CONTINUOUS
 62
    5
 10
907.5
 20
906.44233397174673
 11
900
 21
891.44233397174673
  0
LINE
  8
_0-7_枠細線
  6
CONTINUOUS
 62
    5
 10
900
 20
891.44233397174673
 11
915
 21
891.44233397174673
  0
LINE
  8
_0-7_枠細線
  6
CONTINUOUS
 62
    5
 10
915
 20
891.44233397174673
 11
907.5
 21
906.44233397174673
  0
TEXT
  8
_0-7_枠細線
 62
    5
 10
902.36515126814822
 20
873.39465008156537
 40
12.5
 41
0.8
 50
0
  1
３
  0
TEXT
  8
_0-7_枠細線
 62
    5
 10
1180
 20
875
 40
12.5
 41
0.7199999999999999
 50
0
  1
２０１７．０４．０１
  0
LINE
  8
_0-7_枠細線
  6
CONTINUOUS
 62
    5
 10
915
 20
856.44233397174673
 11
907.5
 21
871.44233397174673
  0
LINE
  8
_0-7_枠細線
  6
CONTINUOUS
 62
    5
 10
900
 20
856.44233397174673
 11
915
 21
856.44233397174673
  0
LINE
  8
_0-7_枠細線
  6
CONTINUOUS
 62
    5
 10
907.5
 20
871.44233397174673
 11
900
 21
856.44233397174673
  0
TEXT
  8
_0-7_枠細線
 62
    5
 10
1180
 20
857.5
 40
12.5
 41
0.7199999999999999
 50
0
  1
２０１７．０４．０１
  0
TEXT
  8
_0-7_枠細線
 62
    5
 10
938.85037037037023
 20
857.5
 40
12.5
 41
1
 50
0
  1
ブラウン色（Ｃ）追加
  0
LINE
  8
_0-7_枠細線
  6
CONTINUOUS
 62
    5
 10
1425
 20
855
 11
890
 21
855
  0
LINE
  8
_0-7_枠細線
  6
CONTINUOUS
 62
    5
 10
907.5
 20
888.94233397174673
 11
900
 21
873.94233397174673
  0
LINE
  8
_0-7_枠細線
  6
CONTINUOUS
 62
    5
 10
900
 20
873.94233397174673
 11
915
 21
873.94233397174673
  0
LINE
  8
_0-7_枠細線
  6
CONTINUOUS
 62
    5
 10
915
 20
873.94233397174673
 11
907.5
 21
888.94233397174673
  0
TEXT
  8
_0-7_枠細線
 62
    5
 10
902.36515126814822
 20
855.49351400689693
 40
12.5
 41
0.8
 50
0
  1
４
  0
TEXT
  8
_0-7_枠細線
 62
    5
 10
938.85037037037023
 20
875
 40
12.5
 41
1
 50
0
  1
取外具形状変更
  0
TEXT
  8
_0-7_枠細線
 62
    5
 10
1180
 20
892.5
 40
12.5
 41
0.7199999999999999
 50
0
  1
２０１５．１１．２０
  0
LINE
  8
_0-9_枠極太
  6
CONTINUOUS
 62
    5
 10
60
 20
60
 11
60
 21
960
  0
LINE
  8
_0-9_枠極太
  6
CONTINUOUS
 62
    5
 10
60
 20
960
 11
1425
 21
960
  0
LINE
  8
_0-9_枠極太
  6
CONTINUOUS
 62
    5
 10
1425
 20
960
 11
1425
 21
60
  0
LINE
  8
_0-9_枠極太
  6
CONTINUOUS
 62
    5
 10
1425
 20
60
 11
60
 21
60
  0
LINE
  8
_0-7_枠細線
  6
CONTINUOUS
 62
    5
 10
915
 20
838.94233397174673
 11
907.5
 21
853.94233397174673
  0
LINE
  8
_0-7_枠細線
  6
CONTINUOUS
 62
    5
 10
900
 20
838.94233397174673
 11
915
 21
838.94233397174673
  0
LINE
  8
_0-7_枠細線
  6
CONTINUOUS
 62
    5
 10
907.5
 20
853.94233397174673
 11
900
 21
838.94233397174673
  0
LINE
  8
_0-7_枠細線
  6
CONTINUOUS
 62
    5
 10
1425
 20
837.5
 11
890
 21
837.5
  0
TEXT
  8
_0-7_枠細線
 62
    5
 10
902.36515126814822
 20
837.99351400689693
 40
12.5
 41
0.8
 50
0
  1
５
  0
TEXT
  8
_0-7_枠細線
 62
    5
 10
1180
 20
840
 40
12.5
 41
0.7199999999999999
 50
0
  1
２０１９．０９．０１
  0
LINE
  8
_0-b_細線3
  6
CONTINUOUS
 62
    7
 10
318.07549064794017
 20
258.71282320068758
 11
318.07549064794017
 21
200.37948986735429
  0
LINE
  8
_0-b_細線3
  6
CONTINUOUS
 62
    7
 10
318.07549064794017
 20
200.37948986735429
 11
314.24215731460674
 21
200.37948986735429
  0
LINE
  8
_0-b_細線3
  6
CONTINUOUS
 62
    7
 10
314.24215731460674
 20
200.37948986735429
 11
314.24215731460674
 21
258.71282320068758
  0
LINE
  8
_0-b_細線3
  6
CONTINUOUS
 62
    7
 10
314.24215731460674
 20
258.71282320068758
 11
318.07549064794017
 21
258.71282320068758
  0
LINE
  8
_0-a_極細3
  6
CONTINUOUS
 62
    7
 10
314.24215731460674
 20
232.04615653402098
 11
318.07549064794017
 21
232.04615653402098
  0
LINE
  8
_0-a_極細3
  6
CONTINUOUS
 62
    7
 10
314.24215731460674
 20
235.37948986735432
 11
318.07549064794017
 21
235.37948986735432
  0
LINE
  8
_0-a_極細3
  6
CONTINUOUS
 62
    7
 10
314.24215731460674
 20
228.71282320068758
 11
318.07549064794017
 21
228.71282320068758
  0
LINE
  8
_0-a_極細3
  6
CONTINUOUS
 62
    7
 10
314.24215731460674
 20
238.71282320068758
 11
318.07549064794017
 21
238.71282320068758
  0
LINE
  8
_0-a_極細3
  6
CONTINUOUS
 62
    7
 10
318.07549064794017
 20
205.37948986735432
 11
314.24215731460674
 21
205.37948986735432
  0
LINE
  8
_0-a_極細3
  6
CONTINUOUS
 62
    7
 10
314.24215731460674
 20
255.37948986735432
 11
318.07549064794017
 21
255.37948986735432
  0
LINE
  8
_0-b_細線3
  6
CONTINUOUS
 62
    7
 10
668.07549064794034
 20
258.71282320068758
 11
668.07549064794034
 21
200.37948986735429
  0
LINE
  8
_0-b_細線3
  6
CONTINUOUS
 62
    7
 10
668.07549064794034
 20
200.37948986735429
 11
671.90882398127371
 21
200.37948986735429
  0
LINE
  8
_0-b_細線3
  6
CONTINUOUS
 62
    7
 10
671.90882398127371
 20
200.37948986735429
 11
671.90882398127371
 21
258.71282320068758
  0
LINE
  8
_0-b_細線3
  6
CONTINUOUS
 62
    7
 10
671.90882398127371
 20
258.71282320068758
 11
668.07549064794034
 21
258.71282320068758
  0
LINE
  8
_0-a_極細3
  6
CONTINUOUS
 62
    7
 10
671.90882398127371
 20
232.04615653402098
 11
668.07549064794034
 21
232.04615653402098
  0
LINE
  8
_0-a_極細3
  6
CONTINUOUS
 62
    7
 10
671.90882398127371
 20
235.37948986735432
 11
668.07549064794034
 21
235.37948986735432
  0
LINE
  8
_0-a_極細3
  6
CONTINUOUS
 62
    7
 10
671.90882398127371
 20
228.71282320068758
 11
668.07549064794034
 21
228.71282320068758
  0
LINE
  8
_0-a_極細3
  6
CONTINUOUS
 62
    7
 10
671.90882398127371
 20
238.71282320068758
 11
668.07549064794034
 21
238.71282320068758
  0
LINE
  8
_0-a_極細3
  6
CONTINUOUS
 62
    7
 10
668.07549064794034
 20
205.37948986735432
 11
671.90882398127371
 21
205.37948986735432
  0
LINE
  8
_0-a_極細3
  6
CONTINUOUS
 62
    7
 10
671.90882398127371
 20
255.37948986735432
 11
668.07549064794034
 21
255.37948986735432
  0
LINE
  8
_0-7_枠細線
  6
CONTINUOUS
 62
    5
 10
689.83954082189598
 20
248.04614500062752
 11
682.33954082189598
 21
263.04614500062746
  0
LINE
  8
_0-7_枠細線
  6
CONTINUOUS
 62
    5
 10
674.83954082189598
 20
248.04614500062752
 11
689.83954082189598
 21
248.04614500062752
  0
LINE
  8
_0-7_枠細線
  6
CONTINUOUS
 62
    5
 10
682.33954082189598
 20
263.04614500062746
 11
674.83954082189598
 21
248.04614500062752
  0
TEXT
  8
_0-7_枠細線
 62
    5
 10
677.20469209004409
 20
247.09732503577757
 40
12.5
 41
0.8
 50
0
  1
５
  0
ARC
  8
_0-0_計極細
  6
CONTINUOUS
 62
    2
 10
204.60950240667813
 20
742.60000000000002
 40
11.295514677412786
 50
138.39585046827494
 51
221.60414953172469
  0
ARC
  8
_0-0_計極細
  6
CONTINUOUS
 62
    2
 10
187.71706009330757
 20
727.59999999999866
 40
11.295514677412786
 50
318.39585046827455
 51
41.604149531723962
  0
ARC
  8
_0-0_計極細
  6
CONTINUOUS
 62
    2
 10
204.60950240667813
 20
562.60000000000002
 40
11.295514677412786
 50
138.39585046827494
 51
221.60414953172469
  0
ARC
  8
_0-0_計極細
  6
CONTINUOUS
 62
    2
 10
187.71706009330771
 20
547.59999999999866
 40
11.295514677412786
 50
318.39585046827455
 51
41.604149531724723
  0
LINE
  8
_0-1_計細線
  6
CONTINUOUS
 62
    3
 10
196.16328124999242
 20
570.10000000000139
 11
217.66328124999362
 21
570.10000000000139
  0
LINE
  8
_0-1_計細線
  6
CONTINUOUS
 62
    3
 10
196.16328124999228
 20
720.10000000000002
 11
217.66328124999362
 21
720.10000000000002
  0
ARC
  8
_0-0_計極細
  6
CONTINUOUS
 62
    2
 10
830.60950240667876
 20
742.60000000000002
 40
11.295514677412786
 50
138.39585046827415
 51
221.60414953172548
  0
ARC
  8
_0-0_計極細
  6
CONTINUOUS
 62
    2
 10
813.71706009330853
 20
727.59999999999866
 40
11.295514677412786
 50
318.39585046827534
 51
41.604149531723962
  0
ARC
  8
_0-0_計極細
  6
CONTINUOUS
 62
    2
 10
830.60950240667876
 20
562.60000000000002
 40
11.295514677412786
 50
138.39585046827415
 51
221.60414953172548
  0
ARC
  8
_0-0_計極細
  6
CONTINUOUS
 62
    2
 10
813.71706009330853
 20
547.59999999999866
 40
11.295514677412786
 50
318.39585046827534
 51
41.604149531723962
  0
LINE
  8
_0-1_計細線
  6
CONTINUOUS
 62
    3
 10
800.66328124999359
 20
570.10000000000139
 11
822.16328124999359
 21
570.10000000000139
  0
LINE
  8
_0-1_計細線
  6
CONTINUOUS
 62
    3
 10
800.66328124999359
 20
720.10000000000002
 11
822.16328124999359
 21
720.10000000000002
  0
LINE
  8
_0-1_計細線
  6
CONTINUOUS
 62
    3
 10
217.66328124999362
 20
579.90000000000066
 11
800.66328124999359
 21
579.90000000000066
  0
LINE
  8
_0-1_計細線
  6
CONTINUOUS
 62
    3
 10
217.66328124999362
 20
591.30000000000121
 11
800.66328124999359
 21
591.30000000000121
  0
LINE
  8
_0-1_計細線
  6
CONTINUOUS
 62
    3
 10
217.66328124999362
 20
579.90000000000066
 11
217.66328124999362
 21
591.30000000000121
  0
LINE
  8
_0-1_計細線
  6
CONTINUOUS
 62
    3
 10
800.66328124999359
 20
579.90000000000066
 11
800.66328124999359
 21
591.30000000000121
  0
LINE
  8
_0-0_計極細
  6
CONTINUOUS
 62
    2
 10
217.66328124999362
 20
588.1000000000015
 11
800.66328124999359
 21
588.1000000000015
  0
LINE
  8
_0-0_計極細
  6
CONTINUOUS
 62
    2
 10
217.66328124999362
 20
583.1000000000015
 11
800.66328124999359
 21
583.1000000000015
  0
LINE
  8
_0-1_計細線
  6
CONTINUOUS
 62
    3
 10
217.66328124999362
 20
596.90000000000157
 11
800.66328124999359
 21
596.90000000000157
  0
LINE
  8
_0-1_計細線
  6
CONTINUOUS
 62
    3
 10
217.66328124999362
 20
608.30000000000211
 11
800.66328124999359
 21
608.30000000000211
  0
LINE
  8
_0-1_計細線
  6
CONTINUOUS
 62
    3
 10
217.66328124999362
 20
596.90000000000157
 11
217.66328124999362
 21
608.30000000000211
  0
LINE
  8
_0-1_計細線
  6
CONTINUOUS
 62
    3
 10
800.66328124999359
 20
596.90000000000157
 11
800.66328124999359
 21
608.30000000000211
  0
LINE
  8
_0-0_計極細
  6
CONTINUOUS
 62
    2
 10
217.66328124999362
 20
605.10000000000196
 11
800.66328124999359
 21
605.10000000000196
  0
LINE
  8
_0-0_計極細
  6
CONTINUOUS
 62
    2
 10
217.66328124999362
 20
600.10000000000196
 11
800.66328124999359
 21
600.10000000000196
  0
LINE
  8
_0-1_計細線
  6
CONTINUOUS
 62
    3
 10
217.66328124999362
 20
613.90000000000248
 11
800.66328124999359
 21
613.90000000000248
  0
LINE
  8
_0-1_計細線
  6
CONTINUOUS
 62
    3
 10
217.66328124999362
 20
625.30000000000302
 11
800.66328124999359
 21
625.30000000000302
  0
LINE
  8
_0-1_計細線
  6
CONTINUOUS
 62
    3
 10
217.66328124999362
 20
613.90000000000248
 11
217.66328124999362
 21
625.30000000000302
  0
LINE
  8
_0-1_計細線
  6
CONTINUOUS
 62
    3
 10
800.66328124999359
 20
613.90000000000248
 11
800.66328124999359
 21
625.30000000000302
  0
LINE
  8
_0-0_計極細
  6
CONTINUOUS
 62
    2
 10
217.66328124999362
 20
622.10000000000241
 11
800.66328124999359
 21
622.10000000000241
  0
LINE
  8
_0-0_計極細
  6
CONTINUOUS
 62
    2
 10
217.66328124999362
 20
617.10000000000241
 11
800.66328124999359
 21
617.10000000000241
  0
LINE
  8
_0-0_計極細
  6
CENTER2
 62
    2
 10
201.77468171297483
 20
645.10000000000093
 11
816.70801504635153
 21
645.10000000000093
  0
LINE
  8
_0-1_計細線
  6
CONTINUOUS
 62
    3
 10
217.66328124999362
 20
710.3000000000003
 11
800.66328124999359
 21
710.3000000000003
  0
LINE
  8
_0-1_計細線
  6
CONTINUOUS
 62
    3
 10
217.66328124999362
 20
698.89999999999975
 11
800.66328124999359
 21
698.89999999999975
  0
LINE
  8
_0-1_計細線
  6
CONTINUOUS
 62
    3
 10
217.66328124999362
 20
710.3000000000003
 11
217.66328124999362
 21
698.89999999999975
  0
LINE
  8
_0-1_計細線
  6
CONTINUOUS
 62
    3
 10
800.66328124999359
 20
710.3000000000003
 11
800.66328124999359
 21
698.89999999999975
  0
LINE
  8
_0-0_計極細
  6
CONTINUOUS
 62
    2
 10
217.66328124999362
 20
702.10000000000014
 11
800.66328124999359
 21
702.10000000000014
  0
LINE
  8
_0-0_計極細
  6
CONTINUOUS
 62
    2
 10
217.66328124999362
 20
707.10000000000014
 11
800.66328124999359
 21
707.10000000000014
  0
LINE
  8
_0-1_計細線
  6
CONTINUOUS
 62
    3
 10
217.66328124999362
 20
727.70000000000084
 11
800.66328124999359
 21
727.70000000000084
  0
LINE
  8
_0-1_計細線
  6
CONTINUOUS
 62
    3
 10
217.66328124999362
 20
716.30000000000041
 11
800.66328124999359
 21
716.30000000000041
  0
LINE
  8
_0-1_計細線
  6
CONTINUOUS
 62
    3
 10
217.66328124999362
 20
727.70000000000084
 11
217.66328124999362
 21
716.30000000000041
  0
LINE
  8
_0-1_計細線
  6
CONTINUOUS
 62
    3
 10
800.66328124999359
 20
727.70000000000084
 11
800.66328124999359
 21
716.30000000000041
  0
LINE
  8
_0-0_計極細
  6
CONTINUOUS
 62
    2
 10
217.66328124999362
 20
719.50000000000057
 11
800.66328124999359
 21
719.50000000000057
  0
LINE
  8
_0-0_計極細
  6
CONTINUOUS
 62
    2
 10
217.66328124999362
 20
724.50000000000057
 11
800.66328124999359
 21
724.50000000000057
  0
LINE
  8
_0-1_計細線
  6
CONTINUOUS
 62
    3
 10
217.66328124999362
 20
745.10000000000093
 11
800.66328124999359
 21
745.10000000000093
  0
LINE
  8
_0-1_計細線
  6
CONTINUOUS
 62
    3
 10
217.66328124999362
 20
733.7000000000005
 11
800.66328124999359
 21
733.7000000000005
  0
LINE
  8
_0-1_計細線
  6
CONTINUOUS
 62
    3
 10
217.66328124999362
 20
745.10000000000093
 11
217.66328124999362
 21
733.7000000000005
  0
LINE
  8
_0-1_計細線
  6
CONTINUOUS
 62
    3
 10
800.66328124999359
 20
745.10000000000093
 11
800.66328124999359
 21
733.7000000000005
  0
LINE
  8
_0-0_計極細
  6
CONTINUOUS
 62
    2
 10
217.66328124999362
 20
736.90000000000066
 11
800.66328124999359
 21
736.90000000000066
  0
LINE
  8
_0-0_計極細
  6
CONTINUOUS
 62
    2
 10
217.66328124999362
 20
741.90000000000066
 11
800.66328124999359
 21
741.90000000000066
  0
LINE
  8
_0-1_計細線
  6
CONTINUOUS
 62
    3
 10
217.66328124999362
 20
676.30000000000041
 11
800.66328124999359
 21
676.30000000000041
  0
LINE
  8
_0-1_計細線
  6
CONTINUOUS
 62
    3
 10
217.66328124999362
 20
664.89999999999986
 11
800.66328124999359
 21
664.89999999999986
  0
LINE
  8
_0-1_計細線
  6
CONTINUOUS
 62
    3
 10
217.66328124999362
 20
676.30000000000041
 11
217.66328124999362
 21
664.89999999999986
  0
LINE
  8
_0-1_計細線
  6
CONTINUOUS
 62
    3
 10
800.66328124999359
 20
676.30000000000041
 11
800.66328124999359
 21
664.89999999999986
  0
LINE
  8
_0-0_計極細
  6
CONTINUOUS
 62
    2
 10
217.66328124999362
 20
668.10000000000002
 11
800.66328124999359
 21
668.10000000000002
  0
LINE
  8
_0-0_計極細
  6
CONTINUOUS
 62
    2
 10
217.66328124999362
 20
673.10000000000002
 11
800.66328124999359
 21
673.10000000000002
  0
LINE
  8
_0-1_計細線
  6
CONTINUOUS
 62
    3
 10
217.66328124999362
 20
693.30000000000132
 11
800.66328124999359
 21
693.30000000000132
  0
LINE
  8
_0-1_計細線
  6
CONTINUOUS
 62
    3
 10
217.66328124999362
 20
681.90000000000066
 11
800.66328124999359
 21
681.90000000000066
  0
LINE
  8
_0-1_計細線
  6
CONTINUOUS
 62
    3
 10
217.66328124999362
 20
693.30000000000132
 11
217.66328124999362
 21
681.90000000000066
  0
LINE
  8
_0-1_計細線
  6
CONTINUOUS
 62
    3
 10
800.66328124999359
 20
693.30000000000132
 11
800.66328124999359
 21
681.90000000000066
  0
LINE
  8
_0-0_計極細
  6
CONTINUOUS
 62
    2
 10
217.66328124999362
 20
685.10000000000048
 11
800.66328124999359
 21
685.10000000000048
  0
LINE
  8
_0-0_計極細
  6
CONTINUOUS
 62
    2
 10
217.66328124999362
 20
690.10000000000048
 11
800.66328124999359
 21
690.10000000000048
  0
LINE
  8
_0-1_計細線
  6
CONTINUOUS
 62
    3
 10
217.66328124999362
 20
562.50000000000011
 11
800.66328124999359
 21
562.50000000000011
  0
LINE
  8
_0-1_計細線
  6
CONTINUOUS
 62
    3
 10
217.66328124999362
 20
573.90000000000077
 11
800.66328124999359
 21
573.90000000000077
  0
LINE
  8
_0-1_計細線
  6
CONTINUOUS
 62
    3
 10
217.66328124999362
 20
562.50000000000011
 11
217.66328124999362
 21
573.90000000000077
  0
LINE
  8
_0-1_計細線
  6
CONTINUOUS
 62
    3
 10
800.66328124999359
 20
562.50000000000011
 11
800.66328124999359
 21
573.90000000000077
  0
LINE
  8
_0-0_計極細
  6
CONTINUOUS
 62
    2
 10
217.66328124999362
 20
570.70000000000084
 11
800.66328124999359
 21
570.70000000000084
  0
LINE
  8
_0-0_計極細
  6
CONTINUOUS
 62
    2
 10
217.66328124999362
 20
565.70000000000084
 11
800.66328124999359
 21
565.70000000000084
  0
LINE
  8
_0-1_計細線
  6
CONTINUOUS
 62
    3
 10
217.66328124999362
 20
545.10000000000093
 11
800.66328124999359
 21
545.10000000000093
  0
LINE
  8
_0-1_計細線
  6
CONTINUOUS
 62
    3
 10
217.66328124999362
 20
556.50000000000148
 11
800.66328124999359
 21
556.50000000000148
  0
LINE
  8
_0-1_計細線
  6
CONTINUOUS
 62
    3
 10
217.66328124999362
 20
545.10000000000093
 11
217.66328124999362
 21
556.50000000000148
  0
LINE
  8
_0-1_計細線
  6
CONTINUOUS
 62
    3
 10
800.66328124999359
 20
545.10000000000093
 11
800.66328124999359
 21
556.50000000000148
  0
LINE
  8
_0-0_計極細
  6
CONTINUOUS
 62
    2
 10
217.66328124999362
 20
553.30000000000132
 11
800.66328124999359
 21
553.30000000000132
  0
LINE
  8
_0-0_計極細
  6
CONTINUOUS
 62
    2
 10
217.66328124999362
 20
548.30000000000132
 11
800.66328124999359
 21
548.30000000000132
  0
LINE
  8
_0-1_計細線
  6
CONTINUOUS
 62
    3
 10
196.16328124999228
 20
750.10000000000002
 11
822.16328124999359
 21
750.10000000000002
  0
LINE
  8
_0-1_計細線
  6
CONTINUOUS
 62
    3
 10
822.16328124999359
 20
540.10000000000139
 11
196.16328124999242
 21
540.10000000000139
  0
LINE
  8
_0-1_計細線
  6
CONTINUOUS
 62
    3
 10
194.24906555161988
 20
747.10000000000014
 11
820.24906555162102
 21
747.10000000000014
  0
LINE
  8
_0-1_計細線
  6
CONTINUOUS
 62
    3
 10
824.07749694836809
 20
543.1000000000015
 11
198.07749694836843
 21
543.1000000000015
  0
LINE
  8
_0-0_計極細
  6
CONTINUOUS
 62
    2
 10
226.16328124999356
 20
591.30000000000121
 11
226.16328124999356
 21
596.90000000000157
  0
LINE
  8
_0-0_計極細
  6
CONTINUOUS
 62
    2
 10
239.16328124999359
 20
591.30000000000121
 11
239.16328124999359
 21
596.90000000000157
  0
LINE
  8
_0-0_計極細
  6
CONTINUOUS
 62
    2
 10
226.16328124999356
 20
608.30000000000211
 11
226.16328124999356
 21
613.90000000000248
  0
LINE
  8
_0-0_計極細
  6
CONTINUOUS
 62
    2
 10
239.16328124999359
 20
608.30000000000211
 11
239.16328124999359
 21
613.90000000000248
  0
LINE
  8
_0-0_計極細
  6
CONTINUOUS
 62
    2
 10
226.16328124999356
 20
630.89999999999839
 11
226.16328124999356
 21
625.29999999999848
  0
LINE
  8
_0-0_計極細
  6
CONTINUOUS
 62
    2
 10
239.16328124999359
 20
630.89999999999839
 11
239.16328124999359
 21
625.29999999999848
  0
LINE
  8
_0-0_計極細
  6
CONTINUOUS
 62
    2
 10
226.16328124999356
 20
647.89999999999895
 11
226.16328124999356
 21
642.29999999999893
  0
LINE
  8
_0-0_計極細
  6
CONTINUOUS
 62
    2
 10
239.16328124999359
 20
647.89999999999895
 11
239.16328124999359
 21
642.29999999999893
  0
LINE
  8
_0-0_計極細
  6
CONTINUOUS
 62
    2
 10
226.16328124999356
 20
716.30000000000041
 11
226.16328124999356
 21
710.3000000000003
  0
LINE
  8
_0-0_計極細
  6
CONTINUOUS
 62
    2
 10
239.16328124999359
 20
716.30000000000041
 11
239.16328124999359
 21
710.3000000000003
  0
LINE
  8
_0-0_計極細
  6
CONTINUOUS
 62
    2
 10
226.16328124999356
 20
733.7000000000005
 11
226.16328124999356
 21
727.69999999999993
  0
LINE
  8
_0-0_計極細
  6
CONTINUOUS
 62
    2
 10
239.16328124999359
 20
733.7000000000005
 11
239.16328124999359
 21
727.69999999999993
  0
LINE
  8
_0-0_計極細
  6
CONTINUOUS
 62
    2
 10
226.16328124999356
 20
664.89999999999986
 11
226.16328124999356
 21
659.29999999999939
  0
LINE
  8
_0-0_計極細
  6
CONTINUOUS
 62
    2
 10
239.16328124999359
 20
664.89999999999986
 11
239.16328124999359
 21
659.29999999999939
  0
LINE
  8
_0-0_計極細
  6
CONTINUOUS
 62
    2
 10
226.16328124999356
 20
681.90000000000066
 11
226.16328124999356
 21
676.30000000000041
  0
LINE
  8
_0-0_計極細
  6
CONTINUOUS
 62
    2
 10
239.16328124999359
 20
681.90000000000066
 11
239.16328124999359
 21
676.30000000000041
  0
LINE
  8
_0-0_計極細
  6
CONTINUOUS
 62
    2
 10
226.16328124999356
 20
698.90000000000111
 11
226.16328124999356
 21
693.30000000000132
  0
LINE
  8
_0-0_計極細
  6
CONTINUOUS
 62
    2
 10
239.16328124999359
 20
698.90000000000111
 11
239.16328124999359
 21
693.30000000000132
  0
LINE
  8
_0-0_計極細
  6
CONTINUOUS
 62
    2
 10
226.16328124999356
 20
573.90000000000077
 11
226.16328124999356
 21
579.90000000000066
  0
LINE
  8
_0-0_計極細
  6
CONTINUOUS
 62
    2
 10
239.16328124999359
 20
573.90000000000077
 11
239.16328124999359
 21
579.90000000000066
  0
LINE
  8
_0-0_計極細
  6
CENTER1
 62
    2
 10
232.66328124999362
 20
753.85071942446314
 11
232.66328124999362
 21
537.34217625898884
  0
LINE
  8
_0-0_計極細
  6
CONTINUOUS
 62
    2
 10
226.16328124999356
 20
556.50000000000011
 11
226.16328124999356
 21
562.50000000000011
  0
LINE
  8
_0-0_計極細
  6
CONTINUOUS
 62
    2
 10
239.16328124999359
 20
556.50000000000011
 11
239.16328124999359
 21
562.50000000000011
  0
LINE
  8
_0-0_計極細
  6
CONTINUOUS
 62
    2
 10
779.1632812499937
 20
591.30000000000121
 11
779.1632812499937
 21
596.90000000000157
  0
LINE
  8
_0-0_計極細
  6
CONTINUOUS
 62
    2
 10
792.16328124999359
 20
591.30000000000121
 11
792.16328124999359
 21
596.90000000000157
  0
LINE
  8
_0-0_計極細
  6
CONTINUOUS
 62
    2
 10
779.1632812499937
 20
608.30000000000211
 11
779.1632812499937
 21
613.90000000000248
  0
LINE
  8
_0-0_計極細
  6
CONTINUOUS
 62
    2
 10
792.16328124999359
 20
608.30000000000211
 11
792.16328124999359
 21
613.90000000000248
  0
LINE
  8
_0-0_計極細
  6
CONTINUOUS
 62
    2
 10
779.1632812499937
 20
630.89999999999839
 11
779.1632812499937
 21
625.29999999999848
  0
LINE
  8
_0-0_計極細
  6
CONTINUOUS
 62
    2
 10
792.16328124999359
 20
630.89999999999839
 11
792.16328124999359
 21
625.29999999999848
  0
LINE
  8
_0-0_計極細
  6
CONTINUOUS
 62
    2
 10
779.1632812499937
 20
647.89999999999895
 11
779.1632812499937
 21
642.29999999999893
  0
LINE
  8
_0-0_計極細
  6
CONTINUOUS
 62
    2
 10
792.16328124999359
 20
647.89999999999895
 11
792.16328124999359
 21
642.29999999999893
  0
LINE
  8
_0-0_計極細
  6
CONTINUOUS
 62
    2
 10
779.1632812499937
 20
716.30000000000041
 11
779.1632812499937
 21
710.3000000000003
  0
LINE
  8
_0-0_計極細
  6
CONTINUOUS
 62
    2
 10
792.16328124999359
 20
716.30000000000041
 11
792.16328124999359
 21
710.3000000000003
  0
LINE
  8
_0-0_計極細
  6
CONTINUOUS
 62
    2
 10
779.1632812499937
 20
733.7000000000005
 11
779.1632812499937
 21
727.69999999999993
  0
LINE
  8
_0-0_計極細
  6
CONTINUOUS
 62
    2
 10
792.16328124999359
 20
733.7000000000005
 11
792.16328124999359
 21
727.69999999999993
  0
LINE
  8
_0-0_計極細
  6
CONTINUOUS
 62
    2
 10
779.1632812499937
 20
664.89999999999986
 11
779.1632812499937
 21
659.29999999999939
  0
LINE
  8
_0-0_計極細
  6
CONTINUOUS
 62
    2
 10
792.16328124999359
 20
664.89999999999986
 11
792.16328124999359
 21
659.29999999999939
  0
LINE
  8
_0-0_計極細
  6
CONTINUOUS
 62
    2
 10
779.1632812499937
 20
681.90000000000066
 11
779.1632812499937
 21
676.30000000000041
  0
LINE
  8
_0-0_計極細
  6
CONTINUOUS
 62
    2
 10
792.16328124999359
 20
681.90000000000066
 11
792.16328124999359
 21
676.30000000000041
  0
LINE
  8
_0-0_計極細
  6
CONTINUOUS
 62
    2
 10
779.1632812499937
 20
698.90000000000111
 11
779.1632812499937
 21
693.30000000000132
  0
LINE
  8
_0-0_計極細
  6
CONTINUOUS
 62
    2
 10
792.16328124999359
 20
698.90000000000111
 11
792.16328124999359
 21
693.30000000000132
  0
LINE
  8
_0-0_計極細
  6
CONTINUOUS
 62
    2
 10
779.1632812499937
 20
573.90000000000077
 11
779.1632812499937
 21
579.90000000000066
  0
LINE
  8
_0-0_計極細
  6
CONTINUOUS
 62
    2
 10
792.16328124999359
 20
573.90000000000077
 11
792.16328124999359
 21
579.90000000000066
  0
LINE
  8
_0-0_計極細
  6
CENTER1
 62
    2
 10
785.66328124999359
 20
753.85071942446314
 11
785.66328124999359
 21
537.34217625898884
  0
LINE
  8
_0-0_計極細
  6
CONTINUOUS
 62
    2
 10
779.1632812499937
 20
556.50000000000011
 11
779.1632812499937
 21
562.50000000000011
  0
LINE
  8
_0-0_計極細
  6
CONTINUOUS
 62
    2
 10
792.16328124999359
 20
556.50000000000011
 11
792.16328124999359
 21
562.50000000000011
  0
LINE
  8
_0-0_計極細
  6
CONTINUOUS
 62
    2
 10
323.16328124999359
 20
591.30000000000121
 11
323.16328124999359
 21
596.90000000000157
  0
LINE
  8
_0-0_計極細
  6
CONTINUOUS
 62
    2
 10
336.16328124999364
 20
591.30000000000121
 11
336.16328124999364
 21
596.90000000000157
  0
LINE
  8
_0-0_計極細
  6
CONTINUOUS
 62
    2
 10
323.16328124999359
 20
608.30000000000211
 11
323.16328124999359
 21
613.90000000000248
  0
LINE
  8
_0-0_計極細
  6
CONTINUOUS
 62
    2
 10
336.16328124999364
 20
608.30000000000211
 11
336.16328124999364
 21
613.90000000000248
  0
LINE
  8
_0-0_計極細
  6
CONTINUOUS
 62
    2
 10
323.16328124999359
 20
630.89999999999839
 11
323.16328124999359
 21
625.29999999999848
  0
LINE
  8
_0-0_計極細
  6
CONTINUOUS
 62
    2
 10
336.16328124999364
 20
630.89999999999839
 11
336.16328124999364
 21
625.29999999999848
  0
LINE
  8
_0-0_計極細
  6
CONTINUOUS
 62
    2
 10
323.16328124999359
 20
716.30000000000041
 11
323.16328124999359
 21
710.3000000000003
  0
LINE
  8
_0-0_計極細
  6
CONTINUOUS
 62
    2
 10
336.16328124999364
 20
716.30000000000041
 11
336.16328124999364
 21
710.3000000000003
  0
LINE
  8
_0-0_計極細
  6
CONTINUOUS
 62
    2
 10
323.16328124999359
 20
733.7000000000005
 11
323.16328124999359
 21
727.69999999999993
  0
LINE
  8
_0-0_計極細
  6
CONTINUOUS
 62
    2
 10
336.16328124999364
 20
733.7000000000005
 11
336.16328124999364
 21
727.69999999999993
  0
LINE
  8
_0-0_計極細
  6
CONTINUOUS
 62
    2
 10
323.16328124999359
 20
664.89999999999986
 11
323.16328124999359
 21
659.29999999999939
  0
LINE
  8
_0-0_計極細
  6
CONTINUOUS
 62
    2
 10
336.16328124999364
 20
664.89999999999986
 11
336.16328124999364
 21
659.29999999999939
  0
LINE
  8
_0-0_計極細
  6
CONTINUOUS
 62
    2
 10
323.16328124999359
 20
681.90000000000066
 11
323.16328124999359
 21
676.30000000000041
  0
LINE
  8
_0-0_計極細
  6
CONTINUOUS
 62
    2
 10
336.16328124999364
 20
681.90000000000066
 11
336.16328124999364
 21
676.30000000000041
  0
LINE
  8
_0-0_計極細
  6
CONTINUOUS
 62
    2
 10
323.16328124999359
 20
698.90000000000111
 11
323.16328124999359
 21
693.30000000000132
  0
LINE
  8
_0-0_計極細
  6
CONTINUOUS
 62
    2
 10
336.16328124999364
 20
698.90000000000111
 11
336.16328124999364
 21
693.30000000000132
  0
LINE
  8
_0-0_計極細
  6
CONTINUOUS
 62
    2
 10
323.16328124999359
 20
573.90000000000077
 11
323.16328124999359
 21
579.90000000000066
  0
LINE
  8
_0-0_計極細
  6
CONTINUOUS
 62
    2
 10
336.16328124999364
 20
573.90000000000077
 11
336.16328124999364
 21
579.90000000000066
  0
LINE
  8
_0-0_計極細
  6
CENTER1
 62
    2
 10
329.66328124999359
 20
753.85071942446314
 11
329.66328124999359
 21
537.34217625898884
  0
LINE
  8
_0-0_計極細
  6
CONTINUOUS
 62
    2
 10
323.16328124999359
 20
556.50000000000011
 11
323.16328124999359
 21
562.50000000000011
  0
LINE
  8
_0-0_計極細
  6
CONTINUOUS
 62
    2
 10
336.16328124999364
 20
556.50000000000011
 11
336.16328124999364
 21
562.50000000000011
  0
LINE
  8
_0-0_計極細
  6
CONTINUOUS
 62
    2
 10
420.16328124999359
 20
591.30000000000121
 11
420.16328124999359
 21
596.90000000000157
  0
LINE
  8
_0-0_計極細
  6
CONTINUOUS
 62
    2
 10
433.16328124999359
 20
591.30000000000121
 11
433.16328124999359
 21
596.90000000000157
  0
LINE
  8
_0-0_計極細
  6
CONTINUOUS
 62
    2
 10
420.16328124999359
 20
608.30000000000211
 11
420.16328124999359
 21
613.90000000000248
  0
LINE
  8
_0-0_計極細
  6
CONTINUOUS
 62
    2
 10
433.16328124999359
 20
608.30000000000211
 11
433.16328124999359
 21
613.90000000000248
  0
LINE
  8
_0-0_計極細
  6
CONTINUOUS
 62
    2
 10
420.16328124999359
 20
630.89999999999839
 11
420.16328124999359
 21
625.29999999999848
  0
LINE
  8
_0-0_計極細
  6
CONTINUOUS
 62
    2
 10
433.16328124999359
 20
630.89999999999839
 11
433.16328124999359
 21
625.29999999999848
  0
LINE
  8
_0-0_計極細
  6
CONTINUOUS
 62
    2
 10
420.16328124999359
 20
647.89999999999895
 11
420.16328124999359
 21
642.29999999999893
  0
LINE
  8
_0-0_計極細
  6
CONTINUOUS
 62
    2
 10
433.16328124999359
 20
647.89999999999895
 11
433.16328124999359
 21
642.29999999999893
  0
LINE
  8
_0-0_計極細
  6
CONTINUOUS
 62
    2
 10
420.16328124999359
 20
716.30000000000041
 11
420.16328124999359
 21
710.3000000000003
  0
LINE
  8
_0-0_計極細
  6
CONTINUOUS
 62
    2
 10
433.16328124999359
 20
716.30000000000041
 11
433.16328124999359
 21
710.3000000000003
  0
LINE
  8
_0-0_計極細
  6
CONTINUOUS
 62
    2
 10
420.16328124999359
 20
733.7000000000005
 11
420.16328124999359
 21
727.69999999999993
  0
LINE
  8
_0-0_計極細
  6
CONTINUOUS
 62
    2
 10
433.16328124999359
 20
733.7000000000005
 11
433.16328124999359
 21
727.69999999999993
  0
LINE
  8
_0-0_計極細
  6
CONTINUOUS
 62
    2
 10
420.16328124999359
 20
664.89999999999986
 11
420.16328124999359
 21
659.29999999999939
  0
LINE
  8
_0-0_計極細
  6
CONTINUOUS
 62
    2
 10
433.16328124999359
 20
664.89999999999986
 11
433.16328124999359
 21
659.29999999999939
  0
LINE
  8
_0-0_計極細
  6
CONTINUOUS
 62
    2
 10
420.16328124999359
 20
681.90000000000066
 11
420.16328124999359
 21
676.30000000000041
  0
LINE
  8
_0-0_計極細
  6
CONTINUOUS
 62
    2
 10
433.16328124999359
 20
681.90000000000066
 11
433.16328124999359
 21
676.30000000000041
  0
LINE
  8
_0-0_計極細
  6
CONTINUOUS
 62
    2
 10
420.16328124999359
 20
698.90000000000111
 11
420.16328124999359
 21
693.30000000000132
  0
LINE
  8
_0-0_計極細
  6
CONTINUOUS
 62
    2
 10
433.16328124999359
 20
698.90000000000111
 11
433.16328124999359
 21
693.30000000000132
  0
LINE
  8
_0-0_計極細
  6
CONTINUOUS
 62
    2
 10
420.16328124999359
 20
573.90000000000077
 11
420.16328124999359
 21
579.90000000000066
  0
LINE
  8
_0-0_計極細
  6
CONTINUOUS
 62
    2
 10
433.16328124999359
 20
573.90000000000077
 11
433.16328124999359
 21
579.90000000000066
  0
LINE
  8
_0-0_計極細
  6
CENTER1
 62
    2
 10
426.66328124999359
 20
753.85071942446314
 11
426.66328124999359
 21
537.34217625898884
  0
LINE
  8
_0-0_計極細
  6
CONTINUOUS
 62
    2
 10
420.16328124999359
 20
556.50000000000011
 11
420.16328124999359
 21
562.50000000000011
  0
LINE
  8
_0-0_計極細
  6
CONTINUOUS
 62
    2
 10
433.16328124999359
 20
556.50000000000011
 11
433.16328124999359
 21
562.50000000000011
  0
LINE
  8
_0-0_計極細
  6
CONTINUOUS
 62
    2
 10
517.16328124999336
 20
591.30000000000121
 11
517.16328124999336
 21
596.90000000000157
  0
LINE
  8
_0-0_計極細
  6
CONTINUOUS
 62
    2
 10
530.16328124999359
 20
591.30000000000121
 11
530.16328124999359
 21
596.90000000000157
  0
LINE
  8
_0-0_計極細
  6
CONTINUOUS
 62
    2
 10
517.16328124999336
 20
608.30000000000211
 11
517.16328124999336
 21
613.90000000000248
  0
LINE
  8
_0-0_計極細
  6
CONTINUOUS
 62
    2
 10
530.16328124999359
 20
608.30000000000211
 11
530.16328124999359
 21
613.90000000000248
  0
LINE
  8
_0-0_計極細
  6
CONTINUOUS
 62
    2
 10
517.16328124999336
 20
630.89999999999839
 11
517.16328124999336
 21
625.29999999999848
  0
LINE
  8
_0-0_計極細
  6
CONTINUOUS
 62
    2
 10
530.16328124999359
 20
630.89999999999839
 11
530.16328124999359
 21
625.29999999999848
  0
LINE
  8
_0-0_計極細
  6
CONTINUOUS
 62
    2
 10
517.16328124999336
 20
647.89999999999895
 11
517.16328124999336
 21
642.29999999999893
  0
LINE
  8
_0-0_計極細
  6
CONTINUOUS
 62
    2
 10
530.16328124999359
 20
647.89999999999895
 11
530.16328124999359
 21
642.29999999999893
  0
LINE
  8
_0-0_計極細
  6
CONTINUOUS
 62
    2
 10
517.16328124999336
 20
716.30000000000041
 11
517.16328124999336
 21
710.3000000000003
  0
LINE
  8
_0-0_計極細
  6
CONTINUOUS
 62
    2
 10
530.16328124999359
 20
716.30000000000041
 11
530.16328124999359
 21
710.3000000000003
  0
LINE
  8
_0-0_計極細
  6
CONTINUOUS
 62
    2
 10
517.16328124999336
 20
733.7000000000005
 11
517.16328124999336
 21
727.69999999999993
  0
LINE
  8
_0-0_計極細
  6
CONTINUOUS
 62
    2
 10
530.16328124999359
 20
733.7000000000005
 11
530.16328124999359
 21
727.69999999999993
  0
LINE
  8
_0-0_計極細
  6
CONTINUOUS
 62
    2
 10
517.16328124999336
 20
664.89999999999986
 11
517.16328124999336
 21
659.29999999999939
  0
LINE
  8
_0-0_計極細
  6
CONTINUOUS
 62
    2
 10
530.16328124999359
 20
664.89999999999986
 11
530.16328124999359
 21
659.29999999999939
  0
LINE
  8
_0-0_計極細
  6
CONTINUOUS
 62
    2
 10
517.16328124999336
 20
681.90000000000066
 11
517.16328124999336
 21
676.30000000000041
  0
LINE
  8
_0-0_計極細
  6
CONTINUOUS
 62
    2
 10
530.16328124999359
 20
681.90000000000066
 11
530.16328124999359
 21
676.30000000000041
  0
LINE
  8
_0-0_計極細
  6
CONTINUOUS
 62
    2
 10
517.16328124999336
 20
698.90000000000111
 11
517.16328124999336
 21
693.30000000000132
  0
LINE
  8
_0-0_計極細
  6
CONTINUOUS
 62
    2
 10
530.16328124999359
 20
698.90000000000111
 11
530.16328124999359
 21
693.30000000000132
  0
LINE
  8
_0-0_計極細
  6
CONTINUOUS
 62
    2
 10
517.16328124999336
 20
573.90000000000077
 11
517.16328124999336
 21
579.90000000000066
  0
LINE
  8
_0-0_計極細
  6
CONTINUOUS
 62
    2
 10
530.16328124999359
 20
573.90000000000077
 11
530.16328124999359
 21
579.90000000000066
  0
LINE
  8
_0-0_計極細
  6
CENTER1
 62
    2
 10
523.66328124999359
 20
753.85071942446314
 11
523.66328124999359
 21
537.34217625898884
  0
LINE
  8
_0-0_計極細
  6
CONTINUOUS
 62
    2
 10
517.16328124999336
 20
556.50000000000011
 11
517.16328124999336
 21
562.50000000000011
  0
LINE
  8
_0-0_計極細
  6
CONTINUOUS
 62
    2
 10
530.16328124999359
 20
556.50000000000011
 11
530.16328124999359
 21
562.50000000000011
  0
LINE
  8
_0-0_計極細
  6
CONTINUOUS
 62
    2
 10
682.16328124999359
 20
591.30000000000121
 11
682.16328124999359
 21
596.90000000000157
  0
LINE
  8
_0-0_計極細
  6
CONTINUOUS
 62
    2
 10
695.16328124999359
 20
591.30000000000121
 11
695.16328124999359
 21
596.90000000000157
  0
LINE
  8
_0-0_計極細
  6
CONTINUOUS
 62
    2
 10
682.16328124999359
 20
608.30000000000211
 11
682.16328124999359
 21
613.90000000000248
  0
LINE
  8
_0-0_計極細
  6
CONTINUOUS
 62
    2
 10
695.16328124999359
 20
608.30000000000211
 11
695.16328124999359
 21
613.90000000000248
  0
LINE
  8
_0-0_計極細
  6
CONTINUOUS
 62
    2
 10
682.16328124999359
 20
630.89999999999839
 11
682.16328124999359
 21
625.29999999999848
  0
LINE
  8
_0-0_計極細
  6
CONTINUOUS
 62
    2
 10
695.16328124999359
 20
630.89999999999839
 11
695.16328124999359
 21
625.29999999999848
  0
LINE
  8
_0-0_計極細
  6
CONTINUOUS
 62
    2
 10
682.16328124999359
 20
647.89999999999895
 11
682.16328124999359
 21
642.29999999999893
  0
LINE
  8
_0-0_計極細
  6
CONTINUOUS
 62
    2
 10
695.16328124999359
 20
647.89999999999895
 11
695.16328124999359
 21
642.29999999999893
  0
LINE
  8
_0-0_計極細
  6
CONTINUOUS
 62
    2
 10
682.16328124999359
 20
716.30000000000041
 11
682.16328124999359
 21
710.3000000000003
  0
LINE
  8
_0-0_計極細
  6
CONTINUOUS
 62
    2
 10
695.16328124999359
 20
716.30000000000041
 11
695.16328124999359
 21
710.3000000000003
  0
LINE
  8
_0-0_計極細
  6
CONTINUOUS
 62
    2
 10
682.16328124999359
 20
733.7000000000005
 11
682.16328124999359
 21
727.69999999999993
  0
LINE
  8
_0-0_計極細
  6
CONTINUOUS
 62
    2
 10
695.16328124999359
 20
733.7000000000005
 11
695.16328124999359
 21
727.69999999999993
  0
LINE
  8
_0-0_計極細
  6
CONTINUOUS
 62
    2
 10
682.16328124999359
 20
664.89999999999986
 11
682.16328124999359
 21
659.29999999999939
  0
LINE
  8
_0-0_計極細
  6
CONTINUOUS
 62
    2
 10
695.16328124999359
 20
664.89999999999986
 11
695.16328124999359
 21
659.29999999999939
  0
LINE
  8
_0-0_計極細
  6
CONTINUOUS
 62
    2
 10
682.16328124999359
 20
681.90000000000066
 11
682.16328124999359
 21
676.30000000000041
  0
LINE
  8
_0-0_計極細
  6
CONTINUOUS
 62
    2
 10
695.16328124999359
 20
681.90000000000066
 11
695.16328124999359
 21
676.30000000000041
  0
LINE
  8
_0-0_計極細
  6
CONTINUOUS
 62
    2
 10
682.16328124999359
 20
698.90000000000111
 11
682.16328124999359
 21
693.30000000000132
  0
LINE
  8
_0-0_計極細
  6
CONTINUOUS
 62
    2
 10
695.16328124999359
 20
698.90000000000111
 11
695.16328124999359
 21
693.30000000000132
  0
LINE
  8
_0-0_計極細
  6
CONTINUOUS
 62
    2
 10
682.16328124999359
 20
573.90000000000077
 11
682.16328124999359
 21
579.90000000000066
  0
LINE
  8
_0-0_計極細
  6
CONTINUOUS
 62
    2
 10
695.16328124999359
 20
573.90000000000077
 11
695.16328124999359
 21
579.90000000000066
  0
LINE
  8
_0-0_計極細
  6
CENTER1
 62
    2
 10
688.66328124999359
 20
753.85071942446314
 11
688.66328124999359
 21
537.34217625898884
  0
LINE
  8
_0-0_計極細
  6
CONTINUOUS
 62
    2
 10
682.16328124999359
 20
556.50000000000011
 11
682.16328124999359
 21
562.50000000000011
  0
LINE
  8
_0-0_計極細
  6
CONTINUOUS
 62
    2
 10
695.16328124999359
 20
556.50000000000011
 11
695.16328124999359
 21
562.50000000000011
  0
LINE
  8
_0-0_計極細
  6
CONTINUOUS
 62
    2
 10
585.16328124999359
 20
591.30000000000121
 11
585.16328124999359
 21
596.90000000000157
  0
LINE
  8
_0-0_計極細
  6
CONTINUOUS
 62
    2
 10
598.16328124999359
 20
591.30000000000121
 11
598.16328124999359
 21
596.90000000000157
  0
LINE
  8
_0-0_計極細
  6
CONTINUOUS
 62
    2
 10
585.16328124999359
 20
608.30000000000211
 11
585.16328124999359
 21
613.90000000000248
  0
LINE
  8
_0-0_計極細
  6
CONTINUOUS
 62
    2
 10
598.16328124999359
 20
608.30000000000211
 11
598.16328124999359
 21
613.90000000000248
  0
LINE
  8
_0-0_計極細
  6
CONTINUOUS
 62
    2
 10
585.16328124999359
 20
630.89999999999839
 11
585.16328124999359
 21
625.29999999999848
  0
LINE
  8
_0-0_計極細
  6
CONTINUOUS
 62
    2
 10
598.16328124999359
 20
630.89999999999839
 11
598.16328124999359
 21
625.29999999999848
  0
LINE
  8
_0-0_計極細
  6
CONTINUOUS
 62
    2
 10
585.16328124999359
 20
647.89999999999895
 11
585.16328124999359
 21
642.29999999999893
  0
LINE
  8
_0-0_計極細
  6
CONTINUOUS
 62
    2
 10
598.16328124999359
 20
647.89999999999895
 11
598.16328124999359
 21
642.29999999999893
  0
LINE
  8
_0-0_計極細
  6
CONTINUOUS
 62
    2
 10
585.16328124999359
 20
716.30000000000041
 11
585.16328124999359
 21
710.3000000000003
  0
LINE
  8
_0-0_計極細
  6
CONTINUOUS
 62
    2
 10
598.16328124999359
 20
716.30000000000041
 11
598.16328124999359
 21
710.3000000000003
  0
LINE
  8
_0-0_計極細
  6
CONTINUOUS
 62
    2
 10
585.16328124999359
 20
733.7000000000005
 11
585.16328124999359
 21
727.69999999999993
  0
LINE
  8
_0-0_計極細
  6
CONTINUOUS
 62
    2
 10
598.16328124999359
 20
733.7000000000005
 11
598.16328124999359
 21
727.69999999999993
  0
LINE
  8
_0-0_計極細
  6
CONTINUOUS
 62
    2
 10
585.16328124999359
 20
664.89999999999986
 11
585.16328124999359
 21
659.29999999999939
  0
LINE
  8
_0-0_計極細
  6
CONTINUOUS
 62
    2
 10
598.16328124999359
 20
664.89999999999986
 11
598.16328124999359
 21
659.29999999999939
  0
LINE
  8
_0-0_計極細
  6
CONTINUOUS
 62
    2
 10
585.16328124999359
 20
681.90000000000066
 11
585.16328124999359
 21
676.30000000000041
  0
LINE
  8
_0-0_計極細
  6
CONTINUOUS
 62
    2
 10
598.16328124999359
 20
681.90000000000066
 11
598.16328124999359
 21
676.30000000000041
  0
LINE
  8
_0-0_計極細
  6
CONTINUOUS
 62
    2
 10
585.16328124999359
 20
698.90000000000111
 11
585.16328124999359
 21
693.30000000000132
  0
LINE
  8
_0-0_計極細
  6
CONTINUOUS
 62
    2
 10
598.16328124999359
 20
698.90000000000111
 11
598.16328124999359
 21
693.30000000000132
  0
LINE
  8
_0-0_計極細
  6
CONTINUOUS
 62
    2
 10
585.16328124999359
 20
573.90000000000077
 11
585.16328124999359
 21
579.90000000000066
  0
LINE
  8
_0-0_計極細
  6
CONTINUOUS
 62
    2
 10
598.16328124999359
 20
573.90000000000077
 11
598.16328124999359
 21
579.90000000000066
  0
LINE
  8
_0-0_計極細
  6
CENTER1
 62
    2
 10
591.66328124999359
 20
753.85071942446314
 11
591.66328124999359
 21
537.34217625898884
  0
LINE
  8
_0-0_計極細
  6
CONTINUOUS
 62
    2
 10
585.16328124999359
 20
556.50000000000011
 11
585.16328124999359
 21
562.50000000000011
  0
LINE
  8
_0-0_計極細
  6
CONTINUOUS
 62
    2
 10
598.16328124999359
 20
556.50000000000011
 11
598.16328124999359
 21
562.50000000000011
  0
LINE
  8
_0-5_寸法線
  6
CONTINUOUS
 62
    7
 10
186.16328124999228
 20
750.10000000000002
 11
141.16328124999697
 21
750.10000000000002
  0
LINE
  8
_0-5_寸法線
  6
CONTINUOUS
 62
    7
 10
146.16328124999697
 20
750.10000000000002
 11
148.75147170102218
 21
740.44074173710942
  0
LINE
  8
_0-5_寸法線
  6
CONTINUOUS
 62
    7
 10
146.16328124999697
 20
750.10000000000002
 11
143.57509079897176
 21
740.44074173710942
  0
LINE
  8
_0-5_寸法線
  6
CONTINUOUS
 62
    7
 10
186.1632812499947
 20
720.10000000000002
 11
141.16328124999725
 21
720.10000000000002
  0
LINE
  8
_0-5_寸法線
  6
CONTINUOUS
 62
    7
 10
146.16328124999725
 20
720.10000000000002
 11
143.57509079897198
 21
729.75925826289074
  0
LINE
  8
_0-5_寸法線
  6
CONTINUOUS
 62
    7
 10
146.16328124999725
 20
720.10000000000002
 11
148.75147170102238
 21
729.75925826289074
  0
LINE
  8
_0-5_寸法線
  6
CONTINUOUS
 62
    7
 10
146.16328124999697
 20
750.10000000000002
 11
146.16328124999725
 21
720.10000000000002
  0
TEXT
  8
_0-5_寸法線
 62
    7
 10
146.16328124999697
 20
727.60000000000002
 40
15
 41
1
 50
90
  1
30
  0
LINE
  8
_0-5_寸法線
  6
CONTINUOUS
 62
    7
 10
146.16328124999725
 20
720.10000000000002
 11
148.75147170102238
 21
710.44074173710942
  0
LINE
  8
_0-5_寸法線
  6
CONTINUOUS
 62
    7
 10
146.16328124999725
 20
720.10000000000002
 11
143.57509079897198
 21
710.44074173710942
  0
LINE
  8
_0-5_寸法線
  6
CONTINUOUS
 62
    7
 10
186.16328124999242
 20
570.10000000000048
 11
141.16328124999745
 21
570.10000000000048
  0
LINE
  8
_0-5_寸法線
  6
CONTINUOUS
 62
    7
 10
146.16328124999745
 20
570.10000000000048
 11
143.57509079897227
 21
579.75925826289119
  0
LINE
  8
_0-5_寸法線
  6
CONTINUOUS
 62
    7
 10
146.16328124999745
 20
570.10000000000048
 11
148.75147170102267
 21
579.75925826289119
  0
LINE
  8
_0-5_寸法線
  6
CONTINUOUS
 62
    7
 10
146.16328124999725
 20
720.10000000000002
 11
146.16328124999745
 21
570.10000000000048
  0
TEXT
  8
_0-5_寸法線
 62
    7
 10
146.16328124999717
 20
633.85000000000048
 40
15
 41
1
 50
89.999999999999815
  1
150
  0
LINE
  8
_0-5_寸法線
  6
CONTINUOUS
 62
    7
 10
146.16328124999745
 20
570.10000000000048
 11
148.75147170102267
 21
560.44074173710987
  0
LINE
  8
_0-5_寸法線
  6
CONTINUOUS
 62
    7
 10
146.16328124999745
 20
570.10000000000048
 11
143.57509079897227
 21
560.44074173710987
  0
LINE
  8
_0-5_寸法線
  6
CONTINUOUS
 62
    7
 10
186.16328124999745
 20
540.10000000000321
 11
141.16328124999745
 21
540.10000000000321
  0
LINE
  8
_0-5_寸法線
  6
CONTINUOUS
 62
    7
 10
146.16328124999745
 20
540.10000000000321
 11
143.57509079897227
 21
549.75925826289404
  0
LINE
  8
_0-5_寸法線
  6
CONTINUOUS
 62
    7
 10
146.16328124999745
 20
540.10000000000321
 11
148.75147170102267
 21
549.75925826289404
  0
LINE
  8
_0-5_寸法線
  6
CONTINUOUS
 62
    7
 10
146.16328124999745
 20
570.10000000000048
 11
146.16328124999745
 21
540.10000000000321
  0
TEXT
  8
_0-5_寸法線
 62
    7
 10
146.16328124999745
 20
547.60000000000196
 40
15
 41
1
 50
90
  1
30
  0
LINE
  8
_0-5_寸法線
  6
CONTINUOUS
 62
    7
 10
217.66328124999362
 20
760.10000000000002
 11
217.66328124999362
 21
805.09999999999923
  0
LINE
  8
_0-5_寸法線
  6
CONTINUOUS
 62
    7
 10
217.66328124999362
 20
800.09999999999923
 11
227.32253951288428
 21
802.6881904510243
  0
LINE
  8
_0-5_寸法線
  6
CONTINUOUS
 62
    7
 10
217.66328124999362
 20
800.09999999999923
 11
227.32253951288428
 21
797.51180954897393
  0
LINE
  8
_0-5_寸法線
  6
CONTINUOUS
 62
    7
 10
232.66328124999362
 20
760.10000000000002
 11
232.66328124999362
 21
805.09999999999923
  0
LINE
  8
_0-5_寸法線
  6
CONTINUOUS
 62
    7
 10
232.66328124999362
 20
800.09999999999923
 11
223.00402298710296
 21
797.51180954897393
  0
LINE
  8
_0-5_寸法線
  6
CONTINUOUS
 62
    7
 10
232.66328124999362
 20
800.09999999999923
 11
223.00402298710296
 21
802.6881904510243
  0
LINE
  8
_0-5_寸法線
  6
CONTINUOUS
 62
    7
 10
217.66328124999362
 20
800.09999999999923
 11
232.66328124999362
 21
800.09999999999923
  0
TEXT
  8
_0-5_寸法線
 62
    7
 10
217.66328124999362
 20
800.09999999999934
 40
15
 41
1
 50
0
  1
Ａ
  0
LINE
  8
_0-5_寸法線
  6
CONTINUOUS
 62
    7
 10
329.66328124999359
 20
760.10000000000002
 11
329.66328124999359
 21
805.09999999999923
  0
LINE
  8
_0-5_寸法線
  6
CONTINUOUS
 62
    7
 10
329.66328124999359
 20
800.09999999999923
 11
339.32253951288425
 21
802.6881904510243
  0
LINE
  8
_0-5_寸法線
  6
CONTINUOUS
 62
    7
 10
329.66328124999359
 20
800.09999999999923
 11
339.32253951288425
 21
797.51180954897393
  0
LINE
  8
_0-5_寸法線
  6
CONTINUOUS
 62
    7
 10
426.66328124999359
 20
760.10000000000002
 11
426.66328124999359
 21
805.09999999999923
  0
LINE
  8
_0-5_寸法線
  6
CONTINUOUS
 62
    7
 10
426.66328124999359
 20
800.09999999999923
 11
417.00402298710287
 21
797.51180954897393
  0
LINE
  8
_0-5_寸法線
  6
CONTINUOUS
 62
    7
 10
426.66328124999359
 20
800.09999999999923
 11
417.00402298710293
 21
802.6881904510243
  0
LINE
  8
_0-5_寸法線
  6
CONTINUOUS
 62
    7
 10
329.66328124999359
 20
800.09999999999923
 11
426.66328124999359
 21
800.09999999999923
  0
TEXT
  8
_0-5_寸法線
 62
    7
 10
370.66328124999359
 20
800.09999999999934
 40
15
 41
1
 50
0
  1
97
  0
LINE
  8
_0-5_寸法線
  6
CONTINUOUS
 62
    7
 10
426.66328124999359
 20
800.09999999999923
 11
436.3225395128843
 21
802.6881904510243
  0
LINE
  8
_0-5_寸法線
  6
CONTINUOUS
 62
    7
 10
426.66328124999359
 20
800.09999999999923
 11
436.32253951288425
 21
797.51180954897393
  0
LINE
  8
_0-5_寸法線
  6
CONTINUOUS
 62
    7
 10
523.66328124999359
 20
760.10000000000002
 11
523.6632812499937
 21
805.09999999999923
  0
LINE
  8
_0-5_寸法線
  6
CONTINUOUS
 62
    7
 10
523.6632812499937
 20
800.09999999999923
 11
514.0040229871031
 21
797.51180954897393
  0
LINE
  8
_0-5_寸法線
  6
CONTINUOUS
 62
    7
 10
523.6632812499937
 20
800.09999999999923
 11
514.0040229871031
 21
802.6881904510243
  0
LINE
  8
_0-5_寸法線
  6
CONTINUOUS
 62
    7
 10
426.66328124999359
 20
800.09999999999923
 11
523.6632812499937
 21
800.09999999999923
  0
TEXT
  8
_0-5_寸法線
 62
    7
 10
467.66328124999382
 20
800.09999999999934
 40
15
 41
1
 50
0
  1
97
  0
LINE
  8
_0-5_寸法線
  6
CONTINUOUS
 62
    7
 10
523.6632812499937
 20
800.09999999999923
 11
533.32253951288442
 21
802.6881904510243
  0
LINE
  8
_0-5_寸法線
  6
CONTINUOUS
 62
    7
 10
523.6632812499937
 20
800.09999999999923
 11
533.32253951288442
 21
797.51180954897393
  0
LINE
  8
_0-5_寸法線
  6
CONTINUOUS
 62
    7
 10
591.66328124999359
 20
760.10000000000002
 11
591.6632812499937
 21
805.09999999999923
  0
LINE
  8
_0-5_寸法線
  6
CONTINUOUS
 62
    7
 10
591.6632812499937
 20
800.09999999999923
 11
582.00402298710299
 21
797.51180954897393
  0
LINE
  8
_0-5_寸法線
  6
CONTINUOUS
 62
    7
 10
591.6632812499937
 20
800.09999999999923
 11
582.00402298710299
 21
802.6881904510243
  0
LINE
  8
_0-5_寸法線
  6
CONTINUOUS
 62
    7
 10
523.6632812499937
 20
800.09999999999923
 11
591.6632812499937
 21
800.09999999999923
  0
TEXT
  8
_0-5_寸法線
 62
    7
 10
550.16328124999382
 20
800.09999999999934
 40
15
 41
1
 50
0
  1
Ｂ
  0
LINE
  8
_0-5_寸法線
  6
CONTINUOUS
 62
    7
 10
425.75948447018504
 20
542.07500000000186
 11
430.75948448130958
 21
533.41474596858006
  0
LINE
  8
_0-5_寸法線
  6
CONTINUOUS
 62
    7
 10
425.75948447018504
 20
542.07500000000186
 11
425.75948448303052
 21
532.07500000000186
  0
LINE
  8
_0-5_寸法線
  6
CONTINUOUS
 62
    7
 10
425.75948447018504
 20
542.07500000000186
 11
437.600854027651
 21
497.88240740740923
  0
LINE
  8
_0-5_寸法線
  6
CONTINUOUS
 62
    7
 10
437.600854027651
 20
497.88240740740923
 11
545.60085402765117
 21
497.88240740740923
  0
TEXT
  8
_0-5_寸法線
 62
    7
 10
437.600854027651
 20
498.4824074074092
 40
15
 41
0.8000000000000001
 50
0
  1
ＳＵＳアングル受枠
  0
LINE
  8
_0-5_寸法線
  6
CONTINUOUS
 62
    7
 10
568.04419131073678
 20
584.79642948171636
 11
573.04419129863481
 21
576.13617543688474
  0
LINE
  8
_0-5_寸法線
  6
CONTINUOUS
 62
    7
 10
568.04419131073678
 20
584.79642948171636
 11
568.04419129676262
 21
574.79642948171636
  0
LINE
  8
_0-5_寸法線
  6
CONTINUOUS
 62
    7
 10
568.04419131073678
 20
584.79642948171636
 11
591.40167430023098
 21
497.62511574074108
  0
LINE
  8
_0-5_寸法線
  6
CONTINUOUS
 62
    7
 10
591.40167430023098
 20
497.62511574074108
 11
723.40167430023121
 21
497.62511574074108
  0
TEXT
  8
_0-5_寸法線
 62
    7
 10
591.40167430023098
 20
497.62511574074108
 40
15
 41
0.8000000000000001
 50
0
  1
セーフティグレーチング
  0
LINE
  8
_0-7_枠細線
  6
CONTINUOUS
 62
    5
 10
359.80510875443821
 20
803.64116852818734
 11
352.30510875443821
 21
818.64116852818734
  0
LINE
  8
_0-7_枠細線
  6
CONTINUOUS
 62
    5
 10
344.80510875443821
 20
803.64116852818734
 11
359.80510875443821
 21
803.64116852818734
  0
LINE
  8
_0-7_枠細線
  6
CONTINUOUS
 62
    5
 10
352.30510875443821
 20
818.64116852818734
 11
344.80510875443821
 21
803.64116852818734
  0
TEXT
  8
_0-7_枠細線
 62
    5
 10
347.17026002258626
 20
803.3341662828069
 40
12.5
 41
0.8
 50
0
  1
１
  0
TEXT
  8
_0-5_寸法線
 62
    7
 10
437.600854027651
 20
482.88240740740923
 40
15
 41
0.8000000000000001
 50
0
  1
ＧＳＬ－２５
  0
TEXT
  8
_0-5_寸法線
 62
    7
 10
591.63692024015359
 20
482.75381944444518
 40
15
 41
0.8000000000000001
 50
0
  1
ＧＲＳ－２５Ｗ２００
  0
LINE
  8
_0-1_計細線
  6
CONTINUOUS
 62
    3
 10
217.66328124999362
 20
659.29999999999939
 11
800.66328124999359
 21
659.29999999999939
  0
LINE
  8
_0-1_計細線
  6
CONTINUOUS
 62
    3
 10
800.66328124999359
 20
659.29999999999939
 11
800.66328124999359
 21
647.89999999999895
  0
LINE
  8
_0-0_計極細
  6
CONTINUOUS
 62
    2
 10
217.66328124999362
 20
651.09999999999957
 11
800.66328124999359
 21
651.09999999999957
  0
LINE
  8
_0-0_計極細
  6
CONTINUOUS
 62
    2
 10
217.66328124999362
 20
656.09999999999957
 11
800.66328124999359
 21
656.09999999999957
  0
LINE
  8
_0-1_計細線
  6
CONTINUOUS
 62
    3
 10
217.66328124999362
 20
659.29999999999939
 11
217.66328124999362
 21
647.89999999999895
  0
LINE
  8
_0-1_計細線
  6
CONTINUOUS
 62
    3
 10
217.66328124999362
 20
647.89999999999895
 11
800.66328124999359
 21
647.89999999999895
  0
LINE
  8
_0-1_計細線
  6
CONTINUOUS
 62
    3
 10
217.66328124999362
 20
630.89999999999839
 11
800.66328124999359
 21
630.89999999999839
  0
LINE
  8
_0-1_計細線
  6
CONTINUOUS
 62
    3
 10
800.66328124999359
 20
642.29999999999893
 11
800.66328124999359
 21
630.89999999999839
  0
LINE
  8
_0-0_計極細
  6
CONTINUOUS
 62
    2
 10
217.66328124999362
 20
634.09999999999866
 11
800.66328124999359
 21
634.09999999999866
  0
LINE
  8
_0-0_計極細
  6
CONTINUOUS
 62
    2
 10
217.66328124999362
 20
639.09999999999866
 11
800.66328124999359
 21
639.09999999999866
  0
LINE
  8
_0-1_計細線
  6
CONTINUOUS
 62
    3
 10
217.66328124999362
 20
642.29999999999893
 11
800.66328124999359
 21
642.29999999999893
  0
LINE
  8
_0-1_計細線
  6
CONTINUOUS
 62
    3
 10
217.66328124999362
 20
642.29999999999893
 11
217.66328124999362
 21
630.89999999999839
  0
LINE
  8
_0-0_計極細
  6
CONTINUOUS
 62
    2
 10
323.16328124999359
 20
647.89999999999895
 11
323.16328124999359
 21
647.45000000000095
  0
LINE
  8
_0-0_計極細
  6
CONTINUOUS
 62
    2
 10
323.16328124999359
 20
642.75000000000102
 11
323.16328124999359
 21
642.29999999999893
  0
LINE
  8
_0-0_計極細
  6
CONTINUOUS
 62
    2
 10
336.16328124999364
 20
647.89999999999895
 11
336.16328124999364
 21
647.45000000000095
  0
LINE
  8
_0-0_計極細
  6
CONTINUOUS
 62
    2
 10
336.16328124999364
 20
642.75000000000102
 11
336.16328124999364
 21
642.29999999999893
  0
LINE
  8
_0-5_寸法線
  6
CONTINUOUS
 62
    7
 10
293.70079282966844
 20
643.8671556737869
 11
298.70079282246735
 21
635.20690163178506
  0
LINE
  8
_0-5_寸法線
  6
CONTINUOUS
 62
    7
 10
293.70079282966844
 20
643.8671556737869
 11
293.70079282135339
 21
633.8671556737869
  0
LINE
  8
_0-5_寸法線
  6
CONTINUOUS
 62
    7
 10
293.70079282966844
 20
643.8671556737869
 11
332.8862291988753
 21
497.62511574074108
  0
LINE
  8
_0-5_寸法線
  6
CONTINUOUS
 62
    7
 10
332.8862291988753
 20
497.62511574074108
 11
392.8862291988753
 21
497.62511574074108
  0
TEXT
  8
_0-5_寸法線
 62
    7
 10
332.8862291988753
 20
497.62511574074108
 40
15
 41
0.8000000000000001
 50
0
  1
取　外　具
  0
TEXT
  8
_0-5_寸法線
 62
    7
 10
332.8862291988753
 20
482.62511574074108
 40
15
 41
0.8000000000000001
 50
0
  1
(標準付属)
  0
TEXT
  8
_0-7_枠細線
 62
    5
 10
337.56601656030466
 20
515.08987978569314
 40
12.5
 41
0.8
 50
0
  1
２
  0
LINE
  8
_0-7_枠細線
  6
CONTINUOUS
 62
    5
 10
350.20086529215655
 20
515.3968820310738
 11
342.70086529215655
 21
530.3968820310738
  0
LINE
  8
_0-7_枠細線
  6
CONTINUOUS
 62
    5
 10
335.20086529215655
 20
515.3968820310738
 11
350.20086529215655
 21
515.3968820310738
  0
LINE
  8
_0-7_枠細線
  6
CONTINUOUS
 62
    5
 10
342.70086529215655
 20
530.3968820310738
 11
335.20086529215655
 21
515.3968820310738
  0
LINE
  8
_0-7_枠細線
  6
CONTINUOUS
 62
    5
 10
368.91484920685298
 20
515.3968820310738
 11
361.41484920685298
 21
530.3968820310738
  0
LINE
  8
_0-7_枠細線
  6
CONTINUOUS
 62
    5
 10
353.91484920685298
 20
515.3968820310738
 11
368.91484920685298
 21
515.3968820310738
  0
LINE
  8
_0-7_枠細線
  6
CONTINUOUS
 62
    5
 10
361.41484920685298
 20
530.3968820310738
 11
353.91484920685298
 21
515.3968820310738
  0
TEXT
  8
_0-7_枠細線
 62
    5
 10
356.28000047500109
 20
514.84919814089244
 40
12.5
 41
0.8
 50
0
  1
３
  0
TEXT
  8
_0-7_枠細線
 62
    5
 10
938.85037037037023
 20
840
 40
12.5
 41
1
 50
0
  1
アンカー材質･厚み変更
  0
TEXT
  8
_0-7_枠細線
 62
    5
 10
938.85037037037023
 20
822.5
 40
12.5
 41
1
 50
0
  1
取外具形状変更
  0
LINE
  8
_0-7_枠細線
  6
CONTINUOUS
 62
    5
 10
907.5
 20
836.44233397174673
 11
900
 21
821.44233397174673
  0
LINE
  8
_0-7_枠細線
  6
CONTINUOUS
 62
    5
 10
900
 20
821.44233397174673
 11
915
 21
821.44233397174673
  0
LINE
  8
_0-7_枠細線
  6
CONTINUOUS
 62
    5
 10
915
 20
821.44233397174673
 11
907.5
 21
836.44233397174673
  0
TEXT
  8
_0-7_枠細線
 62
    5
 10
902.36515126814822
 20
821.13533172636653
 40
12.5
 41
0.8
 50
0
  1
６
  0
TEXT
  8
_0-7_枠細線
 62
    5
 10
1180
 20
822.5
 40
12.5
 41
0.7199999999999999
 50
0
  1
２０２１．０５．０６
  0
LINE
  8
_0-7_枠細線
  6
CONTINUOUS
 62
    5
 10
1425
 20
820
 11
890
 21
820
  0
LINE
  8
_0-7_枠細線
  6
CONTINUOUS
 62
    5
 10
890
 20
820
 11
890
 21
959.99999999999898
  0
LINE
  8
_0-7_枠細線
  6
CONTINUOUS
 62
    5
 10
925
 20
820
 11
925
 21
959.99999999999898
  0
LINE
  8
_0-7_枠細線
  6
CONTINUOUS
 62
    5
 10
1175
 20
820
 11
1175
 21
959.99999999999898
  0
LINE
  8
_0-7_枠細線
  6
CONTINUOUS
 62
    5
 10
1275
 20
820
 11
1275
 21
959.99999999999898
  0
LINE
  8
_0-7_枠細線
  6
CONTINUOUS
 62
    5
 10
1225.0000000000018
 20
777.45837512859055
 11
1225.0000000000018
 21
702.45837512859043
  0
TEXT
  8
_0-7_枠細線
 62
    5
 10
1174.000000000003
 20
732.45837512859043
 40
15
 41
0.5999999999999999
 50
0
  1
９９９
  0
TEXT
  8
_0-7_枠細線
 62
    5
 10
1181.500000000003
 20
757.45837512859043
 40
15
 41
0.8000000000000001
 50
0
  1
Ｌ
  0
LINE
  8
_0-7_枠細線
  6
CONTINUOUS
 62
    5
 10
1150.0000000000018
 20
777.45837512859055
 11
1150.0000000000018
 21
702.45837512859043
  0
TEXT
  8
_0-7_枠細線
 62
    5
 10
1094.5000000000016
 20
757.45837512859043
 40
15
 41
0.8000000000000001
 50
0
  1
種　別
  0
TEXT
  8
_0-7_枠細線
 62
    5
 10
1094.5000000000011
 20
732.45837512859043
 40
15
 41
0.8000000000000001
 50
0
  1
定尺品
  0
TEXT
  8
_0-7_枠細線
 62
    5
 10
1094.5000000000011
 20
707.45837512859043
 40
15
 41
0.8000000000000001
 50
0
  1
特寸品
  0
LINE
  8
_0-7_枠細線
  6
CONTINUOUS
 62
    5
 10
1075.0000000000002
 20
777.45837512859055
 11
1075.0000000000002
 21
702.45837512859043
  0
LINE
  8
_0-7_枠細線
  6
CONTINUOUS
 62
    5
 10
1300.000000000002
 20
777.45837512859055
 11
1300.000000000002
 21
702.45837512859043
  0
TEXT
  8
_0-7_枠細線
 62
    5
 10
1256.500000000003
 20
757.45837512859043
 40
15
 41
0.8000000000000001
 50
0
  1
Ａ
  0
TEXT
  8
_0-7_枠細線
 62
    5
 10
1244.5000000000023
 20
732.45837512859043
 40
15
 41
0.5999999999999999
 50
0
  1
１４．５
  0
TEXT
  8
_0-7_枠細線
 62
    5
 10
1151.500000000002
 20
707.45837512859043
 40
15
 41
0.5999999999999999
 50
0
  1
３０５～１３０５
  0
LINE
  8
_0-7_枠細線
  6
CONTINUOUS
 62
    5
 10
1375.0000000000025
 20
777.45837512859055
 11
1375.0000000000025
 21
702.45837512859043
  0
LINE
  8
_0-7_枠細線
  6
CONTINUOUS
 62
    5
 10
1075.0000000000002
 20
777.45837512859055
 11
1375.0000000000025
 21
777.45837512859055
  0
LINE
  8
_0-7_枠細線
  6
CONTINUOUS
 62
    5
 10
1075.0000000000002
 20
752.45837512859043
 11
1375.0000000000025
 21
752.45837512859043
  0
LINE
  8
_0-7_枠細線
  6
CONTINUOUS
 62
    5
 10
1075.0000000000002
 20
727.45837512859043
 11
1375.0000000000025
 21
727.45837512859043
  0
LINE
  8
_0-7_枠細線
  6
CONTINUOUS
 62
    5
 10
1075.0000000000002
 20
702.45837512859043
 11
1375.0000000000025
 21
702.45837512859043
  0
TEXT
  8
_0-7_枠細線
 62
    5
 10
1331.5000000000027
 20
757.45837512859043
 40
15
 41
0.8000000000000001
 50
0
  1
Ｂ
  0
TEXT
  8
_0-7_枠細線
 62
    5
 10
1328.5000000000025
 20
732.45837512859043
 40
15
 41
0.5999999999999999
 50
0
  1
９７
  0
TEXT
  8
_0-7_枠細線
 62
    5
 10
1163.0053911613959
 20
782.45837512859055
 40
17.5
 41
1
 50
0
  1
寸法表
  0
TEXT
  8
_0-7_枠細線
 62
    5
 10
1244.5000000000023
 20
707.45837512859043
 40
15
 41
0.5999999999999999
 50
0
  1
７～２０
  0
TEXT
  8
_0-7_枠細線
 62
    5
 10
1077.0482061696202
 20
681.73280458415547
 40
15
 41
0.8000000000000001
 50
0
  1
※ 特寸品はAが20以下となるようBにて調整
  0
TEXT
  8
_0-7_枠細線
 62
    5
 10
1315.0000000000025
 20
707.45837512859043
 40
15
 41
0.5999999999999999
 50
0
  1
２７～９７
  0
LINE
  8
_0-5_寸法線
  6
CONTINUOUS
 62
    7
 10
832.16328130768431
 20
750.10000021529231
 11
912.16328130768306
 21
750.10000021529231
  0
LINE
  8
_0-5_寸法線
  6
CONTINUOUS
 62
    7
 10
907.16328130768306
 20
750.10000021529231
 11
909.75147175870813
 21
740.44074195240159
  0
LINE
  8
_0-5_寸法線
  6
CONTINUOUS
 62
    7
 10
907.16328130768306
 20
750.10000021529231
 11
904.57509085665777
 21
740.44074195240159
  0
LINE
  8
_0-5_寸法線
  6
CONTINUOUS
 62
    7
 10
832.16328130768352
 20
540.10000021528913
 11
912.16328130768352
 21
540.10000021528913
  0
LINE
  8
_0-5_寸法線
  6
CONTINUOUS
 62
    7
 10
907.16328130768352
 20
540.10000021528913
 11
904.57509085665833
 21
549.75925847817985
  0
LINE
  8
_0-5_寸法線
  6
CONTINUOUS
 62
    7
 10
907.16328130768352
 20
540.10000021528913
 11
909.75147175870859
 21
549.75925847817985
  0
LINE
  8
_0-5_寸法線
  6
CONTINUOUS
 62
    7
 10
907.16328130768306
 20
750.10000021529231
 11
907.16328130768352
 21
540.10000021528913
  0
TEXT
  8
_0-5_寸法線
 62
    7
 10
907.16328130768318
 20
633.85000021529095
 40
15
 41
1
 50
90
  1
210
  0
LINE
  8
_0-5_寸法線
  6
CONTINUOUS
 62
    7
 10
872.16328130768306
 20
750.10000021529231
 11
869.57509085665777
 21
759.75925847818303
  0
LINE
  8
_0-5_寸法線
  6
CONTINUOUS
 62
    7
 10
872.16328130768306
 20
750.10000021529231
 11
874.75147175870813
 21
759.75925847818303
  0
LINE
  8
_0-5_寸法線
  6
CONTINUOUS
 62
    7
 10
832.16328130768431
 20
747.10000021529243
 11
877.16328130768306
 21
747.10000021529243
  0
CIRCLE
  8
_0-5_寸法線
  6
CONTINUOUS
 62
    1
 10
872.16328130768306
 20
747.10000021529243
 40
1.5000000000000002
  0
LINE
  8
_0-5_寸法線
  6
CONTINUOUS
 62
    7
 10
872.16328130768306
 20
775.10000021529231
 11
872.16328130768306
 21
747.10000021529243
  0
TEXT
  8
_0-5_寸法線
 62
    7
 10
872.16328130768284
 20
764.33698880911822
 40
15
 41
1
 50
90
  1
3
  0
LINE
  8
_0-5_寸法線
  6
CONTINUOUS
 62
    7
 10
832.16328130768431
 20
745.10000021529322
 11
877.16328130768306
 21
745.10000021529322
  0
LINE
  8
_0-5_寸法線
  6
CONTINUOUS
 62
    7
 10
872.16328130768306
 20
747.10000021529243
 11
872.16328130768306
 21
745.10000021529322
  0
TEXT
  8
_0-5_寸法線
 62
    7
 10
892.68691500804835
 20
738.82516670824873
 40
15
 41
1
 50
90
  1
2
  0
LINE
  8
_0-5_寸法線
  6
CONTINUOUS
 62
    7
 10
872.16328130768306
 20
745.10000021529322
 11
874.75147175870813
 21
735.4407419524025
  0
LINE
  8
_0-5_寸法線
  6
CONTINUOUS
 62
    7
 10
872.16328130768306
 20
745.10000021529322
 11
869.57509085665777
 21
735.4407419524025
  0
LINE
  8
_0-5_寸法線
  6
CONTINUOUS
 62
    7
 10
832.16328130768431
 20
545.10000021529322
 11
877.16328130768352
 21
545.10000021529322
  0
LINE
  8
_0-5_寸法線
  6
CONTINUOUS
 62
    7
 10
872.16328130768352
 20
545.10000021529322
 11
869.57509085665833
 21
554.75925847818394
  0
LINE
  8
_0-5_寸法線
  6
CONTINUOUS
 62
    7
 10
872.16328130768352
 20
545.10000021529322
 11
874.75147175870859
 21
554.75925847818394
  0
LINE
  8
_0-5_寸法線
  6
CONTINUOUS
 62
    7
 10
872.16328130768306
 20
745.10000021529322
 11
872.16328130768352
 21
545.10000021529322
  0
TEXT
  8
_0-5_寸法線
 62
    7
 10
872.16328130768318
 20
633.85000021529322
 40
15
 41
1
 50
90
  1
200
  0
LINE
  8
_0-5_寸法線
  6
CONTINUOUS
 62
    7
 10
832.16328130768431
 20
543.10000021529368
 11
877.16328130768352
 21
543.10000021529368
  0
CIRCLE
  8
_0-5_寸法線
  6
CONTINUOUS
 62
    1
 10
872.16328130768352
 20
543.10000021529368
 40
1.5000000000000002
  0
LINE
  8
_0-5_寸法線
  6
CONTINUOUS
 62
    7
 10
872.16328130768352
 20
545.10000021529322
 11
872.16328130768352
 21
543.10000021529368
  0
TEXT
  8
_0-5_寸法線
 62
    7
 10
892.59100723609367
 20
542.41496769962157
 40
15
 41
1
 50
90
  1
2
  0
LINE
  8
_0-5_寸法線
  6
CONTINUOUS
 62
    7
 10
872.16328130768352
 20
540.10000021528913
 11
874.75147175870859
 21
530.44074195239841
  0
LINE
  8
_0-5_寸法線
  6
CONTINUOUS
 62
    7
 10
872.16328130768352
 20
540.10000021528913
 11
869.57509085665822
 21
530.44074195239841
  0
LINE
  8
_0-5_寸法線
  6
CONTINUOUS
 62
    7
 10
872.16328130768352
 20
543.10000021529368
 11
872.16328130768352
 21
515.10000021528913
  0
TEXT
  8
_0-5_寸法線
 62
    7
 10
872.16328130768329
 20
520.28218192137422
 40
15
 41
1
 50
90
  1
3
  0
LINE
  8
_0-5_寸法線
  6
CONTINUOUS
 62
    7
 10
217.66328124999376
 20
760.09999999999923
 11
217.66328124999504
 21
840.09999999999923
  0
LINE
  8
_0-5_寸法線
  6
CONTINUOUS
 62
    7
 10
217.66328124999495
 20
835.09999999999923
 11
224.90772494716296
 21
837.04114283826812
  0
LINE
  8
_0-5_寸法線
  6
CONTINUOUS
 62
    7
 10
217.66328124999495
 20
835.09999999999923
 11
224.90772494716296
 21
833.15885716173034
  0
LINE
  8
_0-5_寸法線
  6
CONTINUOUS
 62
    7
 10
800.6632812499937
 20
760.10000000000002
 11
800.66328124999518
 21
840.09999999999923
  0
LINE
  8
_0-5_寸法線
  6
CONTINUOUS
 62
    7
 10
800.66328124999495
 20
835.09999999999923
 11
793.41883755282709
 21
833.15885716173034
  0
LINE
  8
_0-5_寸法線
  6
CONTINUOUS
 62
    7
 10
800.66328124999495
 20
835.09999999999923
 11
793.41883755282709
 21
837.04114283826812
  0
LINE
  8
_0-5_寸法線
  6
CONTINUOUS
 62
    7
 10
217.66328124999495
 20
835.09999999999923
 11
800.66328124999495
 21
835.09999999999923
  0
TEXT
  8
_0-5_寸法線
 62
    7
 10
501.66328124999524
 20
835.09999999999934
 40
15
 41
1
 50
0
  1
Ｌ
  0
LINE
  8
_0-5_寸法線
  6
CONTINUOUS
 62
    7
 10
785.66328124999359
 20
760.10000000000002
 11
785.66328124999359
 21
805.09999999999923
  0
LINE
  8
_0-5_寸法線
  6
CONTINUOUS
 62
    7
 10
785.66328124999359
 20
800.09999999999923
 11
795.32253951288442
 21
802.6881904510243
  0
LINE
  8
_0-5_寸法線
  6
CONTINUOUS
 62
    7
 10
785.66328124999359
 20
800.09999999999923
 11
795.32253951288442
 21
797.51180954897393
  0
LINE
  8
_0-5_寸法線
  6
CONTINUOUS
 62
    7
 10
800.66328124999359
 20
760.10000000000093
 11
800.66328124999359
 21
805.09999999999923
  0
LINE
  8
_0-5_寸法線
  6
CONTINUOUS
 62
    7
 10
800.66328124999359
 20
800.09999999999923
 11
791.00402298710287
 21
797.51180954897393
  0
LINE
  8
_0-5_寸法線
  6
CONTINUOUS
 62
    7
 10
800.66328124999359
 20
800.09999999999923
 11
791.00402298710287
 21
802.6881904510243
  0
LINE
  8
_0-5_寸法線
  6
CONTINUOUS
 62
    7
 10
785.66328124999359
 20
800.09999999999923
 11
800.66328124999359
 21
800.09999999999923
  0
TEXT
  8
_0-5_寸法線
 62
    7
 10
785.66328124999359
 20
800.09999999999934
 40
15
 41
1
 50
0
  1
Ａ
  0
LINE
  8
_0-1_計細線
  6
CONTINUOUS
 62
    3
 10
290.6632812499933
 20
642.75000000000102
 11
343.66328124999325
 21
642.75000000000102
  0
LINE
  8
_0-1_計細線
  6
CONTINUOUS
 62
    3
 10
343.66328124999325
 20
647.45000000000095
 11
290.6632812499933
 21
647.45000000000095
  0
LINE
  8
_0-1_計細線
  6
CONTINUOUS
 62
    3
 10
290.6632812499933
 20
647.45000000000095
 11
290.6632812499933
 21
642.75000000000102
  0
LINE
  8
_0-1_計細線
  6
CONTINUOUS
 62
    3
 10
333.66328124999325
 20
647.45000000000095
 11
333.66328124999325
 21
642.75000000000102
  0
LINE
  8
_0-1_計細線
  6
CONTINUOUS
 62
    3
 10
341.66328124999325
 20
647.45000000000095
 11
341.66328124999325
 21
642.75000000000102
  0
LINE
  8
_0-1_計細線
  6
CONTINUOUS
 62
    3
 10
343.66328124999325
 20
647.45000000000095
 11
343.66328124999325
 21
642.75000000000102
  0
LINE
  8
_0-1_計細線
  6
CONTINUOUS
 62
    3
 10
339.6632812499933
 20
647.45000000000095
 11
339.6632812499933
 21
642.75000000000102
  0
LINE
  8
_0-1_計細線
  6
CONTINUOUS
 62
    3
 10
337.66328124999325
 20
647.45000000000095
 11
337.66328124999325
 21
642.75000000000102
  0
LINE
  8
_0-1_計細線
  6
CONTINUOUS
 62
    3
 10
335.66328124999325
 20
647.45000000000095
 11
335.66328124999325
 21
642.75000000000102
  0
LINE
  8
_0-7_枠細線
  6
CONTINUOUS
 62
    5
 10
387.62883312154935
 20
515.3968820310738
 11
380.12883312154935
 21
530.3968820310738
  0
LINE
  8
_0-7_枠細線
  6
CONTINUOUS
 62
    5
 10
372.62883312154935
 20
515.3968820310738
 11
387.62883312154935
 21
515.3968820310738
  0
LINE
  8
_0-7_枠細線
  6
CONTINUOUS
 62
    5
 10
380.12883312154935
 20
530.3968820310738
 11
372.62883312154935
 21
515.3968820310738
  0
TEXT
  8
_0-7_枠細線
 62
    5
 10
374.9939843896974
 20
514.84919814089244
 40
12.5
 41
0.8
 50
0
  1
６
  0
TEXT
  8
_0-7_枠細線
 62
    5
 10
558.10241275787462
 20
96.421037208443678
 40
20
 41
0.6
 50
0
  1
Ｓ＝１：３
  0
LINE
  8
_0-d_寸法3
  6
CONTINUOUS
 62
    7
 10
535.57549064914588
 20
295.3794898673541
 11
535.57549064914588
 21
340.37948986735438
  0
LINE
  8
_0-d_寸法3
  6
CONTINUOUS
 62
    7
 10
535.57549064914588
 20
335.37948986735438
 11
545.23474891203659
 21
337.96768031837956
  0
LINE
  8
_0-d_寸法3
  6
CONTINUOUS
 62
    7
 10
535.57549064914588
 20
335.37948986735438
 11
545.23474891203659
 21
332.79129941632925
  0
LINE
  8
_0-d_寸法3
  6
CONTINUOUS
 62
    7
 10
563.90882398308258
 20
295.3794898673541
 11
563.90882398308258
 21
340.37948986735438
  0
LINE
  8
_0-d_寸法3
  6
CONTINUOUS
 62
    7
 10
563.90882398308258
 20
335.37948986735438
 11
554.24956572019187
 21
332.79129941632925
  0
LINE
  8
_0-d_寸法3
  6
CONTINUOUS
 62
    7
 10
563.90882398308258
 20
335.37948986735438
 11
554.24956572019187
 21
337.96768031837962
  0
LINE
  8
_0-d_寸法3
  6
CONTINUOUS
 62
    7
 10
535.57549064914588
 20
335.37948986735438
 11
563.90882398308258
 21
335.37948986735438
  0
TEXT
  8
_0-d_寸法3
 62
    7
 10
533.58618002350909
 20
320.37948986735438
 40
15
 41
1
 50
0
  1
(17)
  0
LINE
  8
_0-d_寸法3
  6
CONTINUOUS
 62
    7
 10
563.90882398308258
 20
335.37948986735438
 11
573.5680822459733
 21
337.96768031837951
  0
LINE
  8
_0-d_寸法3
  6
CONTINUOUS
 62
    7
 10
563.90882398308258
 20
335.37948986735438
 11
573.5680822459733
 21
332.79129941632914
  0
LINE
  8
_0-d_寸法3
  6
CONTINUOUS
 62
    7
 10
592.24215731701861
 20
295.3794898673541
 11
592.24215731701861
 21
340.37948986735438
  0
LINE
  8
_0-d_寸法3
  6
CONTINUOUS
 62
    7
 10
592.24215731701861
 20
335.37948986735438
 11
582.58289905412789
 21
332.79129941632925
  0
LINE
  8
_0-d_寸法3
  6
CONTINUOUS
 62
    7
 10
592.24215731701861
 20
335.37948986735438
 11
582.58289905412789
 21
337.96768031837962
  0
LINE
  8
_0-d_寸法3
  6
CONTINUOUS
 62
    7
 10
563.90882398308258
 20
335.37948986735438
 11
592.24215731701861
 21
335.37948986735438
  0
TEXT
  8
_0-d_寸法3
 62
    7
 10
563.98618002350941
 20
335.37948986735438
 40
15
 41
1
 50
0
  1
(17)
  0
LINE
  8
_0-d_寸法3
  6
CONTINUOUS
 62
    7
 10
318.07549064794017
 20
290.37948986735455
 11
318.07549064794017
 21
410.37948986735438
  0
LINE
  8
_0-d_寸法3
  6
CONTINUOUS
 62
    7
 10
318.07549064794017
 20
405.37948986735438
 11
327.73474891083077
 21
407.96768031837956
  0
LINE
  8
_0-d_寸法3
  6
CONTINUOUS
 62
    7
 10
318.07549064794017
 20
405.37948986735438
 11
327.73474891083077
 21
402.79129941632914
  0
LINE
  8
_0-d_寸法3
  6
CONTINUOUS
 62
    7
 10
668.07549064794011
 20
290.37948986735455
 11
668.07549064794057
 21
410.37948986735438
  0
LINE
  8
_0-d_寸法3
  6
CONTINUOUS
 62
    7
 10
668.07549064794057
 20
405.37948986735438
 11
658.41623238504997
 21
402.79129941632914
  0
LINE
  8
_0-d_寸法3
  6
CONTINUOUS
 62
    7
 10
668.07549064794057
 20
405.37948986735438
 11
658.41623238504997
 21
407.96768031837956
  0
LINE
  8
_0-d_寸法3
  6
CONTINUOUS
 62
    7
 10
318.07549064794017
 20
405.37948986735438
 11
668.07549064794057
 21
405.37948986735438
  0
TEXT
  8
_0-d_寸法3
 62
    7
 10
481.8254906479404
 20
405.37948986735438
 40
15
 41
1
 50
0
  1
210
  0
LINE
  8
_0-d_寸法3
  6
CONTINUOUS
 62
    7
 10
403.40882397762539
 20
295.37948986735438
 11
403.40882397762556
 21
340.37948986735438
  0
LINE
  8
_0-d_寸法3
  6
CONTINUOUS
 62
    7
 10
403.40882397762556
 20
335.37948986735438
 11
393.74956571473484
 21
332.79129941632925
  0
LINE
  8
_0-d_寸法3
  6
CONTINUOUS
 62
    7
 10
403.40882397762556
 20
335.37948986735438
 11
393.7495657147349
 21
337.96768031837962
  0
LINE
  8
_0-d_寸法3
  6
CONTINUOUS
 62
    7
 10
412.74215731524038
 20
295.37948986735438
 11
412.74215731524043
 21
340.37948986735438
  0
LINE
  8
_0-d_寸法3
  6
CONTINUOUS
 62
    7
 10
364.03486829445842
 20
335.37948986735438
 11
412.74215731524043
 21
335.37948986735438
  0
TEXT
  8
_0-d_寸法3
 62
    7
 10
364.03486829445848
 20
320.37948986735438
 40
15
 41
1
 50
0
  1
(5.6)
  0
LINE
  8
_0-d_寸法3
  6
CONTINUOUS
 62
    7
 10
412.74215731524043
 20
335.37948986735438
 11
422.40141557813109
 21
337.96768031837956
  0
LINE
  8
_0-d_寸法3
  6
CONTINUOUS
 62
    7
 10
412.74215731524043
 20
335.37948986735438
 11
422.40141557813109
 21
332.79129941632925
  0
LINE
  8
_0-d_寸法3
  6
CONTINUOUS
 62
    7
 10
431.74215731156147
 20
295.37948986735438
 11
431.74215731156153
 21
340.37948986735438
  0
LINE
  8
_0-d_寸法3
  6
CONTINUOUS
 62
    7
 10
431.74215731156153
 20
335.37948986735438
 11
422.08289904867087
 21
332.79129941632925
  0
LINE
  8
_0-d_寸法3
  6
CONTINUOUS
 62
    7
 10
431.74215731156153
 20
335.37948986735438
 11
422.08289904867087
 21
337.96768031837962
  0
LINE
  8
_0-d_寸法3
  6
CONTINUOUS
 62
    7
 10
412.74215731524043
 20
335.37948986735438
 11
431.74215731156153
 21
335.37948986735438
  0
TEXT
  8
_0-d_寸法3
 62
    7
 10
403.47746088705094
 20
335.37948986735438
 40
15
 41
1
 50
0
  1
11.4
  0
LINE
  8
_0-d_寸法3
  6
CONTINUOUS
 62
    7
 10
318.07549064794017
 20
370.37948986735438
 11
308.4162323850494
 21
367.79129941632925
  0
LINE
  8
_0-d_寸法3
  6
CONTINUOUS
 62
    7
 10
318.07549064794017
 20
370.37948986735438
 11
308.41623238504951
 21
372.96768031837962
  0
LINE
  8
_0-d_寸法3
  6
CONTINUOUS
 62
    7
 10
323.07549064794011
 20
290.37948986735438
 11
323.07549064794034
 21
375.37948986735438
  0
CIRCLE
  8
_0-d_寸法3
  6
CONTINUOUS
 62
    1
 10
323.07549064794034
 20
370.37948986735438
 40
1.5000000000000002
  0
LINE
  8
_0-d_寸法3
  6
CONTINUOUS
 62
    7
 10
293.07549064794017
 20
370.37948986735438
 11
323.07549064794034
 21
370.37948986735438
  0
TEXT
  8
_0-d_寸法3
 62
    7
 10
296.93082270401692
 20
370.37948986735438
 40
15
 41
1
 50
0
  1
3
  0
LINE
  8
_0-d_寸法3
  6
CONTINUOUS
 62
    7
 10
326.40882398070084
 20
290.37948986735438
 11
326.40882398070107
 21
375.37948986735438
  0
LINE
  8
_0-d_寸法3
  6
CONTINUOUS
 62
    7
 10
323.07549064794034
 20
370.37948986735438
 11
326.40882398070107
 21
370.37948986735438
  0
TEXT
  8
_0-d_寸法3
 62
    7
 10
320.99215731460669
 20
370.37948986735438
 40
15
 41
1
 50
0
  1
2
  0
LINE
  8
_0-d_寸法3
  6
CONTINUOUS
 62
    7
 10
326.40882398070107
 20
370.37948986735438
 11
336.06808224359168
 21
372.96768031837956
  0
LINE
  8
_0-d_寸法3
  6
CONTINUOUS
 62
    7
 10
326.40882398070107
 20
370.37948986735438
 11
336.06808224359168
 21
367.79129941632925
  0
LINE
  8
_0-d_寸法3
  6
CONTINUOUS
 62
    7
 10
659.74215731517961
 20
290.37948986735438
 11
659.74215731517972
 21
375.37948986735438
  0
LINE
  8
_0-d_寸法3
  6
CONTINUOUS
 62
    7
 10
659.74215731517972
 20
370.37948986735438
 11
650.08289905228912
 21
367.79129941632925
  0
LINE
  8
_0-d_寸法3
  6
CONTINUOUS
 62
    7
 10
659.74215731517972
 20
370.37948986735438
 11
650.08289905228912
 21
372.96768031837962
  0
LINE
  8
_0-d_寸法3
  6
CONTINUOUS
 62
    7
 10
326.40882398070107
 20
370.37948986735438
 11
659.74215731517972
 21
370.37948986735438
  0
TEXT
  8
_0-d_寸法3
 62
    7
 10
481.8254906479404
 20
370.37948986735438
 40
15
 41
1
 50
0
  1
200
  0
LINE
  8
_0-d_寸法3
  6
CONTINUOUS
 62
    7
 10
663.07549064851298
 20
290.37948986735438
 11
663.0754906485131
 21
375.37948986735438
  0
CIRCLE
  8
_0-d_寸法3
  6
CONTINUOUS
 62
    1
 10
663.0754906485131
 20
370.37948986735438
 40
1.5000000000000002
  0
LINE
  8
_0-d_寸法3
  6
CONTINUOUS
 62
    7
 10
659.74215731517972
 20
370.37948986735438
 11
663.0754906485131
 21
370.37948986735438
  0
TEXT
  8
_0-d_寸法3
 62
    7
 10
657.6588239812736
 20
370.37948986735438
 40
15
 41
1
 50
0
  1
2
  0
LINE
  8
_0-d_寸法3
  6
CONTINUOUS
 62
    7
 10
668.07549064794057
 20
370.37948986735438
 11
677.73474891083129
 21
372.96768031837951
  0
LINE
  8
_0-d_寸法3
  6
CONTINUOUS
 62
    7
 10
668.07549064794057
 20
370.37948986735438
 11
677.73474891083129
 21
367.79129941632914
  0
LINE
  8
_0-d_寸法3
  6
CONTINUOUS
 62
    7
 10
663.0754906485131
 20
370.37948986735438
 11
693.07549064794057
 21
370.37948986735438
  0
TEXT
  8
_0-d_寸法3
 62
    7
 10
682.37865954208928
 20
370.37948986735438
 40
15
 41
1
 50
0
  1
3
  0
LINE
  8
_0-b_細線3
  6
CONTINUOUS
 62
    7
 10
496.99215731460731
 20
285.04615653401771
 11
496.99215731460731
 21
253.37948986735063
  0
LINE
  8
_0-b_細線3
  6
CONTINUOUS
 62
    7
 10
489.15882398127337
 20
253.37948986735063
 11
489.15882398127337
 21
285.04615653401771
  0
LINE
  8
_0-b_細線3
  6
CONTINUOUS
 62
    7
 10
496.99215731460731
 20
253.37948986735063
 11
489.15882398127337
 21
253.37948986735063
  0
LINE
  8
_0-b_細線3
  6
CONTINUOUS
 62
    7
 10
489.15882398127337
 20
285.04615653401771
 11
496.99215731460731
 21
285.04615653401771
  0
LINE
  8
_0-b_細線3
  6
DASHED2
 62
    7
 10
489.15882398127337
 20
258.37948986735063
 11
496.99215731460731
 21
258.37948986735063
  0
LINE
  8
_0-b_細線3
  6
DASHED2
 62
    7
 10
489.15882398127337
 20
280.87948986735108
 11
496.99215731460731
 21
280.87948986735108
  0
LINE
  8
_0-d_寸法3
  6
CONTINUOUS
 62
    7
 10
484.88397005880813
 20
249.44858756419814
 11
449.74366537010746
 21
274.05409380221272
  0
LINE
  8
_0-d_寸法3
  6
CONTINUOUS
 62
    7
 10
453.83942559155236
 20
271.18621162045747
 11
451.25123514052717
 21
280.84546988334813
  0
LINE
  8
_0-d_寸法3
  6
CONTINUOUS
 62
    7
 10
453.83942559155236
 20
271.18621162045747
 11
456.42761604257765
 21
280.84546988334813
  0
LINE
  8
_0-d_寸法3
  6
CONTINUOUS
 62
    7
 10
484.88397005880813
 20
291.11525423086499
 11
449.74366537010746
 21
315.72076046887923
  0
LINE
  8
_0-d_寸法3
  6
CONTINUOUS
 62
    7
 10
453.83942559155236
 20
312.85287828712399
 11
456.4276160425776
 21
303.19362002423327
  0
LINE
  8
_0-d_寸法3
  6
CONTINUOUS
 62
    7
 10
453.83942559155236
 20
312.85287828712399
 11
451.25123514052717
 21
303.19362002423333
  0
LINE
  8
_0-d_寸法3
  6
CONTINUOUS
 62
    7
 10
453.83942559155236
 20
271.18621162045747
 11
453.83942559155236
 21
312.85287828712399
  0
TEXT
  8
_0-d_寸法3
 62
    7
 10
453.83942559155236
 20
284.5195449537905
 40
15
 41
1
 50
90
  1
25
  0
LINE
  8
_0-d_寸法3
  6
CONTINUOUS
 62
    7
 10
308.07549064794017
 20
285.37948986735438
 11
259.24215731460674
 21
285.37948986735432
  0
LINE
  8
_0-d_寸法3
  6
CONTINUOUS
 62
    7
 10
264.24215731460674
 20
285.37948986735432
 11
266.83034776563204
 21
275.72023160446366
  0
LINE
  8
_0-d_寸法3
  6
CONTINUOUS
 62
    7
 10
264.24215731460674
 20
285.37948986735432
 11
261.65396686358167
 21
275.72023160446366
  0
LINE
  8
_0-d_寸法3
  6
CONTINUOUS
 62
    7
 10
304.24215731460674
 20
238.71282320068761
 11
259.24215731460674
 21
238.71282320068761
  0
LINE
  8
_0-d_寸法3
  6
CONTINUOUS
 62
    7
 10
264.24215731460674
 20
238.71282320068758
 11
261.65396686358167
 21
248.37208146357827
  0
LINE
  8
_0-d_寸法3
  6
CONTINUOUS
 62
    7
 10
264.24215731460674
 20
238.71282320068758
 11
266.83034776563204
 21
248.37208146357827
  0
LINE
  8
_0-d_寸法3
  6
CONTINUOUS
 62
    7
 10
264.24215731460674
 20
285.37948986735432
 11
264.24215731460674
 21
238.71282320068758
  0
TEXT
  8
_0-d_寸法3
 62
    7
 10
264.24215731460674
 20
254.54615653402107
 40
15
 41
1
 50
90
  1
28
  0
LINE
  8
_0-d_寸法3
  6
CONTINUOUS
 62
    7
 10
304.24215731460674
 20
238.71282320068761
 11
259.24215731460674
 21
238.71282320068761
  0
LINE
  8
_0-d_寸法3
  6
CONTINUOUS
 62
    7
 10
264.24215731460674
 20
238.71282320068758
 11
266.83034776563204
 21
229.05356493779692
  0
LINE
  8
_0-d_寸法3
  6
CONTINUOUS
 62
    7
 10
264.24215731460674
 20
238.71282320068758
 11
261.65396686358156
 21
229.05356493779692
  0
LINE
  8
_0-d_寸法3
  6
CONTINUOUS
 62
    7
 10
304.24215731460674
 20
200.37948986735438
 11
259.24215731460674
 21
200.37948986735438
  0
LINE
  8
_0-d_寸法3
  6
CONTINUOUS
 62
    7
 10
264.24215731460674
 20
200.37948986735429
 11
261.65396686358156
 21
210.03874813024504
  0
LINE
  8
_0-d_寸法3
  6
CONTINUOUS
 62
    7
 10
264.24215731460674
 20
200.37948986735429
 11
266.83034776563204
 21
210.03874813024504
  0
LINE
  8
_0-d_寸法3
  6
CONTINUOUS
 62
    7
 10
264.24215731460674
 20
238.71282320068758
 11
264.24215731460674
 21
200.37948986735429
  0
TEXT
  8
_0-d_寸法3
 62
    7
 10
264.24215731460674
 20
212.04615653402087
 40
15
 41
1
 50
90
  1
23
  0
LINE
  8
_0-a_極細3
  6
CENTER1
 62
    7
 10
666.19576527666777
 20
266.71282320068741
 11
319.9740168230062
 21
266.71282320068741
  0
LINE
  8
_0-b_細線3
  6
CONTINUOUS
 62
    7
 10
330.57549064679131
 20
266.71282320068741
 11
325.56796398012455
 21
266.71282320068741
  0
LINE
  8
_0-b_細線3
  6
CONTINUOUS
 62
    7
 10
330.57549064679131
 20
260.87948986735483
 11
325.56794398012551
 21
260.87948986735483
  0
ARC
  8
_0-b_細線3
  6
CONTINUOUS
 62
    7
 10
325.56794398012551
 20
261.21282320068786
 40
0.3333333333333334
 50
179.99999999999983
 51
269.99999999999977
  0
ARC
  8
_0-b_細線3
  6
CONTINUOUS
 62
    7
 10
338.16457731345815
 20
263.7959132006884
 40
12.929926666666667
 50
166.96197800000505
 51
193.03566999999961
  0
ARC
  8
_0-b_細線3
  6
CONTINUOUS
 62
    7
 10
325.56794398012551
 20
272.21282320068832
 40
0.3333333333333334
 50
89.999999999999915
 51
179.99999999999983
  0
ARC
  8
_0-b_細線3
  6
CONTINUOUS
 62
    7
 10
338.16457731345815
 20
269.62972986735423
 40
12.929926666666667
 50
166.96433000000002
 51
193.03802199999851
  0
LINE
  8
_0-b_細線3
  6
CONTINUOUS
 62
    7
 10
330.57549064679131
 20
272.54615653402135
 11
325.56794398012551
 21
272.54615653402135
  0
LINE
  8
_0-b_細線3
  6
CONTINUOUS
 62
    7
 10
325.23461064679157
 20
261.21282320068786
 11
325.23461064679157
 21
272.21282320068832
  0
ARC
  8
_0-b_細線3
  6
CONTINUOUS
 62
    7
 10
330.90882398012496
 20
256.21282320068781
 40
0.3333333333333334
 50
179.99999999999983
 51
269.99999999999977
  0
ARC
  8
_0-b_細線3
  6
CONTINUOUS
 62
    7
 10
330.90882398012496
 20
277.21282320068741
 40
0.3333333333333334
 50
89.999999999999915
 51
179.99999999999983
  0
LINE
  8
_0-b_細線3
  6
CONTINUOUS
 62
    7
 10
330.57549064679131
 20
265.87948986735444
 11
330.57549064679131
 21
256.21282320068781
  0
LINE
  8
_0-b_細線3
  6
CONTINUOUS
 62
    7
 10
330.57549064679131
 20
277.21282320068741
 11
330.57549064679131
 21
265.87948986735444
  0
LINE
  8
_0-b_細線3
  6
CONTINUOUS
 62
    7
 10
333.0754906461965
 20
255.87948986735438
 11
330.90882398012496
 21
255.87948986735438
  0
LINE
  8
_0-b_細線3
  6
CONTINUOUS
 62
    7
 10
333.07549064738618
 20
277.54615653402135
 11
330.90882398012496
 21
277.54615653402135
  0
LINE
  8
_0-b_細線3
  6
CONTINUOUS
 62
    7
 10
655.57549064908949
 20
266.71282320068741
 11
660.58301731575625
 21
266.71282320068741
  0
LINE
  8
_0-b_細線3
  6
CONTINUOUS
 62
    7
 10
655.57549064908949
 20
260.87948986735483
 11
660.58303731575529
 21
260.87948986735483
  0
ARC
  8
_0-b_細線3
  6
CONTINUOUS
 62
    7
 10
660.58303731575529
 20
261.21282320068786
 40
0.3333333333333334
 50
269.99999999999977
 51
359.99999999999966
  0
ARC
  8
_0-b_細線3
  6
CONTINUOUS
 62
    7
 10
647.98640398242264
 20
263.7959132006884
 40
12.929926666666667
 50
346.96432999999968
 51
13.038021999994573
  0
ARC
  8
_0-b_細線3
  6
CONTINUOUS
 62
    7
 10
660.58303731575529
 20
272.21282320068832
 40
0.3333333333333334
 50
0
 51
89.999999999999915
  0
ARC
  8
_0-b_細線3
  6
CONTINUOUS
 62
    7
 10
647.98640398242264
 20
269.62972986735423
 40
12.929926666666667
 50
346.96197800000073
 51
13.035669999999625
  0
LINE
  8
_0-b_細線3
  6
CONTINUOUS
 62
    7
 10
655.57549064908949
 20
272.54615653402135
 11
660.58303731575529
 21
272.54615653402135
  0
LINE
  8
_0-b_細線3
  6
CONTINUOUS
 62
    7
 10
660.91637064908923
 20
261.21282320068786
 11
660.91637064908923
 21
272.21282320068832
  0
ARC
  8
_0-b_細線3
  6
CONTINUOUS
 62
    7
 10
655.24215731575578
 20
256.21282320068781
 40
0.3333333333333334
 50
269.99999999999977
 51
359.99999999999966
  0
ARC
  8
_0-b_細線3
  6
CONTINUOUS
 62
    7
 10
655.24215731575578
 20
277.21282320068741
 40
0.3333333333333334
 50
0
 51
89.999999999999915
  0
LINE
  8
_0-b_細線3
  6
CONTINUOUS
 62
    7
 10
655.57549064908949
 20
265.87948986735444
 11
655.57549064908949
 21
256.21282320068781
  0
LINE
  8
_0-b_細線3
  6
CONTINUOUS
 62
    7
 10
655.57549064908949
 20
277.21282320068741
 11
655.57549064908949
 21
265.87948986735444
  0
LINE
  8
_0-b_細線3
  6
CONTINUOUS
 62
    7
 10
653.0754906496843
 20
255.87948986735438
 11
655.24215731575578
 21
255.87948986735438
  0
LINE
  8
_0-b_細線3
  6
CONTINUOUS
 62
    7
 10
653.07549064849456
 20
277.54615653402135
 11
655.24215731575578
 21
277.54615653402135
  0
TEXT
  8
_0-7_枠細線
 62
    5
 10
1183.75
 20
498.75000000000028
 40
15
 41
1
 50
0
  1
2.7kg/m
  0
TEXT
  8
_0-7_枠細線
 62
    5
 10
1266.25
 20
498.75000000000028
 40
15
 41
1
 50
0
  1
2.6kg/m組
  0
ENDSEC
  0
EOF
