  0
SECTION
  2
HEADER
  9
$ACADVER
  1
AC1009
  9
$INSBASE
 10
0
 20
0
 30
0
  9
$EXTMIN
 10
0
 20
0
  9
$EXTMAX
 10
1485
 20
1050
  9
$LIMMIN
 10
0
 20
0
  9
$LIMMAX
 10
1485
 20
1050
  9
$LTSCALE
 40
5
  0
ENDSEC
  0
SECTION
  2
TABLES
  0
TABLE
  2
LTYPE
 70
     9
  0
LTYPE
  2
CONTINUOUS
 70
    64
  3
実線
 72
    65
 73
     0
 40
0.0
  0
LTYPE
  2
DASHED1
 70
    64
  3
--  --  --  --  --  --  --  --  
 72
    65
 73
     2
 40
2.5
 49
1.25
 49
-1.25
  0
LTYPE
  2
DASHED2
 70
    64
  3
----    ----    ----    ----    
 72
    65
 73
     2
 40
5.0
 49
2.5
 49
-2.5
  0
LTYPE
  2
DASHED3
 70
    64
  3
------  ------  ------  ------  
 72
    65
 73
     2
 40
5.0
 49
3.75
 49
-1.25
  0
LTYPE
  2
CENTER1
 70
    64
  3
----- - ----- - ----- - ----- - 
 72
    65
 73
     4
 40
10.0
 49
6.25
 49
-1.25
 49
1.25
 49
-1.25
  0
LTYPE
  2
CENTER2
 70
    64
  3
----------  --  ----------  --  
 72
    65
 73
     4
 40
20.0
 49
12.5
 49
-2.5
 49
2.5
 49
-2.5
  0
LTYPE
  2
PHANTOM1
 70
    64
  3
--- - - --- - - --- - - --- - - 
 72
    65
 73
     6
 40
10.0
 49
3.25
 49
-1.25
 49
1.25
 49
-1.25
 49
1.25
 49
-1.25
  0
LTYPE
  2
PHANTOM2
 70
    64
  3
--------  -  -  --------  -  -  
 72
    65
 73
     6
 40
20.0
 49
10.0
 49
-2.5
 49
1.25
 49
-2.5
 49
1.25
 49
-2.5
  0
LTYPE
  2
DOT
 70
    64
  3
-   -   -   -   -   -   -   -   
 72
    65
 73
     2
 40
2.5
 49
0.625
 49
-1.875
  0
LTYPE
  2
DUMMY
 70
    64
  3
ダミー
 72
    65
 73
     0
 40
0.0
  0
LTYPE
  2
RAND1
 70
    64
  3
ランダム線1
 72
    65
 73
     4
 40
10.0
 49
1.0
 49
-2.0
 49
3.0
 49
-4.0
  0
LTYPE
  2
RAND2
 70
    64
  3
ランダム線2
 72
    65
 73
     4
 40
14.0
 49
2.0
 49
-3.0
 49
4.0
 49
-5.0
  0
LTYPE
  2
RAND3
 70
    64
  3
ランダム線3
 72
    65
 73
     4
 40
18.0
 49
3.0
 49
-4.0
 49
5.0
 49
-6.0
  0
LTYPE
  2
RAND4
 70
    64
  3
ランダム線4
 72
    65
 73
     4
 40
22.0
 49
4.0
 49
-5.0
 49
6.0
 49
-7.0
  0
LTYPE
  2
RAND5
 70
    64
  3
ランダム線5
 72
    65
 73
     4
 40
26.0
 49
5.0
 49
-6.0
 49
7.0
 49
-8.0
  0
LTYPE
  2
LONG1
 70
    64
  3
----------  --  ----------  --  
 72
    65
 73
     4
 40
40.0
 49
32.5
 49
-2.5
 49
2.5
 49
-2.5
  0
LTYPE
  2
LONG2
 70
    64
  3
--------  -  -  --------  -  -  
 72
    65
 73
     6
 40
40.0
 49
30.0
 49
-2.5
 49
1.25
 49
-2.5
 49
1.25
 49
-2.5
  0
LTYPE
  2
LONG3
 70
    64
  3
+++++++++++++++..+++++++++++++++
 72
    65
 73
     2
 40
40.0
 49
37.5
 49
-2.5
  0
LTYPE
  2
LONG4
 70
    64
  3
+++++++++++++++..+++++++++++++++
 72
    65
 73
     2
 40
80.0
 49
75.0
 49
-5.0
  0
LTYPE
  2
LONG5
 70
    64
  3
----------  --  ----------  --  
 72
    65
 73
     4
 40
60.0
 49
37.5
 49
-7.5
 49
7.5
 49
-7.5
  0
LTYPE
  2
dashed
 70
   64
  3
-------   -------------   ------
 72
   65
 73
    2
 40
7.5
 49
6
 49
-1.5
  0
LTYPE
  2
dashed_spaced
 70
   64
  3
----        --------        ----
 72
   65
 73
    2
 40
12
 49
6
 49
-6
  0
LTYPE
  2
long_dashed_dotted
 70
   64
  3
------------- --- --------------
 72
   65
 73
    4
 40
15.25
 49
12
 49
-1.5
 49
0.25
 49
-1.5
  0
LTYPE
  2
long_dashed_double-dotted
 70
   64
  3
----------- --- --- ------------
 72
   65
 73
    6
 40
17
 49
12
 49
-1.5
 49
0.25
 49
-1.5
 49
0.25
 49
-1.5
  0
LTYPE
  2
long_dashed_triplicate-dotted
 70
   64
  3
--------- --- --- --- ----------
 72
   65
 73
    8
 40
18.75
 49
12
 49
-1.5
 49
0.25
 49
-1.5
 49
0.25
 49
-1.5
 49
0.25
 49
-1.5
  0
LTYPE
  2
dotted
 70
   64
  3
   -       -       -       -    
 72
   65
 73
    2
 40
1.75
 49
0.25
 49
-1.5
  0
LTYPE
  2
chain
 70
   64
  3
-------------- -- --------------
 72
   65
 73
    4
 40
18.5
 49
12
 49
-1.5
 49
3.5
 49
-1.5
  0
LTYPE
  2
chain_double_dash
 70
   64
  3
------------ -- -- -------------
 72
   65
 73
    6
 40
23.5
 49
12
 49
-1.5
 49
3.5
 49
-1.5
 49
3.5
 49
-1.5
  0
LTYPE
  2
dashed_dotted
 70
   64
  3
-----------     -     ----------
 72
   65
 73
    4
 40
9.25
 49
6
 49
-1.5
 49
0.25
 49
-1.5
  0
LTYPE
  2
double-dashed_dotted
 70
   64
  3
------   -----------   -   -----
 72
   65
 73
    6
 40
16.75
 49
6
 49
-1.5
 49
6
 49
-1.5
 49
0.25
 49
-1.5
  0
LTYPE
  2
dashed_double-dotted
 70
   64
  3
---------    -    -    ---------
 72
   65
 73
    6
 40
11
 49
6
 49
-1.5
 49
0.25
 49
-1.5
 49
0.25
 49
-1.5
  0
LTYPE
  2
double-dashed_double-dotted
 70
   64
  3
-----   ---------   -   -   ----
 72
   65
 73
    8
 40
18.5
 49
6
 49
-1.5
 49
6
 49
-1.5
 49
0.25
 49
-1.5
 49
0.25
 49
-1.5
  0
LTYPE
  2
dashed_triplicate-dotted
 70
   64
  3
-------    -    -    -    ------
 72
   65
 73
    8
 40
12.75
 49
6
 49
-1.5
 49
0.25
 49
-1.5
 49
0.25
 49
-1.5
 49
0.25
 49
-1.5
  0
LTYPE
  2
double-dashed_triplicate-dotted
 70
   64
  3
-----  ---------  -  -  -  -----
 72
   65
 73
   10
 40
20.25
 49
6
 49
-1.5
 49
6
 49
-1.5
 49
0.25
 49
-1.5
 49
0.25
 49
-1.5
 49
0.25
 49
-1.5
  0
LTYPE
  2
undefined
 70
   64
  3
--------------------------------
 72
   65
 73
    0
 40
0
  0
ENDTAB
  0
TABLE
  2
STYLE
  5
3
100
AcDbSymbolTable
 70
     1
  0
STYLE
  5
10
100
AcDbSymbolTableRecord
100
AcDbTextStyleTableRecord
  2
STANDARD
 70
     0
 40
0.0
 41
1.0
 50
0.0
 71
     0
 42
0.2
  3
txt
  4
bigfont.shx
  0
STYLE
  5
26
100
AcDbSymbolTableRecord
100
AcDbTextStyleTableRecord
  2
TATEGAKI
 70
    68
 40
0.0
 41
1.0
 50
0.0
 71
     0
 42
1.0
  3
txt
  4
bigfont.shx
  0
ENDTAB
  0
TABLE
  2
LAYER
 70
   10
  0
LAYER
  2
_0-0_計極細
 70
   64
 62
    7
  6
CONTINUOUS
  0
LAYER
  2
_0-1_計細線
 70
   64
 62
    7
  6
CONTINUOUS
  0
LAYER
  2
_0-5_寸法線
 70
   64
 62
    7
  6
CONTINUOUS
  0
LAYER
  2
_0-7_枠細線
 70
   64
 62
    7
  6
CONTINUOUS
  0
LAYER
  2
_0-8_枠中線
 70
   64
 62
    7
  6
CONTINUOUS
  0
LAYER
  2
_0-9_枠極太
 70
   64
 62
    7
  6
CONTINUOUS
  0
LAYER
  2
_0-a_極細3
 70
   64
 62
    7
  6
CONTINUOUS
  0
LAYER
  2
_0-b_細線3
 70
   64
 62
    7
  6
CONTINUOUS
  0
LAYER
  2
_0-d_寸法3
 70
   64
 62
    7
  6
CONTINUOUS
  0
LAYER
  2
ADD_LINE
 70
   64
 62
    7
  6
CONTINUOUS
  0
ENDTAB
  0
ENDSEC
  0
SECTION
  2
BLOCKS
  0
ENDSEC
  0
SECTION
  2
ENTITIES
  0
LINE
  8
_0-7_枠細線
  6
CONTINUOUS
 62
    5
 10
1185
 20
180
 11
1185
 21
100
  0
TEXT
  8
_0-7_枠細線
 62
    5
 10
937.5
 20
97.5
 40
17.5
 41
1
 50
0
  1
備考
  7
TATEGAKI
  0
TEXT
  8
_0-7_枠細線
 62
    5
 10
937.5
 20
137.5
 40
17.5
 41
1
 50
0
  1
品番
  7
TATEGAKI
  0
TEXT
  8
_0-7_枠細線
 62
    5
 10
937.5
 20
177.5
 40
17.5
 41
1
 50
0
  1
品名
  7
TATEGAKI
  0
LINE
  8
_0-7_枠細線
  6
CONTINUOUS
 62
    5
 10
1185
 20
140
 11
925
 21
140
  0
LINE
  8
_0-7_枠細線
  6
CONTINUOUS
 62
    5
 10
950
 20
180
 11
950
 21
60
  0
LINE
  8
_0-8_枠中線
  6
CONTINUOUS
 62
    5
 10
1425
 20
180
 11
925
 21
180
  0
LINE
  8
_0-8_枠中線
  6
CONTINUOUS
 62
    5
 10
925
 20
180
 11
925
 21
60
  0
LINE
  8
_0-7_枠細線
  6
CONTINUOUS
 62
    5
 10
1245
 20
180
 11
1245
 21
60
  0
TEXT
  8
_0-7_枠細線
 62
    5
 10
1192.5
 20
160
 40
15
 41
1
 50
0
  1
縮　尺
  0
TEXT
  8
_0-7_枠細線
 62
    5
 10
1194
 20
117.5
 40
20
 41
0.7
 50
0
  1
１：５
  0
LINE
  8
_0-7_枠細線
  6
CONTINUOUS
 62
    5
 10
1185
 20
155
 11
1245
 21
155
  0
LINE
  8
_0-7_枠細線
  6
CONTINUOUS
 62
    5
 10
1245
 20
100
 11
925
 21
100
  0
LINE
  8
_0-7_枠細線
  6
CONTINUOUS
 62
    5
 10
1425
 20
90
 11
1245
 21
90
  0
LINE
  8
_0-7_枠細線
  6
CONTINUOUS
 62
    5
 10
1245
 20
120
 11
1425
 21
120
  0
LINE
  8
_0-7_枠細線
  6
CONTINUOUS
 62
    5
 10
1425
 20
140
 11
1245
 21
140
  0
TEXT
  8
_0-7_枠細線
 62
    5
 10
1255
 20
147.5
 40
25
 41
0.8
 50
0
  1
株式会社シマブン
  0
TEXT
  8
_0-7_枠細線
 62
    5
 10
1252.5
 20
60
 40
15
 41
1
 50
0
  1
年月日
  0
TEXT
  8
_0-7_枠細線
 62
    5
 10
1252.5
 20
75
 40
15
 41
1
 50
0
  1
作　成
  0
TEXT
  8
_0-7_枠細線
 62
    5
 10
1250
 20
95
 40
20
 41
1
 50
0
  1
島 英
  0
TEXT
  8
_0-7_枠細線
 62
    5
 10
1256.25
 20
122.5
 40
15
 41
1
 50
0
  1
承 認
  0
LINE
  8
_0-7_枠細線
  6
CONTINUOUS
 62
    5
 10
1305
 20
140
 11
1305
 21
60
  0
TEXT
  8
_0-7_枠細線
 62
    5
 10
1315
 20
95
 40
20
 41
1
 50
0
  1
隠塚
  0
TEXT
  8
_0-7_枠細線
 62
    5
 10
1316.25
 20
122.5
 40
15
 41
1
 50
0
  1
検 図
  0
LINE
  8
_0-7_枠細線
  6
CONTINUOUS
 62
    5
 10
1365
 20
140
 11
1365
 21
90
  0
TEXT
  8
_0-7_枠細線
 62
    5
 10
1375
 20
95
 40
20
 41
1
 50
0
  1
藤戸
  0
TEXT
  8
_0-7_枠細線
 62
    5
 10
1376.25
 20
122.5
 40
15
 41
1
 50
0
  1
設 計
  0
TEXT
  8
_0-7_枠細線
 62
    5
 10
965.50000000000011
 20
150
 40
20
 41
0.6
 50
0
  1
セーフティグレーチングＨ２５タイプ
  0
TEXT
  8
_0-7_枠細線
 62
    5
 10
965.50000000000011
 20
70
 40
20
 41
0.5999999999999998
 50
0
  1
色については品番表参照のこと
  0
TEXT
  8
_0-7_枠細線
 62
    5
 10
1310
 20
67.5
 40
15
 41
0.6666666666666666
 50
0
  1
２００９年０１月３０日
  0
TEXT
  8
_0-7_枠細線
 62
    5
 10
965.50000000000011
 20
110
 40
20
 41
0.6
 50
0
  1
ＧＲＳ－２５Ｗ３００　ＳＥＴ
  0
LINE
  8
_0-7_枠細線
  6
CONTINUOUS
 62
    5
 10
1075
 20
480.00000000000028
 11
1075
 21
560.00000000000023
  0
TEXT
  8
_0-7_枠細線
 62
    5
 10
1097.5
 20
537.50000000000023
 40
15
 41
1
 50
0
  1
耐荷重
  0
TEXT
  8
_0-7_枠細線
 62
    5
 10
1090
 20
507.50000000000028
 40
15
 41
1
 50
0
  1
3.5kN/㎡
  0
TEXT
  8
_0-7_枠細線
 62
    5
 10
1082.5
 20
487.50000000000028
 40
15
 41
1
 50
0
  1
（歩道用）
  0
LINE
  8
_0-7_枠細線
  6
CONTINUOUS
 62
    5
 10
1165
 20
480.00000000000028
 11
1165
 21
560.00000000000023
  0
TEXT
  8
_0-7_枠細線
 62
    5
 10
1187.5
 20
537.50000000000023
 40
15
 41
1
 50
0
  1
蓋重量
  0
LINE
  8
_0-7_枠細線
  6
CONTINUOUS
 62
    5
 10
1255
 20
480.00000000000028
 11
1255
 21
560.00000000000023
  0
TEXT
  8
_0-7_枠細線
 62
    5
 10
1277.5
 20
537.50000000000023
 40
15
 41
1
 50
0
  1
枠重量
  0
LINE
  8
_0-7_枠細線
  6
CONTINUOUS
 62
    5
 10
1075
 20
530.00000000000023
 11
1345
 21
530.00000000000023
  0
LINE
  8
_0-7_枠細線
  6
CONTINUOUS
 62
    5
 10
1075
 20
560.00000000000023
 11
1345
 21
560.00000000000023
  0
LINE
  8
_0-7_枠細線
  6
CONTINUOUS
 62
    5
 10
1075
 20
480.00000000000028
 11
1345
 21
480.00000000000028
  0
LINE
  8
_0-7_枠細線
  6
CONTINUOUS
 62
    5
 10
1345
 20
480.00000000000028
 11
1345
 21
560.00000000000023
  0
LINE
  8
_0-7_枠細線
  6
CONTINUOUS
 62
    5
 10
1074.9999999999998
 20
300.00000000000034
 11
1375
 21
300.00000000000034
  0
LINE
  8
_0-7_枠細線
  6
CONTINUOUS
 62
    5
 10
1074.9999999999998
 20
325.00000000000034
 11
1375
 21
325.00000000000034
  0
LINE
  8
_0-7_枠細線
  6
CONTINUOUS
 62
    5
 10
1074.9999999999998
 20
350.00000000000034
 11
1375
 21
350.00000000000034
  0
LINE
  8
_0-7_枠細線
  6
CONTINUOUS
 62
    5
 10
1074.9999999999998
 20
375.00000000000051
 11
1375
 21
375.00000000000051
  0
TEXT
  8
_0-7_枠細線
 62
    5
 10
1198.0000000000002
 20
380.00000000000051
 40
15
 41
0.5999999999999999
 50
0
  1
ライトグレー
  0
LINE
  8
_0-7_枠細線
  6
CONTINUOUS
 62
    5
 10
1074.9999999999998
 20
400.00000000000034
 11
1375
 21
400.00000000000034
  0
TEXT
  8
_0-7_枠細線
 62
    5
 10
1207.0000000000002
 20
405.00000000000028
 40
15
 41
0.5999999999999999
 50
0
  1
ベージュ
  0
LINE
  8
_0-7_枠細線
  6
CONTINUOUS
 62
    5
 10
1074.9999999999998
 20
425.00000000000028
 11
1375
 21
425.00000000000028
  0
TEXT
  8
_0-7_枠細線
 62
    5
 10
1219.0000000000005
 20
430.00000000000028
 40
15
 41
0.8000000000000001
 50
0
  1
色
  0
TEXT
  8
_0-7_枠細線
 62
    5
 10
1101
 20
430.00000000000028
 40
15
 41
0.8000000000000001
 50
0
  1
品　　番
  0
TEXT
  8
_0-7_枠細線
 62
    5
 10
1301
 20
430.00000000000028
 40
15
 41
0.8000000000000001
 50
0
  1
備　　考
  0
LINE
  8
_0-7_枠細線
  6
CONTINUOUS
 62
    5
 10
1074.9999999999998
 20
450.00000000000028
 11
1375
 21
450.00000000000028
  0
TEXT
  8
_0-7_枠細線
 62
    5
 10
1163.7499999999998
 20
455.00000000000028
 40
17.5
 41
1
 50
0
  1
品番表
  0
LINE
  8
_0-7_枠細線
  6
CONTINUOUS
 62
    5
 10
1074.9999999999998
 20
225.00000000000014
 11
1375
 21
225.00000000000014
  0
LINE
  8
_0-7_枠細線
  6
CONTINUOUS
 62
    5
 10
1074.9999999999998
 20
250.0000000000004
 11
1375
 21
250.0000000000004
  0
LINE
  8
_0-7_枠細線
  6
CONTINUOUS
 62
    5
 10
1074.9999999999998
 20
275.00000000000045
 11
1375
 21
275.00000000000045
  0
TEXT
  8
_0-7_枠細線
 62
    5
 10
1207.0000000000007
 20
355.00000000000051
 40
15
 41
0.5999999999999999
 50
0
  1
ホワイト
  0
TEXT
  8
_0-7_枠細線
 62
    5
 10
1211.5
 20
330.00000000000034
 40
15
 41
0.5999999999999999
 50
0
  1
ピンク
  0
TEXT
  8
_0-7_枠細線
 62
    5
 10
1211.5
 20
305.00000000000034
 40
15
 41
0.5999999999999999
 50
0
  1
ブルー
  0
TEXT
  8
_0-7_枠細線
 62
    5
 10
1197.9999999999998
 20
280.00000000000034
 40
15
 41
0.5999999999999999
 50
0
  1
ダークグレー
  0
TEXT
  8
_0-7_枠細線
 62
    5
 10
1080
 20
405.00000000000028
 40
15
 41
0.5
 50
0
  1
ＧＲＳ－２５Ｗ３００－Ｂ
  0
TEXT
  8
_0-7_枠細線
 62
    5
 10
1080
 20
380.00000000000034
 40
15
 41
0.5
 50
0
  1
ＧＲＳ－２５Ｗ３００－Ｇ
  0
TEXT
  8
_0-7_枠細線
 62
    5
 10
1080
 20
355.00000000000051
 40
15
 41
0.5
 50
0
  1
ＧＲＳ－２５Ｗ３００－Ｓ
  0
TEXT
  8
_0-7_枠細線
 62
    5
 10
1080
 20
330.00000000000034
 40
15
 41
0.5
 50
0
  1
ＧＲＳ－２５Ｗ３００－Ｐ
  0
TEXT
  8
_0-7_枠細線
 62
    5
 10
1080
 20
305.00000000000034
 40
15
 41
0.5
 50
0
  1
ＧＲＳ－２５Ｗ３００－Ａ
  0
TEXT
  8
_0-7_枠細線
 62
    5
 10
1080
 20
280.00000000000034
 40
15
 41
0.5
 50
0
  1
ＧＲＳ－２５Ｗ３００－Ｄ
  0
TEXT
  8
_0-7_枠細線
 62
    5
 10
1080
 20
255.00000000000043
 40
15
 41
0.5
 50
0
  1
ＧＲＳ－２５Ｗ３００－Ｍ
  0
TEXT
  8
_0-7_枠細線
 62
    5
 10
1211.5
 20
255.00000000000043
 40
15
 41
0.5999999999999999
 50
0
  1
ウッド
  0
LINE
  8
_0-7_枠細線
  6
CONTINUOUS
 62
    5
 10
1074.9999999999998
 20
199.99999999999986
 11
1375
 21
199.99999999999986
  0
TEXT
  8
_0-7_枠細線
 62
    5
 10
1207.0000000000007
 20
204.99999999999994
 40
15
 41
0.5999999999999999
 50
0
  1
ブラック
  0
TEXT
  8
_0-7_枠細線
 62
    5
 10
1080
 20
204.99999999999994
 40
15
 41
0.5
 50
0
  1
ＧＲＳ－２５Ｗ３００－Ｋ
  0
LINE
  8
_0-7_枠細線
  6
CONTINUOUS
 62
    5
 10
1375
 20
450.00000000000028
 11
1375
 21
199.99999999999986
  0
LINE
  8
_0-7_枠細線
  6
CONTINUOUS
 62
    5
 10
1274.9999999999998
 20
450.00000000000028
 11
1274.9999999999998
 21
199.99999999999986
  0
LINE
  8
_0-7_枠細線
  6
CONTINUOUS
 62
    5
 10
1175.0000000000002
 20
450.00000000000028
 11
1175.0000000000002
 21
199.99999999999986
  0
LINE
  8
_0-7_枠細線
  6
CONTINUOUS
 62
    5
 10
1074.9999999999998
 20
450.00000000000028
 11
1074.9999999999998
 21
199.99999999999986
  0
TEXT
  8
_0-7_枠細線
 62
    5
 10
1080
 20
230.00000000000017
 40
15
 41
0.5
 50
0
  1
ＧＲＳ－２５Ｗ３００－Ｃ
  0
TEXT
  8
_0-7_枠細線
 62
    5
 10
1207.0000000000002
 20
230.00000000000017
 40
15
 41
0.5999999999999999
 50
0
  1
ブラウン
  0
LINE
  8
_0-7_枠細線
  6
CONTINUOUS
 62
    5
 10
1425
 20
942.50000000000011
 11
890
 21
942.50000000000011
  0
TEXT
  8
_0-7_枠細線
 62
    5
 10
895
 20
945.00000000000011
 40
12.5
 41
1
 50
0
  1
記号
  0
TEXT
  8
_0-7_枠細線
 62
    5
 10
996.875
 20
945.00000000000011
 40
12.5
 41
1
 50
0
  1
訂　 正　 記　 事
  0
TEXT
  8
_0-7_枠細線
 62
    5
 10
1181.25
 20
945.00000000000011
 40
12.5
 41
1
 50
0
  1
訂 正 年 月 日
  0
TEXT
  8
_0-7_枠細線
 62
    5
 10
1306.25
 20
945.00000000000011
 40
12.5
 41
1
 50
0
  1
備　　　　　考
  0
LINE
  8
_0-7_枠細線
  6
CONTINUOUS
 62
    5
 10
1425
 20
925.00000000000011
 11
890
 21
925.00000000000011
  0
TEXT
  8
_0-7_枠細線
 62
    5
 10
938.85037037037023
 20
927.50000000000011
 40
12.5
 41
1
 50
0
  1
品番・色記号変更
  0
TEXT
  8
_0-7_枠細線
 62
    5
 10
1180
 20
927.50000000000011
 40
12.5
 41
0.7199999999999999
 50
0
  1
２０１３．０３．１３
  0
LINE
  8
_0-7_枠細線
  6
CONTINUOUS
 62
    5
 10
1425
 20
907.50000000000011
 11
890
 21
907.50000000000011
  0
LINE
  8
_0-7_枠細線
  6
CONTINUOUS
 62
    5
 10
1425
 20
890.00000000000011
 11
890
 21
890.00000000000011
  0
TEXT
  8
_0-7_枠細線
 62
    5
 10
938.85037037037023
 20
910.00000000000011
 40
12.5
 41
1
 50
0
  1
クロスバーピッチ変更
  0
TEXT
  8
_0-7_枠細線
 62
    5
 10
938.85037037037023
 20
892.50000000000011
 40
12.5
 41
1
 50
0
  1
取外具形状変更
  0
TEXT
  8
_0-7_枠細線
 62
    5
 10
1180
 20
910.00000000000011
 40
12.5
 41
0.7199999999999999
 50
0
  1
２０１５．１１．２０
  0
LINE
  8
_0-7_枠細線
  6
CONTINUOUS
 62
    5
 10
915
 20
908.94233397174708
 11
907.5
 21
923.94233397174708
  0
LINE
  8
_0-7_枠細線
  6
CONTINUOUS
 62
    5
 10
900
 20
908.94233397174708
 11
915
 21
908.94233397174708
  0
LINE
  8
_0-7_枠細線
  6
CONTINUOUS
 62
    5
 10
907.5
 20
923.94233397174708
 11
900
 21
908.94233397174708
  0
TEXT
  8
_0-7_枠細線
 62
    5
 10
902.36515126814822
 20
908.63533172636664
 40
12.5
 41
0.8
 50
0
  1
１
  0
TEXT
  8
_0-7_枠細線
 62
    5
 10
902.36515126814822
 20
891.13533172636664
 40
12.5
 41
0.8
 50
0
  1
２
  0
LINE
  8
_0-7_枠細線
  6
CONTINUOUS
 62
    5
 10
1425
 20
872.50000000000011
 11
890
 21
872.50000000000011
  0
LINE
  8
_0-7_枠細線
  6
CONTINUOUS
 62
    5
 10
907.5
 20
906.44233397174708
 11
900
 21
891.44233397174708
  0
LINE
  8
_0-7_枠細線
  6
CONTINUOUS
 62
    5
 10
900
 20
891.44233397174708
 11
915
 21
891.44233397174708
  0
LINE
  8
_0-7_枠細線
  6
CONTINUOUS
 62
    5
 10
915
 20
891.44233397174708
 11
907.5
 21
906.44233397174708
  0
TEXT
  8
_0-7_枠細線
 62
    5
 10
902.36515126814822
 20
873.39465008156571
 40
12.5
 41
0.8
 50
0
  1
３
  0
TEXT
  8
_0-7_枠細線
 62
    5
 10
1180
 20
875.00000000000011
 40
12.5
 41
0.7199999999999999
 50
0
  1
２０１７．０４．０１
  0
LINE
  8
_0-7_枠細線
  6
CONTINUOUS
 62
    5
 10
915
 20
856.44233397174708
 11
907.5
 21
871.44233397174708
  0
LINE
  8
_0-7_枠細線
  6
CONTINUOUS
 62
    5
 10
900
 20
856.44233397174708
 11
915
 21
856.44233397174708
  0
LINE
  8
_0-7_枠細線
  6
CONTINUOUS
 62
    5
 10
907.5
 20
871.44233397174708
 11
900
 21
856.44233397174708
  0
TEXT
  8
_0-7_枠細線
 62
    5
 10
1180
 20
857.50000000000011
 40
12.5
 41
0.7199999999999999
 50
0
  1
２０１７．０４．０１
  0
TEXT
  8
_0-7_枠細線
 62
    5
 10
938.85037037037023
 20
857.50000000000011
 40
12.5
 41
1
 50
0
  1
ブラウン色（Ｃ）追加
  0
LINE
  8
_0-7_枠細線
  6
CONTINUOUS
 62
    5
 10
1425
 20
855.00000000000011
 11
890
 21
855.00000000000011
  0
LINE
  8
_0-7_枠細線
  6
CONTINUOUS
 62
    5
 10
907.5
 20
888.94233397174708
 11
900
 21
873.94233397174708
  0
LINE
  8
_0-7_枠細線
  6
CONTINUOUS
 62
    5
 10
900
 20
873.94233397174708
 11
915
 21
873.94233397174708
  0
LINE
  8
_0-7_枠細線
  6
CONTINUOUS
 62
    5
 10
915
 20
873.94233397174708
 11
907.5
 21
888.94233397174708
  0
TEXT
  8
_0-7_枠細線
 62
    5
 10
902.36515126814822
 20
855.49351400689716
 40
12.5
 41
0.8
 50
0
  1
４
  0
TEXT
  8
_0-7_枠細線
 62
    5
 10
938.85037037037023
 20
875.00000000000011
 40
12.5
 41
1
 50
0
  1
取外具形状変更
  0
TEXT
  8
_0-7_枠細線
 62
    5
 10
1180
 20
892.50000000000011
 40
12.5
 41
0.7199999999999999
 50
0
  1
２０１５．１１．２０
  0
LINE
  8
_0-7_枠細線
  6
CONTINUOUS
 62
    5
 10
1068.5276246655551
 20
230.57604122127282
 11
1061.0276246655551
 21
245.57604122127282
  0
LINE
  8
_0-7_枠細線
  6
CONTINUOUS
 62
    5
 10
1053.5276246655551
 20
230.57604122127282
 11
1068.5276246655551
 21
230.57604122127282
  0
LINE
  8
_0-7_枠細線
  6
CONTINUOUS
 62
    5
 10
1061.0276246655551
 20
245.57604122127282
 11
1053.5276246655551
 21
230.57604122127282
  0
TEXT
  8
_0-7_枠細線
 62
    5
 10
1055.8927759337032
 20
229.62722125642287
 40
12.5
 41
0.8
 50
0
  1
４
  0
LINE
  8
_0-7_枠細線
  6
CONTINUOUS
 62
    5
 10
915
 20
838.94233397174708
 11
907.5
 21
853.94233397174708
  0
LINE
  8
_0-7_枠細線
  6
CONTINUOUS
 62
    5
 10
900
 20
838.94233397174708
 11
915
 21
838.94233397174708
  0
LINE
  8
_0-7_枠細線
  6
CONTINUOUS
 62
    5
 10
907.5
 20
853.94233397174708
 11
900
 21
838.94233397174708
  0
LINE
  8
_0-7_枠細線
  6
CONTINUOUS
 62
    5
 10
1425
 20
837.50000000000011
 11
890
 21
837.50000000000011
  0
TEXT
  8
_0-7_枠細線
 62
    5
 10
902.36515126814822
 20
837.99351400689716
 40
12.5
 41
0.8
 50
0
  1
５
  0
TEXT
  8
_0-7_枠細線
 62
    5
 10
1180
 20
840.00000000000011
 40
12.5
 41
0.7199999999999999
 50
0
  1
２０１９．０９．０１
  0
LINE
  8
_0-9_枠極太
  6
CONTINUOUS
 62
    5
 10
60
 20
60
 11
60
 21
960
  0
LINE
  8
_0-9_枠極太
  6
CONTINUOUS
 62
    5
 10
60
 20
960
 11
1425
 21
960
  0
LINE
  8
_0-9_枠極太
  6
CONTINUOUS
 62
    5
 10
1425
 20
960
 11
1425
 21
60
  0
LINE
  8
_0-9_枠極太
  6
CONTINUOUS
 62
    5
 10
1425
 20
60
 11
60
 21
60
  0
TEXT
  8
_0-7_枠細線
 62
    5
 10
938.85037037037023
 20
840.00000000000011
 40
12.5
 41
1
 50
0
  1
アンカー材質･厚み変更
  0
TEXT
  8
_0-7_枠細線
 62
    5
 10
938.85037037037023
 20
822.5
 40
12.5
 41
1
 50
0
  1
取外具形状変更
  0
LINE
  8
_0-7_枠細線
  6
CONTINUOUS
 62
    5
 10
907.5
 20
836.44233397174685
 11
900
 21
821.44233397174685
  0
LINE
  8
_0-7_枠細線
  6
CONTINUOUS
 62
    5
 10
900
 20
821.44233397174685
 11
915
 21
821.44233397174685
  0
LINE
  8
_0-7_枠細線
  6
CONTINUOUS
 62
    5
 10
915
 20
821.44233397174685
 11
907.5
 21
836.44233397174685
  0
TEXT
  8
_0-7_枠細線
 62
    5
 10
902.36515126814822
 20
821.13533172636664
 40
12.5
 41
0.8
 50
0
  1
６
  0
TEXT
  8
_0-7_枠細線
 62
    5
 10
1180
 20
822.5
 40
12.5
 41
0.7199999999999999
 50
0
  1
２０２１．０５．０６
  0
LINE
  8
_0-7_枠細線
  6
CONTINUOUS
 62
    5
 10
1425
 20
820
 11
890
 21
820
  0
LINE
  8
_0-7_枠細線
  6
CONTINUOUS
 62
    5
 10
890
 20
820
 11
890
 21
959.99999999999932
  0
LINE
  8
_0-7_枠細線
  6
CONTINUOUS
 62
    5
 10
925
 20
820
 11
925
 21
959.99999999999932
  0
LINE
  8
_0-7_枠細線
  6
CONTINUOUS
 62
    5
 10
1175
 20
820
 11
1175
 21
959.99999999999932
  0
LINE
  8
_0-7_枠細線
  6
CONTINUOUS
 62
    5
 10
1275
 20
820
 11
1275
 21
959.99999999999932
  0
LINE
  8
_0-7_枠細線
  6
CONTINUOUS
 62
    5
 10
1225.0000000000014
 20
777.45837512859043
 11
1225.0000000000014
 21
702.45837512859043
  0
TEXT
  8
_0-7_枠細線
 62
    5
 10
1174.0000000000027
 20
732.45837512859043
 40
15
 41
0.5999999999999999
 50
0
  1
９９９
  0
TEXT
  8
_0-7_枠細線
 62
    5
 10
1181.5000000000027
 20
757.45837512859043
 40
15
 41
0.8000000000000001
 50
0
  1
Ｌ
  0
LINE
  8
_0-7_枠細線
  6
CONTINUOUS
 62
    5
 10
1150.0000000000014
 20
777.45837512859043
 11
1150.0000000000014
 21
702.45837512859043
  0
TEXT
  8
_0-7_枠細線
 62
    5
 10
1094.5000000000014
 20
757.45837512859043
 40
15
 41
0.8000000000000001
 50
0
  1
種　別
  0
TEXT
  8
_0-7_枠細線
 62
    5
 10
1094.5000000000009
 20
732.45837512859043
 40
15
 41
0.8000000000000001
 50
0
  1
定尺品
  0
TEXT
  8
_0-7_枠細線
 62
    5
 10
1094.5000000000009
 20
707.45837512859043
 40
15
 41
0.8000000000000001
 50
0
  1
特寸品
  0
LINE
  8
_0-7_枠細線
  6
CONTINUOUS
 62
    5
 10
1075
 20
777.45837512859043
 11
1075
 21
702.45837512859043
  0
LINE
  8
_0-7_枠細線
  6
CONTINUOUS
 62
    5
 10
1300.000000000002
 20
777.45837512859043
 11
1300.000000000002
 21
702.45837512859043
  0
TEXT
  8
_0-7_枠細線
 62
    5
 10
1256.5000000000027
 20
757.45837512859043
 40
15
 41
0.8000000000000001
 50
0
  1
Ａ
  0
TEXT
  8
_0-7_枠細線
 62
    5
 10
1244.5000000000018
 20
732.45837512859043
 40
15
 41
0.5999999999999999
 50
0
  1
１４．５
  0
TEXT
  8
_0-7_枠細線
 62
    5
 10
1151.5000000000018
 20
707.45837512859043
 40
15
 41
0.5999999999999999
 50
0
  1
３０５～１３０５
  0
LINE
  8
_0-7_枠細線
  6
CONTINUOUS
 62
    5
 10
1375.0000000000023
 20
777.45837512859043
 11
1375.0000000000023
 21
702.45837512859043
  0
LINE
  8
_0-7_枠細線
  6
CONTINUOUS
 62
    5
 10
1075
 20
777.45837512859043
 11
1375.0000000000023
 21
777.45837512859043
  0
LINE
  8
_0-7_枠細線
  6
CONTINUOUS
 62
    5
 10
1075
 20
752.45837512859043
 11
1375.0000000000023
 21
752.45837512859043
  0
LINE
  8
_0-7_枠細線
  6
CONTINUOUS
 62
    5
 10
1075
 20
727.45837512859043
 11
1375.0000000000023
 21
727.45837512859043
  0
LINE
  8
_0-7_枠細線
  6
CONTINUOUS
 62
    5
 10
1075
 20
702.45837512859043
 11
1375.0000000000023
 21
702.45837512859043
  0
TEXT
  8
_0-7_枠細線
 62
    5
 10
1331.5000000000023
 20
757.45837512859043
 40
15
 41
0.8000000000000001
 50
0
  1
Ｂ
  0
TEXT
  8
_0-7_枠細線
 62
    5
 10
1328.5000000000023
 20
732.45837512859043
 40
15
 41
0.5999999999999999
 50
0
  1
９７
  0
TEXT
  8
_0-7_枠細線
 62
    5
 10
1163.0053911613957
 20
782.45837512859043
 40
17.5
 41
1
 50
0
  1
寸法表
  0
TEXT
  8
_0-7_枠細線
 62
    5
 10
1244.5000000000018
 20
707.45837512859043
 40
15
 41
0.5999999999999999
 50
0
  1
７～２０
  0
TEXT
  8
_0-7_枠細線
 62
    5
 10
1077.04820616962
 20
681.73280458415536
 40
15
 41
0.8000000000000001
 50
0
  1
※ 特寸品はAが20以下となるようBにて調整
  0
TEXT
  8
_0-7_枠細線
 62
    5
 10
1315.0000000000023
 20
707.45837512859043
 40
15
 41
0.5999999999999999
 50
0
  1
２７～９７
  0
ARC
  8
_0-0_計極細
  6
CONTINUOUS
 62
    2
 10
864.90653196550647
 20
483.9314009753312
 40
11.295514677412786
 50
138.39585046827415
 51
221.60414953172548
  0
ARC
  8
_0-0_計極細
  6
CONTINUOUS
 62
    2
 10
848.01408965213568
 20
468.93140097532932
 40
11.295514677412786
 50
318.39585046827534
 51
41.604149531723962
  0
LINE
  8
_0-5_寸法線
  6
CONTINUOUS
 62
    7
 10
866.4603108088204
 20
771.43140097533114
 11
946.46031080881914
 21
771.43140097533114
  0
LINE
  8
_0-5_寸法線
  6
CONTINUOUS
 62
    7
 10
941.46031080881914
 20
771.43140097533114
 11
944.04850125984422
 21
761.77214271244043
  0
LINE
  8
_0-5_寸法線
  6
CONTINUOUS
 62
    7
 10
941.46031080881914
 20
771.43140097533114
 11
938.87212035779385
 21
761.77214271244043
  0
LINE
  8
_0-5_寸法線
  6
CONTINUOUS
 62
    7
 10
866.46031080881994
 20
461.43140097532751
 11
946.46031080881994
 21
461.43140097532751
  0
LINE
  8
_0-5_寸法線
  6
CONTINUOUS
 62
    7
 10
941.46031080881994
 20
461.43140097532751
 11
938.87212035779487
 21
471.09065923821817
  0
LINE
  8
_0-5_寸法線
  6
CONTINUOUS
 62
    7
 10
941.46031080881994
 20
461.43140097532751
 11
944.04850125984524
 21
471.09065923821817
  0
LINE
  8
_0-5_寸法線
  6
CONTINUOUS
 62
    7
 10
941.46031080881914
 20
771.43140097533114
 11
941.46031080881994
 21
461.43140097532751
  0
TEXT
  8
_0-5_寸法線
 62
    7
 10
941.46031080881994
 20
605.18140097532932
 40
15
 41
1
 50
90
  1
310
  0
LINE
  8
_0-1_計細線
  6
CONTINUOUS
 62
    3
 10
834.96031080882085
 20
741.43140097533114
 11
856.4603108088204
 21
741.43140097533114
  0
LINE
  8
_0-1_計細線
  6
CONTINUOUS
 62
    3
 10
834.96031080882085
 20
491.43140097533205
 11
856.46031080882096
 21
491.43140097533205
  0
ARC
  8
_0-0_計極細
  6
CONTINUOUS
 62
    2
 10
238.90653196550517
 20
763.93140097533114
 40
11.295514677412786
 50
138.39585046827494
 51
221.60414953172469
  0
ARC
  8
_0-0_計極細
  6
CONTINUOUS
 62
    2
 10
222.01408965213474
 20
748.93140097532932
 40
11.295514677412786
 50
318.39585046827381
 51
41.604149531724723
  0
ARC
  8
_0-0_計極細
  6
CONTINUOUS
 62
    2
 10
238.90653196550559
 20
483.9314009753312
 40
11.295514677412786
 50
138.39585046827494
 51
221.60414953172469
  0
ARC
  8
_0-0_計極細
  6
CONTINUOUS
 62
    2
 10
222.01408965213523
 20
468.93140097532932
 40
11.295514677412786
 50
318.39585046827381
 51
41.604149531724723
  0
LINE
  8
_0-5_寸法線
  6
CONTINUOUS
 62
    7
 10
220.46031080881932
 20
771.43140097533114
 11
175.46031080882443
 21
771.43140097533114
  0
LINE
  8
_0-5_寸法線
  6
CONTINUOUS
 62
    7
 10
180.46031080882443
 20
771.43140097533114
 11
183.04850125984956
 21
761.77214271244043
  0
LINE
  8
_0-5_寸法線
  6
CONTINUOUS
 62
    7
 10
180.46031080882443
 20
771.43140097533114
 11
177.87212035779916
 21
761.77214271244043
  0
LINE
  8
_0-5_寸法線
  6
CONTINUOUS
 62
    7
 10
220.46031080882173
 20
741.43140097533114
 11
175.46031080882449
 21
741.43140097533114
  0
LINE
  8
_0-5_寸法線
  6
CONTINUOUS
 62
    7
 10
180.46031080882449
 20
741.43140097533114
 11
177.8721203577993
 21
751.09065923822186
  0
LINE
  8
_0-5_寸法線
  6
CONTINUOUS
 62
    7
 10
180.46031080882449
 20
741.43140097533114
 11
183.0485012598497
 21
751.09065923822186
  0
LINE
  8
_0-5_寸法線
  6
CONTINUOUS
 62
    7
 10
180.46031080882443
 20
771.43140097533114
 11
180.46031080882449
 21
741.43140097533114
  0
TEXT
  8
_0-5_寸法線
 62
    7
 10
180.46031080882429
 20
748.93140097533114
 40
15
 41
1
 50
90
  1
30
  0
LINE
  8
_0-5_寸法線
  6
CONTINUOUS
 62
    7
 10
180.46031080882449
 20
741.43140097533114
 11
183.0485012598497
 21
731.77214271244043
  0
LINE
  8
_0-5_寸法線
  6
CONTINUOUS
 62
    7
 10
180.46031080882449
 20
741.43140097533114
 11
177.8721203577993
 21
731.77214271244043
  0
LINE
  8
_0-5_寸法線
  6
CONTINUOUS
 62
    7
 10
220.46031080881994
 20
491.4314009753312
 11
175.460310808825
 21
491.4314009753312
  0
LINE
  8
_0-5_寸法線
  6
CONTINUOUS
 62
    7
 10
180.460310808825
 20
491.4314009753312
 11
177.87212035779973
 21
501.09065923822186
  0
LINE
  8
_0-5_寸法線
  6
CONTINUOUS
 62
    7
 10
180.460310808825
 20
491.4314009753312
 11
183.04850125985013
 21
501.09065923822186
  0
LINE
  8
_0-5_寸法線
  6
CONTINUOUS
 62
    7
 10
180.46031080882449
 20
741.43140097533114
 11
180.460310808825
 21
491.4314009753312
  0
TEXT
  8
_0-5_寸法線
 62
    7
 10
180.46031080882472
 20
605.18140097533114
 40
15
 41
1
 50
90
  1
250
  0
LINE
  8
_0-5_寸法線
  6
CONTINUOUS
 62
    7
 10
180.460310808825
 20
491.4314009753312
 11
183.04850125985013
 21
481.77214271244048
  0
LINE
  8
_0-5_寸法線
  6
CONTINUOUS
 62
    7
 10
180.460310808825
 20
491.4314009753312
 11
177.87212035779973
 21
481.77214271244054
  0
LINE
  8
_0-5_寸法線
  6
CONTINUOUS
 62
    7
 10
220.460310808825
 20
461.43140097533399
 11
175.460310808825
 21
461.43140097533387
  0
LINE
  8
_0-5_寸法線
  6
CONTINUOUS
 62
    7
 10
180.460310808825
 20
461.43140097533387
 11
177.87212035779973
 21
471.09065923822459
  0
LINE
  8
_0-5_寸法線
  6
CONTINUOUS
 62
    7
 10
180.460310808825
 20
461.43140097533387
 11
183.04850125985013
 21
471.09065923822465
  0
LINE
  8
_0-5_寸法線
  6
CONTINUOUS
 62
    7
 10
180.460310808825
 20
491.4314009753312
 11
180.460310808825
 21
461.43140097533387
  0
TEXT
  8
_0-5_寸法線
 62
    7
 10
180.460310808825
 20
468.93140097533205
 40
15
 41
1
 50
90
  1
30
  0
LINE
  8
_0-1_計細線
  6
CONTINUOUS
 62
    3
 10
230.46031080881994
 20
491.43140097533205
 11
251.96031080882085
 21
491.43140097533205
  0
LINE
  8
_0-1_計細線
  6
CONTINUOUS
 62
    3
 10
230.46031080881946
 20
741.43140097533114
 11
251.96031080882085
 21
741.43140097533114
  0
LINE
  8
_0-1_計細線
  6
CONTINUOUS
 62
    3
 10
251.96031080882085
 20
551.23140097533133
 11
834.96031080882085
 21
551.23140097533133
  0
LINE
  8
_0-1_計細線
  6
CONTINUOUS
 62
    3
 10
251.96031080882085
 20
562.63140097533278
 11
834.96031080882085
 21
562.63140097533278
  0
LINE
  8
_0-1_計細線
  6
CONTINUOUS
 62
    3
 10
251.96031080882085
 20
551.23140097533133
 11
251.96031080882085
 21
562.63140097533278
  0
LINE
  8
_0-1_計細線
  6
CONTINUOUS
 62
    3
 10
834.96031080882085
 20
551.23140097533133
 11
834.96031080882085
 21
562.63140097533278
  0
LINE
  8
_0-0_計極細
  6
CONTINUOUS
 62
    2
 10
251.96031080882085
 20
559.43140097533205
 11
834.96031080882085
 21
559.43140097533205
  0
LINE
  8
_0-0_計極細
  6
CONTINUOUS
 62
    2
 10
251.96031080882085
 20
554.43140097533205
 11
834.96031080882085
 21
554.43140097533205
  0
LINE
  8
_0-1_計細線
  6
CONTINUOUS
 62
    3
 10
251.96031080882085
 20
568.23140097533314
 11
834.96031080882085
 21
568.23140097533314
  0
LINE
  8
_0-1_計細線
  6
CONTINUOUS
 62
    3
 10
251.96031080882085
 20
579.63140097533278
 11
834.96031080882085
 21
579.63140097533278
  0
LINE
  8
_0-1_計細線
  6
CONTINUOUS
 62
    3
 10
251.96031080882085
 20
568.23140097533314
 11
251.96031080882085
 21
579.63140097533278
  0
LINE
  8
_0-1_計細線
  6
CONTINUOUS
 62
    3
 10
834.96031080882085
 20
568.23140097533314
 11
834.96031080882085
 21
579.63140097533278
  0
LINE
  8
_0-0_計極細
  6
CONTINUOUS
 62
    2
 10
251.96031080882085
 20
576.43140097533205
 11
834.96031080882085
 21
576.43140097533205
  0
LINE
  8
_0-0_計極細
  6
CONTINUOUS
 62
    2
 10
251.96031080882085
 20
571.43140097533205
 11
834.96031080882085
 21
571.43140097533205
  0
LINE
  8
_0-1_計細線
  6
CONTINUOUS
 62
    3
 10
251.96031080882085
 20
585.23140097533314
 11
834.96031080882085
 21
585.23140097533314
  0
LINE
  8
_0-1_計細線
  6
CONTINUOUS
 62
    3
 10
251.96031080882085
 20
596.63140097533369
 11
834.96031080882085
 21
596.63140097533369
  0
LINE
  8
_0-1_計細線
  6
CONTINUOUS
 62
    3
 10
251.96031080882085
 20
585.23140097533314
 11
251.96031080882085
 21
596.63140097533369
  0
LINE
  8
_0-1_計細線
  6
CONTINUOUS
 62
    3
 10
834.96031080882085
 20
585.23140097533314
 11
834.96031080882085
 21
596.63140097533369
  0
LINE
  8
_0-0_計極細
  6
CONTINUOUS
 62
    2
 10
251.96031080882085
 20
593.43140097533387
 11
834.96031080882085
 21
593.43140097533387
  0
LINE
  8
_0-0_計極細
  6
CONTINUOUS
 62
    2
 10
251.96031080882085
 20
588.43140097533387
 11
834.96031080882085
 21
588.43140097533387
  0
LINE
  8
_0-0_計極細
  6
CENTER2
 62
    2
 10
236.07171127180209
 20
616.43140097533205
 11
851.00504460517868
 21
616.43140097533205
  0
LINE
  8
_0-1_計細線
  6
CONTINUOUS
 62
    3
 10
251.96031080882085
 20
681.63140097533096
 11
834.96031080882085
 21
681.63140097533096
  0
LINE
  8
_0-1_計細線
  6
CONTINUOUS
 62
    3
 10
251.96031080882085
 20
670.23140097533042
 11
834.96031080882085
 21
670.23140097533042
  0
LINE
  8
_0-1_計細線
  6
CONTINUOUS
 62
    3
 10
251.96031080882085
 20
681.63140097533096
 11
251.96031080882085
 21
670.23140097533042
  0
LINE
  8
_0-1_計細線
  6
CONTINUOUS
 62
    3
 10
834.96031080882085
 20
681.63140097533096
 11
834.96031080882085
 21
670.23140097533042
  0
LINE
  8
_0-0_計極細
  6
CONTINUOUS
 62
    2
 10
251.96031080882085
 20
673.43140097533023
 11
834.96031080882085
 21
673.43140097533023
  0
LINE
  8
_0-0_計極細
  6
CONTINUOUS
 62
    2
 10
251.96031080882085
 20
678.43140097533023
 11
834.96031080882085
 21
678.43140097533023
  0
LINE
  8
_0-1_計細線
  6
CONTINUOUS
 62
    3
 10
251.96031080882085
 20
647.63140097533096
 11
834.96031080882085
 21
647.63140097533096
  0
LINE
  8
_0-1_計細線
  6
CONTINUOUS
 62
    3
 10
251.96031080882085
 20
636.23140097533042
 11
834.96031080882085
 21
636.23140097533042
  0
LINE
  8
_0-1_計細線
  6
CONTINUOUS
 62
    3
 10
251.96031080882085
 20
647.63140097533096
 11
251.96031080882085
 21
636.23140097533042
  0
LINE
  8
_0-1_計細線
  6
CONTINUOUS
 62
    3
 10
834.96031080882085
 20
647.63140097533096
 11
834.96031080882085
 21
636.23140097533042
  0
LINE
  8
_0-0_計極細
  6
CONTINUOUS
 62
    2
 10
251.96031080882085
 20
639.43140097533023
 11
834.96031080882085
 21
639.43140097533023
  0
LINE
  8
_0-0_計極細
  6
CONTINUOUS
 62
    2
 10
251.96031080882085
 20
644.43140097533035
 11
834.96031080882085
 21
644.43140097533035
  0
LINE
  8
_0-1_計細線
  6
CONTINUOUS
 62
    3
 10
251.96031080882085
 20
664.63140097533187
 11
834.96031080882085
 21
664.63140097533187
  0
LINE
  8
_0-1_計細線
  6
CONTINUOUS
 62
    3
 10
251.96031080882085
 20
653.23140097533144
 11
834.96031080882085
 21
653.23140097533144
  0
LINE
  8
_0-1_計細線
  6
CONTINUOUS
 62
    3
 10
251.96031080882085
 20
664.63140097533187
 11
251.96031080882085
 21
653.23140097533144
  0
LINE
  8
_0-1_計細線
  6
CONTINUOUS
 62
    3
 10
834.96031080882085
 20
664.63140097533187
 11
834.96031080882085
 21
653.23140097533144
  0
LINE
  8
_0-0_計極細
  6
CONTINUOUS
 62
    2
 10
251.96031080882085
 20
656.43140097533205
 11
834.96031080882085
 21
656.43140097533205
  0
LINE
  8
_0-0_計極細
  6
CONTINUOUS
 62
    2
 10
251.96031080882085
 20
661.43140097533205
 11
834.96031080882085
 21
661.43140097533205
  0
LINE
  8
_0-1_計細線
  6
CONTINUOUS
 62
    3
 10
251.96031080882085
 20
749.63140097533096
 11
834.96031080882085
 21
749.63140097533096
  0
LINE
  8
_0-1_計細線
  6
CONTINUOUS
 62
    3
 10
251.96031080882085
 20
738.23140097533144
 11
834.96031080882085
 21
738.23140097533144
  0
LINE
  8
_0-1_計細線
  6
CONTINUOUS
 62
    3
 10
251.96031080882085
 20
749.63140097533096
 11
251.96031080882085
 21
738.23140097533144
  0
LINE
  8
_0-1_計細線
  6
CONTINUOUS
 62
    3
 10
834.96031080882085
 20
749.63140097533096
 11
834.96031080882085
 21
738.23140097533144
  0
LINE
  8
_0-0_計極細
  6
CONTINUOUS
 62
    2
 10
251.96031080882085
 20
741.43140097533205
 11
834.96031080882085
 21
741.43140097533205
  0
LINE
  8
_0-0_計極細
  6
CONTINUOUS
 62
    2
 10
251.96031080882085
 20
746.43140097533205
 11
834.96031080882085
 21
746.43140097533205
  0
LINE
  8
_0-1_計細線
  6
CONTINUOUS
 62
    3
 10
251.96031080882085
 20
483.23140097533133
 11
834.96031080882085
 21
483.23140097533133
  0
LINE
  8
_0-1_計細線
  6
CONTINUOUS
 62
    3
 10
251.96031080882085
 20
494.63140097533096
 11
834.96031080882085
 21
494.63140097533096
  0
LINE
  8
_0-1_計細線
  6
CONTINUOUS
 62
    3
 10
251.96031080882085
 20
483.23140097533133
 11
251.96031080882085
 21
494.63140097533096
  0
LINE
  8
_0-1_計細線
  6
CONTINUOUS
 62
    3
 10
834.96031080882085
 20
483.23140097533133
 11
834.96031080882085
 21
494.63140097533096
  0
LINE
  8
_0-0_計極細
  6
CONTINUOUS
 62
    2
 10
251.96031080882085
 20
491.43140097533205
 11
834.96031080882085
 21
491.43140097533205
  0
LINE
  8
_0-0_計極細
  6
CONTINUOUS
 62
    2
 10
251.96031080882085
 20
486.43140097533205
 11
834.96031080882085
 21
486.43140097533205
  0
LINE
  8
_0-1_計細線
  6
CONTINUOUS
 62
    3
 10
251.96031080882085
 20
766.43140097533205
 11
834.96031080882085
 21
766.43140097533205
  0
LINE
  8
_0-1_計細線
  6
CONTINUOUS
 62
    3
 10
251.96031080882085
 20
755.0314009753306
 11
834.96031080882085
 21
755.0314009753306
  0
LINE
  8
_0-1_計細線
  6
CONTINUOUS
 62
    3
 10
251.96031080882085
 20
766.43140097533205
 11
251.96031080882085
 21
755.0314009753306
  0
LINE
  8
_0-1_計細線
  6
CONTINUOUS
 62
    3
 10
834.96031080882085
 20
766.43140097533205
 11
834.96031080882085
 21
755.0314009753306
  0
LINE
  8
_0-0_計極細
  6
CONTINUOUS
 62
    2
 10
251.96031080882085
 20
758.23140097533144
 11
834.96031080882085
 21
758.23140097533144
  0
LINE
  8
_0-0_計極細
  6
CONTINUOUS
 62
    2
 10
251.96031080882085
 20
763.23140097533144
 11
834.96031080882085
 21
763.23140097533144
  0
LINE
  8
_0-1_計細線
  6
CONTINUOUS
 62
    3
 10
251.96031080882085
 20
466.43140097533205
 11
834.96031080882085
 21
466.43140097533205
  0
LINE
  8
_0-1_計細線
  6
CONTINUOUS
 62
    3
 10
251.96031080882085
 20
477.8314009753326
 11
834.96031080882085
 21
477.8314009753326
  0
LINE
  8
_0-1_計細線
  6
CONTINUOUS
 62
    3
 10
251.96031080882085
 20
466.43140097533205
 11
251.96031080882085
 21
477.8314009753326
  0
LINE
  8
_0-1_計細線
  6
CONTINUOUS
 62
    3
 10
834.96031080882085
 20
466.43140097533205
 11
834.96031080882085
 21
477.8314009753326
  0
LINE
  8
_0-0_計極細
  6
CONTINUOUS
 62
    2
 10
251.96031080882085
 20
474.63140097533284
 11
834.96031080882085
 21
474.63140097533284
  0
LINE
  8
_0-0_計極細
  6
CONTINUOUS
 62
    2
 10
251.96031080882085
 20
469.63140097533284
 11
834.96031080882085
 21
469.63140097533284
  0
LINE
  8
_0-1_計細線
  6
CONTINUOUS
 62
    3
 10
251.96031080882085
 20
698.63140097533005
 11
834.96031080882085
 21
698.63140097533005
  0
LINE
  8
_0-1_計細線
  6
CONTINUOUS
 62
    3
 10
251.96031080882085
 20
687.23140097532951
 11
834.96031080882085
 21
687.23140097532951
  0
LINE
  8
_0-1_計細線
  6
CONTINUOUS
 62
    3
 10
251.96031080882085
 20
698.63140097533005
 11
251.96031080882085
 21
687.23140097532951
  0
LINE
  8
_0-1_計細線
  6
CONTINUOUS
 62
    3
 10
834.96031080882085
 20
698.63140097533005
 11
834.96031080882085
 21
687.23140097532951
  0
LINE
  8
_0-0_計極細
  6
CONTINUOUS
 62
    2
 10
251.96031080882085
 20
690.43140097533023
 11
834.96031080882085
 21
690.43140097533023
  0
LINE
  8
_0-0_計極細
  6
CONTINUOUS
 62
    2
 10
251.96031080882085
 20
695.43140097533023
 11
834.96031080882085
 21
695.43140097533023
  0
LINE
  8
_0-1_計細線
  6
CONTINUOUS
 62
    3
 10
251.96031080882085
 20
715.63140097532926
 11
834.96031080882085
 21
715.63140097532926
  0
LINE
  8
_0-1_計細線
  6
CONTINUOUS
 62
    3
 10
251.96031080882085
 20
704.2314009753286
 11
834.96031080882085
 21
704.2314009753286
  0
LINE
  8
_0-1_計細線
  6
CONTINUOUS
 62
    3
 10
251.96031080882085
 20
715.63140097532926
 11
251.96031080882085
 21
704.2314009753286
  0
LINE
  8
_0-1_計細線
  6
CONTINUOUS
 62
    3
 10
834.96031080882085
 20
715.63140097532926
 11
834.96031080882085
 21
704.2314009753286
  0
LINE
  8
_0-0_計極細
  6
CONTINUOUS
 62
    2
 10
251.96031080882085
 20
707.43140097532842
 11
834.96031080882085
 21
707.43140097532842
  0
LINE
  8
_0-0_計極細
  6
CONTINUOUS
 62
    2
 10
251.96031080882085
 20
712.43140097532842
 11
834.96031080882085
 21
712.43140097532842
  0
LINE
  8
_0-1_計細線
  6
CONTINUOUS
 62
    3
 10
251.96031080882085
 20
732.63140097532823
 11
834.96031080882085
 21
732.63140097532823
  0
LINE
  8
_0-1_計細線
  6
CONTINUOUS
 62
    3
 10
251.96031080882085
 20
721.23140097532769
 11
834.96031080882085
 21
721.23140097532769
  0
LINE
  8
_0-1_計細線
  6
CONTINUOUS
 62
    3
 10
251.96031080882085
 20
732.63140097532823
 11
251.96031080882085
 21
721.23140097532769
  0
LINE
  8
_0-1_計細線
  6
CONTINUOUS
 62
    3
 10
834.96031080882085
 20
732.63140097532823
 11
834.96031080882085
 21
721.23140097532769
  0
LINE
  8
_0-0_計極細
  6
CONTINUOUS
 62
    2
 10
251.96031080882085
 20
724.43140097532842
 11
834.96031080882085
 21
724.43140097532842
  0
LINE
  8
_0-0_計極細
  6
CONTINUOUS
 62
    2
 10
251.96031080882085
 20
729.43140097532842
 11
834.96031080882085
 21
729.43140097532842
  0
LINE
  8
_0-1_計細線
  6
CONTINUOUS
 62
    3
 10
251.96031080882085
 20
534.23140097533314
 11
834.96031080882085
 21
534.23140097533314
  0
LINE
  8
_0-1_計細線
  6
CONTINUOUS
 62
    3
 10
251.96031080882085
 20
545.63140097533369
 11
834.96031080882085
 21
545.63140097533369
  0
LINE
  8
_0-1_計細線
  6
CONTINUOUS
 62
    3
 10
251.96031080882085
 20
534.23140097533314
 11
251.96031080882085
 21
545.63140097533369
  0
LINE
  8
_0-1_計細線
  6
CONTINUOUS
 62
    3
 10
834.96031080882085
 20
534.23140097533314
 11
834.96031080882085
 21
545.63140097533369
  0
LINE
  8
_0-0_計極細
  6
CONTINUOUS
 62
    2
 10
251.96031080882085
 20
542.43140097533387
 11
834.96031080882085
 21
542.43140097533387
  0
LINE
  8
_0-0_計極細
  6
CONTINUOUS
 62
    2
 10
251.96031080882085
 20
537.43140097533387
 11
834.96031080882085
 21
537.43140097533387
  0
LINE
  8
_0-1_計細線
  6
CONTINUOUS
 62
    3
 10
251.96031080882085
 20
517.23140097533405
 11
834.96031080882085
 21
517.23140097533405
  0
LINE
  8
_0-1_計細線
  6
CONTINUOUS
 62
    3
 10
251.96031080882085
 20
528.6314009753346
 11
834.96031080882085
 21
528.6314009753346
  0
LINE
  8
_0-1_計細線
  6
CONTINUOUS
 62
    3
 10
251.96031080882085
 20
517.23140097533405
 11
251.96031080882085
 21
528.6314009753346
  0
LINE
  8
_0-1_計細線
  6
CONTINUOUS
 62
    3
 10
834.96031080882085
 20
517.23140097533405
 11
834.96031080882085
 21
528.6314009753346
  0
LINE
  8
_0-0_計極細
  6
CONTINUOUS
 62
    2
 10
251.96031080882085
 20
525.43140097533387
 11
834.96031080882085
 21
525.43140097533387
  0
LINE
  8
_0-0_計極細
  6
CONTINUOUS
 62
    2
 10
251.96031080882085
 20
520.43140097533387
 11
834.96031080882085
 21
520.43140097533387
  0
LINE
  8
_0-1_計細線
  6
CONTINUOUS
 62
    3
 10
251.96031080882085
 20
500.23140097533496
 11
834.96031080882085
 21
500.23140097533496
  0
LINE
  8
_0-1_計細線
  6
CONTINUOUS
 62
    3
 10
251.96031080882085
 20
511.63140097533557
 11
834.96031080882085
 21
511.63140097533557
  0
LINE
  8
_0-1_計細線
  6
CONTINUOUS
 62
    3
 10
251.96031080882085
 20
500.23140097533496
 11
251.96031080882085
 21
511.63140097533557
  0
LINE
  8
_0-1_計細線
  6
CONTINUOUS
 62
    3
 10
834.96031080882085
 20
500.23140097533496
 11
834.96031080882085
 21
511.63140097533557
  0
LINE
  8
_0-0_計極細
  6
CONTINUOUS
 62
    2
 10
251.96031080882085
 20
508.43140097533569
 11
834.96031080882085
 21
508.43140097533569
  0
LINE
  8
_0-0_計極細
  6
CONTINUOUS
 62
    2
 10
251.96031080882085
 20
503.43140097533569
 11
834.96031080882085
 21
503.43140097533569
  0
LINE
  8
_0-1_計細線
  6
CONTINUOUS
 62
    3
 10
230.46031080881946
 20
771.43140097533114
 11
856.4603108088204
 21
771.43140097533114
  0
LINE
  8
_0-1_計細線
  6
CONTINUOUS
 62
    3
 10
856.46031080882096
 20
461.43140097533205
 11
230.46031080881994
 21
461.43140097533205
  0
LINE
  8
_0-1_計細線
  6
CONTINUOUS
 62
    3
 10
228.54609511044691
 20
768.43140097533126
 11
854.54609511044794
 21
768.43140097533126
  0
LINE
  8
_0-1_計細線
  6
CONTINUOUS
 62
    3
 10
858.37452650719524
 20
464.43140097533211
 11
232.3745265071959
 21
464.43140097533211
  0
LINE
  8
_0-0_計極細
  6
CONTINUOUS
 62
    2
 10
260.46031080882102
 20
562.63140097533278
 11
260.46031080882102
 21
568.23140097533314
  0
LINE
  8
_0-0_計極細
  6
CONTINUOUS
 62
    2
 10
273.46031080882113
 20
562.63140097533278
 11
273.46031080882113
 21
568.23140097533314
  0
LINE
  8
_0-0_計極細
  6
CONTINUOUS
 62
    2
 10
260.46031080882102
 20
579.63140097533278
 11
260.46031080882102
 21
585.23140097533314
  0
LINE
  8
_0-0_計極細
  6
CONTINUOUS
 62
    2
 10
273.46031080882113
 20
579.63140097533278
 11
273.46031080882113
 21
585.23140097533314
  0
LINE
  8
_0-0_計極細
  6
CONTINUOUS
 62
    2
 10
260.46031080882102
 20
602.23140097532951
 11
260.46031080882102
 21
596.63140097532914
  0
LINE
  8
_0-0_計極細
  6
CONTINUOUS
 62
    2
 10
273.46031080882113
 20
602.23140097532951
 11
273.46031080882113
 21
596.63140097532914
  0
LINE
  8
_0-0_計極細
  6
CONTINUOUS
 62
    2
 10
260.46031080882102
 20
619.23140097532951
 11
260.46031080882102
 21
613.63140097532914
  0
LINE
  8
_0-0_計極細
  6
CONTINUOUS
 62
    2
 10
273.46031080882113
 20
619.23140097532951
 11
273.46031080882113
 21
613.63140097532914
  0
LINE
  8
_0-0_計極細
  6
CONTINUOUS
 62
    2
 10
260.46031080882102
 20
636.23140097533042
 11
260.46031080882102
 21
630.63140097533096
  0
LINE
  8
_0-0_計極細
  6
CONTINUOUS
 62
    2
 10
273.46031080882113
 20
636.23140097533042
 11
273.46031080882113
 21
630.63140097533096
  0
LINE
  8
_0-0_計極細
  6
CONTINUOUS
 62
    2
 10
260.46031080882102
 20
653.23140097533144
 11
260.46031080882102
 21
647.63140097533096
  0
LINE
  8
_0-0_計極細
  6
CONTINUOUS
 62
    2
 10
273.46031080882113
 20
653.23140097533144
 11
273.46031080882113
 21
647.63140097533096
  0
LINE
  8
_0-0_計極細
  6
CONTINUOUS
 62
    2
 10
260.46031080882102
 20
670.23140097533133
 11
260.46031080882102
 21
664.63140097533187
  0
LINE
  8
_0-0_計極細
  6
CONTINUOUS
 62
    2
 10
273.46031080882113
 20
670.23140097533133
 11
273.46031080882113
 21
664.63140097533187
  0
LINE
  8
_0-0_計極細
  6
CONTINUOUS
 62
    2
 10
260.46031080882102
 20
755.0314009753306
 11
260.46031080882102
 21
749.63140097533096
  0
LINE
  8
_0-0_計極細
  6
CONTINUOUS
 62
    2
 10
273.46031080882113
 20
755.0314009753306
 11
273.46031080882113
 21
749.63140097533096
  0
LINE
  8
_0-0_計極細
  6
CONTINUOUS
 62
    2
 10
260.46031080882102
 20
477.83140097533169
 11
260.46031080882102
 21
483.23140097533133
  0
LINE
  8
_0-0_計極細
  6
CONTINUOUS
 62
    2
 10
273.46031080882113
 20
477.83140097533169
 11
273.46031080882113
 21
483.23140097533133
  0
LINE
  8
_0-0_計極細
  6
CENTER1
 62
    2
 10
266.96031080882096
 20
775.18212039979289
 11
266.96031080882096
 21
458.67357723431951
  0
LINE
  8
_0-0_計極細
  6
CONTINUOUS
 62
    2
 10
260.46031080882102
 20
687.23140097533133
 11
260.46031080882102
 21
681.63140097533096
  0
LINE
  8
_0-0_計極細
  6
CONTINUOUS
 62
    2
 10
273.46031080882113
 20
687.23140097533133
 11
273.46031080882113
 21
681.63140097533096
  0
LINE
  8
_0-0_計極細
  6
CONTINUOUS
 62
    2
 10
260.46031080882102
 20
704.23140097532951
 11
260.46031080882102
 21
698.63140097533005
  0
LINE
  8
_0-0_計極細
  6
CONTINUOUS
 62
    2
 10
273.46031080882113
 20
704.23140097532951
 11
273.46031080882113
 21
698.63140097533005
  0
LINE
  8
_0-0_計極細
  6
CONTINUOUS
 62
    2
 10
260.46031080882102
 20
721.23140097532951
 11
260.46031080882102
 21
715.63140097532926
  0
LINE
  8
_0-0_計極細
  6
CONTINUOUS
 62
    2
 10
273.46031080882113
 20
721.23140097532951
 11
273.46031080882113
 21
715.63140097532926
  0
LINE
  8
_0-0_計極細
  6
CONTINUOUS
 62
    2
 10
260.46031080882102
 20
738.23140097532769
 11
260.46031080882102
 21
732.63140097532823
  0
LINE
  8
_0-0_計極細
  6
CONTINUOUS
 62
    2
 10
273.46031080882113
 20
738.23140097532769
 11
273.46031080882113
 21
732.63140097532823
  0
LINE
  8
_0-0_計極細
  6
CONTINUOUS
 62
    2
 10
260.46031080882102
 20
545.63140097533278
 11
260.46031080882102
 21
551.23140097533224
  0
LINE
  8
_0-0_計極細
  6
CONTINUOUS
 62
    2
 10
273.46031080882113
 20
545.63140097533278
 11
273.46031080882113
 21
551.23140097533224
  0
LINE
  8
_0-0_計極細
  6
CONTINUOUS
 62
    2
 10
260.46031080882102
 20
528.63140097533278
 11
260.46031080882102
 21
534.23140097533314
  0
LINE
  8
_0-0_計極細
  6
CONTINUOUS
 62
    2
 10
273.46031080882113
 20
528.63140097533278
 11
273.46031080882113
 21
534.23140097533314
  0
LINE
  8
_0-0_計極細
  6
CONTINUOUS
 62
    2
 10
260.46031080882102
 20
511.63140097533466
 11
260.46031080882102
 21
517.23140097533405
  0
LINE
  8
_0-0_計極細
  6
CONTINUOUS
 62
    2
 10
273.46031080882113
 20
511.63140097533466
 11
273.46031080882113
 21
517.23140097533405
  0
LINE
  8
_0-0_計極細
  6
CONTINUOUS
 62
    2
 10
260.46031080882102
 20
494.6314009753346
 11
260.46031080882102
 21
500.23140097533496
  0
LINE
  8
_0-0_計極細
  6
CONTINUOUS
 62
    2
 10
273.46031080882113
 20
494.6314009753346
 11
273.46031080882113
 21
500.23140097533496
  0
LINE
  8
_0-0_計極細
  6
CONTINUOUS
 62
    2
 10
357.46031080882096
 20
562.63140097533278
 11
357.46031080882096
 21
568.23140097533314
  0
LINE
  8
_0-0_計極細
  6
CONTINUOUS
 62
    2
 10
370.46031080882096
 20
562.63140097533278
 11
370.46031080882096
 21
568.23140097533314
  0
LINE
  8
_0-0_計極細
  6
CONTINUOUS
 62
    2
 10
357.46031080882096
 20
579.63140097533278
 11
357.46031080882096
 21
585.23140097533314
  0
LINE
  8
_0-0_計極細
  6
CONTINUOUS
 62
    2
 10
370.46031080882096
 20
579.63140097533278
 11
370.46031080882096
 21
585.23140097533314
  0
LINE
  8
_0-0_計極細
  6
CONTINUOUS
 62
    2
 10
357.46031080882096
 20
602.23140097532951
 11
357.46031080882096
 21
596.63140097532914
  0
LINE
  8
_0-0_計極細
  6
CONTINUOUS
 62
    2
 10
370.46031080882096
 20
602.23140097532951
 11
370.46031080882096
 21
596.63140097532914
  0
LINE
  8
_0-0_計極細
  6
CONTINUOUS
 62
    2
 10
357.46031080882096
 20
636.23140097533042
 11
357.46031080882096
 21
630.63140097533096
  0
LINE
  8
_0-0_計極細
  6
CONTINUOUS
 62
    2
 10
370.46031080882096
 20
636.23140097533042
 11
370.46031080882096
 21
630.63140097533096
  0
LINE
  8
_0-0_計極細
  6
CONTINUOUS
 62
    2
 10
357.46031080882096
 20
653.23140097533144
 11
357.46031080882096
 21
647.63140097533096
  0
LINE
  8
_0-0_計極細
  6
CONTINUOUS
 62
    2
 10
370.46031080882096
 20
653.23140097533144
 11
370.46031080882096
 21
647.63140097533096
  0
LINE
  8
_0-0_計極細
  6
CONTINUOUS
 62
    2
 10
357.46031080882096
 20
670.23140097533133
 11
357.46031080882096
 21
664.63140097533187
  0
LINE
  8
_0-0_計極細
  6
CONTINUOUS
 62
    2
 10
370.46031080882096
 20
670.23140097533133
 11
370.46031080882096
 21
664.63140097533187
  0
LINE
  8
_0-0_計極細
  6
CONTINUOUS
 62
    2
 10
357.46031080882096
 20
755.0314009753306
 11
357.46031080882096
 21
749.63140097533096
  0
LINE
  8
_0-0_計極細
  6
CONTINUOUS
 62
    2
 10
370.46031080882096
 20
755.0314009753306
 11
370.46031080882096
 21
749.63140097533096
  0
LINE
  8
_0-0_計極細
  6
CONTINUOUS
 62
    2
 10
357.46031080882096
 20
477.83140097533169
 11
357.46031080882096
 21
483.23140097533133
  0
LINE
  8
_0-0_計極細
  6
CONTINUOUS
 62
    2
 10
370.46031080882096
 20
477.83140097533169
 11
370.46031080882096
 21
483.23140097533133
  0
LINE
  8
_0-0_計極細
  6
CENTER1
 62
    2
 10
363.96031080882096
 20
775.18212039979289
 11
363.96031080882096
 21
458.67357723431951
  0
LINE
  8
_0-0_計極細
  6
CONTINUOUS
 62
    2
 10
357.46031080882096
 20
687.23140097533133
 11
357.46031080882096
 21
681.63140097533096
  0
LINE
  8
_0-0_計極細
  6
CONTINUOUS
 62
    2
 10
370.46031080882096
 20
687.23140097533133
 11
370.46031080882096
 21
681.63140097533096
  0
LINE
  8
_0-0_計極細
  6
CONTINUOUS
 62
    2
 10
357.46031080882096
 20
704.23140097532951
 11
357.46031080882096
 21
698.63140097533005
  0
LINE
  8
_0-0_計極細
  6
CONTINUOUS
 62
    2
 10
370.46031080882096
 20
704.23140097532951
 11
370.46031080882096
 21
698.63140097533005
  0
LINE
  8
_0-0_計極細
  6
CONTINUOUS
 62
    2
 10
357.46031080882096
 20
721.23140097532951
 11
357.46031080882096
 21
715.63140097532926
  0
LINE
  8
_0-0_計極細
  6
CONTINUOUS
 62
    2
 10
370.46031080882096
 20
721.23140097532951
 11
370.46031080882096
 21
715.63140097532926
  0
LINE
  8
_0-0_計極細
  6
CONTINUOUS
 62
    2
 10
357.46031080882096
 20
738.23140097532769
 11
357.46031080882096
 21
732.63140097532823
  0
LINE
  8
_0-0_計極細
  6
CONTINUOUS
 62
    2
 10
370.46031080882096
 20
738.23140097532769
 11
370.46031080882096
 21
732.63140097532823
  0
LINE
  8
_0-0_計極細
  6
CONTINUOUS
 62
    2
 10
357.46031080882096
 20
545.63140097533278
 11
357.46031080882096
 21
551.23140097533224
  0
LINE
  8
_0-0_計極細
  6
CONTINUOUS
 62
    2
 10
370.46031080882096
 20
545.63140097533278
 11
370.46031080882096
 21
551.23140097533224
  0
LINE
  8
_0-0_計極細
  6
CONTINUOUS
 62
    2
 10
357.46031080882096
 20
528.63140097533278
 11
357.46031080882096
 21
534.23140097533314
  0
LINE
  8
_0-0_計極細
  6
CONTINUOUS
 62
    2
 10
370.46031080882096
 20
528.63140097533278
 11
370.46031080882096
 21
534.23140097533314
  0
LINE
  8
_0-0_計極細
  6
CONTINUOUS
 62
    2
 10
357.46031080882096
 20
511.63140097533466
 11
357.46031080882096
 21
517.23140097533405
  0
LINE
  8
_0-0_計極細
  6
CONTINUOUS
 62
    2
 10
370.46031080882096
 20
511.63140097533466
 11
370.46031080882096
 21
517.23140097533405
  0
LINE
  8
_0-0_計極細
  6
CONTINUOUS
 62
    2
 10
357.46031080882096
 20
494.6314009753346
 11
357.46031080882096
 21
500.23140097533496
  0
LINE
  8
_0-0_計極細
  6
CONTINUOUS
 62
    2
 10
370.46031080882096
 20
494.6314009753346
 11
370.46031080882096
 21
500.23140097533496
  0
LINE
  8
_0-5_寸法線
  6
CONTINUOUS
 62
    7
 10
472.95207538671514
 20
463.40640097533247
 11
477.95207539783962
 21
454.74614694391079
  0
LINE
  8
_0-5_寸法線
  6
CONTINUOUS
 62
    7
 10
472.95207538671514
 20
463.40640097533247
 11
472.95207539956061
 21
453.40640097533247
  0
LINE
  8
_0-5_寸法線
  6
CONTINUOUS
 62
    7
 10
472.95207538671514
 20
463.40640097533247
 11
484.79344494418103
 21
419.2138083827399
  0
LINE
  8
_0-5_寸法線
  6
CONTINUOUS
 62
    7
 10
484.79344494418103
 20
419.2138083827399
 11
592.79344494418092
 21
419.2138083827399
  0
TEXT
  8
_0-5_寸法線
 62
    7
 10
484.79344494418103
 20
419.81380838273986
 40
15
 41
0.8000000000000001
 50
0
  1
ＳＵＳアングル受枠
  0
LINE
  8
_0-5_寸法線
  6
CONTINUOUS
 62
    7
 10
605.65801808330093
 20
506.24274815252244
 11
610.65801808543654
 21
497.582494115911
  0
LINE
  8
_0-5_寸法線
  6
CONTINUOUS
 62
    7
 10
605.65801808330093
 20
506.24274815252244
 11
605.65801808576691
 21
496.24274815252244
  0
LINE
  8
_0-5_寸法線
  6
CONTINUOUS
 62
    7
 10
605.65801808330093
 20
506.24274815252244
 11
629.01550122639514
 21
419.07143441154722
  0
LINE
  8
_0-5_寸法線
  6
CONTINUOUS
 62
    7
 10
629.01550122639514
 20
419.07143441154722
 11
761.01550122639526
 21
419.07143441154722
  0
TEXT
  8
_0-5_寸法線
 62
    7
 10
629.01550122639514
 20
419.07143441154722
 40
15
 41
0.8000000000000001
 50
0
  1
セーフティグレーチング
  0
LINE
  8
_0-0_計極細
  6
CONTINUOUS
 62
    2
 10
813.46031080882085
 20
562.63140097533278
 11
813.46031080882085
 21
568.23140097533314
  0
LINE
  8
_0-0_計極細
  6
CONTINUOUS
 62
    2
 10
826.46031080882096
 20
562.63140097533278
 11
826.46031080882096
 21
568.23140097533314
  0
LINE
  8
_0-0_計極細
  6
CONTINUOUS
 62
    2
 10
813.46031080882085
 20
579.63140097533278
 11
813.46031080882085
 21
585.23140097533314
  0
LINE
  8
_0-0_計極細
  6
CONTINUOUS
 62
    2
 10
826.46031080882096
 20
579.63140097533278
 11
826.46031080882096
 21
585.23140097533314
  0
LINE
  8
_0-0_計極細
  6
CONTINUOUS
 62
    2
 10
813.46031080882085
 20
602.23140097532951
 11
813.46031080882085
 21
596.63140097532914
  0
LINE
  8
_0-0_計極細
  6
CONTINUOUS
 62
    2
 10
826.46031080882096
 20
602.23140097532951
 11
826.46031080882096
 21
596.63140097532914
  0
LINE
  8
_0-0_計極細
  6
CONTINUOUS
 62
    2
 10
813.46031080882085
 20
619.23140097532951
 11
813.46031080882085
 21
613.63140097532914
  0
LINE
  8
_0-0_計極細
  6
CONTINUOUS
 62
    2
 10
826.46031080882096
 20
619.23140097532951
 11
826.46031080882096
 21
613.63140097532914
  0
LINE
  8
_0-0_計極細
  6
CONTINUOUS
 62
    2
 10
813.46031080882085
 20
636.23140097533042
 11
813.46031080882085
 21
630.63140097533096
  0
LINE
  8
_0-0_計極細
  6
CONTINUOUS
 62
    2
 10
826.46031080882096
 20
636.23140097533042
 11
826.46031080882096
 21
630.63140097533096
  0
LINE
  8
_0-0_計極細
  6
CONTINUOUS
 62
    2
 10
813.46031080882085
 20
653.23140097533144
 11
813.46031080882085
 21
647.63140097533096
  0
LINE
  8
_0-0_計極細
  6
CONTINUOUS
 62
    2
 10
826.46031080882096
 20
653.23140097533144
 11
826.46031080882096
 21
647.63140097533096
  0
LINE
  8
_0-0_計極細
  6
CONTINUOUS
 62
    2
 10
813.46031080882085
 20
670.23140097533133
 11
813.46031080882085
 21
664.63140097533187
  0
LINE
  8
_0-0_計極細
  6
CONTINUOUS
 62
    2
 10
826.46031080882096
 20
670.23140097533133
 11
826.46031080882096
 21
664.63140097533187
  0
LINE
  8
_0-0_計極細
  6
CONTINUOUS
 62
    2
 10
813.46031080882085
 20
755.0314009753306
 11
813.46031080882085
 21
749.63140097533096
  0
LINE
  8
_0-0_計極細
  6
CONTINUOUS
 62
    2
 10
826.46031080882096
 20
755.0314009753306
 11
826.46031080882096
 21
749.63140097533096
  0
LINE
  8
_0-0_計極細
  6
CONTINUOUS
 62
    2
 10
813.46031080882085
 20
477.83140097533169
 11
813.46031080882085
 21
483.23140097533133
  0
LINE
  8
_0-0_計極細
  6
CONTINUOUS
 62
    2
 10
826.46031080882096
 20
477.83140097533169
 11
826.46031080882096
 21
483.23140097533133
  0
LINE
  8
_0-0_計極細
  6
CENTER1
 62
    2
 10
819.96031080882085
 20
775.18212039979289
 11
819.96031080882085
 21
458.67357723431951
  0
LINE
  8
_0-0_計極細
  6
CONTINUOUS
 62
    2
 10
813.46031080882085
 20
687.23140097533133
 11
813.46031080882085
 21
681.63140097533096
  0
LINE
  8
_0-0_計極細
  6
CONTINUOUS
 62
    2
 10
826.46031080882096
 20
687.23140097533133
 11
826.46031080882096
 21
681.63140097533096
  0
LINE
  8
_0-0_計極細
  6
CONTINUOUS
 62
    2
 10
813.46031080882085
 20
704.23140097532951
 11
813.46031080882085
 21
698.63140097533005
  0
LINE
  8
_0-0_計極細
  6
CONTINUOUS
 62
    2
 10
826.46031080882096
 20
704.23140097532951
 11
826.46031080882096
 21
698.63140097533005
  0
LINE
  8
_0-0_計極細
  6
CONTINUOUS
 62
    2
 10
813.46031080882085
 20
721.23140097532951
 11
813.46031080882085
 21
715.63140097532926
  0
LINE
  8
_0-0_計極細
  6
CONTINUOUS
 62
    2
 10
826.46031080882096
 20
721.23140097532951
 11
826.46031080882096
 21
715.63140097532926
  0
LINE
  8
_0-0_計極細
  6
CONTINUOUS
 62
    2
 10
813.46031080882085
 20
738.23140097532769
 11
813.46031080882085
 21
732.63140097532823
  0
LINE
  8
_0-0_計極細
  6
CONTINUOUS
 62
    2
 10
826.46031080882096
 20
738.23140097532769
 11
826.46031080882096
 21
732.63140097532823
  0
LINE
  8
_0-0_計極細
  6
CONTINUOUS
 62
    2
 10
813.46031080882085
 20
545.63140097533278
 11
813.46031080882085
 21
551.23140097533224
  0
LINE
  8
_0-0_計極細
  6
CONTINUOUS
 62
    2
 10
826.46031080882096
 20
545.63140097533278
 11
826.46031080882096
 21
551.23140097533224
  0
LINE
  8
_0-0_計極細
  6
CONTINUOUS
 62
    2
 10
813.46031080882085
 20
528.63140097533278
 11
813.46031080882085
 21
534.23140097533314
  0
LINE
  8
_0-0_計極細
  6
CONTINUOUS
 62
    2
 10
826.46031080882096
 20
528.63140097533278
 11
826.46031080882096
 21
534.23140097533314
  0
LINE
  8
_0-0_計極細
  6
CONTINUOUS
 62
    2
 10
813.46031080882085
 20
511.63140097533466
 11
813.46031080882085
 21
517.23140097533405
  0
LINE
  8
_0-0_計極細
  6
CONTINUOUS
 62
    2
 10
826.46031080882096
 20
511.63140097533466
 11
826.46031080882096
 21
517.23140097533405
  0
LINE
  8
_0-0_計極細
  6
CONTINUOUS
 62
    2
 10
813.46031080882085
 20
494.6314009753346
 11
813.46031080882085
 21
500.23140097533496
  0
LINE
  8
_0-0_計極細
  6
CONTINUOUS
 62
    2
 10
826.46031080882096
 20
494.6314009753346
 11
826.46031080882096
 21
500.23140097533496
  0
LINE
  8
_0-5_寸法線
  6
CONTINUOUS
 62
    7
 10
251.96031080882108
 20
781.43140097533035
 11
251.96031080882236
 21
861.43140097533035
  0
LINE
  8
_0-5_寸法線
  6
CONTINUOUS
 62
    7
 10
251.96031080882221
 20
856.43140097533035
 11
259.20475450599031
 21
858.37254381359912
  0
LINE
  8
_0-5_寸法線
  6
CONTINUOUS
 62
    7
 10
251.96031080882221
 20
856.43140097533035
 11
259.20475450599031
 21
854.49025813706146
  0
LINE
  8
_0-5_寸法線
  6
CONTINUOUS
 62
    7
 10
834.96031080882108
 20
781.43140097533035
 11
834.96031080882233
 21
861.43140097533035
  0
LINE
  8
_0-5_寸法線
  6
CONTINUOUS
 62
    7
 10
834.96031080882233
 20
856.43140097533035
 11
827.71586711165423
 21
854.49025813706146
  0
LINE
  8
_0-5_寸法線
  6
CONTINUOUS
 62
    7
 10
834.96031080882233
 20
856.43140097533035
 11
827.71586711165423
 21
858.37254381359912
  0
LINE
  8
_0-5_寸法線
  6
CONTINUOUS
 62
    7
 10
251.96031080882221
 20
856.43140097533035
 11
834.96031080882233
 21
856.43140097533035
  0
TEXT
  8
_0-5_寸法線
 62
    7
 10
535.96031080882233
 20
856.43140097533035
 40
15
 41
1
 50
0
  1
Ｌ
  0
LINE
  8
_0-5_寸法線
  6
CONTINUOUS
 62
    7
 10
251.96031080882094
 20
781.43140097533114
 11
251.96031080882085
 21
826.43140097533035
  0
LINE
  8
_0-5_寸法線
  6
CONTINUOUS
 62
    7
 10
251.96031080882085
 20
821.43140097533035
 11
261.61956907171151
 21
824.01959142635542
  0
LINE
  8
_0-5_寸法線
  6
CONTINUOUS
 62
    7
 10
251.96031080882085
 20
821.43140097533035
 11
261.61956907171151
 21
818.84321052430505
  0
LINE
  8
_0-5_寸法線
  6
CONTINUOUS
 62
    7
 10
266.96031080882096
 20
781.43140097533114
 11
266.96031080882096
 21
826.43140097533035
  0
LINE
  8
_0-5_寸法線
  6
CONTINUOUS
 62
    7
 10
266.96031080882096
 20
821.43140097533035
 11
257.30105254593025
 21
818.84321052430505
  0
LINE
  8
_0-5_寸法線
  6
CONTINUOUS
 62
    7
 10
266.96031080882096
 20
821.43140097533035
 11
257.30105254593025
 21
824.01959142635542
  0
LINE
  8
_0-5_寸法線
  6
CONTINUOUS
 62
    7
 10
251.96031080882085
 20
821.43140097533035
 11
266.96031080882096
 21
821.43140097533035
  0
TEXT
  8
_0-5_寸法線
 62
    7
 10
251.96031080882094
 20
821.43140097533035
 40
15
 41
1
 50
0
  1
Ａ
  0
LINE
  8
_0-5_寸法線
  6
CONTINUOUS
 62
    7
 10
363.96031080881846
 20
781.43140097533114
 11
363.96031080881846
 21
826.43140097533035
  0
LINE
  8
_0-5_寸法線
  6
CONTINUOUS
 62
    7
 10
363.96031080881846
 20
821.43140097533035
 11
373.61956907170912
 21
824.01959142635542
  0
LINE
  8
_0-5_寸法線
  6
CONTINUOUS
 62
    7
 10
363.96031080881846
 20
821.43140097533035
 11
373.61956907170912
 21
818.84321052430505
  0
LINE
  8
_0-5_寸法線
  6
CONTINUOUS
 62
    7
 10
460.96031080881852
 20
781.43140097533114
 11
460.96031080881852
 21
826.43140097533035
  0
LINE
  8
_0-5_寸法線
  6
CONTINUOUS
 62
    7
 10
460.96031080881852
 20
821.43140097533035
 11
451.30105254592775
 21
818.84321052430505
  0
LINE
  8
_0-5_寸法線
  6
CONTINUOUS
 62
    7
 10
460.96031080881852
 20
821.43140097533035
 11
451.30105254592786
 21
824.01959142635542
  0
LINE
  8
_0-5_寸法線
  6
CONTINUOUS
 62
    7
 10
363.96031080881846
 20
821.43140097533035
 11
460.96031080881852
 21
821.43140097533035
  0
TEXT
  8
_0-5_寸法線
 62
    7
 10
404.96031080881846
 20
821.43140097533035
 40
15
 41
1
 50
0
  1
97
  0
LINE
  8
_0-5_寸法線
  6
CONTINUOUS
 62
    7
 10
460.96031080881852
 20
821.43140097533035
 11
470.61956907170924
 21
824.01959142635542
  0
LINE
  8
_0-5_寸法線
  6
CONTINUOUS
 62
    7
 10
460.96031080881852
 20
821.43140097533035
 11
470.61956907170918
 21
818.84321052430494
  0
LINE
  8
_0-5_寸法線
  6
CONTINUOUS
 62
    7
 10
557.96031080881846
 20
781.43140097533114
 11
557.96031080881846
 21
826.43140097533035
  0
LINE
  8
_0-5_寸法線
  6
CONTINUOUS
 62
    7
 10
557.96031080881846
 20
821.43140097533035
 11
548.30105254592786
 21
818.84321052430505
  0
LINE
  8
_0-5_寸法線
  6
CONTINUOUS
 62
    7
 10
557.96031080881846
 20
821.43140097533035
 11
548.30105254592786
 21
824.01959142635542
  0
LINE
  8
_0-5_寸法線
  6
CONTINUOUS
 62
    7
 10
460.96031080881852
 20
821.43140097533035
 11
557.96031080881846
 21
821.43140097533035
  0
TEXT
  8
_0-5_寸法線
 62
    7
 10
501.96031080881852
 20
821.43140097533035
 40
15
 41
1
 50
0
  1
97
  0
LINE
  8
_0-5_寸法線
  6
CONTINUOUS
 62
    7
 10
819.96031080882085
 20
781.43140097533114
 11
819.96031080882085
 21
826.43140097533035
  0
LINE
  8
_0-5_寸法線
  6
CONTINUOUS
 62
    7
 10
819.96031080882085
 20
821.43140097533035
 11
829.61956907171157
 21
824.01959142635542
  0
LINE
  8
_0-5_寸法線
  6
CONTINUOUS
 62
    7
 10
819.96031080882085
 20
821.43140097533035
 11
829.61956907171157
 21
818.84321052430505
  0
LINE
  8
_0-5_寸法線
  6
CONTINUOUS
 62
    7
 10
834.96031080882085
 20
781.43140097533114
 11
834.96031080882085
 21
826.43140097533035
  0
LINE
  8
_0-5_寸法線
  6
CONTINUOUS
 62
    7
 10
834.96031080882085
 20
821.43140097533035
 11
825.30105254593025
 21
818.84321052430505
  0
LINE
  8
_0-5_寸法線
  6
CONTINUOUS
 62
    7
 10
834.96031080882085
 20
821.43140097533035
 11
825.30105254593025
 21
824.01959142635542
  0
LINE
  8
_0-5_寸法線
  6
CONTINUOUS
 62
    7
 10
819.96031080882085
 20
821.43140097533035
 11
834.96031080882085
 21
821.43140097533035
  0
TEXT
  8
_0-5_寸法線
 62
    7
 10
819.96031080882074
 20
821.43140097533035
 40
15
 41
1
 50
0
  1
Ａ
  0
LINE
  8
_0-5_寸法線
  6
CONTINUOUS
 62
    7
 10
557.96031080882108
 20
781.43140097533114
 11
557.96031080882108
 21
826.43140097532967
  0
LINE
  8
_0-5_寸法線
  6
CONTINUOUS
 62
    7
 10
557.96031080882108
 20
821.43140097532967
 11
567.61956907171179
 21
824.01959142635474
  0
LINE
  8
_0-5_寸法線
  6
CONTINUOUS
 62
    7
 10
557.96031080882108
 20
821.43140097532967
 11
567.61956907171179
 21
818.84321052430437
  0
LINE
  8
_0-5_寸法線
  6
CONTINUOUS
 62
    7
 10
625.96031080882085
 20
781.43140097533114
 11
625.96031080882096
 21
826.43140097532967
  0
LINE
  8
_0-5_寸法線
  6
CONTINUOUS
 62
    7
 10
625.96031080882096
 20
821.43140097532967
 11
616.30105254593025
 21
818.84321052430437
  0
LINE
  8
_0-5_寸法線
  6
CONTINUOUS
 62
    7
 10
625.96031080882096
 20
821.43140097532967
 11
616.30105254593025
 21
824.01959142635474
  0
LINE
  8
_0-5_寸法線
  6
CONTINUOUS
 62
    7
 10
557.96031080882108
 20
821.43140097532967
 11
625.96031080882096
 21
821.43140097532967
  0
TEXT
  8
_0-5_寸法線
 62
    7
 10
584.46031080882096
 20
821.43140097532967
 40
15
 41
1
 50
0
  1
Ｂ
  0
LINE
  8
_0-7_枠細線
  6
CONTINUOUS
 62
    5
 10
399.2526014874278
 20
824.05203581973228
 11
391.7526014874278
 21
839.05203581973228
  0
LINE
  8
_0-7_枠細線
  6
CONTINUOUS
 62
    5
 10
384.2526014874278
 20
824.05203581973228
 11
399.2526014874278
 21
824.05203581973228
  0
LINE
  8
_0-7_枠細線
  6
CONTINUOUS
 62
    5
 10
391.7526014874278
 20
839.05203581973228
 11
384.2526014874278
 21
824.05203581973228
  0
TEXT
  8
_0-7_枠細線
 62
    5
 10
386.61775275557596
 20
823.74503357435174
 40
12.5
 41
0.8
 50
0
  1
１
  0
TEXT
  8
_0-5_寸法線
 62
    7
 10
484.79344494418103
 20
404.2138083827399
 40
15
 41
0.8000000000000001
 50
0
  1
ＧＳＬ－２５
  0
TEXT
  8
_0-5_寸法線
 62
    7
 10
629.10751156960418
 20
404.07143441154722
 40
15
 41
0.8000000000000001
 50
0
  1
ＧＲＳ－２５Ｗ３００
  0
LINE
  8
_0-1_計細線
  6
CONTINUOUS
 62
    3
 10
251.96031080882085
 20
630.63140097533096
 11
834.96031080882085
 21
630.63140097533096
  0
LINE
  8
_0-1_計細線
  6
CONTINUOUS
 62
    3
 10
834.96031080882085
 20
630.63140097533096
 11
834.96031080882085
 21
619.23140097532951
  0
LINE
  8
_0-0_計極細
  6
CONTINUOUS
 62
    2
 10
251.96031080882085
 20
622.43140097533023
 11
834.96031080882085
 21
622.43140097533023
  0
LINE
  8
_0-0_計極細
  6
CONTINUOUS
 62
    2
 10
251.96031080882085
 20
627.43140097533023
 11
834.96031080882085
 21
627.43140097533023
  0
LINE
  8
_0-1_計細線
  6
CONTINUOUS
 62
    3
 10
251.96031080882085
 20
602.23140097532951
 11
834.96031080882085
 21
602.23140097532951
  0
LINE
  8
_0-1_計細線
  6
CONTINUOUS
 62
    3
 10
834.96031080882085
 20
613.63140097532914
 11
834.96031080882085
 21
602.23140097532951
  0
LINE
  8
_0-0_計極細
  6
CONTINUOUS
 62
    2
 10
251.96031080882085
 20
605.43140097532932
 11
834.96031080882085
 21
605.43140097532932
  0
LINE
  8
_0-0_計極細
  6
CONTINUOUS
 62
    2
 10
251.96031080882085
 20
610.43140097532932
 11
834.96031080882085
 21
610.43140097532932
  0
LINE
  8
_0-1_計細線
  6
CONTINUOUS
 62
    3
 10
251.96031080882085
 20
630.63140097533096
 11
251.96031080882085
 21
619.23140097532951
  0
LINE
  8
_0-1_計細線
  6
CONTINUOUS
 62
    3
 10
251.96031080882085
 20
619.23140097532951
 11
834.96031080882085
 21
619.23140097532951
  0
LINE
  8
_0-1_計細線
  6
CONTINUOUS
 62
    3
 10
251.96031080882085
 20
613.63140097532914
 11
834.96031080882085
 21
613.63140097532914
  0
LINE
  8
_0-1_計細線
  6
CONTINUOUS
 62
    3
 10
251.96031080882085
 20
613.63140097532914
 11
251.96031080882085
 21
602.23140097532951
  0
LINE
  8
_0-0_計極細
  6
CONTINUOUS
 62
    2
 10
357.46031080882096
 20
619.23140097532951
 11
357.46031080882096
 21
618.78140097533196
  0
LINE
  8
_0-0_計極細
  6
CONTINUOUS
 62
    2
 10
357.46031080882096
 20
614.08140097533214
 11
357.46031080882096
 21
613.63140097532914
  0
LINE
  8
_0-0_計極細
  6
CONTINUOUS
 62
    2
 10
370.46031080882096
 20
619.23140097532951
 11
370.46031080882096
 21
618.78140097533196
  0
LINE
  8
_0-0_計極細
  6
CONTINUOUS
 62
    2
 10
370.46031080882096
 20
614.08140097533214
 11
370.46031080882096
 21
613.63140097532914
  0
TEXT
  8
_0-5_寸法線
 62
    7
 10
388.61703115465707
 20
402.30303220457881
 40
15
 41
0.8000000000000001
 50
0
  1
(標準付属)
  0
LINE
  8
_0-5_寸法線
  6
CONTINUOUS
 62
    7
 10
330.19780127288448
 20
615.15013990959392
 11
335.19780127288442
 21
606.48988587174949
  0
LINE
  8
_0-5_寸法線
  6
CONTINUOUS
 62
    7
 10
330.19780127288448
 20
615.15013990959392
 11
330.19780127288442
 21
605.15013990959392
  0
LINE
  8
_0-5_寸法線
  6
CONTINUOUS
 62
    7
 10
330.19780127288448
 20
615.15013990959392
 11
382.69878307342077
 21
419.2138083827399
  0
LINE
  8
_0-5_寸法線
  6
CONTINUOUS
 62
    7
 10
382.69878307342077
 20
419.2138083827399
 11
442.69878307342077
 21
419.2138083827399
  0
TEXT
  8
_0-5_寸法線
 62
    7
 10
382.69878307342077
 20
419.2138083827399
 40
15
 41
0.8000000000000001
 50
0
  1
取　外　具
  0
TEXT
  8
_0-7_枠細線
 62
    5
 10
385.2211505804861
 20
437.39783220851882
 40
12.5
 41
0.8
 50
0
  1
２
  0
LINE
  8
_0-7_枠細線
  6
CONTINUOUS
 62
    5
 10
397.85599931233804
 20
437.70483445389942
 11
390.35599931233804
 21
452.70483445389942
  0
LINE
  8
_0-7_枠細線
  6
CONTINUOUS
 62
    5
 10
382.85599931233799
 20
437.70483445389942
 11
397.85599931233804
 21
437.70483445389942
  0
LINE
  8
_0-7_枠細線
  6
CONTINUOUS
 62
    5
 10
390.35599931233804
 20
452.70483445389942
 11
382.85599931233799
 21
437.70483445389942
  0
LINE
  8
_0-7_枠細線
  6
CONTINUOUS
 62
    5
 10
416.56998322703436
 20
437.70483445389942
 11
409.06998322703436
 21
452.70483445389942
  0
LINE
  8
_0-7_枠細線
  6
CONTINUOUS
 62
    5
 10
401.56998322703436
 20
437.70483445389942
 11
416.56998322703436
 21
437.70483445389942
  0
LINE
  8
_0-7_枠細線
  6
CONTINUOUS
 62
    5
 10
409.06998322703436
 20
452.70483445389942
 11
401.56998322703436
 21
437.70483445389942
  0
TEXT
  8
_0-7_枠細線
 62
    5
 10
403.93513449518252
 20
437.15715056371806
 40
12.5
 41
0.8
 50
0
  1
３
  0
ARC
  8
_0-0_計極細
  6
CONTINUOUS
 62
    2
 10
864.90653196550613
 20
763.93140097533103
 40
11.295514677412786
 50
138.39585046827571
 51
221.60414953172395
  0
ARC
  8
_0-0_計極細
  6
CONTINUOUS
 62
    2
 10
848.01408965213568
 20
748.93140097532921
 40
11.295514677412786
 50
318.39585046827381
 51
41.60414953172549
  0
LINE
  8
_0-5_寸法線
  6
CONTINUOUS
 62
    7
 10
906.46031080881914
 20
771.43140097533114
 11
903.87212035779385
 21
781.09065923822186
  0
LINE
  8
_0-5_寸法線
  6
CONTINUOUS
 62
    7
 10
906.46031080881914
 20
771.43140097533114
 11
909.04850125984422
 21
781.09065923822186
  0
LINE
  8
_0-5_寸法線
  6
CONTINUOUS
 62
    7
 10
866.4603108088204
 20
768.43140097533126
 11
911.46031080881914
 21
768.43140097533126
  0
CIRCLE
  8
_0-5_寸法線
  6
CONTINUOUS
 62
    1
 10
906.46031080881914
 20
768.43140097533126
 40
1.5000000000000002
  0
LINE
  8
_0-5_寸法線
  6
CONTINUOUS
 62
    7
 10
906.46031080881914
 20
796.43140097533114
 11
906.46031080881914
 21
768.43140097533126
  0
TEXT
  8
_0-5_寸法線
 62
    7
 10
906.46031080881914
 20
785.37071774476181
 40
15
 41
1
 50
90
  1
3
  0
LINE
  8
_0-5_寸法線
  6
CONTINUOUS
 62
    7
 10
866.4603108088204
 20
766.43140097533205
 11
911.46031080881914
 21
766.43140097533205
  0
LINE
  8
_0-5_寸法線
  6
CONTINUOUS
 62
    7
 10
906.46031080881914
 20
768.43140097533126
 11
906.46031080881914
 21
766.43140097533205
  0
TEXT
  8
_0-5_寸法線
 62
    7
 10
926.70884651331164
 20
761.5064541549724
 40
15
 41
1
 50
90
  1
2
  0
LINE
  8
_0-5_寸法線
  6
CONTINUOUS
 62
    7
 10
906.46031080881914
 20
766.43140097533205
 11
909.04850125984422
 21
756.77214271244134
  0
LINE
  8
_0-5_寸法線
  6
CONTINUOUS
 62
    7
 10
906.46031080881914
 20
766.43140097533205
 11
903.87212035779385
 21
756.77214271244134
  0
LINE
  8
_0-5_寸法線
  6
CONTINUOUS
 62
    7
 10
866.46031080882096
 20
466.43140097533205
 11
911.46031080881994
 21
466.43140097533205
  0
LINE
  8
_0-5_寸法線
  6
CONTINUOUS
 62
    7
 10
906.46031080881994
 20
466.43140097533205
 11
903.87212035779487
 21
476.09065923822271
  0
LINE
  8
_0-5_寸法線
  6
CONTINUOUS
 62
    7
 10
906.46031080881994
 20
466.43140097533205
 11
909.04850125984524
 21
476.09065923822277
  0
LINE
  8
_0-5_寸法線
  6
CONTINUOUS
 62
    7
 10
906.46031080881914
 20
766.43140097533205
 11
906.46031080881994
 21
466.43140097533205
  0
TEXT
  8
_0-5_寸法線
 62
    7
 10
906.46031080881994
 20
605.18140097533205
 40
15
 41
1
 50
90
  1
300
  0
LINE
  8
_0-5_寸法線
  6
CONTINUOUS
 62
    7
 10
866.46031080882096
 20
464.43140097533211
 11
911.46031080881994
 21
464.43140097533211
  0
CIRCLE
  8
_0-5_寸法線
  6
CONTINUOUS
 62
    1
 10
906.46031080881994
 20
464.43140097533211
 40
1.5000000000000002
  0
LINE
  8
_0-5_寸法線
  6
CONTINUOUS
 62
    7
 10
906.46031080881994
 20
466.43140097533205
 11
906.46031080881994
 21
464.43140097533211
  0
TEXT
  8
_0-5_寸法線
 62
    7
 10
928.11321031693581
 20
464.47187597790554
 40
15
 41
1
 50
90
  1
2
  0
LINE
  8
_0-5_寸法線
  6
CONTINUOUS
 62
    7
 10
906.46031080881994
 20
461.43140097532751
 11
909.04850125984524
 21
451.77214271243685
  0
LINE
  8
_0-5_寸法線
  6
CONTINUOUS
 62
    7
 10
906.46031080881994
 20
461.43140097532751
 11
903.87212035779476
 21
451.77214271243685
  0
LINE
  8
_0-5_寸法線
  6
CONTINUOUS
 62
    7
 10
906.46031080881994
 20
464.43140097533211
 11
906.46031080881994
 21
436.43140097532751
  0
TEXT
  8
_0-5_寸法線
 62
    7
 10
906.46031080881994
 20
440.00647617461436
 40
15
 41
1
 50
90
  1
3
  0
LINE
  8
_0-0_計極細
  6
CONTINUOUS
 62
    2
 10
454.46031080882102
 20
562.63140097533278
 11
454.46031080882102
 21
568.23140097533314
  0
LINE
  8
_0-0_計極細
  6
CONTINUOUS
 62
    2
 10
467.46031080882113
 20
562.63140097533278
 11
467.46031080882113
 21
568.23140097533314
  0
LINE
  8
_0-0_計極細
  6
CONTINUOUS
 62
    2
 10
454.46031080882102
 20
579.63140097533278
 11
454.46031080882102
 21
585.23140097533314
  0
LINE
  8
_0-0_計極細
  6
CONTINUOUS
 62
    2
 10
467.46031080882113
 20
579.63140097533278
 11
467.46031080882113
 21
585.23140097533314
  0
LINE
  8
_0-0_計極細
  6
CONTINUOUS
 62
    2
 10
454.46031080882102
 20
602.23140097532951
 11
454.46031080882102
 21
596.63140097532914
  0
LINE
  8
_0-0_計極細
  6
CONTINUOUS
 62
    2
 10
467.46031080882113
 20
602.23140097532951
 11
467.46031080882113
 21
596.63140097532914
  0
LINE
  8
_0-0_計極細
  6
CONTINUOUS
 62
    2
 10
454.46031080882102
 20
619.23140097532951
 11
454.46031080882102
 21
613.63140097532914
  0
LINE
  8
_0-0_計極細
  6
CONTINUOUS
 62
    2
 10
467.46031080882113
 20
619.23140097532951
 11
467.46031080882113
 21
613.63140097532914
  0
LINE
  8
_0-0_計極細
  6
CONTINUOUS
 62
    2
 10
454.46031080882102
 20
636.23140097533042
 11
454.46031080882102
 21
630.63140097533096
  0
LINE
  8
_0-0_計極細
  6
CONTINUOUS
 62
    2
 10
467.46031080882113
 20
636.23140097533042
 11
467.46031080882113
 21
630.63140097533096
  0
LINE
  8
_0-0_計極細
  6
CONTINUOUS
 62
    2
 10
454.46031080882102
 20
653.23140097533144
 11
454.46031080882102
 21
647.63140097533096
  0
LINE
  8
_0-0_計極細
  6
CONTINUOUS
 62
    2
 10
467.46031080882113
 20
653.23140097533144
 11
467.46031080882113
 21
647.63140097533096
  0
LINE
  8
_0-0_計極細
  6
CONTINUOUS
 62
    2
 10
454.46031080882102
 20
670.23140097533133
 11
454.46031080882102
 21
664.63140097533187
  0
LINE
  8
_0-0_計極細
  6
CONTINUOUS
 62
    2
 10
467.46031080882113
 20
670.23140097533133
 11
467.46031080882113
 21
664.63140097533187
  0
LINE
  8
_0-0_計極細
  6
CONTINUOUS
 62
    2
 10
454.46031080882102
 20
755.0314009753306
 11
454.46031080882102
 21
749.63140097533096
  0
LINE
  8
_0-0_計極細
  6
CONTINUOUS
 62
    2
 10
467.46031080882113
 20
755.0314009753306
 11
467.46031080882113
 21
749.63140097533096
  0
LINE
  8
_0-0_計極細
  6
CONTINUOUS
 62
    2
 10
454.46031080882102
 20
477.83140097533169
 11
454.46031080882102
 21
483.23140097533133
  0
LINE
  8
_0-0_計極細
  6
CONTINUOUS
 62
    2
 10
467.46031080882113
 20
477.83140097533169
 11
467.46031080882113
 21
483.23140097533133
  0
LINE
  8
_0-0_計極細
  6
CENTER1
 62
    2
 10
460.96031080882096
 20
775.18212039979289
 11
460.96031080882096
 21
458.67357723431951
  0
LINE
  8
_0-0_計極細
  6
CONTINUOUS
 62
    2
 10
454.46031080882102
 20
687.23140097533133
 11
454.46031080882102
 21
681.63140097533096
  0
LINE
  8
_0-0_計極細
  6
CONTINUOUS
 62
    2
 10
467.46031080882113
 20
687.23140097533133
 11
467.46031080882113
 21
681.63140097533096
  0
LINE
  8
_0-0_計極細
  6
CONTINUOUS
 62
    2
 10
454.46031080882102
 20
704.23140097532951
 11
454.46031080882102
 21
698.63140097533005
  0
LINE
  8
_0-0_計極細
  6
CONTINUOUS
 62
    2
 10
467.46031080882113
 20
704.23140097532951
 11
467.46031080882113
 21
698.63140097533005
  0
LINE
  8
_0-0_計極細
  6
CONTINUOUS
 62
    2
 10
454.46031080882102
 20
721.23140097532951
 11
454.46031080882102
 21
715.63140097532926
  0
LINE
  8
_0-0_計極細
  6
CONTINUOUS
 62
    2
 10
467.46031080882113
 20
721.23140097532951
 11
467.46031080882113
 21
715.63140097532926
  0
LINE
  8
_0-0_計極細
  6
CONTINUOUS
 62
    2
 10
454.46031080882102
 20
738.23140097532769
 11
454.46031080882102
 21
732.63140097532823
  0
LINE
  8
_0-0_計極細
  6
CONTINUOUS
 62
    2
 10
467.46031080882113
 20
738.23140097532769
 11
467.46031080882113
 21
732.63140097532823
  0
LINE
  8
_0-0_計極細
  6
CONTINUOUS
 62
    2
 10
454.46031080882102
 20
545.63140097533278
 11
454.46031080882102
 21
551.23140097533224
  0
LINE
  8
_0-0_計極細
  6
CONTINUOUS
 62
    2
 10
467.46031080882113
 20
545.63140097533278
 11
467.46031080882113
 21
551.23140097533224
  0
LINE
  8
_0-0_計極細
  6
CONTINUOUS
 62
    2
 10
454.46031080882102
 20
528.63140097533278
 11
454.46031080882102
 21
534.23140097533314
  0
LINE
  8
_0-0_計極細
  6
CONTINUOUS
 62
    2
 10
467.46031080882113
 20
528.63140097533278
 11
467.46031080882113
 21
534.23140097533314
  0
LINE
  8
_0-0_計極細
  6
CONTINUOUS
 62
    2
 10
454.46031080882102
 20
511.63140097533466
 11
454.46031080882102
 21
517.23140097533405
  0
LINE
  8
_0-0_計極細
  6
CONTINUOUS
 62
    2
 10
467.46031080882113
 20
511.63140097533466
 11
467.46031080882113
 21
517.23140097533405
  0
LINE
  8
_0-0_計極細
  6
CONTINUOUS
 62
    2
 10
454.46031080882102
 20
494.6314009753346
 11
454.46031080882102
 21
500.23140097533496
  0
LINE
  8
_0-0_計極細
  6
CONTINUOUS
 62
    2
 10
467.46031080882113
 20
494.6314009753346
 11
467.46031080882113
 21
500.23140097533496
  0
LINE
  8
_0-0_計極細
  6
CONTINUOUS
 62
    2
 10
551.46031080882096
 20
562.63140097533278
 11
551.46031080882096
 21
568.23140097533314
  0
LINE
  8
_0-0_計極細
  6
CONTINUOUS
 62
    2
 10
564.46031080882108
 20
562.63140097533278
 11
564.46031080882108
 21
568.23140097533314
  0
LINE
  8
_0-0_計極細
  6
CONTINUOUS
 62
    2
 10
551.46031080882096
 20
579.63140097533278
 11
551.46031080882096
 21
585.23140097533314
  0
LINE
  8
_0-0_計極細
  6
CONTINUOUS
 62
    2
 10
564.46031080882108
 20
579.63140097533278
 11
564.46031080882108
 21
585.23140097533314
  0
LINE
  8
_0-0_計極細
  6
CONTINUOUS
 62
    2
 10
551.46031080882096
 20
602.23140097532951
 11
551.46031080882096
 21
596.63140097532914
  0
LINE
  8
_0-0_計極細
  6
CONTINUOUS
 62
    2
 10
564.46031080882108
 20
602.23140097532951
 11
564.46031080882108
 21
596.63140097532914
  0
LINE
  8
_0-0_計極細
  6
CONTINUOUS
 62
    2
 10
551.46031080882096
 20
619.23140097532951
 11
551.46031080882096
 21
613.63140097532914
  0
LINE
  8
_0-0_計極細
  6
CONTINUOUS
 62
    2
 10
564.46031080882108
 20
619.23140097532951
 11
564.46031080882108
 21
613.63140097532914
  0
LINE
  8
_0-0_計極細
  6
CONTINUOUS
 62
    2
 10
551.46031080882096
 20
636.23140097533042
 11
551.46031080882096
 21
630.63140097533096
  0
LINE
  8
_0-0_計極細
  6
CONTINUOUS
 62
    2
 10
564.46031080882108
 20
636.23140097533042
 11
564.46031080882108
 21
630.63140097533096
  0
LINE
  8
_0-0_計極細
  6
CONTINUOUS
 62
    2
 10
551.46031080882096
 20
653.23140097533144
 11
551.46031080882096
 21
647.63140097533096
  0
LINE
  8
_0-0_計極細
  6
CONTINUOUS
 62
    2
 10
564.46031080882108
 20
653.23140097533144
 11
564.46031080882108
 21
647.63140097533096
  0
LINE
  8
_0-0_計極細
  6
CONTINUOUS
 62
    2
 10
551.46031080882096
 20
670.23140097533133
 11
551.46031080882096
 21
664.63140097533187
  0
LINE
  8
_0-0_計極細
  6
CONTINUOUS
 62
    2
 10
564.46031080882108
 20
670.23140097533133
 11
564.46031080882108
 21
664.63140097533187
  0
LINE
  8
_0-0_計極細
  6
CONTINUOUS
 62
    2
 10
551.46031080882096
 20
755.0314009753306
 11
551.46031080882096
 21
749.63140097533096
  0
LINE
  8
_0-0_計極細
  6
CONTINUOUS
 62
    2
 10
564.46031080882108
 20
755.0314009753306
 11
564.46031080882108
 21
749.63140097533096
  0
LINE
  8
_0-0_計極細
  6
CONTINUOUS
 62
    2
 10
551.46031080882096
 20
477.83140097533169
 11
551.46031080882096
 21
483.23140097533133
  0
LINE
  8
_0-0_計極細
  6
CONTINUOUS
 62
    2
 10
564.46031080882108
 20
477.83140097533169
 11
564.46031080882108
 21
483.23140097533133
  0
LINE
  8
_0-0_計極細
  6
CENTER1
 62
    2
 10
557.96031080882108
 20
775.18212039979289
 11
557.96031080882108
 21
458.67357723431951
  0
LINE
  8
_0-0_計極細
  6
CONTINUOUS
 62
    2
 10
551.46031080882096
 20
687.23140097533133
 11
551.46031080882096
 21
681.63140097533096
  0
LINE
  8
_0-0_計極細
  6
CONTINUOUS
 62
    2
 10
564.46031080882108
 20
687.23140097533133
 11
564.46031080882108
 21
681.63140097533096
  0
LINE
  8
_0-0_計極細
  6
CONTINUOUS
 62
    2
 10
551.46031080882096
 20
704.23140097532951
 11
551.46031080882096
 21
698.63140097533005
  0
LINE
  8
_0-0_計極細
  6
CONTINUOUS
 62
    2
 10
564.46031080882108
 20
704.23140097532951
 11
564.46031080882108
 21
698.63140097533005
  0
LINE
  8
_0-0_計極細
  6
CONTINUOUS
 62
    2
 10
551.46031080882096
 20
721.23140097532951
 11
551.46031080882096
 21
715.63140097532926
  0
LINE
  8
_0-0_計極細
  6
CONTINUOUS
 62
    2
 10
564.46031080882108
 20
721.23140097532951
 11
564.46031080882108
 21
715.63140097532926
  0
LINE
  8
_0-0_計極細
  6
CONTINUOUS
 62
    2
 10
551.46031080882096
 20
738.23140097532769
 11
551.46031080882096
 21
732.63140097532823
  0
LINE
  8
_0-0_計極細
  6
CONTINUOUS
 62
    2
 10
564.46031080882108
 20
738.23140097532769
 11
564.46031080882108
 21
732.63140097532823
  0
LINE
  8
_0-0_計極細
  6
CONTINUOUS
 62
    2
 10
551.46031080882096
 20
545.63140097533278
 11
551.46031080882096
 21
551.23140097533224
  0
LINE
  8
_0-0_計極細
  6
CONTINUOUS
 62
    2
 10
564.46031080882108
 20
545.63140097533278
 11
564.46031080882108
 21
551.23140097533224
  0
LINE
  8
_0-0_計極細
  6
CONTINUOUS
 62
    2
 10
551.46031080882096
 20
528.63140097533278
 11
551.46031080882096
 21
534.23140097533314
  0
LINE
  8
_0-0_計極細
  6
CONTINUOUS
 62
    2
 10
564.46031080882108
 20
528.63140097533278
 11
564.46031080882108
 21
534.23140097533314
  0
LINE
  8
_0-0_計極細
  6
CONTINUOUS
 62
    2
 10
551.46031080882096
 20
511.63140097533466
 11
551.46031080882096
 21
517.23140097533405
  0
LINE
  8
_0-0_計極細
  6
CONTINUOUS
 62
    2
 10
564.46031080882108
 20
511.63140097533466
 11
564.46031080882108
 21
517.23140097533405
  0
LINE
  8
_0-0_計極細
  6
CONTINUOUS
 62
    2
 10
551.46031080882096
 20
494.6314009753346
 11
551.46031080882096
 21
500.23140097533496
  0
LINE
  8
_0-0_計極細
  6
CONTINUOUS
 62
    2
 10
564.46031080882108
 20
494.6314009753346
 11
564.46031080882108
 21
500.23140097533496
  0
LINE
  8
_0-0_計極細
  6
CONTINUOUS
 62
    2
 10
619.46031080882096
 20
562.63140097533278
 11
619.46031080882096
 21
568.23140097533314
  0
LINE
  8
_0-0_計極細
  6
CONTINUOUS
 62
    2
 10
632.46031080882108
 20
562.63140097533278
 11
632.46031080882108
 21
568.23140097533314
  0
LINE
  8
_0-0_計極細
  6
CONTINUOUS
 62
    2
 10
619.46031080882096
 20
579.63140097533278
 11
619.46031080882096
 21
585.23140097533314
  0
LINE
  8
_0-0_計極細
  6
CONTINUOUS
 62
    2
 10
632.46031080882108
 20
579.63140097533278
 11
632.46031080882108
 21
585.23140097533314
  0
LINE
  8
_0-0_計極細
  6
CONTINUOUS
 62
    2
 10
619.46031080882096
 20
602.23140097532951
 11
619.46031080882096
 21
596.63140097532914
  0
LINE
  8
_0-0_計極細
  6
CONTINUOUS
 62
    2
 10
632.46031080882108
 20
602.23140097532951
 11
632.46031080882108
 21
596.63140097532914
  0
LINE
  8
_0-0_計極細
  6
CONTINUOUS
 62
    2
 10
619.46031080882096
 20
619.23140097532951
 11
619.46031080882096
 21
613.63140097532914
  0
LINE
  8
_0-0_計極細
  6
CONTINUOUS
 62
    2
 10
632.46031080882108
 20
619.23140097532951
 11
632.46031080882108
 21
613.63140097532914
  0
LINE
  8
_0-0_計極細
  6
CONTINUOUS
 62
    2
 10
619.46031080882096
 20
636.23140097533042
 11
619.46031080882096
 21
630.63140097533096
  0
LINE
  8
_0-0_計極細
  6
CONTINUOUS
 62
    2
 10
632.46031080882108
 20
636.23140097533042
 11
632.46031080882108
 21
630.63140097533096
  0
LINE
  8
_0-0_計極細
  6
CONTINUOUS
 62
    2
 10
619.46031080882096
 20
653.23140097533144
 11
619.46031080882096
 21
647.63140097533096
  0
LINE
  8
_0-0_計極細
  6
CONTINUOUS
 62
    2
 10
632.46031080882108
 20
653.23140097533144
 11
632.46031080882108
 21
647.63140097533096
  0
LINE
  8
_0-0_計極細
  6
CONTINUOUS
 62
    2
 10
619.46031080882096
 20
670.23140097533133
 11
619.46031080882096
 21
664.63140097533187
  0
LINE
  8
_0-0_計極細
  6
CONTINUOUS
 62
    2
 10
632.46031080882108
 20
670.23140097533133
 11
632.46031080882108
 21
664.63140097533187
  0
LINE
  8
_0-0_計極細
  6
CONTINUOUS
 62
    2
 10
619.46031080882096
 20
755.0314009753306
 11
619.46031080882096
 21
749.63140097533096
  0
LINE
  8
_0-0_計極細
  6
CONTINUOUS
 62
    2
 10
632.46031080882108
 20
755.0314009753306
 11
632.46031080882108
 21
749.63140097533096
  0
LINE
  8
_0-0_計極細
  6
CONTINUOUS
 62
    2
 10
619.46031080882096
 20
477.83140097533169
 11
619.46031080882096
 21
483.23140097533133
  0
LINE
  8
_0-0_計極細
  6
CONTINUOUS
 62
    2
 10
632.46031080882108
 20
477.83140097533169
 11
632.46031080882108
 21
483.23140097533133
  0
LINE
  8
_0-0_計極細
  6
CENTER1
 62
    2
 10
625.96031080882096
 20
775.18212039979289
 11
625.96031080882096
 21
458.67357723431951
  0
LINE
  8
_0-0_計極細
  6
CONTINUOUS
 62
    2
 10
619.46031080882096
 20
687.23140097533133
 11
619.46031080882096
 21
681.63140097533096
  0
LINE
  8
_0-0_計極細
  6
CONTINUOUS
 62
    2
 10
632.46031080882108
 20
687.23140097533133
 11
632.46031080882108
 21
681.63140097533096
  0
LINE
  8
_0-0_計極細
  6
CONTINUOUS
 62
    2
 10
619.46031080882096
 20
704.23140097532951
 11
619.46031080882096
 21
698.63140097533005
  0
LINE
  8
_0-0_計極細
  6
CONTINUOUS
 62
    2
 10
632.46031080882108
 20
704.23140097532951
 11
632.46031080882108
 21
698.63140097533005
  0
LINE
  8
_0-0_計極細
  6
CONTINUOUS
 62
    2
 10
619.46031080882096
 20
721.23140097532951
 11
619.46031080882096
 21
715.63140097532926
  0
LINE
  8
_0-0_計極細
  6
CONTINUOUS
 62
    2
 10
632.46031080882108
 20
721.23140097532951
 11
632.46031080882108
 21
715.63140097532926
  0
LINE
  8
_0-0_計極細
  6
CONTINUOUS
 62
    2
 10
619.46031080882096
 20
738.23140097532769
 11
619.46031080882096
 21
732.63140097532823
  0
LINE
  8
_0-0_計極細
  6
CONTINUOUS
 62
    2
 10
632.46031080882108
 20
738.23140097532769
 11
632.46031080882108
 21
732.63140097532823
  0
LINE
  8
_0-0_計極細
  6
CONTINUOUS
 62
    2
 10
619.46031080882096
 20
545.63140097533278
 11
619.46031080882096
 21
551.23140097533224
  0
LINE
  8
_0-0_計極細
  6
CONTINUOUS
 62
    2
 10
632.46031080882108
 20
545.63140097533278
 11
632.46031080882108
 21
551.23140097533224
  0
LINE
  8
_0-0_計極細
  6
CONTINUOUS
 62
    2
 10
619.46031080882096
 20
528.63140097533278
 11
619.46031080882096
 21
534.23140097533314
  0
LINE
  8
_0-0_計極細
  6
CONTINUOUS
 62
    2
 10
632.46031080882108
 20
528.63140097533278
 11
632.46031080882108
 21
534.23140097533314
  0
LINE
  8
_0-0_計極細
  6
CONTINUOUS
 62
    2
 10
619.46031080882096
 20
511.63140097533466
 11
619.46031080882096
 21
517.23140097533405
  0
LINE
  8
_0-0_計極細
  6
CONTINUOUS
 62
    2
 10
632.46031080882108
 20
511.63140097533466
 11
632.46031080882108
 21
517.23140097533405
  0
LINE
  8
_0-0_計極細
  6
CONTINUOUS
 62
    2
 10
619.46031080882096
 20
494.6314009753346
 11
619.46031080882096
 21
500.23140097533496
  0
LINE
  8
_0-0_計極細
  6
CONTINUOUS
 62
    2
 10
632.46031080882108
 20
494.6314009753346
 11
632.46031080882108
 21
500.23140097533496
  0
LINE
  8
_0-0_計極細
  6
CONTINUOUS
 62
    2
 10
716.46031080882096
 20
562.63140097533278
 11
716.46031080882096
 21
568.23140097533314
  0
LINE
  8
_0-0_計極細
  6
CONTINUOUS
 62
    2
 10
729.46031080882108
 20
562.63140097533278
 11
729.46031080882108
 21
568.23140097533314
  0
LINE
  8
_0-0_計極細
  6
CONTINUOUS
 62
    2
 10
716.46031080882096
 20
579.63140097533278
 11
716.46031080882096
 21
585.23140097533314
  0
LINE
  8
_0-0_計極細
  6
CONTINUOUS
 62
    2
 10
729.46031080882108
 20
579.63140097533278
 11
729.46031080882108
 21
585.23140097533314
  0
LINE
  8
_0-0_計極細
  6
CONTINUOUS
 62
    2
 10
716.46031080882096
 20
602.23140097532951
 11
716.46031080882096
 21
596.63140097532914
  0
LINE
  8
_0-0_計極細
  6
CONTINUOUS
 62
    2
 10
729.46031080882108
 20
602.23140097532951
 11
729.46031080882108
 21
596.63140097532914
  0
LINE
  8
_0-0_計極細
  6
CONTINUOUS
 62
    2
 10
716.46031080882096
 20
619.23140097532951
 11
716.46031080882096
 21
613.63140097532914
  0
LINE
  8
_0-0_計極細
  6
CONTINUOUS
 62
    2
 10
729.46031080882108
 20
619.23140097532951
 11
729.46031080882108
 21
613.63140097532914
  0
LINE
  8
_0-0_計極細
  6
CONTINUOUS
 62
    2
 10
716.46031080882096
 20
636.23140097533042
 11
716.46031080882096
 21
630.63140097533096
  0
LINE
  8
_0-0_計極細
  6
CONTINUOUS
 62
    2
 10
729.46031080882108
 20
636.23140097533042
 11
729.46031080882108
 21
630.63140097533096
  0
LINE
  8
_0-0_計極細
  6
CONTINUOUS
 62
    2
 10
716.46031080882096
 20
653.23140097533144
 11
716.46031080882096
 21
647.63140097533096
  0
LINE
  8
_0-0_計極細
  6
CONTINUOUS
 62
    2
 10
729.46031080882108
 20
653.23140097533144
 11
729.46031080882108
 21
647.63140097533096
  0
LINE
  8
_0-0_計極細
  6
CONTINUOUS
 62
    2
 10
716.46031080882096
 20
670.23140097533133
 11
716.46031080882096
 21
664.63140097533187
  0
LINE
  8
_0-0_計極細
  6
CONTINUOUS
 62
    2
 10
729.46031080882108
 20
670.23140097533133
 11
729.46031080882108
 21
664.63140097533187
  0
LINE
  8
_0-0_計極細
  6
CONTINUOUS
 62
    2
 10
716.46031080882096
 20
755.0314009753306
 11
716.46031080882096
 21
749.63140097533096
  0
LINE
  8
_0-0_計極細
  6
CONTINUOUS
 62
    2
 10
729.46031080882108
 20
755.0314009753306
 11
729.46031080882108
 21
749.63140097533096
  0
LINE
  8
_0-0_計極細
  6
CONTINUOUS
 62
    2
 10
716.46031080882096
 20
477.83140097533169
 11
716.46031080882096
 21
483.23140097533133
  0
LINE
  8
_0-0_計極細
  6
CONTINUOUS
 62
    2
 10
729.46031080882108
 20
477.83140097533169
 11
729.46031080882108
 21
483.23140097533133
  0
LINE
  8
_0-0_計極細
  6
CENTER1
 62
    2
 10
722.96031080882108
 20
775.18212039979289
 11
722.96031080882108
 21
458.67357723431951
  0
LINE
  8
_0-0_計極細
  6
CONTINUOUS
 62
    2
 10
716.46031080882096
 20
687.23140097533133
 11
716.46031080882096
 21
681.63140097533096
  0
LINE
  8
_0-0_計極細
  6
CONTINUOUS
 62
    2
 10
729.46031080882108
 20
687.23140097533133
 11
729.46031080882108
 21
681.63140097533096
  0
LINE
  8
_0-0_計極細
  6
CONTINUOUS
 62
    2
 10
716.46031080882096
 20
704.23140097532951
 11
716.46031080882096
 21
698.63140097533005
  0
LINE
  8
_0-0_計極細
  6
CONTINUOUS
 62
    2
 10
729.46031080882108
 20
704.23140097532951
 11
729.46031080882108
 21
698.63140097533005
  0
LINE
  8
_0-0_計極細
  6
CONTINUOUS
 62
    2
 10
716.46031080882096
 20
721.23140097532951
 11
716.46031080882096
 21
715.63140097532926
  0
LINE
  8
_0-0_計極細
  6
CONTINUOUS
 62
    2
 10
729.46031080882108
 20
721.23140097532951
 11
729.46031080882108
 21
715.63140097532926
  0
LINE
  8
_0-0_計極細
  6
CONTINUOUS
 62
    2
 10
716.46031080882096
 20
738.23140097532769
 11
716.46031080882096
 21
732.63140097532823
  0
LINE
  8
_0-0_計極細
  6
CONTINUOUS
 62
    2
 10
729.46031080882108
 20
738.23140097532769
 11
729.46031080882108
 21
732.63140097532823
  0
LINE
  8
_0-0_計極細
  6
CONTINUOUS
 62
    2
 10
716.46031080882096
 20
545.63140097533278
 11
716.46031080882096
 21
551.23140097533224
  0
LINE
  8
_0-0_計極細
  6
CONTINUOUS
 62
    2
 10
729.46031080882108
 20
545.63140097533278
 11
729.46031080882108
 21
551.23140097533224
  0
LINE
  8
_0-0_計極細
  6
CONTINUOUS
 62
    2
 10
716.46031080882096
 20
528.63140097533278
 11
716.46031080882096
 21
534.23140097533314
  0
LINE
  8
_0-0_計極細
  6
CONTINUOUS
 62
    2
 10
729.46031080882108
 20
528.63140097533278
 11
729.46031080882108
 21
534.23140097533314
  0
LINE
  8
_0-0_計極細
  6
CONTINUOUS
 62
    2
 10
716.46031080882096
 20
511.63140097533466
 11
716.46031080882096
 21
517.23140097533405
  0
LINE
  8
_0-0_計極細
  6
CONTINUOUS
 62
    2
 10
729.46031080882108
 20
511.63140097533466
 11
729.46031080882108
 21
517.23140097533405
  0
LINE
  8
_0-0_計極細
  6
CONTINUOUS
 62
    2
 10
716.46031080882096
 20
494.6314009753346
 11
716.46031080882096
 21
500.23140097533496
  0
LINE
  8
_0-0_計極細
  6
CONTINUOUS
 62
    2
 10
729.46031080882108
 20
494.6314009753346
 11
729.46031080882108
 21
500.23140097533496
  0
LINE
  8
_0-1_計細線
  6
CONTINUOUS
 62
    3
 10
324.96031080882057
 20
614.08140097533214
 11
377.96031080882051
 21
614.08140097533214
  0
LINE
  8
_0-1_計細線
  6
CONTINUOUS
 62
    3
 10
377.96031080882051
 20
618.78140097533196
 11
324.96031080882057
 21
618.78140097533196
  0
LINE
  8
_0-1_計細線
  6
CONTINUOUS
 62
    3
 10
324.96031080882057
 20
618.78140097533196
 11
324.96031080882057
 21
614.08140097533214
  0
LINE
  8
_0-1_計細線
  6
CONTINUOUS
 62
    3
 10
367.96031080882051
 20
618.78140097533196
 11
367.96031080882051
 21
614.08140097533214
  0
LINE
  8
_0-1_計細線
  6
CONTINUOUS
 62
    3
 10
375.96031080882051
 20
618.78140097533196
 11
375.96031080882051
 21
614.08140097533214
  0
LINE
  8
_0-1_計細線
  6
CONTINUOUS
 62
    3
 10
377.96031080882051
 20
618.78140097533196
 11
377.96031080882051
 21
614.08140097533214
  0
LINE
  8
_0-1_計細線
  6
CONTINUOUS
 62
    3
 10
373.96031080882051
 20
618.78140097533196
 11
373.96031080882051
 21
614.08140097533214
  0
LINE
  8
_0-1_計細線
  6
CONTINUOUS
 62
    3
 10
371.96031080882051
 20
618.78140097533196
 11
371.96031080882051
 21
614.08140097533214
  0
LINE
  8
_0-1_計細線
  6
CONTINUOUS
 62
    3
 10
369.96031080882057
 20
618.78140097533196
 11
369.96031080882057
 21
614.08140097533214
  0
LINE
  8
_0-7_枠細線
  6
CONTINUOUS
 62
    5
 10
435.28396714173073
 20
437.70483445389942
 11
427.78396714173073
 21
452.70483445389942
  0
LINE
  8
_0-7_枠細線
  6
CONTINUOUS
 62
    5
 10
420.28396714173073
 20
437.70483445389942
 11
435.28396714173073
 21
437.70483445389942
  0
LINE
  8
_0-7_枠細線
  6
CONTINUOUS
 62
    5
 10
427.78396714173073
 20
452.70483445389942
 11
420.28396714173073
 21
437.70483445389942
  0
TEXT
  8
_0-7_枠細線
 62
    5
 10
422.64911840987878
 20
437.15715056371806
 40
12.5
 41
0.8
 50
0
  1
６
  0
LINE
  8
_0-a_極細3
  6
CENTER1
 62
    7
 10
493.0754906479404
 20
195.1986906000586
 11
493.0754906479404
 21
266.98202393339875
  0
LINE
  8
_0-a_極細3
  6
CONTINUOUS
 62
    7
 10
168.07549064793989
 20
199.71785341884171
 11
168.07549064793989
 21
131.38452008550871
  0
LINE
  8
_0-a_極細3
  6
CONTINUOUS
 62
    7
 10
251.40882398127337
 20
131.38452008550871
 11
168.07549064793989
 21
131.38452008550871
  0
LINE
  8
_0-a_極細3
  6
CONTINUOUS
 62
    7
 10
168.07549064793989
 20
199.71785341884171
 11
137.23107683615879
 21
199.71785341884171
  0
LINE
  8
_0-a_極細3
  6
CONTINUOUS
 62
    7
 10
251.40882398127337
 20
131.38452008550871
 11
251.40882398127337
 21
105.14291979072937
  0
LINE
  8
_0-a_極細3
  6
CONTINUOUS
 62
    7
 10
213.9868494162836
 20
105.1429199071665
 11
240.22844959462623
 21
131.38452008550871
  0
LINE
  8
_0-a_極細3
  6
CONTINUOUS
 62
    7
 10
143.2761715176423
 20
105.14292012717966
 11
169.51777147597141
 21
131.38452008550871
  0
LINE
  8
_0-a_極細3
  6
CONTINUOUS
 62
    7
 10
137.23107683615879
 20
169.80850356435099
 11
167.14042669064995
 21
199.71785341884171
  0
LINE
  8
_0-a_極細3
  6
CONTINUOUS
 62
    7
 10
206.91578162641946
 20
105.14291992916768
 11
233.1573817827605
 21
131.38452008550871
  0
LINE
  8
_0-a_極細3
  6
CONTINUOUS
 62
    7
 10
137.23107683615879
 20
106.1688932575619
 11
168.07549064793989
 21
137.013307069343
  0
LINE
  8
_0-a_極細3
  6
CONTINUOUS
 62
    7
 10
137.23107683615879
 20
176.87957137621629
 11
160.06935887878427
 21
199.71785341884171
  0
LINE
  8
_0-a_極細3
  6
CONTINUOUS
 62
    7
 10
199.84471383655574
 20
105.14291995116878
 11
226.08631397089516
 21
131.38452008550871
  0
LINE
  8
_0-a_極細3
  6
CONTINUOUS
 62
    7
 10
137.23107683615879
 20
113.23996106942673
 11
168.07549064793989
 21
144.0843748812083
  0
LINE
  8
_0-a_極細3
  6
CONTINUOUS
 62
    7
 10
137.23107683615879
 20
183.95063918808162
 11
152.99829106691888
 21
199.71785341884171
  0
CIRCLE
  8
_0-a_極細3
  6
CONTINUOUS
 62
    7
 10
155.12696467932599
 20
214.92126383550183
 40
0.5530864197530718
  0
CIRCLE
  8
_0-a_極細3
  6
CONTINUOUS
 62
    7
 10
144.79610048179552
 20
204.96570827994651
 40
0.5530864197530718
  0
CIRCLE
  8
_0-a_極細3
  6
CONTINUOUS
 62
    7
 10
155.40350788920273
 20
206.03237494661315
 40
0.5530864197530718
  0
CIRCLE
  8
_0-a_極細3
  6
CONTINUOUS
 62
    7
 10
168.02573011142499
 20
207.98793050216887
 40
0.5530864197530718
  0
CIRCLE
  8
_0-a_極細3
  6
CONTINUOUS
 62
    7
 10
196.47017455586891
 20
219.72126383550153
 40
0.5530864197530718
  0
CIRCLE
  8
_0-a_極細3
  6
CONTINUOUS
 62
    7
 10
221.35906344475757
 20
229.67681939105731
 40
0.5530864197530718
  0
CIRCLE
  8
_0-a_極細3
  6
CONTINUOUS
 62
    7
 10
227.04795233364649
 20
213.49904161327984
 40
0.5530864197530718
  0
CIRCLE
  8
_0-a_極細3
  6
CONTINUOUS
 62
    7
 10
202.15906344475775
 20
212.96570827994606
 40
0.5530864197530718
  0
CIRCLE
  8
_0-a_極細3
  6
CONTINUOUS
 62
    7
 10
190.42573011142466
 20
227.89904161327945
 40
0.5530864197530718
  0
CIRCLE
  8
_0-a_極細3
  6
CONTINUOUS
 62
    7
 10
174.97017455586933
 20
200.73237494661299
 40
0.5530864197530718
  0
CIRCLE
  8
_0-a_極細3
  6
CONTINUOUS
 62
    7
 10
195.41461900031322
 20
199.48793050216892
 40
0.5530864197530718
  0
CIRCLE
  8
_0-a_極細3
  6
CONTINUOUS
 62
    7
 10
220.48128566697983
 20
195.75459716883529
 40
0.5530864197530718
  0
CIRCLE
  8
_0-a_極細3
  6
CONTINUOUS
 62
    7
 10
207.85906344475762
 20
190.06570827994642
 40
0.5530864197530718
  0
CIRCLE
  8
_0-a_極細3
  6
CONTINUOUS
 62
    7
 10
193.1035078892026
 20
176.55459716883547
 40
0.5530864197530718
  0
CIRCLE
  8
_0-a_極細3
  6
CONTINUOUS
 62
    7
 10
220.48128566697983
 20
183.84348605772431
 40
0.5530864197530718
  0
CIRCLE
  8
_0-a_極細3
  6
CONTINUOUS
 62
    7
 10
179.37017455586897
 20
156.73237494661336
 40
0.5530864197530718
  0
CIRCLE
  8
_0-a_極細3
  6
CONTINUOUS
 62
    7
 10
173.6812856669801
 20
138.77681939105813
 40
0.5530864197530718
  0
CIRCLE
  8
_0-a_極細3
  6
CONTINUOUS
 62
    7
 10
182.39239677809138
 20
145.5323749466136
 40
0.5530864197530718
  0
CIRCLE
  8
_0-a_極細3
  6
CONTINUOUS
 62
    7
 10
188.6146190003135
 20
136.99904161328027
 40
0.5530864197530718
  0
CIRCLE
  8
_0-a_極細3
  6
CONTINUOUS
 62
    7
 10
227.91461900031322
 20
154.88793050216941
 40
0.5530864197530718
  0
CIRCLE
  8
_0-a_極細3
  6
CONTINUOUS
 62
    7
 10
216.71461900031346
 20
149.37681939105801
 40
0.5530864197530718
  0
CIRCLE
  8
_0-a_極細3
  6
CONTINUOUS
 62
    7
 10
222.93684122253558
 20
146.88793050216944
 40
0.5530864197530718
  0
CIRCLE
  8
_0-a_極細3
  6
CONTINUOUS
 62
    7
 10
219.38128566697998
 20
137.64348605772489
 40
0.5530864197530718
  0
CIRCLE
  8
_0-a_極細3
  6
CONTINUOUS
 62
    7
 10
239.29239677809093
 20
138.71015272439152
 40
0.5530864197530718
  0
CIRCLE
  8
_0-a_極細3
  6
CONTINUOUS
 62
    7
 10
252.27017455586861
 20
141.91015272439131
 40
0.5530864197530718
  0
CIRCLE
  8
_0-a_極細3
  6
CONTINUOUS
 62
    7
 10
265.95906344475748
 20
126.97681939105792
 40
0.5530864197530718
  0
CIRCLE
  8
_0-a_極細3
  6
CONTINUOUS
 62
    7
 10
259.02573011142408
 20
112.04348605772495
 40
0.5530864197530718
  0
CIRCLE
  8
_0-a_極細3
  6
CONTINUOUS
 62
    7
 10
242.35906344475757
 20
155.65830087253948
 40
0.5530864197530718
  0
CIRCLE
  8
_0-a_極細3
  6
CONTINUOUS
 62
    7
 10
257.1146190003131
 20
189.7916342058727
 40
0.5530864197530718
  0
CIRCLE
  8
_0-a_極細3
  6
CONTINUOUS
 62
    7
 10
272.2257301114239
 20
179.83607865031701
 40
0.5530864197530718
  0
CIRCLE
  8
_0-a_極細3
  6
CONTINUOUS
 62
    7
 10
272.7590634447572
 20
161.88052309476163
 40
0.5530864197530718
  0
CIRCLE
  8
_0-a_極細3
  6
CONTINUOUS
 62
    7
 10
237.51461900031316
 20
191.61385642809478
 40
0.5530864197530718
  0
CIRCLE
  8
_0-a_極細3
  6
CONTINUOUS
 62
    7
 10
217.22573011142435
 20
213.59780704537869
 40
1.825531472681392
  0
CIRCLE
  8
_0-a_極細3
  6
CONTINUOUS
 62
    7
 10
165.46361040998931
 20
220.52742132007666
 40
1.825531472681392
  0
CIRCLE
  8
_0-a_極細3
  6
CONTINUOUS
 62
    7
 10
214.40350788920227
 20
180.66447371204532
 40
1.825531472681392
  0
CIRCLE
  8
_0-a_極細3
  6
CONTINUOUS
 62
    7
 10
192.00350788920218
 20
190.79780704537853
 40
1.825531472681392
  0
CIRCLE
  8
_0-a_極細3
  6
CONTINUOUS
 62
    7
 10
172.40350788920225
 20
152.79780704537941
 40
1.825531472681392
  0
CIRCLE
  8
_0-a_極細3
  6
CONTINUOUS
 62
    7
 10
225.60350788920161
 20
139.9978070453792
 40
1.825531472681392
  0
CIRCLE
  8
_0-a_極細3
  6
CONTINUOUS
 62
    7
 10
261.58128566697928
 20
136.39780704537927
 40
1.825531472681392
  0
CIRCLE
  8
_0-a_極細3
  6
CONTINUOUS
 62
    7
 10
266.38128566697901
 20
117.73114037871281
 40
1.825531472681392
  0
LINE
  8
_0-a_極細3
  6
CONTINUOUS
 62
    7
 10
226.40882398127337
 20
253.05118675217525
 11
226.40882398127337
 21
241.38452008550871
  0
LINE
  8
_0-a_極細3
  6
CONTINUOUS
 62
    7
 10
226.40882398127337
 20
253.05118675217525
 11
137.23107683615879
 21
253.05118675217525
  0
LINE
  8
_0-a_極細3
  6
CONTINUOUS
 62
    7
 10
234.74215731460689
 20
241.38452008550871
 11
137.23107683615879
 21
241.38452008550871
  0
LINE
  8
_0-a_極細3
  6
CONTINUOUS
 62
    7
 10
234.74215731460689
 20
253.05118675217525
 11
226.40882398127337
 21
253.05118675217525
  0
LINE
  8
_0-a_極細3
  6
CONTINUOUS
 62
    7
 10
234.74215731460689
 20
252.21785341884174
 11
234.74215731460689
 21
253.05118675217525
  0
LINE
  8
_0-a_極細3
  6
CONTINUOUS
 62
    7
 10
234.54406705824724
 20
241.38452008550871
 11
234.74215731460646
 21
241.58261034186785
  0
LINE
  8
_0-a_極細3
  6
CONTINUOUS
 62
    7
 10
230.30142637112817
 20
241.38452008550871
 11
234.74215731460689
 21
245.82525102898697
  0
LINE
  8
_0-a_極細3
  6
CONTINUOUS
 62
    7
 10
226.40882398127337
 20
241.73455838277303
 11
234.74215731460689
 21
250.06789171610649
  0
LINE
  8
_0-a_極細3
  6
CONTINUOUS
 62
    7
 10
226.40882398127337
 20
245.97719906989212
 11
233.48281166355605
 21
253.05118675217525
  0
LINE
  8
_0-a_極細3
  6
CONTINUOUS
 62
    7
 10
226.40882398127337
 20
250.21983975701164
 11
229.24017097643699
 21
253.05118675217525
  0
LINE
  8
_0-a_極細3
  6
CONTINUOUS
 62
    7
 10
234.74215731460689
 20
250.77021987991682
 11
232.46119044234845
 21
253.05118675217525
  0
LINE
  8
_0-a_極細3
  6
CONTINUOUS
 62
    7
 10
234.74215731460689
 20
246.52757919279725
 11
228.21854975522888
 21
253.05118675217525
  0
LINE
  8
_0-a_極細3
  6
CONTINUOUS
 62
    7
 10
226.40882398127337
 20
250.61827183901164
 11
234.74215731460689
 21
242.28493850567816
  0
LINE
  8
_0-a_極細3
  6
CONTINUOUS
 62
    7
 10
226.40882398127337
 20
246.37563115189209
 11
231.39993504765675
 21
241.38452008550871
  0
LINE
  8
_0-a_極細3
  6
CONTINUOUS
 62
    7
 10
226.40882398127337
 20
242.13299046477303
 11
227.15729436053763
 21
241.38452008550871
  0
LINE
  8
_0-a_極細3
  6
CONTINUOUS
 62
    7
 10
217.57350430364269
 20
241.38452007938145
 11
226.40882398127337
 21
250.21983975701164
  0
LINE
  8
_0-a_極細3
  6
CONTINUOUS
 62
    7
 10
196.3603008533353
 20
241.38452006466991
 11
208.02696754084059
 21
253.05118675217525
  0
LINE
  8
_0-a_極細3
  6
CONTINUOUS
 62
    7
 10
175.14709740302735
 20
241.38452004995841
 11
186.81376410524379
 21
253.05118675217525
  0
LINE
  8
_0-a_極細3
  6
CONTINUOUS
 62
    7
 10
153.93389395271947
 20
241.38452003524733
 11
165.60056066964739
 21
253.05118675217525
  0
LINE
  8
_0-a_極細3
  6
CONTINUOUS
 62
    7
 10
137.23107683615879
 20
245.89490635428251
 11
144.38735723405102
 21
253.05118675217525
  0
LINE
  8
_0-a_極細3
  6
DASHED2
 62
    7
 10
206.966902578489
 20
241.38452007202545
 11
218.63356925863883
 21
253.05118675217571
  0
LINE
  8
_0-a_極細3
  6
DASHED2
 62
    7
 10
185.7536991281811
 20
241.38452005731438
 11
197.42036582304237
 21
253.05118675217525
  0
LINE
  8
_0-a_極細3
  6
DASHED2
 62
    7
 10
164.54049567787365
 20
241.3845200426033
 11
176.20716238744563
 21
253.05118675217525
  0
LINE
  8
_0-a_極細3
  6
DASHED2
 62
    7
 10
143.32729222756575
 20
241.3845200278918
 11
154.99395895184918
 21
253.05118675217525
  0
CIRCLE
  8
_0-a_極細3
  6
CONTINUOUS
 62
    7
 10
144.79610048179552
 20
234.58546136636619
 40
0.5530864197530718
  0
CIRCLE
  8
_0-a_極細3
  6
CONTINUOUS
 62
    7
 10
159.84795233364707
 20
234.03237494661269
 40
0.5530864197530718
  0
CIRCLE
  8
_0-a_極細3
  6
CONTINUOUS
 62
    7
 10
205.1812856669801
 20
228.07681939105737
 40
0.5530864197530718
  0
CIRCLE
  8
_0-a_極細3
  6
CONTINUOUS
 62
    7
 10
204.42573011142463
 20
232.39780704537839
 40
1.825531472681392
  0
CIRCLE
  8
_0-a_極細3
  6
CONTINUOUS
 62
    7
 10
145.26653086890997
 20
221.42002926760074
 40
1.825531472681392
  0
LINE
  8
_0-a_極細3
  6
CONTINUOUS
 62
    7
 10
283.90882398127337
 20
206.38452008550871
 11
284.74215731460686
 21
206.38452008550871
  0
LINE
  8
_0-a_極細3
  6
CONTINUOUS
 62
    7
 10
284.74215731460686
 20
206.38452008550871
 11
284.74215731460686
 21
105.14291979072937
  0
ARC
  8
_0-b_細線3
  6
CONTINUOUS
 62
    7
 10
239.74215731460689
 20
211.38452008550871
 40
5
 50
179.99999999999983
 51
269.99999999999977
  0
LINE
  8
_0-b_細線3
  6
CONTINUOUS
 62
    7
 10
234.74215731460689
 20
211.38452008550871
 11
234.74215731460689
 21
252.21785341884174
  0
LINE
  8
_0-b_細線3
  6
CONTINUOUS
 62
    7
 10
239.74215731460689
 20
206.38452008550871
 11
283.90882398127337
 21
206.38452008550871
  0
LINE
  8
_0-b_細線3
  6
CONTINUOUS
 62
    7
 10
284.74215731460686
 20
207.21785341884174
 11
283.90882398127337
 21
206.38452008550871
  0
LINE
  8
_0-b_細線3
  6
CONTINUOUS
 62
    7
 10
284.74215731460686
 20
210.55118675217525
 11
284.74215731460686
 21
207.21785341884174
  0
LINE
  8
_0-b_細線3
  6
CONTINUOUS
 62
    7
 10
283.90882398127337
 20
211.38452008550871
 11
284.74215731460686
 21
210.55118675217525
  0
LINE
  8
_0-b_細線3
  6
CONTINUOUS
 62
    7
 10
239.74215731460689
 20
211.38452008550871
 11
283.90882398127337
 21
211.38452008550871
  0
LINE
  8
_0-b_細線3
  6
CONTINUOUS
 62
    7
 10
235.57549064793989
 20
253.05118675217525
 11
234.74215731460689
 21
252.21785341884174
  0
LINE
  8
_0-b_細線3
  6
CONTINUOUS
 62
    7
 10
238.90882398127337
 20
253.05118675217525
 11
235.57549064793989
 21
253.05118675217525
  0
LINE
  8
_0-b_細線3
  6
CONTINUOUS
 62
    7
 10
239.74215731460689
 20
252.21785341884174
 11
238.90882398127337
 21
253.05118675217525
  0
LINE
  8
_0-b_細線3
  6
CONTINUOUS
 62
    7
 10
239.74215731460689
 20
211.38452008550871
 11
239.74215731460689
 21
252.21785341884174
  0
CIRCLE
  8
_0-a_極細3
  6
CONTINUOUS
 62
    7
 10
277.85472316697792
 20
190.3978070453789
 40
1.825531472681392
  0
CIRCLE
  8
_0-a_極細3
  6
CONTINUOUS
 62
    7
 10
276.86276714846076
 20
135.68793050216911
 40
0.5530864197530718
  0
CIRCLE
  8
_0-a_極細3
  6
CONTINUOUS
 62
    7
 10
278.1961004817947
 20
113.03185946899909
 40
0.5530864197530718
  0
CIRCLE
  8
_0-a_極細3
  6
CONTINUOUS
 62
    7
 10
265.82573011141972
 20
171.28669593426849
 40
1.825531472681392
  0
LINE
  8
_0-a_極細3
  6
CONTINUOUS
 62
    7
 10
818.07549064794057
 20
199.71785341884171
 11
818.07549064794057
 21
131.38452008550871
  0
LINE
  8
_0-a_極細3
  6
CONTINUOUS
 62
    7
 10
734.7421573146072
 20
131.38452008550871
 11
818.07549064794057
 21
131.38452008550871
  0
LINE
  8
_0-a_極細3
  6
CONTINUOUS
 62
    7
 10
818.07549064794057
 20
199.71785341884171
 11
848.91990445972169
 21
199.71785341884171
  0
LINE
  8
_0-a_極細3
  6
CONTINUOUS
 62
    7
 10
734.7421573146072
 20
131.38452008550871
 11
734.7421573146072
 21
105.14291979072937
  0
LINE
  8
_0-a_極細3
  6
CONTINUOUS
 62
    7
 10
826.36549306253357
 20
105.14291979072937
 11
848.91990450126241
 21
127.6973312294588
  0
LINE
  8
_0-a_極細3
  6
CONTINUOUS
 62
    7
 10
755.6548149438787
 20
105.14291979072937
 11
781.8964152386576
 21
131.38452008550871
  0
LINE
  8
_0-a_極細3
  6
CONTINUOUS
 62
    7
 10
818.07549064794057
 20
167.56359549479134
 11
848.9199044604776
 21
198.40800930732826
  0
LINE
  8
_0-a_極細3
  6
CONTINUOUS
 62
    7
 10
819.2944252506677
 20
105.14291979072937
 11
848.91990449718378
 21
134.76839903724544
  0
LINE
  8
_0-a_極細3
  6
CONTINUOUS
 62
    7
 10
748.58374713201283
 20
105.14291979072937
 11
774.82534742679218
 21
131.38452008550871
  0
LINE
  8
_0-a_極細3
  6
CONTINUOUS
 62
    7
 10
818.07549064794057
 20
174.6346633066571
 11
843.15868058057504
 21
199.71785323929154
  0
LINE
  8
_0-a_極細3
  6
CONTINUOUS
 62
    7
 10
812.22335743880251
 20
105.14291979072937
 11
848.91990449310526
 21
141.83946684503212
  0
LINE
  8
_0-a_極細3
  6
CONTINUOUS
 62
    7
 10
741.51267932014764
 20
105.14291979072937
 11
767.75427961492642
 21
131.38452008550871
  0
LINE
  8
_0-a_極細3
  6
CONTINUOUS
 62
    7
 10
818.07549064794057
 20
181.70573111852192
 11
836.08761281932584
 21
199.71785328990768
  0
CIRCLE
  8
_0-a_極細3
  6
CONTINUOUS
 62
    7
 10
721.14795233364475
 20
190.23885642809475
 40
0.5530864197530718
  0
CIRCLE
  8
_0-a_極細3
  6
CONTINUOUS
 62
    7
 10
731.10350788920005
 20
195.03885642809493
 40
0.5530864197530718
  0
CIRCLE
  8
_0-a_極細3
  6
CONTINUOUS
 62
    7
 10
727.01461900031165
 20
170.06107865031686
 40
0.5530864197530718
  0
CIRCLE
  8
_0-a_極細3
  6
CONTINUOUS
 62
    7
 10
744.54795233364439
 20
153.03885642809496
 40
0.5530864197530718
  0
CIRCLE
  8
_0-a_極細3
  6
CONTINUOUS
 62
    7
 10
726.71461900031136
 20
129.7388564280952
 40
0.5530864197530718
  0
CIRCLE
  8
_0-a_極細3
  6
CONTINUOUS
 62
    7
 10
717.38128566697833
 20
111.87218976142887
 40
0.5530864197530718
  0
CIRCLE
  8
_0-a_極細3
  6
CONTINUOUS
 62
    7
 10
728.84795233364457
 20
141.73885642809523
 40
0.5530864197530718
  0
CIRCLE
  8
_0-a_極細3
  6
CONTINUOUS
 62
    7
 10
742.71461900031102
 20
136.93885642809548
 40
0.5530864197530718
  0
CIRCLE
  8
_0-a_極細3
  6
CONTINUOUS
 62
    7
 10
769.64795233364384
 20
137.2055230947619
 40
0.5530864197530718
  0
CIRCLE
  8
_0-a_極細3
  6
CONTINUOUS
 62
    7
 10
757.64795233364441
 20
146.27218976142856
 40
0.5530864197530718
  0
CIRCLE
  8
_0-a_極細3
  6
CONTINUOUS
 62
    7
 10
768.84795233364412
 20
151.87218976142844
 40
0.5530864197530718
  0
CIRCLE
  8
_0-a_極細3
  6
CONTINUOUS
 62
    7
 10
759.35906344475507
 20
225.89441198364992
 40
0.5530864197530718
  0
CIRCLE
  8
_0-a_極細3
  6
CONTINUOUS
 62
    7
 10
756.87017455586658
 20
206.1610786503168
 40
0.5530864197530718
  0
CIRCLE
  8
_0-a_極細3
  6
CONTINUOUS
 62
    7
 10
777.40350788919943
 20
205.44996753920557
 40
0.5530864197530718
  0
CIRCLE
  8
_0-a_極細3
  6
CONTINUOUS
 62
    7
 10
765.80350788919941
 20
191.44996753920552
 40
0.5530864197530718
  0
CIRCLE
  8
_0-a_極細3
  6
CONTINUOUS
 62
    7
 10
805.00350788919889
 20
138.24996753920664
 40
0.5530864197530718
  0
CIRCLE
  8
_0-a_極細3
  6
CONTINUOUS
 62
    7
 10
812.20350788919916
 20
152.24996753920621
 40
0.5530864197530718
  0
CIRCLE
  8
_0-a_極細3
  6
CONTINUOUS
 62
    7
 10
810.60350788919914
 20
173.04996753920591
 40
0.5530864197530718
  0
CIRCLE
  8
_0-a_極細3
  6
CONTINUOUS
 62
    7
 10
792.60350788919925
 20
194.24996753920573
 40
0.5530864197530718
  0
CIRCLE
  8
_0-a_極細3
  6
CONTINUOUS
 62
    7
 10
809.40350788919886
 20
213.84996753920518
 40
0.5530864197530718
  0
CIRCLE
  8
_0-a_極細3
  6
CONTINUOUS
 62
    7
 10
806.60350788919914
 20
187.04996753920597
 40
0.5530864197530718
  0
CIRCLE
  8
_0-a_極細3
  6
CONTINUOUS
 62
    7
 10
836.20350788919859
 20
208.24996753920573
 40
0.5530864197530718
  0
CIRCLE
  8
_0-a_極細3
  6
CONTINUOUS
 62
    7
 10
831.40350788919841
 20
222.02002926760065
 40
1.825531472681392
  0
CIRCLE
  8
_0-a_極細3
  6
CONTINUOUS
 62
    7
 10
815.75906344475425
 20
206.55336260093395
 40
1.825531472681392
  0
CIRCLE
  8
_0-a_極細3
  6
CONTINUOUS
 62
    7
 10
760.33684122253271
 20
213.13114037871151
 40
1.825531472681392
  0
CIRCLE
  8
_0-a_極細3
  6
CONTINUOUS
 62
    7
 10
792.33684122253237
 20
181.13114037871242
 40
1.825531472681392
  0
CIRCLE
  8
_0-a_極細3
  6
CONTINUOUS
 62
    7
 10
721.94239677808946
 20
136.58114037871272
 40
1.825531472681392
  0
CIRCLE
  8
_0-a_極細3
  6
CONTINUOUS
 62
    7
 10
732.16461900031118
 20
166.44780704537908
 40
1.825531472681392
  0
CIRCLE
  8
_0-a_極細3
  6
CONTINUOUS
 62
    7
 10
767.36461900031054
 20
144.04780704537941
 40
1.825531472681392
  0
CIRCLE
  8
_0-a_極細3
  6
CONTINUOUS
 62
    7
 10
813.62981163559425
 20
133.86075465340966
 40
1.825531472681392
  0
CIRCLE
  8
_0-a_極細3
  6
CONTINUOUS
 62
    7
 10
762.96461900031045
 20
187.24780704537878
 40
1.825531472681392
  0
CIRCLE
  8
_0-a_極細3
  6
CONTINUOUS
 62
    7
 10
715.49856961759542
 20
181.8246016383425
 40
0.5530864197530718
  0
CIRCLE
  8
_0-a_極細3
  6
CONTINUOUS
 62
    7
 10
715.69856961759615
 20
157.86904608278675
 40
0.5530864197530718
  0
LINE
  8
_0-a_極細3
  6
CONTINUOUS
 62
    7
 10
759.7421573146072
 20
253.05118675217525
 11
759.7421573146072
 21
241.38452008550871
  0
LINE
  8
_0-a_極細3
  6
CONTINUOUS
 62
    7
 10
759.7421573146072
 20
253.05118675217525
 11
848.91990445972169
 21
253.05118675217525
  0
LINE
  8
_0-a_極細3
  6
CONTINUOUS
 62
    7
 10
751.4088239812736
 20
241.38452008550871
 11
848.91990445972169
 21
241.38452008550871
  0
LINE
  8
_0-a_極細3
  6
CONTINUOUS
 62
    7
 10
751.4088239812736
 20
253.05118675217525
 11
759.7421573146072
 21
253.05118675217525
  0
LINE
  8
_0-a_極細3
  6
CONTINUOUS
 62
    7
 10
751.4088239812736
 20
252.21785341884174
 11
751.4088239812736
 21
253.05118675217525
  0
LINE
  8
_0-a_極細3
  6
CONTINUOUS
 62
    7
 10
759.74215731460663
 20
245.05360636623323
 11
756.07307103388212
 21
241.38452008550871
  0
LINE
  8
_0-a_極細3
  6
CONTINUOUS
 62
    7
 10
759.74215731460663
 20
249.29624705335232
 11
751.83043034676302
 21
241.38452008550871
  0
LINE
  8
_0-a_極細3
  6
CONTINUOUS
 62
    7
 10
751.4088239812736
 20
245.20555440713838
 11
759.25445632631056
 21
253.05118675217525
  0
LINE
  8
_0-a_極細3
  6
CONTINUOUS
 62
    7
 10
751.4088239812736
 20
249.44819509425795
 11
755.0118156391909
 21
253.05118675217525
  0
LINE
  8
_0-a_極細3
  6
CONTINUOUS
 62
    7
 10
759.7421573146072
 20
251.54186454267006
 11
758.23283510510146
 21
253.05118675217525
  0
LINE
  8
_0-a_極細3
  6
CONTINUOUS
 62
    7
 10
759.7421573146072
 20
247.29922385555054
 11
753.99019441798248
 21
253.05118675217525
  0
LINE
  8
_0-a_極細3
  6
CONTINUOUS
 62
    7
 10
759.7421573146072
 20
243.05658316843096
 11
751.4088239812736
 21
251.38991650176447
  0
LINE
  8
_0-a_極細3
  6
CONTINUOUS
 62
    7
 10
757.17157971041036
 20
241.38452008550871
 11
751.4088239812736
 21
247.14727581464535
  0
LINE
  8
_0-a_極細3
  6
CONTINUOUS
 62
    7
 10
752.92893902329115
 20
241.38452008550871
 11
751.4088239812736
 21
242.90463512752581
  0
LINE
  8
_0-a_極細3
  6
CONTINUOUS
 62
    7
 10
828.19796271491043
 20
241.38452008550871
 11
839.86462875478765
 21
253.05118612538649
  0
LINE
  8
_0-a_極細3
  6
CONTINUOUS
 62
    7
 10
806.98475927931349
 20
241.38452008550871
 11
818.65142548513995
 21
253.05118629133474
  0
LINE
  8
_0-a_極細3
  6
CONTINUOUS
 62
    7
 10
785.77155584371724
 20
241.38452008550871
 11
797.43822221549181
 21
253.05118645728297
  0
LINE
  8
_0-a_極細3
  6
CONTINUOUS
 62
    7
 10
764.55835240812075
 20
241.38452008550871
 11
776.22501894584411
 21
253.0511866232321
  0
LINE
  8
_0-a_極細3
  6
DASHED2
 62
    7
 10
838.80456443270862
 20
241.38452008550871
 11
848.91990445972169
 21
251.49986011252193
  0
LINE
  8
_0-a_極細3
  6
DASHED2
 62
    7
 10
817.59136099711168
 20
241.38452008550871
 11
829.25802711996414
 21
253.0511862083606
  0
LINE
  8
_0-a_極細3
  6
DASHED2
 62
    7
 10
796.37815756151542
 20
241.38452008550871
 11
808.04482385031588
 21
253.05118637430883
  0
LINE
  8
_0-a_極細3
  6
DASHED2
 62
    7
 10
775.16495412591894
 20
241.38452008550871
 11
786.83162058066785
 21
253.0511865402575
  0
LINE
  8
_0-a_極細3
  6
DASHED2
 62
    7
 10
759.74215731460663
 20
247.1749267097928
 11
765.61841731102004
 21
253.05118670620618
  0
CIRCLE
  8
_0-a_極細3
  6
CONTINUOUS
 62
    7
 10
840.2035078891987
 20
229.98330087253839
 40
0.5530864197530718
  0
CIRCLE
  8
_0-a_極細3
  6
CONTINUOUS
 62
    7
 10
823.40350788919886
 20
229.98330087253839
 40
0.5530864197530718
  0
CIRCLE
  8
_0-a_極細3
  6
CONTINUOUS
 62
    7
 10
796.60350788919914
 20
232.7833008725386
 40
0.5530864197530718
  0
CIRCLE
  8
_0-a_極細3
  6
CONTINUOUS
 62
    7
 10
807.93684122253228
 20
230.86447371204511
 40
1.825531472681392
  0
CIRCLE
  8
_0-a_極細3
  6
CONTINUOUS
 62
    7
 10
792.60350788919925
 20
224.91663420587227
 40
0.5530864197530718
  0
CIRCLE
  8
_0-a_極細3
  6
CONTINUOUS
 62
    7
 10
792.73684122253246
 20
218.59780704537869
 40
1.825531472681392
  0
CIRCLE
  8
_0-a_極細3
  6
CONTINUOUS
 62
    7
 10
771.40350788919932
 20
230.91663420587182
 40
0.5530864197530718
  0
LINE
  8
_0-a_極細3
  6
CONTINUOUS
 62
    7
 10
702.24215731460663
 20
206.38452008550871
 11
701.4088239812736
 21
206.38452008550871
  0
LINE
  8
_0-a_極細3
  6
CONTINUOUS
 62
    7
 10
701.4088239812736
 20
206.38452008550871
 11
701.4088239812736
 21
105.14291979072937
  0
ARC
  8
_0-b_細線3
  6
CONTINUOUS
 62
    7
 10
746.4088239812736
 20
211.38452008550871
 40
5
 50
269.99999999999977
 51
359.99999999999966
  0
LINE
  8
_0-b_細線3
  6
CONTINUOUS
 62
    7
 10
751.4088239812736
 20
211.38452008550871
 11
751.4088239812736
 21
252.21785341884174
  0
LINE
  8
_0-b_細線3
  6
CONTINUOUS
 62
    7
 10
746.4088239812736
 20
206.38452008550871
 11
702.24215731460663
 21
206.38452008550871
  0
LINE
  8
_0-b_細線3
  6
CONTINUOUS
 62
    7
 10
701.4088239812736
 20
207.21785341884174
 11
702.24215731460663
 21
206.38452008550871
  0
LINE
  8
_0-b_細線3
  6
CONTINUOUS
 62
    7
 10
701.4088239812736
 20
210.55118675217525
 11
701.4088239812736
 21
207.21785341884174
  0
LINE
  8
_0-b_細線3
  6
CONTINUOUS
 62
    7
 10
702.24215731460663
 20
211.38452008550871
 11
701.4088239812736
 21
210.55118675217525
  0
LINE
  8
_0-b_細線3
  6
CONTINUOUS
 62
    7
 10
746.4088239812736
 20
211.38452008550871
 11
702.24215731460663
 21
211.38452008550871
  0
LINE
  8
_0-b_細線3
  6
CONTINUOUS
 62
    7
 10
750.57549064794057
 20
253.05118675217525
 11
751.4088239812736
 21
252.21785341884174
  0
LINE
  8
_0-b_細線3
  6
CONTINUOUS
 62
    7
 10
747.2421573146072
 20
253.05118675217525
 11
750.57549064794057
 21
253.05118675217525
  0
LINE
  8
_0-b_細線3
  6
CONTINUOUS
 62
    7
 10
746.4088239812736
 20
252.21785341884174
 11
747.2421573146072
 21
253.05118675217525
  0
LINE
  8
_0-b_細線3
  6
CONTINUOUS
 62
    7
 10
746.4088239812736
 20
211.38452008550871
 11
746.4088239812736
 21
252.21785341884174
  0
CIRCLE
  8
_0-a_極細3
  6
CONTINUOUS
 62
    7
 10
707.39321982335696
 20
166.32774531698374
 40
0.5530864197530718
  0
CIRCLE
  8
_0-a_極細3
  6
CONTINUOUS
 62
    7
 10
708.69980418549676
 20
127.07218976142869
 40
0.5530864197530718
  0
CIRCLE
  8
_0-a_極細3
  6
CONTINUOUS
 62
    7
 10
708.06091529660716
 20
193.02558482315703
 40
1.825531472681392
  0
CIRCLE
  8
_0-a_極細3
  6
CONTINUOUS
 62
    7
 10
711.00906344475516
 20
120.40336260093433
 40
1.825531472681392
  0
ARC
  8
_0-b_細線3
  6
CONTINUOUS
 62
    7
 10
556.07549065158832
 20
249.71785341884174
 40
1.666666666666667
 50
89.999999999999915
 51
179.99999999999983
  0
ARC
  8
_0-b_細線3
  6
CONTINUOUS
 62
    7
 10
556.8554059704677
 20
253.05118675217477
 40
1.666666666666667
 50
269.99999999999977
 51
330.00000000000881
  0
ARC
  8
_0-b_細線3
  6
CONTINUOUS
 62
    7
 10
559.74215731641561
 20
251.38452008550871
 40
1.666666666666667
 50
89.999999999999915
 51
150.00000000000523
  0
LINE
  8
_0-b_細線3
  6
CONTINUOUS
 62
    7
 10
556.07549065158832
 20
251.38452008550871
 11
556.8554059704677
 21
251.38452008550871
  0
ARC
  8
_0-b_細線3
  6
CONTINUOUS
 62
    7
 10
571.74215731457662
 20
249.71785341884174
 40
1.666666666666667
 50
0
 51
89.999999999999915
  0
ARC
  8
_0-b_細線3
  6
CONTINUOUS
 62
    7
 10
570.9622419956977
 20
253.05118675217477
 40
1.666666666666667
 50
209.99999999999051
 51
269.99999999999977
  0
ARC
  8
_0-b_細線3
  6
CONTINUOUS
 62
    7
 10
568.07549064974955
 20
251.38452008550871
 40
1.666666666666667
 50
29.999999999990862
 51
89.999999999999901
  0
LINE
  8
_0-b_細線3
  6
CONTINUOUS
 62
    7
 10
571.74215731457662
 20
251.38452008550871
 11
570.9622419956977
 21
251.38452008550871
  0
ARC
  8
_0-b_細線3
  6
CONTINUOUS
 62
    7
 10
555.24215731825507
 20
247.38452008550871
 40
0.8333333333333334
 50
179.99999999999983
 51
269.99999999999977
  0
LINE
  8
_0-b_細線3
  6
CONTINUOUS
 62
    7
 10
554.40882398492181
 20
249.71785341884174
 11
554.40882398492181
 21
247.38452008550871
  0
ARC
  8
_0-b_細線3
  6
CONTINUOUS
 62
    7
 10
572.57549064790965
 20
247.38452008550871
 40
0.8333333333333334
 50
269.99999999999977
 51
359.99999999999966
  0
LINE
  8
_0-b_細線3
  6
CONTINUOUS
 62
    7
 10
573.40882398124359
 20
249.71785341884174
 11
573.40882398124359
 21
247.38452008550871
  0
ARC
  8
_0-b_細線3
  6
CONTINUOUS
 62
    7
 10
559.40882398492181
 20
244.88452008550871
 40
1.666666666666667
 50
0
 51
89.999999999999915
  0
LINE
  8
_0-b_細線3
  6
CONTINUOUS
 62
    7
 10
559.40882398492181
 20
246.5511867521748
 11
555.24215731825507
 21
246.5511867521748
  0
ARC
  8
_0-b_細線3
  6
CONTINUOUS
 62
    7
 10
568.40882398492158
 20
244.88452008550871
 40
1.666666666666667
 50
89.999999999999915
 51
179.99999999999983
  0
LINE
  8
_0-b_細線3
  6
CONTINUOUS
 62
    7
 10
568.40882398124268
 20
246.5511867521748
 11
572.57549064790965
 21
246.5511867521748
  0
LINE
  8
_0-b_細線3
  6
CONTINUOUS
 62
    7
 10
568.07549064974955
 20
253.05118675217477
 11
559.74215731641561
 21
253.05118675217477
  0
LINE
  8
_0-b_細線3
  6
CONTINUOUS
 62
    7
 10
561.0754906497491
 20
211.38452008550871
 11
561.07549065158832
 21
244.88452008550871
  0
LINE
  8
_0-b_細線3
  6
CONTINUOUS
 62
    7
 10
566.74215731641561
 20
211.38452008550871
 11
566.74215731825552
 21
244.88452008550871
  0
LINE
  8
_0-b_細線3
  6
CONTINUOUS
 62
    7
 10
566.74215731641561
 20
211.38452008550871
 11
561.0754906497491
 21
211.38452008550871
  0
ARC
  8
_0-b_細線3
  6
CONTINUOUS
 62
    7
 10
527.7421573176523
 20
249.71785341884174
 40
1.666666666666667
 50
89.999999999999915
 51
179.99999999999983
  0
ARC
  8
_0-b_細線3
  6
CONTINUOUS
 62
    7
 10
528.52207263653122
 20
253.05118675217477
 40
1.666666666666667
 50
269.99999999999977
 51
330.00000000000881
  0
ARC
  8
_0-b_細線3
  6
CONTINUOUS
 62
    7
 10
531.40882398247936
 20
251.38452008550871
 40
1.666666666666667
 50
89.999999999999915
 51
150.00000000000915
  0
LINE
  8
_0-b_細線3
  6
CONTINUOUS
 62
    7
 10
527.7421573176523
 20
251.38452008550871
 11
528.52207263653122
 21
251.38452008550871
  0
ARC
  8
_0-b_細線3
  6
CONTINUOUS
 62
    7
 10
543.40882398063991
 20
249.71785341884174
 40
1.666666666666667
 50
0
 51
89.999999999999915
  0
ARC
  8
_0-b_細線3
  6
CONTINUOUS
 62
    7
 10
542.62890866176099
 20
253.05118675217477
 40
1.666666666666667
 50
209.99999999998269
 51
269.99999999999977
  0
ARC
  8
_0-b_細線3
  6
CONTINUOUS
 62
    7
 10
539.74215731581285
 20
251.38452008550871
 40
1.666666666666667
 50
29.999999999998682
 51
89.999999999999915
  0
LINE
  8
_0-b_細線3
  6
CONTINUOUS
 62
    7
 10
543.40882398063991
 20
251.38452008550871
 11
542.62890866176099
 21
251.38452008550871
  0
ARC
  8
_0-b_細線3
  6
CONTINUOUS
 62
    7
 10
526.90882398431881
 20
247.38452008550871
 40
0.8333333333333334
 50
179.99999999999983
 51
269.99999999999977
  0
LINE
  8
_0-b_細線3
  6
CONTINUOUS
 62
    7
 10
526.07549065098533
 20
249.71785341884174
 11
526.07549065098533
 21
247.38452008550871
  0
ARC
  8
_0-b_細線3
  6
CONTINUOUS
 62
    7
 10
544.24215731397339
 20
247.38452008550871
 40
0.8333333333333334
 50
269.99999999999977
 51
359.99999999999966
  0
LINE
  8
_0-b_細線3
  6
CONTINUOUS
 62
    7
 10
545.07549064730688
 20
249.71785341884174
 11
545.07549064730688
 21
247.38452008550871
  0
ARC
  8
_0-b_細線3
  6
CONTINUOUS
 62
    7
 10
531.07549065098533
 20
244.88452008550871
 40
1.666666666666667
 50
0
 51
89.999999999999915
  0
LINE
  8
_0-b_細線3
  6
CONTINUOUS
 62
    7
 10
531.07549065098533
 20
246.5511867521748
 11
526.90882398431881
 21
246.5511867521748
  0
ARC
  8
_0-b_細線3
  6
CONTINUOUS
 62
    7
 10
540.07549065098578
 20
244.88452008550871
 40
1.666666666666667
 50
89.999999999999915
 51
179.99999999999983
  0
LINE
  8
_0-b_細線3
  6
CONTINUOUS
 62
    7
 10
540.07549064730688
 20
246.5511867521748
 11
544.24215731397339
 21
246.5511867521748
  0
LINE
  8
_0-b_細線3
  6
CONTINUOUS
 62
    7
 10
539.74215731581285
 20
253.05118675217477
 11
531.40882398247936
 21
253.05118675217477
  0
LINE
  8
_0-b_細線3
  6
CONTINUOUS
 62
    7
 10
532.74215731581285
 20
211.38452008550871
 11
532.7421573176523
 21
244.88452008550871
  0
LINE
  8
_0-b_細線3
  6
CONTINUOUS
 62
    7
 10
538.40882398247936
 20
211.38452008550871
 11
538.40882398431881
 21
244.88452008550871
  0
LINE
  8
_0-b_細線3
  6
CONTINUOUS
 62
    7
 10
538.40882398247936
 20
211.38452008550871
 11
532.74215731581285
 21
211.38452008550871
  0
ARC
  8
_0-b_細線3
  6
CONTINUOUS
 62
    7
 10
499.40882398371582
 20
249.71785341884174
 40
1.666666666666667
 50
89.999999999999915
 51
179.99999999999983
  0
ARC
  8
_0-b_細線3
  6
CONTINUOUS
 62
    7
 10
500.18873930259525
 20
253.05118675217477
 40
1.666666666666667
 50
269.99999999999977
 51
330.00000000000881
  0
ARC
  8
_0-b_細線3
  6
CONTINUOUS
 62
    7
 10
503.07549064854334
 20
251.38452008550871
 40
1.666666666666667
 50
89.999999999999915
 51
150.00000000000915
  0
LINE
  8
_0-b_細線3
  6
CONTINUOUS
 62
    7
 10
499.40882398371582
 20
251.38452008550871
 11
500.18873930259525
 21
251.38452008550871
  0
ARC
  8
_0-b_細線3
  6
CONTINUOUS
 62
    7
 10
515.07549064670388
 20
249.71785341884174
 40
1.666666666666667
 50
0
 51
89.999999999999915
  0
ARC
  8
_0-b_細線3
  6
CONTINUOUS
 62
    7
 10
514.29557532782451
 20
253.05118675217477
 40
1.666666666666667
 50
209.99999999999051
 51
269.99999999999977
  0
ARC
  8
_0-b_細線3
  6
CONTINUOUS
 62
    7
 10
511.40882398187642
 20
251.38452008550871
 40
1.666666666666667
 50
29.999999999990862
 51
89.999999999984354
  0
LINE
  8
_0-b_細線3
  6
CONTINUOUS
 62
    7
 10
515.07549064670388
 20
251.38452008550871
 11
514.29557532782451
 21
251.38452008550871
  0
ARC
  8
_0-b_細線3
  6
CONTINUOUS
 62
    7
 10
498.57549065038233
 20
247.38452008550871
 40
0.8333333333333334
 50
179.99999999999983
 51
269.99999999999977
  0
LINE
  8
_0-b_細線3
  6
CONTINUOUS
 62
    7
 10
497.74215731704936
 20
249.71785341884174
 11
497.74215731704936
 21
247.38452008550871
  0
ARC
  8
_0-b_細線3
  6
CONTINUOUS
 62
    7
 10
515.90882398003737
 20
247.38452008550871
 40
0.8333333333333334
 50
269.99999999999977
 51
359.99999999999966
  0
LINE
  8
_0-b_細線3
  6
CONTINUOUS
 62
    7
 10
516.7421573133704
 20
249.71785341884174
 11
516.7421573133704
 21
247.38452008550871
  0
ARC
  8
_0-b_細線3
  6
CONTINUOUS
 62
    7
 10
502.74215731704936
 20
244.88452008550871
 40
1.666666666666667
 50
0
 51
89.999999999999915
  0
LINE
  8
_0-b_細線3
  6
CONTINUOUS
 62
    7
 10
502.74215731704936
 20
246.5511867521748
 11
498.57549065038233
 21
246.5511867521748
  0
ARC
  8
_0-b_細線3
  6
CONTINUOUS
 62
    7
 10
511.7421573170493
 20
244.88452008550871
 40
1.666666666666667
 50
89.999999999999915
 51
179.99999999999983
  0
LINE
  8
_0-b_細線3
  6
CONTINUOUS
 62
    7
 10
511.7421573133704
 20
246.5511867521748
 11
515.90882398003737
 21
246.5511867521748
  0
LINE
  8
_0-b_細線3
  6
CONTINUOUS
 62
    7
 10
511.40882398187642
 20
253.05118675217477
 11
503.07549064854334
 21
253.05118675217477
  0
LINE
  8
_0-b_細線3
  6
CONTINUOUS
 62
    7
 10
504.40882398187637
 20
211.38452008550871
 11
504.40882398371582
 21
244.88452008550871
  0
LINE
  8
_0-b_細線3
  6
CONTINUOUS
 62
    7
 10
510.07549064854339
 20
211.38452008550871
 11
510.07549065038285
 21
244.88452008550871
  0
LINE
  8
_0-b_細線3
  6
CONTINUOUS
 62
    7
 10
510.07549064854339
 20
211.38452008550871
 11
504.40882398187637
 21
211.38452008550871
  0
ARC
  8
_0-b_細線3
  6
CONTINUOUS
 62
    7
 10
442.74215731584331
 20
249.71785341884174
 40
1.666666666666667
 50
89.999999999999915
 51
179.99999999999983
  0
ARC
  8
_0-b_細線3
  6
CONTINUOUS
 62
    7
 10
443.52207263472275
 20
253.05118675217477
 40
1.666666666666667
 50
269.99999999999977
 51
330.00000000000881
  0
ARC
  8
_0-b_細線3
  6
CONTINUOUS
 62
    7
 10
446.40882398067083
 20
251.38452008550871
 40
1.666666666666667
 50
89.999999999999915
 51
150.00000000000915
  0
LINE
  8
_0-b_細線3
  6
CONTINUOUS
 62
    7
 10
442.74215731584331
 20
251.38452008550871
 11
443.52207263472275
 21
251.38452008550871
  0
ARC
  8
_0-b_細線3
  6
CONTINUOUS
 62
    7
 10
458.40882397883144
 20
249.71785341884174
 40
1.666666666666667
 50
0
 51
89.999999999999915
  0
ARC
  8
_0-b_細線3
  6
CONTINUOUS
 62
    7
 10
457.62890865995246
 20
253.05118675217477
 40
1.666666666666667
 50
209.99999999998269
 51
269.99999999999977
  0
ARC
  8
_0-b_細線3
  6
CONTINUOUS
 62
    7
 10
454.74215731400392
 20
251.38452008550871
 40
1.666666666666667
 50
29.999999999990862
 51
89.999999999984354
  0
LINE
  8
_0-b_細線3
  6
CONTINUOUS
 62
    7
 10
458.40882397883144
 20
251.38452008550871
 11
457.62890865995246
 21
251.38452008550871
  0
ARC
  8
_0-b_細線3
  6
CONTINUOUS
 62
    7
 10
441.90882398250983
 20
247.38452008550871
 40
0.8333333333333334
 50
179.99999999999983
 51
269.99999999999977
  0
LINE
  8
_0-b_細線3
  6
CONTINUOUS
 62
    7
 10
441.07549064917686
 20
249.71785341884174
 11
441.07549064917686
 21
247.38452008550871
  0
ARC
  8
_0-b_細線3
  6
CONTINUOUS
 62
    7
 10
459.24215731216492
 20
247.38452008550871
 40
0.8333333333333334
 50
269.99999999999977
 51
359.99999999999966
  0
LINE
  8
_0-b_細線3
  6
CONTINUOUS
 62
    7
 10
460.07549064549835
 20
249.71785341884174
 11
460.07549064549835
 21
247.38452008550871
  0
ARC
  8
_0-b_細線3
  6
CONTINUOUS
 62
    7
 10
446.07549064917686
 20
244.88452008550871
 40
1.666666666666667
 50
0
 51
89.999999999999915
  0
LINE
  8
_0-b_細線3
  6
CONTINUOUS
 62
    7
 10
446.07549064917686
 20
246.5511867521748
 11
441.90882398250983
 21
246.5511867521748
  0
ARC
  8
_0-b_細線3
  6
CONTINUOUS
 62
    7
 10
455.0754906491768
 20
244.88452008550871
 40
1.666666666666667
 50
89.999999999999915
 51
179.99999999999983
  0
LINE
  8
_0-b_細線3
  6
CONTINUOUS
 62
    7
 10
455.07549064549789
 20
246.5511867521748
 11
459.24215731216492
 21
246.5511867521748
  0
LINE
  8
_0-b_細線3
  6
CONTINUOUS
 62
    7
 10
454.74215731400392
 20
253.05118675217477
 11
446.40882398067083
 21
253.05118675217477
  0
LINE
  8
_0-b_細線3
  6
CONTINUOUS
 62
    7
 10
447.74215731400432
 20
211.38452008550871
 11
447.74215731584331
 21
244.88452008550871
  0
LINE
  8
_0-b_細線3
  6
CONTINUOUS
 62
    7
 10
453.40882398067089
 20
211.38452008550871
 11
453.40882398251034
 21
244.88452008550871
  0
LINE
  8
_0-b_細線3
  6
CONTINUOUS
 62
    7
 10
453.40882398067089
 20
211.38452008550871
 11
447.74215731400432
 21
211.38452008550871
  0
ARC
  8
_0-b_細線3
  6
CONTINUOUS
 62
    7
 10
414.40882398190689
 20
249.71785341884174
 40
1.666666666666667
 50
89.999999999999915
 51
179.99999999999983
  0
ARC
  8
_0-b_細線3
  6
CONTINUOUS
 62
    7
 10
415.18873930078627
 20
253.05118675217477
 40
1.666666666666667
 50
269.99999999999977
 51
330.00000000000881
  0
ARC
  8
_0-b_細線3
  6
CONTINUOUS
 62
    7
 10
418.07549064673435
 20
251.38452008550871
 40
1.666666666666667
 50
89.999999999999915
 51
150.00000000000915
  0
LINE
  8
_0-b_細線3
  6
CONTINUOUS
 62
    7
 10
414.40882398190689
 20
251.38452008550871
 11
415.18873930078627
 21
251.38452008550871
  0
ARC
  8
_0-b_細線3
  6
CONTINUOUS
 62
    7
 10
430.07549064489496
 20
249.71785341884174
 40
1.666666666666667
 50
0
 51
89.999999999999915
  0
ARC
  8
_0-b_細線3
  6
CONTINUOUS
 62
    7
 10
429.29557532601558
 20
253.05118675217477
 40
1.666666666666667
 50
209.99999999999051
 51
269.99999999999977
  0
ARC
  8
_0-b_細線3
  6
CONTINUOUS
 62
    7
 10
426.40882398006789
 20
251.38452008550871
 40
1.666666666666667
 50
29.999999999998682
 51
89.999999999999915
  0
LINE
  8
_0-b_細線3
  6
CONTINUOUS
 62
    7
 10
430.07549064489496
 20
251.38452008550871
 11
429.29557532601558
 21
251.38452008550871
  0
ARC
  8
_0-b_細線3
  6
CONTINUOUS
 62
    7
 10
413.5754906485738
 20
247.38452008550871
 40
0.8333333333333334
 50
179.99999999999983
 51
269.99999999999977
  0
LINE
  8
_0-b_細線3
  6
CONTINUOUS
 62
    7
 10
412.74215731524038
 20
249.71785341884174
 11
412.74215731524038
 21
247.38452008550871
  0
ARC
  8
_0-b_細線3
  6
CONTINUOUS
 62
    7
 10
430.90882397822838
 20
247.38452008550871
 40
0.8333333333333334
 50
269.99999999999977
 51
359.99999999999966
  0
LINE
  8
_0-b_細線3
  6
CONTINUOUS
 62
    7
 10
431.74215731156147
 20
249.71785341884174
 11
431.74215731156147
 21
247.38452008550871
  0
ARC
  8
_0-b_細線3
  6
CONTINUOUS
 62
    7
 10
417.74215731524038
 20
244.88452008550871
 40
1.666666666666667
 50
0
 51
89.999999999999915
  0
LINE
  8
_0-b_細線3
  6
CONTINUOUS
 62
    7
 10
417.74215731524038
 20
246.5511867521748
 11
413.5754906485738
 21
246.5511867521748
  0
ARC
  8
_0-b_細線3
  6
CONTINUOUS
 62
    7
 10
426.74215731524038
 20
244.88452008550871
 40
1.666666666666667
 50
89.999999999999915
 51
179.99999999999983
  0
LINE
  8
_0-b_細線3
  6
CONTINUOUS
 62
    7
 10
426.74215731156147
 20
246.5511867521748
 11
430.90882397822838
 21
246.5511867521748
  0
LINE
  8
_0-b_細線3
  6
CONTINUOUS
 62
    7
 10
426.40882398006789
 20
253.05118675217477
 11
418.07549064673435
 21
253.05118675217477
  0
LINE
  8
_0-b_細線3
  6
CONTINUOUS
 62
    7
 10
419.40882398006744
 20
211.38452008550871
 11
419.40882398190689
 21
244.88452008550871
  0
LINE
  8
_0-b_細線3
  6
CONTINUOUS
 62
    7
 10
425.07549064673441
 20
211.38452008550871
 11
425.07549064857386
 21
244.88452008550871
  0
LINE
  8
_0-b_細線3
  6
CONTINUOUS
 62
    7
 10
425.07549064673441
 20
211.38452008550871
 11
419.40882398006744
 21
211.38452008550871
  0
ARC
  8
_0-b_細線3
  6
CONTINUOUS
 62
    7
 10
386.07549064797041
 20
249.71785341884174
 40
1.666666666666667
 50
89.999999999999915
 51
179.99999999999983
  0
ARC
  8
_0-b_細線3
  6
CONTINUOUS
 62
    7
 10
386.85540596684973
 20
253.05118675217477
 40
1.666666666666667
 50
269.99999999999977
 51
330.00000000000881
  0
ARC
  8
_0-b_細線3
  6
CONTINUOUS
 62
    7
 10
389.74215731279793
 20
251.38452008550871
 40
1.666666666666667
 50
89.999999999999915
 51
150.00000000000915
  0
LINE
  8
_0-b_細線3
  6
CONTINUOUS
 62
    7
 10
386.07549064797041
 20
251.38452008550871
 11
386.85540596684973
 21
251.38452008550871
  0
ARC
  8
_0-b_細線3
  6
CONTINUOUS
 62
    7
 10
401.74215731095842
 20
249.71785341884174
 40
1.666666666666667
 50
0
 51
89.999999999999915
  0
ARC
  8
_0-b_細線3
  6
CONTINUOUS
 62
    7
 10
400.9622419920795
 20
253.05118675217477
 40
1.666666666666667
 50
209.99999999998269
 51
269.99999999999977
  0
ARC
  8
_0-b_細線3
  6
CONTINUOUS
 62
    7
 10
398.0754906461309
 20
251.38452008550871
 40
1.666666666666667
 50
29.999999999990862
 51
89.999999999984354
  0
LINE
  8
_0-b_細線3
  6
CONTINUOUS
 62
    7
 10
401.74215731095842
 20
251.38452008550871
 11
400.9622419920795
 21
251.38452008550871
  0
ARC
  8
_0-b_細線3
  6
CONTINUOUS
 62
    7
 10
385.24215731463732
 20
247.38452008550871
 40
0.8333333333333334
 50
179.99999999999983
 51
269.99999999999977
  0
LINE
  8
_0-b_細線3
  6
CONTINUOUS
 62
    7
 10
384.40882398130384
 20
249.71785341884174
 11
384.40882398130384
 21
247.38452008550871
  0
ARC
  8
_0-b_細線3
  6
CONTINUOUS
 62
    7
 10
402.5754906442919
 20
247.38452008550871
 40
0.8333333333333334
 50
269.99999999999977
 51
359.99999999999966
  0
LINE
  8
_0-b_細線3
  6
CONTINUOUS
 62
    7
 10
403.40882397762539
 20
249.71785341884174
 11
403.40882397762539
 21
247.38452008550871
  0
ARC
  8
_0-b_細線3
  6
CONTINUOUS
 62
    7
 10
389.40882398130384
 20
244.88452008550871
 40
1.666666666666667
 50
0
 51
89.999999999999915
  0
LINE
  8
_0-b_細線3
  6
CONTINUOUS
 62
    7
 10
389.40882398130384
 20
246.5511867521748
 11
385.24215731463732
 21
246.5511867521748
  0
ARC
  8
_0-b_細線3
  6
CONTINUOUS
 62
    7
 10
398.4088239813039
 20
244.88452008550871
 40
1.666666666666667
 50
89.999999999999915
 51
179.99999999999983
  0
LINE
  8
_0-b_細線3
  6
CONTINUOUS
 62
    7
 10
398.40882397762499
 20
246.5511867521748
 11
402.5754906442919
 21
246.5511867521748
  0
LINE
  8
_0-b_細線3
  6
CONTINUOUS
 62
    7
 10
398.0754906461309
 20
253.05118675217477
 11
389.74215731279793
 21
253.05118675217477
  0
LINE
  8
_0-b_細線3
  6
CONTINUOUS
 62
    7
 10
391.07549064613136
 20
211.38452008550871
 11
391.07549064797041
 21
244.88452008550871
  0
LINE
  8
_0-b_細線3
  6
CONTINUOUS
 62
    7
 10
396.74215731279787
 20
211.38452008550871
 11
396.74215731463732
 21
244.88452008550871
  0
LINE
  8
_0-b_細線3
  6
CONTINUOUS
 62
    7
 10
396.74215731279787
 20
211.38452008550871
 11
391.07549064613136
 21
211.38452008550871
  0
ARC
  8
_0-b_細線3
  6
CONTINUOUS
 62
    7
 10
584.40882398520807
 20
249.71785341884174
 40
1.666666666666667
 50
89.999999999999915
 51
179.99999999999983
  0
ARC
  8
_0-b_細線3
  6
CONTINUOUS
 62
    7
 10
585.18873930408699
 20
253.05118675217477
 40
1.666666666666667
 50
269.99999999999977
 51
330.00000000000881
  0
ARC
  8
_0-b_細線3
  6
CONTINUOUS
 62
    7
 10
588.07549065003514
 20
251.38452008550871
 40
1.666666666666667
 50
89.999999999999915
 51
150.00000000000915
  0
LINE
  8
_0-b_細線3
  6
CONTINUOUS
 62
    7
 10
584.40882398520807
 20
251.38452008550871
 11
585.18873930408699
 21
251.38452008550871
  0
ARC
  8
_0-b_細線3
  6
CONTINUOUS
 62
    7
 10
600.07549064819614
 20
249.71785341884174
 40
1.666666666666667
 50
0
 51
89.999999999999915
  0
ARC
  8
_0-b_細線3
  6
CONTINUOUS
 62
    7
 10
599.29557532931631
 20
253.05118675217477
 40
1.666666666666667
 50
209.99999999999051
 51
269.99999999999977
  0
ARC
  8
_0-b_細線3
  6
CONTINUOUS
 62
    7
 10
596.40882398336817
 20
251.38452008550871
 40
1.666666666666667
 50
29.999999999990862
 51
89.999999999999901
  0
LINE
  8
_0-b_細線3
  6
CONTINUOUS
 62
    7
 10
600.07549064819614
 20
251.38452008550871
 11
599.29557532931631
 21
251.38452008550871
  0
ARC
  8
_0-b_細線3
  6
CONTINUOUS
 62
    7
 10
583.57549065187504
 20
247.38452008550871
 40
0.8333333333333334
 50
179.99999999999983
 51
269.99999999999977
  0
LINE
  8
_0-b_細線3
  6
CONTINUOUS
 62
    7
 10
582.7421573185411
 20
249.71785341884174
 11
582.7421573185411
 21
247.38452008550871
  0
ARC
  8
_0-b_細線3
  6
CONTINUOUS
 62
    7
 10
600.90882398152917
 20
247.38452008550871
 40
0.8333333333333334
 50
269.99999999999977
 51
359.99999999999966
  0
LINE
  8
_0-b_細線3
  6
CONTINUOUS
 62
    7
 10
601.7421573148622
 20
249.71785341884174
 11
601.7421573148622
 21
247.38452008550871
  0
ARC
  8
_0-b_細線3
  6
CONTINUOUS
 62
    7
 10
587.7421573185411
 20
244.88452008550871
 40
1.666666666666667
 50
0
 51
89.999999999999915
  0
LINE
  8
_0-b_細線3
  6
CONTINUOUS
 62
    7
 10
587.7421573185411
 20
246.5511867521748
 11
583.57549065187504
 21
246.5511867521748
  0
ARC
  8
_0-b_細線3
  6
CONTINUOUS
 62
    7
 10
596.7421573185411
 20
244.88452008550871
 40
1.666666666666667
 50
89.999999999999915
 51
179.99999999999983
  0
LINE
  8
_0-b_細線3
  6
CONTINUOUS
 62
    7
 10
596.7421573148622
 20
246.5511867521748
 11
600.90882398152917
 21
246.5511867521748
  0
LINE
  8
_0-b_細線3
  6
CONTINUOUS
 62
    7
 10
596.40882398336817
 20
253.05118675217477
 11
588.07549065003514
 21
253.05118675217477
  0
LINE
  8
_0-b_細線3
  6
CONTINUOUS
 62
    7
 10
589.40882398336907
 20
211.38452008550871
 11
589.40882398520807
 21
244.88452008550871
  0
LINE
  8
_0-b_細線3
  6
CONTINUOUS
 62
    7
 10
595.07549065003514
 20
211.38452008550871
 11
595.07549065187504
 21
244.88452008550871
  0
LINE
  8
_0-b_細線3
  6
CONTINUOUS
 62
    7
 10
595.07549065003514
 20
211.38452008550871
 11
589.40882398336907
 21
211.38452008550871
  0
ARC
  8
_0-b_細線3
  6
CONTINUOUS
 62
    7
 10
612.7421573191441
 20
249.71785341884174
 40
1.666666666666667
 50
89.999999999999915
 51
179.99999999999983
  0
ARC
  8
_0-b_細線3
  6
CONTINUOUS
 62
    7
 10
613.52207263802393
 20
253.05118675217477
 40
1.666666666666667
 50
269.99999999999977
 51
330.00000000000881
  0
ARC
  8
_0-b_細線3
  6
CONTINUOUS
 62
    7
 10
616.40882398397116
 20
251.38452008550871
 40
1.666666666666667
 50
89.999999999999915
 51
149.99999999999352
  0
LINE
  8
_0-b_細線3
  6
CONTINUOUS
 62
    7
 10
612.7421573191441
 20
251.38452008550871
 11
613.52207263802393
 21
251.38452008550871
  0
ARC
  8
_0-b_細線3
  6
CONTINUOUS
 62
    7
 10
628.40882398213216
 20
249.71785341884174
 40
1.666666666666667
 50
0
 51
89.999999999999915
  0
ARC
  8
_0-b_細線3
  6
CONTINUOUS
 62
    7
 10
627.62890866325324
 20
253.05118675217477
 40
1.666666666666667
 50
209.99999999999051
 51
269.99999999999977
  0
ARC
  8
_0-b_細線3
  6
CONTINUOUS
 62
    7
 10
624.7421573173051
 20
251.38452008550871
 40
1.666666666666667
 50
29.999999999990862
 51
89.999999999999901
  0
LINE
  8
_0-b_細線3
  6
CONTINUOUS
 62
    7
 10
628.40882398213216
 20
251.38452008550871
 11
627.62890866325324
 21
251.38452008550871
  0
ARC
  8
_0-b_細線3
  6
CONTINUOUS
 62
    7
 10
611.90882398581107
 20
247.38452008550871
 40
0.8333333333333334
 50
179.99999999999983
 51
269.99999999999977
  0
LINE
  8
_0-b_細線3
  6
CONTINUOUS
 62
    7
 10
611.07549065247804
 20
249.71785341884174
 11
611.07549065247804
 21
247.38452008550871
  0
ARC
  8
_0-b_細線3
  6
CONTINUOUS
 62
    7
 10
629.2421573154661
 20
247.38452008550871
 40
0.8333333333333334
 50
269.99999999999977
 51
359.99999999999966
  0
LINE
  8
_0-b_細線3
  6
CONTINUOUS
 62
    7
 10
630.07549064879913
 20
249.71785341884174
 11
630.07549064879913
 21
247.38452008550871
  0
ARC
  8
_0-b_細線3
  6
CONTINUOUS
 62
    7
 10
616.07549065247804
 20
244.88452008550871
 40
1.666666666666667
 50
0
 51
89.999999999999915
  0
LINE
  8
_0-b_細線3
  6
CONTINUOUS
 62
    7
 10
616.07549065247804
 20
246.5511867521748
 11
611.90882398581107
 21
246.5511867521748
  0
ARC
  8
_0-b_細線3
  6
CONTINUOUS
 62
    7
 10
625.07549065247804
 20
244.88452008550871
 40
1.666666666666667
 50
89.999999999999915
 51
179.99999999999983
  0
LINE
  8
_0-b_細線3
  6
CONTINUOUS
 62
    7
 10
625.07549064879913
 20
246.5511867521748
 11
629.2421573154661
 21
246.5511867521748
  0
LINE
  8
_0-b_細線3
  6
CONTINUOUS
 62
    7
 10
624.7421573173051
 20
253.05118675217477
 11
616.40882398397116
 21
253.05118675217477
  0
LINE
  8
_0-b_細線3
  6
CONTINUOUS
 62
    7
 10
617.7421573173051
 20
211.38452008550871
 11
617.7421573191441
 21
244.88452008550871
  0
LINE
  8
_0-b_細線3
  6
CONTINUOUS
 62
    7
 10
623.40882398397207
 20
211.38452008550871
 11
623.40882398581107
 21
244.88452008550871
  0
LINE
  8
_0-b_細線3
  6
CONTINUOUS
 62
    7
 10
623.40882398397207
 20
211.38452008550871
 11
617.7421573173051
 21
211.38452008550871
  0
ARC
  8
_0-b_細線3
  6
CONTINUOUS
 62
    7
 10
357.74215731463693
 20
249.71785341884174
 40
1.666666666666667
 50
89.999999999999915
 51
179.99999999999983
  0
ARC
  8
_0-b_細線3
  6
CONTINUOUS
 62
    7
 10
358.52207263351625
 20
253.05118675217477
 40
1.666666666666667
 50
269.99999999999977
 51
330.00000000000881
  0
ARC
  8
_0-b_細線3
  6
CONTINUOUS
 62
    7
 10
361.40882397946439
 20
251.38452008550871
 40
1.666666666666667
 50
89.999999999999915
 51
150.00000000000915
  0
LINE
  8
_0-b_細線3
  6
CONTINUOUS
 62
    7
 10
357.74215731463693
 20
251.38452008550871
 11
358.52207263351625
 21
251.38452008550871
  0
ARC
  8
_0-b_細線3
  6
CONTINUOUS
 62
    7
 10
373.40882397762493
 20
249.71785341884174
 40
1.666666666666667
 50
0
 51
89.999999999999915
  0
ARC
  8
_0-b_細線3
  6
CONTINUOUS
 62
    7
 10
372.62890865874601
 20
253.05118675217477
 40
1.666666666666667
 50
209.99999999998269
 51
269.99999999999977
  0
ARC
  8
_0-b_細線3
  6
CONTINUOUS
 62
    7
 10
369.74215731279742
 20
251.38452008550871
 40
1.666666666666667
 50
29.999999999990862
 51
89.999999999984354
  0
LINE
  8
_0-b_細線3
  6
CONTINUOUS
 62
    7
 10
373.40882397762493
 20
251.38452008550871
 11
372.62890865874601
 21
251.38452008550871
  0
ARC
  8
_0-b_細線3
  6
CONTINUOUS
 62
    7
 10
356.90882398130384
 20
247.38452008550871
 40
0.8333333333333334
 50
179.99999999999983
 51
269.99999999999977
  0
LINE
  8
_0-b_細線3
  6
CONTINUOUS
 62
    7
 10
356.07549064797035
 20
249.71785341884174
 11
356.07549064797035
 21
247.38452008550871
  0
ARC
  8
_0-b_細線3
  6
CONTINUOUS
 62
    7
 10
374.24215731095842
 20
247.38452008550871
 40
0.8333333333333334
 50
269.99999999999977
 51
359.99999999999966
  0
LINE
  8
_0-b_細線3
  6
CONTINUOUS
 62
    7
 10
375.0754906442919
 20
249.71785341884174
 11
375.0754906442919
 21
247.38452008550871
  0
ARC
  8
_0-b_細線3
  6
CONTINUOUS
 62
    7
 10
361.07549064797035
 20
244.88452008550871
 40
1.666666666666667
 50
0
 51
89.999999999999915
  0
LINE
  8
_0-b_細線3
  6
CONTINUOUS
 62
    7
 10
361.07549064797035
 20
246.5511867521748
 11
356.90882398130384
 21
246.5511867521748
  0
ARC
  8
_0-b_細線3
  6
CONTINUOUS
 62
    7
 10
370.07549064797041
 20
244.88452008550871
 40
1.666666666666667
 50
89.999999999999915
 51
179.99999999999983
  0
LINE
  8
_0-b_細線3
  6
CONTINUOUS
 62
    7
 10
370.07549064429151
 20
246.5511867521748
 11
374.24215731095842
 21
246.5511867521748
  0
LINE
  8
_0-b_細線3
  6
CONTINUOUS
 62
    7
 10
369.74215731279742
 20
253.05118675217477
 11
361.40882397946439
 21
253.05118675217477
  0
LINE
  8
_0-b_細線3
  6
CONTINUOUS
 62
    7
 10
362.74215731279787
 20
211.38452008550871
 11
362.74215731463693
 21
244.88452008550871
  0
LINE
  8
_0-b_細線3
  6
CONTINUOUS
 62
    7
 10
368.40882397946439
 20
211.38452008550871
 11
368.40882398130384
 21
244.88452008550871
  0
LINE
  8
_0-b_細線3
  6
CONTINUOUS
 62
    7
 10
368.40882397946439
 20
211.38452008550871
 11
362.74215731279787
 21
211.38452008550871
  0
ARC
  8
_0-b_細線3
  6
CONTINUOUS
 62
    7
 10
641.07549065276362
 20
249.71785341884174
 40
1.666666666666667
 50
89.999999999999915
 51
179.99999999999983
  0
ARC
  8
_0-b_細線3
  6
CONTINUOUS
 62
    7
 10
641.85540597164345
 20
253.05118675217477
 40
1.666666666666667
 50
269.99999999999977
 51
330.00000000000881
  0
ARC
  8
_0-b_細線3
  6
CONTINUOUS
 62
    7
 10
644.74215731759068
 20
251.38452008550871
 40
1.666666666666667
 50
89.999999999999915
 51
149.99999999999352
  0
LINE
  8
_0-b_細線3
  6
CONTINUOUS
 62
    7
 10
641.07549065276362
 20
251.38452008550871
 11
641.85540597164345
 21
251.38452008550871
  0
ARC
  8
_0-b_細線3
  6
CONTINUOUS
 62
    7
 10
656.74215731575168
 20
249.71785341884174
 40
1.666666666666667
 50
0
 51
89.999999999999915
  0
ARC
  8
_0-b_細線3
  6
CONTINUOUS
 62
    7
 10
655.96224199687288
 20
253.05118675217477
 40
1.666666666666667
 50
209.99999999999051
 51
269.99999999999977
  0
ARC
  8
_0-b_細線3
  6
CONTINUOUS
 62
    7
 10
653.07549065092462
 20
251.38452008550871
 40
1.666666666666667
 50
29.999999999990862
 51
89.999999999999901
  0
LINE
  8
_0-b_細線3
  6
CONTINUOUS
 62
    7
 10
656.74215731575168
 20
251.38452008550871
 11
655.96224199687288
 21
251.38452008550871
  0
ARC
  8
_0-b_細線3
  6
CONTINUOUS
 62
    7
 10
640.24215731943059
 20
247.38452008550871
 40
0.8333333333333334
 50
179.99999999999983
 51
269.99999999999977
  0
LINE
  8
_0-b_細線3
  6
CONTINUOUS
 62
    7
 10
639.40882398609756
 20
249.71785341884174
 11
639.40882398609756
 21
247.38452008550871
  0
ARC
  8
_0-b_細線3
  6
CONTINUOUS
 62
    7
 10
657.57549064908562
 20
247.38452008550871
 40
0.8333333333333334
 50
269.99999999999977
 51
359.99999999999966
  0
LINE
  8
_0-b_細線3
  6
CONTINUOUS
 62
    7
 10
658.40882398241877
 20
249.71785341884174
 11
658.40882398241877
 21
247.38452008550871
  0
ARC
  8
_0-b_細線3
  6
CONTINUOUS
 62
    7
 10
644.40882398609756
 20
244.88452008550871
 40
1.666666666666667
 50
0
 51
89.999999999999915
  0
LINE
  8
_0-b_細線3
  6
CONTINUOUS
 62
    7
 10
644.40882398609756
 20
246.5511867521748
 11
640.24215731943059
 21
246.5511867521748
  0
ARC
  8
_0-b_細線3
  6
CONTINUOUS
 62
    7
 10
653.40882398609767
 20
244.88452008550871
 40
1.666666666666667
 50
89.999999999999915
 51
179.99999999999983
  0
LINE
  8
_0-b_細線3
  6
CONTINUOUS
 62
    7
 10
653.40882398241877
 20
246.5511867521748
 11
657.57549064908562
 21
246.5511867521748
  0
LINE
  8
_0-b_細線3
  6
CONTINUOUS
 62
    7
 10
653.07549065092462
 20
253.05118675217477
 11
644.74215731759068
 21
253.05118675217477
  0
LINE
  8
_0-b_細線3
  6
CONTINUOUS
 62
    7
 10
646.07549065092473
 20
211.38452008550871
 11
646.07549065276362
 21
244.88452008550871
  0
LINE
  8
_0-b_細線3
  6
CONTINUOUS
 62
    7
 10
651.74215731759159
 20
211.38452008550871
 11
651.74215731943059
 21
244.88452008550871
  0
LINE
  8
_0-b_細線3
  6
CONTINUOUS
 62
    7
 10
651.74215731759159
 20
211.38452008550871
 11
646.07549065092473
 21
211.38452008550871
  0
ARC
  8
_0-b_細線3
  6
CONTINUOUS
 62
    7
 10
669.40882398638325
 20
249.71785341884174
 40
1.666666666666667
 50
89.999999999999915
 51
179.99999999999983
  0
ARC
  8
_0-b_細線3
  6
CONTINUOUS
 62
    7
 10
670.18873930526297
 20
253.05118675217477
 40
1.666666666666667
 50
269.99999999999977
 51
330.00000000000881
  0
ARC
  8
_0-b_細線3
  6
CONTINUOUS
 62
    7
 10
673.07549065121111
 20
251.38452008550871
 40
1.666666666666667
 50
89.999999999999915
 51
150.00000000000915
  0
LINE
  8
_0-b_細線3
  6
CONTINUOUS
 62
    7
 10
669.40882398638325
 20
251.38452008550871
 11
670.18873930526297
 21
251.38452008550871
  0
ARC
  8
_0-b_細線3
  6
CONTINUOUS
 62
    7
 10
685.07549064937211
 20
249.71785341884174
 40
1.666666666666667
 50
0
 51
89.999999999999915
  0
ARC
  8
_0-b_細線3
  6
CONTINUOUS
 62
    7
 10
684.29557533049228
 20
253.05118675217477
 40
1.666666666666667
 50
209.99999999999051
 51
269.99999999999977
  0
ARC
  8
_0-b_細線3
  6
CONTINUOUS
 62
    7
 10
681.40882398454426
 20
251.38452008550871
 40
1.666666666666667
 50
29.999999999990862
 51
89.999999999999901
  0
LINE
  8
_0-b_細線3
  6
CONTINUOUS
 62
    7
 10
685.07549064937211
 20
251.38452008550871
 11
684.29557533049228
 21
251.38452008550871
  0
ARC
  8
_0-b_細線3
  6
CONTINUOUS
 62
    7
 10
668.57549065305011
 20
247.38452008550871
 40
0.8333333333333334
 50
179.99999999999983
 51
269.99999999999977
  0
LINE
  8
_0-b_細線3
  6
CONTINUOUS
 62
    7
 10
667.74215731971708
 20
249.71785341884174
 11
667.74215731971708
 21
247.38452008550871
  0
ARC
  8
_0-b_細線3
  6
CONTINUOUS
 62
    7
 10
685.90882398270526
 20
247.38452008550871
 40
0.8333333333333334
 50
269.99999999999977
 51
359.99999999999966
  0
LINE
  8
_0-b_細線3
  6
CONTINUOUS
 62
    7
 10
686.74215731603817
 20
249.71785341884174
 11
686.74215731603817
 21
247.38452008550871
  0
ARC
  8
_0-b_細線3
  6
CONTINUOUS
 62
    7
 10
672.74215731971708
 20
244.88452008550871
 40
1.666666666666667
 50
0
 51
89.999999999999915
  0
LINE
  8
_0-b_細線3
  6
CONTINUOUS
 62
    7
 10
672.74215731971708
 20
246.5511867521748
 11
668.57549065305011
 21
246.5511867521748
  0
ARC
  8
_0-b_細線3
  6
CONTINUOUS
 62
    7
 10
681.74215731971708
 20
244.88452008550871
 40
1.666666666666667
 50
89.999999999999915
 51
179.99999999999983
  0
LINE
  8
_0-b_細線3
  6
CONTINUOUS
 62
    7
 10
681.74215731603817
 20
246.5511867521748
 11
685.90882398270526
 21
246.5511867521748
  0
LINE
  8
_0-b_細線3
  6
CONTINUOUS
 62
    7
 10
681.40882398454426
 20
253.05118675217477
 11
673.07549065121111
 21
253.05118675217477
  0
LINE
  8
_0-b_細線3
  6
CONTINUOUS
 62
    7
 10
674.40882398454414
 20
211.38452008550871
 11
674.40882398638325
 21
244.88452008550871
  0
LINE
  8
_0-b_細線3
  6
CONTINUOUS
 62
    7
 10
680.07549065121111
 20
211.38452008550871
 11
680.07549065305011
 21
244.88452008550871
  0
LINE
  8
_0-b_細線3
  6
CONTINUOUS
 62
    7
 10
680.07549065121111
 20
211.38452008550871
 11
674.40882398454414
 21
211.38452008550871
  0
ARC
  8
_0-b_細線3
  6
CONTINUOUS
 62
    7
 10
697.74215732000266
 20
249.71785341884174
 40
1.666666666666667
 50
89.999999999999915
 51
179.99999999999983
  0
ARC
  8
_0-b_細線3
  6
CONTINUOUS
 62
    7
 10
698.52207263888249
 20
253.05118675217477
 40
1.666666666666667
 50
269.99999999999977
 51
330.00000000000881
  0
ARC
  8
_0-b_細線3
  6
CONTINUOUS
 62
    7
 10
701.40882398483075
 20
251.38452008550871
 40
1.666666666666667
 50
89.999999999999915
 51
150.00000000000915
  0
LINE
  8
_0-b_細線3
  6
CONTINUOUS
 62
    7
 10
697.74215732000266
 20
251.38452008550871
 11
698.52207263888249
 21
251.38452008550871
  0
ARC
  8
_0-b_細線3
  6
CONTINUOUS
 62
    7
 10
713.40882398299175
 20
249.71785341884174
 40
1.666666666666667
 50
0
 51
89.999999999999915
  0
ARC
  8
_0-b_細線3
  6
CONTINUOUS
 62
    7
 10
712.6289086641118
 20
253.05118675217477
 40
1.666666666666667
 50
209.99999999999051
 51
269.99999999999977
  0
ARC
  8
_0-b_細線3
  6
CONTINUOUS
 62
    7
 10
709.74215731816366
 20
251.38452008550871
 40
1.666666666666667
 50
29.999999999990862
 51
89.999999999999901
  0
LINE
  8
_0-b_細線3
  6
CONTINUOUS
 62
    7
 10
713.40882398299175
 20
251.38452008550871
 11
712.6289086641118
 21
251.38452008550871
  0
ARC
  8
_0-b_細線3
  6
CONTINUOUS
 62
    7
 10
696.90882398666974
 20
247.38452008550871
 40
0.8333333333333334
 50
179.99999999999983
 51
269.99999999999977
  0
LINE
  8
_0-b_細線3
  6
CONTINUOUS
 62
    7
 10
696.0754906533366
 20
249.71785341884174
 11
696.0754906533366
 21
247.38452008550871
  0
ARC
  8
_0-b_細線3
  6
CONTINUOUS
 62
    7
 10
714.24215731632466
 20
247.38452008550871
 40
0.8333333333333334
 50
269.99999999999977
 51
359.99999999999966
  0
LINE
  8
_0-b_細線3
  6
CONTINUOUS
 62
    7
 10
715.0754906496577
 20
249.71785341884174
 11
715.0754906496577
 21
247.38452008550871
  0
ARC
  8
_0-b_細線3
  6
CONTINUOUS
 62
    7
 10
701.0754906533366
 20
244.88452008550871
 40
1.666666666666667
 50
0
 51
89.999999999999915
  0
LINE
  8
_0-b_細線3
  6
CONTINUOUS
 62
    7
 10
701.0754906533366
 20
246.5511867521748
 11
696.90882398666974
 21
246.5511867521748
  0
ARC
  8
_0-b_細線3
  6
CONTINUOUS
 62
    7
 10
710.0754906533366
 20
244.88452008550871
 40
1.666666666666667
 50
89.999999999999915
 51
179.99999999999983
  0
LINE
  8
_0-b_細線3
  6
CONTINUOUS
 62
    7
 10
710.0754906496577
 20
246.5511867521748
 11
714.24215731632466
 21
246.5511867521748
  0
LINE
  8
_0-b_細線3
  6
CONTINUOUS
 62
    7
 10
709.74215731816366
 20
253.05118675217477
 11
701.40882398483075
 21
253.05118675217477
  0
LINE
  8
_0-b_細線3
  6
CONTINUOUS
 62
    7
 10
702.74215731816366
 20
211.38452008550871
 11
702.74215732000266
 21
244.88452008550871
  0
LINE
  8
_0-b_細線3
  6
CONTINUOUS
 62
    7
 10
708.40882398483063
 20
211.38452008550871
 11
708.40882398666963
 21
244.88452008550871
  0
LINE
  8
_0-b_細線3
  6
CONTINUOUS
 62
    7
 10
708.40882398483063
 20
211.38452008550871
 11
702.74215731816366
 21
211.38452008550871
  0
ARC
  8
_0-b_細線3
  6
CONTINUOUS
 62
    7
 10
345.07549064311684
 20
249.71785341884174
 40
1.666666666666667
 50
0
 51
89.999999999999915
  0
ARC
  8
_0-b_細線3
  6
CONTINUOUS
 62
    7
 10
344.29557532423752
 20
253.05118675217477
 40
1.666666666666667
 50
209.99999999999051
 51
269.99999999999977
  0
ARC
  8
_0-b_細線3
  6
CONTINUOUS
 62
    7
 10
341.40882397828983
 20
251.38452008550871
 40
1.666666666666667
 50
29.999999999998682
 51
89.999999999999915
  0
LINE
  8
_0-b_細線3
  6
CONTINUOUS
 62
    7
 10
345.07549064311684
 20
251.38452008550871
 11
344.29557532423752
 21
251.38452008550871
  0
ARC
  8
_0-b_細線3
  6
CONTINUOUS
 62
    7
 10
329.40882398012883
 20
249.71785341884174
 40
1.666666666666667
 50
89.999999999999915
 51
179.99999999999983
  0
ARC
  8
_0-b_細線3
  6
CONTINUOUS
 62
    7
 10
330.18873929900815
 20
253.05118675217477
 40
1.666666666666667
 50
269.99999999999977
 51
330.00000000000881
  0
ARC
  8
_0-b_細線3
  6
CONTINUOUS
 62
    7
 10
333.07549064495629
 20
251.38452008550871
 40
1.666666666666667
 50
90.000000000015632
 51
150.00000000000915
  0
LINE
  8
_0-b_細線3
  6
CONTINUOUS
 62
    7
 10
329.40882398012883
 20
251.38452008550871
 11
330.18873929900815
 21
251.38452008550871
  0
ARC
  8
_0-b_細線3
  6
CONTINUOUS
 62
    7
 10
345.90882397645032
 20
247.38452008550871
 40
0.8333333333333334
 50
269.99999999999977
 51
359.99999999999966
  0
LINE
  8
_0-b_細線3
  6
CONTINUOUS
 62
    7
 10
346.74215730978341
 20
249.71785341884174
 11
346.74215730978341
 21
247.38452008550871
  0
ARC
  8
_0-b_細線3
  6
CONTINUOUS
 62
    7
 10
328.57549064679529
 20
247.38452008550871
 40
0.8333333333333334
 50
179.99999999999983
 51
269.99999999999977
  0
LINE
  8
_0-b_細線3
  6
CONTINUOUS
 62
    7
 10
327.74215731346226
 20
249.71785341884174
 11
327.74215731346226
 21
247.38452008550871
  0
ARC
  8
_0-b_細線3
  6
CONTINUOUS
 62
    7
 10
341.74215730978341
 20
244.88452008550871
 40
1.666666666666667
 50
89.999999999999915
 51
179.99999999999983
  0
LINE
  8
_0-b_細線3
  6
CONTINUOUS
 62
    7
 10
341.74215730978341
 20
246.5511867521748
 11
345.90882397645032
 21
246.5511867521748
  0
ARC
  8
_0-b_細線3
  6
CONTINUOUS
 62
    7
 10
332.74215730978335
 20
244.88452008550871
 40
1.666666666666667
 50
0
 51
89.999999999999915
  0
LINE
  8
_0-b_細線3
  6
CONTINUOUS
 62
    7
 10
332.74215731346226
 20
246.5511867521748
 11
328.57549064679529
 21
246.5511867521748
  0
LINE
  8
_0-b_細線3
  6
CONTINUOUS
 62
    7
 10
333.07549064495629
 20
253.05118675217477
 11
341.40882397828983
 21
253.05118675217477
  0
LINE
  8
_0-b_細線3
  6
CONTINUOUS
 62
    7
 10
340.07549064495629
 20
211.38452008550871
 11
340.07549064311684
 21
244.88452008550871
  0
LINE
  8
_0-b_細線3
  6
CONTINUOUS
 62
    7
 10
334.40882397828938
 20
211.38452008550871
 11
334.40882397644992
 21
244.88452008550871
  0
LINE
  8
_0-b_細線3
  6
CONTINUOUS
 62
    7
 10
334.40882397828938
 20
211.38452008550871
 11
340.07549064495629
 21
211.38452008550871
  0
ARC
  8
_0-b_細線3
  6
CONTINUOUS
 62
    7
 10
316.74215730949732
 20
249.71785341884174
 40
1.666666666666667
 50
0
 51
89.999999999999915
  0
ARC
  8
_0-b_細線3
  6
CONTINUOUS
 62
    7
 10
315.96224199061794
 20
253.05118675217477
 40
1.666666666666667
 50
209.99999999999051
 51
269.99999999999977
  0
ARC
  8
_0-b_細線3
  6
CONTINUOUS
 62
    7
 10
313.07549064467003
 20
251.38452008550871
 40
1.666666666666667
 50
29.999999999994774
 51
89.999999999999915
  0
LINE
  8
_0-b_細線3
  6
CONTINUOUS
 62
    7
 10
316.74215730949732
 20
251.38452008550871
 11
315.96224199061794
 21
251.38452008550871
  0
ARC
  8
_0-b_細線3
  6
CONTINUOUS
 62
    7
 10
301.07549064650902
 20
249.71785341884174
 40
1.666666666666667
 50
89.999999999999915
 51
179.99999999999983
  0
ARC
  8
_0-b_細線3
  6
CONTINUOUS
 62
    7
 10
301.8554059653884
 20
253.05118675217477
 40
1.666666666666667
 50
269.99999999999977
 51
330.00000000000881
  0
ARC
  8
_0-b_細線3
  6
CONTINUOUS
 62
    7
 10
304.74215731133654
 20
251.38452008550871
 40
1.666666666666667
 50
90.00000000000783
 51
150.00000000000915
  0
LINE
  8
_0-b_細線3
  6
CONTINUOUS
 62
    7
 10
301.07549064650902
 20
251.38452008550871
 11
301.8554059653884
 21
251.38452008550871
  0
ARC
  8
_0-b_細線3
  6
CONTINUOUS
 62
    7
 10
317.57549064283057
 20
247.38452008550871
 40
0.8333333333333334
 50
269.99999999999977
 51
359.99999999999966
  0
LINE
  8
_0-b_細線3
  6
CONTINUOUS
 62
    7
 10
318.40882397616383
 20
249.71785341884174
 11
318.40882397616383
 21
247.38452008550871
  0
ARC
  8
_0-b_細線3
  6
CONTINUOUS
 62
    7
 10
300.24215731317582
 20
247.38452008550871
 40
0.8333333333333334
 50
179.99999999999983
 51
269.99999999999977
  0
LINE
  8
_0-b_細線3
  6
CONTINUOUS
 62
    7
 10
299.40882397984251
 20
249.71785341884174
 11
299.40882397984251
 21
247.38452008550871
  0
ARC
  8
_0-b_細線3
  6
CONTINUOUS
 62
    7
 10
313.40882397616383
 20
244.88452008550871
 40
1.666666666666667
 50
89.999999999999915
 51
179.99999999999983
  0
LINE
  8
_0-b_細線3
  6
CONTINUOUS
 62
    7
 10
313.40882397616383
 20
246.5511867521748
 11
317.57549064283057
 21
246.5511867521748
  0
ARC
  8
_0-b_細線3
  6
CONTINUOUS
 62
    7
 10
304.40882397616383
 20
244.88452008550871
 40
1.666666666666667
 50
0
 51
89.999999999999915
  0
LINE
  8
_0-b_細線3
  6
CONTINUOUS
 62
    7
 10
304.40882397984274
 20
246.5511867521748
 11
300.24215731317582
 21
246.5511867521748
  0
LINE
  8
_0-b_細線3
  6
CONTINUOUS
 62
    7
 10
304.74215731133654
 20
253.05118675217477
 11
313.07549064467003
 21
253.05118675217477
  0
LINE
  8
_0-b_細線3
  6
CONTINUOUS
 62
    7
 10
311.74215731133654
 20
211.38452008550871
 11
311.74215730949732
 21
244.88452008550871
  0
LINE
  8
_0-b_細線3
  6
CONTINUOUS
 62
    7
 10
306.0754906446698
 20
211.38452008550871
 11
306.07549064283035
 21
244.88452008550871
  0
LINE
  8
_0-b_細線3
  6
CONTINUOUS
 62
    7
 10
306.0754906446698
 20
211.38452008550871
 11
311.74215731133654
 21
211.38452008550871
  0
ARC
  8
_0-b_細線3
  6
CONTINUOUS
 62
    7
 10
288.40882397587779
 20
249.71785341884174
 40
1.666666666666667
 50
0
 51
89.999999999999915
  0
ARC
  8
_0-b_細線3
  6
CONTINUOUS
 62
    7
 10
287.62890865699842
 20
253.05118675217477
 40
1.666666666666667
 50
209.99999999999051
 51
269.99999999999977
  0
ARC
  8
_0-b_細線3
  6
CONTINUOUS
 62
    7
 10
284.74215731105033
 20
251.38452008550871
 40
1.666666666666667
 50
29.999999999990862
 51
89.999999999999901
  0
LINE
  8
_0-b_細線3
  6
CONTINUOUS
 62
    7
 10
288.40882397587779
 20
251.38452008550871
 11
287.62890865699842
 21
251.38452008550871
  0
ARC
  8
_0-b_細線3
  6
CONTINUOUS
 62
    7
 10
272.74215731288933
 20
249.71785341884174
 40
1.666666666666667
 50
89.999999999999915
 51
179.99999999999983
  0
ARC
  8
_0-b_細線3
  6
CONTINUOUS
 62
    7
 10
273.52207263176865
 20
253.05118675217477
 40
1.666666666666667
 50
269.99999999999977
 51
330.00000000000881
  0
ARC
  8
_0-b_細線3
  6
CONTINUOUS
 62
    7
 10
276.40882397771679
 20
251.38452008550871
 40
1.666666666666667
 50
89.999999999999915
 51
150.00000000000915
  0
LINE
  8
_0-b_細線3
  6
CONTINUOUS
 62
    7
 10
272.74215731288933
 20
251.38452008550871
 11
273.52207263176865
 21
251.38452008550871
  0
ARC
  8
_0-b_細線3
  6
CONTINUOUS
 62
    7
 10
289.24215730921082
 20
247.38452008550871
 40
0.8333333333333334
 50
269.99999999999977
 51
359.99999999999966
  0
LINE
  8
_0-b_細線3
  6
CONTINUOUS
 62
    7
 10
290.07549064254431
 20
249.71785341884174
 11
290.07549064254431
 21
247.38452008550871
  0
ARC
  8
_0-b_細線3
  6
CONTINUOUS
 62
    7
 10
271.90882397955625
 20
247.38452008550871
 40
0.8333333333333334
 50
179.99999999999983
 51
269.99999999999977
  0
LINE
  8
_0-b_細線3
  6
CONTINUOUS
 62
    7
 10
271.07549064622276
 20
249.71785341884174
 11
271.07549064622276
 21
247.38452008550871
  0
ARC
  8
_0-b_細線3
  6
CONTINUOUS
 62
    7
 10
285.07549064254431
 20
244.88452008550871
 40
1.666666666666667
 50
89.999999999999915
 51
179.99999999999983
  0
LINE
  8
_0-b_細線3
  6
CONTINUOUS
 62
    7
 10
285.07549064254431
 20
246.5511867521748
 11
289.24215730921082
 21
246.5511867521748
  0
ARC
  8
_0-b_細線3
  6
CONTINUOUS
 62
    7
 10
276.07549064254431
 20
244.88452008550871
 40
1.666666666666667
 50
0
 51
89.999999999999915
  0
LINE
  8
_0-b_細線3
  6
CONTINUOUS
 62
    7
 10
276.07549064622322
 20
246.5511867521748
 11
271.90882397955625
 21
246.5511867521748
  0
LINE
  8
_0-b_細線3
  6
CONTINUOUS
 62
    7
 10
276.40882397771679
 20
253.05118675217477
 11
284.74215731105033
 21
253.05118675217477
  0
LINE
  8
_0-b_細線3
  6
CONTINUOUS
 62
    7
 10
283.40882397771679
 20
211.38452008550871
 11
283.40882397587779
 21
244.88452008550871
  0
LINE
  8
_0-b_細線3
  6
CONTINUOUS
 62
    7
 10
277.74215731105028
 20
211.38452008550871
 11
277.74215730921082
 21
244.88452008550871
  0
LINE
  8
_0-b_細線3
  6
CONTINUOUS
 62
    7
 10
277.74215731105028
 20
211.38452008550871
 11
283.40882397771679
 21
211.38452008550871
  0
ARC
  8
_0-b_細線3
  6
CONTINUOUS
 62
    7
 10
725.74215732028915
 20
249.71785341884174
 40
1.666666666666667
 50
89.999999999999915
 51
179.99999999999983
  0
ARC
  8
_0-b_細線3
  6
CONTINUOUS
 62
    7
 10
726.5220726391691
 20
253.05118675217477
 40
1.666666666666667
 50
269.99999999999977
 51
330.00000000000881
  0
ARC
  8
_0-b_細線3
  6
CONTINUOUS
 62
    7
 10
729.40882398511621
 20
251.38452008550871
 40
1.666666666666667
 50
89.999999999999915
 51
149.99999999999352
  0
LINE
  8
_0-b_細線3
  6
CONTINUOUS
 62
    7
 10
725.74215732028915
 20
251.38452008550871
 11
726.5220726391691
 21
251.38452008550871
  0
ARC
  8
_0-b_細線3
  6
CONTINUOUS
 62
    7
 10
741.40882398327722
 20
249.71785341884174
 40
1.666666666666667
 50
0
 51
89.999999999999915
  0
ARC
  8
_0-b_細線3
  6
CONTINUOUS
 62
    7
 10
740.6289086643983
 20
253.05118675217477
 40
1.666666666666667
 50
209.99999999999051
 51
269.99999999999977
  0
ARC
  8
_0-b_細線3
  6
CONTINUOUS
 62
    7
 10
737.74215731845015
 20
251.38452008550871
 40
1.666666666666667
 50
29.999999999990862
 51
89.999999999999901
  0
LINE
  8
_0-b_細線3
  6
CONTINUOUS
 62
    7
 10
741.40882398327722
 20
251.38452008550871
 11
740.6289086643983
 21
251.38452008550871
  0
ARC
  8
_0-b_細線3
  6
CONTINUOUS
 62
    7
 10
724.90882398695612
 20
247.38452008550871
 40
0.8333333333333334
 50
179.99999999999983
 51
269.99999999999977
  0
LINE
  8
_0-b_細線3
  6
CONTINUOUS
 62
    7
 10
724.07549065362321
 20
249.71785341884174
 11
724.07549065362321
 21
247.38452008550871
  0
ARC
  8
_0-b_細線3
  6
CONTINUOUS
 62
    7
 10
742.24215731661116
 20
247.38452008550871
 40
0.8333333333333334
 50
269.99999999999977
 51
359.99999999999966
  0
LINE
  8
_0-b_細線3
  6
CONTINUOUS
 62
    7
 10
743.07549064994419
 20
249.71785341884174
 11
743.07549064994419
 21
247.38452008550871
  0
ARC
  8
_0-b_細線3
  6
CONTINUOUS
 62
    7
 10
729.07549065362321
 20
244.88452008550871
 40
1.666666666666667
 50
0
 51
89.999999999999915
  0
LINE
  8
_0-b_細線3
  6
CONTINUOUS
 62
    7
 10
729.07549065362321
 20
246.5511867521748
 11
724.90882398695612
 21
246.5511867521748
  0
ARC
  8
_0-b_細線3
  6
CONTINUOUS
 62
    7
 10
738.07549065362309
 20
244.88452008550871
 40
1.666666666666667
 50
89.999999999999915
 51
179.99999999999983
  0
LINE
  8
_0-b_細線3
  6
CONTINUOUS
 62
    7
 10
738.07549064994419
 20
246.5511867521748
 11
742.24215731661116
 21
246.5511867521748
  0
LINE
  8
_0-b_細線3
  6
CONTINUOUS
 62
    7
 10
737.74215731845015
 20
253.05118675217477
 11
729.40882398511621
 21
253.05118675217477
  0
LINE
  8
_0-b_細線3
  6
CONTINUOUS
 62
    7
 10
730.74215731845015
 20
211.38452008550871
 11
730.74215732028915
 21
244.88452008550871
  0
LINE
  8
_0-b_細線3
  6
CONTINUOUS
 62
    7
 10
736.40882398511724
 20
211.38452008550871
 11
736.40882398695612
 21
244.88452008550871
  0
LINE
  8
_0-b_細線3
  6
CONTINUOUS
 62
    7
 10
736.40882398511724
 20
211.38452008550871
 11
730.74215731845015
 21
211.38452008550871
  0
ARC
  8
_0-b_細線3
  6
CONTINUOUS
 62
    7
 10
244.74215731403461
 20
249.71785341884174
 40
1.666666666666667
 50
89.999999999999915
 51
179.99999999999983
  0
ARC
  8
_0-b_細線3
  6
CONTINUOUS
 62
    7
 10
245.52207263291351
 20
253.05118675217477
 40
1.666666666666667
 50
269.99999999999977
 51
330.00000000000881
  0
ARC
  8
_0-b_細線3
  6
CONTINUOUS
 62
    7
 10
248.40882397886162
 20
251.38452008550871
 40
1.666666666666667
 50
89.999999999999915
 51
150.00000000000915
  0
LINE
  8
_0-b_細線3
  6
CONTINUOUS
 62
    7
 10
244.74215731403461
 20
251.38452008550871
 11
245.52207263291351
 21
251.38452008550871
  0
ARC
  8
_0-b_細線3
  6
CONTINUOUS
 62
    7
 10
260.40882397702262
 20
249.71785341884174
 40
1.666666666666667
 50
0
 51
89.999999999999915
  0
ARC
  8
_0-b_細線3
  6
CONTINUOUS
 62
    7
 10
259.6289086581433
 20
253.05118675217477
 40
1.666666666666667
 50
209.99999999999051
 51
269.99999999999977
  0
ARC
  8
_0-b_細線3
  6
CONTINUOUS
 62
    7
 10
256.7421573121951
 20
251.38452008550871
 40
1.666666666666667
 50
29.999999999990862
 51
89.999999999999901
  0
LINE
  8
_0-b_細線3
  6
CONTINUOUS
 62
    7
 10
260.40882397702262
 20
251.38452008550871
 11
259.6289086581433
 21
251.38452008550871
  0
ARC
  8
_0-b_細線3
  6
CONTINUOUS
 62
    7
 10
243.90882398070104
 20
247.38452008550871
 40
0.8333333333333334
 50
179.99999999999983
 51
269.99999999999977
  0
LINE
  8
_0-b_細線3
  6
CONTINUOUS
 62
    7
 10
243.07549064736762
 20
249.71785341884174
 11
243.07549064736762
 21
247.38452008550871
  0
ARC
  8
_0-b_細線3
  6
CONTINUOUS
 62
    7
 10
261.24215731035611
 20
247.38452008550871
 40
0.8333333333333334
 50
269.99999999999977
 51
359.99999999999966
  0
LINE
  8
_0-b_細線3
  6
CONTINUOUS
 62
    7
 10
262.07549064368919
 20
249.71785341884174
 11
262.07549064368919
 21
247.38452008550871
  0
ARC
  8
_0-b_細線3
  6
CONTINUOUS
 62
    7
 10
248.07549064736762
 20
244.88452008550871
 40
1.666666666666667
 50
0
 51
89.999999999999915
  0
LINE
  8
_0-b_細線3
  6
CONTINUOUS
 62
    7
 10
248.07549064736762
 20
246.5511867521748
 11
243.90882398070104
 21
246.5511867521748
  0
ARC
  8
_0-b_細線3
  6
CONTINUOUS
 62
    7
 10
257.0754906473681
 20
244.88452008550871
 40
1.666666666666667
 50
89.999999999999915
 51
179.99999999999983
  0
LINE
  8
_0-b_細線3
  6
CONTINUOUS
 62
    7
 10
257.07549064368919
 20
246.5511867521748
 11
261.24215731035611
 21
246.5511867521748
  0
LINE
  8
_0-b_細線3
  6
CONTINUOUS
 62
    7
 10
256.7421573121951
 20
253.05118675217477
 11
248.40882397886162
 21
253.05118675217477
  0
LINE
  8
_0-b_細線3
  6
CONTINUOUS
 62
    7
 10
249.74215731219516
 20
211.38452008550871
 11
249.74215731403461
 21
244.88452008550871
  0
LINE
  8
_0-b_細線3
  6
CONTINUOUS
 62
    7
 10
255.40882397886165
 20
211.38452008550871
 11
255.4088239807011
 21
244.88452008550871
  0
LINE
  8
_0-b_細線3
  6
CONTINUOUS
 62
    7
 10
255.40882397886165
 20
211.38452008550871
 11
249.74215731219516
 21
211.38452008550871
  0
LINE
  8
_0-d_寸法3
  6
CONTINUOUS
 62
    7
 10
284.74215731460686
 20
201.38452008550871
 11
284.74215731460686
 21
140.90649485126983
  0
LINE
  8
_0-d_寸法3
  6
CONTINUOUS
 62
    7
 10
284.74215731460686
 20
145.90649485126983
 11
294.40141557749757
 21
148.49468530229501
  0
LINE
  8
_0-d_寸法3
  6
CONTINUOUS
 62
    7
 10
284.74215731460686
 20
145.90649485126983
 11
294.40141557749757
 21
143.31830440024461
  0
LINE
  8
_0-d_寸法3
  6
CONTINUOUS
 62
    7
 10
701.4088239812736
 20
201.38452008550871
 11
701.4088239812736
 21
140.90649485126983
  0
LINE
  8
_0-d_寸法3
  6
CONTINUOUS
 62
    7
 10
701.4088239812736
 20
145.90649485126983
 11
691.74956571838288
 21
143.31830440024461
  0
LINE
  8
_0-d_寸法3
  6
CONTINUOUS
 62
    7
 10
701.4088239812736
 20
145.90649485126983
 11
691.74956571838288
 21
148.49468530229507
  0
LINE
  8
_0-d_寸法3
  6
CONTINUOUS
 62
    7
 10
284.74215731460686
 20
145.90649485126983
 11
701.4088239812736
 21
145.90649485126983
  0
TEXT
  8
_0-d_寸法3
 62
    7
 10
481.8254906479404
 20
145.90649485126983
 40
15
 41
1
 50
0
  1
250
  0
LINE
  8
_0-a_極細3
  6
CONTINUOUS
 62
    7
 10
191.10208909412151
 20
156.26622124801202
 11
185.97178694423633
 21
170.36161055980102
  0
LINE
  8
_0-a_極細3
  6
CONTINUOUS
 62
    7
 10
241.09613176791797
 20
190.42523125904722
 11
246.22643391780272
 21
176.32984194725827
  0
LINE
  8
_0-a_極細3
  6
CONTINUOUS
 62
    7
 10
185.97178694423633
 20
170.36161055980102
 11
241.09613176791797
 21
190.42523125904722
  0
LINE
  8
_0-a_極細3
  6
CONTINUOUS
 62
    7
 10
191.10208909412151
 20
156.26622124801202
 11
246.22643391780272
 21
176.32984194725827
  0
LINE
  8
_0-a_極細3
  6
CENTER1
 62
    7
 10
183.58150462718618
 20
161.51028586387682
 11
247.61252510975197
 21
184.81567134891179
  0
LINE
  8
_0-a_極細3
  6
CONTINUOUS
 62
    7
 10
209.74215731460689
 20
131.38452008550871
 11
209.74215731460689
 21
175.47008143382456
  0
LINE
  8
_0-a_極細3
  6
CONTINUOUS
 62
    7
 10
209.74215731460689
 20
175.47008143382456
 11
194.74215731460689
 21
175.47008143382456
  0
LINE
  8
_0-a_極細3
  6
CONTINUOUS
 62
    7
 10
194.74215731460689
 20
175.47008143382456
 11
194.74215731460689
 21
131.38452008550871
  0
LINE
  8
_0-a_極細3
  6
CENTER1
 62
    7
 10
202.24215731460689
 20
123.10777980105584
 11
202.24215731460689
 21
179.74580159843413
  0
LINE
  8
_0-d_寸法3
  6
CONTINUOUS
 62
    7
 10
234.74215731460674
 20
158.05118675217571
 11
234.7421573146066
 21
140.90649485126983
  0
LINE
  8
_0-d_寸法3
  6
CONTINUOUS
 62
    7
 10
234.7421573146066
 20
145.90649485126983
 11
244.40141557749735
 21
148.49468530229501
  0
LINE
  8
_0-d_寸法3
  6
CONTINUOUS
 62
    7
 10
234.7421573146066
 20
145.90649485126983
 11
244.40141557749735
 21
143.31830440024461
  0
LINE
  8
_0-d_寸法3
  6
CONTINUOUS
 62
    7
 10
284.74215731460674
 20
196.38452008550871
 11
284.74215731460617
 21
140.90649485126983
  0
LINE
  8
_0-d_寸法3
  6
CONTINUOUS
 62
    7
 10
284.74215731460617
 20
145.90649485126983
 11
275.08289905171551
 21
143.31830440024461
  0
LINE
  8
_0-d_寸法3
  6
CONTINUOUS
 62
    7
 10
284.74215731460617
 20
145.90649485126983
 11
275.08289905171551
 21
148.49468530229507
  0
LINE
  8
_0-d_寸法3
  6
CONTINUOUS
 62
    7
 10
234.7421573146066
 20
145.90649485126983
 11
284.74215731460617
 21
145.90649485126983
  0
TEXT
  8
_0-d_寸法3
 62
    7
 10
252.24215731460646
 20
145.90649485126983
 40
15
 41
1
 50
0
  1
30
  0
LINE
  8
_0-a_極細3
  6
CONTINUOUS
 62
    7
 10
795.04889220175892
 20
156.26622124801202
 11
800.17919435164413
 21
170.36161055980102
  0
LINE
  8
_0-a_極細3
  6
CONTINUOUS
 62
    7
 10
745.05484952796269
 20
190.42523125904722
 11
739.92454737807793
 21
176.32984194725827
  0
LINE
  8
_0-a_極細3
  6
CONTINUOUS
 62
    7
 10
800.17919435164413
 20
170.36161055980102
 11
745.05484952796269
 21
190.42523125904722
  0
LINE
  8
_0-a_極細3
  6
CONTINUOUS
 62
    7
 10
795.04889220175892
 20
156.26622124801202
 11
739.92454737807793
 21
176.32984194725827
  0
LINE
  8
_0-a_極細3
  6
CENTER1
 62
    7
 10
802.56947666869439
 20
161.51028586387682
 11
738.53845618612831
 21
184.81567134891179
  0
LINE
  8
_0-a_極細3
  6
CONTINUOUS
 62
    7
 10
776.4088239812736
 20
131.38452008550871
 11
776.4088239812736
 21
175.47008143382456
  0
LINE
  8
_0-a_極細3
  6
CONTINUOUS
 62
    7
 10
791.4088239812736
 20
175.47008143382456
 11
791.4088239812736
 21
131.38452008550871
  0
LINE
  8
_0-a_極細3
  6
CENTER1
 62
    7
 10
783.9088239812736
 20
123.10777980105584
 11
783.9088239812736
 21
179.74580159843413
  0
LINE
  8
_0-d_寸法3
  6
CONTINUOUS
 62
    7
 10
751.40882398127383
 20
158.05118675217571
 11
751.40882398127417
 21
140.90649485126983
  0
LINE
  8
_0-d_寸法3
  6
CONTINUOUS
 62
    7
 10
751.40882398127405
 20
145.90649485126983
 11
741.74956571838334
 21
143.31830440024461
  0
LINE
  8
_0-d_寸法3
  6
CONTINUOUS
 62
    7
 10
751.40882398127405
 20
145.90649485126983
 11
741.74956571838334
 21
148.49468530229501
  0
LINE
  8
_0-d_寸法3
  6
CONTINUOUS
 62
    7
 10
701.40882398127371
 20
196.38452008550871
 11
701.40882398127462
 21
140.90649485126983
  0
LINE
  8
_0-d_寸法3
  6
CONTINUOUS
 62
    7
 10
701.40882398127462
 20
145.90649485126983
 11
711.06808224416523
 21
148.49468530229507
  0
LINE
  8
_0-d_寸法3
  6
CONTINUOUS
 62
    7
 10
701.40882398127462
 20
145.90649485126983
 11
711.06808224416523
 21
143.31830440024461
  0
LINE
  8
_0-d_寸法3
  6
CONTINUOUS
 62
    7
 10
751.40882398127405
 20
145.90649485126983
 11
701.40882398127462
 21
145.90649485126983
  0
TEXT
  8
_0-d_寸法3
 62
    7
 10
718.90882398127405
 20
145.90649485126983
 40
15
 41
1
 50
0.0000000000002714
  1
30
  0
LINE
  8
_0-a_極細3
  6
CONTINUOUS
 62
    7
 10
776.4088239812736
 20
175.47008143382456
 11
791.4088239812736
 21
175.47008143382456
  0
CIRCLE
  8
_0-a_極細3
  6
CONTINUOUS
 62
    7
 10
799.99610048179193
 20
181.28700457624362
 40
0.5530864197530718
  0
CIRCLE
  8
_0-a_極細3
  6
CONTINUOUS
 62
    7
 10
780.39610048179259
 20
186.88700457624307
 40
0.5530864197530718
  0
LINE
  8
_0-b_細線3
  6
CONTINUOUS
 62
    7
 10
538.49815032125548
 20
223.55118675217469
 11
561.16481698792222
 21
223.55118675217469
  0
LINE
  8
_0-b_細線3
  6
CONTINUOUS
 62
    7
 10
510.16481698731894
 20
223.55118675217469
 11
532.83148365398552
 21
223.55118675217469
  0
LINE
  8
_0-b_細線3
  6
CONTINUOUS
 62
    7
 10
453.49815031944644
 20
223.55118675217469
 11
476.16481698611295
 21
223.55118675217469
  0
LINE
  8
_0-b_細線3
  6
CONTINUOUS
 62
    7
 10
425.16481698551047
 20
223.55118675217469
 11
447.83148365217698
 21
223.55118675217469
  0
LINE
  8
_0-b_細線3
  6
CONTINUOUS
 62
    7
 10
396.83148365157354
 20
223.55118675217469
 11
419.49815031824045
 21
223.55118675217469
  0
LINE
  8
_0-b_細線3
  6
CONTINUOUS
 62
    7
 10
566.83148365487477
 20
223.55118675217469
 11
589.49815032154174
 21
223.55118675217469
  0
LINE
  8
_0-b_細線3
  6
CONTINUOUS
 62
    7
 10
595.1648169888108
 20
223.55118675217469
 11
617.83148365547777
 21
223.55118675217469
  0
LINE
  8
_0-b_細線3
  6
CONTINUOUS
 62
    7
 10
368.49815031823999
 20
223.55118675217469
 11
391.16481698490725
 21
223.55118675217469
  0
LINE
  8
_0-b_細線3
  6
CONTINUOUS
 62
    7
 10
623.49815032243123
 20
223.55118675217469
 11
646.1648169890974
 21
223.55118675217469
  0
LINE
  8
_0-b_細線3
  6
CONTINUOUS
 62
    7
 10
651.83148365605075
 20
223.55118675217469
 11
674.49815032271772
 21
223.55118675217469
  0
LINE
  8
_0-b_細線3
  6
CONTINUOUS
 62
    7
 10
680.16481698967027
 20
223.55118675217469
 11
702.83148365633724
 21
223.55118675217469
  0
LINE
  8
_0-b_細線3
  6
CONTINUOUS
 62
    7
 10
362.83148364916224
 20
223.55118675217469
 11
340.16481698249544
 21
223.55118675217469
  0
LINE
  8
_0-b_細線3
  6
CONTINUOUS
 62
    7
 10
334.49815031554243
 20
223.55118675217469
 11
311.83148364887575
 21
223.55118675217469
  0
LINE
  8
_0-b_細線3
  6
CONTINUOUS
 62
    7
 10
306.16481698192285
 20
223.55118675217469
 11
283.49815031525594
 21
223.55118675217469
  0
LINE
  8
_0-b_細線3
  6
CONTINUOUS
 62
    7
 10
708.49815032328979
 20
223.55118675217469
 11
730.83148365662282
 21
223.55118675217469
  0
LINE
  8
_0-b_細線3
  6
CONTINUOUS
 62
    7
 10
277.83148364830339
 20
223.55118675217469
 11
255.49815031496991
 21
223.55118675217469
  0
LINE
  8
_0-b_細線3
  6
CONTINUOUS
 62
    7
 10
538.49815032125548
 20
245.21785341884117
 11
561.16481698792222
 21
245.21785341884117
  0
LINE
  8
_0-b_細線3
  6
CONTINUOUS
 62
    7
 10
510.16481698731894
 20
245.21785341884117
 11
532.83148365398552
 21
245.21785341884117
  0
LINE
  8
_0-b_細線3
  6
CONTINUOUS
 62
    7
 10
453.49815031944644
 20
245.21785341884117
 11
476.16481698611295
 21
245.21785341884117
  0
LINE
  8
_0-b_細線3
  6
CONTINUOUS
 62
    7
 10
425.16481698551047
 20
245.21785341884117
 11
447.83148365217698
 21
245.21785341884117
  0
LINE
  8
_0-b_細線3
  6
CONTINUOUS
 62
    7
 10
396.83148365157354
 20
245.21785341884117
 11
419.49815031824045
 21
245.21785341884117
  0
LINE
  8
_0-b_細線3
  6
CONTINUOUS
 62
    7
 10
566.83148365487477
 20
245.21785341884117
 11
589.49815032154174
 21
245.21785341884117
  0
LINE
  8
_0-b_細線3
  6
CONTINUOUS
 62
    7
 10
595.1648169888108
 20
245.21785341884117
 11
617.83148365547777
 21
245.21785341884117
  0
LINE
  8
_0-b_細線3
  6
CONTINUOUS
 62
    7
 10
368.49815031823999
 20
245.21785341884117
 11
391.16481698490725
 21
245.21785341884117
  0
LINE
  8
_0-b_細線3
  6
CONTINUOUS
 62
    7
 10
623.49815032243123
 20
245.21785341884117
 11
646.1648169890974
 21
245.21785341884117
  0
LINE
  8
_0-b_細線3
  6
CONTINUOUS
 62
    7
 10
651.83148365605075
 20
245.21785341884117
 11
674.49815032271772
 21
245.21785341884117
  0
LINE
  8
_0-b_細線3
  6
CONTINUOUS
 62
    7
 10
680.16481698967027
 20
245.21785341884117
 11
702.83148365633724
 21
245.21785341884117
  0
LINE
  8
_0-b_細線3
  6
CONTINUOUS
 62
    7
 10
362.83148364916224
 20
245.21785341884117
 11
340.16481698249544
 21
245.21785341884117
  0
LINE
  8
_0-b_細線3
  6
CONTINUOUS
 62
    7
 10
334.49815031554243
 20
245.21785341884117
 11
311.83148364887575
 21
245.21785341884117
  0
LINE
  8
_0-b_細線3
  6
CONTINUOUS
 62
    7
 10
306.16481698192285
 20
245.21785341884117
 11
283.49815031525594
 21
245.21785341884117
  0
LINE
  8
_0-b_細線3
  6
CONTINUOUS
 62
    7
 10
708.49815032328979
 20
245.21785341884117
 11
730.83148365662282
 21
245.21785341884117
  0
LINE
  8
_0-b_細線3
  6
CONTINUOUS
 62
    7
 10
277.83148364830339
 20
245.21785341884117
 11
255.49815031496991
 21
245.21785341884117
  0
ARC
  8
_0-b_細線3
  6
CONTINUOUS
 62
    7
 10
471.0754906497794
 20
249.71785341884174
 40
1.666666666666667
 50
89.999999999999915
 51
179.99999999999983
  0
ARC
  8
_0-b_細線3
  6
CONTINUOUS
 62
    7
 10
471.85540596865877
 20
253.05118675217477
 40
1.666666666666667
 50
269.99999999999977
 51
330.00000000000881
  0
ARC
  8
_0-b_細線3
  6
CONTINUOUS
 62
    7
 10
474.74215731460686
 20
251.38452008550871
 40
1.666666666666667
 50
89.999999999999915
 51
150.00000000000915
  0
LINE
  8
_0-b_細線3
  6
CONTINUOUS
 62
    7
 10
471.0754906497794
 20
251.38452008550871
 11
471.85540596865877
 21
251.38452008550871
  0
ARC
  8
_0-b_細線3
  6
CONTINUOUS
 62
    7
 10
486.74215731276786
 20
249.71785341884174
 40
1.666666666666667
 50
0
 51
89.999999999999915
  0
ARC
  8
_0-b_細線3
  6
CONTINUOUS
 62
    7
 10
485.96224199388848
 20
253.05118675217477
 40
1.666666666666667
 50
209.99999999999051
 51
269.99999999999977
  0
ARC
  8
_0-b_細線3
  6
CONTINUOUS
 62
    7
 10
483.0754906479404
 20
251.38452008550871
 40
1.666666666666667
 50
29.999999999990862
 51
89.999999999999901
  0
LINE
  8
_0-b_細線3
  6
CONTINUOUS
 62
    7
 10
486.74215731276786
 20
251.38452008550871
 11
485.96224199388848
 21
251.38452008550871
  0
ARC
  8
_0-b_細線3
  6
CONTINUOUS
 62
    7
 10
470.24215731644631
 20
247.38452008550871
 40
0.8333333333333334
 50
179.99999999999983
 51
269.99999999999977
  0
LINE
  8
_0-b_細線3
  6
CONTINUOUS
 62
    7
 10
469.40882398311288
 20
249.71785341884174
 11
469.40882398311288
 21
247.38452008550871
  0
ARC
  8
_0-b_細線3
  6
CONTINUOUS
 62
    7
 10
487.5754906461014
 20
247.38452008550871
 40
0.8333333333333334
 50
269.99999999999977
 51
359.99999999999966
  0
LINE
  8
_0-b_細線3
  6
CONTINUOUS
 62
    7
 10
488.40882397943437
 20
249.71785341884174
 11
488.40882397943437
 21
247.38452008550871
  0
ARC
  8
_0-b_細線3
  6
CONTINUOUS
 62
    7
 10
474.40882398311288
 20
244.88452008550871
 40
1.666666666666667
 50
0
 51
89.999999999999915
  0
LINE
  8
_0-b_細線3
  6
CONTINUOUS
 62
    7
 10
474.40882398311288
 20
246.5511867521748
 11
470.24215731644631
 21
246.5511867521748
  0
ARC
  8
_0-b_細線3
  6
CONTINUOUS
 62
    7
 10
483.40882398311288
 20
244.88452008550871
 40
1.666666666666667
 50
89.999999999999915
 51
179.99999999999983
  0
LINE
  8
_0-b_細線3
  6
CONTINUOUS
 62
    7
 10
483.40882397943398
 20
246.5511867521748
 11
487.5754906461014
 21
246.5511867521748
  0
LINE
  8
_0-b_細線3
  6
CONTINUOUS
 62
    7
 10
483.0754906479404
 20
253.05118675217477
 11
474.74215731460686
 21
253.05118675217477
  0
LINE
  8
_0-b_細線3
  6
CONTINUOUS
 62
    7
 10
476.07549064794034
 20
211.38452008550871
 11
476.0754906497794
 21
244.88452008550871
  0
LINE
  8
_0-b_細線3
  6
CONTINUOUS
 62
    7
 10
481.74215731460691
 20
211.38452008550871
 11
481.74215731644637
 21
244.88452008550871
  0
LINE
  8
_0-b_細線3
  6
CONTINUOUS
 62
    7
 10
481.74215731460691
 20
211.38452008550871
 11
476.07549064794034
 21
211.38452008550871
  0
LINE
  8
_0-b_細線3
  6
CONTINUOUS
 62
    7
 10
481.74215731646473
 20
245.21785341884117
 11
489.15882398127337
 21
245.21785341884117
  0
LINE
  8
_0-b_細線3
  6
CONTINUOUS
 62
    7
 10
496.99215731460731
 20
245.21785341884117
 11
504.49815032004949
 21
245.21785341884117
  0
LINE
  8
_0-b_細線3
  6
CONTINUOUS
 62
    7
 10
496.99215731460731
 20
223.55118675217469
 11
504.49815032004949
 21
223.55118675217469
  0
LINE
  8
_0-b_細線3
  6
CONTINUOUS
 62
    7
 10
481.83148365311285
 20
223.55118675217469
 11
489.15882398127337
 21
223.55118675217469
  0
LINE
  8
_0-b_細線3
  6
CONTINUOUS
 62
    7
 10
234.74215731460689
 20
226.38452008550871
 11
234.74215731460689
 21
168.05118675217543
  0
LINE
  8
_0-b_細線3
  6
CONTINUOUS
 62
    7
 10
234.74215731460689
 20
168.05118675217543
 11
230.90882398127354
 21
168.05118675217543
  0
LINE
  8
_0-b_細線3
  6
CONTINUOUS
 62
    7
 10
230.90882398127354
 20
168.05118675217543
 11
230.90882398127354
 21
226.38452008550871
  0
LINE
  8
_0-b_細線3
  6
CONTINUOUS
 62
    7
 10
230.90882398127354
 20
226.38452008550871
 11
234.74215731460689
 21
226.38452008550871
  0
LINE
  8
_0-a_極細3
  6
CONTINUOUS
 62
    7
 10
230.90882398127354
 20
199.71785341884214
 11
234.74215731460689
 21
199.71785341884214
  0
LINE
  8
_0-a_極細3
  6
CONTINUOUS
 62
    7
 10
230.90882398127354
 20
203.05118675217543
 11
234.74215731460689
 21
203.05118675217543
  0
LINE
  8
_0-a_極細3
  6
CONTINUOUS
 62
    7
 10
230.90882398127354
 20
196.38452008550871
 11
234.74215731460689
 21
196.38452008550871
  0
LINE
  8
_0-a_極細3
  6
CONTINUOUS
 62
    7
 10
230.90882398127354
 20
206.38452008550871
 11
234.74215731460689
 21
206.38452008550871
  0
LINE
  8
_0-a_極細3
  6
CONTINUOUS
 62
    7
 10
234.74215731460689
 20
173.05118675217543
 11
230.90882398127354
 21
173.05118675217543
  0
LINE
  8
_0-a_極細3
  6
CONTINUOUS
 62
    7
 10
230.90882398127354
 20
223.05118675217545
 11
234.74215731460689
 21
223.05118675217545
  0
LINE
  8
_0-b_細線3
  6
CONTINUOUS
 62
    7
 10
751.40882398127383
 20
226.38452008550871
 11
751.40882398127383
 21
168.05118675217543
  0
LINE
  8
_0-b_細線3
  6
CONTINUOUS
 62
    7
 10
751.40882398127383
 20
168.05118675217543
 11
755.24215731460731
 21
168.05118675217543
  0
LINE
  8
_0-b_細線3
  6
CONTINUOUS
 62
    7
 10
755.24215731460731
 20
168.05118675217543
 11
755.24215731460731
 21
226.38452008550871
  0
LINE
  8
_0-b_細線3
  6
CONTINUOUS
 62
    7
 10
755.24215731460731
 20
226.38452008550871
 11
751.40882398127383
 21
226.38452008550871
  0
LINE
  8
_0-a_極細3
  6
CONTINUOUS
 62
    7
 10
755.24215731460731
 20
199.71785341884214
 11
751.40882398127383
 21
199.71785341884214
  0
LINE
  8
_0-a_極細3
  6
CONTINUOUS
 62
    7
 10
755.24215731460731
 20
203.05118675217543
 11
751.40882398127383
 21
203.05118675217543
  0
LINE
  8
_0-a_極細3
  6
CONTINUOUS
 62
    7
 10
755.24215731460731
 20
196.38452008550871
 11
751.40882398127383
 21
196.38452008550871
  0
LINE
  8
_0-a_極細3
  6
CONTINUOUS
 62
    7
 10
755.24215731460731
 20
206.38452008550871
 11
751.40882398127383
 21
206.38452008550871
  0
LINE
  8
_0-a_極細3
  6
CONTINUOUS
 62
    7
 10
751.40882398127383
 20
173.05118675217543
 11
755.24215731460731
 21
173.05118675217543
  0
LINE
  8
_0-a_極細3
  6
CONTINUOUS
 62
    7
 10
755.24215731460731
 20
223.05118675217545
 11
751.40882398127383
 21
223.05118675217545
  0
LINE
  8
_0-7_枠細線
  6
CONTINUOUS
 62
    5
 10
773.17287415522958
 20
215.71784188544859
 11
765.67287415522958
 21
230.71784188544859
  0
LINE
  8
_0-7_枠細線
  6
CONTINUOUS
 62
    5
 10
758.17287415522958
 20
215.71784188544859
 11
773.17287415522958
 21
215.71784188544859
  0
LINE
  8
_0-7_枠細線
  6
CONTINUOUS
 62
    5
 10
765.67287415522958
 20
230.71784188544859
 11
758.17287415522958
 21
215.71784188544859
  0
TEXT
  8
_0-7_枠細線
 62
    5
 10
760.53802542337758
 20
214.76902192059868
 40
12.5
 41
0.8
 50
0
  1
５
  0
LINE
  8
_0-b_細線3
  6
CONTINUOUS
 62
    7
 10
496.99215731460731
 20
252.71785341883842
 11
496.99215731460731
 21
221.05118675217128
  0
LINE
  8
_0-b_細線3
  6
CONTINUOUS
 62
    7
 10
489.15882398127337
 20
221.05118675217128
 11
489.15882398127337
 21
252.71785341883842
  0
LINE
  8
_0-b_細線3
  6
CONTINUOUS
 62
    7
 10
496.99215731460731
 20
221.05118675217128
 11
489.15882398127337
 21
221.05118675217128
  0
LINE
  8
_0-b_細線3
  6
CONTINUOUS
 62
    7
 10
489.15882398127337
 20
252.71785341883842
 11
496.99215731460731
 21
252.71785341883842
  0
LINE
  8
_0-b_細線3
  6
DASHED2
 62
    7
 10
489.15882398127337
 20
226.05118675217128
 11
496.99215731460731
 21
226.05118675217128
  0
LINE
  8
_0-b_細線3
  6
DASHED2
 62
    7
 10
489.15882398127337
 20
248.5511867521717
 11
496.99215731460731
 21
248.5511867521717
  0
LINE
  8
_0-d_寸法3
  6
CONTINUOUS
 62
    7
 10
234.74215731460689
 20
258.05118675217523
 11
234.74215731460689
 21
378.05118675217523
  0
LINE
  8
_0-d_寸法3
  6
CONTINUOUS
 62
    7
 10
234.74215731460689
 20
373.05118675217523
 11
244.40141557749754
 21
375.63937720320041
  0
LINE
  8
_0-d_寸法3
  6
CONTINUOUS
 62
    7
 10
234.74215731460689
 20
373.05118675217523
 11
244.40141557749754
 21
370.4629963011501
  0
LINE
  8
_0-d_寸法3
  6
CONTINUOUS
 62
    7
 10
751.4088239812736
 20
258.05118675217523
 11
751.4088239812736
 21
378.05118675217523
  0
LINE
  8
_0-d_寸法3
  6
CONTINUOUS
 62
    7
 10
751.4088239812736
 20
373.05118675217523
 11
741.74956571838288
 21
370.4629963011501
  0
LINE
  8
_0-d_寸法3
  6
CONTINUOUS
 62
    7
 10
751.4088239812736
 20
373.05118675217523
 11
741.74956571838288
 21
375.63937720320047
  0
LINE
  8
_0-d_寸法3
  6
CONTINUOUS
 62
    7
 10
234.74215731460689
 20
373.05118675217523
 11
751.4088239812736
 21
373.05118675217523
  0
TEXT
  8
_0-d_寸法3
 62
    7
 10
481.8254906479404
 20
373.05118675217523
 40
15
 41
1
 50
0
  1
310
  0
LINE
  8
_0-d_寸法3
  6
CONTINUOUS
 62
    7
 10
234.74215731460689
 20
338.05118675217523
 11
225.08289905171623
 21
335.4629963011501
  0
LINE
  8
_0-d_寸法3
  6
CONTINUOUS
 62
    7
 10
234.74215731460689
 20
338.05118675217523
 11
225.08289905171623
 21
340.63937720320047
  0
LINE
  8
_0-d_寸法3
  6
CONTINUOUS
 62
    7
 10
239.74215731460689
 20
258.05118675217523
 11
239.74215731460703
 21
343.05118675217523
  0
CIRCLE
  8
_0-d_寸法3
  6
CONTINUOUS
 62
    1
 10
239.74215731460703
 20
338.05118675217523
 40
1.5000000000000002
  0
LINE
  8
_0-d_寸法3
  6
CONTINUOUS
 62
    7
 10
209.74215731460689
 20
338.05118675217523
 11
239.74215731460703
 21
338.05118675217523
  0
TEXT
  8
_0-d_寸法3
 62
    7
 10
213.59748937068366
 20
338.05118675217523
 40
15
 41
1
 50
0
  1
3
  0
LINE
  8
_0-d_寸法3
  6
CONTINUOUS
 62
    7
 10
243.07549064794017
 20
258.05118675217523
 11
243.07549064794031
 21
343.05118675217523
  0
LINE
  8
_0-d_寸法3
  6
CONTINUOUS
 62
    7
 10
239.74215731460703
 20
338.05118675217523
 11
243.07549064794031
 21
338.05118675217523
  0
TEXT
  8
_0-d_寸法3
 62
    7
 10
237.65882398127346
 20
338.05118675217523
 40
15
 41
1
 50
0
  1
2
  0
LINE
  8
_0-d_寸法3
  6
CONTINUOUS
 62
    7
 10
243.07549064794031
 20
338.05118675217523
 11
252.73474891083097
 21
340.63937720320041
  0
LINE
  8
_0-d_寸法3
  6
CONTINUOUS
 62
    7
 10
243.07549064794031
 20
338.05118675217523
 11
252.73474891083097
 21
335.4629963011501
  0
LINE
  8
_0-d_寸法3
  6
CONTINUOUS
 62
    7
 10
743.07549064994419
 20
258.05118675217523
 11
743.0754906499443
 21
343.05118675217523
  0
LINE
  8
_0-d_寸法3
  6
CONTINUOUS
 62
    7
 10
743.0754906499443
 20
338.05118675217523
 11
733.4162323870537
 21
335.4629963011501
  0
LINE
  8
_0-d_寸法3
  6
CONTINUOUS
 62
    7
 10
743.0754906499443
 20
338.05118675217523
 11
733.4162323870537
 21
340.63937720320047
  0
LINE
  8
_0-d_寸法3
  6
CONTINUOUS
 62
    7
 10
243.07549064794031
 20
338.05118675217523
 11
743.0754906499443
 21
338.05118675217523
  0
TEXT
  8
_0-d_寸法3
 62
    7
 10
481.8254906479404
 20
338.05118675217523
 40
15
 41
1
 50
0
  1
300
  0
LINE
  8
_0-d_寸法3
  6
CONTINUOUS
 62
    7
 10
746.40882398327767
 20
258.05118675217523
 11
746.40882398327778
 21
343.05118675217523
  0
CIRCLE
  8
_0-d_寸法3
  6
CONTINUOUS
 62
    1
 10
746.40882398327778
 20
338.05118675217523
 40
1.5000000000000002
  0
LINE
  8
_0-d_寸法3
  6
CONTINUOUS
 62
    7
 10
743.0754906499443
 20
338.05118675217523
 11
746.40882398327778
 21
338.05118675217523
  0
TEXT
  8
_0-d_寸法3
 62
    7
 10
740.99215731460754
 20
338.05118675217523
 40
15
 41
1
 50
0
  1
2
  0
LINE
  8
_0-d_寸法3
  6
CONTINUOUS
 62
    7
 10
751.4088239812736
 20
338.05118675217523
 11
761.06808224416443
 21
340.63937720320035
  0
LINE
  8
_0-d_寸法3
  6
CONTINUOUS
 62
    7
 10
751.4088239812736
 20
338.05118675217523
 11
761.06808224416443
 21
335.46299630115004
  0
LINE
  8
_0-d_寸法3
  6
CONTINUOUS
 62
    7
 10
746.40882398327778
 20
338.05118675217523
 11
776.4088239812736
 21
338.05118675217523
  0
TEXT
  8
_0-d_寸法3
 62
    7
 10
765.2960663133731
 20
338.05118675217523
 40
15
 41
1
 50
0
  1
3
  0
LINE
  8
_0-d_寸法3
  6
CONTINUOUS
 62
    7
 10
484.88397017026188
 20
217.12028444901875
 11
449.74366548156121
 21
241.72579068703294
  0
LINE
  8
_0-d_寸法3
  6
CONTINUOUS
 62
    7
 10
453.8394257030061
 20
238.85790850527769
 11
451.25123525198092
 21
248.51716676816838
  0
LINE
  8
_0-d_寸法3
  6
CONTINUOUS
 62
    7
 10
453.8394257030061
 20
238.85790850527769
 11
456.4276161540314
 21
248.51716676816838
  0
LINE
  8
_0-d_寸法3
  6
CONTINUOUS
 62
    7
 10
484.88397017026188
 20
258.78695111568527
 11
449.74366548156121
 21
283.39245735369991
  0
LINE
  8
_0-d_寸法3
  6
CONTINUOUS
 62
    7
 10
453.8394257030061
 20
280.52457517194466
 11
456.42761615403128
 21
270.86531690905394
  0
LINE
  8
_0-d_寸法3
  6
CONTINUOUS
 62
    7
 10
453.8394257030061
 20
280.52457517194466
 11
451.25123525198092
 21
270.86531690905406
  0
LINE
  8
_0-d_寸法3
  6
CONTINUOUS
 62
    7
 10
453.8394257030061
 20
238.85790850527769
 11
453.8394257030061
 21
280.52457517194466
  0
TEXT
  8
_0-d_寸法3
 62
    7
 10
453.8394257030061
 20
252.19124183861072
 40
15
 41
1
 50
90
  1
25
  0
LINE
  8
_0-d_寸法3
  6
CONTINUOUS
 62
    7
 10
224.74215731460689
 20
253.05118675217531
 11
175.90882398127354
 21
253.05118675217574
  0
LINE
  8
_0-d_寸法3
  6
CONTINUOUS
 62
    7
 10
180.90882398127354
 20
253.05118675217571
 11
183.49701443229876
 21
243.39192848928502
  0
LINE
  8
_0-d_寸法3
  6
CONTINUOUS
 62
    7
 10
180.90882398127354
 20
253.05118675217571
 11
178.32063353024836
 21
243.39192848928502
  0
LINE
  8
_0-d_寸法3
  6
CONTINUOUS
 62
    7
 10
220.90882398127354
 20
206.38452008550874
 11
175.90882398127354
 21
206.38452008550874
  0
LINE
  8
_0-d_寸法3
  6
CONTINUOUS
 62
    7
 10
180.90882398127354
 20
206.38452008550871
 11
178.32063353024836
 21
216.0437783483994
  0
LINE
  8
_0-d_寸法3
  6
CONTINUOUS
 62
    7
 10
180.90882398127354
 20
206.38452008550871
 11
183.49701443229876
 21
216.0437783483994
  0
LINE
  8
_0-d_寸法3
  6
CONTINUOUS
 62
    7
 10
180.90882398127354
 20
253.05118675217571
 11
180.90882398127354
 21
206.38452008550871
  0
TEXT
  8
_0-d_寸法3
 62
    7
 10
180.90882398127354
 20
222.2178534188422
 40
15
 41
1
 50
90
  1
28
  0
LINE
  8
_0-d_寸法3
  6
CONTINUOUS
 62
    7
 10
563.90882398308258
 20
263.05118675217477
 11
563.90882398308258
 21
308.05118675217523
  0
LINE
  8
_0-d_寸法3
  6
CONTINUOUS
 62
    7
 10
563.90882398308258
 20
303.05118675217523
 11
573.5680822459733
 21
305.63937720320041
  0
LINE
  8
_0-d_寸法3
  6
CONTINUOUS
 62
    7
 10
563.90882398308258
 20
303.05118675217523
 11
573.5680822459733
 21
300.46299630115004
  0
LINE
  8
_0-d_寸法3
  6
CONTINUOUS
 62
    7
 10
592.24215731701861
 20
263.05118675217477
 11
592.24215731701861
 21
308.05118675217523
  0
LINE
  8
_0-d_寸法3
  6
CONTINUOUS
 62
    7
 10
592.24215731701861
 20
303.05118675217523
 11
582.58289905412789
 21
300.46299630115004
  0
LINE
  8
_0-d_寸法3
  6
CONTINUOUS
 62
    7
 10
592.24215731701861
 20
303.05118675217523
 11
582.58289905412789
 21
305.63937720320047
  0
LINE
  8
_0-d_寸法3
  6
CONTINUOUS
 62
    7
 10
563.90882398308258
 20
303.05118675217523
 11
592.24215731701861
 21
303.05118675217523
  0
TEXT
  8
_0-d_寸法3
 62
    7
 10
561.91951335744579
 20
288.05118675217523
 40
15
 41
1
 50
0
  1
(17)
  0
LINE
  8
_0-d_寸法3
  6
CONTINUOUS
 62
    7
 10
592.24215731701861
 20
303.05118675217523
 11
601.90141557990933
 21
305.63937720320035
  0
LINE
  8
_0-d_寸法3
  6
CONTINUOUS
 62
    7
 10
592.24215731701861
 20
303.05118675217523
 11
601.90141557990933
 21
300.46299630115004
  0
LINE
  8
_0-d_寸法3
  6
CONTINUOUS
 62
    7
 10
620.57549065095554
 20
263.05118675217477
 11
620.57549065095554
 21
308.05118675217523
  0
LINE
  8
_0-d_寸法3
  6
CONTINUOUS
 62
    7
 10
620.57549065095554
 20
303.05118675217523
 11
610.91623238806483
 21
300.46299630115004
  0
LINE
  8
_0-d_寸法3
  6
CONTINUOUS
 62
    7
 10
620.57549065095554
 20
303.05118675217523
 11
610.91623238806483
 21
305.63937720320047
  0
LINE
  8
_0-d_寸法3
  6
CONTINUOUS
 62
    7
 10
592.24215731701861
 20
303.05118675217523
 11
620.57549065095554
 21
303.05118675217523
  0
TEXT
  8
_0-d_寸法3
 62
    7
 10
592.31951335744543
 20
303.05118675217523
 40
15
 41
1
 50
0
  1
(17)
  0
LINE
  8
_0-d_寸法3
  6
CONTINUOUS
 62
    7
 10
375.07549064429236
 20
263.05118675217523
 11
375.07549064429242
 21
308.05118675217523
  0
LINE
  8
_0-d_寸法3
  6
CONTINUOUS
 62
    7
 10
375.07549064429242
 20
303.05118675217523
 11
365.4162323814017
 21
300.46299630115004
  0
LINE
  8
_0-d_寸法3
  6
CONTINUOUS
 62
    7
 10
375.07549064429242
 20
303.05118675217523
 11
365.41623238140176
 21
305.63937720320047
  0
LINE
  8
_0-d_寸法3
  6
CONTINUOUS
 62
    7
 10
384.40882397762522
 20
263.05118675217523
 11
384.40882397762522
 21
308.05118675217523
  0
LINE
  8
_0-d_寸法3
  6
CONTINUOUS
 62
    7
 10
335.70153496052239
 20
303.05118675217523
 11
384.40882397762522
 21
303.05118675217523
  0
TEXT
  8
_0-d_寸法3
 62
    7
 10
335.70153496052239
 20
288.05118675217523
 40
15
 41
1
 50
0
  1
(5.6)
  0
LINE
  8
_0-d_寸法3
  6
CONTINUOUS
 62
    7
 10
384.40882397762522
 20
303.05118675217523
 11
394.06808224051588
 21
305.63937720320041
  0
LINE
  8
_0-d_寸法3
  6
CONTINUOUS
 62
    7
 10
384.40882397762522
 20
303.05118675217523
 11
394.06808224051588
 21
300.46299630115004
  0
LINE
  8
_0-d_寸法3
  6
CONTINUOUS
 62
    7
 10
403.40882397762527
 20
263.05118675217523
 11
403.40882397762527
 21
308.05118675217523
  0
LINE
  8
_0-d_寸法3
  6
CONTINUOUS
 62
    7
 10
403.40882397762527
 20
303.05118675217523
 11
393.74956571473462
 21
300.46299630115004
  0
LINE
  8
_0-d_寸法3
  6
CONTINUOUS
 62
    7
 10
403.40882397762527
 20
303.05118675217523
 11
393.74956571473462
 21
305.63937720320047
  0
LINE
  8
_0-d_寸法3
  6
CONTINUOUS
 62
    7
 10
384.40882397762522
 20
303.05118675217523
 11
403.40882397762527
 21
303.05118675217523
  0
TEXT
  8
_0-d_寸法3
 62
    7
 10
375.14412755311491
 20
303.05118675217523
 40
15
 41
1
 50
0
  1
11.4
  0
TEXT
  8
_0-7_枠細線
 62
    5
 10
443.15344300870657
 20
78.829922084615447
 40
25
 41
0.8
 50
0
  1
断面詳細図
  0
TEXT
  8
_0-7_枠細線
 62
    5
 10
558.10241275787462
 20
81.074173263860629
 40
20
 41
0.6
 50
0
  1
Ｓ＝１：３
  0
LINE
  8
_0-d_寸法3
  6
CONTINUOUS
 62
    7
 10
220.90882398127354
 20
206.38452008550868
 11
175.90882398127354
 21
206.38452008550846
  0
LINE
  8
_0-d_寸法3
  6
CONTINUOUS
 62
    7
 10
180.90882398127354
 20
206.38452008550848
 11
183.49701443229876
 21
196.72526182261777
  0
LINE
  8
_0-d_寸法3
  6
CONTINUOUS
 62
    7
 10
180.90882398127354
 20
206.38452008550848
 11
178.32063353024836
 21
196.72526182261782
  0
LINE
  8
_0-d_寸法3
  6
CONTINUOUS
 62
    7
 10
220.90882398127354
 20
168.05118675217543
 11
175.90882398127377
 21
168.05118675217523
  0
LINE
  8
_0-d_寸法3
  6
CONTINUOUS
 62
    7
 10
180.90882398127377
 20
168.05118675217528
 11
178.3206335302485
 21
177.71044501506594
  0
LINE
  8
_0-d_寸法3
  6
CONTINUOUS
 62
    7
 10
180.90882398127377
 20
168.05118675217528
 11
183.49701443229895
 21
177.71044501506594
  0
LINE
  8
_0-d_寸法3
  6
CONTINUOUS
 62
    7
 10
180.90882398127354
 20
206.38452008550848
 11
180.90882398127377
 21
168.05118675217528
  0
TEXT
  8
_0-d_寸法3
 62
    7
 10
180.90882398127354
 20
179.71785341884171
 40
15
 41
1
 50
90
  1
23
  0
LINE
  8
_0-a_極細3
  6
CENTER1
 62
    7
 10
749.61842494785697
 20
234.38452008550814
 11
237.34661688596574
 21
234.38452008550814
  0
LINE
  8
_0-b_細線3
  6
CONTINUOUS
 62
    7
 10
247.24215731345799
 20
234.38452008550814
 11
242.23463064679123
 21
234.38452008550814
  0
LINE
  8
_0-b_細線3
  6
CONTINUOUS
 62
    7
 10
247.24215731345799
 20
228.55118675217557
 11
242.23461064679219
 21
228.55118675217557
  0
ARC
  8
_0-b_細線3
  6
CONTINUOUS
 62
    7
 10
242.23461064679219
 20
228.8845200855086
 40
0.3333333333333334
 50
179.99999999999983
 51
269.99999999999977
  0
ARC
  8
_0-b_細線3
  6
CONTINUOUS
 62
    7
 10
254.83124398012484
 20
231.46761008550914
 40
12.929926666666667
 50
166.96197800000505
 51
193.03566999999961
  0
ARC
  8
_0-b_細線3
  6
CONTINUOUS
 62
    7
 10
242.23461064679219
 20
239.88452008550908
 40
0.3333333333333334
 50
89.999999999999915
 51
179.99999999999983
  0
ARC
  8
_0-b_細線3
  6
CONTINUOUS
 62
    7
 10
254.83124398012484
 20
237.30142675217496
 40
12.929926666666667
 50
166.96433000000002
 51
193.03802199999851
  0
LINE
  8
_0-b_細線3
  6
CONTINUOUS
 62
    7
 10
247.24215731345799
 20
240.21785341884211
 11
242.23461064679219
 21
240.21785341884211
  0
LINE
  8
_0-b_細線3
  6
CONTINUOUS
 62
    7
 10
241.90127731345825
 20
228.8845200855086
 11
241.90127731345825
 21
239.88452008550908
  0
ARC
  8
_0-b_細線3
  6
CONTINUOUS
 62
    7
 10
247.57549064679168
 20
223.88452008550848
 40
0.3333333333333334
 50
179.99999999999983
 51
269.99999999999977
  0
ARC
  8
_0-b_細線3
  6
CONTINUOUS
 62
    7
 10
247.57549064679168
 20
244.88452008550814
 40
0.3333333333333334
 50
89.999999999999915
 51
179.99999999999983
  0
LINE
  8
_0-b_細線3
  6
CONTINUOUS
 62
    7
 10
247.24215731345799
 20
233.55118675217511
 11
247.24215731345799
 21
223.88452008550848
  0
LINE
  8
_0-b_細線3
  6
CONTINUOUS
 62
    7
 10
247.24215731345799
 20
244.88452008550814
 11
247.24215731345799
 21
233.55118675217511
  0
LINE
  8
_0-b_細線3
  6
CONTINUOUS
 62
    7
 10
249.74215731286313
 20
223.551186752175
 11
247.57549064679168
 21
223.551186752175
  0
LINE
  8
_0-b_細線3
  6
CONTINUOUS
 62
    7
 10
249.74215731405286
 20
245.21785341884211
 11
247.57549064679168
 21
245.21785341884211
  0
LINE
  8
_0-b_細線3
  6
CONTINUOUS
 62
    7
 10
738.90882398242286
 20
234.38452008550814
 11
743.91635064908951
 21
234.38452008550814
  0
LINE
  8
_0-b_細線3
  6
CONTINUOUS
 62
    7
 10
738.90882398242286
 20
228.55118675217557
 11
743.91637064908866
 21
228.55118675217557
  0
ARC
  8
_0-b_細線3
  6
CONTINUOUS
 62
    7
 10
743.91637064908866
 20
228.8845200855086
 40
0.3333333333333334
 50
269.99999999999977
 51
359.99999999999966
  0
ARC
  8
_0-b_細線3
  6
CONTINUOUS
 62
    7
 10
731.31973731575602
 20
231.46761008550914
 40
12.929926666666667
 50
346.96432999999968
 51
13.038021999994573
  0
ARC
  8
_0-b_細線3
  6
CONTINUOUS
 62
    7
 10
743.91637064908866
 20
239.88452008550908
 40
0.3333333333333334
 50
0
 51
89.999999999999915
  0
ARC
  8
_0-b_細線3
  6
CONTINUOUS
 62
    7
 10
731.31973731575602
 20
237.30142675217496
 40
12.929926666666667
 50
346.96197800000073
 51
13.035669999999625
  0
LINE
  8
_0-b_細線3
  6
CONTINUOUS
 62
    7
 10
738.90882398242286
 20
240.21785341884211
 11
743.91637064908866
 21
240.21785341884211
  0
LINE
  8
_0-b_細線3
  6
CONTINUOUS
 62
    7
 10
744.24970398242249
 20
228.8845200855086
 11
744.24970398242249
 21
239.88452008550908
  0
ARC
  8
_0-b_細線3
  6
CONTINUOUS
 62
    7
 10
738.57549064908903
 20
223.88452008550848
 40
0.3333333333333334
 50
269.99999999999977
 51
359.99999999999966
  0
ARC
  8
_0-b_細線3
  6
CONTINUOUS
 62
    7
 10
738.57549064908903
 20
244.88452008550814
 40
0.3333333333333334
 50
0
 51
89.999999999999915
  0
LINE
  8
_0-b_細線3
  6
CONTINUOUS
 62
    7
 10
738.90882398242286
 20
233.55118675217511
 11
738.90882398242286
 21
223.88452008550848
  0
LINE
  8
_0-b_細線3
  6
CONTINUOUS
 62
    7
 10
738.90882398242286
 20
244.88452008550814
 11
738.90882398242286
 21
233.55118675217511
  0
LINE
  8
_0-b_細線3
  6
CONTINUOUS
 62
    7
 10
736.40882398301756
 20
223.551186752175
 11
738.57549064908903
 21
223.551186752175
  0
LINE
  8
_0-b_細線3
  6
CONTINUOUS
 62
    7
 10
736.40882398182782
 20
245.21785341884211
 11
738.57549064908903
 21
245.21785341884211
  0
TEXT
  8
_0-7_枠細線
 62
    5
 10
1183.75
 20
498.75000000000028
 40
15
 41
1
 50
0
  1
4.0kg/m
  0
TEXT
  8
_0-7_枠細線
 62
    5
 10
1266.25
 20
498.75000000000028
 40
15
 41
1
 50
0
  1
2.6kg/m組
  0
ENDSEC
  0
EOF
