  0
SECTION
  2
HEADER
  9
$ACADVER
  1
AC1009
  9
$INSBASE
 10
0
 20
0
 30
0
  9
$EXTMIN
 10
0
 20
0
  9
$EXTMAX
 10
2100
 20
1485
  9
$LIMMIN
 10
0
 20
0
  9
$LIMMAX
 10
2100
 20
1485
  9
$LTSCALE
 40
5
  0
ENDSEC
  0
SECTION
  2
TABLES
  0
TABLE
  2
LTYPE
 70
     9
  0
LTYPE
  2
CONTINUOUS
 70
    64
  3
実線
 72
    65
 73
     0
 40
0.0
  0
LTYPE
  2
DASHED1
 70
    64
  3
--  --  --  --  --  --  --  --  
 72
    65
 73
     2
 40
2.5
 49
1.25
 49
-1.25
  0
LTYPE
  2
DASHED2
 70
    64
  3
----    ----    ----    ----    
 72
    65
 73
     2
 40
5.0
 49
2.5
 49
-2.5
  0
LTYPE
  2
DASHED3
 70
    64
  3
------  ------  ------  ------  
 72
    65
 73
     2
 40
5.0
 49
3.75
 49
-1.25
  0
LTYPE
  2
CENTER1
 70
    64
  3
----- - ----- - ----- - ----- - 
 72
    65
 73
     4
 40
10.0
 49
6.25
 49
-1.25
 49
1.25
 49
-1.25
  0
LTYPE
  2
CENTER2
 70
    64
  3
----------  --  ----------  --  
 72
    65
 73
     4
 40
20.0
 49
12.5
 49
-2.5
 49
2.5
 49
-2.5
  0
LTYPE
  2
PHANTOM1
 70
    64
  3
--- - - --- - - --- - - --- - - 
 72
    65
 73
     6
 40
10.0
 49
3.25
 49
-1.25
 49
1.25
 49
-1.25
 49
1.25
 49
-1.25
  0
LTYPE
  2
PHANTOM2
 70
    64
  3
--------  -  -  --------  -  -  
 72
    65
 73
     6
 40
20.0
 49
10.0
 49
-2.5
 49
1.25
 49
-2.5
 49
1.25
 49
-2.5
  0
LTYPE
  2
DOT
 70
    64
  3
-   -   -   -   -   -   -   -   
 72
    65
 73
     2
 40
2.5
 49
0.625
 49
-1.875
  0
LTYPE
  2
DUMMY
 70
    64
  3
ダミー
 72
    65
 73
     0
 40
0.0
  0
LTYPE
  2
RAND1
 70
    64
  3
ランダム線1
 72
    65
 73
     4
 40
10.0
 49
1.0
 49
-2.0
 49
3.0
 49
-4.0
  0
LTYPE
  2
RAND2
 70
    64
  3
ランダム線2
 72
    65
 73
     4
 40
14.0
 49
2.0
 49
-3.0
 49
4.0
 49
-5.0
  0
LTYPE
  2
RAND3
 70
    64
  3
ランダム線3
 72
    65
 73
     4
 40
18.0
 49
3.0
 49
-4.0
 49
5.0
 49
-6.0
  0
LTYPE
  2
RAND4
 70
    64
  3
ランダム線4
 72
    65
 73
     4
 40
22.0
 49
4.0
 49
-5.0
 49
6.0
 49
-7.0
  0
LTYPE
  2
RAND5
 70
    64
  3
ランダム線5
 72
    65
 73
     4
 40
26.0
 49
5.0
 49
-6.0
 49
7.0
 49
-8.0
  0
LTYPE
  2
LONG1
 70
    64
  3
----------  --  ----------  --  
 72
    65
 73
     4
 40
40.0
 49
32.5
 49
-2.5
 49
2.5
 49
-2.5
  0
LTYPE
  2
LONG2
 70
    64
  3
--------  -  -  --------  -  -  
 72
    65
 73
     6
 40
40.0
 49
30.0
 49
-2.5
 49
1.25
 49
-2.5
 49
1.25
 49
-2.5
  0
LTYPE
  2
LONG3
 70
    64
  3
+++++++++++++++..+++++++++++++++
 72
    65
 73
     2
 40
40.0
 49
37.5
 49
-2.5
  0
LTYPE
  2
LONG4
 70
    64
  3
+++++++++++++++..+++++++++++++++
 72
    65
 73
     2
 40
80.0
 49
75.0
 49
-5.0
  0
LTYPE
  2
LONG5
 70
    64
  3
----------  --  ----------  --  
 72
    65
 73
     4
 40
60.0
 49
37.5
 49
-7.5
 49
7.5
 49
-7.5
  0
LTYPE
  2
dashed
 70
   64
  3
-------   -------------   ------
 72
   65
 73
    2
 40
7.5
 49
6
 49
-1.5
  0
LTYPE
  2
dashed_spaced
 70
   64
  3
----        --------        ----
 72
   65
 73
    2
 40
12
 49
6
 49
-6
  0
LTYPE
  2
long_dashed_dotted
 70
   64
  3
------------- --- --------------
 72
   65
 73
    4
 40
15.25
 49
12
 49
-1.5
 49
0.25
 49
-1.5
  0
LTYPE
  2
long_dashed_double-dotted
 70
   64
  3
----------- --- --- ------------
 72
   65
 73
    6
 40
17
 49
12
 49
-1.5
 49
0.25
 49
-1.5
 49
0.25
 49
-1.5
  0
LTYPE
  2
long_dashed_triplicate-dotted
 70
   64
  3
--------- --- --- --- ----------
 72
   65
 73
    8
 40
18.75
 49
12
 49
-1.5
 49
0.25
 49
-1.5
 49
0.25
 49
-1.5
 49
0.25
 49
-1.5
  0
LTYPE
  2
dotted
 70
   64
  3
   -       -       -       -    
 72
   65
 73
    2
 40
1.75
 49
0.25
 49
-1.5
  0
LTYPE
  2
chain
 70
   64
  3
-------------- -- --------------
 72
   65
 73
    4
 40
18.5
 49
12
 49
-1.5
 49
3.5
 49
-1.5
  0
LTYPE
  2
chain_double_dash
 70
   64
  3
------------ -- -- -------------
 72
   65
 73
    6
 40
23.5
 49
12
 49
-1.5
 49
3.5
 49
-1.5
 49
3.5
 49
-1.5
  0
LTYPE
  2
dashed_dotted
 70
   64
  3
-----------     -     ----------
 72
   65
 73
    4
 40
9.25
 49
6
 49
-1.5
 49
0.25
 49
-1.5
  0
LTYPE
  2
double-dashed_dotted
 70
   64
  3
------   -----------   -   -----
 72
   65
 73
    6
 40
16.75
 49
6
 49
-1.5
 49
6
 49
-1.5
 49
0.25
 49
-1.5
  0
LTYPE
  2
dashed_double-dotted
 70
   64
  3
---------    -    -    ---------
 72
   65
 73
    6
 40
11
 49
6
 49
-1.5
 49
0.25
 49
-1.5
 49
0.25
 49
-1.5
  0
LTYPE
  2
double-dashed_double-dotted
 70
   64
  3
-----   ---------   -   -   ----
 72
   65
 73
    8
 40
18.5
 49
6
 49
-1.5
 49
6
 49
-1.5
 49
0.25
 49
-1.5
 49
0.25
 49
-1.5
  0
LTYPE
  2
dashed_triplicate-dotted
 70
   64
  3
-------    -    -    -    ------
 72
   65
 73
    8
 40
12.75
 49
6
 49
-1.5
 49
0.25
 49
-1.5
 49
0.25
 49
-1.5
 49
0.25
 49
-1.5
  0
LTYPE
  2
double-dashed_triplicate-dotted
 70
   64
  3
-----  ---------  -  -  -  -----
 72
   65
 73
   10
 40
20.25
 49
6
 49
-1.5
 49
6
 49
-1.5
 49
0.25
 49
-1.5
 49
0.25
 49
-1.5
 49
0.25
 49
-1.5
  0
LTYPE
  2
undefined
 70
   64
  3
--------------------------------
 72
   65
 73
    0
 40
0
  0
ENDTAB
  0
TABLE
  2
STYLE
  5
3
100
AcDbSymbolTable
 70
     1
  0
STYLE
  5
10
100
AcDbSymbolTableRecord
100
AcDbTextStyleTableRecord
  2
STANDARD
 70
     0
 40
0.0
 41
1.0
 50
0.0
 71
     0
 42
0.2
  3
txt
  4
bigfont.shx
  0
STYLE
  5
26
100
AcDbSymbolTableRecord
100
AcDbTextStyleTableRecord
  2
TATEGAKI
 70
    68
 40
0.0
 41
1.0
 50
0.0
 71
     0
 42
1.0
  3
txt
  4
bigfont.shx
  0
ENDTAB
  0
TABLE
  2
LAYER
 70
    9
  0
LAYER
  2
_0-0_計極細
 70
   64
 62
    7
  6
CONTINUOUS
  0
LAYER
  2
_0-1_計細線
 70
   64
 62
    7
  6
CONTINUOUS
  0
LAYER
  2
_0-5_寸法線
 70
   64
 62
    7
  6
CONTINUOUS
  0
LAYER
  2
_0-7_枠細線
 70
   64
 62
    7
  6
CONTINUOUS
  0
LAYER
  2
_0-8_枠中線
 70
   64
 62
    7
  6
CONTINUOUS
  0
LAYER
  2
_0-a_極細3
 70
   64
 62
    7
  6
CONTINUOUS
  0
LAYER
  2
_0-b_細線3
 70
   64
 62
    7
  6
CONTINUOUS
  0
LAYER
  2
_0-d_寸法3
 70
   64
 62
    7
  6
CONTINUOUS
  0
LAYER
  2
ADD_LINE
 70
   64
 62
    7
  6
CONTINUOUS
  0
ENDTAB
  0
ENDSEC
  0
SECTION
  2
BLOCKS
  0
ENDSEC
  0
SECTION
  2
ENTITIES
  0
LINE
  8
_0-8_枠中線
  6
CONTINUOUS
 62
    5
 10
80
 20
60
 11
80
 21
1424.9999999999998
  0
LINE
  8
_0-8_枠中線
  6
CONTINUOUS
 62
    5
 10
80
 20
1424.9999999999998
 11
2040
 21
1424.9999999999998
  0
LINE
  8
_0-8_枠中線
  6
CONTINUOUS
 62
    5
 10
2040
 20
1424.9999999999998
 11
2040
 21
60
  0
LINE
  8
_0-8_枠中線
  6
CONTINUOUS
 62
    5
 10
2040
 20
60
 11
80
 21
60
  0
LINE
  8
_0-7_枠細線
  6
CONTINUOUS
 62
    5
 10
1800
 20
180
 11
1800
 21
100
  0
TEXT
  8
_0-7_枠細線
 62
    5
 10
1552.5
 20
97.5
 40
17.5
 41
1
 50
0
  1
備考
  7
TATEGAKI
  0
TEXT
  8
_0-7_枠細線
 62
    5
 10
1552.5
 20
137.5
 40
17.5
 41
1
 50
0
  1
品番
  7
TATEGAKI
  0
TEXT
  8
_0-7_枠細線
 62
    5
 10
1552.5
 20
177.5
 40
17.5
 41
1
 50
0
  1
品名
  7
TATEGAKI
  0
LINE
  8
_0-7_枠細線
  6
CONTINUOUS
 62
    5
 10
1800
 20
140
 11
1540
 21
140
  0
LINE
  8
_0-7_枠細線
  6
CONTINUOUS
 62
    5
 10
1565
 20
180
 11
1565
 21
60
  0
LINE
  8
_0-8_枠中線
  6
CONTINUOUS
 62
    5
 10
2040
 20
180
 11
1540
 21
180
  0
LINE
  8
_0-8_枠中線
  6
CONTINUOUS
 62
    5
 10
1540
 20
180
 11
1540
 21
60
  0
LINE
  8
_0-7_枠細線
  6
CONTINUOUS
 62
    5
 10
1860
 20
180
 11
1860
 21
60
  0
TEXT
  8
_0-7_枠細線
 62
    5
 10
1807.5
 20
160
 40
15
 41
1
 50
0
  1
縮　尺
  0
TEXT
  8
_0-7_枠細線
 62
    5
 10
1808.9999999999998
 20
117.5
 40
20
 41
0.7000000000000001
 50
0
  1
１：５
  0
LINE
  8
_0-7_枠細線
  6
CONTINUOUS
 62
    5
 10
1800
 20
155
 11
1860
 21
155
  0
LINE
  8
_0-7_枠細線
  6
CONTINUOUS
 62
    5
 10
1860
 20
100
 11
1540
 21
100
  0
LINE
  8
_0-7_枠細線
  6
CONTINUOUS
 62
    5
 10
2040
 20
90
 11
1860
 21
90
  0
LINE
  8
_0-7_枠細線
  6
CONTINUOUS
 62
    5
 10
1860
 20
120
 11
2040
 21
120
  0
LINE
  8
_0-7_枠細線
  6
CONTINUOUS
 62
    5
 10
2040
 20
140
 11
1860
 21
140
  0
TEXT
  8
_0-7_枠細線
 62
    5
 10
1870
 20
147.5
 40
25
 41
0.8
 50
0
  1
株式会社シマブン
  0
TEXT
  8
_0-7_枠細線
 62
    5
 10
1867.5
 20
60
 40
15
 41
1
 50
0
  1
年月日
  0
TEXT
  8
_0-7_枠細線
 62
    5
 10
1867.5
 20
75
 40
15
 41
1
 50
0
  1
作　成
  0
TEXT
  8
_0-7_枠細線
 62
    5
 10
1871.25
 20
122.5
 40
15
 41
1
 50
0
  1
承 認
  0
LINE
  8
_0-7_枠細線
  6
CONTINUOUS
 62
    5
 10
1920
 20
140
 11
1920
 21
60
  0
TEXT
  8
_0-7_枠細線
 62
    5
 10
1931.25
 20
122.5
 40
15
 41
1
 50
0
  1
検 図
  0
LINE
  8
_0-7_枠細線
  6
CONTINUOUS
 62
    5
 10
1980
 20
140
 11
1980
 21
90
  0
TEXT
  8
_0-7_枠細線
 62
    5
 10
1990
 20
95
 40
20
 41
1
 50
0
  1
藤戸
  0
TEXT
  8
_0-7_枠細線
 62
    5
 10
1991.25
 20
122.5
 40
15
 41
1
 50
0
  1
設 計
  0
TEXT
  8
_0-7_枠細線
 62
    5
 10
1870
 20
95
 40
20
 41
1
 50
0
  1
大野
  0
TEXT
  8
_0-7_枠細線
 62
    5
 10
1930
 20
95
 40
20
 41
1
 50
0
  1
深川
  0
TEXT
  8
_0-7_枠細線
 62
    5
 10
1580.4999999999998
 20
70
 40
20
 41
0.5999999999999998
 50
0
  1
色については品番表参照のこと
  0
LINE
  8
_0-7_枠細線
  6
CONTINUOUS
 62
    5
 10
1670
 20
275.00000000000028
 11
1990
 21
275.00000000000028
  0
TEXT
  8
_0-7_枠細線
 62
    5
 10
1580.5
 20
150
 40
20
 41
0.6
 50
0
  1
ＳＵＧＲＡ
  0
LINE
  8
_0-7_枠細線
  6
CONTINUOUS
 62
    5
 10
1780
 20
555.00000000000045
 11
1780
 21
635.00000000000045
  0
TEXT
  8
_0-7_枠細線
 62
    5
 10
1802.5
 20
612.50000000000045
 40
15
 41
1
 50
0
  1
蓋重量
  0
LINE
  8
_0-7_枠細線
  6
CONTINUOUS
 62
    5
 10
1870
 20
555.00000000000045
 11
1870
 21
635.00000000000045
  0
TEXT
  8
_0-7_枠細線
 62
    5
 10
1892.5
 20
612.50000000000045
 40
15
 41
1
 50
0
  1
枠重量
  0
LINE
  8
_0-7_枠細線
  6
CONTINUOUS
 62
    5
 10
1960
 20
555.00000000000045
 11
1960
 21
635.00000000000045
  0
LINE
  8
_0-7_枠細線
  6
CONTINUOUS
 62
    5
 10
1780
 20
635.00000000000045
 11
1960
 21
635.00000000000045
  0
LINE
  8
_0-7_枠細線
  6
CONTINUOUS
 62
    5
 10
1780
 20
605.00000000000045
 11
1960
 21
605.00000000000045
  0
LINE
  8
_0-7_枠細線
  6
CONTINUOUS
 62
    5
 10
1780
 20
555.00000000000045
 11
1960
 21
555.00000000000045
  0
TEXT
  8
_0-7_枠細線
 62
    5
 10
1813
 20
430.00000000000068
 40
15
 41
0.5999999999999999
 50
0
  1
ライトグレー
  0
TEXT
  8
_0-7_枠細線
 62
    5
 10
1822.0000000000002
 20
455.00000000000051
 40
15
 41
0.5999999999999999
 50
0
  1
ベージュ
  0
TEXT
  8
_0-7_枠細線
 62
    5
 10
1834
 20
480.00000000000051
 40
15
 41
0.8000000000000001
 50
0
  1
色
  0
TEXT
  8
_0-7_枠細線
 62
    5
 10
1916
 20
480.00000000000051
 40
15
 41
0.8000000000000001
 50
0
  1
備　　考
  0
TEXT
  8
_0-7_枠細線
 62
    5
 10
1706
 20
480.00000000000051
 40
15
 41
0.8000000000000001
 50
0
  1
品　　番
  0
TEXT
  8
_0-7_枠細線
 62
    5
 10
1768.7499999999998
 20
505.00000000000051
 40
17.5
 41
1
 50
0
  1
品番表
  0
LINE
  8
_0-7_枠細線
  6
CONTINUOUS
 62
    5
 10
1670
 20
450.00000000000057
 11
1990
 21
450.00000000000057
  0
LINE
  8
_0-7_枠細線
  6
CONTINUOUS
 62
    5
 10
1670
 20
475.00000000000051
 11
1990
 21
475.00000000000051
  0
LINE
  8
_0-7_枠細線
  6
CONTINUOUS
 62
    5
 10
1670
 20
500.00000000000051
 11
1990
 21
500.00000000000051
  0
LINE
  8
_0-7_枠細線
  6
CONTINUOUS
 62
    5
 10
1670
 20
425.00000000000068
 11
1990
 21
425.00000000000068
  0
LINE
  8
_0-7_枠細線
  6
CONTINUOUS
 62
    5
 10
1670
 20
400.00000000000068
 11
1990
 21
400.00000000000068
  0
LINE
  8
_0-7_枠細線
  6
CONTINUOUS
 62
    5
 10
1670
 20
375.00000000000091
 11
1990
 21
375.00000000000091
  0
LINE
  8
_0-7_枠細線
  6
CONTINUOUS
 62
    5
 10
1670
 20
350.00000000000114
 11
1990
 21
350.00000000000114
  0
LINE
  8
_0-7_枠細線
  6
CONTINUOUS
 62
    5
 10
1670
 20
325.00000000000114
 11
1990
 21
325.00000000000114
  0
LINE
  8
_0-7_枠細線
  6
CONTINUOUS
 62
    5
 10
1670
 20
300.00000000000114
 11
1990
 21
300.00000000000114
  0
TEXT
  8
_0-7_枠細線
 62
    5
 10
1826.5000000000005
 20
355.00000000000068
 40
15
 41
0.5999999999999999
 50
0
  1
ブルー
  0
TEXT
  8
_0-7_枠細線
 62
    5
 10
1826.5000000000005
 20
380.00000000000068
 40
15
 41
0.5999999999999999
 50
0
  1
ピンク
  0
TEXT
  8
_0-7_枠細線
 62
    5
 10
1822.0000000000005
 20
405.00000000000068
 40
15
 41
0.5999999999999999
 50
0
  1
ホワイト
  0
TEXT
  8
_0-7_枠細線
 62
    5
 10
1812.9999999999998
 20
330.00000000000068
 40
15
 41
0.5999999999999999
 50
0
  1
ダークグレー
  0
LINE
  8
_0-7_枠細線
  6
CONTINUOUS
 62
    5
 10
2040
 20
1407.4999999999998
 11
1505
 21
1407.4999999999998
  0
TEXT
  8
_0-7_枠細線
 62
    5
 10
1510
 20
1409.9999999999998
 40
12.5
 41
1
 50
0
  1
記号
  0
TEXT
  8
_0-7_枠細線
 62
    5
 10
1611.875
 20
1409.9999999999998
 40
12.5
 41
1
 50
0
  1
訂　 正　 記　 事
  0
TEXT
  8
_0-7_枠細線
 62
    5
 10
1796.25
 20
1409.9999999999998
 40
12.5
 41
1
 50
0
  1
訂 正 年 月 日
  0
TEXT
  8
_0-7_枠細線
 62
    5
 10
1921.25
 20
1409.9999999999998
 40
12.5
 41
1
 50
0
  1
備　　　　　考
  0
TEXT
  8
_0-7_枠細線
 62
    5
 10
1826.5
 20
305.00000000000045
 40
15
 41
0.5999999999999999
 50
0
  1
ウッド
  0
TEXT
  8
_0-7_枠細線
 62
    5
 10
1801
 20
573.75000000000045
 40
15
 41
0.8000000000000001
 50
0
  1
5.2kg/枚
  0
TEXT
  8
_0-7_枠細線
 62
    5
 10
1891
 20
573.75000000000045
 40
15
 41
0.8000000000000001
 50
0
  1
3.7kg/組
  0
TEXT
  8
_0-7_枠細線
 62
    5
 10
1580.5
 20
110
 40
20
 41
0.6
 50
0
  1
ＧＲＺ－２５Ｗ５００　ＳＥＴ
  0
TEXT
  8
_0-7_枠細線
 62
    5
 10
1676
 20
455.00000000000051
 40
15
 41
0.5999999999999999
 50
0
  1
ＧＲＺ－２５Ｗ５００－Ｂ
  0
TEXT
  8
_0-7_枠細線
 62
    5
 10
1676
 20
430.00000000000057
 40
15
 41
0.5999999999999999
 50
0
  1
ＧＲＺ－２５Ｗ５００－Ｇ
  0
TEXT
  8
_0-7_枠細線
 62
    5
 10
1676
 20
405.00000000000068
 40
15
 41
0.5999999999999999
 50
0
  1
ＧＲＺ－２５Ｗ５００－Ｓ
  0
TEXT
  8
_0-7_枠細線
 62
    5
 10
1676
 20
380.00000000000068
 40
15
 41
0.5999999999999999
 50
0
  1
ＧＲＺ－２５Ｗ５００－Ｐ
  0
TEXT
  8
_0-7_枠細線
 62
    5
 10
1676
 20
355.00000000000091
 40
15
 41
0.5999999999999999
 50
0
  1
ＧＲＺ－２５Ｗ５００－Ａ
  0
TEXT
  8
_0-7_枠細線
 62
    5
 10
1676
 20
330.00000000000114
 40
15
 41
0.5999999999999999
 50
0
  1
ＧＲＺ－２５Ｗ５００－Ｄ
  0
TEXT
  8
_0-7_枠細線
 62
    5
 10
1676
 20
305.00000000000114
 40
15
 41
0.5999999999999999
 50
0
  1
ＧＲＺ－２５Ｗ５００－Ｍ
  0
TEXT
  8
_0-7_枠細線
 62
    5
 10
1925
 20
67.5
 40
15
 41
0.6666666666666666
 50
0
  1
２０１６年０３月０１日
  0
LINE
  8
_0-7_枠細線
  6
CONTINUOUS
 62
    5
 10
1670
 20
249.99999999999929
 11
1990
 21
249.99999999999929
  0
TEXT
  8
_0-7_枠細線
 62
    5
 10
1822.0000000000007
 20
254.99999999999957
 40
15
 41
0.5999999999999999
 50
0
  1
ブラック
  0
TEXT
  8
_0-7_枠細線
 62
    5
 10
1676
 20
255.00000000000028
 40
15
 41
0.5999999999999999
 50
0
  1
ＧＲＺ－２５Ｗ５００－Ｋ
  0
LINE
  8
_0-7_枠細線
  6
CONTINUOUS
 62
    5
 10
1670
 20
500.00000000000051
 11
1670
 21
249.99999999999937
  0
LINE
  8
_0-7_枠細線
  6
CONTINUOUS
 62
    5
 10
1790
 20
500.00000000000051
 11
1790
 21
249.99999999999937
  0
LINE
  8
_0-7_枠細線
  6
CONTINUOUS
 62
    5
 10
1889.9999999999998
 20
500.00000000000051
 11
1889.9999999999998
 21
249.99999999999957
  0
LINE
  8
_0-7_枠細線
  6
CONTINUOUS
 62
    5
 10
1990
 20
500.00000000000051
 11
1990
 21
249.99999999999929
  0
TEXT
  8
_0-7_枠細線
 62
    5
 10
1676
 20
280.00000000000114
 40
15
 41
0.5999999999999999
 50
0
  1
ＧＲＺ－２５Ｗ５００－Ｃ
  0
TEXT
  8
_0-7_枠細線
 62
    5
 10
1822.0000000000005
 20
280.00000000000045
 40
15
 41
0.5999999999999999
 50
0
  1
ブラウン
  0
LINE
  8
_0-7_枠細線
  6
CONTINUOUS
 62
    5
 10
2040
 20
1389.9999999999998
 11
1505
 21
1389.9999999999998
  0
TEXT
  8
_0-7_枠細線
 62
    5
 10
1795
 20
1392.4999999999998
 40
12.5
 41
0.7199999999999999
 50
0
  1
２０１７．０４．０１
  0
LINE
  8
_0-7_枠細線
  6
CONTINUOUS
 62
    5
 10
1522.5
 20
1406.4423339717468
 11
1515
 21
1391.4423339717468
  0
LINE
  8
_0-7_枠細線
  6
CONTINUOUS
 62
    5
 10
1515
 20
1391.4423339717468
 11
1530
 21
1391.4423339717468
  0
LINE
  8
_0-7_枠細線
  6
CONTINUOUS
 62
    5
 10
1530
 20
1391.4423339717468
 11
1522.5
 21
1406.4423339717468
  0
TEXT
  8
_0-7_枠細線
 62
    5
 10
1517.3651512681481
 20
1390.8946500815655
 40
12.5
 41
0.8
 50
0
  1
１
  0
LINE
  8
_0-7_枠細線
  6
CONTINUOUS
 62
    5
 10
1663.0562808239056
 20
280.96160193422531
 11
1655.5562808239056
 21
295.96160193422531
  0
LINE
  8
_0-7_枠細線
  6
CONTINUOUS
 62
    5
 10
1648.0562808239056
 20
280.96160193422531
 11
1663.0562808239056
 21
280.96160193422531
  0
LINE
  8
_0-7_枠細線
  6
CONTINUOUS
 62
    5
 10
1655.5562808239056
 20
295.96160193422531
 11
1648.0562808239056
 21
280.96160193422531
  0
TEXT
  8
_0-7_枠細線
 62
    5
 10
1553.8503703703702
 20
1392.4999999999998
 40
12.5
 41
1
 50
0
  1
ブラウン色（Ｃ）追加
  0
CIRCLE
  8
_0-a_極細3
  6
CONTINUOUS
 62
    7
 10
427.14152646574553
 20
187.72248797878945
 40
1.825531472681392
  0
CIRCLE
  8
_0-a_極細3
  6
CONTINUOUS
 62
    7
 10
464.66341198763013
 20
172.49689875320058
 40
1.825531472681392
  0
CIRCLE
  8
_0-a_極細3
  6
CONTINUOUS
 62
    7
 10
456.82278348033492
 20
193.45761704725163
 40
1.825531472681392
  0
CIRCLE
  8
_0-a_極細3
  6
CONTINUOUS
 62
    7
 10
411.20391163430781
 20
194.06972424943604
 40
0.5530864197530718
  0
CIRCLE
  8
_0-a_極細3
  6
CONTINUOUS
 62
    7
 10
415.35205978245614
 20
170.312148491861
 40
0.5530864197530718
  0
CIRCLE
  8
_0-a_極細3
  6
CONTINUOUS
 62
    7
 10
437.6012180316136
 20
175.59160977132223
 40
0.5530864197530718
  0
CIRCLE
  8
_0-a_極細3
  6
CONTINUOUS
 62
    7
 10
474.55744698784139
 20
188.7902629699748
 40
0.5530864197530718
  0
CIRCLE
  8
_0-a_極細3
  6
CONTINUOUS
 62
    7
 10
438.73253116292682
 20
199.34918552889727
 40
0.5530864197530718
  0
CIRCLE
  8
_0-a_極細3
  6
CONTINUOUS
 62
    7
 10
491.52714395753833
 20
196.70945488916658
 40
0.5530864197530718
  0
CIRCLE
  8
_0-a_極細3
  6
CONTINUOUS
 62
    7
 10
1116.2840629415946
 20
184.97276856240305
 40
1.825531472681392
  0
CIRCLE
  8
_0-a_極細3
  6
CONTINUOUS
 62
    7
 10
1155.5029181604484
 20
178.18488977452461
 40
1.825531472681392
  0
CIRCLE
  8
_0-a_極細3
  6
CONTINUOUS
 62
    7
 10
1100.1107578744695
 20
195.79026296997469
 40
0.5530864197530718
  0
CIRCLE
  8
_0-a_極細3
  6
CONTINUOUS
 62
    7
 10
1137.8211955849054
 20
193.27623378927896
 40
0.5530864197530718
  0
CIRCLE
  8
_0-a_極細3
  6
CONTINUOUS
 62
    7
 10
1172.4833729137488
 20
165.32337183641758
 40
0.5530864197530718
  0
CIRCLE
  8
_0-a_極細3
  6
CONTINUOUS
 62
    7
 10
1179.2712517016271
 20
194.36040887345385
 40
0.5530864197530718
  0
CIRCLE
  8
_0-a_極細3
  6
CONTINUOUS
 62
    7
 10
1174.1305857831819
 20
182.8875319561331
 40
0.5530864197530718
  0
CIRCLE
  8
_0-a_極細3
  6
CONTINUOUS
 62
    7
 10
510.71756670351647
 20
182.7146924499597
 40
0.5530864197530718
  0
CIRCLE
  8
_0-a_極細3
  6
CONTINUOUS
 62
    7
 10
534.09803808398817
 20
192.95936136129527
 40
0.5530864197530718
  0
CIRCLE
  8
_0-a_極細3
  6
CONTINUOUS
 62
    7
 10
587.89826255087917
 20
192.20515260708652
 40
0.5530864197530718
  0
CIRCLE
  8
_0-a_極細3
  6
CONTINUOUS
 62
    7
 10
623.91173056434729
 20
186.48573622100344
 40
0.5530864197530718
  0
CIRCLE
  8
_0-a_極細3
  6
CONTINUOUS
 62
    7
 10
927.2450638976801
 20
186.6978574331248
 40
0.5530864197530718
  0
CIRCLE
  8
_0-a_極細3
  6
CONTINUOUS
 62
    7
 10
966.69960935222548
 20
179.06149379676128
 40
0.5530864197530718
  0
CIRCLE
  8
_0-a_極細3
  6
CONTINUOUS
 62
    7
 10
1012.5177911704072
 20
195.60694834221579
 40
0.5530864197530718
  0
CIRCLE
  8
_0-a_極細3
  6
CONTINUOUS
 62
    7
 10
1046.8814275340433
 20
176.79886753413498
 40
0.5530864197530718
  0
CIRCLE
  8
_0-a_極細3
  6
CONTINUOUS
 62
    7
 10
1074.5985992512151
 20
186.41502915029662
 40
0.5530864197530718
  0
CIRCLE
  8
_0-a_極細3
  6
CONTINUOUS
 62
    7
 10
1090.861225513841
 20
176.79886753413498
 40
0.5530864197530718
  0
CIRCLE
  8
_0-a_極細3
  6
CONTINUOUS
 62
    7
 10
553.4874881401048
 20
180.19280692807442
 40
0.5530864197530718
  0
CIRCLE
  8
_0-a_極細3
  6
CONTINUOUS
 62
    7
 10
947.01002168488617
 20
194.24526681914847
 40
1.825531472681392
  0
CIRCLE
  8
_0-a_極細3
  6
CONTINUOUS
 62
    7
 10
1014.3231529980175
 20
176.709913283795
 40
1.825531472681392
  0
CIRCLE
  8
_0-a_極細3
  6
CONTINUOUS
 62
    7
 10
1061.7754537836513
 20
193.80531171252676
 40
1.825531472681392
  0
CIRCLE
  8
_0-a_極細3
  6
CONTINUOUS
 62
    7
 10
1100.742906084437
 20
167.94223651611821
 40
1.825531472681392
  0
CIRCLE
  8
_0-a_極細3
  6
CONTINUOUS
 62
    7
 10
642.27825961979124
 20
191.48769106157295
 40
1.825531472681392
  0
CIRCLE
  8
_0-a_極細3
  6
CONTINUOUS
 62
    7
 10
604.096441437973
 20
183.00284257672445
 40
1.825531472681392
  0
CIRCLE
  8
_0-a_極細3
  6
CONTINUOUS
 62
    7
 10
554.22438756591919
 20
194.34739925461429
 40
1.825531472681392
  0
CIRCLE
  8
_0-a_極細3
  6
CONTINUOUS
 62
    7
 10
535.87197454683951
 20
171.0926293331778
 40
1.825531472681392
  0
CIRCLE
  8
_0-a_極細3
  6
CONTINUOUS
 62
    7
 10
514.75412942899425
 20
193.34178758233605
 40
1.825531472681392
  0
LINE
  8
_0-a_極細3
  6
CENTER1
 62
    7
 10
793.54918976099498
 20
187.85518070889998
 11
793.54918976099498
 21
259.63851404224016
  0
LINE
  8
_0-a_極細3
  6
CONTINUOUS
 62
    7
 10
301.88495003792895
 20
192.37434352768346
 11
301.88495003792895
 21
124.04101019434997
  0
LINE
  8
_0-a_極細3
  6
CONTINUOUS
 62
    7
 10
301.88495003792895
 20
192.37434352768346
 11
271.04053622614788
 21
192.37434352768346
  0
LINE
  8
_0-a_極細3
  6
CONTINUOUS
 62
    7
 10
347.79630880627224
 20
97.799410016007471
 11
374.03790898461534
 21
124.04101019434997
  0
LINE
  8
_0-a_極細3
  6
CONTINUOUS
 62
    7
 10
277.08563090763136
 20
97.799410236020918
 11
303.32723086596047
 21
124.04101019434997
  0
LINE
  8
_0-a_極細3
  6
CONTINUOUS
 62
    7
 10
271.04053622614788
 20
162.46499367319223
 11
300.94988608063858
 21
192.37434352768346
  0
LINE
  8
_0-a_極細3
  6
CONTINUOUS
 62
    7
 10
340.72524101640806
 20
97.799410038008858
 11
366.9668411727497
 21
124.04101019434997
  0
LINE
  8
_0-a_極細3
  6
CONTINUOUS
 62
    7
 10
271.04053622614788
 20
98.825383366402946
 11
301.88495003792895
 21
129.66979717818424
  0
LINE
  8
_0-a_極細3
  6
CONTINUOUS
 62
    7
 10
271.04053622614788
 20
169.53606148505756
 11
293.87881826877287
 21
192.37434352768346
  0
LINE
  8
_0-a_極細3
  6
CONTINUOUS
 62
    7
 10
333.6541732265448
 20
97.799410060010246
 11
359.89577336088388
 21
124.04101019434997
  0
LINE
  8
_0-a_極細3
  6
CONTINUOUS
 62
    7
 10
271.04053622614788
 20
105.89645117826819
 11
301.88495003792895
 21
136.74086499004957
  0
LINE
  8
_0-a_極細3
  6
CONTINUOUS
 62
    7
 10
271.04053622614788
 20
176.60712929692329
 11
286.80775045690808
 21
192.37434352768346
  0
CIRCLE
  8
_0-a_極細3
  6
CONTINUOUS
 62
    7
 10
288.93642406931463
 20
207.57775394434304
 40
0.5530864197530718
  0
CIRCLE
  8
_0-a_極細3
  6
CONTINUOUS
 62
    7
 10
278.60555987178458
 20
197.62219838878778
 40
0.5530864197530718
  0
CIRCLE
  8
_0-a_極細3
  6
CONTINUOUS
 62
    7
 10
289.21296727919139
 20
198.68886505545433
 40
0.5530864197530718
  0
CIRCLE
  8
_0-a_極細3
  6
CONTINUOUS
 62
    7
 10
301.83518950141365
 20
200.6444206110101
 40
0.5530864197530718
  0
CIRCLE
  8
_0-a_極細3
  6
CONTINUOUS
 62
    7
 10
330.27963394585811
 20
212.37775394434323
 40
0.5530864197530718
  0
CIRCLE
  8
_0-a_極細3
  6
CONTINUOUS
 62
    7
 10
360.85741172363555
 20
206.15553172212103
 40
0.5530864197530718
  0
CIRCLE
  8
_0-a_極細3
  6
CONTINUOUS
 62
    7
 10
335.96852283474686
 20
205.62219838878775
 40
0.5530864197530718
  0
CIRCLE
  8
_0-a_極細3
  6
CONTINUOUS
 62
    7
 10
324.23518950141329
 20
220.55553172212072
 40
0.5530864197530718
  0
CIRCLE
  8
_0-a_極細3
  6
CONTINUOUS
 62
    7
 10
308.77963394585805
 20
193.38886505545418
 40
0.5530864197530718
  0
CIRCLE
  8
_0-a_極細3
  6
CONTINUOUS
 62
    7
 10
329.22407839030228
 20
192.1444206110101
 40
0.5530864197530718
  0
CIRCLE
  8
_0-a_極細3
  6
CONTINUOUS
 62
    7
 10
354.29074505696889
 20
188.41108727767653
 40
0.5530864197530718
  0
CIRCLE
  8
_0-a_極細3
  6
CONTINUOUS
 62
    7
 10
341.66852283474668
 20
182.72219838878769
 40
0.5530864197530718
  0
CIRCLE
  8
_0-a_極細3
  6
CONTINUOUS
 62
    7
 10
326.91296727919121
 20
169.21108727767674
 40
0.5530864197530718
  0
CIRCLE
  8
_0-a_極細3
  6
CONTINUOUS
 62
    7
 10
354.29074505696889
 20
176.49997616656549
 40
0.5530864197530718
  0
CIRCLE
  8
_0-a_極細3
  6
CONTINUOUS
 62
    7
 10
313.17963394585763
 20
149.38886505545463
 40
0.5530864197530718
  0
CIRCLE
  8
_0-a_極細3
  6
CONTINUOUS
 62
    7
 10
307.49074505696882
 20
131.43330949989931
 40
0.5530864197530718
  0
CIRCLE
  8
_0-a_極細3
  6
CONTINUOUS
 62
    7
 10
316.20185616808044
 20
138.18886505545478
 40
0.5530864197530718
  0
CIRCLE
  8
_0-a_極細3
  6
CONTINUOUS
 62
    7
 10
322.42407839030221
 20
129.65553172212154
 40
0.5530864197530718
  0
CIRCLE
  8
_0-a_極細3
  6
CONTINUOUS
 62
    7
 10
361.72407839030228
 20
147.54442061101065
 40
0.5530864197530718
  0
CIRCLE
  8
_0-a_極細3
  6
CONTINUOUS
 62
    7
 10
350.52407839030252
 20
142.03330949989925
 40
0.5530864197530718
  0
CIRCLE
  8
_0-a_極細3
  6
CONTINUOUS
 62
    7
 10
356.74630061252429
 20
139.54442061101062
 40
0.5530864197530718
  0
CIRCLE
  8
_0-a_極細3
  6
CONTINUOUS
 62
    7
 10
353.19074505696858
 20
130.29997616656615
 40
0.5530864197530718
  0
CIRCLE
  8
_0-a_極細3
  6
CONTINUOUS
 62
    7
 10
373.10185616808013
 20
131.3666428332327
 40
0.5530864197530718
  0
CIRCLE
  8
_0-a_極細3
  6
CONTINUOUS
 62
    7
 10
386.07963394585738
 20
134.56664283323255
 40
0.5530864197530718
  0
CIRCLE
  8
_0-a_極細3
  6
CONTINUOUS
 62
    7
 10
376.16852283474668
 20
148.31479098138075
 40
0.5530864197530718
  0
CIRCLE
  8
_0-a_極細3
  6
CONTINUOUS
 62
    7
 10
390.92407839030216
 20
182.44812431471394
 40
0.5530864197530718
  0
CIRCLE
  8
_0-a_極細3
  6
CONTINUOUS
 62
    7
 10
406.0351895014125
 20
172.49256875915819
 40
0.5530864197530718
  0
CIRCLE
  8
_0-a_極細3
  6
CONTINUOUS
 62
    7
 10
406.56852283474632
 20
154.5370132036029
 40
0.5530864197530718
  0
CIRCLE
  8
_0-a_極細3
  6
CONTINUOUS
 62
    7
 10
371.32407839030179
 20
184.27034653693602
 40
0.5530864197530718
  0
CIRCLE
  8
_0-a_極細3
  6
CONTINUOUS
 62
    7
 10
351.03518950141347
 20
206.25429715421987
 40
1.825531472681392
  0
CIRCLE
  8
_0-a_極細3
  6
CONTINUOUS
 62
    7
 10
299.27306979997837
 20
213.1839114289179
 40
1.825531472681392
  0
CIRCLE
  8
_0-a_極細3
  6
CONTINUOUS
 62
    7
 10
348.21296727919133
 20
173.32096382088693
 40
1.825531472681392
  0
CIRCLE
  8
_0-a_極細3
  6
CONTINUOUS
 62
    7
 10
325.81296727919096
 20
183.45429715422014
 40
1.825531472681392
  0
CIRCLE
  8
_0-a_極細3
  6
CONTINUOUS
 62
    7
 10
306.21296727919145
 20
145.4542971542206
 40
1.825531472681392
  0
CIRCLE
  8
_0-a_極細3
  6
CONTINUOUS
 62
    7
 10
359.41296727919024
 20
132.65429715422044
 40
1.825531472681392
  0
CIRCLE
  8
_0-a_極細3
  6
CONTINUOUS
 62
    7
 10
395.39074505696846
 20
129.05429715422054
 40
1.825531472681392
  0
CIRCLE
  8
_0-a_極細3
  6
CONTINUOUS
 62
    7
 10
279.07599025889863
 20
214.07651937644204
 40
1.825531472681392
  0
CIRCLE
  8
_0-a_極細3
  6
CONTINUOUS
 62
    7
 10
410.67222653844942
 20
128.34442061101038
 40
0.5530864197530718
  0
CIRCLE
  8
_0-a_極細3
  6
CONTINUOUS
 62
    7
 10
399.63518950140838
 20
163.94318604310968
 40
1.825531472681392
  0
CIRCLE
  8
_0-a_極細3
  6
CONTINUOUS
 62
    7
 10
338.73148579770969
 20
217.76540826532951
 40
1.825531472681392
  0
LINE
  8
_0-a_極細3
  6
CONTINUOUS
 62
    7
 10
324.91154848411014
 20
148.92271135685348
 11
319.78124633422499
 21
163.01810066864221
  0
LINE
  8
_0-a_極細3
  6
CONTINUOUS
 62
    7
 10
374.90559115790688
 20
183.08172136788826
 11
380.03589330779164
 21
168.98633205609974
  0
LINE
  8
_0-a_極細3
  6
CONTINUOUS
 62
    7
 10
319.78124633422499
 20
163.01810066864221
 11
374.90559115790688
 21
183.08172136788846
  0
LINE
  8
_0-a_極細3
  6
CONTINUOUS
 62
    7
 10
324.91154848411014
 20
148.92271135685348
 11
380.03589330779164
 21
168.98633205609974
  0
LINE
  8
_0-a_極細3
  6
CENTER1
 62
    7
 10
317.39096401717489
 20
154.166775972718
 11
381.42198449974074
 21
177.47216145775326
  0
LINE
  8
_0-a_極細3
  6
CONTINUOUS
 62
    7
 10
343.55161670459609
 20
124.04101019434997
 11
343.55161670459609
 21
168.12657154266603
  0
LINE
  8
_0-a_極細3
  6
CONTINUOUS
 62
    7
 10
343.55161670459609
 20
168.12657154266603
 11
328.55161670459609
 21
168.12657154266603
  0
LINE
  8
_0-a_極細3
  6
CONTINUOUS
 62
    7
 10
328.55161670459609
 20
168.12657154266603
 11
328.55161670459609
 21
124.04101019434997
  0
LINE
  8
_0-a_極細3
  6
CENTER1
 62
    7
 10
336.05161670459609
 20
115.76426990989702
 11
336.05161670459609
 21
172.40229170727559
  0
LINE
  8
_0-d_寸法3
  6
CONTINUOUS
 62
    7
 10
358.55161670459609
 20
199.04101019435004
 11
312.60158562600623
 21
199.04101019435004
  0
LINE
  8
_0-d_寸法3
  6
CONTINUOUS
 62
    7
 10
317.60158562600623
 20
199.04101019434995
 11
320.18977607703135
 21
189.38175193145923
  0
LINE
  8
_0-d_寸法3
  6
CONTINUOUS
 62
    7
 10
317.60158562600623
 20
199.04101019434995
 11
315.01339517498093
 21
189.38175193145929
  0
LINE
  8
_0-d_寸法3
  6
CONTINUOUS
 62
    7
 10
356.55161670459592
 20
160.70767686101647
 11
312.60158562600668
 21
160.70767686101647
  0
LINE
  8
_0-d_寸法3
  6
CONTINUOUS
 62
    7
 10
317.60158562600668
 20
160.70767686101647
 11
315.01339517498138
 21
170.36693512390713
  0
LINE
  8
_0-d_寸法3
  6
CONTINUOUS
 62
    7
 10
317.60158562600668
 20
160.70767686101647
 11
320.18977607703192
 21
170.36693512390713
  0
LINE
  8
_0-d_寸法3
  6
CONTINUOUS
 62
    7
 10
317.60158562600623
 20
199.04101019434995
 11
317.60158562600668
 21
160.70767686101647
  0
TEXT
  8
_0-d_寸法3
 62
    7
 10
317.60158562600623
 20
172.37434352768318
 40
15
 41
1
 50
90
  1
23
  0
CIRCLE
  8
_0-a_極細3
  6
CONTINUOUS
 62
    7
 10
441.43014869554349
 20
178.29487855118018
 40
1.825531472681392
  0
CIRCLE
  8
_0-a_極細3
  6
CONTINUOUS
 62
    7
 10
442.0743686730973
 20
152.73034431998008
 40
1.825531472681392
  0
CIRCLE
  8
_0-a_極細3
  6
CONTINUOUS
 62
    7
 10
429.38927909418481
 20
162.39295657266928
 40
0.5530864197530718
  0
CIRCLE
  8
_0-a_極細3
  6
CONTINUOUS
 62
    7
 10
448.74730378554233
 20
194.06972424943604
 40
0.5530864197530718
  0
CIRCLE
  8
_0-a_極細3
  6
CONTINUOUS
 62
    7
 10
460.94034531191647
 20
167.67241785213045
 40
0.5530864197530718
  0
CIRCLE
  8
_0-a_極細3
  6
CONTINUOUS
 62
    7
 10
463.95718032875152
 20
179.73975791947026
 40
0.5530864197530718
  0
CIRCLE
  8
_0-a_極細3
  6
CONTINUOUS
 62
    7
 10
355.16852283474662
 20
230.66664283323178
 40
0.5530864197530718
  0
LINE
  8
_0-a_極細3
  6
CONTINUOUS
 62
    7
 10
360.21828337126209
 20
245.70767686101675
 11
360.21828337126209
 21
234.04101019434975
  0
LINE
  8
_0-a_極細3
  6
CONTINUOUS
 62
    7
 10
360.21828337126209
 20
245.70767686101675
 11
271.04053622614788
 21
245.70767686101675
  0
LINE
  8
_0-a_極細3
  6
CONTINUOUS
 62
    7
 10
368.55161670459609
 20
234.04101019434975
 11
271.04053622614788
 21
234.04101019434975
  0
LINE
  8
_0-a_極細3
  6
CONTINUOUS
 62
    7
 10
368.55161670459609
 20
245.70767686101675
 11
360.21828337126209
 21
245.70767686101675
  0
LINE
  8
_0-a_極細3
  6
CONTINUOUS
 62
    7
 10
368.55161670459609
 20
244.87434352768318
 11
368.55161670459609
 21
245.70767686101675
  0
LINE
  8
_0-a_極細3
  6
CONTINUOUS
 62
    7
 10
368.35352644823587
 20
234.04101019434975
 11
368.55161670459506
 21
234.23910045070932
  0
LINE
  8
_0-a_極細3
  6
CONTINUOUS
 62
    7
 10
364.11088576111695
 20
234.04101019434975
 11
368.55161670459609
 21
238.48174113782846
  0
LINE
  8
_0-a_極細3
  6
CONTINUOUS
 62
    7
 10
360.21828337126209
 20
234.39104849161453
 11
368.55161670459609
 21
242.72438182494753
  0
LINE
  8
_0-a_極細3
  6
CONTINUOUS
 62
    7
 10
360.21828337126209
 20
238.63368917873359
 11
367.29227105354482
 21
245.70767686101675
  0
LINE
  8
_0-a_極細3
  6
CONTINUOUS
 62
    7
 10
360.21828337126209
 20
242.87632986585308
 11
363.04963036642562
 21
245.70767686101675
  0
LINE
  8
_0-a_極細3
  6
CONTINUOUS
 62
    7
 10
368.55161670459609
 20
243.42670998875781
 11
366.27064983233765
 21
245.70767686101675
  0
LINE
  8
_0-a_極細3
  6
CONTINUOUS
 62
    7
 10
368.55161670459609
 20
239.18406930163869
 11
362.0280091452176
 21
245.70767686101675
  0
LINE
  8
_0-a_極細3
  6
CONTINUOUS
 62
    7
 10
360.21828337126209
 20
243.27476194785262
 11
368.55161670459609
 21
234.94142861451962
  0
LINE
  8
_0-a_極細3
  6
CONTINUOUS
 62
    7
 10
360.21828337126209
 20
239.03212126073356
 11
365.20939443764547
 21
234.04101019434975
  0
LINE
  8
_0-a_極細3
  6
CONTINUOUS
 62
    7
 10
360.21828337126209
 20
234.78948057361407
 11
360.96675375052627
 21
234.04101019434975
  0
LINE
  8
_0-a_極細3
  6
CONTINUOUS
 62
    7
 10
351.38296369363132
 20
234.04101018822246
 11
360.21828337126209
 21
242.87632986585308
  0
LINE
  8
_0-a_極細3
  6
CONTINUOUS
 62
    7
 10
330.16976024332394
 20
234.04101017351138
 11
341.8364269308293
 21
245.70767686101624
  0
LINE
  8
_0-a_極細3
  6
CONTINUOUS
 62
    7
 10
308.95655679301655
 20
234.04101015879988
 11
320.62322349523299
 21
245.70767686101675
  0
LINE
  8
_0-a_極細3
  6
CONTINUOUS
 62
    7
 10
287.74335334270813
 20
234.0410101440888
 11
299.41002005963651
 21
245.70767686101675
  0
LINE
  8
_0-a_極細3
  6
CONTINUOUS
 62
    7
 10
271.04053622614788
 20
238.55139646312395
 11
278.19681662404008
 21
245.70767686101624
  0
LINE
  8
_0-a_極細3
  6
DASHED2
 62
    7
 10
340.77636196847806
 20
234.04101018086692
 11
352.44302864862743
 21
245.70767686101675
  0
LINE
  8
_0-a_極細3
  6
DASHED2
 62
    7
 10
319.56315851816981
 20
234.04101016615542
 11
331.22982521303101
 21
245.70767686101675
  0
LINE
  8
_0-a_極細3
  6
DASHED2
 62
    7
 10
298.34995506786231
 20
234.04101015144434
 11
310.01662177743469
 21
245.70767686101675
  0
LINE
  8
_0-a_極細3
  6
DASHED2
 62
    7
 10
277.13675161755486
 20
234.04101013673326
 11
288.80341834183838
 21
245.70767686101675
  0
LINE
  8
_0-d_寸法3
  6
CONTINUOUS
 62
    7
 10
358.55161670459609
 20
245.70767686101675
 11
312.60158562600623
 21
245.70767686101675
  0
LINE
  8
_0-d_寸法3
  6
CONTINUOUS
 62
    7
 10
317.60158562600623
 20
245.70767686101675
 11
320.18977607703135
 21
236.04841859812603
  0
LINE
  8
_0-d_寸法3
  6
CONTINUOUS
 62
    7
 10
317.60158562600623
 20
245.70767686101675
 11
315.01339517498093
 21
236.04841859812609
  0
LINE
  8
_0-d_寸法3
  6
CONTINUOUS
 62
    7
 10
356.55161670459592
 20
199.04101019435004
 11
312.60158562600623
 21
199.04101019435004
  0
LINE
  8
_0-d_寸法3
  6
CONTINUOUS
 62
    7
 10
317.60158562600623
 20
199.04101019434995
 11
315.01339517498093
 21
208.7002684572407
  0
LINE
  8
_0-d_寸法3
  6
CONTINUOUS
 62
    7
 10
317.60158562600623
 20
199.04101019434995
 11
320.18977607703135
 21
208.7002684572407
  0
LINE
  8
_0-d_寸法3
  6
CONTINUOUS
 62
    7
 10
317.60158562600623
 20
245.70767686101675
 11
317.60158562600623
 21
199.04101019434995
  0
TEXT
  8
_0-d_寸法3
 62
    7
 10
317.60158562600623
 20
214.87434352768346
 40
15
 41
1
 50
90
  1
28
  0
CIRCLE
  8
_0-a_極細3
  6
CONTINUOUS
 62
    7
 10
287.24880033772092
 20
227.51387775888446
 40
1.825531472681392
  0
CIRCLE
  8
_0-a_極細3
  6
CONTINUOUS
 62
    7
 10
277.08345336639172
 20
224.50555042769537
 40
0.5530864197530718
  0
CIRCLE
  8
_0-a_極細3
  6
CONTINUOUS
 62
    7
 10
328.82568706968897
 20
230.607830675385
 40
0.5530864197530718
  0
CIRCLE
  8
_0-a_極細3
  6
CONTINUOUS
 62
    7
 10
419.99751589030012
 20
183.05429715422051
 40
1.825531472681392
  0
LINE
  8
_0-d_寸法3
  6
CONTINUOUS
 62
    7
 10
368.5516167045958
 20
150.70767686101669
 11
368.55161670459552
 21
133.56298496011129
  0
LINE
  8
_0-d_寸法3
  6
CONTINUOUS
 62
    7
 10
368.55161670459552
 20
138.56298496011129
 11
378.21087496748618
 21
141.15117541113648
  0
LINE
  8
_0-d_寸法3
  6
CONTINUOUS
 62
    7
 10
368.55161670459552
 20
138.56298496011129
 11
378.21087496748618
 21
135.97479450908608
  0
LINE
  8
_0-d_寸法3
  6
CONTINUOUS
 62
    7
 10
418.5516167045958
 20
189.04101019434995
 11
418.55161670459501
 21
133.56298496011129
  0
LINE
  8
_0-d_寸法3
  6
CONTINUOUS
 62
    7
 10
418.55161670459506
 20
138.56298496011129
 11
408.89235844170429
 21
135.97479450908608
  0
LINE
  8
_0-d_寸法3
  6
CONTINUOUS
 62
    7
 10
418.55161670459506
 20
138.56298496011129
 11
408.89235844170446
 21
141.15117541113653
  0
LINE
  8
_0-d_寸法3
  6
CONTINUOUS
 62
    7
 10
368.55161670459552
 20
138.56298496011129
 11
418.55161670459506
 21
138.56298496011129
  0
TEXT
  8
_0-d_寸法3
 62
    7
 10
386.05161670459506
 20
138.56298496011129
 40
15
 41
1
 50
0
  1
30
  0
ARC
  8
_0-b_細線3
  6
CONTINUOUS
 62
    7
 10
373.55161670459609
 20
204.04101019434995
 40
5
 50
179.99999999999983
 51
269.99999999999977
  0
LINE
  8
_0-b_細線3
  6
CONTINUOUS
 62
    7
 10
368.55161670459609
 20
204.04101019434995
 11
368.55161670459609
 21
244.87434352768318
  0
LINE
  8
_0-b_細線3
  6
CONTINUOUS
 62
    7
 10
373.55161670459609
 20
199.04101019434995
 11
417.71828337126209
 21
199.04101019434995
  0
LINE
  8
_0-b_細線3
  6
CONTINUOUS
 62
    7
 10
418.55161670459603
 20
199.87434352768346
 11
417.71828337126209
 21
199.04101019434995
  0
LINE
  8
_0-b_細線3
  6
CONTINUOUS
 62
    7
 10
418.55161670459603
 20
203.20767686101647
 11
418.55161670459603
 21
199.87434352768346
  0
LINE
  8
_0-b_細線3
  6
CONTINUOUS
 62
    7
 10
417.71828337126209
 20
204.04101019434995
 11
418.55161670459603
 21
203.20767686101647
  0
LINE
  8
_0-b_細線3
  6
CONTINUOUS
 62
    7
 10
373.55161670459609
 20
204.04101019434995
 11
417.71828337126209
 21
204.04101019434995
  0
LINE
  8
_0-b_細線3
  6
CONTINUOUS
 62
    7
 10
369.38495003792895
 20
245.70767686101675
 11
368.55161670459609
 21
244.87434352768318
  0
LINE
  8
_0-b_細線3
  6
CONTINUOUS
 62
    7
 10
372.71828337126209
 20
245.70767686101675
 11
369.38495003792895
 21
245.70767686101675
  0
LINE
  8
_0-b_細線3
  6
CONTINUOUS
 62
    7
 10
373.55161670459609
 20
244.87434352768318
 11
372.71828337126209
 21
245.70767686101675
  0
LINE
  8
_0-b_細線3
  6
CONTINUOUS
 62
    7
 10
373.55161670459609
 20
204.04101019434995
 11
373.55161670459609
 21
244.87434352768318
  0
LINE
  8
_0-a_極細3
  6
CONTINUOUS
 62
    7
 10
1285.2158564276619
 20
192.37434352768346
 11
1285.2158564276619
 21
124.04101019434997
  0
LINE
  8
_0-a_極細3
  6
CONTINUOUS
 62
    7
 10
1285.2158564276619
 20
192.37434352768346
 11
1316.0602702394433
 21
192.37434352768346
  0
LINE
  8
_0-a_極細3
  6
CONTINUOUS
 62
    7
 10
1293.5058588422553
 20
97.799409899570833
 11
1316.0602702809838
 21
120.35382133829998
  0
LINE
  8
_0-a_極細3
  6
CONTINUOUS
 62
    7
 10
1222.7951807236002
 20
97.799409899570833
 11
1249.0367810183786
 21
124.04101019434997
  0
LINE
  8
_0-a_極細3
  6
CONTINUOUS
 62
    7
 10
1285.2158564276619
 20
160.22008560363261
 11
1316.0602702401989
 21
191.0644994161695
  0
LINE
  8
_0-a_極細3
  6
CONTINUOUS
 62
    7
 10
1286.4347910303895
 20
97.799409899570833
 11
1316.0602702769054
 21
127.42488914608671
  0
LINE
  8
_0-a_極細3
  6
CONTINUOUS
 62
    7
 10
1215.7241129117344
 20
97.799409899570833
 11
1241.9657132065138
 21
124.04101019434997
  0
LINE
  8
_0-a_極細3
  6
CONTINUOUS
 62
    7
 10
1285.2158564276619
 20
167.29115341549834
 11
1310.2990463602962
 21
192.37434334813287
  0
LINE
  8
_0-a_極細3
  6
CONTINUOUS
 62
    7
 10
1279.3637232185235
 20
97.799409899570833
 11
1316.0602702728263
 21
134.49595695387382
  0
LINE
  8
_0-a_極細3
  6
CONTINUOUS
 62
    7
 10
1208.6530450998687
 20
97.799409899570833
 11
1234.894645394648
 21
124.04101019434997
  0
LINE
  8
_0-a_極細3
  6
CONTINUOUS
 62
    7
 10
1285.2158564276619
 20
174.36222122736368
 11
1303.2279785990474
 21
192.37434339874895
  0
CIRCLE
  8
_0-a_極細3
  6
CONTINUOUS
 62
    7
 10
1188.2883181133659
 20
182.89534653693607
 40
0.5530864197530718
  0
CIRCLE
  8
_0-a_極細3
  6
CONTINUOUS
 62
    7
 10
1198.2438736689212
 20
187.69534653693626
 40
0.5530864197530718
  0
CIRCLE
  8
_0-a_極細3
  6
CONTINUOUS
 62
    7
 10
1194.1549847800327
 20
162.71756875915855
 40
0.5530864197530718
  0
CIRCLE
  8
_0-a_極細3
  6
CONTINUOUS
 62
    7
 10
1211.688318113366
 20
145.69534653693623
 40
0.5530864197530718
  0
CIRCLE
  8
_0-a_極細3
  6
CONTINUOUS
 62
    7
 10
1195.9883181133657
 20
134.39534653693647
 40
0.5530864197530718
  0
CIRCLE
  8
_0-a_極細3
  6
CONTINUOUS
 62
    7
 10
1209.8549847800321
 20
129.59534653693674
 40
0.5530864197530718
  0
CIRCLE
  8
_0-a_極細3
  6
CONTINUOUS
 62
    7
 10
1236.7883181133654
 20
129.86201320360317
 40
0.5530864197530718
  0
CIRCLE
  8
_0-a_極細3
  6
CONTINUOUS
 62
    7
 10
1224.7883181133654
 20
138.92867987026975
 40
0.5530864197530718
  0
CIRCLE
  8
_0-a_極細3
  6
CONTINUOUS
 62
    7
 10
1235.9883181133655
 20
144.52867987026968
 40
0.5530864197530718
  0
CIRCLE
  8
_0-a_極細3
  6
CONTINUOUS
 62
    7
 10
1226.4994292244762
 20
218.55090209249113
 40
0.5530864197530718
  0
CIRCLE
  8
_0-a_極細3
  6
CONTINUOUS
 62
    7
 10
1224.0105403355876
 20
198.81756875915798
 40
0.5530864197530718
  0
CIRCLE
  8
_0-a_極細3
  6
CONTINUOUS
 62
    7
 10
1244.5438736689209
 20
198.10645764804676
 40
0.5530864197530718
  0
CIRCLE
  8
_0-a_極細3
  6
CONTINUOUS
 62
    7
 10
1232.9438736689208
 20
184.10645764804727
 40
0.5530864197530718
  0
CIRCLE
  8
_0-a_極細3
  6
CONTINUOUS
 62
    7
 10
1272.1438736689204
 20
130.9064576480479
 40
0.5530864197530718
  0
CIRCLE
  8
_0-a_極細3
  6
CONTINUOUS
 62
    7
 10
1279.3438736689202
 20
144.90645764804739
 40
0.5530864197530718
  0
CIRCLE
  8
_0-a_極細3
  6
CONTINUOUS
 62
    7
 10
1277.7438736689203
 20
165.70645764804715
 40
0.5530864197530718
  0
CIRCLE
  8
_0-a_極細3
  6
CONTINUOUS
 62
    7
 10
1259.7438736689207
 20
186.906457648047
 40
0.5530864197530718
  0
CIRCLE
  8
_0-a_極細3
  6
CONTINUOUS
 62
    7
 10
1276.54387366892
 20
206.50645764804693
 40
0.5530864197530718
  0
CIRCLE
  8
_0-a_極細3
  6
CONTINUOUS
 62
    7
 10
1273.7438736689203
 20
179.70645764804715
 40
0.5530864197530718
  0
CIRCLE
  8
_0-a_極細3
  6
CONTINUOUS
 62
    7
 10
1303.3438736689204
 20
200.90645764804697
 40
0.5530864197530718
  0
CIRCLE
  8
_0-a_極細3
  6
CONTINUOUS
 62
    7
 10
1298.5438736689202
 20
214.67651937644192
 40
1.825531472681392
  0
CIRCLE
  8
_0-a_極細3
  6
CONTINUOUS
 62
    7
 10
1282.8994292244759
 20
199.20985270977567
 40
1.825531472681392
  0
CIRCLE
  8
_0-a_極細3
  6
CONTINUOUS
 62
    7
 10
1227.4772070022545
 20
205.7876304875532
 40
1.825531472681392
  0
CIRCLE
  8
_0-a_極細3
  6
CONTINUOUS
 62
    7
 10
1259.4772070022534
 20
173.78763048755366
 40
1.825531472681392
  0
CIRCLE
  8
_0-a_極細3
  6
CONTINUOUS
 62
    7
 10
1189.0827625578106
 20
129.2376304875539
 40
1.825531472681392
  0
CIRCLE
  8
_0-a_極細3
  6
CONTINUOUS
 62
    7
 10
1199.3049847800326
 20
159.10429715422026
 40
1.825531472681392
  0
CIRCLE
  8
_0-a_極細3
  6
CONTINUOUS
 62
    7
 10
1234.5049847800317
 20
136.7042971542206
 40
1.825531472681392
  0
CIRCLE
  8
_0-a_極細3
  6
CONTINUOUS
 62
    7
 10
1280.7701774153154
 20
126.51724476225091
 40
1.825531472681392
  0
CIRCLE
  8
_0-a_極細3
  6
CONTINUOUS
 62
    7
 10
1230.1049847800321
 20
179.90429715421996
 40
1.825531472681392
  0
CIRCLE
  8
_0-a_極細3
  6
CONTINUOUS
 62
    7
 10
1182.6389353973168
 20
174.48109174718383
 40
0.5530864197530718
  0
CIRCLE
  8
_0-a_極細3
  6
CONTINUOUS
 62
    7
 10
1182.8389353973173
 20
150.5255361916285
 40
0.5530864197530718
  0
CIRCLE
  8
_0-a_極細3
  6
CONTINUOUS
 62
    7
 10
1259.7438736689207
 20
217.57312431471348
 40
0.5530864197530718
  0
LINE
  8
_0-a_極細3
  6
CONTINUOUS
 62
    7
 10
1262.1892579814801
 20
148.92271135685348
 11
1267.3195601313655
 21
163.01810066864221
  0
LINE
  8
_0-a_極細3
  6
CONTINUOUS
 62
    7
 10
1212.1952153076843
 20
183.08172136788826
 11
1207.0649131577991
 21
168.98633205609974
  0
LINE
  8
_0-a_極細3
  6
CONTINUOUS
 62
    7
 10
1267.3195601313655
 20
163.01810066864221
 11
1212.1952153076843
 21
183.08172136788846
  0
LINE
  8
_0-a_極細3
  6
CONTINUOUS
 62
    7
 10
1262.1892579814801
 20
148.92271135685348
 11
1207.0649131577991
 21
168.98633205609974
  0
LINE
  8
_0-a_極細3
  6
CENTER1
 62
    7
 10
1269.7098424484154
 20
154.166775972718
 11
1205.6788219658501
 21
177.47216145775326
  0
LINE
  8
_0-a_極細3
  6
CONTINUOUS
 62
    7
 10
1243.5491897609952
 20
124.04101019434997
 11
1243.5491897609952
 21
168.12657154266603
  0
LINE
  8
_0-a_極細3
  6
CONTINUOUS
 62
    7
 10
1258.5491897609952
 20
168.12657154266603
 11
1258.5491897609952
 21
124.04101019434997
  0
LINE
  8
_0-a_極細3
  6
CENTER1
 62
    7
 10
1251.0491897609952
 20
115.76426990989702
 11
1251.0491897609952
 21
172.40229170727559
  0
LINE
  8
_0-a_極細3
  6
CONTINUOUS
 62
    7
 10
1243.5491897609952
 20
168.12657154266603
 11
1258.5491897609952
 21
168.12657154266603
  0
CIRCLE
  8
_0-a_極細3
  6
CONTINUOUS
 62
    7
 10
1266.6419075052261
 20
175.63494415925027
 40
0.5530864197530718
  0
CIRCLE
  8
_0-a_極細3
  6
CONTINUOUS
 62
    7
 10
1247.0419075052266
 20
181.23494415925023
 40
0.5530864197530718
  0
CIRCLE
  8
_0-a_極細3
  6
CONTINUOUS
 62
    7
 10
1132.1662178237464
 20
159.70677529641065
 40
1.825531472681392
  0
CIRCLE
  8
_0-a_極細3
  6
CONTINUOUS
 62
    7
 10
1126.8867565442849
 20
192.89196048159482
 40
1.825531472681392
  0
CIRCLE
  8
_0-a_極細3
  6
CONTINUOUS
 62
    7
 10
1150.7965042268777
 20
148.10227194865149
 40
0.5530864197530718
  0
CIRCLE
  8
_0-a_極細3
  6
CONTINUOUS
 62
    7
 10
1152.3049217352952
 20
183.04727756032293
 40
0.5530864197530718
  0
CIRCLE
  8
_0-a_極細3
  6
CONTINUOUS
 62
    7
 10
1158.5899946870347
 20
198.13145264449744
 40
0.5530864197530718
  0
CIRCLE
  8
_0-a_極細3
  6
CONTINUOUS
 62
    7
 10
1122.6393774030846
 20
175.25378710016582
 40
0.5530864197530718
  0
CIRCLE
  8
_0-a_極細3
  6
CONTINUOUS
 62
    7
 10
1158.5899946870347
 20
163.68925286896541
 40
0.5530864197530718
  0
CIRCLE
  8
_0-a_極細3
  6
CONTINUOUS
 62
    7
 10
1136.6760403286362
 20
171.47226820753588
 40
0.5530864197530718
  0
CIRCLE
  8
_0-a_極細3
  6
CONTINUOUS
 62
    7
 10
1290.54387366892
 20
230.97312431471337
 40
0.5530864197530718
  0
CIRCLE
  8
_0-a_極細3
  6
CONTINUOUS
 62
    7
 10
1238.5438736689209
 20
231.90645764804671
 40
0.5530864197530718
  0
LINE
  8
_0-a_極細3
  6
CONTINUOUS
 62
    7
 10
1226.8825230943282
 20
245.70767686101675
 11
1226.8825230943282
 21
234.04101019434975
  0
LINE
  8
_0-a_極細3
  6
CONTINUOUS
 62
    7
 10
1226.8825230943282
 20
245.70767686101675
 11
1316.0602702394433
 21
245.70767686101675
  0
LINE
  8
_0-a_極細3
  6
CONTINUOUS
 62
    7
 10
1218.5491897609952
 20
234.04101019434975
 11
1316.0602702394433
 21
234.04101019434975
  0
LINE
  8
_0-a_極細3
  6
CONTINUOUS
 62
    7
 10
1218.5491897609952
 20
245.70767686101675
 11
1226.8825230943282
 21
245.70767686101675
  0
LINE
  8
_0-a_極細3
  6
CONTINUOUS
 62
    7
 10
1218.5491897609952
 20
244.87434352768318
 11
1218.5491897609952
 21
245.70767686101675
  0
LINE
  8
_0-a_極細3
  6
CONTINUOUS
 62
    7
 10
1226.8825230943282
 20
237.71009647507469
 11
1223.2134368136037
 21
234.04101019434975
  0
LINE
  8
_0-a_極細3
  6
CONTINUOUS
 62
    7
 10
1226.8825230943282
 20
241.95273716219376
 11
1218.9707961264846
 21
234.04101019434975
  0
LINE
  8
_0-a_極細3
  6
CONTINUOUS
 62
    7
 10
1218.5491897609952
 20
237.86204451597982
 11
1226.3948221060316
 21
245.70767686101675
  0
LINE
  8
_0-a_極細3
  6
CONTINUOUS
 62
    7
 10
1218.5491897609952
 20
242.10468520309894
 11
1222.1521814189125
 21
245.70767686101624
  0
LINE
  8
_0-a_極細3
  6
CONTINUOUS
 62
    7
 10
1226.8825230943282
 20
244.1983546515111
 11
1225.3732008848226
 21
245.70767686101675
  0
LINE
  8
_0-a_極細3
  6
CONTINUOUS
 62
    7
 10
1226.8825230943282
 20
239.95571396439152
 11
1221.1305601977035
 21
245.70767686101675
  0
LINE
  8
_0-a_極細3
  6
CONTINUOUS
 62
    7
 10
1226.8825230943282
 20
235.7130732772724
 11
1218.5491897609952
 21
244.04640661060597
  0
LINE
  8
_0-a_極細3
  6
CONTINUOUS
 62
    7
 10
1224.3119454901314
 20
234.04101019434975
 11
1218.5491897609952
 21
239.80376592348634
  0
LINE
  8
_0-a_極細3
  6
CONTINUOUS
 62
    7
 10
1220.0693048030123
 20
234.04101019434975
 11
1218.5491897609952
 21
235.56112523636727
  0
LINE
  8
_0-a_極細3
  6
CONTINUOUS
 62
    7
 10
1295.3383284946315
 20
234.04101019434975
 11
1307.0049945345088
 21
245.70767623422753
  0
LINE
  8
_0-a_極細3
  6
CONTINUOUS
 62
    7
 10
1274.1251250590346
 20
234.04101019434975
 11
1285.7917912648618
 21
245.70767640017621
  0
LINE
  8
_0-a_極細3
  6
CONTINUOUS
 62
    7
 10
1252.9119216234383
 20
234.04101019434975
 11
1264.5785879952134
 21
245.70767656612446
  0
LINE
  8
_0-a_極細3
  6
CONTINUOUS
 62
    7
 10
1231.6987181878421
 20
234.04101019434975
 11
1243.3653847255653
 21
245.70767673207314
  0
LINE
  8
_0-a_極細3
  6
DASHED2
 62
    7
 10
1305.9449302124301
 20
234.04101019434975
 11
1316.0602702394433
 21
244.15635022136343
  0
LINE
  8
_0-a_極細3
  6
DASHED2
 62
    7
 10
1284.7317267768331
 20
234.04101019434975
 11
1296.3983928996854
 21
245.70767631720159
  0
LINE
  8
_0-a_極細3
  6
DASHED2
 62
    7
 10
1263.5185233412365
 20
234.04101019434975
 11
1275.1851896300375
 21
245.70767648315027
  0
LINE
  8
_0-a_極細3
  6
DASHED2
 62
    7
 10
1242.3053199056401
 20
234.04101019434975
 11
1253.9719863603893
 21
245.70767664909852
  0
LINE
  8
_0-a_極細3
  6
DASHED2
 62
    7
 10
1226.8825230943282
 20
239.8314168186343
 11
1232.7587830907414
 21
245.70767681504719
  0
CIRCLE
  8
_0-a_極細3
  6
CONTINUOUS
 62
    7
 10
1259.877207002254
 20
229.57877651573639
 40
1.825531472681392
  0
CIRCLE
  8
_0-a_極細3
  6
CONTINUOUS
 62
    7
 10
1166.2002522697444
 20
158.98423542582498
 40
0.5530864197530718
  0
CIRCLE
  8
_0-a_極細3
  6
CONTINUOUS
 62
    7
 10
1166.8679477429951
 20
185.68207493199827
 40
1.825531472681392
  0
LINE
  8
_0-d_寸法3
  6
CONTINUOUS
 62
    7
 10
1218.5491897609952
 20
150.70767686101669
 11
1218.5491897609952
 21
133.56298496011129
  0
LINE
  8
_0-d_寸法3
  6
CONTINUOUS
 62
    7
 10
1218.5491897609952
 20
138.56298496011129
 11
1208.8899314981045
 21
135.97479450908608
  0
LINE
  8
_0-d_寸法3
  6
CONTINUOUS
 62
    7
 10
1218.5491897609952
 20
138.56298496011129
 11
1208.8899314981045
 21
141.15117541113648
  0
LINE
  8
_0-d_寸法3
  6
CONTINUOUS
 62
    7
 10
1168.5491897609952
 20
189.04101019434995
 11
1168.5491897609957
 21
133.56298496011129
  0
LINE
  8
_0-d_寸法3
  6
CONTINUOUS
 62
    7
 10
1168.5491897609957
 20
138.56298496011129
 11
1178.2084480238864
 21
141.15117541113653
  0
LINE
  8
_0-d_寸法3
  6
CONTINUOUS
 62
    7
 10
1168.5491897609957
 20
138.56298496011129
 11
1178.2084480238864
 21
135.97479450908608
  0
LINE
  8
_0-d_寸法3
  6
CONTINUOUS
 62
    7
 10
1218.5491897609952
 20
138.56298496011129
 11
1168.5491897609957
 21
138.56298496011129
  0
TEXT
  8
_0-d_寸法3
 62
    7
 10
1186.0491897609952
 20
138.56298496011129
 40
15
 41
1
 50
0.0000000000002714
  1
30
  0
ARC
  8
_0-b_細線3
  6
CONTINUOUS
 62
    7
 10
1213.5491897609952
 20
204.04101019434995
 40
5
 50
269.99999999999977
 51
359.99999999999966
  0
LINE
  8
_0-b_細線3
  6
CONTINUOUS
 62
    7
 10
1218.5491897609952
 20
204.04101019434995
 11
1218.5491897609952
 21
244.87434352768318
  0
LINE
  8
_0-b_細線3
  6
CONTINUOUS
 62
    7
 10
1213.5491897609952
 20
199.04101019434995
 11
1169.3825230943278
 21
199.04101019434995
  0
LINE
  8
_0-b_細線3
  6
CONTINUOUS
 62
    7
 10
1168.5491897609945
 20
199.87434352768346
 11
1169.3825230943278
 21
199.04101019434995
  0
LINE
  8
_0-b_細線3
  6
CONTINUOUS
 62
    7
 10
1168.5491897609945
 20
203.20767686101647
 11
1168.5491897609945
 21
199.87434352768346
  0
LINE
  8
_0-b_細線3
  6
CONTINUOUS
 62
    7
 10
1169.3825230943278
 20
204.04101019434995
 11
1168.5491897609945
 21
203.20767686101647
  0
LINE
  8
_0-b_細線3
  6
CONTINUOUS
 62
    7
 10
1213.5491897609952
 20
204.04101019434995
 11
1169.3825230943278
 21
204.04101019434995
  0
LINE
  8
_0-b_細線3
  6
CONTINUOUS
 62
    7
 10
1217.7158564276622
 20
245.70767686101675
 11
1218.5491897609952
 21
244.87434352768318
  0
LINE
  8
_0-b_細線3
  6
CONTINUOUS
 62
    7
 10
1214.3825230943282
 20
245.70767686101675
 11
1217.7158564276622
 21
245.70767686101675
  0
LINE
  8
_0-b_細線3
  6
CONTINUOUS
 62
    7
 10
1213.5491897609952
 20
244.87434352768318
 11
1214.3825230943282
 21
245.70767686101675
  0
LINE
  8
_0-b_細線3
  6
CONTINUOUS
 62
    7
 10
1213.5491897609952
 20
204.04101019434995
 11
1213.5491897609952
 21
244.87434352768318
  0
LINE
  8
_0-d_寸法3
  6
CONTINUOUS
 62
    7
 10
418.55161670459603
 20
194.04101019434995
 11
418.55161670459603
 21
133.56298496011107
  0
LINE
  8
_0-d_寸法3
  6
CONTINUOUS
 62
    7
 10
418.55161670459603
 20
138.56298496011107
 11
428.21087496748669
 21
141.15117541113625
  0
LINE
  8
_0-d_寸法3
  6
CONTINUOUS
 62
    7
 10
418.55161670459603
 20
138.56298496011107
 11
428.21087496748669
 21
135.97479450908588
  0
LINE
  8
_0-d_寸法3
  6
CONTINUOUS
 62
    7
 10
1168.5491897609945
 20
194.04101019434995
 11
1168.5491897609945
 21
133.56298496011107
  0
LINE
  8
_0-d_寸法3
  6
CONTINUOUS
 62
    7
 10
1168.5491897609945
 20
138.56298496011107
 11
1158.8899314981036
 21
135.97479450908588
  0
LINE
  8
_0-d_寸法3
  6
CONTINUOUS
 62
    7
 10
1168.5491897609945
 20
138.56298496011107
 11
1158.8899314981036
 21
141.15117541113634
  0
LINE
  8
_0-d_寸法3
  6
CONTINUOUS
 62
    7
 10
418.55161670459603
 20
138.56298496011107
 11
1168.5491897609945
 21
138.56298496011107
  0
TEXT
  8
_0-d_寸法3
 62
    7
 10
782.30040323279525
 20
138.56298496011107
 40
15
 41
1
 50
0
  1
450
  0
LINE
  8
_0-a_極細3
  6
CONTINUOUS
 62
    7
 10
417.71828337126209
 20
204.04101019434995
 11
1169.3825230943278
 21
204.04101019434995
  0
LINE
  8
_0-a_極細3
  6
CENTER1
 62
    7
 10
1216.6694643897217
 20
226.70763976301643
 11
366.89762426005501
 21
226.70763976301643
  0
ARC
  8
_0-b_細線3
  6
CONTINUOUS
 62
    7
 10
1192.8825230980076
 20
242.37434352768304
 40
1.6666666666666674
 50
89.999999999999915
 51
179.99999999999983
  0
ARC
  8
_0-b_細線3
  6
CONTINUOUS
 62
    7
 10
1193.662438416887
 20
245.70767686101519
 40
1.6666666666666674
 50
269.99999999999977
 51
330.0000000000145
  0
ARC
  8
_0-b_細線3
  6
CONTINUOUS
 62
    7
 10
1196.5491897628349
 20
244.04101019435004
 40
1.6666666666666674
 50
89.999999999999915
 51
150.0000000000266
  0
LINE
  8
_0-b_細線3
  6
CONTINUOUS
 62
    7
 10
1192.8825230980076
 20
244.04101019435004
 11
1193.662438416887
 21
244.04101019435004
  0
ARC
  8
_0-b_細線3
  6
CONTINUOUS
 62
    7
 10
1208.5491897609954
 20
242.37434352768304
 40
1.6666666666666674
 50
0
 51
89.999999999999915
  0
ARC
  8
_0-b_細線3
  6
CONTINUOUS
 62
    7
 10
1207.7692744421161
 20
245.70767686101519
 40
1.6666666666666674
 50
209.99999999998869
 51
269.99999999999977
  0
ARC
  8
_0-b_細線3
  6
CONTINUOUS
 62
    7
 10
1204.8825230961684
 20
244.04101019435004
 40
1.6666666666666674
 50
29.999999999969511
 51
89.999999999999915
  0
LINE
  8
_0-b_細線3
  6
CONTINUOUS
 62
    7
 10
1208.5491897609954
 20
244.04101019435004
 11
1207.7692744421161
 21
244.04101019435004
  0
ARC
  8
_0-b_細線3
  6
CONTINUOUS
 62
    7
 10
1192.0491897646741
 20
240.04101019434998
 40
0.8333333333333337
 50
179.99999999999983
 51
269.99999999999977
  0
LINE
  8
_0-b_細線3
  6
CONTINUOUS
 62
    7
 10
1191.2158564313415
 20
242.37434352768304
 11
1191.2158564313415
 21
240.04101019434998
  0
ARC
  8
_0-b_細線3
  6
CONTINUOUS
 62
    7
 10
1209.3825230943294
 20
240.04101019434998
 40
0.8333333333333337
 50
269.99999999999977
 51
359.99999999999966
  0
LINE
  8
_0-b_細線3
  6
CONTINUOUS
 62
    7
 10
1210.2158564276619
 20
242.37434352768304
 11
1210.2158564276619
 21
240.04101019434998
  0
ARC
  8
_0-b_細線3
  6
CONTINUOUS
 62
    7
 10
1196.2158564313406
 20
237.54101019435026
 40
1.6666666666666674
 50
0
 51
89.999999999999915
  0
LINE
  8
_0-b_細線3
  6
CONTINUOUS
 62
    7
 10
1196.2158564313406
 20
239.20767686101541
 11
1192.0491897646741
 21
239.20767686101541
  0
ARC
  8
_0-b_細線3
  6
CONTINUOUS
 62
    7
 10
1205.2158564313411
 20
237.54101019435026
 40
1.6666666666666674
 50
89.999999999999915
 51
179.99999999999983
  0
LINE
  8
_0-b_細線3
  6
CONTINUOUS
 62
    7
 10
1205.2158564276624
 20
239.20767686101541
 11
1209.3825230943294
 21
239.20767686101541
  0
LINE
  8
_0-b_細線3
  6
CONTINUOUS
 62
    7
 10
1204.8825230961684
 20
245.70767686101519
 11
1196.5491897628349
 21
245.70767686101519
  0
LINE
  8
_0-b_細線3
  6
CONTINUOUS
 62
    7
 10
1197.8825230961679
 20
204.04064519267209
 11
1197.8825230980078
 21
237.54101019435026
  0
LINE
  8
_0-b_細線3
  6
CONTINUOUS
 62
    7
 10
1203.5491897628351
 20
204.04064519267209
 11
1203.549189764675
 21
237.54101019435026
  0
LINE
  8
_0-b_細線3
  6
CONTINUOUS
 62
    7
 10
1203.5491897628351
 20
204.04064519267209
 11
1197.8825230961679
 21
204.04064519267209
  0
ARC
  8
_0-b_細線3
  6
CONTINUOUS
 62
    7
 10
394.21585642398281
 20
242.37434352768304
 40
1.6666666666666674
 50
0
 51
89.999999999999915
  0
ARC
  8
_0-b_細線3
  6
CONTINUOUS
 62
    7
 10
393.43594110510338
 20
245.70767686101519
 40
1.6666666666666674
 50
209.99999999997698
 51
269.99999999999977
  0
ARC
  8
_0-b_細線3
  6
CONTINUOUS
 62
    7
 10
390.54918975915541
 20
244.04101019435004
 40
1.6666666666666674
 50
29.999999999977327
 51
89.999999999999901
  0
LINE
  8
_0-b_細線3
  6
CONTINUOUS
 62
    7
 10
394.21585642398281
 20
244.04101019435004
 11
393.43594110510338
 21
244.04101019435004
  0
ARC
  8
_0-b_細線3
  6
CONTINUOUS
 62
    7
 10
378.54918976099441
 20
242.37434352768304
 40
1.6666666666666674
 50
89.999999999999915
 51
179.99999999999983
  0
ARC
  8
_0-b_細線3
  6
CONTINUOUS
 62
    7
 10
379.32910507987373
 20
245.70767686101519
 40
1.6666666666666674
 50
269.99999999999977
 51
330.00000000002234
  0
ARC
  8
_0-b_細線3
  6
CONTINUOUS
 62
    7
 10
382.21585642582198
 20
244.04101019435004
 40
1.6666666666666674
 50
90.000000000015632
 51
150.0000000000266
  0
LINE
  8
_0-b_細線3
  6
CONTINUOUS
 62
    7
 10
378.54918976099441
 20
244.04101019435004
 11
379.32910507987373
 21
244.04101019435004
  0
ARC
  8
_0-b_細線3
  6
CONTINUOUS
 62
    7
 10
395.04918975731641
 20
240.04101019434998
 40
0.8333333333333337
 50
269.99999999999977
 51
359.99999999999966
  0
LINE
  8
_0-b_細線3
  6
CONTINUOUS
 62
    7
 10
395.88252309064899
 20
242.37434352768304
 11
395.88252309064899
 21
240.04101019434998
  0
ARC
  8
_0-b_細線3
  6
CONTINUOUS
 62
    7
 10
377.71585642766081
 20
240.04101019434998
 40
0.8333333333333337
 50
179.99999999999983
 51
269.99999999999977
  0
LINE
  8
_0-b_細線3
  6
CONTINUOUS
 62
    7
 10
376.88252309432823
 20
242.37434352768304
 11
376.88252309432823
 21
240.04101019434998
  0
ARC
  8
_0-b_細線3
  6
CONTINUOUS
 62
    7
 10
390.8825230906491
 20
237.54101019435026
 40
1.6666666666666674
 50
89.999999999999915
 51
179.99999999999983
  0
LINE
  8
_0-b_細線3
  6
CONTINUOUS
 62
    7
 10
390.8825230906491
 20
239.20767686101541
 11
395.04918975731641
 21
239.20767686101541
  0
ARC
  8
_0-b_細線3
  6
CONTINUOUS
 62
    7
 10
381.88252309064933
 20
237.54101019435026
 40
1.6666666666666674
 50
0
 51
89.999999999999915
  0
LINE
  8
_0-b_細線3
  6
CONTINUOUS
 62
    7
 10
381.88252309432784
 20
239.20767686101541
 11
377.71585642766081
 21
239.20767686101541
  0
LINE
  8
_0-b_細線3
  6
CONTINUOUS
 62
    7
 10
382.21585642582198
 20
245.70767686101519
 11
390.54918975915541
 21
245.70767686101519
  0
LINE
  8
_0-b_細線3
  6
CONTINUOUS
 62
    7
 10
389.21585642582187
 20
204.04064519267209
 11
389.21585642398242
 21
237.54101019435026
  0
LINE
  8
_0-b_細線3
  6
CONTINUOUS
 62
    7
 10
383.54918975915524
 20
204.04064519267209
 11
383.5491897573155
 21
237.54101019435026
  0
LINE
  8
_0-b_細線3
  6
CONTINUOUS
 62
    7
 10
383.54918975915524
 20
204.04064519267209
 11
389.21585642582187
 21
204.04064519267209
  0
LINE
  8
_0-b_細線3
  6
CONTINUOUS
 62
    7
 10
1203.5491897637551
 20
215.87430642968357
 11
1203.5491897637551
 21
237.54097309634943
  0
LINE
  8
_0-b_細線3
  6
CONTINUOUS
 62
    7
 10
383.54918975823534
 20
237.54097309634943
 11
383.54918975823534
 21
215.87430642968357
  0
ARC
  8
_0-b_細線3
  6
CONTINUOUS
 62
    7
 10
408.21585642674063
 20
242.37434352768304
 40
1.6666666666666674
 50
89.999999999999915
 51
179.99999999999983
  0
ARC
  8
_0-b_細線3
  6
CONTINUOUS
 62
    7
 10
408.99577174562012
 20
245.70767686101519
 40
1.6666666666666674
 50
269.99999999999977
 51
330.00000000002626
  0
ARC
  8
_0-b_細線3
  6
CONTINUOUS
 62
    7
 10
411.88252309156837
 20
244.04101019435004
 40
1.6666666666666674
 50
89.999999999999915
 51
150.00000000002268
  0
LINE
  8
_0-b_細線3
  6
CONTINUOUS
 62
    7
 10
408.21585642674063
 20
244.04101019435004
 11
408.99577174562012
 21
244.04101019435004
  0
ARC
  8
_0-b_細線3
  6
CONTINUOUS
 62
    7
 10
423.88252308972852
 20
242.37434352768304
 40
1.6666666666666674
 50
0
 51
89.999999999999915
  0
ARC
  8
_0-b_細線3
  6
CONTINUOUS
 62
    7
 10
423.10260777085006
 20
245.70767686101519
 40
1.6666666666666674
 50
209.99999999996916
 51
269.99999999999977
  0
ARC
  8
_0-b_細線3
  6
CONTINUOUS
 62
    7
 10
420.21585642490123
 20
244.04101019435004
 40
1.6666666666666674
 50
29.999999999973422
 51
89.999999999976566
  0
LINE
  8
_0-b_細線3
  6
CONTINUOUS
 62
    7
 10
423.88252308972852
 20
244.04101019435004
 11
423.10260777085006
 21
244.04101019435004
  0
ARC
  8
_0-b_細線3
  6
CONTINUOUS
 62
    7
 10
407.38252309340692
 20
240.04101019434998
 40
0.8333333333333337
 50
179.99999999999983
 51
269.99999999999977
  0
LINE
  8
_0-b_細線3
  6
CONTINUOUS
 62
    7
 10
406.54918976007434
 20
242.37434352768304
 11
406.54918976007434
 21
240.04101019434998
  0
ARC
  8
_0-b_細線3
  6
CONTINUOUS
 62
    7
 10
424.71585642306195
 20
240.04101019434998
 40
0.8333333333333337
 50
269.99999999999977
 51
359.99999999999966
  0
LINE
  8
_0-b_細線3
  6
CONTINUOUS
 62
    7
 10
425.54918975639544
 20
242.37434352768304
 11
425.54918975639544
 21
240.04101019434998
  0
ARC
  8
_0-b_細線3
  6
CONTINUOUS
 62
    7
 10
411.54918976007434
 20
237.54101019435026
 40
1.6666666666666674
 50
0
 51
89.999999999999915
  0
LINE
  8
_0-b_細線3
  6
CONTINUOUS
 62
    7
 10
411.54918976007434
 20
239.20767686101541
 11
407.38252309340692
 21
239.20767686101541
  0
ARC
  8
_0-b_細線3
  6
CONTINUOUS
 62
    7
 10
420.54918976007411
 20
237.54101019435026
 40
1.6666666666666674
 50
89.999999999999915
 51
179.99999999999983
  0
LINE
  8
_0-b_細線3
  6
CONTINUOUS
 62
    7
 10
420.54918975639544
 20
239.20767686101541
 11
424.71585642306195
 21
239.20767686101541
  0
LINE
  8
_0-b_細線3
  6
CONTINUOUS
 62
    7
 10
420.21585642490123
 20
245.70767686101519
 11
411.88252309156837
 21
245.70767686101519
  0
LINE
  8
_0-b_細線3
  6
CONTINUOUS
 62
    7
 10
413.21585642490192
 20
204.04064519267209
 11
413.21585642674086
 21
237.54101019435026
  0
LINE
  8
_0-b_細線3
  6
CONTINUOUS
 62
    7
 10
418.8825230915682
 20
204.04064519267209
 11
418.88252309340783
 21
237.54101019435026
  0
LINE
  8
_0-b_細線3
  6
CONTINUOUS
 62
    7
 10
418.8825230915682
 20
204.04064519267209
 11
413.21585642490192
 21
204.04064519267209
  0
ARC
  8
_0-b_細線3
  6
CONTINUOUS
 62
    7
 10
785.71585642735897
 20
242.37434352768304
 40
1.6666666666666674
 50
89.999999999999915
 51
179.99999999999983
  0
ARC
  8
_0-b_細線3
  6
CONTINUOUS
 62
    7
 10
786.49577174623846
 20
245.70767686101519
 40
1.6666666666666674
 50
269.99999999999977
 51
330.00000000002819
  0
ARC
  8
_0-b_細線3
  6
CONTINUOUS
 62
    7
 10
789.38252309218672
 20
244.04101019435004
 40
1.6666666666666674
 50
89.999999999999915
 51
150.00000000001876
  0
LINE
  8
_0-b_細線3
  6
CONTINUOUS
 62
    7
 10
785.71585642735897
 20
244.04101019435004
 11
786.49577174623846
 21
244.04101019435004
  0
ARC
  8
_0-b_細線3
  6
CONTINUOUS
 62
    7
 10
801.38252309034726
 20
242.37434352768304
 40
1.6666666666666674
 50
0
 51
89.999999999999915
  0
ARC
  8
_0-b_細線3
  6
CONTINUOUS
 62
    7
 10
800.602607771468
 20
245.70767686101519
 40
1.6666666666666674
 50
209.99999999997891
 51
269.99999999999977
  0
ARC
  8
_0-b_細線3
  6
CONTINUOUS
 62
    7
 10
797.71585642551952
 20
244.04101019435004
 40
1.6666666666666674
 50
29.999999999971468
 51
89.999999999984368
  0
LINE
  8
_0-b_細線3
  6
CONTINUOUS
 62
    7
 10
801.38252309034726
 20
244.04101019435004
 11
800.602607771468
 21
244.04101019435004
  0
ARC
  8
_0-b_細線3
  6
CONTINUOUS
 62
    7
 10
784.88252309402583
 20
240.04101019434998
 40
0.8333333333333337
 50
179.99999999999983
 51
269.99999999999977
  0
LINE
  8
_0-b_細線3
  6
CONTINUOUS
 62
    7
 10
784.0491897606928
 20
242.37434352768304
 11
784.0491897606928
 21
240.04101019434998
  0
ARC
  8
_0-b_細線3
  6
CONTINUOUS
 62
    7
 10
802.21585642368098
 20
240.04101019434998
 40
0.8333333333333337
 50
269.99999999999977
 51
359.99999999999966
  0
LINE
  8
_0-b_細線3
  6
CONTINUOUS
 62
    7
 10
803.04918975701401
 20
242.37434352768304
 11
803.04918975701401
 21
240.04101019434998
  0
ARC
  8
_0-b_細線3
  6
CONTINUOUS
 62
    7
 10
789.04918976069268
 20
237.54101019435026
 40
1.6666666666666674
 50
0
 51
89.999999999999915
  0
LINE
  8
_0-b_細線3
  6
CONTINUOUS
 62
    7
 10
789.04918976069268
 20
239.20767686101541
 11
784.88252309402583
 21
239.20767686101541
  0
ARC
  8
_0-b_細線3
  6
CONTINUOUS
 62
    7
 10
798.04918976069246
 20
237.54101019435026
 40
1.6666666666666674
 50
89.999999999999915
 51
179.99999999999983
  0
LINE
  8
_0-b_細線3
  6
CONTINUOUS
 62
    7
 10
798.04918975701366
 20
239.20767686101541
 11
802.21585642368098
 21
239.20767686101541
  0
LINE
  8
_0-b_細線3
  6
CONTINUOUS
 62
    7
 10
797.71585642551952
 20
245.70767686101519
 11
789.38252309218672
 21
245.70767686101519
  0
LINE
  8
_0-b_細線3
  6
CONTINUOUS
 62
    7
 10
790.71585642551986
 20
204.04064519267209
 11
790.71585642735909
 21
237.54101019435026
  0
LINE
  8
_0-b_細線3
  6
CONTINUOUS
 62
    7
 10
796.3825230921866
 20
204.04064519267209
 11
796.38252309402628
 21
237.54101019435026
  0
LINE
  8
_0-b_細線3
  6
CONTINUOUS
 62
    7
 10
796.3825230921866
 20
204.04064519267209
 11
790.71585642551986
 21
204.04064519267209
  0
ARC
  8
_0-b_細線3
  6
CONTINUOUS
 62
    7
 10
756.71585642675586
 20
242.37434352768304
 40
1.6666666666666674
 50
89.999999999999915
 51
179.99999999999983
  0
ARC
  8
_0-b_細線3
  6
CONTINUOUS
 62
    7
 10
757.49577174563512
 20
245.70767686101519
 40
1.6666666666666674
 50
269.99999999999977
 51
330.00000000002041
  0
ARC
  8
_0-b_細線3
  6
CONTINUOUS
 62
    7
 10
760.38252309158349
 20
244.04101019435004
 40
1.6666666666666674
 50
89.999999999999915
 51
150.00000000002854
  0
LINE
  8
_0-b_細線3
  6
CONTINUOUS
 62
    7
 10
756.71585642675586
 20
244.04101019435004
 11
757.49577174563512
 21
244.04101019435004
  0
ARC
  8
_0-b_細線3
  6
CONTINUOUS
 62
    7
 10
772.38252308974461
 20
242.37434352768304
 40
1.6666666666666674
 50
0
 51
89.999999999999915
  0
ARC
  8
_0-b_細線3
  6
CONTINUOUS
 62
    7
 10
771.60260777086535
 20
245.70767686101519
 40
1.6666666666666674
 50
209.99999999996916
 51
269.99999999999977
  0
ARC
  8
_0-b_細線3
  6
CONTINUOUS
 62
    7
 10
768.71585642491698
 20
244.04101019435004
 40
1.6666666666666674
 50
29.999999999981238
 51
89.999999999999915
  0
LINE
  8
_0-b_細線3
  6
CONTINUOUS
 62
    7
 10
772.38252308974461
 20
244.04101019435004
 11
771.60260777086535
 21
244.04101019435004
  0
ARC
  8
_0-b_細線3
  6
CONTINUOUS
 62
    7
 10
755.88252309342283
 20
240.04101019434998
 40
0.8333333333333337
 50
179.99999999999983
 51
269.99999999999977
  0
LINE
  8
_0-b_細線3
  6
CONTINUOUS
 62
    7
 10
755.04918976008912
 20
242.37434352768304
 11
755.04918976008912
 21
240.04101019434998
  0
ARC
  8
_0-b_細線3
  6
CONTINUOUS
 62
    7
 10
773.21585642307764
 20
240.04101019434998
 40
0.8333333333333337
 50
269.99999999999977
 51
359.99999999999966
  0
LINE
  8
_0-b_細線3
  6
CONTINUOUS
 62
    7
 10
774.04918975641124
 20
242.37434352768304
 11
774.04918975641124
 21
240.04101019434998
  0
ARC
  8
_0-b_細線3
  6
CONTINUOUS
 62
    7
 10
760.04918976008935
 20
237.54101019435026
 40
1.6666666666666674
 50
0
 51
89.999999999999915
  0
LINE
  8
_0-b_細線3
  6
CONTINUOUS
 62
    7
 10
760.04918976008935
 20
239.20767686101541
 11
755.88252309342283
 21
239.20767686101541
  0
ARC
  8
_0-b_細線3
  6
CONTINUOUS
 62
    7
 10
769.04918976008935
 20
237.54101019435026
 40
1.6666666666666674
 50
89.999999999999915
 51
179.99999999999983
  0
LINE
  8
_0-b_細線3
  6
CONTINUOUS
 62
    7
 10
769.04918975641056
 20
239.20767686101541
 11
773.21585642307764
 21
239.20767686101541
  0
LINE
  8
_0-b_細線3
  6
CONTINUOUS
 62
    7
 10
768.71585642491698
 20
245.70767686101519
 11
760.38252309158349
 21
245.70767686101519
  0
LINE
  8
_0-b_細線3
  6
CONTINUOUS
 62
    7
 10
761.71585642491709
 20
204.04064519267209
 11
761.71585642675598
 21
237.54101019435026
  0
LINE
  8
_0-b_細線3
  6
CONTINUOUS
 62
    7
 10
767.38252309158327
 20
204.04064519267209
 11
767.38252309342261
 21
237.54101019435026
  0
LINE
  8
_0-b_細線3
  6
CONTINUOUS
 62
    7
 10
767.38252309158327
 20
204.04064519267209
 11
761.71585642491709
 21
204.04064519267209
  0
ARC
  8
_0-b_細線3
  6
CONTINUOUS
 62
    7
 10
727.7158564261531
 20
242.37434352768304
 40
1.6666666666666674
 50
89.999999999999915
 51
179.99999999999983
  0
ARC
  8
_0-b_細線3
  6
CONTINUOUS
 62
    7
 10
728.49577174503247
 20
245.70767686101519
 40
1.6666666666666674
 50
269.99999999999977
 51
330.00000000002041
  0
ARC
  8
_0-b_細線3
  6
CONTINUOUS
 62
    7
 10
731.38252309098095
 20
244.04101019435004
 40
1.6666666666666674
 50
89.999999999999915
 51
150.00000000002854
  0
LINE
  8
_0-b_細線3
  6
CONTINUOUS
 62
    7
 10
727.7158564261531
 20
244.04101019435004
 11
728.49577174503247
 21
244.04101019435004
  0
ARC
  8
_0-b_細線3
  6
CONTINUOUS
 62
    7
 10
743.38252308914093
 20
242.37434352768304
 40
1.6666666666666674
 50
0
 51
89.999999999999915
  0
ARC
  8
_0-b_細線3
  6
CONTINUOUS
 62
    7
 10
742.60260777026201
 20
245.70767686101519
 40
1.6666666666666674
 50
209.99999999997112
 51
269.99999999999977
  0
ARC
  8
_0-b_細線3
  6
CONTINUOUS
 62
    7
 10
739.71585642431364
 20
244.04101019435004
 40
1.6666666666666674
 50
29.999999999979281
 51
89.999999999984368
  0
LINE
  8
_0-b_細線3
  6
CONTINUOUS
 62
    7
 10
743.38252308914093
 20
244.04101019435004
 11
742.60260777026201
 21
244.04101019435004
  0
ARC
  8
_0-b_細線3
  6
CONTINUOUS
 62
    7
 10
726.8825230928195
 20
240.04101019434998
 40
0.8333333333333337
 50
179.99999999999983
 51
269.99999999999977
  0
LINE
  8
_0-b_細線3
  6
CONTINUOUS
 62
    7
 10
726.04918975948647
 20
242.37434352768304
 11
726.04918975948647
 21
240.04101019434998
  0
ARC
  8
_0-b_細線3
  6
CONTINUOUS
 62
    7
 10
744.21585642247453
 20
240.04101019434998
 40
0.8333333333333337
 50
269.99999999999977
 51
359.99999999999966
  0
LINE
  8
_0-b_細線3
  6
CONTINUOUS
 62
    7
 10
745.04918975580813
 20
242.37434352768304
 11
745.04918975580813
 21
240.04101019434998
  0
ARC
  8
_0-b_細線3
  6
CONTINUOUS
 62
    7
 10
731.04918975948681
 20
237.54101019435026
 40
1.6666666666666674
 50
0
 51
89.999999999999915
  0
LINE
  8
_0-b_細線3
  6
CONTINUOUS
 62
    7
 10
731.04918975948681
 20
239.20767686101541
 11
726.8825230928195
 21
239.20767686101541
  0
ARC
  8
_0-b_細線3
  6
CONTINUOUS
 62
    7
 10
740.04918975948658
 20
237.54101019435026
 40
1.6666666666666674
 50
89.999999999999915
 51
179.99999999999983
  0
LINE
  8
_0-b_細線3
  6
CONTINUOUS
 62
    7
 10
740.04918975580779
 20
239.20767686101541
 11
744.21585642247453
 21
239.20767686101541
  0
LINE
  8
_0-b_細線3
  6
CONTINUOUS
 62
    7
 10
739.71585642431364
 20
245.70767686101519
 11
731.38252309098095
 21
245.70767686101519
  0
LINE
  8
_0-b_細線3
  6
CONTINUOUS
 62
    7
 10
732.71585642431387
 20
204.04064519267209
 11
732.71585642615321
 21
237.54101019435026
  0
LINE
  8
_0-b_細線3
  6
CONTINUOUS
 62
    7
 10
738.38252309098061
 20
204.04064519267209
 11
738.38252309281995
 21
237.54101019435026
  0
LINE
  8
_0-b_細線3
  6
CONTINUOUS
 62
    7
 10
738.38252309098061
 20
204.04064519267209
 11
732.71585642431387
 21
204.04064519267209
  0
ARC
  8
_0-b_細線3
  6
CONTINUOUS
 62
    7
 10
814.71585642643959
 20
242.37434352768304
 40
1.6666666666666674
 50
89.999999999999915
 51
179.99999999999983
  0
ARC
  8
_0-b_細線3
  6
CONTINUOUS
 62
    7
 10
815.49577174531862
 20
245.70767686101519
 40
1.6666666666666674
 50
269.99999999999977
 51
330.00000000003018
  0
ARC
  8
_0-b_細線3
  6
CONTINUOUS
 62
    7
 10
818.38252309126688
 20
244.04101019435004
 40
1.6666666666666674
 50
89.999999999999915
 51
150.00000000001876
  0
LINE
  8
_0-b_細線3
  6
CONTINUOUS
 62
    7
 10
814.71585642643959
 20
244.04101019435004
 11
815.49577174531862
 21
244.04101019435004
  0
ARC
  8
_0-b_細線3
  6
CONTINUOUS
 62
    7
 10
830.38252308942765
 20
242.37434352768304
 40
1.6666666666666674
 50
0
 51
89.999999999999915
  0
ARC
  8
_0-b_細線3
  6
CONTINUOUS
 62
    7
 10
829.60260777054816
 20
245.70767686101519
 40
1.6666666666666674
 50
209.99999999998087
 51
269.99999999999977
  0
ARC
  8
_0-b_細線3
  6
CONTINUOUS
 62
    7
 10
826.71585642459991
 20
244.04101019435004
 40
1.6666666666666674
 50
29.999999999971468
 51
89.999999999968736
  0
LINE
  8
_0-b_細線3
  6
CONTINUOUS
 62
    7
 10
830.38252308942765
 20
244.04101019435004
 11
829.60260777054816
 21
244.04101019435004
  0
ARC
  8
_0-b_細線3
  6
CONTINUOUS
 62
    7
 10
813.8825230931061
 20
240.04101019434998
 40
0.8333333333333337
 50
179.99999999999983
 51
269.99999999999977
  0
LINE
  8
_0-b_細線3
  6
CONTINUOUS
 62
    7
 10
813.04918975977318
 20
242.37434352768304
 11
813.04918975977318
 21
240.04101019434998
  0
ARC
  8
_0-b_細線3
  6
CONTINUOUS
 62
    7
 10
831.21585642276102
 20
240.04101019434998
 40
0.8333333333333337
 50
269.99999999999977
 51
359.99999999999966
  0
LINE
  8
_0-b_細線3
  6
CONTINUOUS
 62
    7
 10
832.04918975609417
 20
242.37434352768304
 11
832.04918975609417
 21
240.04101019434998
  0
ARC
  8
_0-b_細線3
  6
CONTINUOUS
 62
    7
 10
818.0491897597733
 20
237.54101019435026
 40
1.6666666666666674
 50
0
 51
89.999999999999915
  0
LINE
  8
_0-b_細線3
  6
CONTINUOUS
 62
    7
 10
818.0491897597733
 20
239.20767686101541
 11
813.8825230931061
 21
239.20767686101541
  0
ARC
  8
_0-b_細線3
  6
CONTINUOUS
 62
    7
 10
827.04918975977307
 20
237.54101019435026
 40
1.6666666666666674
 50
89.999999999999915
 51
179.99999999999983
  0
LINE
  8
_0-b_細線3
  6
CONTINUOUS
 62
    7
 10
827.04918975609405
 20
239.20767686101541
 11
831.21585642276102
 21
239.20767686101541
  0
LINE
  8
_0-b_細線3
  6
CONTINUOUS
 62
    7
 10
826.71585642459991
 20
245.70767686101519
 11
818.38252309126688
 21
245.70767686101519
  0
LINE
  8
_0-b_細線3
  6
CONTINUOUS
 62
    7
 10
819.71585642460002
 20
204.04064519267209
 11
819.71585642643947
 21
237.54101019435026
  0
LINE
  8
_0-b_細線3
  6
CONTINUOUS
 62
    7
 10
825.38252309126676
 20
204.04064519267209
 11
825.38252309310667
 21
237.54101019435026
  0
LINE
  8
_0-b_細線3
  6
CONTINUOUS
 62
    7
 10
825.38252309126676
 20
204.04064519267209
 11
819.71585642460002
 21
204.04064519267209
  0
ARC
  8
_0-b_細線3
  6
CONTINUOUS
 62
    7
 10
843.71585642551986
 20
242.37434352768304
 40
1.6666666666666674
 50
89.999999999999915
 51
179.99999999999983
  0
ARC
  8
_0-b_細線3
  6
CONTINUOUS
 62
    7
 10
844.49577174439924
 20
245.70767686101519
 40
1.6666666666666674
 50
269.99999999999977
 51
330.00000000002041
  0
ARC
  8
_0-b_細線3
  6
CONTINUOUS
 62
    7
 10
847.3825230903476
 20
244.04101019435004
 40
1.6666666666666674
 50
89.999999999999915
 51
150.00000000002854
  0
LINE
  8
_0-b_細線3
  6
CONTINUOUS
 62
    7
 10
843.71585642551986
 20
244.04101019435004
 11
844.49577174439924
 21
244.04101019435004
  0
ARC
  8
_0-b_細線3
  6
CONTINUOUS
 62
    7
 10
859.38252308850792
 20
242.37434352768304
 40
1.6666666666666674
 50
0
 51
89.999999999999915
  0
ARC
  8
_0-b_細線3
  6
CONTINUOUS
 62
    7
 10
858.60260776962832
 20
245.70767686101519
 40
1.6666666666666674
 50
209.99999999997891
 51
269.99999999999977
  0
ARC
  8
_0-b_細線3
  6
CONTINUOUS
 62
    7
 10
855.71585642368063
 20
244.04101019435004
 40
1.6666666666666674
 50
29.999999999981238
 51
89.999999999984368
  0
LINE
  8
_0-b_細線3
  6
CONTINUOUS
 62
    7
 10
859.38252308850792
 20
244.04101019435004
 11
858.60260776962832
 21
244.04101019435004
  0
ARC
  8
_0-b_細線3
  6
CONTINUOUS
 62
    7
 10
842.88252309218649
 20
240.04101019434998
 40
0.8333333333333337
 50
179.99999999999983
 51
269.99999999999977
  0
LINE
  8
_0-b_細線3
  6
CONTINUOUS
 62
    7
 10
842.04918975885334
 20
242.37434352768304
 11
842.04918975885334
 21
240.04101019434998
  0
ARC
  8
_0-b_細線3
  6
CONTINUOUS
 62
    7
 10
860.21585642184141
 20
240.04101019434998
 40
0.8333333333333337
 50
269.99999999999977
 51
359.99999999999966
  0
LINE
  8
_0-b_細線3
  6
CONTINUOUS
 62
    7
 10
861.04918975517433
 20
242.37434352768304
 11
861.04918975517433
 21
240.04101019434998
  0
ARC
  8
_0-b_細線3
  6
CONTINUOUS
 62
    7
 10
847.04918975885346
 20
237.54101019435026
 40
1.6666666666666674
 50
0
 51
89.999999999999915
  0
LINE
  8
_0-b_細線3
  6
CONTINUOUS
 62
    7
 10
847.04918975885346
 20
239.20767686101541
 11
842.88252309218649
 21
239.20767686101541
  0
ARC
  8
_0-b_細線3
  6
CONTINUOUS
 62
    7
 10
856.04918975885334
 20
237.54101019435026
 40
1.6666666666666674
 50
89.999999999999915
 51
179.99999999999983
  0
LINE
  8
_0-b_細線3
  6
CONTINUOUS
 62
    7
 10
856.04918975517478
 20
239.20767686101541
 11
860.21585642184141
 21
239.20767686101541
  0
LINE
  8
_0-b_細線3
  6
CONTINUOUS
 62
    7
 10
855.71585642368063
 20
245.70767686101519
 11
847.3825230903476
 21
245.70767686101519
  0
LINE
  8
_0-b_細線3
  6
CONTINUOUS
 62
    7
 10
848.71585642368018
 20
204.04064519267209
 11
848.7158564255202
 21
237.54101019435026
  0
LINE
  8
_0-b_細線3
  6
CONTINUOUS
 62
    7
 10
854.38252309034738
 20
204.04064519267209
 11
854.38252309218683
 21
237.54101019435026
  0
LINE
  8
_0-b_細線3
  6
CONTINUOUS
 62
    7
 10
854.38252309034738
 20
204.04064519267209
 11
848.71585642368018
 21
204.04064519267209
  0
ARC
  8
_0-b_細線3
  6
CONTINUOUS
 62
    7
 10
872.71585642460025
 20
242.37434352768304
 40
1.6666666666666674
 50
89.999999999999915
 51
179.99999999999983
  0
ARC
  8
_0-b_細線3
  6
CONTINUOUS
 62
    7
 10
873.49577174347951
 20
245.70767686101519
 40
1.6666666666666674
 50
269.99999999999977
 51
330.00000000002041
  0
ARC
  8
_0-b_細線3
  6
CONTINUOUS
 62
    7
 10
876.38252308942799
 20
244.04101019435004
 40
1.6666666666666674
 50
89.999999999999915
 51
150.00000000002854
  0
LINE
  8
_0-b_細線3
  6
CONTINUOUS
 62
    7
 10
872.71585642460025
 20
244.04101019435004
 11
873.49577174347951
 21
244.04101019435004
  0
ARC
  8
_0-b_細線3
  6
CONTINUOUS
 62
    7
 10
888.38252308758854
 20
242.37434352768304
 40
1.6666666666666674
 50
0
 51
89.999999999999915
  0
ARC
  8
_0-b_細線3
  6
CONTINUOUS
 62
    7
 10
887.60260776870905
 20
245.70767686101519
 40
1.6666666666666674
 50
209.99999999997112
 51
269.99999999999977
  0
ARC
  8
_0-b_細線3
  6
CONTINUOUS
 62
    7
 10
884.71585642276068
 20
244.04101019435004
 40
1.6666666666666674
 50
29.999999999979281
 51
89.999999999984368
  0
LINE
  8
_0-b_細線3
  6
CONTINUOUS
 62
    7
 10
888.38252308758854
 20
244.04101019435004
 11
887.60260776870905
 21
244.04101019435004
  0
ARC
  8
_0-b_細線3
  6
CONTINUOUS
 62
    7
 10
871.8825230912671
 20
240.04101019434998
 40
0.8333333333333337
 50
179.99999999999983
 51
269.99999999999977
  0
LINE
  8
_0-b_細線3
  6
CONTINUOUS
 62
    7
 10
871.0491897579335
 20
242.37434352768304
 11
871.0491897579335
 21
240.04101019434998
  0
ARC
  8
_0-b_細線3
  6
CONTINUOUS
 62
    7
 10
889.21585642092214
 20
240.04101019434998
 40
0.8333333333333337
 50
269.99999999999977
 51
359.99999999999966
  0
LINE
  8
_0-b_細線3
  6
CONTINUOUS
 62
    7
 10
890.04918975425471
 20
242.37434352768304
 11
890.04918975425471
 21
240.04101019434998
  0
ARC
  8
_0-b_細線3
  6
CONTINUOUS
 62
    7
 10
876.04918975793385
 20
237.54101019435026
 40
1.6666666666666674
 50
0
 51
89.999999999999915
  0
LINE
  8
_0-b_細線3
  6
CONTINUOUS
 62
    7
 10
876.04918975793385
 20
239.20767686101541
 11
871.8825230912671
 21
239.20767686101541
  0
ARC
  8
_0-b_細線3
  6
CONTINUOUS
 62
    7
 10
885.04918975793373
 20
237.54101019435026
 40
1.6666666666666674
 50
89.999999999999915
 51
179.99999999999983
  0
LINE
  8
_0-b_細線3
  6
CONTINUOUS
 62
    7
 10
885.04918975425483
 20
239.20767686101541
 11
889.21585642092214
 21
239.20767686101541
  0
LINE
  8
_0-b_細線3
  6
CONTINUOUS
 62
    7
 10
884.71585642276068
 20
245.70767686101519
 11
876.38252308942799
 21
245.70767686101519
  0
LINE
  8
_0-b_細線3
  6
CONTINUOUS
 62
    7
 10
877.71585642276091
 20
204.04064519267209
 11
877.71585642460025
 21
237.54101019435026
  0
LINE
  8
_0-b_細線3
  6
CONTINUOUS
 62
    7
 10
883.38252308942765
 20
204.04064519267209
 11
883.38252309126699
 21
237.54101019435026
  0
LINE
  8
_0-b_細線3
  6
CONTINUOUS
 62
    7
 10
883.38252308942765
 20
204.04064519267209
 11
877.71585642276091
 21
204.04064519267209
  0
ARC
  8
_0-b_細線3
  6
CONTINUOUS
 62
    7
 10
901.71585642368086
 20
242.37434352768304
 40
1.6666666666666674
 50
89.999999999999915
 51
179.99999999999983
  0
ARC
  8
_0-b_細線3
  6
CONTINUOUS
 62
    7
 10
902.4957717425599
 20
245.70767686101519
 40
1.6666666666666674
 50
269.99999999999977
 51
330.00000000002819
  0
ARC
  8
_0-b_細線3
  6
CONTINUOUS
 62
    7
 10
905.38252308850815
 20
244.04101019435004
 40
1.6666666666666674
 50
89.999999999999915
 51
150.00000000001876
  0
LINE
  8
_0-b_細線3
  6
CONTINUOUS
 62
    7
 10
901.71585642368086
 20
244.04101019435004
 11
902.4957717425599
 21
244.04101019435004
  0
ARC
  8
_0-b_細線3
  6
CONTINUOUS
 62
    7
 10
917.3825230866687
 20
242.37434352768304
 40
1.6666666666666674
 50
0
 51
89.999999999999915
  0
ARC
  8
_0-b_細線3
  6
CONTINUOUS
 62
    7
 10
916.60260776778944
 20
245.70767686101519
 40
1.6666666666666674
 50
209.99999999997112
 51
269.99999999999977
  0
ARC
  8
_0-b_細線3
  6
CONTINUOUS
 62
    7
 10
913.71585642184095
 20
244.04101019435004
 40
1.6666666666666674
 50
29.999999999979281
 51
89.999999999984368
  0
LINE
  8
_0-b_細線3
  6
CONTINUOUS
 62
    7
 10
917.3825230866687
 20
244.04101019435004
 11
916.60260776778944
 21
244.04101019435004
  0
ARC
  8
_0-b_細線3
  6
CONTINUOUS
 62
    7
 10
900.88252309034726
 20
240.04101019434998
 40
0.8333333333333337
 50
179.99999999999983
 51
269.99999999999977
  0
LINE
  8
_0-b_細線3
  6
CONTINUOUS
 62
    7
 10
900.04918975701389
 20
242.37434352768304
 11
900.04918975701389
 21
240.04101019434998
  0
ARC
  8
_0-b_細線3
  6
CONTINUOUS
 62
    7
 10
918.2158564200023
 20
240.04101019434998
 40
0.8333333333333337
 50
269.99999999999977
 51
359.99999999999966
  0
LINE
  8
_0-b_細線3
  6
CONTINUOUS
 62
    7
 10
919.04918975333544
 20
242.37434352768304
 11
919.04918975333544
 21
240.04101019434998
  0
ARC
  8
_0-b_細線3
  6
CONTINUOUS
 62
    7
 10
905.04918975701401
 20
237.54101019435026
 40
1.6666666666666674
 50
0
 51
89.999999999999915
  0
LINE
  8
_0-b_細線3
  6
CONTINUOUS
 62
    7
 10
905.04918975701401
 20
239.20767686101541
 11
900.88252309034726
 21
239.20767686101541
  0
ARC
  8
_0-b_細線3
  6
CONTINUOUS
 62
    7
 10
914.04918975701435
 20
237.54101019435026
 40
1.6666666666666674
 50
89.999999999999915
 51
179.99999999999983
  0
LINE
  8
_0-b_細線3
  6
CONTINUOUS
 62
    7
 10
914.04918975333521
 20
239.20767686101541
 11
918.2158564200023
 21
239.20767686101541
  0
LINE
  8
_0-b_細線3
  6
CONTINUOUS
 62
    7
 10
913.71585642184095
 20
245.70767686101519
 11
905.38252308850815
 21
245.70767686101519
  0
LINE
  8
_0-b_細線3
  6
CONTINUOUS
 62
    7
 10
906.71585642184129
 20
204.04064519267209
 11
906.71585642368063
 21
237.54101019435026
  0
LINE
  8
_0-b_細線3
  6
CONTINUOUS
 62
    7
 10
912.38252308850804
 20
204.04064519267209
 11
912.38252309034738
 21
237.54101019435026
  0
LINE
  8
_0-b_細線3
  6
CONTINUOUS
 62
    7
 10
912.38252308850804
 20
204.04064519267209
 11
906.71585642184129
 21
204.04064519267209
  0
ARC
  8
_0-b_細線3
  6
CONTINUOUS
 62
    7
 10
930.71585642276102
 20
242.37434352768304
 40
1.6666666666666674
 50
89.999999999999915
 51
179.99999999999983
  0
ARC
  8
_0-b_細線3
  6
CONTINUOUS
 62
    7
 10
931.49577174164051
 20
245.70767686101519
 40
1.6666666666666674
 50
269.99999999999977
 51
330.00000000002041
  0
ARC
  8
_0-b_細線3
  6
CONTINUOUS
 62
    7
 10
934.38252308758831
 20
244.04101019435004
 40
1.6666666666666674
 50
89.999999999999915
 51
150.00000000002072
  0
LINE
  8
_0-b_細線3
  6
CONTINUOUS
 62
    7
 10
930.71585642276102
 20
244.04101019435004
 11
931.49577174164051
 21
244.04101019435004
  0
ARC
  8
_0-b_細線3
  6
CONTINUOUS
 62
    7
 10
946.38252308574909
 20
242.37434352768304
 40
1.6666666666666674
 50
0
 51
89.999999999999915
  0
ARC
  8
_0-b_細線3
  6
CONTINUOUS
 62
    7
 10
945.6026077668696
 20
245.70767686101519
 40
1.6666666666666674
 50
209.99999999997891
 51
269.99999999999977
  0
ARC
  8
_0-b_細線3
  6
CONTINUOUS
 62
    7
 10
942.7158564209218
 20
244.04101019435004
 40
1.6666666666666674
 50
29.999999999979281
 51
89.999999999999915
  0
LINE
  8
_0-b_細線3
  6
CONTINUOUS
 62
    7
 10
946.38252308574909
 20
244.04101019435004
 11
945.6026077668696
 21
244.04101019435004
  0
ARC
  8
_0-b_細線3
  6
CONTINUOUS
 62
    7
 10
929.88252308942765
 20
240.04101019434998
 40
0.8333333333333337
 50
179.99999999999983
 51
269.99999999999977
  0
LINE
  8
_0-b_細線3
  6
CONTINUOUS
 62
    7
 10
929.04918975609462
 20
242.37434352768304
 11
929.04918975609462
 21
240.04101019434998
  0
ARC
  8
_0-b_細線3
  6
CONTINUOUS
 62
    7
 10
947.21585641908246
 20
240.04101019434998
 40
0.8333333333333337
 50
269.99999999999977
 51
359.99999999999966
  0
LINE
  8
_0-b_細線3
  6
CONTINUOUS
 62
    7
 10
948.04918975241549
 20
242.37434352768304
 11
948.04918975241549
 21
240.04101019434998
  0
ARC
  8
_0-b_細線3
  6
CONTINUOUS
 62
    7
 10
934.04918975609417
 20
237.54101019435026
 40
1.6666666666666674
 50
0
 51
89.999999999999915
  0
LINE
  8
_0-b_細線3
  6
CONTINUOUS
 62
    7
 10
934.04918975609417
 20
239.20767686101541
 11
929.88252308942765
 21
239.20767686101541
  0
ARC
  8
_0-b_細線3
  6
CONTINUOUS
 62
    7
 10
943.04918975609451
 20
237.54101019435026
 40
1.6666666666666674
 50
89.999999999999915
 51
179.99999999999983
  0
LINE
  8
_0-b_細線3
  6
CONTINUOUS
 62
    7
 10
943.04918975241594
 20
239.20767686101541
 11
947.21585641908246
 21
239.20767686101541
  0
LINE
  8
_0-b_細線3
  6
CONTINUOUS
 62
    7
 10
942.7158564209218
 20
245.70767686101519
 11
934.38252308758831
 21
245.70767686101519
  0
LINE
  8
_0-b_細線3
  6
CONTINUOUS
 62
    7
 10
935.71585642092145
 20
204.04064519267209
 11
935.71585642276136
 21
237.54101019435026
  0
LINE
  8
_0-b_細線3
  6
CONTINUOUS
 62
    7
 10
941.38252308758865
 20
204.04064519267209
 11
941.3825230894281
 21
237.54101019435026
  0
LINE
  8
_0-b_細線3
  6
CONTINUOUS
 62
    7
 10
941.38252308758865
 20
204.04064519267209
 11
935.71585642092145
 21
204.04064519267209
  0
ARC
  8
_0-b_細線3
  6
CONTINUOUS
 62
    7
 10
959.71585642184141
 20
242.37434352768304
 40
1.6666666666666674
 50
89.999999999999915
 51
179.99999999999983
  0
ARC
  8
_0-b_細線3
  6
CONTINUOUS
 62
    7
 10
960.49577174072067
 20
245.70767686101519
 40
1.6666666666666674
 50
269.99999999999977
 51
330.00000000002041
  0
ARC
  8
_0-b_細線3
  6
CONTINUOUS
 62
    7
 10
963.3825230866687
 20
244.04101019435004
 40
1.6666666666666674
 50
89.999999999999915
 51
150.00000000002072
  0
LINE
  8
_0-b_細線3
  6
CONTINUOUS
 62
    7
 10
959.71585642184141
 20
244.04101019435004
 11
960.49577174072067
 21
244.04101019435004
  0
ARC
  8
_0-b_細線3
  6
CONTINUOUS
 62
    7
 10
975.38252308482924
 20
242.37434352768304
 40
1.6666666666666674
 50
0
 51
89.999999999999915
  0
ARC
  8
_0-b_細線3
  6
CONTINUOUS
 62
    7
 10
974.60260776594976
 20
245.70767686101519
 40
1.6666666666666674
 50
209.99999999997891
 51
269.99999999999977
  0
ARC
  8
_0-b_細線3
  6
CONTINUOUS
 62
    7
 10
971.71585642000196
 20
244.04101019435004
 40
1.6666666666666674
 50
29.999999999981238
 51
89.999999999984368
  0
LINE
  8
_0-b_細線3
  6
CONTINUOUS
 62
    7
 10
975.38252308482924
 20
244.04101019435004
 11
974.60260776594976
 21
244.04101019435004
  0
ARC
  8
_0-b_細線3
  6
CONTINUOUS
 62
    7
 10
958.88252308850781
 20
240.04101019434998
 40
0.8333333333333337
 50
179.99999999999983
 51
269.99999999999977
  0
LINE
  8
_0-b_細線3
  6
CONTINUOUS
 62
    7
 10
958.04918975517467
 20
242.37434352768304
 11
958.04918975517467
 21
240.04101019434998
  0
ARC
  8
_0-b_細線3
  6
CONTINUOUS
 62
    7
 10
976.21585641816284
 20
240.04101019434998
 40
0.8333333333333337
 50
269.99999999999977
 51
359.99999999999966
  0
LINE
  8
_0-b_細線3
  6
CONTINUOUS
 62
    7
 10
977.04918975149576
 20
242.37434352768304
 11
977.04918975149576
 21
240.04101019434998
  0
ARC
  8
_0-b_細線3
  6
CONTINUOUS
 62
    7
 10
963.04918975517489
 20
237.54101019435026
 40
1.6666666666666674
 50
0
 51
89.999999999999915
  0
LINE
  8
_0-b_細線3
  6
CONTINUOUS
 62
    7
 10
963.04918975517489
 20
239.20767686101541
 11
958.88252308850781
 21
239.20767686101541
  0
ARC
  8
_0-b_細線3
  6
CONTINUOUS
 62
    7
 10
972.04918975517489
 20
237.54101019435026
 40
1.6666666666666674
 50
89.999999999999915
 51
179.99999999999983
  0
LINE
  8
_0-b_細線3
  6
CONTINUOUS
 62
    7
 10
972.0491897514961
 20
239.20767686101541
 11
976.21585641816284
 21
239.20767686101541
  0
LINE
  8
_0-b_細線3
  6
CONTINUOUS
 62
    7
 10
971.71585642000196
 20
245.70767686101519
 11
963.3825230866687
 21
245.70767686101519
  0
LINE
  8
_0-b_細線3
  6
CONTINUOUS
 62
    7
 10
964.71585642000161
 20
204.04064519267209
 11
964.71585642184152
 21
237.54101019435026
  0
LINE
  8
_0-b_細線3
  6
CONTINUOUS
 62
    7
 10
970.38252308666881
 20
204.04064519267209
 11
970.38252308850815
 21
237.54101019435026
  0
LINE
  8
_0-b_細線3
  6
CONTINUOUS
 62
    7
 10
970.38252308666881
 20
204.04064519267209
 11
964.71585642000161
 21
204.04064519267209
  0
ARC
  8
_0-b_細線3
  6
CONTINUOUS
 62
    7
 10
988.71585642092157
 20
242.37434352768304
 40
1.6666666666666674
 50
89.999999999999915
 51
179.99999999999983
  0
ARC
  8
_0-b_細線3
  6
CONTINUOUS
 62
    7
 10
989.49577173980106
 20
245.70767686101519
 40
1.6666666666666674
 50
269.99999999999977
 51
330.00000000002819
  0
ARC
  8
_0-b_細線3
  6
CONTINUOUS
 62
    7
 10
992.38252308574943
 20
244.04101019435004
 40
1.6666666666666674
 50
89.999999999999915
 51
150.00000000002072
  0
LINE
  8
_0-b_細線3
  6
CONTINUOUS
 62
    7
 10
988.71585642092157
 20
244.04101019435004
 11
989.49577173980106
 21
244.04101019435004
  0
ARC
  8
_0-b_細線3
  6
CONTINUOUS
 62
    7
 10
1004.3825230839094
 20
242.37434352768304
 40
1.6666666666666674
 50
0
 51
89.999999999999915
  0
ARC
  8
_0-b_細線3
  6
CONTINUOUS
 62
    7
 10
1003.6026077650301
 20
245.70767686101519
 40
1.6666666666666674
 50
209.99999999997891
 51
269.99999999999977
  0
ARC
  8
_0-b_細線3
  6
CONTINUOUS
 62
    7
 10
1000.7158564190821
 20
244.04101019435004
 40
1.6666666666666674
 50
29.999999999979281
 51
89.999999999984368
  0
LINE
  8
_0-b_細線3
  6
CONTINUOUS
 62
    7
 10
1004.3825230839094
 20
244.04101019435004
 11
1003.6026077650301
 21
244.04101019435004
  0
ARC
  8
_0-b_細線3
  6
CONTINUOUS
 62
    7
 10
987.88252308758797
 20
240.04101019434998
 40
0.8333333333333337
 50
179.99999999999983
 51
269.99999999999977
  0
LINE
  8
_0-b_細線3
  6
CONTINUOUS
 62
    7
 10
987.04918975425494
 20
242.37434352768304
 11
987.04918975425494
 21
240.04101019434998
  0
ARC
  8
_0-b_細線3
  6
CONTINUOUS
 62
    7
 10
1005.215856417243
 20
240.04101019434998
 40
0.8333333333333337
 50
269.99999999999977
 51
359.99999999999966
  0
LINE
  8
_0-b_細線3
  6
CONTINUOUS
 62
    7
 10
1006.0491897505766
 20
242.37434352768304
 11
1006.0491897505766
 21
240.04101019434998
  0
ARC
  8
_0-b_細線3
  6
CONTINUOUS
 62
    7
 10
992.04918975425528
 20
237.54101019435026
 40
1.6666666666666674
 50
0
 51
89.999999999999915
  0
LINE
  8
_0-b_細線3
  6
CONTINUOUS
 62
    7
 10
992.04918975425528
 20
239.20767686101541
 11
987.88252308758797
 21
239.20767686101541
  0
ARC
  8
_0-b_細線3
  6
CONTINUOUS
 62
    7
 10
1001.0491897542551
 20
237.54101019435026
 40
1.6666666666666674
 50
89.999999999999915
 51
179.99999999999983
  0
LINE
  8
_0-b_細線3
  6
CONTINUOUS
 62
    7
 10
1001.0491897505763
 20
239.20767686101541
 11
1005.215856417243
 21
239.20767686101541
  0
LINE
  8
_0-b_細線3
  6
CONTINUOUS
 62
    7
 10
1000.7158564190821
 20
245.70767686101519
 11
992.38252308574943
 21
245.70767686101519
  0
LINE
  8
_0-b_細線3
  6
CONTINUOUS
 62
    7
 10
993.715856419082
 20
204.04064519267209
 11
993.71585642092168
 21
237.54101019435026
  0
LINE
  8
_0-b_細線3
  6
CONTINUOUS
 62
    7
 10
999.3825230857492
 20
204.04064519267209
 11
999.38252308758842
 21
237.54101019435026
  0
LINE
  8
_0-b_細線3
  6
CONTINUOUS
 62
    7
 10
999.3825230857492
 20
204.04064519267209
 11
993.715856419082
 21
204.04064519267209
  0
ARC
  8
_0-b_細線3
  6
CONTINUOUS
 62
    7
 10
698.71585642555033
 20
242.37434352768304
 40
1.6666666666666674
 50
89.999999999999915
 51
179.99999999999983
  0
ARC
  8
_0-b_細線3
  6
CONTINUOUS
 62
    7
 10
699.49577174442982
 20
245.70767686101519
 40
1.6666666666666674
 50
269.99999999999977
 51
330.00000000002234
  0
ARC
  8
_0-b_細線3
  6
CONTINUOUS
 62
    7
 10
702.38252309037807
 20
244.04101019435004
 40
1.6666666666666674
 50
89.999999999999915
 51
150.0000000000266
  0
LINE
  8
_0-b_細線3
  6
CONTINUOUS
 62
    7
 10
698.71585642555033
 20
244.04101019435004
 11
699.49577174442982
 21
244.04101019435004
  0
ARC
  8
_0-b_細線3
  6
CONTINUOUS
 62
    7
 10
714.38252308853839
 20
242.37434352768304
 40
1.6666666666666674
 50
0
 51
89.999999999999915
  0
ARC
  8
_0-b_細線3
  6
CONTINUOUS
 62
    7
 10
713.60260776965947
 20
245.70767686101519
 40
1.6666666666666674
 50
209.99999999997112
 51
269.99999999999977
  0
ARC
  8
_0-b_細線3
  6
CONTINUOUS
 62
    7
 10
710.7158564237111
 20
244.04101019435004
 40
1.6666666666666674
 50
29.999999999979281
 51
89.999999999984368
  0
LINE
  8
_0-b_細線3
  6
CONTINUOUS
 62
    7
 10
714.38252308853839
 20
244.04101019435004
 11
713.60260776965947
 21
244.04101019435004
  0
ARC
  8
_0-b_細線3
  6
CONTINUOUS
 62
    7
 10
697.88252309221684
 20
240.04101019434998
 40
0.8333333333333337
 50
179.99999999999983
 51
269.99999999999977
  0
LINE
  8
_0-b_細線3
  6
CONTINUOUS
 62
    7
 10
697.04918975888393
 20
242.37434352768304
 11
697.04918975888393
 21
240.04101019434998
  0
ARC
  8
_0-b_細線3
  6
CONTINUOUS
 62
    7
 10
715.21585642187176
 20
240.04101019434998
 40
0.8333333333333337
 50
269.99999999999977
 51
359.99999999999966
  0
LINE
  8
_0-b_細線3
  6
CONTINUOUS
 62
    7
 10
716.04918975520536
 20
242.37434352768304
 11
716.04918975520536
 21
240.04101019434998
  0
ARC
  8
_0-b_細線3
  6
CONTINUOUS
 62
    7
 10
702.04918975888404
 20
237.54101019435026
 40
1.6666666666666674
 50
0
 51
89.999999999999915
  0
LINE
  8
_0-b_細線3
  6
CONTINUOUS
 62
    7
 10
702.04918975888404
 20
239.20767686101541
 11
697.88252309221684
 21
239.20767686101541
  0
ARC
  8
_0-b_細線3
  6
CONTINUOUS
 62
    7
 10
711.04918975888381
 20
237.54101019435026
 40
1.6666666666666674
 50
89.999999999999915
 51
179.99999999999983
  0
LINE
  8
_0-b_細線3
  6
CONTINUOUS
 62
    7
 10
711.04918975520513
 20
239.20767686101541
 11
715.21585642187176
 21
239.20767686101541
  0
LINE
  8
_0-b_細線3
  6
CONTINUOUS
 62
    7
 10
710.7158564237111
 20
245.70767686101519
 11
702.38252309037807
 21
245.70767686101519
  0
LINE
  8
_0-b_細線3
  6
CONTINUOUS
 62
    7
 10
703.7158564237111
 20
204.04064519267209
 11
703.71585642555056
 21
237.54101019435026
  0
LINE
  8
_0-b_細線3
  6
CONTINUOUS
 62
    7
 10
709.38252309037796
 20
204.04064519267209
 11
709.38252309221741
 21
237.54101019435026
  0
LINE
  8
_0-b_細線3
  6
CONTINUOUS
 62
    7
 10
709.38252309037796
 20
204.04064519267209
 11
703.7158564237111
 21
204.04064519267209
  0
ARC
  8
_0-b_細線3
  6
CONTINUOUS
 62
    7
 10
669.71585642494779
 20
242.37434352768304
 40
1.6666666666666674
 50
89.999999999999915
 51
179.99999999999983
  0
ARC
  8
_0-b_細線3
  6
CONTINUOUS
 62
    7
 10
670.49577174382705
 20
245.70767686101519
 40
1.6666666666666674
 50
269.99999999999977
 51
330.00000000002041
  0
ARC
  8
_0-b_細線3
  6
CONTINUOUS
 62
    7
 10
673.38252308977542
 20
244.04101019435004
 40
1.6666666666666674
 50
89.999999999999915
 51
150.00000000002854
  0
LINE
  8
_0-b_細線3
  6
CONTINUOUS
 62
    7
 10
669.71585642494779
 20
244.04101019435004
 11
670.49577174382705
 21
244.04101019435004
  0
ARC
  8
_0-b_細線3
  6
CONTINUOUS
 62
    7
 10
685.38252308793562
 20
242.37434352768304
 40
1.6666666666666674
 50
0
 51
89.999999999999915
  0
ARC
  8
_0-b_細線3
  6
CONTINUOUS
 62
    7
 10
684.6026077690567
 20
245.70767686101519
 40
1.6666666666666674
 50
209.99999999996916
 51
269.99999999999977
  0
ARC
  8
_0-b_細線3
  6
CONTINUOUS
 62
    7
 10
681.71585642310833
 20
244.04101019435004
 40
1.6666666666666674
 50
29.999999999981238
 51
89.999999999984368
  0
LINE
  8
_0-b_細線3
  6
CONTINUOUS
 62
    7
 10
685.38252308793562
 20
244.04101019435004
 11
684.6026077690567
 21
244.04101019435004
  0
ARC
  8
_0-b_細線3
  6
CONTINUOUS
 62
    7
 10
668.88252309161419
 20
240.04101019434998
 40
0.8333333333333337
 50
179.99999999999983
 51
269.99999999999977
  0
LINE
  8
_0-b_細線3
  6
CONTINUOUS
 62
    7
 10
668.04918975828105
 20
242.37434352768304
 11
668.04918975828105
 21
240.04101019434998
  0
ARC
  8
_0-b_細線3
  6
CONTINUOUS
 62
    7
 10
686.21585642126911
 20
240.04101019434998
 40
0.8333333333333337
 50
269.99999999999977
 51
359.99999999999966
  0
LINE
  8
_0-b_細線3
  6
CONTINUOUS
 62
    7
 10
687.04918975460259
 20
242.37434352768304
 11
687.04918975460259
 21
240.04101019434998
  0
ARC
  8
_0-b_細線3
  6
CONTINUOUS
 62
    7
 10
673.04918975828127
 20
237.54101019435026
 40
1.6666666666666674
 50
0
 51
89.999999999999915
  0
LINE
  8
_0-b_細線3
  6
CONTINUOUS
 62
    7
 10
673.04918975828127
 20
239.20767686101541
 11
668.88252309161419
 21
239.20767686101541
  0
ARC
  8
_0-b_細線3
  6
CONTINUOUS
 62
    7
 10
682.04918975828127
 20
237.54101019435026
 40
1.6666666666666674
 50
89.999999999999915
 51
179.99999999999983
  0
LINE
  8
_0-b_細線3
  6
CONTINUOUS
 62
    7
 10
682.04918975460248
 20
239.20767686101541
 11
686.21585642126911
 21
239.20767686101541
  0
LINE
  8
_0-b_細線3
  6
CONTINUOUS
 62
    7
 10
681.71585642310833
 20
245.70767686101519
 11
673.38252308977542
 21
245.70767686101519
  0
LINE
  8
_0-b_細線3
  6
CONTINUOUS
 62
    7
 10
674.71585642310856
 20
204.04064519267209
 11
674.7158564249479
 21
237.54101019435026
  0
LINE
  8
_0-b_細線3
  6
CONTINUOUS
 62
    7
 10
680.38252308977519
 20
204.04064519267209
 11
680.38252309161453
 21
237.54101019435026
  0
LINE
  8
_0-b_細線3
  6
CONTINUOUS
 62
    7
 10
680.38252308977519
 20
204.04064519267209
 11
674.71585642310856
 21
204.04064519267209
  0
ARC
  8
_0-b_細線3
  6
CONTINUOUS
 62
    7
 10
640.71585642434502
 20
242.37434352768304
 40
1.6666666666666674
 50
89.999999999999915
 51
179.99999999999983
  0
ARC
  8
_0-b_細線3
  6
CONTINUOUS
 62
    7
 10
641.4957717432244
 20
245.70767686101519
 40
1.6666666666666674
 50
269.99999999999977
 51
330.00000000001842
  0
ARC
  8
_0-b_細線3
  6
CONTINUOUS
 62
    7
 10
644.38252308917288
 20
244.04101019435004
 40
1.6666666666666674
 50
89.999999999999915
 51
150.0000000000305
  0
LINE
  8
_0-b_細線3
  6
CONTINUOUS
 62
    7
 10
640.71585642434502
 20
244.04101019435004
 11
641.4957717432244
 21
244.04101019435004
  0
ARC
  8
_0-b_細線3
  6
CONTINUOUS
 62
    7
 10
656.38252308733286
 20
242.37434352768304
 40
1.6666666666666674
 50
0
 51
89.999999999999915
  0
ARC
  8
_0-b_細線3
  6
CONTINUOUS
 62
    7
 10
655.60260776845394
 20
245.70767686101519
 40
1.6666666666666674
 50
209.99999999997112
 51
269.99999999999977
  0
ARC
  8
_0-b_細線3
  6
CONTINUOUS
 62
    7
 10
652.71585642250557
 20
244.04101019435004
 40
1.6666666666666674
 50
29.999999999979281
 51
89.999999999984368
  0
LINE
  8
_0-b_細線3
  6
CONTINUOUS
 62
    7
 10
656.38252308733286
 20
244.04101019435004
 11
655.60260776845394
 21
244.04101019435004
  0
ARC
  8
_0-b_細線3
  6
CONTINUOUS
 62
    7
 10
639.88252309101142
 20
240.04101019434998
 40
0.8333333333333337
 50
179.99999999999983
 51
269.99999999999977
  0
LINE
  8
_0-b_細線3
  6
CONTINUOUS
 62
    7
 10
639.04918975767839
 20
242.37434352768304
 11
639.04918975767839
 21
240.04101019434998
  0
ARC
  8
_0-b_細線3
  6
CONTINUOUS
 62
    7
 10
657.21585642066646
 20
240.04101019434998
 40
0.8333333333333337
 50
269.99999999999977
 51
359.99999999999966
  0
LINE
  8
_0-b_細線3
  6
CONTINUOUS
 62
    7
 10
658.04918975400005
 20
242.37434352768304
 11
658.04918975400005
 21
240.04101019434998
  0
ARC
  8
_0-b_細線3
  6
CONTINUOUS
 62
    7
 10
644.0491897576785
 20
237.54101019435026
 40
1.6666666666666674
 50
0
 51
89.999999999999915
  0
LINE
  8
_0-b_細線3
  6
CONTINUOUS
 62
    7
 10
644.0491897576785
 20
239.20767686101541
 11
639.88252309101142
 21
239.20767686101541
  0
ARC
  8
_0-b_細線3
  6
CONTINUOUS
 62
    7
 10
653.0491897576785
 20
237.54101019435026
 40
1.6666666666666674
 50
89.999999999999915
 51
179.99999999999983
  0
LINE
  8
_0-b_細線3
  6
CONTINUOUS
 62
    7
 10
653.04918975399971
 20
239.20767686101541
 11
657.21585642066646
 21
239.20767686101541
  0
LINE
  8
_0-b_細線3
  6
CONTINUOUS
 62
    7
 10
652.71585642250557
 20
245.70767686101519
 11
644.38252308917288
 21
245.70767686101519
  0
LINE
  8
_0-b_細線3
  6
CONTINUOUS
 62
    7
 10
645.71585642250579
 20
204.04064519267209
 11
645.71585642434513
 21
237.54101019435026
  0
LINE
  8
_0-b_細線3
  6
CONTINUOUS
 62
    7
 10
651.38252308917254
 20
204.04064519267209
 11
651.38252309101188
 21
237.54101019435026
  0
LINE
  8
_0-b_細線3
  6
CONTINUOUS
 62
    7
 10
651.38252308917254
 20
204.04064519267209
 11
645.71585642250579
 21
204.04064519267209
  0
ARC
  8
_0-b_細線3
  6
CONTINUOUS
 62
    7
 10
611.71585642374225
 20
242.37434352768304
 40
1.6666666666666674
 50
89.999999999999915
 51
179.99999999999983
  0
ARC
  8
_0-b_細線3
  6
CONTINUOUS
 62
    7
 10
612.49577174262163
 20
245.70767686101519
 40
1.6666666666666674
 50
269.99999999999977
 51
330.00000000002234
  0
ARC
  8
_0-b_細線3
  6
CONTINUOUS
 62
    7
 10
615.38252308857
 20
244.04101019435004
 40
1.6666666666666674
 50
89.999999999999915
 51
150.0000000000266
  0
LINE
  8
_0-b_細線3
  6
CONTINUOUS
 62
    7
 10
611.71585642374225
 20
244.04101019435004
 11
612.49577174262163
 21
244.04101019435004
  0
ARC
  8
_0-b_細線3
  6
CONTINUOUS
 62
    7
 10
627.38252308673032
 20
242.37434352768304
 40
1.6666666666666674
 50
0
 51
89.999999999999915
  0
ARC
  8
_0-b_細線3
  6
CONTINUOUS
 62
    7
 10
626.60260776785117
 20
245.70767686101519
 40
1.6666666666666674
 50
209.99999999997306
 51
269.99999999999977
  0
ARC
  8
_0-b_細線3
  6
CONTINUOUS
 62
    7
 10
623.71585642190303
 20
244.04101019435004
 40
1.6666666666666674
 50
29.999999999979281
 51
89.999999999984368
  0
LINE
  8
_0-b_細線3
  6
CONTINUOUS
 62
    7
 10
627.38252308673032
 20
244.04101019435004
 11
626.60260776785117
 21
244.04101019435004
  0
ARC
  8
_0-b_細線3
  6
CONTINUOUS
 62
    7
 10
610.88252309040877
 20
240.04101019434998
 40
0.8333333333333337
 50
179.99999999999983
 51
269.99999999999977
  0
LINE
  8
_0-b_細線3
  6
CONTINUOUS
 62
    7
 10
610.04918975707574
 20
242.37434352768304
 11
610.04918975707574
 21
240.04101019434998
  0
ARC
  8
_0-b_細線3
  6
CONTINUOUS
 62
    7
 10
628.21585642006369
 20
240.04101019434998
 40
0.8333333333333337
 50
269.99999999999977
 51
359.99999999999966
  0
LINE
  8
_0-b_細線3
  6
CONTINUOUS
 62
    7
 10
629.04918975339729
 20
242.37434352768304
 11
629.04918975339729
 21
240.04101019434998
  0
ARC
  8
_0-b_細線3
  6
CONTINUOUS
 62
    7
 10
615.04918975707596
 20
237.54101019435026
 40
1.6666666666666674
 50
0
 51
89.999999999999915
  0
LINE
  8
_0-b_細線3
  6
CONTINUOUS
 62
    7
 10
615.04918975707596
 20
239.20767686101541
 11
610.88252309040877
 21
239.20767686101541
  0
ARC
  8
_0-b_細線3
  6
CONTINUOUS
 62
    7
 10
624.04918975707574
 20
237.54101019435026
 40
1.6666666666666674
 50
89.999999999999915
 51
179.99999999999983
  0
LINE
  8
_0-b_細線3
  6
CONTINUOUS
 62
    7
 10
624.04918975339706
 20
239.20767686101541
 11
628.21585642006369
 21
239.20767686101541
  0
LINE
  8
_0-b_細線3
  6
CONTINUOUS
 62
    7
 10
623.71585642190303
 20
245.70767686101519
 11
615.38252308857
 21
245.70767686101519
  0
LINE
  8
_0-b_細線3
  6
CONTINUOUS
 62
    7
 10
616.71585642190303
 20
204.04064519267209
 11
616.71585642374248
 21
237.54101019435026
  0
LINE
  8
_0-b_細線3
  6
CONTINUOUS
 62
    7
 10
622.38252308856977
 20
204.04064519267209
 11
622.38252309040922
 21
237.54101019435026
  0
LINE
  8
_0-b_細線3
  6
CONTINUOUS
 62
    7
 10
622.38252308856977
 20
204.04064519267209
 11
616.71585642190303
 21
204.04064519267209
  0
ARC
  8
_0-b_細線3
  6
CONTINUOUS
 62
    7
 10
582.71585642313971
 20
242.37434352768304
 40
1.6666666666666674
 50
89.999999999999915
 51
179.99999999999983
  0
ARC
  8
_0-b_細線3
  6
CONTINUOUS
 62
    7
 10
583.49577174201897
 20
245.70767686101519
 40
1.6666666666666674
 50
269.99999999999977
 51
330.00000000002041
  0
ARC
  8
_0-b_細線3
  6
CONTINUOUS
 62
    7
 10
586.38252308796734
 20
244.04101019435004
 40
1.6666666666666674
 50
89.999999999999915
 51
150.00000000002854
  0
LINE
  8
_0-b_細線3
  6
CONTINUOUS
 62
    7
 10
582.71585642313971
 20
244.04101019435004
 11
583.49577174201897
 21
244.04101019435004
  0
ARC
  8
_0-b_細線3
  6
CONTINUOUS
 62
    7
 10
598.38252308612755
 20
242.37434352768304
 40
1.6666666666666674
 50
0
 51
89.999999999999915
  0
ARC
  8
_0-b_細線3
  6
CONTINUOUS
 62
    7
 10
597.60260776724863
 20
245.70767686101519
 40
1.6666666666666674
 50
209.99999999996916
 51
269.99999999999977
  0
ARC
  8
_0-b_細線3
  6
CONTINUOUS
 62
    7
 10
594.71585642130026
 20
244.04101019435004
 40
1.6666666666666674
 50
29.999999999981238
 51
89.999999999984368
  0
LINE
  8
_0-b_細線3
  6
CONTINUOUS
 62
    7
 10
598.38252308612755
 20
244.04101019435004
 11
597.60260776724863
 21
244.04101019435004
  0
ARC
  8
_0-b_細線3
  6
CONTINUOUS
 62
    7
 10
581.882523089806
 20
240.04101019434998
 40
0.8333333333333337
 50
179.99999999999983
 51
269.99999999999977
  0
LINE
  8
_0-b_細線3
  6
CONTINUOUS
 62
    7
 10
581.04918975647297
 20
242.37434352768304
 11
581.04918975647297
 21
240.04101019434998
  0
ARC
  8
_0-b_細線3
  6
CONTINUOUS
 62
    7
 10
599.21585641946103
 20
240.04101019434998
 40
0.8333333333333337
 50
269.99999999999977
 51
359.99999999999966
  0
LINE
  8
_0-b_細線3
  6
CONTINUOUS
 62
    7
 10
600.04918975279452
 20
242.37434352768304
 11
600.04918975279452
 21
240.04101019434998
  0
ARC
  8
_0-b_細線3
  6
CONTINUOUS
 62
    7
 10
586.0491897564732
 20
237.54101019435026
 40
1.6666666666666674
 50
0
 51
89.999999999999915
  0
LINE
  8
_0-b_細線3
  6
CONTINUOUS
 62
    7
 10
586.0491897564732
 20
239.20767686101541
 11
581.882523089806
 21
239.20767686101541
  0
ARC
  8
_0-b_細線3
  6
CONTINUOUS
 62
    7
 10
595.0491897564732
 20
237.54101019435026
 40
1.6666666666666674
 50
89.999999999999915
 51
179.99999999999983
  0
LINE
  8
_0-b_細線3
  6
CONTINUOUS
 62
    7
 10
595.04918975279429
 20
239.20767686101541
 11
599.21585641946103
 21
239.20767686101541
  0
LINE
  8
_0-b_細線3
  6
CONTINUOUS
 62
    7
 10
594.71585642130026
 20
245.70767686101519
 11
586.38252308796734
 21
245.70767686101519
  0
LINE
  8
_0-b_細線3
  6
CONTINUOUS
 62
    7
 10
587.71585642130049
 20
204.04064519267209
 11
587.71585642313971
 21
237.54101019435026
  0
LINE
  8
_0-b_細線3
  6
CONTINUOUS
 62
    7
 10
593.38252308796712
 20
204.04064519267209
 11
593.38252308980645
 21
237.54101019435026
  0
LINE
  8
_0-b_細線3
  6
CONTINUOUS
 62
    7
 10
593.38252308796712
 20
204.04064519267209
 11
587.71585642130049
 21
204.04064519267209
  0
ARC
  8
_0-b_細線3
  6
CONTINUOUS
 62
    7
 10
553.71585642253694
 20
242.37434352768304
 40
1.6666666666666674
 50
89.999999999999915
 51
179.99999999999983
  0
ARC
  8
_0-b_細線3
  6
CONTINUOUS
 62
    7
 10
554.49577174141632
 20
245.70767686101519
 40
1.6666666666666674
 50
269.99999999999977
 51
330.00000000001842
  0
ARC
  8
_0-b_細線3
  6
CONTINUOUS
 62
    7
 10
557.38252308736469
 20
244.04101019435004
 40
1.6666666666666674
 50
89.999999999999915
 51
150.0000000000305
  0
LINE
  8
_0-b_細線3
  6
CONTINUOUS
 62
    7
 10
553.71585642253694
 20
244.04101019435004
 11
554.49577174141632
 21
244.04101019435004
  0
ARC
  8
_0-b_細線3
  6
CONTINUOUS
 62
    7
 10
569.38252308552478
 20
242.37434352768304
 40
1.6666666666666674
 50
0
 51
89.999999999999915
  0
ARC
  8
_0-b_細線3
  6
CONTINUOUS
 62
    7
 10
568.60260776664586
 20
245.70767686101519
 40
1.6666666666666674
 50
209.99999999997112
 51
269.99999999999977
  0
ARC
  8
_0-b_細線3
  6
CONTINUOUS
 62
    7
 10
565.71585642069749
 20
244.04101019435004
 40
1.6666666666666674
 50
29.999999999979281
 51
89.999999999984368
  0
LINE
  8
_0-b_細線3
  6
CONTINUOUS
 62
    7
 10
569.38252308552478
 20
244.04101019435004
 11
568.60260776664586
 21
244.04101019435004
  0
ARC
  8
_0-b_細線3
  6
CONTINUOUS
 62
    7
 10
552.88252308920335
 20
240.04101019434998
 40
0.8333333333333337
 50
179.99999999999983
 51
269.99999999999977
  0
LINE
  8
_0-b_細線3
  6
CONTINUOUS
 62
    7
 10
552.04918975587032
 20
242.37434352768304
 11
552.04918975587032
 21
240.04101019434998
  0
ARC
  8
_0-b_細線3
  6
CONTINUOUS
 62
    7
 10
570.21585641885827
 20
240.04101019434998
 40
0.8333333333333337
 50
269.99999999999977
 51
359.99999999999966
  0
LINE
  8
_0-b_細線3
  6
CONTINUOUS
 62
    7
 10
571.04918975219198
 20
242.37434352768304
 11
571.04918975219198
 21
240.04101019434998
  0
ARC
  8
_0-b_細線3
  6
CONTINUOUS
 62
    7
 10
557.04918975587043
 20
237.54101019435026
 40
1.6666666666666674
 50
0
 51
89.999999999999915
  0
LINE
  8
_0-b_細線3
  6
CONTINUOUS
 62
    7
 10
557.04918975587043
 20
239.20767686101541
 11
552.88252308920335
 21
239.20767686101541
  0
ARC
  8
_0-b_細線3
  6
CONTINUOUS
 62
    7
 10
566.04918975587043
 20
237.54101019435026
 40
1.6666666666666674
 50
89.999999999999915
 51
179.99999999999983
  0
LINE
  8
_0-b_細線3
  6
CONTINUOUS
 62
    7
 10
566.04918975219164
 20
239.20767686101541
 11
570.21585641885827
 21
239.20767686101541
  0
LINE
  8
_0-b_細線3
  6
CONTINUOUS
 62
    7
 10
565.71585642069749
 20
245.70767686101519
 11
557.38252308736469
 21
245.70767686101519
  0
LINE
  8
_0-b_細線3
  6
CONTINUOUS
 62
    7
 10
558.71585642069772
 20
204.04064519267209
 11
558.71585642253706
 21
237.54101019435026
  0
LINE
  8
_0-b_細線3
  6
CONTINUOUS
 62
    7
 10
564.38252308736446
 20
204.04064519267209
 11
564.3825230892038
 21
237.54101019435026
  0
LINE
  8
_0-b_細線3
  6
CONTINUOUS
 62
    7
 10
564.38252308736446
 20
204.04064519267209
 11
558.71585642069772
 21
204.04064519267209
  0
ARC
  8
_0-b_細線3
  6
CONTINUOUS
 62
    7
 10
524.71585642009529
 20
242.37434352768304
 40
1.6666666666666674
 50
89.999999999999915
 51
179.99999999999983
  0
ARC
  8
_0-b_細線3
  6
CONTINUOUS
 62
    7
 10
525.49577173897421
 20
245.70767686101519
 40
1.6666666666666674
 50
269.99999999999977
 51
330.00000000002819
  0
ARC
  8
_0-b_細線3
  6
CONTINUOUS
 62
    7
 10
528.38252308492258
 20
244.04101019435004
 40
1.6666666666666674
 50
89.999999999999915
 51
150.00000000002072
  0
LINE
  8
_0-b_細線3
  6
CONTINUOUS
 62
    7
 10
524.71585642009529
 20
244.04101019435004
 11
525.49577173897421
 21
244.04101019435004
  0
ARC
  8
_0-b_細線3
  6
CONTINUOUS
 62
    7
 10
540.38252308308324
 20
242.37434352768304
 40
1.6666666666666674
 50
0
 51
89.999999999999915
  0
ARC
  8
_0-b_細線3
  6
CONTINUOUS
 62
    7
 10
539.60260776420432
 20
245.70767686101519
 40
1.6666666666666674
 50
209.99999999996916
 51
269.99999999999977
  0
ARC
  8
_0-b_細線3
  6
CONTINUOUS
 62
    7
 10
536.7158564182555
 20
244.04101019435004
 40
1.6666666666666674
 50
29.999999999973422
 51
89.99999999996875
  0
LINE
  8
_0-b_細線3
  6
CONTINUOUS
 62
    7
 10
540.38252308308324
 20
244.04101019435004
 11
539.60260776420432
 21
244.04101019435004
  0
ARC
  8
_0-b_細線3
  6
CONTINUOUS
 62
    7
 10
523.88252308676169
 20
240.04101019434998
 40
0.8333333333333337
 50
179.99999999999983
 51
269.99999999999977
  0
LINE
  8
_0-b_細線3
  6
CONTINUOUS
 62
    7
 10
523.04918975342866
 20
242.37434352768304
 11
523.04918975342866
 21
240.04101019434998
  0
ARC
  8
_0-b_細線3
  6
CONTINUOUS
 62
    7
 10
541.21585641641673
 20
240.04101019434998
 40
0.8333333333333337
 50
269.99999999999977
 51
359.99999999999966
  0
LINE
  8
_0-b_細線3
  6
CONTINUOUS
 62
    7
 10
542.04918974975021
 20
242.37434352768304
 11
542.04918974975021
 21
240.04101019434998
  0
ARC
  8
_0-b_細線3
  6
CONTINUOUS
 62
    7
 10
528.04918975342844
 20
237.54101019435026
 40
1.6666666666666674
 50
0
 51
89.999999999999915
  0
LINE
  8
_0-b_細線3
  6
CONTINUOUS
 62
    7
 10
528.04918975342844
 20
239.20767686101541
 11
523.88252308676169
 21
239.20767686101541
  0
ARC
  8
_0-b_細線3
  6
CONTINUOUS
 62
    7
 10
537.04918975342878
 20
237.54101019435026
 40
1.6666666666666674
 50
89.999999999999915
 51
179.99999999999983
  0
LINE
  8
_0-b_細線3
  6
CONTINUOUS
 62
    7
 10
537.04918974974953
 20
239.20767686101541
 11
541.21585641641673
 21
239.20767686101541
  0
LINE
  8
_0-b_細線3
  6
CONTINUOUS
 62
    7
 10
536.7158564182555
 20
245.70767686101519
 11
528.38252308492258
 21
245.70767686101519
  0
LINE
  8
_0-b_細線3
  6
CONTINUOUS
 62
    7
 10
529.71585641825618
 20
204.04064519267209
 11
529.71585642009495
 21
237.54101019435026
  0
LINE
  8
_0-b_細線3
  6
CONTINUOUS
 62
    7
 10
535.38252308492235
 20
204.04064519267209
 11
535.38252308676215
 21
237.54101019435026
  0
LINE
  8
_0-b_細線3
  6
CONTINUOUS
 62
    7
 10
535.38252308492235
 20
204.04064519267209
 11
529.71585641825618
 21
204.04064519267209
  0
ARC
  8
_0-b_細線3
  6
CONTINUOUS
 62
    7
 10
1017.7158564209218
 20
242.37434352768304
 40
1.6666666666666674
 50
89.999999999999915
 51
179.99999999999983
  0
ARC
  8
_0-b_細線3
  6
CONTINUOUS
 62
    7
 10
1018.4957717398011
 20
245.70767686101519
 40
1.6666666666666674
 50
269.99999999999977
 51
330.00000000002819
  0
ARC
  8
_0-b_細線3
  6
CONTINUOUS
 62
    7
 10
1021.3825230857494
 20
244.04101019435004
 40
1.6666666666666674
 50
89.999999999999915
 51
150.00000000002072
  0
LINE
  8
_0-b_細線3
  6
CONTINUOUS
 62
    7
 10
1017.7158564209218
 20
244.04101019435004
 11
1018.4957717398011
 21
244.04101019435004
  0
ARC
  8
_0-b_細線3
  6
CONTINUOUS
 62
    7
 10
1033.38252308391
 20
242.37434352768304
 40
1.6666666666666674
 50
0
 51
89.999999999999915
  0
ARC
  8
_0-b_細線3
  6
CONTINUOUS
 62
    7
 10
1032.6026077650306
 20
245.70767686101519
 40
1.6666666666666674
 50
209.99999999996916
 51
269.99999999999977
  0
ARC
  8
_0-b_細線3
  6
CONTINUOUS
 62
    7
 10
1029.7158564190822
 20
244.04101019435004
 40
1.6666666666666674
 50
29.999999999981238
 51
89.999999999976552
  0
LINE
  8
_0-b_細線3
  6
CONTINUOUS
 62
    7
 10
1033.38252308391
 20
244.04101019435004
 11
1032.6026077650306
 21
244.04101019435004
  0
ARC
  8
_0-b_細線3
  6
CONTINUOUS
 62
    7
 10
1016.8825230875882
 20
240.04101019434998
 40
0.8333333333333337
 50
179.99999999999983
 51
269.99999999999977
  0
LINE
  8
_0-b_細線3
  6
CONTINUOUS
 62
    7
 10
1016.0491897542551
 20
242.37434352768304
 11
1016.0491897542551
 21
240.04101019434998
  0
ARC
  8
_0-b_細線3
  6
CONTINUOUS
 62
    7
 10
1034.2158564172435
 20
240.04101019434998
 40
0.8333333333333337
 50
269.99999999999977
 51
359.99999999999966
  0
LINE
  8
_0-b_細線3
  6
CONTINUOUS
 62
    7
 10
1035.0491897505765
 20
242.37434352768304
 11
1035.0491897505765
 21
240.04101019434998
  0
ARC
  8
_0-b_細線3
  6
CONTINUOUS
 62
    7
 10
1021.0491897542554
 20
237.54101019435026
 40
1.6666666666666674
 50
0
 51
89.999999999999915
  0
LINE
  8
_0-b_細線3
  6
CONTINUOUS
 62
    7
 10
1021.0491897542554
 20
239.20767686101541
 11
1016.8825230875882
 21
239.20767686101541
  0
ARC
  8
_0-b_細線3
  6
CONTINUOUS
 62
    7
 10
1030.0491897542552
 20
237.54101019435026
 40
1.6666666666666674
 50
89.999999999999915
 51
179.99999999999983
  0
LINE
  8
_0-b_細線3
  6
CONTINUOUS
 62
    7
 10
1030.0491897505765
 20
239.20767686101541
 11
1034.2158564172435
 21
239.20767686101541
  0
LINE
  8
_0-b_細線3
  6
CONTINUOUS
 62
    7
 10
1029.7158564190822
 20
245.70767686101519
 11
1021.3825230857494
 21
245.70767686101519
  0
LINE
  8
_0-b_細線3
  6
CONTINUOUS
 62
    7
 10
1022.715856419082
 20
204.04064519267209
 11
1022.7158564209219
 21
237.54101019435026
  0
LINE
  8
_0-b_細線3
  6
CONTINUOUS
 62
    7
 10
1028.3825230857492
 20
204.04064519267209
 11
1028.3825230875887
 21
237.54101019435026
  0
LINE
  8
_0-b_細線3
  6
CONTINUOUS
 62
    7
 10
1028.3825230857492
 20
204.04064519267209
 11
1022.715856419082
 21
204.04064519267209
  0
ARC
  8
_0-b_細線3
  6
CONTINUOUS
 62
    7
 10
1046.7158564200026
 20
242.37434352768304
 40
1.6666666666666674
 50
89.999999999999915
 51
179.99999999999983
  0
ARC
  8
_0-b_細線3
  6
CONTINUOUS
 62
    7
 10
1047.4957717388818
 20
245.70767686101519
 40
1.6666666666666674
 50
269.99999999999977
 51
330.00000000002234
  0
ARC
  8
_0-b_細線3
  6
CONTINUOUS
 62
    7
 10
1050.3825230848297
 20
244.04101019435004
 40
1.6666666666666674
 50
89.999999999999915
 51
150.00000000001876
  0
LINE
  8
_0-b_細線3
  6
CONTINUOUS
 62
    7
 10
1046.7158564200026
 20
244.04101019435004
 11
1047.4957717388818
 21
244.04101019435004
  0
ARC
  8
_0-b_細線3
  6
CONTINUOUS
 62
    7
 10
1062.3825230829902
 20
242.37434352768304
 40
1.6666666666666674
 50
0
 51
89.999999999999915
  0
ARC
  8
_0-b_細線3
  6
CONTINUOUS
 62
    7
 10
1061.6026077641109
 20
245.70767686101519
 40
1.6666666666666674
 50
209.99999999998087
 51
269.99999999999977
  0
ARC
  8
_0-b_細線3
  6
CONTINUOUS
 62
    7
 10
1058.715856418163
 20
244.04101019435004
 40
1.6666666666666674
 50
29.999999999977327
 51
89.999999999984354
  0
LINE
  8
_0-b_細線3
  6
CONTINUOUS
 62
    7
 10
1062.3825230829902
 20
244.04101019435004
 11
1061.6026077641109
 21
244.04101019435004
  0
ARC
  8
_0-b_細線3
  6
CONTINUOUS
 62
    7
 10
1045.8825230866689
 20
240.04101019434998
 40
0.8333333333333337
 50
179.99999999999983
 51
269.99999999999977
  0
LINE
  8
_0-b_細線3
  6
CONTINUOUS
 62
    7
 10
1045.0491897533359
 20
242.37434352768304
 11
1045.0491897533359
 21
240.04101019434998
  0
ARC
  8
_0-b_細線3
  6
CONTINUOUS
 62
    7
 10
1063.215856416324
 20
240.04101019434998
 40
0.8333333333333337
 50
269.99999999999977
 51
359.99999999999966
  0
LINE
  8
_0-b_細線3
  6
CONTINUOUS
 62
    7
 10
1064.0491897496572
 20
242.37434352768304
 11
1064.0491897496572
 21
240.04101019434998
  0
ARC
  8
_0-b_細線3
  6
CONTINUOUS
 62
    7
 10
1050.0491897533359
 20
237.54101019435026
 40
1.6666666666666674
 50
0
 51
89.999999999999915
  0
LINE
  8
_0-b_細線3
  6
CONTINUOUS
 62
    7
 10
1050.0491897533359
 20
239.20767686101541
 11
1045.8825230866689
 21
239.20767686101541
  0
ARC
  8
_0-b_細線3
  6
CONTINUOUS
 62
    7
 10
1059.0491897533361
 20
237.54101019435026
 40
1.6666666666666674
 50
89.999999999999915
 51
179.99999999999983
  0
LINE
  8
_0-b_細線3
  6
CONTINUOUS
 62
    7
 10
1059.0491897496572
 20
239.20767686101541
 11
1063.215856416324
 21
239.20767686101541
  0
LINE
  8
_0-b_細線3
  6
CONTINUOUS
 62
    7
 10
1058.715856418163
 20
245.70767686101519
 11
1050.3825230848297
 21
245.70767686101519
  0
LINE
  8
_0-b_細線3
  6
CONTINUOUS
 62
    7
 10
1051.7158564181627
 20
204.04064519267209
 11
1051.7158564200026
 21
237.54101019435026
  0
LINE
  8
_0-b_細線3
  6
CONTINUOUS
 62
    7
 10
1057.3825230848299
 20
204.04064519267209
 11
1057.3825230866694
 21
237.54101019435026
  0
LINE
  8
_0-b_細線3
  6
CONTINUOUS
 62
    7
 10
1057.3825230848299
 20
204.04064519267209
 11
1051.7158564181627
 21
204.04064519267209
  0
ARC
  8
_0-b_細線3
  6
CONTINUOUS
 62
    7
 10
495.7158564194927
 20
242.37434352768304
 40
1.6666666666666674
 50
89.999999999999915
 51
179.99999999999983
  0
ARC
  8
_0-b_細線3
  6
CONTINUOUS
 62
    7
 10
496.49577173837156
 20
245.70767686101519
 40
1.6666666666666674
 50
269.99999999999977
 51
330.00000000003018
  0
ARC
  8
_0-b_細線3
  6
CONTINUOUS
 62
    7
 10
499.38252308431998
 20
244.04101019435004
 40
1.6666666666666674
 50
89.999999999999915
 51
150.00000000001876
  0
LINE
  8
_0-b_細線3
  6
CONTINUOUS
 62
    7
 10
495.7158564194927
 20
244.04101019435004
 11
496.49577173837156
 21
244.04101019435004
  0
ARC
  8
_0-b_細線3
  6
CONTINUOUS
 62
    7
 10
511.38252308248047
 20
242.37434352768304
 40
1.6666666666666674
 50
0
 51
89.999999999999915
  0
ARC
  8
_0-b_細線3
  6
CONTINUOUS
 62
    7
 10
510.60260776360161
 20
245.70767686101519
 40
1.6666666666666674
 50
209.99999999997306
 51
269.99999999999977
  0
ARC
  8
_0-b_細線3
  6
CONTINUOUS
 62
    7
 10
507.71585641765279
 20
244.04101019435004
 40
1.6666666666666674
 50
29.999999999969511
 51
89.999999999968736
  0
LINE
  8
_0-b_細線3
  6
CONTINUOUS
 62
    7
 10
511.38252308248047
 20
244.04101019435004
 11
510.60260776360161
 21
244.04101019435004
  0
ARC
  8
_0-b_細線3
  6
CONTINUOUS
 62
    7
 10
494.88252308615921
 20
240.04101019434998
 40
0.8333333333333337
 50
179.99999999999983
 51
269.99999999999977
  0
LINE
  8
_0-b_細線3
  6
CONTINUOUS
 62
    7
 10
494.04918975282612
 20
242.37434352768304
 11
494.04918975282612
 21
240.04101019434998
  0
ARC
  8
_0-b_細線3
  6
CONTINUOUS
 62
    7
 10
512.21585641581396
 20
240.04101019434998
 40
0.8333333333333337
 50
269.99999999999977
 51
359.99999999999966
  0
LINE
  8
_0-b_細線3
  6
CONTINUOUS
 62
    7
 10
513.04918974914767
 20
242.37434352768304
 11
513.04918974914767
 21
240.04101019434998
  0
ARC
  8
_0-b_細線3
  6
CONTINUOUS
 62
    7
 10
499.04918975282567
 20
237.54101019435026
 40
1.6666666666666674
 50
0
 51
89.999999999999915
  0
LINE
  8
_0-b_細線3
  6
CONTINUOUS
 62
    7
 10
499.04918975282567
 20
239.20767686101541
 11
494.88252308615921
 21
239.20767686101541
  0
ARC
  8
_0-b_細線3
  6
CONTINUOUS
 62
    7
 10
508.04918975282618
 20
237.54101019435026
 40
1.6666666666666674
 50
89.999999999999915
 51
179.99999999999983
  0
LINE
  8
_0-b_細線3
  6
CONTINUOUS
 62
    7
 10
508.04918974914676
 20
239.20767686101541
 11
512.21585641581396
 21
239.20767686101541
  0
LINE
  8
_0-b_細線3
  6
CONTINUOUS
 62
    7
 10
507.71585641765279
 20
245.70767686101519
 11
499.38252308431998
 21
245.70767686101519
  0
LINE
  8
_0-b_細線3
  6
CONTINUOUS
 62
    7
 10
500.71585641765347
 20
204.04064519267209
 11
500.71585641949218
 21
237.54101019435026
  0
LINE
  8
_0-b_細線3
  6
CONTINUOUS
 62
    7
 10
506.3825230843197
 20
204.04064519267209
 11
506.38252308615961
 21
237.54101019435026
  0
LINE
  8
_0-b_細線3
  6
CONTINUOUS
 62
    7
 10
506.3825230843197
 20
204.04064519267209
 11
500.71585641765347
 21
204.04064519267209
  0
ARC
  8
_0-b_細線3
  6
CONTINUOUS
 62
    7
 10
466.71585642458467
 20
242.37434352768304
 40
1.6666666666666674
 50
89.999999999999915
 51
179.99999999999983
  0
ARC
  8
_0-b_細線3
  6
CONTINUOUS
 62
    7
 10
467.49577174346405
 20
245.70767686101519
 40
1.6666666666666674
 50
269.99999999999977
 51
330.00000000001842
  0
ARC
  8
_0-b_細線3
  6
CONTINUOUS
 62
    7
 10
470.38252308941247
 20
244.04101019435004
 40
1.6666666666666674
 50
89.999999999999915
 51
150.0000000000305
  0
LINE
  8
_0-b_細線3
  6
CONTINUOUS
 62
    7
 10
466.71585642458467
 20
244.04101019435004
 11
467.49577174346405
 21
244.04101019435004
  0
ARC
  8
_0-b_細線3
  6
CONTINUOUS
 62
    7
 10
482.38252308757251
 20
242.37434352768304
 40
1.6666666666666674
 50
0
 51
89.999999999999915
  0
ARC
  8
_0-b_細線3
  6
CONTINUOUS
 62
    7
 10
481.60260776869364
 20
245.70767686101519
 40
1.6666666666666674
 50
209.99999999997306
 51
269.99999999999977
  0
ARC
  8
_0-b_細線3
  6
CONTINUOUS
 62
    7
 10
478.71585642274482
 20
244.04101019435004
 40
1.6666666666666674
 50
29.999999999969511
 51
89.99999999996092
  0
LINE
  8
_0-b_細線3
  6
CONTINUOUS
 62
    7
 10
482.38252308757251
 20
244.04101019435004
 11
481.60260776869364
 21
244.04101019435004
  0
ARC
  8
_0-b_細線3
  6
CONTINUOUS
 62
    7
 10
465.88252309125124
 20
240.04101019434998
 40
0.8333333333333337
 50
179.99999999999983
 51
269.99999999999977
  0
LINE
  8
_0-b_細線3
  6
CONTINUOUS
 62
    7
 10
465.04918975791816
 20
242.37434352768304
 11
465.04918975791816
 21
240.04101019434998
  0
ARC
  8
_0-b_細線3
  6
CONTINUOUS
 62
    7
 10
483.21585642090605
 20
240.04101019434998
 40
0.8333333333333337
 50
269.99999999999977
 51
359.99999999999966
  0
LINE
  8
_0-b_細線3
  6
CONTINUOUS
 62
    7
 10
484.04918975423976
 20
242.37434352768304
 11
484.04918975423976
 21
240.04101019434998
  0
ARC
  8
_0-b_細線3
  6
CONTINUOUS
 62
    7
 10
470.04918975791838
 20
237.54101019435026
 40
1.6666666666666674
 50
0
 51
89.999999999999915
  0
LINE
  8
_0-b_細線3
  6
CONTINUOUS
 62
    7
 10
470.04918975791838
 20
239.20767686101541
 11
465.88252309125124
 21
239.20767686101541
  0
ARC
  8
_0-b_細線3
  6
CONTINUOUS
 62
    7
 10
479.04918975791816
 20
237.54101019435026
 40
1.6666666666666674
 50
89.999999999999915
 51
179.99999999999983
  0
LINE
  8
_0-b_細線3
  6
CONTINUOUS
 62
    7
 10
479.04918975423902
 20
239.20767686101541
 11
483.21585642090605
 21
239.20767686101541
  0
LINE
  8
_0-b_細線3
  6
CONTINUOUS
 62
    7
 10
478.71585642274482
 20
245.70767686101519
 11
470.38252308941247
 21
245.70767686101519
  0
LINE
  8
_0-b_細線3
  6
CONTINUOUS
 62
    7
 10
471.7158564227455
 20
204.04064519267209
 11
471.71585642458444
 21
237.54101019435026
  0
LINE
  8
_0-b_細線3
  6
CONTINUOUS
 62
    7
 10
477.38252308941219
 20
204.04064519267209
 11
477.38252309125164
 21
237.54101019435026
  0
LINE
  8
_0-b_細線3
  6
CONTINUOUS
 62
    7
 10
477.38252308941219
 20
204.04064519267209
 11
471.7158564227455
 21
204.04064519267209
  0
ARC
  8
_0-b_細線3
  6
CONTINUOUS
 62
    7
 10
1075.7158564190831
 20
242.37434352768304
 40
1.6666666666666674
 50
89.999999999999915
 51
179.99999999999983
  0
ARC
  8
_0-b_細線3
  6
CONTINUOUS
 62
    7
 10
1076.4957717379625
 20
245.70767686101519
 40
1.6666666666666674
 50
269.99999999999977
 51
330.00000000002626
  0
ARC
  8
_0-b_細線3
  6
CONTINUOUS
 62
    7
 10
1079.3825230839113
 20
244.04101019435004
 40
1.6666666666666674
 50
89.999999999999915
 51
150.0000000000305
  0
LINE
  8
_0-b_細線3
  6
CONTINUOUS
 62
    7
 10
1075.7158564190831
 20
244.04101019435004
 11
1076.4957717379625
 21
244.04101019435004
  0
ARC
  8
_0-b_細線3
  6
CONTINUOUS
 62
    7
 10
1091.382523082071
 20
242.37434352768304
 40
1.6666666666666674
 50
0
 51
89.999999999999915
  0
ARC
  8
_0-b_細線3
  6
CONTINUOUS
 62
    7
 10
1090.6026077631916
 20
245.70767686101519
 40
1.6666666666666674
 50
209.99999999998869
 51
269.99999999999977
  0
ARC
  8
_0-b_細線3
  6
CONTINUOUS
 62
    7
 10
1087.7158564172437
 20
244.04101019435004
 40
1.6666666666666674
 50
29.999999999969511
 51
89.999999999968736
  0
LINE
  8
_0-b_細線3
  6
CONTINUOUS
 62
    7
 10
1091.382523082071
 20
244.04101019435004
 11
1090.6026077631916
 21
244.04101019435004
  0
ARC
  8
_0-b_細線3
  6
CONTINUOUS
 62
    7
 10
1074.8825230857497
 20
240.04101019434998
 40
0.8333333333333337
 50
179.99999999999983
 51
269.99999999999977
  0
LINE
  8
_0-b_細線3
  6
CONTINUOUS
 62
    7
 10
1074.0491897524171
 20
242.37434352768304
 11
1074.0491897524171
 21
240.04101019434998
  0
ARC
  8
_0-b_細線3
  6
CONTINUOUS
 62
    7
 10
1092.2158564154047
 20
240.04101019434998
 40
0.8333333333333337
 50
269.99999999999977
 51
359.99999999999966
  0
LINE
  8
_0-b_細線3
  6
CONTINUOUS
 62
    7
 10
1093.0491897487379
 20
242.37434352768304
 11
1093.0491897487379
 21
240.04101019434998
  0
ARC
  8
_0-b_細線3
  6
CONTINUOUS
 62
    7
 10
1079.0491897524171
 20
237.54101019435026
 40
1.6666666666666674
 50
0
 51
89.999999999999915
  0
LINE
  8
_0-b_細線3
  6
CONTINUOUS
 62
    7
 10
1079.0491897524171
 20
239.20767686101541
 11
1074.8825230857497
 21
239.20767686101541
  0
ARC
  8
_0-b_細線3
  6
CONTINUOUS
 62
    7
 10
1088.0491897524166
 20
237.54101019435026
 40
1.6666666666666674
 50
89.999999999999915
 51
179.99999999999983
  0
LINE
  8
_0-b_細線3
  6
CONTINUOUS
 62
    7
 10
1088.0491897487379
 20
239.20767686101541
 11
1092.2158564154047
 21
239.20767686101541
  0
LINE
  8
_0-b_細線3
  6
CONTINUOUS
 62
    7
 10
1087.7158564172437
 20
245.70767686101519
 11
1079.3825230839113
 21
245.70767686101519
  0
LINE
  8
_0-b_細線3
  6
CONTINUOUS
 62
    7
 10
1080.7158564172435
 20
204.04064519267209
 11
1080.7158564190834
 21
237.54101019435026
  0
LINE
  8
_0-b_細線3
  6
CONTINUOUS
 62
    7
 10
1086.3825230839107
 20
204.04064519267209
 11
1086.3825230857506
 21
237.54101019435026
  0
LINE
  8
_0-b_細線3
  6
CONTINUOUS
 62
    7
 10
1086.3825230839107
 20
204.04064519267209
 11
1080.7158564172435
 21
204.04064519267209
  0
ARC
  8
_0-b_細線3
  6
CONTINUOUS
 62
    7
 10
1104.715856416324
 20
242.37434352768304
 40
1.6666666666666674
 50
89.999999999999915
 51
179.99999999999983
  0
ARC
  8
_0-b_細線3
  6
CONTINUOUS
 62
    7
 10
1105.4957717352033
 20
245.70767686101519
 40
1.6666666666666674
 50
269.99999999999977
 51
330.00000000003018
  0
ARC
  8
_0-b_細線3
  6
CONTINUOUS
 62
    7
 10
1108.3825230811512
 20
244.04101019435004
 40
1.6666666666666674
 50
89.999999999999915
 51
150.00000000001094
  0
LINE
  8
_0-b_細線3
  6
CONTINUOUS
 62
    7
 10
1104.715856416324
 20
244.04101019435004
 11
1105.4957717352033
 21
244.04101019435004
  0
ARC
  8
_0-b_細線3
  6
CONTINUOUS
 62
    7
 10
1120.3825230793118
 20
242.37434352768304
 40
1.6666666666666674
 50
0
 51
89.999999999999915
  0
ARC
  8
_0-b_細線3
  6
CONTINUOUS
 62
    7
 10
1119.6026077604324
 20
245.70767686101519
 40
1.6666666666666674
 50
209.99999999997306
 51
269.99999999999977
  0
ARC
  8
_0-b_細線3
  6
CONTINUOUS
 62
    7
 10
1116.7158564144845
 20
244.04101019435004
 40
1.6666666666666674
 50
29.999999999985146
 51
89.999999999999915
  0
LINE
  8
_0-b_細線3
  6
CONTINUOUS
 62
    7
 10
1120.3825230793118
 20
244.04101019435004
 11
1119.6026077604324
 21
244.04101019435004
  0
ARC
  8
_0-b_細線3
  6
CONTINUOUS
 62
    7
 10
1103.8825230829907
 20
240.04101019434998
 40
0.8333333333333337
 50
179.99999999999983
 51
269.99999999999977
  0
LINE
  8
_0-b_細線3
  6
CONTINUOUS
 62
    7
 10
1103.049189749657
 20
242.37434352768304
 11
1103.049189749657
 21
240.04101019434998
  0
ARC
  8
_0-b_細線3
  6
CONTINUOUS
 62
    7
 10
1121.2158564126455
 20
240.04101019434998
 40
0.8333333333333337
 50
269.99999999999977
 51
359.99999999999966
  0
LINE
  8
_0-b_細線3
  6
CONTINUOUS
 62
    7
 10
1122.049189745979
 20
242.37434352768304
 11
1122.049189745979
 21
240.04101019434998
  0
ARC
  8
_0-b_細線3
  6
CONTINUOUS
 62
    7
 10
1108.049189749657
 20
237.54101019435026
 40
1.6666666666666674
 50
0
 51
89.999999999999915
  0
LINE
  8
_0-b_細線3
  6
CONTINUOUS
 62
    7
 10
1108.049189749657
 20
239.20767686101541
 11
1103.8825230829907
 21
239.20767686101541
  0
ARC
  8
_0-b_細線3
  6
CONTINUOUS
 62
    7
 10
1117.0491897496574
 20
237.54101019435026
 40
1.6666666666666674
 50
89.999999999999915
 51
179.99999999999983
  0
LINE
  8
_0-b_細線3
  6
CONTINUOUS
 62
    7
 10
1117.0491897459788
 20
239.20767686101541
 11
1121.2158564126455
 21
239.20767686101541
  0
LINE
  8
_0-b_細線3
  6
CONTINUOUS
 62
    7
 10
1116.7158564144845
 20
245.70767686101519
 11
1108.3825230811512
 21
245.70767686101519
  0
LINE
  8
_0-b_細線3
  6
CONTINUOUS
 62
    7
 10
1109.7158564144843
 20
204.04064519267209
 11
1109.7158564163242
 21
237.54101019435026
  0
LINE
  8
_0-b_細線3
  6
CONTINUOUS
 62
    7
 10
1115.3825230811515
 20
204.04064519267209
 11
1115.3825230829905
 21
237.54101019435026
  0
LINE
  8
_0-b_細線3
  6
CONTINUOUS
 62
    7
 10
1115.3825230811515
 20
204.04064519267209
 11
1109.7158564144843
 21
204.04064519267209
  0
ARC
  8
_0-b_細線3
  6
CONTINUOUS
 62
    7
 10
437.71585642490049
 20
242.37434352768304
 40
1.6666666666666674
 50
89.999999999999915
 51
179.99999999999983
  0
ARC
  8
_0-b_細線3
  6
CONTINUOUS
 62
    7
 10
438.49577174377993
 20
245.70767686101519
 40
1.6666666666666674
 50
269.99999999999977
 51
330.00000000003018
  0
ARC
  8
_0-b_細線3
  6
CONTINUOUS
 62
    7
 10
441.38252308972824
 20
244.04101019435004
 40
1.6666666666666674
 50
89.999999999999915
 51
150.00000000001876
  0
LINE
  8
_0-b_細線3
  6
CONTINUOUS
 62
    7
 10
437.71585642490049
 20
244.04101019435004
 11
438.49577174377993
 21
244.04101019435004
  0
ARC
  8
_0-b_細線3
  6
CONTINUOUS
 62
    7
 10
453.38252308788839
 20
242.37434352768304
 40
1.6666666666666674
 50
0
 51
89.999999999999915
  0
ARC
  8
_0-b_細線3
  6
CONTINUOUS
 62
    7
 10
452.60260776900992
 20
245.70767686101519
 40
1.6666666666666674
 50
209.99999999997306
 51
269.99999999999977
  0
ARC
  8
_0-b_細線3
  6
CONTINUOUS
 62
    7
 10
449.7158564230611
 20
244.04101019435004
 40
1.6666666666666674
 50
29.999999999969511
 51
89.999999999984368
  0
LINE
  8
_0-b_細線3
  6
CONTINUOUS
 62
    7
 10
453.38252308788839
 20
244.04101019435004
 11
452.60260776900992
 21
244.04101019435004
  0
ARC
  8
_0-b_細線3
  6
CONTINUOUS
 62
    7
 10
436.88252309156701
 20
240.04101019434998
 40
0.8333333333333337
 50
179.99999999999983
 51
269.99999999999977
  0
LINE
  8
_0-b_細線3
  6
CONTINUOUS
 62
    7
 10
436.04918975823443
 20
242.37434352768304
 11
436.04918975823443
 21
240.04101019434998
  0
ARC
  8
_0-b_細線3
  6
CONTINUOUS
 62
    7
 10
454.2158564212221
 20
240.04101019434998
 40
0.8333333333333337
 50
269.99999999999977
 51
359.99999999999966
  0
LINE
  8
_0-b_細線3
  6
CONTINUOUS
 62
    7
 10
455.04918975455553
 20
242.37434352768304
 11
455.04918975455553
 21
240.04101019434998
  0
ARC
  8
_0-b_細線3
  6
CONTINUOUS
 62
    7
 10
441.04918975823404
 20
237.54101019435026
 40
1.6666666666666674
 50
0
 51
89.999999999999915
  0
LINE
  8
_0-b_細線3
  6
CONTINUOUS
 62
    7
 10
441.04918975823404
 20
239.20767686101541
 11
436.88252309156701
 21
239.20767686101541
  0
ARC
  8
_0-b_細線3
  6
CONTINUOUS
 62
    7
 10
450.04918975823398
 20
237.54101019435026
 40
1.6666666666666674
 50
89.999999999999915
 51
179.99999999999983
  0
LINE
  8
_0-b_細線3
  6
CONTINUOUS
 62
    7
 10
450.0491897545553
 20
239.20767686101541
 11
454.2158564212221
 21
239.20767686101541
  0
LINE
  8
_0-b_細線3
  6
CONTINUOUS
 62
    7
 10
449.7158564230611
 20
245.70767686101519
 11
441.38252308972824
 21
245.70767686101519
  0
LINE
  8
_0-b_細線3
  6
CONTINUOUS
 62
    7
 10
442.71585642306201
 20
204.04064519267209
 11
442.71585642490072
 21
237.54101019435026
  0
LINE
  8
_0-b_細線3
  6
CONTINUOUS
 62
    7
 10
448.38252308972807
 20
204.04064519267209
 11
448.38252309156792
 21
237.54101019435026
  0
LINE
  8
_0-b_細線3
  6
CONTINUOUS
 62
    7
 10
448.38252308972807
 20
204.04064519267209
 11
442.71585642306201
 21
204.04064519267209
  0
ARC
  8
_0-b_細線3
  6
CONTINUOUS
 62
    7
 10
1133.7158564144838
 20
242.37434352768304
 40
1.6666666666666674
 50
89.999999999999915
 51
179.99999999999983
  0
ARC
  8
_0-b_細線3
  6
CONTINUOUS
 62
    7
 10
1134.4957717333632
 20
245.70767686101519
 40
1.6666666666666674
 50
269.99999999999977
 51
330.00000000003018
  0
ARC
  8
_0-b_細線3
  6
CONTINUOUS
 62
    7
 10
1137.3825230793111
 20
244.04101019435004
 40
1.6666666666666674
 50
89.999999999999915
 51
150.00000000001094
  0
LINE
  8
_0-b_細線3
  6
CONTINUOUS
 62
    7
 10
1133.7158564144838
 20
244.04101019435004
 11
1134.4957717333632
 21
244.04101019435004
  0
ARC
  8
_0-b_細線3
  6
CONTINUOUS
 62
    7
 10
1149.3825230774719
 20
242.37434352768304
 40
1.6666666666666674
 50
0
 51
89.999999999999915
  0
ARC
  8
_0-b_細線3
  6
CONTINUOUS
 62
    7
 10
1148.6026077585923
 20
245.70767686101519
 40
1.6666666666666674
 50
209.99999999997306
 51
269.99999999999977
  0
ARC
  8
_0-b_細線3
  6
CONTINUOUS
 62
    7
 10
1145.7158564126444
 20
244.04101019435004
 40
1.6666666666666674
 50
29.999999999985146
 51
89.999999999999915
  0
LINE
  8
_0-b_細線3
  6
CONTINUOUS
 62
    7
 10
1149.3825230774719
 20
244.04101019435004
 11
1148.6026077585923
 21
244.04101019435004
  0
ARC
  8
_0-b_細線3
  6
CONTINUOUS
 62
    7
 10
1132.8825230811503
 20
240.04101019434998
 40
0.8333333333333337
 50
179.99999999999983
 51
269.99999999999977
  0
LINE
  8
_0-b_細線3
  6
CONTINUOUS
 62
    7
 10
1132.0491897478169
 20
242.37434352768304
 11
1132.0491897478169
 21
240.04101019434998
  0
ARC
  8
_0-b_細線3
  6
CONTINUOUS
 62
    7
 10
1150.2158564108051
 20
240.04101019434998
 40
0.8333333333333337
 50
269.99999999999977
 51
359.99999999999966
  0
LINE
  8
_0-b_細線3
  6
CONTINUOUS
 62
    7
 10
1151.0491897441389
 20
242.37434352768304
 11
1151.0491897441389
 21
240.04101019434998
  0
ARC
  8
_0-b_細線3
  6
CONTINUOUS
 62
    7
 10
1137.0491897478173
 20
237.54101019435026
 40
1.6666666666666674
 50
0
 51
89.999999999999915
  0
LINE
  8
_0-b_細線3
  6
CONTINUOUS
 62
    7
 10
1137.0491897478173
 20
239.20767686101541
 11
1132.8825230811503
 21
239.20767686101541
  0
ARC
  8
_0-b_細線3
  6
CONTINUOUS
 62
    7
 10
1146.0491897478173
 20
237.54101019435026
 40
1.6666666666666674
 50
89.999999999999915
 51
179.99999999999983
  0
LINE
  8
_0-b_細線3
  6
CONTINUOUS
 62
    7
 10
1146.0491897441386
 20
239.20767686101541
 11
1150.2158564108051
 21
239.20767686101541
  0
LINE
  8
_0-b_細線3
  6
CONTINUOUS
 62
    7
 10
1145.7158564126444
 20
245.70767686101519
 11
1137.3825230793111
 21
245.70767686101519
  0
LINE
  8
_0-b_細線3
  6
CONTINUOUS
 62
    7
 10
1138.7158564126441
 20
204.04064519267209
 11
1138.7158564144841
 21
237.54101019435026
  0
LINE
  8
_0-b_細線3
  6
CONTINUOUS
 62
    7
 10
1144.3825230793113
 20
204.04064519267209
 11
1144.3825230811503
 21
237.54101019435026
  0
LINE
  8
_0-b_細線3
  6
CONTINUOUS
 62
    7
 10
1144.3825230793113
 20
204.04064519267209
 11
1138.7158564126441
 21
204.04064519267209
  0
ARC
  8
_0-b_細線3
  6
CONTINUOUS
 62
    7
 10
1163.2158564098854
 20
242.37434352768304
 40
1.6666666666666674
 50
89.999999999999915
 51
179.99999999999983
  0
ARC
  8
_0-b_細線3
  6
CONTINUOUS
 62
    7
 10
1163.9957717287648
 20
245.70767686101519
 40
1.6666666666666674
 50
269.99999999999977
 51
330.00000000002626
  0
ARC
  8
_0-b_細線3
  6
CONTINUOUS
 62
    7
 10
1166.8825230747127
 20
244.04101019435004
 40
1.6666666666666674
 50
89.999999999999915
 51
150.00000000001486
  0
LINE
  8
_0-b_細線3
  6
CONTINUOUS
 62
    7
 10
1163.2158564098854
 20
244.04101019435004
 11
1163.9957717287648
 21
244.04101019435004
  0
ARC
  8
_0-b_細線3
  6
CONTINUOUS
 62
    7
 10
1178.8825230728733
 20
242.37434352768304
 40
1.6666666666666674
 50
0
 51
89.999999999999915
  0
ARC
  8
_0-b_細線3
  6
CONTINUOUS
 62
    7
 10
1178.1026077539941
 20
245.70767686101519
 40
1.6666666666666674
 50
209.99999999996916
 51
269.99999999999977
  0
ARC
  8
_0-b_細線3
  6
CONTINUOUS
 62
    7
 10
1175.215856408046
 20
244.04101019435004
 40
1.6666666666666674
 50
29.999999999989051
 51
89.999999999999915
  0
LINE
  8
_0-b_細線3
  6
CONTINUOUS
 62
    7
 10
1178.8825230728733
 20
244.04101019435004
 11
1178.1026077539941
 21
244.04101019435004
  0
ARC
  8
_0-b_細線3
  6
CONTINUOUS
 62
    7
 10
1162.3825230765517
 20
240.04101019434998
 40
0.8333333333333337
 50
179.99999999999983
 51
269.99999999999977
  0
LINE
  8
_0-b_細線3
  6
CONTINUOUS
 62
    7
 10
1161.5491897432182
 20
242.37434352768304
 11
1161.5491897432182
 21
240.04101019434998
  0
ARC
  8
_0-b_細線3
  6
CONTINUOUS
 62
    7
 10
1179.7158564062067
 20
240.04101019434998
 40
0.8333333333333337
 50
269.99999999999977
 51
359.99999999999966
  0
LINE
  8
_0-b_細線3
  6
CONTINUOUS
 62
    7
 10
1180.5491897395402
 20
242.37434352768304
 11
1180.5491897395402
 21
240.04101019434998
  0
ARC
  8
_0-b_細線3
  6
CONTINUOUS
 62
    7
 10
1166.5491897432184
 20
237.54101019435026
 40
1.6666666666666674
 50
0
 51
89.999999999999915
  0
LINE
  8
_0-b_細線3
  6
CONTINUOUS
 62
    7
 10
1166.5491897432184
 20
239.20767686101541
 11
1162.3825230765517
 21
239.20767686101541
  0
ARC
  8
_0-b_細線3
  6
CONTINUOUS
 62
    7
 10
1175.5491897432189
 20
237.54101019435026
 40
1.6666666666666674
 50
89.999999999999915
 51
179.99999999999983
  0
LINE
  8
_0-b_細線3
  6
CONTINUOUS
 62
    7
 10
1175.5491897395402
 20
239.20767686101541
 11
1179.7158564062067
 21
239.20767686101541
  0
LINE
  8
_0-b_細線3
  6
CONTINUOUS
 62
    7
 10
1175.215856408046
 20
245.70767686101519
 11
1166.8825230747127
 21
245.70767686101519
  0
LINE
  8
_0-b_細線3
  6
CONTINUOUS
 62
    7
 10
1168.215856408046
 20
204.04064519267209
 11
1168.2158564098856
 21
237.54101019435026
  0
LINE
  8
_0-b_細線3
  6
CONTINUOUS
 62
    7
 10
1173.8825230747129
 20
204.04064519267209
 11
1173.8825230765517
 21
237.54101019435026
  0
LINE
  8
_0-b_細線3
  6
CONTINUOUS
 62
    7
 10
1173.8825230747129
 20
204.04064519267209
 11
1168.215856408046
 21
204.04064519267209
  0
TEXT
  8
_0-7_枠細線
 62
    5
 10
743.62714212176161
 20
83.335684357162449
 40
25
 41
0.8
 50
0
  1
断面詳細図
  0
TEXT
  8
_0-7_枠細線
 62
    5
 10
858.57611187092971
 20
83.335684357162449
 40
20
 41
0.6
 50
0
  1
Ｓ＝１：３
  0
LINE
  8
_0-d_寸法3
  6
CONTINUOUS
 62
    7
 10
368.54918976118995
 20
250.70804186269504
 11
368.54918976119006
 21
370.70767686101527
  0
LINE
  8
_0-d_寸法3
  6
CONTINUOUS
 62
    7
 10
368.54918976119006
 20
365.70767686101527
 11
378.20844802408078
 21
368.2958673120404
  0
LINE
  8
_0-d_寸法3
  6
CONTINUOUS
 62
    7
 10
368.54918976119006
 20
365.70767686101527
 11
378.20844802408078
 21
363.11948640999003
  0
LINE
  8
_0-d_寸法3
  6
CONTINUOUS
 62
    7
 10
1218.5491897611894
 20
250.70804186269504
 11
1218.5491897611896
 21
370.70767686101527
  0
LINE
  8
_0-d_寸法3
  6
CONTINUOUS
 62
    7
 10
1218.5491897611896
 20
365.70767686101527
 11
1208.8899314982991
 21
363.11948640999003
  0
LINE
  8
_0-d_寸法3
  6
CONTINUOUS
 62
    7
 10
1218.5491897611896
 20
365.70767686101527
 11
1208.8899314982991
 21
368.29586731204046
  0
LINE
  8
_0-d_寸法3
  6
CONTINUOUS
 62
    7
 10
368.54918976119006
 20
365.70767686101527
 11
1218.5491897611896
 21
365.70767686101527
  0
TEXT
  8
_0-d_寸法3
 62
    7
 10
782.29918976118984
 20
365.7076768610151
 40
15
 41
1
 50
0
  1
510
  0
LINE
  8
_0-d_寸法3
  6
CONTINUOUS
 62
    7
 10
571.04918975219198
 20
255.70767686101519
 11
571.04918975219198
 21
300.70767686101522
  0
LINE
  8
_0-d_寸法3
  6
CONTINUOUS
 62
    7
 10
571.04918975219198
 20
295.70767686101522
 11
561.38993148930126
 21
293.11948640999003
  0
LINE
  8
_0-d_寸法3
  6
CONTINUOUS
 62
    7
 10
571.04918975219198
 20
295.70767686101522
 11
561.38993148930126
 21
298.29586731204046
  0
LINE
  8
_0-d_寸法3
  6
CONTINUOUS
 62
    7
 10
581.04918975647252
 20
255.70767686101618
 11
581.04918975647263
 21
300.70767686101522
  0
LINE
  8
_0-d_寸法3
  6
CONTINUOUS
 62
    7
 10
548.33780622859013
 20
295.70767686101522
 11
581.04918975647263
 21
295.70767686101522
  0
TEXT
  8
_0-d_寸法3
 62
    7
 10
548.33780622859013
 20
280.70767686101522
 40
15
 41
1
 50
0
  1
(6)
  0
LINE
  8
_0-d_寸法3
  6
CONTINUOUS
 62
    7
 10
581.04918975647263
 20
295.70767686101522
 11
590.70844801936335
 21
298.29586731204029
  0
LINE
  8
_0-d_寸法3
  6
CONTINUOUS
 62
    7
 10
581.04918975647263
 20
295.70767686101522
 11
590.70844801936335
 21
293.11948640998997
  0
LINE
  8
_0-d_寸法3
  6
CONTINUOUS
 62
    7
 10
600.04918975279406
 20
255.70767686101519
 11
600.04918975279429
 21
300.70767686101522
  0
LINE
  8
_0-d_寸法3
  6
CONTINUOUS
 62
    7
 10
600.04918975279429
 20
295.70767686101522
 11
590.38993148990346
 21
293.11948640999003
  0
LINE
  8
_0-d_寸法3
  6
CONTINUOUS
 62
    7
 10
600.04918975279429
 20
295.70767686101522
 11
590.38993148990346
 21
298.29586731204046
  0
LINE
  8
_0-d_寸法3
  6
CONTINUOUS
 62
    7
 10
581.04918975647263
 20
295.70767686101522
 11
600.04918975279429
 21
295.70767686101522
  0
TEXT
  8
_0-d_寸法3
 62
    7
 10
575.54918975463329
 20
295.70767686101522
 40
15
 41
1
 50
0
  1
11.4
  0
LINE
  8
_0-d_寸法3
  6
CONTINUOUS
 62
    7
 10
996.54918975333601
 20
255.70731185933582
 11
996.54918975333601
 21
300.70767686101522
  0
LINE
  8
_0-d_寸法3
  6
CONTINUOUS
 62
    7
 10
996.54918975333601
 20
295.70767686101522
 11
1006.2084480162268
 21
298.29586731204046
  0
LINE
  8
_0-d_寸法3
  6
CONTINUOUS
 62
    7
 10
996.54918975333601
 20
295.70767686101522
 11
1006.2084480162268
 21
293.11948640999003
  0
LINE
  8
_0-d_寸法3
  6
CONTINUOUS
 62
    7
 10
1025.5491897524162
 20
255.70767686101519
 11
1025.5491897524162
 21
300.70767686101522
  0
LINE
  8
_0-d_寸法3
  6
CONTINUOUS
 62
    7
 10
1025.5491897524162
 20
295.70767686101522
 11
1015.8899314895252
 21
293.11948640999003
  0
LINE
  8
_0-d_寸法3
  6
CONTINUOUS
 62
    7
 10
1025.5491897524162
 20
295.70767686101522
 11
1015.8899314895252
 21
298.29586731204046
  0
LINE
  8
_0-d_寸法3
  6
CONTINUOUS
 62
    7
 10
996.54918975333601
 20
295.70767686101522
 11
1025.5491897524162
 21
295.70767686101522
  0
TEXT
  8
_0-d_寸法3
 62
    7
 10
979.84918975315168
 20
280.7076768610151
 40
15
 41
1
 50
0
  1
(17.4)
  0
LINE
  8
_0-d_寸法3
  6
CONTINUOUS
 62
    7
 10
1025.5491897524162
 20
295.70767686101522
 11
1035.2084480153067
 21
298.29586731204029
  0
LINE
  8
_0-d_寸法3
  6
CONTINUOUS
 62
    7
 10
1025.5491897524162
 20
295.70767686101522
 11
1035.2084480153067
 21
293.11948640998997
  0
LINE
  8
_0-d_寸法3
  6
CONTINUOUS
 62
    7
 10
1054.5491897514964
 20
255.70767686101618
 11
1054.5491897514964
 21
300.70767686101522
  0
LINE
  8
_0-d_寸法3
  6
CONTINUOUS
 62
    7
 10
1054.5491897514964
 20
295.70767686101522
 11
1044.8899314886057
 21
293.11948640999003
  0
LINE
  8
_0-d_寸法3
  6
CONTINUOUS
 62
    7
 10
1054.5491897514964
 20
295.70767686101522
 11
1044.8899314886057
 21
298.29586731204046
  0
LINE
  8
_0-d_寸法3
  6
CONTINUOUS
 62
    7
 10
1025.5491897524162
 20
295.70767686101522
 11
1054.5491897514964
 21
295.70767686101522
  0
TEXT
  8
_0-d_寸法3
 62
    7
 10
1017.5491897519566
 20
295.70767686101522
 40
15
 41
1
 50
0
  1
(17.4)
  0
LINE
  8
_0-1_計細線
  6
CONTINUOUS
 62
    3
 10
592.30300545646185
 20
1118.7479166672554
 11
592.30300545646207
 21
614.74791666725991
  0
LINE
  8
_0-1_計細線
  6
CONTINUOUS
 62
    3
 10
589.30300545646196
 20
1121.7479166672554
 11
589.30300545646207
 21
611.74791666725991
  0
LINE
  8
_0-5_寸法線
  6
CONTINUOUS
 62
    7
 10
579.31369542848279
 20
1121.7479166672554
 11
499.31369542848444
 21
1121.7479166672554
  0
LINE
  8
_0-5_寸法線
  6
CONTINUOUS
 62
    7
 10
504.31369542848444
 20
1121.7479166672554
 11
506.90188587950956
 21
1112.0886584043647
  0
LINE
  8
_0-5_寸法線
  6
CONTINUOUS
 62
    7
 10
504.31369542848444
 20
1121.7479166672554
 11
501.7255049774592
 21
1112.0886584043647
  0
LINE
  8
_0-5_寸法線
  6
CONTINUOUS
 62
    7
 10
579.31369542848392
 20
611.74791666725537
 11
499.31369542848302
 21
611.74791666725537
  0
LINE
  8
_0-5_寸法線
  6
CONTINUOUS
 62
    7
 10
504.31369542848302
 20
611.74791666725537
 11
501.72550497745789
 21
621.40717493014608
  0
LINE
  8
_0-5_寸法線
  6
CONTINUOUS
 62
    7
 10
504.31369542848302
 20
611.74791666725537
 11
506.90188587950831
 21
621.40717493014608
  0
LINE
  8
_0-5_寸法線
  6
CONTINUOUS
 62
    7
 10
504.31369542848444
 20
1121.7479166672554
 11
504.31369542848302
 21
611.74791666725537
  0
TEXT
  8
_0-5_寸法線
 62
    7
 10
504.3136954284837
 20
855.49791666725571
 40
15
 41
1
 50
90
  1
510
  0
LINE
  8
_0-b_細線3
  6
CONTINUOUS
 62
    7
 10
389.21585642398281
 20
235.04097309634986
 11
413.21585642582136
 21
235.04097309634986
  0
LINE
  8
_0-b_細線3
  6
CONTINUOUS
 62
    7
 10
418.8825230915686
 20
235.04097309634986
 11
442.71585642306241
 21
235.04097309634986
  0
LINE
  8
_0-b_細線3
  6
CONTINUOUS
 62
    7
 10
738.3825230919
 20
235.04097309634986
 11
761.7158564252336
 21
235.04097309634986
  0
LINE
  8
_0-b_細線3
  6
CONTINUOUS
 62
    7
 10
825.3825230921866
 20
235.04097309634986
 11
848.7158564255202
 21
235.04097309634986
  0
LINE
  8
_0-b_細線3
  6
CONTINUOUS
 62
    7
 10
854.38252309126699
 20
235.04097309634986
 11
877.71585642460025
 21
235.04097309634986
  0
LINE
  8
_0-b_細線3
  6
CONTINUOUS
 62
    7
 10
883.38252309034715
 20
235.04097309634986
 11
906.71585642368063
 21
235.04097309634986
  0
LINE
  8
_0-b_細線3
  6
CONTINUOUS
 62
    7
 10
912.38252308942731
 20
235.04097309634986
 11
935.71585642276136
 21
235.04097309634986
  0
LINE
  8
_0-b_細線3
  6
CONTINUOUS
 62
    7
 10
941.38252308850815
 20
235.04097309634986
 11
964.71585642184152
 21
235.04097309634986
  0
LINE
  8
_0-b_細線3
  6
CONTINUOUS
 62
    7
 10
970.38252308758842
 20
235.04097309634986
 11
993.71585642092168
 21
235.04097309634986
  0
LINE
  8
_0-b_細線3
  6
CONTINUOUS
 62
    7
 10
709.38252309129734
 20
235.04097309634986
 11
732.71585642463083
 21
235.04097309634986
  0
LINE
  8
_0-b_細線3
  6
CONTINUOUS
 62
    7
 10
680.38252309069458
 20
235.04097309634986
 11
703.71585642402806
 21
235.04097309634986
  0
LINE
  8
_0-b_細線3
  6
CONTINUOUS
 62
    7
 10
651.38252309009204
 20
235.04097309634986
 11
674.71585642342552
 21
235.04097309634986
  0
LINE
  8
_0-b_細線3
  6
CONTINUOUS
 62
    7
 10
622.38252308948927
 20
235.04097309634986
 11
645.71585642282275
 21
235.04097309634986
  0
LINE
  8
_0-b_細線3
  6
CONTINUOUS
 62
    7
 10
593.3825230888865
 20
235.04097309634986
 11
616.71585642221999
 21
235.04097309634986
  0
LINE
  8
_0-b_細線3
  6
CONTINUOUS
 62
    7
 10
564.38252308828396
 20
235.04097309634986
 11
587.71585642161745
 21
235.04097309634986
  0
LINE
  8
_0-b_細線3
  6
CONTINUOUS
 62
    7
 10
535.38252308584231
 20
235.04097309634986
 11
558.71585642101468
 21
235.04097309634986
  0
LINE
  8
_0-b_細線3
  6
CONTINUOUS
 62
    7
 10
999.38252308666847
 20
235.04097309634986
 11
1022.7158564209219
 21
235.04097309634986
  0
LINE
  8
_0-b_細線3
  6
CONTINUOUS
 62
    7
 10
1028.3825230866687
 20
235.04097309634986
 11
1051.7158564200031
 21
235.04097309634986
  0
LINE
  8
_0-b_細線3
  6
CONTINUOUS
 62
    7
 10
506.38252308523965
 20
235.04097309634986
 11
529.71585641857257
 21
235.04097309634986
  0
LINE
  8
_0-b_細線3
  6
CONTINUOUS
 62
    7
 10
1057.3825230857494
 20
235.04097309634986
 11
1080.7158564190829
 21
235.04097309634986
  0
LINE
  8
_0-b_細線3
  6
CONTINUOUS
 62
    7
 10
448.38252308972847
 20
235.04097309634986
 11
471.71585642306195
 21
235.04097309634986
  0
LINE
  8
_0-b_細線3
  6
CONTINUOUS
 62
    7
 10
1115.3825230829905
 20
235.04097309634986
 11
1138.7158564144841
 21
235.04097309634986
  0
LINE
  8
_0-b_細線3
  6
CONTINUOUS
 62
    7
 10
1144.3825230802313
 20
235.04097309634986
 11
1168.2158564098861
 21
235.04097309634986
  0
LINE
  8
_0-b_細線3
  6
CONTINUOUS
 62
    7
 10
1173.8825230863526
 20
235.04097309634986
 11
1197.8825230970883
 21
235.04097309634986
  0
LINE
  8
_0-b_細線3
  6
CONTINUOUS
 62
    7
 10
767.38252309402515
 20
235.04097309634986
 11
790.71585642735863
 21
235.04097309634986
  0
LINE
  8
_0-b_細線3
  6
CONTINUOUS
 62
    7
 10
796.38252309402628
 20
235.04097309634986
 11
819.71585642644027
 21
235.04097309634986
  0
LINE
  8
_0-b_細線3
  6
CONTINUOUS
 62
    7
 10
389.21585642398242
 20
218.37430642968314
 11
413.21585642582136
 21
218.37430642968314
  0
LINE
  8
_0-b_細線3
  6
CONTINUOUS
 62
    7
 10
418.8825230915682
 20
218.37430642968314
 11
442.71585642306241
 21
218.37430642968314
  0
LINE
  8
_0-b_細線3
  6
CONTINUOUS
 62
    7
 10
738.3825230919
 20
218.37430642968314
 11
761.71585642523314
 21
218.37430642968314
  0
LINE
  8
_0-b_細線3
  6
CONTINUOUS
 62
    7
 10
825.38252309218615
 20
218.37430642968314
 11
848.71585642551963
 21
218.37430642968314
  0
LINE
  8
_0-b_細線3
  6
CONTINUOUS
 62
    7
 10
854.38252309126699
 20
218.37430642968314
 11
877.71585642459979
 21
218.37430642968314
  0
LINE
  8
_0-b_細線3
  6
CONTINUOUS
 62
    7
 10
883.38252309034715
 20
218.37430642968314
 11
906.71585642368063
 21
218.37430642968314
  0
LINE
  8
_0-b_細線3
  6
CONTINUOUS
 62
    7
 10
912.38252308942731
 20
218.37430642968314
 11
935.71585642276079
 21
218.37430642968314
  0
LINE
  8
_0-b_細線3
  6
CONTINUOUS
 62
    7
 10
941.38252308850747
 20
218.37430642968314
 11
964.71585642184095
 21
218.37430642968314
  0
LINE
  8
_0-b_細線3
  6
CONTINUOUS
 62
    7
 10
970.38252308758786
 20
218.37430642968314
 11
993.71585642092168
 21
218.37430642968314
  0
LINE
  8
_0-b_細線3
  6
CONTINUOUS
 62
    7
 10
709.38252309129734
 20
218.37430642968314
 11
732.71585642463026
 21
218.37430642968314
  0
LINE
  8
_0-b_細線3
  6
CONTINUOUS
 62
    7
 10
680.38252309069458
 20
218.37430642968314
 11
703.71585642402761
 21
218.37430642968314
  0
LINE
  8
_0-b_細線3
  6
CONTINUOUS
 62
    7
 10
651.38252309009204
 20
218.37430642968314
 11
674.71585642342484
 21
218.37430642968314
  0
LINE
  8
_0-b_細線3
  6
CONTINUOUS
 62
    7
 10
622.38252308948927
 20
218.37430642968314
 11
645.7158564228223
 21
218.37430642968314
  0
LINE
  8
_0-b_細線3
  6
CONTINUOUS
 62
    7
 10
593.3825230888865
 20
218.37430642968314
 11
616.71585642221953
 21
218.37430642968314
  0
LINE
  8
_0-b_細線3
  6
CONTINUOUS
 62
    7
 10
564.38252308828396
 20
218.37430642968314
 11
587.71585642161676
 21
218.37430642968314
  0
LINE
  8
_0-b_細線3
  6
CONTINUOUS
 62
    7
 10
535.38252308584174
 20
218.37430642968314
 11
558.71585642101411
 21
218.37430642968314
  0
LINE
  8
_0-b_細線3
  6
CONTINUOUS
 62
    7
 10
999.38252308666847
 20
218.37430642968314
 11
1022.7158564209219
 21
218.37430642968314
  0
LINE
  8
_0-b_細線3
  6
CONTINUOUS
 62
    7
 10
1028.3825230866687
 20
218.37430642968314
 11
1051.715856420002
 21
218.37430642968314
  0
LINE
  8
_0-b_細線3
  6
CONTINUOUS
 62
    7
 10
506.38252308523926
 20
218.37430642968314
 11
529.71585641857257
 21
218.37430642968314
  0
LINE
  8
_0-b_細線3
  6
CONTINUOUS
 62
    7
 10
1057.382523085749
 20
218.37430642968314
 11
1080.7158564190834
 21
218.37430642968314
  0
LINE
  8
_0-b_細線3
  6
CONTINUOUS
 62
    7
 10
448.38252308972807
 20
218.37430642968314
 11
471.71585642306195
 21
218.37430642968314
  0
LINE
  8
_0-b_細線3
  6
CONTINUOUS
 62
    7
 10
1115.3825230829905
 20
218.37430642968314
 11
1138.7158564144841
 21
218.37430642968314
  0
LINE
  8
_0-b_細線3
  6
CONTINUOUS
 62
    7
 10
1144.3825230802308
 20
218.37430642968314
 11
1168.2158564098856
 21
218.37430642968314
  0
LINE
  8
_0-b_細線3
  6
CONTINUOUS
 62
    7
 10
1173.8825230756324
 20
218.37430642968314
 11
1197.8825230970879
 21
218.37430642968314
  0
LINE
  8
_0-b_細線3
  6
CONTINUOUS
 62
    7
 10
767.38252309402469
 20
218.37430642968314
 11
790.71585642735829
 21
218.37430642968314
  0
LINE
  8
_0-b_細線3
  6
CONTINUOUS
 62
    7
 10
796.38252309283644
 20
218.37430642968314
 11
819.71585642644027
 21
218.37430642968314
  0
LINE
  8
_0-b_細線3
  6
CONTINUOUS
 62
    7
 10
381.88252309156866
 20
226.70763976301643
 11
376.87499642490138
 21
226.70763976301643
  0
LINE
  8
_0-b_細線3
  6
CONTINUOUS
 62
    7
 10
381.88252309156866
 20
220.87430642968272
 11
376.87497642490257
 21
220.87430642968272
  0
ARC
  8
_0-b_細線3
  6
CONTINUOUS
 62
    7
 10
376.87497642490257
 20
221.20763976301575
 40
0.3333333333333334
 50
179.99999999999983
 51
269.99999999999977
  0
ARC
  8
_0-b_細線3
  6
CONTINUOUS
 62
    7
 10
389.4716097582355
 20
223.79072976301742
 40
12.929926666666669
 50
166.96197800000752
 51
193.03566999999893
  0
ARC
  8
_0-b_細線3
  6
CONTINUOUS
 62
    7
 10
376.87497642490257
 20
232.20763976301711
 40
0.3333333333333334
 50
89.999999999999915
 51
179.99999999999983
  0
ARC
  8
_0-b_細線3
  6
CONTINUOUS
 62
    7
 10
389.4716097582355
 20
229.6245464296824
 40
12.929926666666669
 50
166.9643300000007
 51
193.03802200000047
  0
LINE
  8
_0-b_細線3
  6
CONTINUOUS
 62
    7
 10
381.88252309156866
 20
232.54097309635014
 11
376.87497642490257
 21
232.54097309635014
  0
LINE
  8
_0-b_細線3
  6
CONTINUOUS
 62
    7
 10
376.54164309156869
 20
221.20763976301575
 11
376.54164309156869
 21
232.20763976301711
  0
ARC
  8
_0-b_細線3
  6
CONTINUOUS
 62
    7
 10
382.21585642490209
 20
216.2076397630166
 40
0.3333333333333334
 50
179.99999999999983
 51
269.99999999999977
  0
ARC
  8
_0-b_細線3
  6
CONTINUOUS
 62
    7
 10
382.21585642490209
 20
237.2076397630164
 40
0.3333333333333334
 50
89.999999999999915
 51
179.99999999999983
  0
LINE
  8
_0-b_細線3
  6
CONTINUOUS
 62
    7
 10
381.88252309156866
 20
225.874306429683
 11
381.88252309156866
 21
216.2076397630166
  0
LINE
  8
_0-b_細線3
  6
CONTINUOUS
 62
    7
 10
381.88252309156866
 20
237.2076397630164
 11
381.88252309156866
 21
225.874306429683
  0
LINE
  8
_0-b_細線3
  6
CONTINUOUS
 62
    7
 10
383.54918975823534
 20
237.54097309634943
 11
382.21585642490209
 21
237.54097309634943
  0
LINE
  8
_0-b_細線3
  6
CONTINUOUS
 62
    7
 10
383.54918975823534
 20
215.87430642968357
 11
382.21585642490209
 21
215.87430642968357
  0
LINE
  8
_0-b_細線3
  6
CONTINUOUS
 62
    7
 10
1205.2158564304214
 20
226.70763976301643
 11
1210.2233830970886
 21
226.70763976301643
  0
LINE
  8
_0-b_細線3
  6
CONTINUOUS
 62
    7
 10
1205.2158564304214
 20
220.87430642968272
 11
1210.2234030970874
 21
220.87430642968272
  0
ARC
  8
_0-b_細線3
  6
CONTINUOUS
 62
    7
 10
1210.2234030970874
 20
221.20763976301575
 40
0.3333333333333334
 50
269.99999999999977
 51
359.99999999999966
  0
ARC
  8
_0-b_細線3
  6
CONTINUOUS
 62
    7
 10
1197.6267697637545
 20
223.79072976301742
 40
12.929926666666669
 50
346.9643300000003
 51
13.038021999992131
  0
ARC
  8
_0-b_細線3
  6
CONTINUOUS
 62
    7
 10
1210.2234030970874
 20
232.20763976301711
 40
0.3333333333333334
 50
0
 51
89.999999999999915
  0
ARC
  8
_0-b_細線3
  6
CONTINUOUS
 62
    7
 10
1197.6267697637545
 20
229.6245464296824
 40
12.929926666666669
 50
346.96197799999879
 51
13.035669999998964
  0
LINE
  8
_0-b_細線3
  6
CONTINUOUS
 62
    7
 10
1205.2158564304214
 20
232.54097309635014
 11
1210.2234030970874
 21
232.54097309635014
  0
LINE
  8
_0-b_細線3
  6
CONTINUOUS
 62
    7
 10
1210.5567364304213
 20
221.20763976301575
 11
1210.5567364304213
 21
232.20763976301711
  0
ARC
  8
_0-b_細線3
  6
CONTINUOUS
 62
    7
 10
1204.8825230970879
 20
216.2076397630166
 40
0.3333333333333334
 50
269.99999999999977
 51
359.99999999999966
  0
ARC
  8
_0-b_細線3
  6
CONTINUOUS
 62
    7
 10
1204.8825230970879
 20
237.2076397630164
 40
0.3333333333333334
 50
0
 51
89.999999999999915
  0
LINE
  8
_0-b_細線3
  6
CONTINUOUS
 62
    7
 10
1205.2158564304214
 20
225.874306429683
 11
1205.2158564304214
 21
216.2076397630166
  0
LINE
  8
_0-b_細線3
  6
CONTINUOUS
 62
    7
 10
1205.2158564304214
 20
237.2076397630164
 11
1205.2158564304214
 21
225.874306429683
  0
LINE
  8
_0-b_細線3
  6
CONTINUOUS
 62
    7
 10
1203.5491897637548
 20
237.54097309634943
 11
1204.8825230970879
 21
237.54097309634943
  0
LINE
  8
_0-b_細線3
  6
CONTINUOUS
 62
    7
 10
1203.5491897637548
 20
215.87430642968357
 11
1204.8825230970879
 21
215.87430642968357
  0
LINE
  8
_0-a_極細3
  6
CONTINUOUS
 62
    7
 10
418.55161670459603
 20
124.04101019434997
 11
301.88495003792895
 21
124.04101019434997
  0
LINE
  8
_0-a_極細3
  6
CONTINUOUS
 62
    7
 10
1168.5491897609954
 20
124.04101019434997
 11
1285.2158564276619
 21
124.04101019434997
  0
LINE
  8
_0-d_寸法3
  6
CONTINUOUS
 62
    7
 10
785.35766931504338
 20
209.77640955618256
 11
724.23805662412178
 21
252.57282309482363
  0
LINE
  8
_0-d_寸法3
  6
CONTINUOUS
 62
    7
 10
728.33381684556673
 20
249.70494091306841
 11
725.74562639454155
 21
259.36419917595913
  0
LINE
  8
_0-d_寸法3
  6
CONTINUOUS
 62
    7
 10
728.33381684556673
 20
249.70494091306841
 11
730.92200729659203
 21
259.36419917595913
  0
LINE
  8
_0-d_寸法3
  6
CONTINUOUS
 62
    7
 10
785.35766931504338
 20
251.44307622284907
 11
724.23805662412178
 21
294.23948976149018
  0
LINE
  8
_0-d_寸法3
  6
CONTINUOUS
 62
    7
 10
728.33381684556673
 20
291.37160757973493
 11
730.92200729659203
 21
281.71234931684421
  0
LINE
  8
_0-d_寸法3
  6
CONTINUOUS
 62
    7
 10
728.33381684556673
 20
291.37160757973493
 11
725.74562639454143
 21
281.71234931684421
  0
LINE
  8
_0-d_寸法3
  6
CONTINUOUS
 62
    7
 10
728.33381684556673
 20
249.70494091306841
 11
728.33381684556673
 21
291.37160757973493
  0
TEXT
  8
_0-d_寸法3
 62
    7
 10
728.33381684556673
 20
263.03827424640167
 40
15
 41
1
 50
90
  1
25
  0
LINE
  8
_0-1_計細線
  6
CONTINUOUS
 62
    3
 10
1595.3030054564624
 20
614.74791666725991
 11
592.30300545646207
 21
614.74791666725991
  0
LINE
  8
_0-1_計細線
  6
CONTINUOUS
 62
    3
 10
1598.3030054564624
 20
611.74791666725991
 11
589.30300545646207
 21
611.74791666725991
  0
LINE
  8
_0-1_計細線
  6
CONTINUOUS
 62
    3
 10
589.30300545646196
 20
1121.7479166672554
 11
1598.303005456462
 21
1121.7479166672554
  0
LINE
  8
_0-1_計細線
  6
CONTINUOUS
 62
    3
 10
592.30300545646185
 20
1118.7479166672554
 11
1595.3030054564622
 21
1118.7479166672554
  0
LINE
  8
_0-5_寸法線
  6
CONTINUOUS
 62
    7
 10
589.30300545646196
 20
1131.7479166672554
 11
589.3030054564623
 21
1286.7479166672558
  0
LINE
  8
_0-5_寸法線
  6
CONTINUOUS
 62
    7
 10
589.3030054564623
 20
1281.7479166672558
 11
598.96226371935302
 21
1284.336107118281
  0
LINE
  8
_0-5_寸法線
  6
CONTINUOUS
 62
    7
 10
589.3030054564623
 20
1281.7479166672558
 11
598.96226371935302
 21
1279.1597262162306
  0
LINE
  8
_0-5_寸法線
  6
CONTINUOUS
 62
    7
 10
1598.303005456462
 20
1131.7479166672554
 11
1598.3030054564624
 21
1286.7479166672558
  0
LINE
  8
_0-5_寸法線
  6
CONTINUOUS
 62
    7
 10
1598.3030054564624
 20
1281.7479166672558
 11
1588.6437471935719
 21
1279.1597262162306
  0
LINE
  8
_0-5_寸法線
  6
CONTINUOUS
 62
    7
 10
1598.3030054564624
 20
1281.7479166672558
 11
1588.6437471935719
 21
1284.336107118281
  0
LINE
  8
_0-5_寸法線
  6
CONTINUOUS
 62
    7
 10
589.3030054564623
 20
1281.7479166672558
 11
1598.3030054564624
 21
1281.7479166672558
  0
TEXT
  8
_0-5_寸法線
 62
    7
 10
1078.8030054564624
 20
1281.7479166672558
 40
15
 41
1
 50
0
  1
1009
  0
LINE
  8
_0-5_寸法線
  6
CONTINUOUS
 62
    7
 10
589.3030054564623
 20
1241.7479166672558
 11
579.64374719357158
 21
1239.1597262162306
  0
LINE
  8
_0-5_寸法線
  6
CONTINUOUS
 62
    7
 10
589.3030054564623
 20
1241.7479166672558
 11
579.64374719357158
 21
1244.336107118281
  0
LINE
  8
_0-5_寸法線
  6
CONTINUOUS
 62
    7
 10
592.30300545646185
 20
1131.7479166672554
 11
592.3030054564623
 21
1246.7479166672558
  0
LINE
  8
_0-5_寸法線
  6
CONTINUOUS
 62
    7
 10
564.3030054564623
 20
1241.7479166672558
 11
592.3030054564623
 21
1241.7479166672558
  0
TEXT
  8
_0-5_寸法線
 62
    7
 10
574.97076610696456
 20
1241.7479166672558
 40
15
 41
1
 50
0
  1
3
  0
LINE
  8
_0-5_寸法線
  6
CONTINUOUS
 62
    7
 10
592.3030054564623
 20
1241.7479166672558
 11
601.96226371935302
 21
1244.336107118281
  0
LINE
  8
_0-5_寸法線
  6
CONTINUOUS
 62
    7
 10
592.3030054564623
 20
1241.7479166672558
 11
601.96226371935302
 21
1239.1597262162306
  0
LINE
  8
_0-5_寸法線
  6
CONTINUOUS
 62
    7
 10
1595.3030054564622
 20
1131.7479166672554
 11
1595.3030054564624
 21
1246.7479166672558
  0
LINE
  8
_0-5_寸法線
  6
CONTINUOUS
 62
    7
 10
1595.3030054564624
 20
1241.7479166672558
 11
1585.6437471935717
 21
1239.1597262162306
  0
LINE
  8
_0-5_寸法線
  6
CONTINUOUS
 62
    7
 10
1595.3030054564624
 20
1241.7479166672558
 11
1585.6437471935717
 21
1244.336107118281
  0
LINE
  8
_0-5_寸法線
  6
CONTINUOUS
 62
    7
 10
592.3030054564623
 20
1241.7479166672558
 11
1595.3030054564624
 21
1241.7479166672558
  0
TEXT
  8
_0-5_寸法線
 62
    7
 10
1078.8030054564624
 20
1241.7479166672558
 40
15
 41
1
 50
0
  1
1003
  0
LINE
  8
_0-5_寸法線
  6
CONTINUOUS
 62
    7
 10
1598.3030054564624
 20
1241.7479166672558
 11
1607.9622637193531
 21
1244.336107118281
  0
LINE
  8
_0-5_寸法線
  6
CONTINUOUS
 62
    7
 10
1598.3030054564624
 20
1241.7479166672558
 11
1607.9622637193531
 21
1239.1597262162306
  0
LINE
  8
_0-5_寸法線
  6
CONTINUOUS
 62
    7
 10
1595.3030054564624
 20
1241.7479166672558
 11
1623.3030054564624
 21
1241.7479166672558
  0
TEXT
  8
_0-5_寸法線
 62
    7
 10
1605.2448651217912
 20
1241.7479166672558
 40
15
 41
1
 50
0
  1
3
  0
LINE
  8
_0-1_計細線
  6
CONTINUOUS
 62
    3
 10
1595.3030054564622
 20
1118.7479166672554
 11
1595.3030054564624
 21
614.74791666725991
  0
LINE
  8
_0-1_計細線
  6
CONTINUOUS
 62
    3
 10
1598.303005456462
 20
1121.7479166672554
 11
1598.3030054564624
 21
611.74791666725991
  0
LINE
  8
_0-1_計細線
  6
CONTINUOUS
 62
    3
 10
594.30300545646196
 20
872.44791667058644
 11
1593.3030054564631
 21
872.44791667058644
  0
LINE
  8
_0-1_計細線
  6
CONTINUOUS
 62
    3
 10
594.30300545646196
 20
861.04791667058589
 11
1593.3030054564631
 21
861.04791667058589
  0
LINE
  8
_0-1_計細線
  6
CONTINUOUS
 62
    3
 10
594.30300545646196
 20
872.44791667058644
 11
594.30300545646196
 21
861.04791667058589
  0
LINE
  8
_0-1_計細線
  6
CONTINUOUS
 62
    3
 10
1593.3030054564631
 20
872.44791667058644
 11
1593.3030054564631
 21
861.04791667058589
  0
LINE
  8
_0-0_計極細
  6
CONTINUOUS
 62
    2
 10
594.30300545646196
 20
864.24791667058628
 11
1593.3030054564631
 21
864.24791667058628
  0
LINE
  8
_0-0_計極細
  6
CONTINUOUS
 62
    2
 10
594.30300545646196
 20
869.24791667058628
 11
1593.3030054564631
 21
869.24791667058628
  0
LINE
  8
_0-1_計細線
  6
CONTINUOUS
 62
    3
 10
594.30300545646196
 20
843.64791666798874
 11
1593.3030054564631
 21
843.64791666798874
  0
LINE
  8
_0-1_計細線
  6
CONTINUOUS
 62
    3
 10
594.30300545646196
 20
855.0479166679894
 11
1593.3030054564631
 21
855.0479166679894
  0
LINE
  8
_0-1_計細線
  6
CONTINUOUS
 62
    3
 10
594.30300545646196
 20
843.64791666798874
 11
594.30300545646196
 21
855.0479166679894
  0
LINE
  8
_0-1_計細線
  6
CONTINUOUS
 62
    3
 10
1593.3030054564631
 20
843.64791666798874
 11
1593.3030054564631
 21
855.0479166679894
  0
LINE
  8
_0-0_計極細
  6
CONTINUOUS
 62
    2
 10
594.30300545646196
 20
851.84791666798901
 11
1593.3030054564631
 21
851.84791666798901
  0
LINE
  8
_0-0_計極細
  6
CONTINUOUS
 62
    2
 10
594.30300545646196
 20
846.84791666798901
 11
1593.3030054564631
 21
846.84791666798901
  0
LINE
  8
_0-1_計細線
  6
CONTINUOUS
 62
    3
 10
594.30300545646196
 20
826.24791666854082
 11
1593.3030054564631
 21
826.24791666854082
  0
LINE
  8
_0-1_計細線
  6
CONTINUOUS
 62
    3
 10
594.30300545646196
 20
837.64791666854137
 11
1593.3030054564631
 21
837.64791666854137
  0
LINE
  8
_0-1_計細線
  6
CONTINUOUS
 62
    3
 10
594.30300545646196
 20
826.24791666854082
 11
594.30300545646196
 21
837.64791666854137
  0
LINE
  8
_0-1_計細線
  6
CONTINUOUS
 62
    3
 10
1593.3030054564631
 20
826.24791666854082
 11
1593.3030054564631
 21
837.64791666854137
  0
LINE
  8
_0-0_計極細
  6
CONTINUOUS
 62
    2
 10
594.30300545646196
 20
834.44791666854098
 11
1593.3030054564631
 21
834.44791666854098
  0
LINE
  8
_0-0_計極細
  6
CONTINUOUS
 62
    2
 10
594.30300545646196
 20
829.44791666854098
 11
1593.3030054564631
 21
829.44791666854098
  0
LINE
  8
_0-1_計細線
  6
CONTINUOUS
 62
    3
 10
594.30300545646196
 20
808.84791666909246
 11
1593.3030054564631
 21
808.84791666909246
  0
LINE
  8
_0-1_計細線
  6
CONTINUOUS
 62
    3
 10
594.30300545646196
 20
820.24791666909312
 11
1593.3030054564631
 21
820.24791666909312
  0
LINE
  8
_0-1_計細線
  6
CONTINUOUS
 62
    3
 10
594.30300545646196
 20
808.84791666909246
 11
594.30300545646196
 21
820.24791666909312
  0
LINE
  8
_0-1_計細線
  6
CONTINUOUS
 62
    3
 10
1593.3030054564631
 20
808.84791666909246
 11
1593.3030054564631
 21
820.24791666909312
  0
LINE
  8
_0-0_計極細
  6
CONTINUOUS
 62
    2
 10
594.30300545646196
 20
817.04791666909273
 11
1593.3030054564631
 21
817.04791666909273
  0
LINE
  8
_0-0_計極細
  6
CONTINUOUS
 62
    2
 10
594.30300545646196
 20
812.04791666909273
 11
1593.3030054564631
 21
812.04791666909273
  0
LINE
  8
_0-1_計細線
  6
CONTINUOUS
 62
    3
 10
594.30300545646196
 20
791.4479166696442
 11
1593.3030054564631
 21
791.4479166696442
  0
LINE
  8
_0-1_計細線
  6
CONTINUOUS
 62
    3
 10
594.30300545646196
 20
802.84791666964475
 11
1593.3030054564631
 21
802.84791666964475
  0
LINE
  8
_0-1_計細線
  6
CONTINUOUS
 62
    3
 10
594.30300545646196
 20
791.4479166696442
 11
594.30300545646196
 21
802.84791666964475
  0
LINE
  8
_0-1_計細線
  6
CONTINUOUS
 62
    3
 10
1593.3030054564631
 20
791.4479166696442
 11
1593.3030054564631
 21
802.84791666964475
  0
LINE
  8
_0-0_計極細
  6
CONTINUOUS
 62
    2
 10
594.30300545646196
 20
799.64791666964459
 11
1593.3030054564631
 21
799.64791666964459
  0
LINE
  8
_0-0_計極細
  6
CONTINUOUS
 62
    2
 10
594.30300545646196
 20
794.64791666964459
 11
1593.3030054564631
 21
794.64791666964459
  0
LINE
  8
_0-1_計細線
  6
CONTINUOUS
 62
    3
 10
594.30300545646196
 20
774.04791667019595
 11
1593.3030054564631
 21
774.04791667019595
  0
LINE
  8
_0-1_計細線
  6
CONTINUOUS
 62
    3
 10
594.30300545646196
 20
785.44791667019649
 11
1593.3030054564631
 21
785.44791667019649
  0
LINE
  8
_0-1_計細線
  6
CONTINUOUS
 62
    3
 10
594.30300545646196
 20
774.04791667019595
 11
594.30300545646196
 21
785.44791667019649
  0
LINE
  8
_0-1_計細線
  6
CONTINUOUS
 62
    3
 10
1593.3030054564631
 20
774.04791667019595
 11
1593.3030054564631
 21
785.44791667019649
  0
LINE
  8
_0-0_計極細
  6
CONTINUOUS
 62
    2
 10
594.30300545646196
 20
782.24791667019633
 11
1593.3030054564631
 21
782.24791667019633
  0
LINE
  8
_0-0_計極細
  6
CONTINUOUS
 62
    2
 10
594.30300545646196
 20
777.24791667019633
 11
1593.3030054564631
 21
777.24791667019633
  0
LINE
  8
_0-1_計細線
  6
CONTINUOUS
 62
    3
 10
594.30300545646196
 20
756.64791666853989
 11
1593.3030054564631
 21
756.64791666853989
  0
LINE
  8
_0-1_計細線
  6
CONTINUOUS
 62
    3
 10
594.30300545646196
 20
768.04791666854044
 11
1593.3030054564631
 21
768.04791666854044
  0
LINE
  8
_0-1_計細線
  6
CONTINUOUS
 62
    3
 10
594.30300545646196
 20
756.64791666853989
 11
594.30300545646196
 21
768.04791666854044
  0
LINE
  8
_0-1_計細線
  6
CONTINUOUS
 62
    3
 10
1593.3030054564631
 20
756.64791666853989
 11
1593.3030054564631
 21
768.04791666854044
  0
LINE
  8
_0-0_計極細
  6
CONTINUOUS
 62
    2
 10
594.30300545646196
 20
764.84791666854017
 11
1593.3030054564631
 21
764.84791666854017
  0
LINE
  8
_0-0_計極細
  6
CONTINUOUS
 62
    2
 10
594.30300545646196
 20
759.84791666854017
 11
1593.3030054564631
 21
759.84791666854017
  0
LINE
  8
_0-1_計細線
  6
CONTINUOUS
 62
    3
 10
594.30300545646196
 20
739.24791667129966
 11
1593.3030054564631
 21
739.24791667129966
  0
LINE
  8
_0-1_計細線
  6
CONTINUOUS
 62
    3
 10
594.30300545646196
 20
750.64791667130021
 11
1593.3030054564631
 21
750.64791667130021
  0
LINE
  8
_0-1_計細線
  6
CONTINUOUS
 62
    3
 10
594.30300545646196
 20
739.24791667129966
 11
594.30300545646196
 21
750.64791667130021
  0
LINE
  8
_0-1_計細線
  6
CONTINUOUS
 62
    3
 10
1593.3030054564631
 20
739.24791667129966
 11
1593.3030054564631
 21
750.64791667130021
  0
LINE
  8
_0-0_計極細
  6
CONTINUOUS
 62
    2
 10
594.30300545646196
 20
747.44791667130005
 11
1593.3030054564631
 21
747.44791667130005
  0
LINE
  8
_0-0_計極細
  6
CONTINUOUS
 62
    2
 10
594.30300545646196
 20
742.44791667130005
 11
1593.3030054564631
 21
742.44791667130005
  0
LINE
  8
_0-1_計細線
  6
CONTINUOUS
 62
    3
 10
594.30300545646196
 20
721.84791666964361
 11
1593.3030054564631
 21
721.84791666964361
  0
LINE
  8
_0-1_計細線
  6
CONTINUOUS
 62
    3
 10
594.30300545646196
 20
733.24791666964416
 11
1593.3030054564631
 21
733.24791666964416
  0
LINE
  8
_0-1_計細線
  6
CONTINUOUS
 62
    3
 10
594.30300545646196
 20
721.84791666964361
 11
594.30300545646196
 21
733.24791666964416
  0
LINE
  8
_0-1_計細線
  6
CONTINUOUS
 62
    3
 10
1593.3030054564631
 20
721.84791666964361
 11
1593.3030054564631
 21
733.24791666964416
  0
LINE
  8
_0-0_計極細
  6
CONTINUOUS
 62
    2
 10
594.30300545646196
 20
730.04791666964388
 11
1593.3030054564631
 21
730.04791666964388
  0
LINE
  8
_0-0_計極細
  6
CONTINUOUS
 62
    2
 10
594.30300545646196
 20
725.04791666964388
 11
1593.3030054564631
 21
725.04791666964388
  0
LINE
  8
_0-1_計細線
  6
CONTINUOUS
 62
    3
 10
594.30300545646196
 20
704.44791666798767
 11
1593.3030054564631
 21
704.44791666798767
  0
LINE
  8
_0-1_計細線
  6
CONTINUOUS
 62
    3
 10
594.30300545646196
 20
715.8479166679881
 11
1593.3030054564631
 21
715.8479166679881
  0
LINE
  8
_0-1_計細線
  6
CONTINUOUS
 62
    3
 10
594.30300545646196
 20
704.44791666798767
 11
594.30300545646196
 21
715.8479166679881
  0
LINE
  8
_0-1_計細線
  6
CONTINUOUS
 62
    3
 10
1593.3030054564631
 20
704.44791666798767
 11
1593.3030054564631
 21
715.8479166679881
  0
LINE
  8
_0-0_計極細
  6
CONTINUOUS
 62
    2
 10
594.30300545646196
 20
712.64791666798783
 11
1593.3030054564631
 21
712.64791666798783
  0
LINE
  8
_0-0_計極細
  6
CONTINUOUS
 62
    2
 10
594.30300545646196
 20
707.64791666798783
 11
1593.3030054564631
 21
707.64791666798783
  0
LINE
  8
_0-1_計細線
  6
CONTINUOUS
 62
    3
 10
594.30300545646196
 20
652.24791666909073
 11
1593.3030054564631
 21
652.24791666909073
  0
LINE
  8
_0-1_計細線
  6
CONTINUOUS
 62
    3
 10
594.30300545646196
 20
663.64791666909127
 11
1593.3030054564631
 21
663.64791666909127
  0
LINE
  8
_0-1_計細線
  6
CONTINUOUS
 62
    3
 10
594.30300545646196
 20
652.24791666909073
 11
594.30300545646196
 21
663.64791666909127
  0
LINE
  8
_0-1_計細線
  6
CONTINUOUS
 62
    3
 10
1593.3030054564631
 20
652.24791666909073
 11
1593.3030054564631
 21
663.64791666909127
  0
LINE
  8
_0-0_計極細
  6
CONTINUOUS
 62
    2
 10
594.30300545646196
 20
660.447916669091
 11
1593.3030054564631
 21
660.447916669091
  0
LINE
  8
_0-0_計極細
  6
CONTINUOUS
 62
    2
 10
594.30300545646196
 20
655.447916669091
 11
1593.3030054564631
 21
655.447916669091
  0
LINE
  8
_0-1_計細線
  6
CONTINUOUS
 62
    3
 10
594.30300545646196
 20
634.54791667792165
 11
1593.3030054564631
 21
634.54791667792165
  0
LINE
  8
_0-1_計細線
  6
CONTINUOUS
 62
    3
 10
594.30300545646196
 20
645.94791667792219
 11
1593.3030054564631
 21
645.94791667792219
  0
LINE
  8
_0-1_計細線
  6
CONTINUOUS
 62
    3
 10
594.30300545646196
 20
634.54791667792165
 11
594.30300545646196
 21
645.94791667792219
  0
LINE
  8
_0-1_計細線
  6
CONTINUOUS
 62
    3
 10
1593.3030054564631
 20
634.54791667792165
 11
1593.3030054564631
 21
645.94791667792219
  0
LINE
  8
_0-0_計極細
  6
CONTINUOUS
 62
    2
 10
594.30300545646196
 20
642.74791667792203
 11
1593.3030054564631
 21
642.74791667792203
  0
LINE
  8
_0-0_計極細
  6
CONTINUOUS
 62
    2
 10
594.30300545646196
 20
637.74791667792192
 11
1593.3030054564631
 21
637.74791667792192
  0
LINE
  8
_0-1_計細線
  6
CONTINUOUS
 62
    3
 10
594.30300545646196
 20
616.74791666504757
 11
1593.3030054564631
 21
616.74791666504757
  0
LINE
  8
_0-1_計細線
  6
CONTINUOUS
 62
    3
 10
594.30300545646196
 20
628.14791666504811
 11
1593.3030054564631
 21
628.14791666504811
  0
LINE
  8
_0-1_計細線
  6
CONTINUOUS
 62
    3
 10
594.30300545646196
 20
616.74791666504757
 11
594.30300545646196
 21
628.14791666504811
  0
LINE
  8
_0-1_計細線
  6
CONTINUOUS
 62
    3
 10
1593.3030054564631
 20
616.74791666504757
 11
1593.3030054564631
 21
628.14791666504811
  0
LINE
  8
_0-0_計極細
  6
CONTINUOUS
 62
    2
 10
594.30300545646196
 20
624.94791666504784
 11
1593.3030054564631
 21
624.94791666504784
  0
LINE
  8
_0-0_計極細
  6
CONTINUOUS
 62
    2
 10
594.30300545646196
 20
619.94791666504784
 11
1593.3030054564631
 21
619.94791666504784
  0
LINE
  8
_0-0_計極細
  6
CONTINUOUS
 62
    2
 10
629.80300545646196
 20
861.04791666392566
 11
629.80300545646196
 21
855.0479166679894
  0
LINE
  8
_0-0_計極細
  6
CONTINUOUS
 62
    2
 10
619.80300545646196
 20
861.04791666392566
 11
619.80300545646196
 21
855.0479166679894
  0
LINE
  8
_0-0_計極細
  6
CONTINUOUS
 62
    2
 10
629.80300545646196
 20
843.64791666447775
 11
629.80300545646196
 21
837.64791666854137
  0
LINE
  8
_0-0_計極細
  6
CONTINUOUS
 62
    2
 10
619.80300545646196
 20
843.64791666447775
 11
619.80300545646196
 21
837.64791666854137
  0
LINE
  8
_0-0_計極細
  6
CONTINUOUS
 62
    2
 10
629.80300545646196
 20
826.24791666502938
 11
629.80300545646196
 21
820.24791666909312
  0
LINE
  8
_0-0_計極細
  6
CONTINUOUS
 62
    2
 10
619.80300545646196
 20
826.24791666502938
 11
619.80300545646196
 21
820.24791666909312
  0
LINE
  8
_0-0_計極細
  6
CONTINUOUS
 62
    2
 10
629.80300545646196
 20
808.84791666558112
 11
629.80300545646196
 21
802.84791666964475
  0
LINE
  8
_0-0_計極細
  6
CONTINUOUS
 62
    2
 10
619.80300545646196
 20
808.84791666558112
 11
619.80300545646196
 21
802.84791666964475
  0
LINE
  8
_0-0_計極細
  6
CONTINUOUS
 62
    2
 10
629.80300545646196
 20
791.44791666613287
 11
629.80300545646196
 21
785.44791667019649
  0
LINE
  8
_0-0_計極細
  6
CONTINUOUS
 62
    2
 10
619.80300545646196
 20
791.44791666613287
 11
619.80300545646196
 21
785.44791667019649
  0
LINE
  8
_0-0_計極細
  6
CENTER1
 62
    2
 10
624.80300545646185
 20
1125.4986360917185
 11
624.80300545646207
 21
608.99009292624737
  0
LINE
  8
_0-0_計極細
  6
CONTINUOUS
 62
    2
 10
629.80300545646196
 20
774.04791666447693
 11
629.80300545646196
 21
768.04791666854044
  0
LINE
  8
_0-0_計極細
  6
CONTINUOUS
 62
    2
 10
619.80300545646196
 20
774.04791666447693
 11
619.80300545646196
 21
768.04791666854044
  0
LINE
  8
_0-0_計極細
  6
CONTINUOUS
 62
    2
 10
629.80300545646196
 20
756.64791666723659
 11
629.80300545646196
 21
750.64791667130021
  0
LINE
  8
_0-0_計極細
  6
CONTINUOUS
 62
    2
 10
619.80300545646196
 20
756.64791666723659
 11
619.80300545646196
 21
750.64791667130021
  0
LINE
  8
_0-0_計極細
  6
CONTINUOUS
 62
    2
 10
629.80300545646196
 20
739.24791666558053
 11
629.80300545646196
 21
733.24791666964416
  0
LINE
  8
_0-0_計極細
  6
CONTINUOUS
 62
    2
 10
619.80300545646196
 20
739.24791666558053
 11
619.80300545646196
 21
733.24791666964416
  0
LINE
  8
_0-0_計極細
  6
CONTINUOUS
 62
    2
 10
629.80300545646196
 20
721.84791666392459
 11
629.80300545646196
 21
715.8479166679881
  0
LINE
  8
_0-0_計極細
  6
CONTINUOUS
 62
    2
 10
619.80300545646196
 20
721.84791666392459
 11
619.80300545646196
 21
715.8479166679881
  0
LINE
  8
_0-0_計極細
  6
CONTINUOUS
 62
    2
 10
629.80300545646196
 20
704.44791666833976
 11
629.80300545646196
 21
698.44791667240338
  0
LINE
  8
_0-0_計極細
  6
CONTINUOUS
 62
    2
 10
619.80300545646196
 20
704.44791666833976
 11
619.80300545646196
 21
698.44791667240338
  0
LINE
  8
_0-0_計極細
  6
CONTINUOUS
 62
    2
 10
629.80300545646196
 20
687.0479166666837
 11
629.80300545646196
 21
681.04791667074733
  0
LINE
  8
_0-0_計極細
  6
CONTINUOUS
 62
    2
 10
619.80300545646196
 20
687.0479166666837
 11
619.80300545646196
 21
681.04791667074733
  0
LINE
  8
_0-0_計極細
  6
CONTINUOUS
 62
    2
 10
629.80300545646196
 20
669.64791666502765
 11
629.80300545646196
 21
663.64791666909127
  0
LINE
  8
_0-0_計極細
  6
CONTINUOUS
 62
    2
 10
619.80300545646196
 20
669.64791666502765
 11
619.80300545646196
 21
663.64791666909127
  0
LINE
  8
_0-0_計極細
  6
CONTINUOUS
 62
    2
 10
619.80300545646196
 20
652.24791666909073
 11
619.80300545646196
 21
645.94791667792219
  0
LINE
  8
_0-0_計極細
  6
CONTINUOUS
 62
    2
 10
629.80300545646196
 20
652.24791666909073
 11
629.80300545646196
 21
645.94791667792219
  0
LINE
  8
_0-0_計極細
  6
CONTINUOUS
 62
    2
 10
619.80300545646196
 20
634.44791665621665
 11
619.80300545646196
 21
628.14791666504811
  0
LINE
  8
_0-0_計極細
  6
CONTINUOUS
 62
    2
 10
629.80300545646196
 20
634.44791665621665
 11
629.80300545646196
 21
628.14791666504811
  0
LINE
  8
_0-0_計極細
  6
CONTINUOUS
 62
    2
 10
1567.8030054564629
 20
861.04791666392566
 11
1567.8030054564629
 21
855.0479166679894
  0
LINE
  8
_0-0_計極細
  6
CONTINUOUS
 62
    2
 10
1557.8030054564629
 20
861.04791666392566
 11
1557.8030054564629
 21
855.0479166679894
  0
LINE
  8
_0-0_計極細
  6
CONTINUOUS
 62
    2
 10
1567.8030054564629
 20
843.64791666447775
 11
1567.8030054564629
 21
837.64791666854137
  0
LINE
  8
_0-0_計極細
  6
CONTINUOUS
 62
    2
 10
1557.8030054564629
 20
843.64791666447775
 11
1557.8030054564629
 21
837.64791666854137
  0
LINE
  8
_0-0_計極細
  6
CONTINUOUS
 62
    2
 10
1567.8030054564629
 20
826.24791666502938
 11
1567.8030054564629
 21
820.24791666909312
  0
LINE
  8
_0-0_計極細
  6
CONTINUOUS
 62
    2
 10
1557.8030054564629
 20
826.24791666502938
 11
1557.8030054564629
 21
820.24791666909312
  0
LINE
  8
_0-0_計極細
  6
CONTINUOUS
 62
    2
 10
1567.8030054564629
 20
808.84791666558112
 11
1567.8030054564629
 21
802.84791666964475
  0
LINE
  8
_0-0_計極細
  6
CONTINUOUS
 62
    2
 10
1557.8030054564629
 20
808.84791666558112
 11
1557.8030054564629
 21
802.84791666964475
  0
LINE
  8
_0-0_計極細
  6
CONTINUOUS
 62
    2
 10
1567.8030054564629
 20
791.44791666613287
 11
1567.8030054564629
 21
785.44791667019649
  0
LINE
  8
_0-0_計極細
  6
CONTINUOUS
 62
    2
 10
1557.8030054564629
 20
791.44791666613287
 11
1557.8030054564629
 21
785.44791667019649
  0
LINE
  8
_0-0_計極細
  6
CENTER1
 62
    2
 10
1562.8030054564626
 20
1125.4986360917185
 11
1562.8030054564633
 21
608.99009292624737
  0
LINE
  8
_0-0_計極細
  6
CONTINUOUS
 62
    2
 10
1567.8030054564629
 20
774.04791666447693
 11
1567.8030054564629
 21
768.04791666854044
  0
LINE
  8
_0-0_計極細
  6
CONTINUOUS
 62
    2
 10
1557.8030054564629
 20
774.04791666447693
 11
1557.8030054564629
 21
768.04791666854044
  0
LINE
  8
_0-0_計極細
  6
CONTINUOUS
 62
    2
 10
1567.8030054564629
 20
756.64791666723659
 11
1567.8030054564629
 21
750.64791667130021
  0
LINE
  8
_0-0_計極細
  6
CONTINUOUS
 62
    2
 10
1557.8030054564629
 20
756.64791666723659
 11
1557.8030054564629
 21
750.64791667130021
  0
LINE
  8
_0-0_計極細
  6
CONTINUOUS
 62
    2
 10
1567.8030054564629
 20
739.24791666558053
 11
1567.8030054564629
 21
733.24791666964416
  0
LINE
  8
_0-0_計極細
  6
CONTINUOUS
 62
    2
 10
1557.8030054564629
 20
739.24791666558053
 11
1557.8030054564629
 21
733.24791666964416
  0
LINE
  8
_0-0_計極細
  6
CONTINUOUS
 62
    2
 10
1567.8030054564629
 20
721.84791666392459
 11
1567.8030054564629
 21
715.8479166679881
  0
LINE
  8
_0-0_計極細
  6
CONTINUOUS
 62
    2
 10
1557.8030054564629
 20
721.84791666392459
 11
1557.8030054564629
 21
715.8479166679881
  0
LINE
  8
_0-0_計極細
  6
CONTINUOUS
 62
    2
 10
1567.8030054564629
 20
704.44791666833976
 11
1567.8030054564629
 21
698.44791667240338
  0
LINE
  8
_0-0_計極細
  6
CONTINUOUS
 62
    2
 10
1557.8030054564629
 20
704.44791666833976
 11
1557.8030054564629
 21
698.44791667240338
  0
LINE
  8
_0-0_計極細
  6
CONTINUOUS
 62
    2
 10
1567.8030054564629
 20
687.0479166666837
 11
1567.8030054564629
 21
681.04791667074733
  0
LINE
  8
_0-0_計極細
  6
CONTINUOUS
 62
    2
 10
1557.8030054564629
 20
687.0479166666837
 11
1557.8030054564629
 21
681.04791667074733
  0
LINE
  8
_0-0_計極細
  6
CONTINUOUS
 62
    2
 10
1567.8030054564629
 20
669.64791666502765
 11
1567.8030054564629
 21
663.64791666909127
  0
LINE
  8
_0-0_計極細
  6
CONTINUOUS
 62
    2
 10
1557.8030054564629
 20
669.64791666502765
 11
1557.8030054564629
 21
663.64791666909127
  0
LINE
  8
_0-0_計極細
  6
CONTINUOUS
 62
    2
 10
1567.8030054564629
 20
652.24791666909073
 11
1567.8030054564629
 21
645.94791667792219
  0
LINE
  8
_0-0_計極細
  6
CONTINUOUS
 62
    2
 10
1557.8030054564629
 20
652.24791666909073
 11
1557.8030054564629
 21
645.94791667792219
  0
LINE
  8
_0-0_計極細
  6
CONTINUOUS
 62
    2
 10
1567.8030054564629
 20
634.44791665621665
 11
1567.8030054564629
 21
628.14791666504811
  0
LINE
  8
_0-0_計極細
  6
CONTINUOUS
 62
    2
 10
1557.8030054564629
 20
634.44791665621665
 11
1557.8030054564629
 21
628.14791666504811
  0
LINE
  8
_0-0_計極細
  6
CONTINUOUS
 62
    2
 10
763.80300545646196
 20
855.0479166679894
 11
763.80300545646196
 21
861.04791666392612
  0
LINE
  8
_0-0_計極細
  6
CONTINUOUS
 62
    2
 10
753.80300545646196
 20
855.0479166679894
 11
753.80300545646196
 21
861.04791666392612
  0
LINE
  8
_0-0_計極細
  6
CONTINUOUS
 62
    2
 10
763.80300545646196
 20
837.64791666854137
 11
763.80300545646196
 21
843.64791666447809
  0
LINE
  8
_0-0_計極細
  6
CONTINUOUS
 62
    2
 10
753.80300545646196
 20
837.64791666854137
 11
753.80300545646196
 21
843.64791666447809
  0
LINE
  8
_0-0_計極細
  6
CONTINUOUS
 62
    2
 10
763.80300545646196
 20
820.24791666909312
 11
763.80300545646196
 21
826.24791666502983
  0
LINE
  8
_0-0_計極細
  6
CONTINUOUS
 62
    2
 10
753.80300545646196
 20
820.24791666909312
 11
753.80300545646196
 21
826.24791666502983
  0
LINE
  8
_0-0_計極細
  6
CONTINUOUS
 62
    2
 10
763.80300545646196
 20
802.84791666964475
 11
763.80300545646196
 21
808.84791666558158
  0
LINE
  8
_0-0_計極細
  6
CONTINUOUS
 62
    2
 10
753.80300545646196
 20
802.84791666964475
 11
753.80300545646196
 21
808.84791666558158
  0
LINE
  8
_0-0_計極細
  6
CONTINUOUS
 62
    2
 10
763.80300545646196
 20
785.44791667019649
 11
763.80300545646196
 21
791.44791666613344
  0
LINE
  8
_0-0_計極細
  6
CONTINUOUS
 62
    2
 10
753.80300545646196
 20
785.44791667019649
 11
753.80300545646196
 21
791.44791666613344
  0
LINE
  8
_0-0_計極細
  6
CENTER1
 62
    2
 10
758.80300545646173
 20
1125.4986360917185
 11
758.80300545646196
 21
608.99009292624737
  0
LINE
  8
_0-0_計極細
  6
CONTINUOUS
 62
    2
 10
763.80300545646196
 20
768.04791666854044
 11
763.80300545646196
 21
774.04791666447738
  0
LINE
  8
_0-0_計極細
  6
CONTINUOUS
 62
    2
 10
753.80300545646196
 20
768.04791666854044
 11
753.80300545646196
 21
774.04791666447738
  0
LINE
  8
_0-0_計極細
  6
CONTINUOUS
 62
    2
 10
763.80300545646196
 20
750.64791667130021
 11
763.80300545646196
 21
756.64791666723704
  0
LINE
  8
_0-0_計極細
  6
CONTINUOUS
 62
    2
 10
753.80300545646196
 20
750.64791667130021
 11
753.80300545646196
 21
756.64791666723704
  0
LINE
  8
_0-0_計極細
  6
CONTINUOUS
 62
    2
 10
763.80300545646196
 20
733.24791666964416
 11
763.80300545646196
 21
739.2479166655811
  0
LINE
  8
_0-0_計極細
  6
CONTINUOUS
 62
    2
 10
753.80300545646196
 20
733.24791666964416
 11
753.80300545646196
 21
739.2479166655811
  0
LINE
  8
_0-0_計極細
  6
CONTINUOUS
 62
    2
 10
763.80300545646196
 20
715.8479166679881
 11
763.80300545646196
 21
721.84791666392493
  0
LINE
  8
_0-0_計極細
  6
CONTINUOUS
 62
    2
 10
753.80300545646196
 20
715.8479166679881
 11
753.80300545646196
 21
721.84791666392493
  0
LINE
  8
_0-0_計極細
  6
CONTINUOUS
 62
    2
 10
763.80300545646196
 20
698.44791667240338
 11
763.80300545646196
 21
704.44791666834021
  0
LINE
  8
_0-0_計極細
  6
CONTINUOUS
 62
    2
 10
753.80300545646196
 20
698.44791667240338
 11
753.80300545646196
 21
704.44791666834021
  0
LINE
  8
_0-0_計極細
  6
CONTINUOUS
 62
    2
 10
763.80300545646196
 20
663.64791666909127
 11
763.80300545646196
 21
669.64791666502822
  0
LINE
  8
_0-0_計極細
  6
CONTINUOUS
 62
    2
 10
753.80300545646196
 20
663.64791666909127
 11
753.80300545646196
 21
669.64791666502822
  0
LINE
  8
_0-0_計極細
  6
CONTINUOUS
 62
    2
 10
763.80300545646196
 20
645.94791667792219
 11
763.80300545646196
 21
652.24791666909073
  0
LINE
  8
_0-0_計極細
  6
CONTINUOUS
 62
    2
 10
753.80300545646196
 20
645.94791667792219
 11
753.80300545646196
 21
652.24791666909073
  0
LINE
  8
_0-0_計極細
  6
CONTINUOUS
 62
    2
 10
763.80300545646196
 20
628.14791666504811
 11
763.80300545646196
 21
634.44791665621665
  0
LINE
  8
_0-0_計極細
  6
CONTINUOUS
 62
    2
 10
753.80300545646196
 20
628.14791666504811
 11
753.80300545646196
 21
634.44791665621665
  0
LINE
  8
_0-0_計極細
  6
CONTINUOUS
 62
    2
 10
897.80300545646196
 20
861.04791666392566
 11
897.80300545646196
 21
855.0479166679894
  0
LINE
  8
_0-0_計極細
  6
CONTINUOUS
 62
    2
 10
887.80300545646196
 20
861.04791666392566
 11
887.80300545646196
 21
855.0479166679894
  0
LINE
  8
_0-0_計極細
  6
CONTINUOUS
 62
    2
 10
897.80300545646196
 20
843.64791666447775
 11
897.80300545646196
 21
837.64791666854137
  0
LINE
  8
_0-0_計極細
  6
CONTINUOUS
 62
    2
 10
887.80300545646196
 20
843.64791666447775
 11
887.80300545646196
 21
837.64791666854137
  0
LINE
  8
_0-0_計極細
  6
CONTINUOUS
 62
    2
 10
897.80300545646196
 20
826.24791666502938
 11
897.80300545646196
 21
820.24791666909312
  0
LINE
  8
_0-0_計極細
  6
CONTINUOUS
 62
    2
 10
887.80300545646196
 20
826.24791666502938
 11
887.80300545646196
 21
820.24791666909312
  0
LINE
  8
_0-0_計極細
  6
CONTINUOUS
 62
    2
 10
897.80300545646196
 20
808.84791666558112
 11
897.80300545646196
 21
802.84791666964475
  0
LINE
  8
_0-0_計極細
  6
CONTINUOUS
 62
    2
 10
887.80300545646196
 20
808.84791666558112
 11
887.80300545646196
 21
802.84791666964475
  0
LINE
  8
_0-0_計極細
  6
CONTINUOUS
 62
    2
 10
897.80300545646196
 20
791.44791666613287
 11
897.80300545646196
 21
785.44791667019649
  0
LINE
  8
_0-0_計極細
  6
CONTINUOUS
 62
    2
 10
887.80300545646196
 20
791.44791666613287
 11
887.80300545646196
 21
785.44791667019649
  0
LINE
  8
_0-0_計極細
  6
CENTER1
 62
    2
 10
892.80300545646185
 20
1125.4986360917185
 11
892.80300545646196
 21
608.99009292624737
  0
LINE
  8
_0-0_計極細
  6
CONTINUOUS
 62
    2
 10
897.80300545646196
 20
774.04791666447693
 11
897.80300545646196
 21
768.04791666854044
  0
LINE
  8
_0-0_計極細
  6
CONTINUOUS
 62
    2
 10
887.80300545646196
 20
774.04791666447693
 11
887.80300545646196
 21
768.04791666854044
  0
LINE
  8
_0-0_計極細
  6
CONTINUOUS
 62
    2
 10
897.80300545646196
 20
756.64791666723659
 11
897.80300545646196
 21
750.64791667130021
  0
LINE
  8
_0-0_計極細
  6
CONTINUOUS
 62
    2
 10
887.80300545646196
 20
756.64791666723659
 11
887.80300545646196
 21
750.64791667130021
  0
LINE
  8
_0-0_計極細
  6
CONTINUOUS
 62
    2
 10
897.80300545646196
 20
739.24791666558053
 11
897.80300545646196
 21
733.24791666964416
  0
LINE
  8
_0-0_計極細
  6
CONTINUOUS
 62
    2
 10
887.80300545646196
 20
739.24791666558053
 11
887.80300545646196
 21
733.24791666964416
  0
LINE
  8
_0-0_計極細
  6
CONTINUOUS
 62
    2
 10
897.80300545646196
 20
721.84791666392459
 11
897.80300545646196
 21
715.8479166679881
  0
LINE
  8
_0-0_計極細
  6
CONTINUOUS
 62
    2
 10
887.80300545646196
 20
721.84791666392459
 11
887.80300545646196
 21
715.8479166679881
  0
LINE
  8
_0-0_計極細
  6
CONTINUOUS
 62
    2
 10
897.80300545646196
 20
704.44791666833976
 11
897.80300545646196
 21
698.44791667240338
  0
LINE
  8
_0-0_計極細
  6
CONTINUOUS
 62
    2
 10
887.80300545646196
 20
704.44791666833976
 11
887.80300545646196
 21
698.44791667240338
  0
LINE
  8
_0-0_計極細
  6
CONTINUOUS
 62
    2
 10
897.80300545646196
 20
687.0479166666837
 11
897.80300545646196
 21
681.04791667074733
  0
LINE
  8
_0-0_計極細
  6
CONTINUOUS
 62
    2
 10
887.80300545646196
 20
687.0479166666837
 11
887.80300545646196
 21
681.04791667074733
  0
LINE
  8
_0-0_計極細
  6
CONTINUOUS
 62
    2
 10
897.80300545646196
 20
669.64791666502765
 11
897.80300545646196
 21
663.64791666909127
  0
LINE
  8
_0-0_計極細
  6
CONTINUOUS
 62
    2
 10
887.80300545646196
 20
669.64791666502765
 11
887.80300545646196
 21
663.64791666909127
  0
LINE
  8
_0-0_計極細
  6
CONTINUOUS
 62
    2
 10
897.80300545646196
 20
652.24791666909073
 11
897.80300545646196
 21
645.94791667792219
  0
LINE
  8
_0-0_計極細
  6
CONTINUOUS
 62
    2
 10
887.80300545646196
 20
652.24791666909073
 11
887.80300545646196
 21
645.94791667792219
  0
LINE
  8
_0-0_計極細
  6
CONTINUOUS
 62
    2
 10
897.80300545646196
 20
634.44791665621665
 11
897.80300545646196
 21
628.14791666504811
  0
LINE
  8
_0-0_計極細
  6
CONTINUOUS
 62
    2
 10
887.80300545646196
 20
634.44791665621665
 11
887.80300545646196
 21
628.14791666504811
  0
LINE
  8
_0-0_計極細
  6
CONTINUOUS
 62
    2
 10
1031.803005456462
 20
861.04791666392566
 11
1031.803005456462
 21
855.0479166679894
  0
LINE
  8
_0-0_計極細
  6
CONTINUOUS
 62
    2
 10
1021.8030054564621
 20
861.04791666392566
 11
1021.8030054564621
 21
855.0479166679894
  0
LINE
  8
_0-0_計極細
  6
CONTINUOUS
 62
    2
 10
1031.803005456462
 20
843.64791666447775
 11
1031.803005456462
 21
837.64791666854137
  0
LINE
  8
_0-0_計極細
  6
CONTINUOUS
 62
    2
 10
1021.8030054564621
 20
843.64791666447775
 11
1021.8030054564621
 21
837.64791666854137
  0
LINE
  8
_0-0_計極細
  6
CONTINUOUS
 62
    2
 10
1031.803005456462
 20
826.24791666502938
 11
1031.803005456462
 21
820.24791666909312
  0
LINE
  8
_0-0_計極細
  6
CONTINUOUS
 62
    2
 10
1021.8030054564621
 20
826.24791666502938
 11
1021.8030054564621
 21
820.24791666909312
  0
LINE
  8
_0-0_計極細
  6
CONTINUOUS
 62
    2
 10
1031.803005456462
 20
808.84791666558112
 11
1031.803005456462
 21
802.84791666964475
  0
LINE
  8
_0-0_計極細
  6
CONTINUOUS
 62
    2
 10
1021.8030054564621
 20
808.84791666558112
 11
1021.8030054564621
 21
802.84791666964475
  0
LINE
  8
_0-0_計極細
  6
CONTINUOUS
 62
    2
 10
1031.803005456462
 20
791.44791666613287
 11
1031.803005456462
 21
785.44791667019649
  0
LINE
  8
_0-0_計極細
  6
CONTINUOUS
 62
    2
 10
1021.8030054564621
 20
791.44791666613287
 11
1021.8030054564621
 21
785.44791667019649
  0
LINE
  8
_0-0_計極細
  6
CENTER1
 62
    2
 10
1026.803005456462
 20
1125.4986360917185
 11
1026.803005456462
 21
608.99009292624737
  0
LINE
  8
_0-0_計極細
  6
CONTINUOUS
 62
    2
 10
1031.803005456462
 20
774.04791666447693
 11
1031.803005456462
 21
768.04791666854044
  0
LINE
  8
_0-0_計極細
  6
CONTINUOUS
 62
    2
 10
1021.8030054564621
 20
774.04791666447693
 11
1021.8030054564621
 21
768.04791666854044
  0
LINE
  8
_0-0_計極細
  6
CONTINUOUS
 62
    2
 10
1031.803005456462
 20
756.64791666723659
 11
1031.803005456462
 21
750.64791667130021
  0
LINE
  8
_0-0_計極細
  6
CONTINUOUS
 62
    2
 10
1021.8030054564621
 20
756.64791666723659
 11
1021.8030054564621
 21
750.64791667130021
  0
LINE
  8
_0-0_計極細
  6
CONTINUOUS
 62
    2
 10
1031.803005456462
 20
739.24791666558053
 11
1031.803005456462
 21
733.24791666964416
  0
LINE
  8
_0-0_計極細
  6
CONTINUOUS
 62
    2
 10
1021.8030054564621
 20
739.24791666558053
 11
1021.8030054564621
 21
733.24791666964416
  0
LINE
  8
_0-0_計極細
  6
CONTINUOUS
 62
    2
 10
1031.803005456462
 20
721.84791666392459
 11
1031.803005456462
 21
715.8479166679881
  0
LINE
  8
_0-0_計極細
  6
CONTINUOUS
 62
    2
 10
1021.8030054564621
 20
721.84791666392459
 11
1021.8030054564621
 21
715.8479166679881
  0
LINE
  8
_0-0_計極細
  6
CONTINUOUS
 62
    2
 10
1031.803005456462
 20
704.44791666833976
 11
1031.803005456462
 21
698.44791667240338
  0
LINE
  8
_0-0_計極細
  6
CONTINUOUS
 62
    2
 10
1021.8030054564621
 20
704.44791666833976
 11
1021.8030054564621
 21
698.44791667240338
  0
LINE
  8
_0-0_計極細
  6
CONTINUOUS
 62
    2
 10
1031.803005456462
 20
687.0479166666837
 11
1031.803005456462
 21
681.04791667074733
  0
LINE
  8
_0-0_計極細
  6
CONTINUOUS
 62
    2
 10
1021.8030054564621
 20
687.0479166666837
 11
1021.8030054564621
 21
681.04791667074733
  0
LINE
  8
_0-0_計極細
  6
CONTINUOUS
 62
    2
 10
1031.803005456462
 20
669.64791666502765
 11
1031.803005456462
 21
663.64791666909127
  0
LINE
  8
_0-0_計極細
  6
CONTINUOUS
 62
    2
 10
1021.8030054564621
 20
669.64791666502765
 11
1021.8030054564621
 21
663.64791666909127
  0
LINE
  8
_0-0_計極細
  6
CONTINUOUS
 62
    2
 10
1031.803005456462
 20
652.24791666909073
 11
1031.803005456462
 21
645.94791667792219
  0
LINE
  8
_0-0_計極細
  6
CONTINUOUS
 62
    2
 10
1021.8030054564621
 20
652.24791666909073
 11
1021.8030054564621
 21
645.94791667792219
  0
LINE
  8
_0-0_計極細
  6
CONTINUOUS
 62
    2
 10
1031.803005456462
 20
634.44791665621665
 11
1031.803005456462
 21
628.14791666504811
  0
LINE
  8
_0-0_計極細
  6
CONTINUOUS
 62
    2
 10
1021.8030054564621
 20
634.44791665621665
 11
1021.8030054564621
 21
628.14791666504811
  0
LINE
  8
_0-0_計極細
  6
CONTINUOUS
 62
    2
 10
1165.803005456462
 20
861.04791666392566
 11
1165.803005456462
 21
855.0479166679894
  0
LINE
  8
_0-0_計極細
  6
CONTINUOUS
 62
    2
 10
1155.803005456462
 20
861.04791666392566
 11
1155.803005456462
 21
855.0479166679894
  0
LINE
  8
_0-0_計極細
  6
CONTINUOUS
 62
    2
 10
1165.803005456462
 20
843.64791666447775
 11
1165.803005456462
 21
837.64791666854137
  0
LINE
  8
_0-0_計極細
  6
CONTINUOUS
 62
    2
 10
1155.803005456462
 20
843.64791666447775
 11
1155.803005456462
 21
837.64791666854137
  0
LINE
  8
_0-0_計極細
  6
CONTINUOUS
 62
    2
 10
1165.803005456462
 20
826.24791666502938
 11
1165.803005456462
 21
820.24791666909312
  0
LINE
  8
_0-0_計極細
  6
CONTINUOUS
 62
    2
 10
1155.803005456462
 20
826.24791666502938
 11
1155.803005456462
 21
820.24791666909312
  0
LINE
  8
_0-0_計極細
  6
CONTINUOUS
 62
    2
 10
1165.803005456462
 20
808.84791666558112
 11
1165.803005456462
 21
802.84791666964475
  0
LINE
  8
_0-0_計極細
  6
CONTINUOUS
 62
    2
 10
1155.803005456462
 20
808.84791666558112
 11
1155.803005456462
 21
802.84791666964475
  0
LINE
  8
_0-0_計極細
  6
CONTINUOUS
 62
    2
 10
1165.803005456462
 20
791.44791666613287
 11
1165.803005456462
 21
785.44791667019649
  0
LINE
  8
_0-0_計極細
  6
CONTINUOUS
 62
    2
 10
1155.803005456462
 20
791.44791666613287
 11
1155.803005456462
 21
785.44791667019649
  0
LINE
  8
_0-0_計極細
  6
CENTER1
 62
    2
 10
1160.803005456462
 20
1125.4986360917185
 11
1160.803005456462
 21
608.99009292624737
  0
LINE
  8
_0-0_計極細
  6
CONTINUOUS
 62
    2
 10
1165.803005456462
 20
774.04791666447693
 11
1165.803005456462
 21
768.04791666854044
  0
LINE
  8
_0-0_計極細
  6
CONTINUOUS
 62
    2
 10
1155.803005456462
 20
774.04791666447693
 11
1155.803005456462
 21
768.04791666854044
  0
LINE
  8
_0-0_計極細
  6
CONTINUOUS
 62
    2
 10
1165.803005456462
 20
756.64791666723659
 11
1165.803005456462
 21
750.64791667130021
  0
LINE
  8
_0-0_計極細
  6
CONTINUOUS
 62
    2
 10
1155.803005456462
 20
756.64791666723659
 11
1155.803005456462
 21
750.64791667130021
  0
LINE
  8
_0-0_計極細
  6
CONTINUOUS
 62
    2
 10
1165.803005456462
 20
739.24791666558053
 11
1165.803005456462
 21
733.24791666964416
  0
LINE
  8
_0-0_計極細
  6
CONTINUOUS
 62
    2
 10
1155.803005456462
 20
739.24791666558053
 11
1155.803005456462
 21
733.24791666964416
  0
LINE
  8
_0-0_計極細
  6
CONTINUOUS
 62
    2
 10
1165.803005456462
 20
721.84791666392459
 11
1165.803005456462
 21
715.8479166679881
  0
LINE
  8
_0-0_計極細
  6
CONTINUOUS
 62
    2
 10
1155.803005456462
 20
721.84791666392459
 11
1155.803005456462
 21
715.8479166679881
  0
LINE
  8
_0-0_計極細
  6
CONTINUOUS
 62
    2
 10
1165.803005456462
 20
704.44791666833976
 11
1165.803005456462
 21
698.44791667240338
  0
LINE
  8
_0-0_計極細
  6
CONTINUOUS
 62
    2
 10
1155.803005456462
 20
704.44791666833976
 11
1155.803005456462
 21
698.44791667240338
  0
LINE
  8
_0-0_計極細
  6
CONTINUOUS
 62
    2
 10
1165.803005456462
 20
687.0479166666837
 11
1165.803005456462
 21
681.04791667074733
  0
LINE
  8
_0-0_計極細
  6
CONTINUOUS
 62
    2
 10
1155.803005456462
 20
687.0479166666837
 11
1155.803005456462
 21
681.04791667074733
  0
LINE
  8
_0-0_計極細
  6
CONTINUOUS
 62
    2
 10
1165.803005456462
 20
669.64791666502765
 11
1165.803005456462
 21
663.64791666909127
  0
LINE
  8
_0-0_計極細
  6
CONTINUOUS
 62
    2
 10
1155.803005456462
 20
669.64791666502765
 11
1155.803005456462
 21
663.64791666909127
  0
LINE
  8
_0-0_計極細
  6
CONTINUOUS
 62
    2
 10
1165.803005456462
 20
652.24791666909073
 11
1165.803005456462
 21
645.94791667792219
  0
LINE
  8
_0-0_計極細
  6
CONTINUOUS
 62
    2
 10
1155.803005456462
 20
652.24791666909073
 11
1155.803005456462
 21
645.94791667792219
  0
LINE
  8
_0-0_計極細
  6
CONTINUOUS
 62
    2
 10
1165.803005456462
 20
634.44791665621665
 11
1165.803005456462
 21
628.14791666504811
  0
LINE
  8
_0-0_計極細
  6
CONTINUOUS
 62
    2
 10
1155.803005456462
 20
634.44791665621665
 11
1155.803005456462
 21
628.14791666504811
  0
LINE
  8
_0-0_計極細
  6
CONTINUOUS
 62
    2
 10
1299.803005456462
 20
861.04791666392566
 11
1299.803005456462
 21
855.0479166679894
  0
LINE
  8
_0-0_計極細
  6
CONTINUOUS
 62
    2
 10
1289.803005456462
 20
861.04791666392566
 11
1289.803005456462
 21
855.0479166679894
  0
LINE
  8
_0-0_計極細
  6
CONTINUOUS
 62
    2
 10
1299.803005456462
 20
843.64791666447775
 11
1299.803005456462
 21
837.64791666854137
  0
LINE
  8
_0-0_計極細
  6
CONTINUOUS
 62
    2
 10
1289.803005456462
 20
843.64791666447775
 11
1289.803005456462
 21
837.64791666854137
  0
LINE
  8
_0-0_計極細
  6
CONTINUOUS
 62
    2
 10
1299.803005456462
 20
826.24791666502938
 11
1299.803005456462
 21
820.24791666909312
  0
LINE
  8
_0-0_計極細
  6
CONTINUOUS
 62
    2
 10
1289.803005456462
 20
826.24791666502938
 11
1289.803005456462
 21
820.24791666909312
  0
LINE
  8
_0-0_計極細
  6
CONTINUOUS
 62
    2
 10
1299.803005456462
 20
808.84791666558112
 11
1299.803005456462
 21
802.84791666964475
  0
LINE
  8
_0-0_計極細
  6
CONTINUOUS
 62
    2
 10
1289.803005456462
 20
808.84791666558112
 11
1289.803005456462
 21
802.84791666964475
  0
LINE
  8
_0-0_計極細
  6
CONTINUOUS
 62
    2
 10
1299.803005456462
 20
791.44791666613287
 11
1299.803005456462
 21
785.44791667019649
  0
LINE
  8
_0-0_計極細
  6
CONTINUOUS
 62
    2
 10
1289.803005456462
 20
791.44791666613287
 11
1289.803005456462
 21
785.44791667019649
  0
LINE
  8
_0-0_計極細
  6
CENTER1
 62
    2
 10
1294.8030054564617
 20
1125.4986360917185
 11
1294.803005456462
 21
608.99009292624737
  0
LINE
  8
_0-0_計極細
  6
CONTINUOUS
 62
    2
 10
1299.803005456462
 20
774.04791666447693
 11
1299.803005456462
 21
768.04791666854044
  0
LINE
  8
_0-0_計極細
  6
CONTINUOUS
 62
    2
 10
1289.803005456462
 20
774.04791666447693
 11
1289.803005456462
 21
768.04791666854044
  0
LINE
  8
_0-0_計極細
  6
CONTINUOUS
 62
    2
 10
1299.803005456462
 20
756.64791666723659
 11
1299.803005456462
 21
750.64791667130021
  0
LINE
  8
_0-0_計極細
  6
CONTINUOUS
 62
    2
 10
1289.803005456462
 20
756.64791666723659
 11
1289.803005456462
 21
750.64791667130021
  0
LINE
  8
_0-0_計極細
  6
CONTINUOUS
 62
    2
 10
1299.803005456462
 20
739.24791666558053
 11
1299.803005456462
 21
733.24791666964416
  0
LINE
  8
_0-0_計極細
  6
CONTINUOUS
 62
    2
 10
1289.803005456462
 20
739.24791666558053
 11
1289.803005456462
 21
733.24791666964416
  0
LINE
  8
_0-0_計極細
  6
CONTINUOUS
 62
    2
 10
1299.803005456462
 20
721.84791666392459
 11
1299.803005456462
 21
715.8479166679881
  0
LINE
  8
_0-0_計極細
  6
CONTINUOUS
 62
    2
 10
1289.803005456462
 20
721.84791666392459
 11
1289.803005456462
 21
715.8479166679881
  0
LINE
  8
_0-0_計極細
  6
CONTINUOUS
 62
    2
 10
1299.803005456462
 20
704.44791666833976
 11
1299.803005456462
 21
698.44791667240338
  0
LINE
  8
_0-0_計極細
  6
CONTINUOUS
 62
    2
 10
1289.803005456462
 20
704.44791666833976
 11
1289.803005456462
 21
698.44791667240338
  0
LINE
  8
_0-0_計極細
  6
CONTINUOUS
 62
    2
 10
1299.803005456462
 20
687.0479166666837
 11
1299.803005456462
 21
681.04791667074733
  0
LINE
  8
_0-0_計極細
  6
CONTINUOUS
 62
    2
 10
1289.803005456462
 20
687.0479166666837
 11
1289.803005456462
 21
681.04791667074733
  0
LINE
  8
_0-0_計極細
  6
CONTINUOUS
 62
    2
 10
1299.803005456462
 20
669.64791666502765
 11
1299.803005456462
 21
663.64791666909127
  0
LINE
  8
_0-0_計極細
  6
CONTINUOUS
 62
    2
 10
1289.803005456462
 20
669.64791666502765
 11
1289.803005456462
 21
663.64791666909127
  0
LINE
  8
_0-0_計極細
  6
CONTINUOUS
 62
    2
 10
1299.803005456462
 20
652.24791666909073
 11
1299.803005456462
 21
645.94791667792219
  0
LINE
  8
_0-0_計極細
  6
CONTINUOUS
 62
    2
 10
1289.803005456462
 20
652.24791666909073
 11
1289.803005456462
 21
645.94791667792219
  0
LINE
  8
_0-0_計極細
  6
CONTINUOUS
 62
    2
 10
1299.803005456462
 20
634.44791665621665
 11
1299.803005456462
 21
628.14791666504811
  0
LINE
  8
_0-0_計極細
  6
CONTINUOUS
 62
    2
 10
1289.803005456462
 20
634.44791665621665
 11
1289.803005456462
 21
628.14791666504811
  0
LINE
  8
_0-0_計極細
  6
CONTINUOUS
 62
    2
 10
1433.8030054564617
 20
861.04791666392566
 11
1433.8030054564617
 21
855.0479166679894
  0
LINE
  8
_0-0_計極細
  6
CONTINUOUS
 62
    2
 10
1423.8030054564617
 20
861.04791666392566
 11
1423.8030054564617
 21
855.0479166679894
  0
LINE
  8
_0-0_計極細
  6
CONTINUOUS
 62
    2
 10
1433.8030054564617
 20
843.64791666447775
 11
1433.8030054564617
 21
837.64791666854137
  0
LINE
  8
_0-0_計極細
  6
CONTINUOUS
 62
    2
 10
1423.8030054564617
 20
843.64791666447775
 11
1423.8030054564617
 21
837.64791666854137
  0
LINE
  8
_0-0_計極細
  6
CONTINUOUS
 62
    2
 10
1433.8030054564617
 20
826.24791666502938
 11
1433.8030054564617
 21
820.24791666909312
  0
LINE
  8
_0-0_計極細
  6
CONTINUOUS
 62
    2
 10
1423.8030054564617
 20
826.24791666502938
 11
1423.8030054564617
 21
820.24791666909312
  0
LINE
  8
_0-0_計極細
  6
CONTINUOUS
 62
    2
 10
1433.8030054564617
 20
808.84791666558112
 11
1433.8030054564617
 21
802.84791666964475
  0
LINE
  8
_0-0_計極細
  6
CONTINUOUS
 62
    2
 10
1423.8030054564617
 20
808.84791666558112
 11
1423.8030054564617
 21
802.84791666964475
  0
LINE
  8
_0-0_計極細
  6
CONTINUOUS
 62
    2
 10
1433.8030054564617
 20
791.44791666613287
 11
1433.8030054564617
 21
785.44791667019649
  0
LINE
  8
_0-0_計極細
  6
CONTINUOUS
 62
    2
 10
1423.8030054564617
 20
791.44791666613287
 11
1423.8030054564617
 21
785.44791667019649
  0
LINE
  8
_0-0_計極細
  6
CENTER1
 62
    2
 10
1428.8030054564617
 20
1125.4986360917185
 11
1428.8030054564617
 21
608.99009292624737
  0
LINE
  8
_0-0_計極細
  6
CONTINUOUS
 62
    2
 10
1433.8030054564617
 20
774.04791666447693
 11
1433.8030054564617
 21
768.04791666854044
  0
LINE
  8
_0-0_計極細
  6
CONTINUOUS
 62
    2
 10
1423.8030054564617
 20
774.04791666447693
 11
1423.8030054564617
 21
768.04791666854044
  0
LINE
  8
_0-0_計極細
  6
CONTINUOUS
 62
    2
 10
1433.8030054564617
 20
756.64791666723659
 11
1433.8030054564617
 21
750.64791667130021
  0
LINE
  8
_0-0_計極細
  6
CONTINUOUS
 62
    2
 10
1423.8030054564617
 20
756.64791666723659
 11
1423.8030054564617
 21
750.64791667130021
  0
LINE
  8
_0-0_計極細
  6
CONTINUOUS
 62
    2
 10
1433.8030054564617
 20
739.24791666558053
 11
1433.8030054564617
 21
733.24791666964416
  0
LINE
  8
_0-0_計極細
  6
CONTINUOUS
 62
    2
 10
1423.8030054564617
 20
739.24791666558053
 11
1423.8030054564617
 21
733.24791666964416
  0
LINE
  8
_0-0_計極細
  6
CONTINUOUS
 62
    2
 10
1433.8030054564617
 20
721.84791666392459
 11
1433.8030054564617
 21
715.8479166679881
  0
LINE
  8
_0-0_計極細
  6
CONTINUOUS
 62
    2
 10
1423.8030054564617
 20
721.84791666392459
 11
1423.8030054564617
 21
715.8479166679881
  0
LINE
  8
_0-0_計極細
  6
CONTINUOUS
 62
    2
 10
1433.8030054564617
 20
704.44791666833976
 11
1433.8030054564617
 21
698.44791667240338
  0
LINE
  8
_0-0_計極細
  6
CONTINUOUS
 62
    2
 10
1423.8030054564617
 20
704.44791666833976
 11
1423.8030054564617
 21
698.44791667240338
  0
LINE
  8
_0-0_計極細
  6
CONTINUOUS
 62
    2
 10
1433.8030054564617
 20
687.0479166666837
 11
1433.8030054564617
 21
681.04791667074733
  0
LINE
  8
_0-0_計極細
  6
CONTINUOUS
 62
    2
 10
1423.8030054564617
 20
687.0479166666837
 11
1423.8030054564617
 21
681.04791667074733
  0
LINE
  8
_0-0_計極細
  6
CONTINUOUS
 62
    2
 10
1433.8030054564617
 20
669.64791666502765
 11
1433.8030054564617
 21
663.64791666909127
  0
LINE
  8
_0-0_計極細
  6
CONTINUOUS
 62
    2
 10
1423.8030054564617
 20
669.64791666502765
 11
1423.8030054564617
 21
663.64791666909127
  0
LINE
  8
_0-0_計極細
  6
CONTINUOUS
 62
    2
 10
1433.8030054564617
 20
652.24791666909073
 11
1433.8030054564617
 21
645.94791667792219
  0
LINE
  8
_0-0_計極細
  6
CONTINUOUS
 62
    2
 10
1423.8030054564617
 20
652.24791666909073
 11
1423.8030054564617
 21
645.94791667792219
  0
LINE
  8
_0-0_計極細
  6
CONTINUOUS
 62
    2
 10
1433.8030054564617
 20
634.44791665621665
 11
1433.8030054564617
 21
628.14791666504811
  0
LINE
  8
_0-0_計極細
  6
CONTINUOUS
 62
    2
 10
1423.8030054564617
 20
634.44791665621665
 11
1423.8030054564617
 21
628.14791666504811
  0
LINE
  8
_0-1_計細線
  6
CONTINUOUS
 62
    3
 10
594.30300545646196
 20
889.84791666652336
 11
1593.3030054564631
 21
889.84791666652336
  0
LINE
  8
_0-1_計細線
  6
CONTINUOUS
 62
    3
 10
594.30300545646196
 20
878.44791666652281
 11
1593.3030054564631
 21
878.44791666652281
  0
LINE
  8
_0-1_計細線
  6
CONTINUOUS
 62
    3
 10
594.30300545646196
 20
889.84791666652336
 11
594.30300545646196
 21
878.44791666652281
  0
LINE
  8
_0-1_計細線
  6
CONTINUOUS
 62
    3
 10
1593.3030054564631
 20
889.84791666652336
 11
1593.3030054564631
 21
878.44791666652281
  0
LINE
  8
_0-0_計極細
  6
CONTINUOUS
 62
    2
 10
594.30300545646196
 20
881.6479166665232
 11
1593.3030054564631
 21
881.6479166665232
  0
LINE
  8
_0-0_計極細
  6
CONTINUOUS
 62
    2
 10
594.30300545646196
 20
886.6479166665232
 11
1593.3030054564631
 21
886.6479166665232
  0
LINE
  8
_0-1_計細線
  6
CONTINUOUS
 62
    3
 10
594.30300545646196
 20
907.24791666597139
 11
1593.3030054564631
 21
907.24791666597139
  0
LINE
  8
_0-1_計細線
  6
CONTINUOUS
 62
    3
 10
594.30300545646196
 20
895.84791666597084
 11
1593.3030054564631
 21
895.84791666597084
  0
LINE
  8
_0-1_計細線
  6
CONTINUOUS
 62
    3
 10
594.30300545646196
 20
907.24791666597139
 11
594.30300545646196
 21
895.84791666597084
  0
LINE
  8
_0-1_計細線
  6
CONTINUOUS
 62
    3
 10
1593.3030054564631
 20
907.24791666597139
 11
1593.3030054564631
 21
895.84791666597084
  0
LINE
  8
_0-0_計極細
  6
CONTINUOUS
 62
    2
 10
594.30300545646196
 20
899.04791666597123
 11
1593.3030054564631
 21
899.04791666597123
  0
LINE
  8
_0-0_計極細
  6
CONTINUOUS
 62
    2
 10
594.30300545646196
 20
904.04791666597123
 11
1593.3030054564631
 21
904.04791666597123
  0
LINE
  8
_0-1_計細線
  6
CONTINUOUS
 62
    3
 10
594.30300545646196
 20
924.64791666541964
 11
1593.3030054564631
 21
924.64791666541964
  0
LINE
  8
_0-1_計細線
  6
CONTINUOUS
 62
    3
 10
594.30300545646196
 20
913.2479166654191
 11
1593.3030054564631
 21
913.2479166654191
  0
LINE
  8
_0-1_計細線
  6
CONTINUOUS
 62
    3
 10
594.30300545646196
 20
924.64791666541964
 11
594.30300545646196
 21
913.2479166654191
  0
LINE
  8
_0-1_計細線
  6
CONTINUOUS
 62
    3
 10
1593.3030054564631
 20
924.64791666541964
 11
1593.3030054564631
 21
913.2479166654191
  0
LINE
  8
_0-0_計極細
  6
CONTINUOUS
 62
    2
 10
594.30300545646196
 20
916.44791666541948
 11
1593.3030054564631
 21
916.44791666541948
  0
LINE
  8
_0-0_計極細
  6
CONTINUOUS
 62
    2
 10
594.30300545646196
 20
921.44791666541948
 11
1593.3030054564631
 21
921.44791666541948
  0
LINE
  8
_0-1_計細線
  6
CONTINUOUS
 62
    3
 10
594.30300545646196
 20
942.04791666486801
 11
1593.3030054564631
 21
942.04791666486801
  0
LINE
  8
_0-1_計細線
  6
CONTINUOUS
 62
    3
 10
594.30300545646196
 20
930.64791666486735
 11
1593.3030054564631
 21
930.64791666486735
  0
LINE
  8
_0-1_計細線
  6
CONTINUOUS
 62
    3
 10
594.30300545646196
 20
942.04791666486801
 11
594.30300545646196
 21
930.64791666486735
  0
LINE
  8
_0-1_計細線
  6
CONTINUOUS
 62
    3
 10
1593.3030054564631
 20
942.04791666486801
 11
1593.3030054564631
 21
930.64791666486735
  0
LINE
  8
_0-0_計極細
  6
CONTINUOUS
 62
    2
 10
594.30300545646196
 20
933.84791666486763
 11
1593.3030054564631
 21
933.84791666486763
  0
LINE
  8
_0-0_計極細
  6
CONTINUOUS
 62
    2
 10
594.30300545646196
 20
938.84791666486763
 11
1593.3030054564631
 21
938.84791666486763
  0
LINE
  8
_0-1_計細線
  6
CONTINUOUS
 62
    3
 10
594.30300545646196
 20
959.44791666431627
 11
1593.3030054564631
 21
959.44791666431627
  0
LINE
  8
_0-1_計細線
  6
CONTINUOUS
 62
    3
 10
594.30300545646196
 20
948.04791666431572
 11
1593.3030054564631
 21
948.04791666431572
  0
LINE
  8
_0-1_計細線
  6
CONTINUOUS
 62
    3
 10
594.30300545646196
 20
959.44791666431627
 11
594.30300545646196
 21
948.04791666431572
  0
LINE
  8
_0-1_計細線
  6
CONTINUOUS
 62
    3
 10
1593.3030054564631
 20
959.44791666431627
 11
1593.3030054564631
 21
948.04791666431572
  0
LINE
  8
_0-0_計極細
  6
CONTINUOUS
 62
    2
 10
594.30300545646196
 20
951.24791666431588
 11
1593.3030054564631
 21
951.24791666431588
  0
LINE
  8
_0-0_計極細
  6
CONTINUOUS
 62
    2
 10
594.30300545646196
 20
956.24791666431588
 11
1593.3030054564631
 21
956.24791666431588
  0
LINE
  8
_0-1_計細線
  6
CONTINUOUS
 62
    3
 10
594.30300545646196
 20
976.84791666597221
 11
1593.3030054564631
 21
976.84791666597221
  0
LINE
  8
_0-1_計細線
  6
CONTINUOUS
 62
    3
 10
594.30300545646196
 20
965.44791666597177
 11
1593.3030054564631
 21
965.44791666597177
  0
LINE
  8
_0-1_計細線
  6
CONTINUOUS
 62
    3
 10
594.30300545646196
 20
976.84791666597221
 11
594.30300545646196
 21
965.44791666597177
  0
LINE
  8
_0-1_計細線
  6
CONTINUOUS
 62
    3
 10
1593.3030054564631
 20
976.84791666597221
 11
1593.3030054564631
 21
965.44791666597177
  0
LINE
  8
_0-0_計極細
  6
CONTINUOUS
 62
    2
 10
594.30300545646196
 20
968.64791666597193
 11
1593.3030054564631
 21
968.64791666597193
  0
LINE
  8
_0-0_計極細
  6
CONTINUOUS
 62
    2
 10
594.30300545646196
 20
973.64791666597193
 11
1593.3030054564631
 21
973.64791666597193
  0
LINE
  8
_0-1_計細線
  6
CONTINUOUS
 62
    3
 10
594.30300545646196
 20
994.24791666321255
 11
1593.3030054564631
 21
994.24791666321255
  0
LINE
  8
_0-1_計細線
  6
CONTINUOUS
 62
    3
 10
594.30300545646196
 20
982.847916663212
 11
1593.3030054564631
 21
982.847916663212
  0
LINE
  8
_0-1_計細線
  6
CONTINUOUS
 62
    3
 10
594.30300545646196
 20
994.24791666321255
 11
594.30300545646196
 21
982.847916663212
  0
LINE
  8
_0-1_計細線
  6
CONTINUOUS
 62
    3
 10
1593.3030054564631
 20
994.24791666321255
 11
1593.3030054564631
 21
982.847916663212
  0
LINE
  8
_0-0_計極細
  6
CONTINUOUS
 62
    2
 10
594.30300545646196
 20
986.04791666321216
 11
1593.3030054564631
 21
986.04791666321216
  0
LINE
  8
_0-0_計極細
  6
CONTINUOUS
 62
    2
 10
594.30300545646196
 20
991.04791666321216
 11
1593.3030054564631
 21
991.04791666321216
  0
LINE
  8
_0-1_計細線
  6
CONTINUOUS
 62
    3
 10
594.30300545646196
 20
1011.6479166648685
 11
1593.3030054564631
 21
1011.6479166648685
  0
LINE
  8
_0-1_計細線
  6
CONTINUOUS
 62
    3
 10
594.30300545646196
 20
1000.2479166648681
 11
1593.3030054564631
 21
1000.2479166648681
  0
LINE
  8
_0-1_計細線
  6
CONTINUOUS
 62
    3
 10
594.30300545646196
 20
1011.6479166648685
 11
594.30300545646196
 21
1000.2479166648681
  0
LINE
  8
_0-1_計細線
  6
CONTINUOUS
 62
    3
 10
1593.3030054564631
 20
1011.6479166648685
 11
1593.3030054564631
 21
1000.2479166648681
  0
LINE
  8
_0-0_計極細
  6
CONTINUOUS
 62
    2
 10
594.30300545646196
 20
1003.4479166648682
 11
1593.3030054564631
 21
1003.4479166648682
  0
LINE
  8
_0-0_計極細
  6
CONTINUOUS
 62
    2
 10
594.30300545646196
 20
1008.4479166648682
 11
1593.3030054564631
 21
1008.4479166648682
  0
LINE
  8
_0-1_計細線
  6
CONTINUOUS
 62
    3
 10
594.30300545646196
 20
1029.0479166665245
 11
1593.3030054564631
 21
1029.0479166665245
  0
LINE
  8
_0-1_計細線
  6
CONTINUOUS
 62
    3
 10
594.30300545646196
 20
1017.647916666524
 11
1593.3030054564631
 21
1017.647916666524
  0
LINE
  8
_0-1_計細線
  6
CONTINUOUS
 62
    3
 10
594.30300545646196
 20
1029.0479166665245
 11
594.30300545646196
 21
1017.647916666524
  0
LINE
  8
_0-1_計細線
  6
CONTINUOUS
 62
    3
 10
1593.3030054564631
 20
1029.0479166665245
 11
1593.3030054564631
 21
1017.647916666524
  0
LINE
  8
_0-0_計極細
  6
CONTINUOUS
 62
    2
 10
594.30300545646196
 20
1020.8479166665244
 11
1593.3030054564631
 21
1020.8479166665244
  0
LINE
  8
_0-0_計極細
  6
CONTINUOUS
 62
    2
 10
594.30300545646196
 20
1025.8479166665243
 11
1593.3030054564631
 21
1025.8479166665243
  0
LINE
  8
_0-1_計細線
  6
CONTINUOUS
 62
    3
 10
594.30300545646196
 20
1081.2479166654214
 11
1593.3030054564631
 21
1081.2479166654214
  0
LINE
  8
_0-1_計細線
  6
CONTINUOUS
 62
    3
 10
594.30300545646196
 20
1069.8479166654211
 11
1593.3030054564631
 21
1069.8479166654211
  0
LINE
  8
_0-1_計細線
  6
CONTINUOUS
 62
    3
 10
594.30300545646196
 20
1081.2479166654214
 11
594.30300545646196
 21
1069.8479166654211
  0
LINE
  8
_0-1_計細線
  6
CONTINUOUS
 62
    3
 10
1593.3030054564631
 20
1081.2479166654214
 11
1593.3030054564631
 21
1069.8479166654211
  0
LINE
  8
_0-0_計極細
  6
CONTINUOUS
 62
    2
 10
594.30300545646196
 20
1073.0479166654211
 11
1593.3030054564631
 21
1073.0479166654211
  0
LINE
  8
_0-0_計極細
  6
CONTINUOUS
 62
    2
 10
594.30300545646196
 20
1078.0479166654211
 11
1593.3030054564631
 21
1078.0479166654211
  0
LINE
  8
_0-1_計細線
  6
CONTINUOUS
 62
    3
 10
594.30300545646196
 20
1098.9479166565907
 11
1593.3030054564631
 21
1098.9479166565907
  0
LINE
  8
_0-1_計細線
  6
CONTINUOUS
 62
    3
 10
594.30300545646196
 20
1087.5479166565899
 11
1593.3030054564631
 21
1087.5479166565899
  0
LINE
  8
_0-1_計細線
  6
CONTINUOUS
 62
    3
 10
594.30300545646196
 20
1098.9479166565907
 11
594.30300545646196
 21
1087.5479166565899
  0
LINE
  8
_0-1_計細線
  6
CONTINUOUS
 62
    3
 10
1593.3030054564631
 20
1098.9479166565907
 11
1593.3030054564631
 21
1087.5479166565899
  0
LINE
  8
_0-0_計極細
  6
CONTINUOUS
 62
    2
 10
594.30300545646196
 20
1090.7479166565902
 11
1593.3030054564631
 21
1090.7479166565902
  0
LINE
  8
_0-0_計極細
  6
CONTINUOUS
 62
    2
 10
594.30300545646196
 20
1095.7479166565902
 11
1593.3030054564631
 21
1095.7479166565902
  0
LINE
  8
_0-1_計細線
  6
CONTINUOUS
 62
    3
 10
594.30300545646196
 20
1116.7479166694645
 11
1593.3030054564631
 21
1116.7479166694645
  0
LINE
  8
_0-1_計細線
  6
CONTINUOUS
 62
    3
 10
594.30300545646196
 20
1105.347916669464
 11
1593.3030054564631
 21
1105.347916669464
  0
LINE
  8
_0-1_計細線
  6
CONTINUOUS
 62
    3
 10
594.30300545646196
 20
1116.7479166694645
 11
594.30300545646196
 21
1105.347916669464
  0
LINE
  8
_0-1_計細線
  6
CONTINUOUS
 62
    3
 10
1593.3030054564631
 20
1116.7479166694645
 11
1593.3030054564631
 21
1105.347916669464
  0
LINE
  8
_0-0_計極細
  6
CONTINUOUS
 62
    2
 10
594.30300545646196
 20
1108.5479166694643
 11
1593.3030054564631
 21
1108.5479166694643
  0
LINE
  8
_0-0_計極細
  6
CONTINUOUS
 62
    2
 10
594.30300545646196
 20
1113.5479166694643
 11
1593.3030054564631
 21
1113.5479166694643
  0
LINE
  8
_0-0_計極細
  6
CONTINUOUS
 62
    2
 10
629.80300545646196
 20
872.44791667058644
 11
629.80300545646196
 21
878.44791666652281
  0
LINE
  8
_0-0_計極細
  6
CONTINUOUS
 62
    2
 10
619.80300545646196
 20
872.44791667058644
 11
619.80300545646196
 21
878.44791666652281
  0
LINE
  8
_0-0_計極細
  6
CONTINUOUS
 62
    2
 10
629.80300545646196
 20
889.84791667003446
 11
629.80300545646196
 21
895.84791666597084
  0
LINE
  8
_0-0_計極細
  6
CONTINUOUS
 62
    2
 10
619.80300545646196
 20
889.84791667003446
 11
619.80300545646196
 21
895.84791666597084
  0
LINE
  8
_0-0_計極細
  6
CONTINUOUS
 62
    2
 10
629.80300545646196
 20
907.24791666948272
 11
629.80300545646196
 21
913.2479166654191
  0
LINE
  8
_0-0_計極細
  6
CONTINUOUS
 62
    2
 10
619.80300545646196
 20
907.24791666948272
 11
619.80300545646196
 21
913.2479166654191
  0
LINE
  8
_0-0_計極細
  6
CONTINUOUS
 62
    2
 10
629.80300545646196
 20
924.64791666893109
 11
629.80300545646196
 21
930.64791666486735
  0
LINE
  8
_0-0_計極細
  6
CONTINUOUS
 62
    2
 10
619.80300545646196
 20
924.64791666893109
 11
619.80300545646196
 21
930.64791666486735
  0
LINE
  8
_0-0_計極細
  6
CONTINUOUS
 62
    2
 10
629.80300545646196
 20
942.04791666837934
 11
629.80300545646196
 21
948.04791666431572
  0
LINE
  8
_0-0_計極細
  6
CONTINUOUS
 62
    2
 10
619.80300545646196
 20
942.04791666837934
 11
619.80300545646196
 21
948.04791666431572
  0
LINE
  8
_0-0_計極細
  6
CONTINUOUS
 62
    2
 10
629.80300545646196
 20
959.44791667003528
 11
629.80300545646196
 21
965.44791666597177
  0
LINE
  8
_0-0_計極細
  6
CONTINUOUS
 62
    2
 10
619.80300545646196
 20
959.44791667003528
 11
619.80300545646196
 21
965.44791666597177
  0
LINE
  8
_0-0_計極細
  6
CONTINUOUS
 62
    2
 10
629.80300545646196
 20
976.84791666727563
 11
629.80300545646196
 21
982.847916663212
  0
LINE
  8
_0-0_計極細
  6
CONTINUOUS
 62
    2
 10
619.80300545646196
 20
976.84791666727563
 11
619.80300545646196
 21
982.847916663212
  0
LINE
  8
_0-0_計極細
  6
CONTINUOUS
 62
    2
 10
629.80300545646196
 20
994.24791666893157
 11
629.80300545646196
 21
1000.2479166648681
  0
LINE
  8
_0-0_計極細
  6
CONTINUOUS
 62
    2
 10
619.80300545646196
 20
994.24791666893157
 11
619.80300545646196
 21
1000.2479166648681
  0
LINE
  8
_0-0_計極細
  6
CONTINUOUS
 62
    2
 10
629.80300545646196
 20
1011.6479166705876
 11
629.80300545646196
 21
1017.647916666524
  0
LINE
  8
_0-0_計極細
  6
CONTINUOUS
 62
    2
 10
619.80300545646196
 20
1011.6479166705876
 11
619.80300545646196
 21
1017.647916666524
  0
LINE
  8
_0-0_計極細
  6
CONTINUOUS
 62
    2
 10
629.80300545646196
 20
1029.0479166661723
 11
629.80300545646196
 21
1035.0479166621087
  0
LINE
  8
_0-0_計極細
  6
CONTINUOUS
 62
    2
 10
619.80300545646196
 20
1029.0479166661723
 11
619.80300545646196
 21
1035.0479166621087
  0
LINE
  8
_0-0_計極細
  6
CONTINUOUS
 62
    2
 10
629.80300545646196
 20
1046.4479166678284
 11
629.80300545646196
 21
1052.4479166637648
  0
LINE
  8
_0-0_計極細
  6
CONTINUOUS
 62
    2
 10
619.80300545646196
 20
1046.4479166678284
 11
619.80300545646196
 21
1052.4479166637648
  0
LINE
  8
_0-0_計極細
  6
CONTINUOUS
 62
    2
 10
629.80300545646196
 20
1063.8479166694844
 11
629.80300545646196
 21
1069.8479166654211
  0
LINE
  8
_0-0_計極細
  6
CONTINUOUS
 62
    2
 10
619.80300545646196
 20
1063.8479166694844
 11
619.80300545646196
 21
1069.8479166654211
  0
LINE
  8
_0-0_計極細
  6
CONTINUOUS
 62
    2
 10
619.80300545646196
 20
1081.2479166654214
 11
619.80300545646196
 21
1087.5479166565899
  0
LINE
  8
_0-0_計極細
  6
CONTINUOUS
 62
    2
 10
629.80300545646196
 20
1081.2479166654214
 11
629.80300545646196
 21
1087.5479166565899
  0
LINE
  8
_0-0_計極細
  6
CONTINUOUS
 62
    2
 10
619.80300545646196
 20
1099.0479166782957
 11
619.80300545646196
 21
1105.347916669464
  0
LINE
  8
_0-0_計極細
  6
CONTINUOUS
 62
    2
 10
629.80300545646196
 20
1099.0479166782957
 11
629.80300545646196
 21
1105.347916669464
  0
LINE
  8
_0-0_計極細
  6
CONTINUOUS
 62
    2
 10
1567.8030054564629
 20
872.44791667058644
 11
1567.8030054564629
 21
878.44791666652281
  0
LINE
  8
_0-0_計極細
  6
CONTINUOUS
 62
    2
 10
1557.8030054564629
 20
872.44791667058644
 11
1557.8030054564629
 21
878.44791666652281
  0
LINE
  8
_0-0_計極細
  6
CONTINUOUS
 62
    2
 10
1567.8030054564629
 20
889.84791667003446
 11
1567.8030054564629
 21
895.84791666597084
  0
LINE
  8
_0-0_計極細
  6
CONTINUOUS
 62
    2
 10
1557.8030054564629
 20
889.84791667003446
 11
1557.8030054564629
 21
895.84791666597084
  0
LINE
  8
_0-0_計極細
  6
CONTINUOUS
 62
    2
 10
1567.8030054564629
 20
907.24791666948272
 11
1567.8030054564629
 21
913.2479166654191
  0
LINE
  8
_0-0_計極細
  6
CONTINUOUS
 62
    2
 10
1557.8030054564629
 20
907.24791666948272
 11
1557.8030054564629
 21
913.2479166654191
  0
LINE
  8
_0-0_計極細
  6
CONTINUOUS
 62
    2
 10
1567.8030054564629
 20
924.64791666893109
 11
1567.8030054564629
 21
930.64791666486735
  0
LINE
  8
_0-0_計極細
  6
CONTINUOUS
 62
    2
 10
1557.8030054564629
 20
924.64791666893109
 11
1557.8030054564629
 21
930.64791666486735
  0
LINE
  8
_0-0_計極細
  6
CONTINUOUS
 62
    2
 10
1567.8030054564629
 20
942.04791666837934
 11
1567.8030054564629
 21
948.04791666431572
  0
LINE
  8
_0-0_計極細
  6
CONTINUOUS
 62
    2
 10
1557.8030054564629
 20
942.04791666837934
 11
1557.8030054564629
 21
948.04791666431572
  0
LINE
  8
_0-0_計極細
  6
CONTINUOUS
 62
    2
 10
1567.8030054564629
 20
959.44791667003528
 11
1567.8030054564629
 21
965.44791666597177
  0
LINE
  8
_0-0_計極細
  6
CONTINUOUS
 62
    2
 10
1557.8030054564629
 20
959.44791667003528
 11
1557.8030054564629
 21
965.44791666597177
  0
LINE
  8
_0-0_計極細
  6
CONTINUOUS
 62
    2
 10
1567.8030054564629
 20
976.84791666727563
 11
1567.8030054564629
 21
982.847916663212
  0
LINE
  8
_0-0_計極細
  6
CONTINUOUS
 62
    2
 10
1557.8030054564629
 20
976.84791666727563
 11
1557.8030054564629
 21
982.847916663212
  0
LINE
  8
_0-0_計極細
  6
CONTINUOUS
 62
    2
 10
1567.8030054564629
 20
994.24791666893157
 11
1567.8030054564629
 21
1000.2479166648681
  0
LINE
  8
_0-0_計極細
  6
CONTINUOUS
 62
    2
 10
1557.8030054564629
 20
994.24791666893157
 11
1557.8030054564629
 21
1000.2479166648681
  0
LINE
  8
_0-0_計極細
  6
CONTINUOUS
 62
    2
 10
1567.8030054564629
 20
1011.6479166705876
 11
1567.8030054564629
 21
1017.647916666524
  0
LINE
  8
_0-0_計極細
  6
CONTINUOUS
 62
    2
 10
1557.8030054564629
 20
1011.6479166705876
 11
1557.8030054564629
 21
1017.647916666524
  0
LINE
  8
_0-0_計極細
  6
CONTINUOUS
 62
    2
 10
1567.8030054564629
 20
1029.0479166661723
 11
1567.8030054564629
 21
1035.0479166621087
  0
LINE
  8
_0-0_計極細
  6
CONTINUOUS
 62
    2
 10
1557.8030054564629
 20
1029.0479166661723
 11
1557.8030054564629
 21
1035.0479166621087
  0
LINE
  8
_0-0_計極細
  6
CONTINUOUS
 62
    2
 10
1567.8030054564629
 20
1046.4479166678284
 11
1567.8030054564629
 21
1052.4479166637648
  0
LINE
  8
_0-0_計極細
  6
CONTINUOUS
 62
    2
 10
1557.8030054564629
 20
1046.4479166678284
 11
1557.8030054564629
 21
1052.4479166637648
  0
LINE
  8
_0-0_計極細
  6
CONTINUOUS
 62
    2
 10
1567.8030054564629
 20
1063.8479166694844
 11
1567.8030054564629
 21
1069.8479166654211
  0
LINE
  8
_0-0_計極細
  6
CONTINUOUS
 62
    2
 10
1557.8030054564629
 20
1063.8479166694844
 11
1557.8030054564629
 21
1069.8479166654211
  0
LINE
  8
_0-0_計極細
  6
CONTINUOUS
 62
    2
 10
1567.8030054564629
 20
1081.2479166654214
 11
1567.8030054564629
 21
1087.5479166565899
  0
LINE
  8
_0-0_計極細
  6
CONTINUOUS
 62
    2
 10
1557.8030054564629
 20
1081.2479166654214
 11
1557.8030054564629
 21
1087.5479166565899
  0
LINE
  8
_0-0_計極細
  6
CONTINUOUS
 62
    2
 10
1567.8030054564629
 20
1099.0479166782957
 11
1567.8030054564629
 21
1105.347916669464
  0
LINE
  8
_0-0_計極細
  6
CONTINUOUS
 62
    2
 10
1557.8030054564629
 20
1099.0479166782957
 11
1557.8030054564629
 21
1105.347916669464
  0
LINE
  8
_0-0_計極細
  6
CONTINUOUS
 62
    2
 10
763.80300545646196
 20
878.44791666652281
 11
763.80300545646196
 21
872.4479166705861
  0
LINE
  8
_0-0_計極細
  6
CONTINUOUS
 62
    2
 10
753.80300545646196
 20
878.44791666652281
 11
753.80300545646196
 21
872.4479166705861
  0
LINE
  8
_0-0_計極細
  6
CONTINUOUS
 62
    2
 10
763.80300545646196
 20
895.84791666597084
 11
763.80300545646196
 21
889.84791667003401
  0
LINE
  8
_0-0_計極細
  6
CONTINUOUS
 62
    2
 10
753.80300545646196
 20
895.84791666597084
 11
753.80300545646196
 21
889.84791667003401
  0
LINE
  8
_0-0_計極細
  6
CONTINUOUS
 62
    2
 10
763.80300545646196
 20
913.2479166654191
 11
763.80300545646196
 21
907.24791666948238
  0
LINE
  8
_0-0_計極細
  6
CONTINUOUS
 62
    2
 10
753.80300545646196
 20
913.2479166654191
 11
753.80300545646196
 21
907.24791666948238
  0
LINE
  8
_0-0_計極細
  6
CONTINUOUS
 62
    2
 10
763.80300545646196
 20
930.64791666486735
 11
763.80300545646196
 21
924.64791666893063
  0
LINE
  8
_0-0_計極細
  6
CONTINUOUS
 62
    2
 10
753.80300545646196
 20
930.64791666486735
 11
753.80300545646196
 21
924.64791666893063
  0
LINE
  8
_0-0_計極細
  6
CONTINUOUS
 62
    2
 10
763.80300545646196
 20
948.04791666431572
 11
763.80300545646196
 21
942.04791666837878
  0
LINE
  8
_0-0_計極細
  6
CONTINUOUS
 62
    2
 10
753.80300545646196
 20
948.04791666431572
 11
753.80300545646196
 21
942.04791666837878
  0
LINE
  8
_0-0_計極細
  6
CONTINUOUS
 62
    2
 10
763.80300545646196
 20
965.44791666597177
 11
763.80300545646196
 21
959.44791667003483
  0
LINE
  8
_0-0_計極細
  6
CONTINUOUS
 62
    2
 10
753.80300545646196
 20
965.44791666597177
 11
753.80300545646196
 21
959.44791667003483
  0
LINE
  8
_0-0_計極細
  6
CONTINUOUS
 62
    2
 10
763.80300545646196
 20
982.847916663212
 11
763.80300545646196
 21
976.84791666727506
  0
LINE
  8
_0-0_計極細
  6
CONTINUOUS
 62
    2
 10
753.80300545646196
 20
982.847916663212
 11
753.80300545646196
 21
976.84791666727506
  0
LINE
  8
_0-0_計極細
  6
CONTINUOUS
 62
    2
 10
763.80300545646196
 20
1000.2479166648681
 11
763.80300545646196
 21
994.24791666893111
  0
LINE
  8
_0-0_計極細
  6
CONTINUOUS
 62
    2
 10
753.80300545646196
 20
1000.2479166648681
 11
753.80300545646196
 21
994.24791666893111
  0
LINE
  8
_0-0_計極細
  6
CONTINUOUS
 62
    2
 10
763.80300545646196
 20
1017.647916666524
 11
763.80300545646196
 21
1011.6479166705872
  0
LINE
  8
_0-0_計極細
  6
CONTINUOUS
 62
    2
 10
753.80300545646196
 20
1017.647916666524
 11
753.80300545646196
 21
1011.6479166705872
  0
LINE
  8
_0-0_計極細
  6
CONTINUOUS
 62
    2
 10
763.80300545646196
 20
1035.0479166621087
 11
763.80300545646196
 21
1029.0479166661721
  0
LINE
  8
_0-0_計極細
  6
CONTINUOUS
 62
    2
 10
753.80300545646196
 20
1035.0479166621087
 11
753.80300545646196
 21
1029.0479166661721
  0
LINE
  8
_0-0_計極細
  6
CONTINUOUS
 62
    2
 10
763.80300545646196
 20
1069.8479166654211
 11
763.80300545646196
 21
1063.847916669484
  0
LINE
  8
_0-0_計極細
  6
CONTINUOUS
 62
    2
 10
753.80300545646196
 20
1069.8479166654211
 11
753.80300545646196
 21
1063.847916669484
  0
LINE
  8
_0-0_計極細
  6
CONTINUOUS
 62
    2
 10
763.80300545646196
 20
1087.5479166565899
 11
763.80300545646196
 21
1081.2479166654214
  0
LINE
  8
_0-0_計極細
  6
CONTINUOUS
 62
    2
 10
753.80300545646196
 20
1087.5479166565899
 11
753.80300545646196
 21
1081.2479166654214
  0
LINE
  8
_0-0_計極細
  6
CONTINUOUS
 62
    2
 10
763.80300545646196
 20
1105.347916669464
 11
763.80300545646196
 21
1099.0479166782957
  0
LINE
  8
_0-0_計極細
  6
CONTINUOUS
 62
    2
 10
753.80300545646196
 20
1105.347916669464
 11
753.80300545646196
 21
1099.0479166782957
  0
LINE
  8
_0-0_計極細
  6
CONTINUOUS
 62
    2
 10
897.80300545646196
 20
872.44791667058644
 11
897.80300545646196
 21
878.44791666652281
  0
LINE
  8
_0-0_計極細
  6
CONTINUOUS
 62
    2
 10
887.80300545646196
 20
872.44791667058644
 11
887.80300545646196
 21
878.44791666652281
  0
LINE
  8
_0-0_計極細
  6
CONTINUOUS
 62
    2
 10
897.80300545646196
 20
889.84791667003446
 11
897.80300545646196
 21
895.84791666597084
  0
LINE
  8
_0-0_計極細
  6
CONTINUOUS
 62
    2
 10
887.80300545646196
 20
889.84791667003446
 11
887.80300545646196
 21
895.84791666597084
  0
LINE
  8
_0-0_計極細
  6
CONTINUOUS
 62
    2
 10
897.80300545646196
 20
907.24791666948272
 11
897.80300545646196
 21
913.2479166654191
  0
LINE
  8
_0-0_計極細
  6
CONTINUOUS
 62
    2
 10
887.80300545646196
 20
907.24791666948272
 11
887.80300545646196
 21
913.2479166654191
  0
LINE
  8
_0-0_計極細
  6
CONTINUOUS
 62
    2
 10
897.80300545646196
 20
924.64791666893109
 11
897.80300545646196
 21
930.64791666486735
  0
LINE
  8
_0-0_計極細
  6
CONTINUOUS
 62
    2
 10
887.80300545646196
 20
924.64791666893109
 11
887.80300545646196
 21
930.64791666486735
  0
LINE
  8
_0-0_計極細
  6
CONTINUOUS
 62
    2
 10
897.80300545646196
 20
942.04791666837934
 11
897.80300545646196
 21
948.04791666431572
  0
LINE
  8
_0-0_計極細
  6
CONTINUOUS
 62
    2
 10
887.80300545646196
 20
942.04791666837934
 11
887.80300545646196
 21
948.04791666431572
  0
LINE
  8
_0-0_計極細
  6
CONTINUOUS
 62
    2
 10
897.80300545646196
 20
959.44791667003528
 11
897.80300545646196
 21
965.44791666597177
  0
LINE
  8
_0-0_計極細
  6
CONTINUOUS
 62
    2
 10
887.80300545646196
 20
959.44791667003528
 11
887.80300545646196
 21
965.44791666597177
  0
LINE
  8
_0-0_計極細
  6
CONTINUOUS
 62
    2
 10
897.80300545646196
 20
976.84791666727563
 11
897.80300545646196
 21
982.847916663212
  0
LINE
  8
_0-0_計極細
  6
CONTINUOUS
 62
    2
 10
887.80300545646196
 20
976.84791666727563
 11
887.80300545646196
 21
982.847916663212
  0
LINE
  8
_0-0_計極細
  6
CONTINUOUS
 62
    2
 10
897.80300545646196
 20
994.24791666893157
 11
897.80300545646196
 21
1000.2479166648681
  0
LINE
  8
_0-0_計極細
  6
CONTINUOUS
 62
    2
 10
887.80300545646196
 20
994.24791666893157
 11
887.80300545646196
 21
1000.2479166648681
  0
LINE
  8
_0-0_計極細
  6
CONTINUOUS
 62
    2
 10
897.80300545646196
 20
1011.6479166705876
 11
897.80300545646196
 21
1017.647916666524
  0
LINE
  8
_0-0_計極細
  6
CONTINUOUS
 62
    2
 10
887.80300545646196
 20
1011.6479166705876
 11
887.80300545646196
 21
1017.647916666524
  0
LINE
  8
_0-0_計極細
  6
CONTINUOUS
 62
    2
 10
897.80300545646196
 20
1029.0479166661723
 11
897.80300545646196
 21
1035.0479166621087
  0
LINE
  8
_0-0_計極細
  6
CONTINUOUS
 62
    2
 10
887.80300545646196
 20
1029.0479166661723
 11
887.80300545646196
 21
1035.0479166621087
  0
LINE
  8
_0-0_計極細
  6
CONTINUOUS
 62
    2
 10
897.80300545646196
 20
1046.4479166678284
 11
897.80300545646196
 21
1052.4479166637648
  0
LINE
  8
_0-0_計極細
  6
CONTINUOUS
 62
    2
 10
887.80300545646196
 20
1046.4479166678284
 11
887.80300545646196
 21
1052.4479166637648
  0
LINE
  8
_0-0_計極細
  6
CONTINUOUS
 62
    2
 10
897.80300545646196
 20
1063.8479166694844
 11
897.80300545646196
 21
1069.8479166654211
  0
LINE
  8
_0-0_計極細
  6
CONTINUOUS
 62
    2
 10
887.80300545646196
 20
1063.8479166694844
 11
887.80300545646196
 21
1069.8479166654211
  0
LINE
  8
_0-0_計極細
  6
CONTINUOUS
 62
    2
 10
897.80300545646196
 20
1081.2479166654214
 11
897.80300545646196
 21
1087.5479166565899
  0
LINE
  8
_0-0_計極細
  6
CONTINUOUS
 62
    2
 10
887.80300545646196
 20
1081.2479166654214
 11
887.80300545646196
 21
1087.5479166565899
  0
LINE
  8
_0-0_計極細
  6
CONTINUOUS
 62
    2
 10
897.80300545646196
 20
1099.0479166782957
 11
897.80300545646196
 21
1105.347916669464
  0
LINE
  8
_0-0_計極細
  6
CONTINUOUS
 62
    2
 10
887.80300545646196
 20
1099.0479166782957
 11
887.80300545646196
 21
1105.347916669464
  0
LINE
  8
_0-0_計極細
  6
CONTINUOUS
 62
    2
 10
1031.803005456462
 20
872.44791667058644
 11
1031.803005456462
 21
878.44791666652281
  0
LINE
  8
_0-0_計極細
  6
CONTINUOUS
 62
    2
 10
1021.8030054564621
 20
872.44791667058644
 11
1021.8030054564621
 21
878.44791666652281
  0
LINE
  8
_0-0_計極細
  6
CONTINUOUS
 62
    2
 10
1031.803005456462
 20
889.84791667003446
 11
1031.803005456462
 21
895.84791666597084
  0
LINE
  8
_0-0_計極細
  6
CONTINUOUS
 62
    2
 10
1021.8030054564621
 20
889.84791667003446
 11
1021.8030054564621
 21
895.84791666597084
  0
LINE
  8
_0-0_計極細
  6
CONTINUOUS
 62
    2
 10
1031.803005456462
 20
907.24791666948272
 11
1031.803005456462
 21
913.2479166654191
  0
LINE
  8
_0-0_計極細
  6
CONTINUOUS
 62
    2
 10
1021.8030054564621
 20
907.24791666948272
 11
1021.8030054564621
 21
913.2479166654191
  0
LINE
  8
_0-0_計極細
  6
CONTINUOUS
 62
    2
 10
1031.803005456462
 20
924.64791666893109
 11
1031.803005456462
 21
930.64791666486735
  0
LINE
  8
_0-0_計極細
  6
CONTINUOUS
 62
    2
 10
1021.8030054564621
 20
924.64791666893109
 11
1021.8030054564621
 21
930.64791666486735
  0
LINE
  8
_0-0_計極細
  6
CONTINUOUS
 62
    2
 10
1031.803005456462
 20
942.04791666837934
 11
1031.803005456462
 21
948.04791666431572
  0
LINE
  8
_0-0_計極細
  6
CONTINUOUS
 62
    2
 10
1021.8030054564621
 20
942.04791666837934
 11
1021.8030054564621
 21
948.04791666431572
  0
LINE
  8
_0-0_計極細
  6
CONTINUOUS
 62
    2
 10
1031.803005456462
 20
959.44791667003528
 11
1031.803005456462
 21
965.44791666597177
  0
LINE
  8
_0-0_計極細
  6
CONTINUOUS
 62
    2
 10
1021.8030054564621
 20
959.44791667003528
 11
1021.8030054564621
 21
965.44791666597177
  0
LINE
  8
_0-0_計極細
  6
CONTINUOUS
 62
    2
 10
1031.803005456462
 20
976.84791666727563
 11
1031.803005456462
 21
982.847916663212
  0
LINE
  8
_0-0_計極細
  6
CONTINUOUS
 62
    2
 10
1021.8030054564621
 20
976.84791666727563
 11
1021.8030054564621
 21
982.847916663212
  0
LINE
  8
_0-0_計極細
  6
CONTINUOUS
 62
    2
 10
1031.803005456462
 20
994.24791666893157
 11
1031.803005456462
 21
1000.2479166648681
  0
LINE
  8
_0-0_計極細
  6
CONTINUOUS
 62
    2
 10
1021.8030054564621
 20
994.24791666893157
 11
1021.8030054564621
 21
1000.2479166648681
  0
LINE
  8
_0-0_計極細
  6
CONTINUOUS
 62
    2
 10
1031.803005456462
 20
1011.6479166705876
 11
1031.803005456462
 21
1017.647916666524
  0
LINE
  8
_0-0_計極細
  6
CONTINUOUS
 62
    2
 10
1021.8030054564621
 20
1011.6479166705876
 11
1021.8030054564621
 21
1017.647916666524
  0
LINE
  8
_0-0_計極細
  6
CONTINUOUS
 62
    2
 10
1031.803005456462
 20
1029.0479166661723
 11
1031.803005456462
 21
1035.0479166621087
  0
LINE
  8
_0-0_計極細
  6
CONTINUOUS
 62
    2
 10
1021.8030054564621
 20
1029.0479166661723
 11
1021.8030054564621
 21
1035.0479166621087
  0
LINE
  8
_0-0_計極細
  6
CONTINUOUS
 62
    2
 10
1031.803005456462
 20
1046.4479166678284
 11
1031.803005456462
 21
1052.4479166637648
  0
LINE
  8
_0-0_計極細
  6
CONTINUOUS
 62
    2
 10
1021.8030054564621
 20
1046.4479166678284
 11
1021.8030054564621
 21
1052.4479166637648
  0
LINE
  8
_0-0_計極細
  6
CONTINUOUS
 62
    2
 10
1031.803005456462
 20
1063.8479166694844
 11
1031.803005456462
 21
1069.8479166654211
  0
LINE
  8
_0-0_計極細
  6
CONTINUOUS
 62
    2
 10
1021.8030054564621
 20
1063.8479166694844
 11
1021.8030054564621
 21
1069.8479166654211
  0
LINE
  8
_0-0_計極細
  6
CONTINUOUS
 62
    2
 10
1031.803005456462
 20
1081.2479166654214
 11
1031.803005456462
 21
1087.5479166565899
  0
LINE
  8
_0-0_計極細
  6
CONTINUOUS
 62
    2
 10
1021.8030054564621
 20
1081.2479166654214
 11
1021.8030054564621
 21
1087.5479166565899
  0
LINE
  8
_0-0_計極細
  6
CONTINUOUS
 62
    2
 10
1031.803005456462
 20
1099.0479166782957
 11
1031.803005456462
 21
1105.347916669464
  0
LINE
  8
_0-0_計極細
  6
CONTINUOUS
 62
    2
 10
1021.8030054564621
 20
1099.0479166782957
 11
1021.8030054564621
 21
1105.347916669464
  0
LINE
  8
_0-0_計極細
  6
CONTINUOUS
 62
    2
 10
1165.803005456462
 20
872.44791667058644
 11
1165.803005456462
 21
878.44791666652281
  0
LINE
  8
_0-0_計極細
  6
CONTINUOUS
 62
    2
 10
1155.803005456462
 20
872.44791667058644
 11
1155.803005456462
 21
878.44791666652281
  0
LINE
  8
_0-0_計極細
  6
CONTINUOUS
 62
    2
 10
1165.803005456462
 20
889.84791667003446
 11
1165.803005456462
 21
895.84791666597084
  0
LINE
  8
_0-0_計極細
  6
CONTINUOUS
 62
    2
 10
1155.803005456462
 20
889.84791667003446
 11
1155.803005456462
 21
895.84791666597084
  0
LINE
  8
_0-0_計極細
  6
CONTINUOUS
 62
    2
 10
1165.803005456462
 20
907.24791666948272
 11
1165.803005456462
 21
913.2479166654191
  0
LINE
  8
_0-0_計極細
  6
CONTINUOUS
 62
    2
 10
1155.803005456462
 20
907.24791666948272
 11
1155.803005456462
 21
913.2479166654191
  0
LINE
  8
_0-0_計極細
  6
CONTINUOUS
 62
    2
 10
1165.803005456462
 20
924.64791666893109
 11
1165.803005456462
 21
930.64791666486735
  0
LINE
  8
_0-0_計極細
  6
CONTINUOUS
 62
    2
 10
1155.803005456462
 20
924.64791666893109
 11
1155.803005456462
 21
930.64791666486735
  0
LINE
  8
_0-0_計極細
  6
CONTINUOUS
 62
    2
 10
1165.803005456462
 20
942.04791666837934
 11
1165.803005456462
 21
948.04791666431572
  0
LINE
  8
_0-0_計極細
  6
CONTINUOUS
 62
    2
 10
1155.803005456462
 20
942.04791666837934
 11
1155.803005456462
 21
948.04791666431572
  0
LINE
  8
_0-0_計極細
  6
CONTINUOUS
 62
    2
 10
1165.803005456462
 20
959.44791667003528
 11
1165.803005456462
 21
965.44791666597177
  0
LINE
  8
_0-0_計極細
  6
CONTINUOUS
 62
    2
 10
1155.803005456462
 20
959.44791667003528
 11
1155.803005456462
 21
965.44791666597177
  0
LINE
  8
_0-0_計極細
  6
CONTINUOUS
 62
    2
 10
1165.803005456462
 20
976.84791666727563
 11
1165.803005456462
 21
982.847916663212
  0
LINE
  8
_0-0_計極細
  6
CONTINUOUS
 62
    2
 10
1155.803005456462
 20
976.84791666727563
 11
1155.803005456462
 21
982.847916663212
  0
LINE
  8
_0-0_計極細
  6
CONTINUOUS
 62
    2
 10
1165.803005456462
 20
994.24791666893157
 11
1165.803005456462
 21
1000.2479166648681
  0
LINE
  8
_0-0_計極細
  6
CONTINUOUS
 62
    2
 10
1155.803005456462
 20
994.24791666893157
 11
1155.803005456462
 21
1000.2479166648681
  0
LINE
  8
_0-0_計極細
  6
CONTINUOUS
 62
    2
 10
1165.803005456462
 20
1011.6479166705876
 11
1165.803005456462
 21
1017.647916666524
  0
LINE
  8
_0-0_計極細
  6
CONTINUOUS
 62
    2
 10
1155.803005456462
 20
1011.6479166705876
 11
1155.803005456462
 21
1017.647916666524
  0
LINE
  8
_0-0_計極細
  6
CONTINUOUS
 62
    2
 10
1165.803005456462
 20
1029.0479166661723
 11
1165.803005456462
 21
1035.0479166621087
  0
LINE
  8
_0-0_計極細
  6
CONTINUOUS
 62
    2
 10
1155.803005456462
 20
1029.0479166661723
 11
1155.803005456462
 21
1035.0479166621087
  0
LINE
  8
_0-0_計極細
  6
CONTINUOUS
 62
    2
 10
1165.803005456462
 20
1046.4479166678284
 11
1165.803005456462
 21
1052.4479166637648
  0
LINE
  8
_0-0_計極細
  6
CONTINUOUS
 62
    2
 10
1155.803005456462
 20
1046.4479166678284
 11
1155.803005456462
 21
1052.4479166637648
  0
LINE
  8
_0-0_計極細
  6
CONTINUOUS
 62
    2
 10
1165.803005456462
 20
1063.8479166694844
 11
1165.803005456462
 21
1069.8479166654211
  0
LINE
  8
_0-0_計極細
  6
CONTINUOUS
 62
    2
 10
1155.803005456462
 20
1063.8479166694844
 11
1155.803005456462
 21
1069.8479166654211
  0
LINE
  8
_0-0_計極細
  6
CONTINUOUS
 62
    2
 10
1165.803005456462
 20
1081.2479166654214
 11
1165.803005456462
 21
1087.5479166565899
  0
LINE
  8
_0-0_計極細
  6
CONTINUOUS
 62
    2
 10
1155.803005456462
 20
1081.2479166654214
 11
1155.803005456462
 21
1087.5479166565899
  0
LINE
  8
_0-0_計極細
  6
CONTINUOUS
 62
    2
 10
1165.803005456462
 20
1099.0479166782957
 11
1165.803005456462
 21
1105.347916669464
  0
LINE
  8
_0-0_計極細
  6
CONTINUOUS
 62
    2
 10
1155.803005456462
 20
1099.0479166782957
 11
1155.803005456462
 21
1105.347916669464
  0
LINE
  8
_0-0_計極細
  6
CONTINUOUS
 62
    2
 10
1299.803005456462
 20
872.44791667058644
 11
1299.803005456462
 21
878.44791666652281
  0
LINE
  8
_0-0_計極細
  6
CONTINUOUS
 62
    2
 10
1289.803005456462
 20
872.44791667058644
 11
1289.803005456462
 21
878.44791666652281
  0
LINE
  8
_0-0_計極細
  6
CONTINUOUS
 62
    2
 10
1299.803005456462
 20
889.84791667003446
 11
1299.803005456462
 21
895.84791666597084
  0
LINE
  8
_0-0_計極細
  6
CONTINUOUS
 62
    2
 10
1289.803005456462
 20
889.84791667003446
 11
1289.803005456462
 21
895.84791666597084
  0
LINE
  8
_0-0_計極細
  6
CONTINUOUS
 62
    2
 10
1299.803005456462
 20
907.24791666948272
 11
1299.803005456462
 21
913.2479166654191
  0
LINE
  8
_0-0_計極細
  6
CONTINUOUS
 62
    2
 10
1289.803005456462
 20
907.24791666948272
 11
1289.803005456462
 21
913.2479166654191
  0
LINE
  8
_0-0_計極細
  6
CONTINUOUS
 62
    2
 10
1299.803005456462
 20
924.64791666893109
 11
1299.803005456462
 21
930.64791666486735
  0
LINE
  8
_0-0_計極細
  6
CONTINUOUS
 62
    2
 10
1289.803005456462
 20
924.64791666893109
 11
1289.803005456462
 21
930.64791666486735
  0
LINE
  8
_0-0_計極細
  6
CONTINUOUS
 62
    2
 10
1299.803005456462
 20
942.04791666837934
 11
1299.803005456462
 21
948.04791666431572
  0
LINE
  8
_0-0_計極細
  6
CONTINUOUS
 62
    2
 10
1289.803005456462
 20
942.04791666837934
 11
1289.803005456462
 21
948.04791666431572
  0
LINE
  8
_0-0_計極細
  6
CONTINUOUS
 62
    2
 10
1299.803005456462
 20
959.44791667003528
 11
1299.803005456462
 21
965.44791666597177
  0
LINE
  8
_0-0_計極細
  6
CONTINUOUS
 62
    2
 10
1289.803005456462
 20
959.44791667003528
 11
1289.803005456462
 21
965.44791666597177
  0
LINE
  8
_0-0_計極細
  6
CONTINUOUS
 62
    2
 10
1299.803005456462
 20
976.84791666727563
 11
1299.803005456462
 21
982.847916663212
  0
LINE
  8
_0-0_計極細
  6
CONTINUOUS
 62
    2
 10
1289.803005456462
 20
976.84791666727563
 11
1289.803005456462
 21
982.847916663212
  0
LINE
  8
_0-0_計極細
  6
CONTINUOUS
 62
    2
 10
1299.803005456462
 20
994.24791666893157
 11
1299.803005456462
 21
1000.2479166648681
  0
LINE
  8
_0-0_計極細
  6
CONTINUOUS
 62
    2
 10
1289.803005456462
 20
994.24791666893157
 11
1289.803005456462
 21
1000.2479166648681
  0
LINE
  8
_0-0_計極細
  6
CONTINUOUS
 62
    2
 10
1299.803005456462
 20
1011.6479166705876
 11
1299.803005456462
 21
1017.647916666524
  0
LINE
  8
_0-0_計極細
  6
CONTINUOUS
 62
    2
 10
1289.803005456462
 20
1011.6479166705876
 11
1289.803005456462
 21
1017.647916666524
  0
LINE
  8
_0-0_計極細
  6
CONTINUOUS
 62
    2
 10
1299.803005456462
 20
1029.0479166661723
 11
1299.803005456462
 21
1035.0479166621087
  0
LINE
  8
_0-0_計極細
  6
CONTINUOUS
 62
    2
 10
1289.803005456462
 20
1029.0479166661723
 11
1289.803005456462
 21
1035.0479166621087
  0
LINE
  8
_0-0_計極細
  6
CONTINUOUS
 62
    2
 10
1299.803005456462
 20
1046.4479166678284
 11
1299.803005456462
 21
1052.4479166637648
  0
LINE
  8
_0-0_計極細
  6
CONTINUOUS
 62
    2
 10
1289.803005456462
 20
1046.4479166678284
 11
1289.803005456462
 21
1052.4479166637648
  0
LINE
  8
_0-0_計極細
  6
CONTINUOUS
 62
    2
 10
1299.803005456462
 20
1063.8479166694844
 11
1299.803005456462
 21
1069.8479166654211
  0
LINE
  8
_0-0_計極細
  6
CONTINUOUS
 62
    2
 10
1289.803005456462
 20
1063.8479166694844
 11
1289.803005456462
 21
1069.8479166654211
  0
LINE
  8
_0-0_計極細
  6
CONTINUOUS
 62
    2
 10
1299.803005456462
 20
1081.2479166654214
 11
1299.803005456462
 21
1087.5479166565899
  0
LINE
  8
_0-0_計極細
  6
CONTINUOUS
 62
    2
 10
1289.803005456462
 20
1081.2479166654214
 11
1289.803005456462
 21
1087.5479166565899
  0
LINE
  8
_0-0_計極細
  6
CONTINUOUS
 62
    2
 10
1299.803005456462
 20
1099.0479166782957
 11
1299.803005456462
 21
1105.347916669464
  0
LINE
  8
_0-0_計極細
  6
CONTINUOUS
 62
    2
 10
1289.803005456462
 20
1099.0479166782957
 11
1289.803005456462
 21
1105.347916669464
  0
LINE
  8
_0-0_計極細
  6
CONTINUOUS
 62
    2
 10
1433.8030054564617
 20
872.44791667058644
 11
1433.8030054564617
 21
878.44791666652281
  0
LINE
  8
_0-0_計極細
  6
CONTINUOUS
 62
    2
 10
1423.8030054564617
 20
872.44791667058644
 11
1423.8030054564617
 21
878.44791666652281
  0
LINE
  8
_0-0_計極細
  6
CONTINUOUS
 62
    2
 10
1433.8030054564617
 20
889.84791667003446
 11
1433.8030054564617
 21
895.84791666597084
  0
LINE
  8
_0-0_計極細
  6
CONTINUOUS
 62
    2
 10
1423.8030054564617
 20
889.84791667003446
 11
1423.8030054564617
 21
895.84791666597084
  0
LINE
  8
_0-0_計極細
  6
CONTINUOUS
 62
    2
 10
1433.8030054564617
 20
907.24791666948272
 11
1433.8030054564617
 21
913.2479166654191
  0
LINE
  8
_0-0_計極細
  6
CONTINUOUS
 62
    2
 10
1423.8030054564617
 20
907.24791666948272
 11
1423.8030054564617
 21
913.2479166654191
  0
LINE
  8
_0-0_計極細
  6
CONTINUOUS
 62
    2
 10
1433.8030054564617
 20
924.64791666893109
 11
1433.8030054564617
 21
930.64791666486735
  0
LINE
  8
_0-0_計極細
  6
CONTINUOUS
 62
    2
 10
1423.8030054564617
 20
924.64791666893109
 11
1423.8030054564617
 21
930.64791666486735
  0
LINE
  8
_0-0_計極細
  6
CONTINUOUS
 62
    2
 10
1433.8030054564617
 20
942.04791666837934
 11
1433.8030054564617
 21
948.04791666431572
  0
LINE
  8
_0-0_計極細
  6
CONTINUOUS
 62
    2
 10
1423.8030054564617
 20
942.04791666837934
 11
1423.8030054564617
 21
948.04791666431572
  0
LINE
  8
_0-0_計極細
  6
CONTINUOUS
 62
    2
 10
1433.8030054564617
 20
959.44791667003528
 11
1433.8030054564617
 21
965.44791666597177
  0
LINE
  8
_0-0_計極細
  6
CONTINUOUS
 62
    2
 10
1423.8030054564617
 20
959.44791667003528
 11
1423.8030054564617
 21
965.44791666597177
  0
LINE
  8
_0-0_計極細
  6
CONTINUOUS
 62
    2
 10
1433.8030054564617
 20
976.84791666727563
 11
1433.8030054564617
 21
982.847916663212
  0
LINE
  8
_0-0_計極細
  6
CONTINUOUS
 62
    2
 10
1423.8030054564617
 20
976.84791666727563
 11
1423.8030054564617
 21
982.847916663212
  0
LINE
  8
_0-0_計極細
  6
CONTINUOUS
 62
    2
 10
1433.8030054564617
 20
994.24791666893157
 11
1433.8030054564617
 21
1000.2479166648681
  0
LINE
  8
_0-0_計極細
  6
CONTINUOUS
 62
    2
 10
1423.8030054564617
 20
994.24791666893157
 11
1423.8030054564617
 21
1000.2479166648681
  0
LINE
  8
_0-0_計極細
  6
CONTINUOUS
 62
    2
 10
1433.8030054564617
 20
1011.6479166705876
 11
1433.8030054564617
 21
1017.647916666524
  0
LINE
  8
_0-0_計極細
  6
CONTINUOUS
 62
    2
 10
1423.8030054564617
 20
1011.6479166705876
 11
1423.8030054564617
 21
1017.647916666524
  0
LINE
  8
_0-0_計極細
  6
CONTINUOUS
 62
    2
 10
1433.8030054564617
 20
1029.0479166661723
 11
1433.8030054564617
 21
1035.0479166621087
  0
LINE
  8
_0-0_計極細
  6
CONTINUOUS
 62
    2
 10
1423.8030054564617
 20
1029.0479166661723
 11
1423.8030054564617
 21
1035.0479166621087
  0
LINE
  8
_0-0_計極細
  6
CONTINUOUS
 62
    2
 10
1433.8030054564617
 20
1046.4479166678284
 11
1433.8030054564617
 21
1052.4479166637648
  0
LINE
  8
_0-0_計極細
  6
CONTINUOUS
 62
    2
 10
1423.8030054564617
 20
1046.4479166678284
 11
1423.8030054564617
 21
1052.4479166637648
  0
LINE
  8
_0-0_計極細
  6
CONTINUOUS
 62
    2
 10
1433.8030054564617
 20
1063.8479166694844
 11
1433.8030054564617
 21
1069.8479166654211
  0
LINE
  8
_0-0_計極細
  6
CONTINUOUS
 62
    2
 10
1423.8030054564617
 20
1063.8479166694844
 11
1423.8030054564617
 21
1069.8479166654211
  0
LINE
  8
_0-0_計極細
  6
CONTINUOUS
 62
    2
 10
1433.8030054564617
 20
1081.2479166654214
 11
1433.8030054564617
 21
1087.5479166565899
  0
LINE
  8
_0-0_計極細
  6
CONTINUOUS
 62
    2
 10
1423.8030054564617
 20
1081.2479166654214
 11
1423.8030054564617
 21
1087.5479166565899
  0
LINE
  8
_0-0_計極細
  6
CONTINUOUS
 62
    2
 10
1433.8030054564617
 20
1099.0479166782957
 11
1433.8030054564617
 21
1105.347916669464
  0
LINE
  8
_0-0_計極細
  6
CONTINUOUS
 62
    2
 10
1423.8030054564617
 20
1099.0479166782957
 11
1423.8030054564617
 21
1105.347916669464
  0
LINE
  8
_0-0_計極細
  6
CENTER2
 62
    2
 10
575.50908135822874
 20
866.74791666725605
 11
1610.3477392528205
 21
866.74791666725605
  0
LINE
  8
_0-5_寸法線
  6
CONTINUOUS
 62
    7
 10
594.30300545646196
 20
1131.7479166672554
 11
594.30300545646276
 21
1211.7479166672558
  0
LINE
  8
_0-5_寸法線
  6
CONTINUOUS
 62
    7
 10
594.30300545646276
 20
1206.7479166672558
 11
601.54744915363074
 21
1208.6890595055247
  0
LINE
  8
_0-5_寸法線
  6
CONTINUOUS
 62
    7
 10
594.30300545646276
 20
1206.7479166672558
 11
601.54744915363074
 21
1204.8067738289869
  0
LINE
  8
_0-5_寸法線
  6
CONTINUOUS
 62
    7
 10
1593.3030054564629
 20
1131.7479166672554
 11
1593.3030054564629
 21
1211.7479166672558
  0
LINE
  8
_0-5_寸法線
  6
CONTINUOUS
 62
    7
 10
1593.3030054564629
 20
1206.7479166672558
 11
1586.0585617592949
 21
1204.8067738289869
  0
LINE
  8
_0-5_寸法線
  6
CONTINUOUS
 62
    7
 10
1593.3030054564629
 20
1206.7479166672558
 11
1586.0585617592949
 21
1208.6890595055247
  0
LINE
  8
_0-5_寸法線
  6
CONTINUOUS
 62
    7
 10
594.30300545646276
 20
1206.7479166672558
 11
1593.3030054564629
 21
1206.7479166672558
  0
TEXT
  8
_0-5_寸法線
 62
    7
 10
1082.5530054564622
 20
1206.7479166672558
 40
15
 41
1
 50
0
  1
999
  0
LINE
  8
_0-5_寸法線
  6
CONTINUOUS
 62
    7
 10
594.30300545646196
 20
1171.7479166672558
 11
601.54744915362983
 21
1173.6890595055247
  0
LINE
  8
_0-5_寸法線
  6
CONTINUOUS
 62
    7
 10
594.30300545646196
 20
1171.7479166672558
 11
601.54744915362983
 21
1169.8067738289869
  0
LINE
  8
_0-5_寸法線
  6
CONTINUOUS
 62
    7
 10
624.80300545646185
 20
1131.7479166672554
 11
624.80300545646185
 21
1176.7479166672558
  0
LINE
  8
_0-5_寸法線
  6
CONTINUOUS
 62
    7
 10
624.80300545646185
 20
1171.7479166672558
 11
617.55856175929387
 21
1169.8067738289869
  0
LINE
  8
_0-5_寸法線
  6
CONTINUOUS
 62
    7
 10
624.80300545646185
 20
1171.7479166672558
 11
617.55856175929387
 21
1173.6890595055247
  0
LINE
  8
_0-5_寸法線
  6
CONTINUOUS
 62
    7
 10
594.30300545646196
 20
1171.7479166672558
 11
624.80300545646185
 21
1171.7479166672558
  0
TEXT
  8
_0-5_寸法線
 62
    7
 10
594.55300545646185
 20
1171.7479166672558
 40
15
 41
1
 50
0
  1
30.5
  0
LINE
  8
_0-5_寸法線
  6
CONTINUOUS
 62
    7
 10
624.80300545646185
 20
1171.7479166672558
 11
632.04744915362983
 21
1173.6890595055247
  0
LINE
  8
_0-5_寸法線
  6
CONTINUOUS
 62
    7
 10
624.80300545646185
 20
1171.7479166672558
 11
632.04744915362983
 21
1169.8067738289869
  0
LINE
  8
_0-5_寸法線
  6
CONTINUOUS
 62
    7
 10
1562.8030054564626
 20
1131.7479166672554
 11
1562.8030054564626
 21
1176.7479166672558
  0
LINE
  8
_0-5_寸法線
  6
CONTINUOUS
 62
    7
 10
1562.8030054564626
 20
1171.7479166672558
 11
1555.5585617592947
 21
1169.8067738289869
  0
LINE
  8
_0-5_寸法線
  6
CONTINUOUS
 62
    7
 10
1562.8030054564626
 20
1171.7479166672558
 11
1555.5585617592947
 21
1173.6890595055247
  0
LINE
  8
_0-5_寸法線
  6
CONTINUOUS
 62
    7
 10
624.80300545646185
 20
1171.7479166672558
 11
1562.8030054564626
 21
1171.7479166672558
  0
TEXT
  8
_0-5_寸法線
 62
    7
 10
1060.0530054564622
 20
1171.7479166672558
 40
15
 41
1
 50
0
  1
7@134=938
  0
LINE
  8
_0-5_寸法線
  6
CONTINUOUS
 62
    7
 10
1562.8030054564626
 20
1171.7479166672558
 11
1570.0474491536306
 21
1173.6890595055247
  0
LINE
  8
_0-5_寸法線
  6
CONTINUOUS
 62
    7
 10
1562.8030054564626
 20
1171.7479166672558
 11
1570.0474491536306
 21
1169.8067738289869
  0
LINE
  8
_0-5_寸法線
  6
CONTINUOUS
 62
    7
 10
1593.3030054564629
 20
1171.7479166672558
 11
1586.0585617592949
 21
1169.8067738289869
  0
LINE
  8
_0-5_寸法線
  6
CONTINUOUS
 62
    7
 10
1593.3030054564629
 20
1171.7479166672558
 11
1586.0585617592949
 21
1173.6890595055247
  0
LINE
  8
_0-5_寸法線
  6
CONTINUOUS
 62
    7
 10
1562.8030054564626
 20
1171.7479166672558
 11
1593.3030054564629
 21
1171.7479166672558
  0
TEXT
  8
_0-5_寸法線
 62
    7
 10
1563.0530054564629
 20
1171.7479166672558
 40
15
 41
1
 50
0
  1
30.5
  0
LINE
  8
_0-1_計細線
  6
CONTINUOUS
 62
    3
 10
710.80300545646185
 20
1047.097916662944
 11
772.80300545646105
 21
1047.097916662944
  0
LINE
  8
_0-1_計細線
  6
CONTINUOUS
 62
    3
 10
772.80300545646105
 20
1051.7979166629439
 11
710.80300545646185
 21
1051.7979166629439
  0
LINE
  8
_0-1_計細線
  6
CONTINUOUS
 62
    3
 10
710.80300545646185
 20
1051.7979166629439
 11
710.80300545646185
 21
1047.097916662944
  0
LINE
  8
_0-1_計細線
  6
CONTINUOUS
 62
    3
 10
762.80300545646105
 20
1051.7979166629439
 11
762.80300545646105
 21
1047.097916662944
  0
LINE
  8
_0-1_計細線
  6
CONTINUOUS
 62
    3
 10
770.80300545646094
 20
1051.7979166629439
 11
770.80300545646094
 21
1047.097916662944
  0
LINE
  8
_0-1_計細線
  6
CONTINUOUS
 62
    3
 10
772.80300545646105
 20
1051.7979166629439
 11
772.80300545646105
 21
1047.097916662944
  0
LINE
  8
_0-1_計細線
  6
CONTINUOUS
 62
    3
 10
768.80300545646094
 20
1051.7979166629439
 11
768.80300545646094
 21
1047.097916662944
  0
LINE
  8
_0-1_計細線
  6
CONTINUOUS
 62
    3
 10
766.80300545646094
 20
1051.7979166629439
 11
766.80300545646094
 21
1047.097916662944
  0
LINE
  8
_0-1_計細線
  6
CONTINUOUS
 62
    3
 10
764.80300545646105
 20
1051.7979166629439
 11
764.80300545646105
 21
1047.097916662944
  0
LINE
  8
_0-1_計細線
  6
CONTINUOUS
 62
    3
 10
594.30300545646196
 20
1063.8479166637653
 11
1593.3030054564631
 21
1063.8479166637653
  0
LINE
  8
_0-1_計細線
  6
CONTINUOUS
 62
    3
 10
594.30300545646196
 20
1063.8479166637653
 11
594.30300545646196
 21
1052.4479166637648
  0
LINE
  8
_0-1_計細線
  6
CONTINUOUS
 62
    3
 10
1593.3030054564631
 20
1063.8479166637653
 11
1593.3030054564631
 21
1052.4479166637648
  0
LINE
  8
_0-0_計極細
  6
CONTINUOUS
 62
    2
 10
594.30300545646196
 20
1055.647916663765
 11
1593.3030054564631
 21
1055.647916663765
  0
LINE
  8
_0-0_計極細
  6
CONTINUOUS
 62
    2
 10
594.30300545646196
 20
1060.647916663765
 11
1593.3030054564631
 21
1060.647916663765
  0
LINE
  8
_0-1_計細線
  6
CONTINUOUS
 62
    3
 10
594.30300545646196
 20
1052.4479166637648
 11
825.80300545646185
 21
1052.4479166637648
  0
LINE
  8
_0-1_計細線
  6
CONTINUOUS
 62
    3
 10
825.80300545646185
 20
1052.4479166637648
 11
1593.3030054564631
 21
1052.4479166637648
  0
LINE
  8
_0-1_計細線
  6
CONTINUOUS
 62
    3
 10
594.30300545646196
 20
1035.0479166621087
 11
1593.3030054564631
 21
1035.0479166621087
  0
LINE
  8
_0-1_計細線
  6
CONTINUOUS
 62
    3
 10
594.30300545646196
 20
1046.4479166621093
 11
594.30300545646196
 21
1035.0479166621087
  0
LINE
  8
_0-1_計細線
  6
CONTINUOUS
 62
    3
 10
1593.3030054564631
 20
1046.4479166621093
 11
1593.3030054564631
 21
1035.0479166621087
  0
LINE
  8
_0-0_計極細
  6
CONTINUOUS
 62
    2
 10
594.30300545646196
 20
1038.247916662109
 11
1593.3030054564631
 21
1038.247916662109
  0
LINE
  8
_0-0_計極細
  6
CONTINUOUS
 62
    2
 10
594.30300545646196
 20
1043.247916662109
 11
1593.3030054564631
 21
1043.247916662109
  0
LINE
  8
_0-1_計細線
  6
CONTINUOUS
 62
    3
 10
825.80300545646196
 20
1046.4479166621093
 11
1593.3030054564631
 21
1046.4479166621093
  0
LINE
  8
_0-1_計細線
  6
CONTINUOUS
 62
    3
 10
594.30300545646196
 20
1046.4479166621093
 11
825.80300545646196
 21
1046.4479166621093
  0
LINE
  8
_0-0_計極細
  6
CONTINUOUS
 62
    2
 10
753.80300545646196
 20
1052.4479166637648
 11
753.80300545646196
 21
1051.7979166629439
  0
LINE
  8
_0-0_計極細
  6
CONTINUOUS
 62
    2
 10
753.80300545646196
 20
1047.097916662944
 11
753.80300545646196
 21
1046.4479166678279
  0
LINE
  8
_0-0_計極細
  6
CONTINUOUS
 62
    2
 10
763.80300545646196
 20
1052.4479166637648
 11
763.80300545646196
 21
1051.7979166629439
  0
LINE
  8
_0-0_計極細
  6
CONTINUOUS
 62
    2
 10
763.80300545646196
 20
1047.097916662944
 11
763.80300545646196
 21
1046.4479166678279
  0
LINE
  8
_0-1_計細線
  6
CONTINUOUS
 62
    3
 10
594.30300545646196
 20
698.44791667240338
 11
1593.3030054564631
 21
698.44791667240338
  0
LINE
  8
_0-1_計細線
  6
CONTINUOUS
 62
    3
 10
594.30300545646196
 20
687.04791667240283
 11
594.30300545646196
 21
698.44791667240338
  0
LINE
  8
_0-1_計細線
  6
CONTINUOUS
 62
    3
 10
1593.3030054564631
 20
687.04791667240283
 11
1593.3030054564631
 21
698.44791667240338
  0
LINE
  8
_0-0_計極細
  6
CONTINUOUS
 62
    2
 10
594.30300545646196
 20
695.24791667240311
 11
1593.3030054564631
 21
695.24791667240311
  0
LINE
  8
_0-0_計極細
  6
CONTINUOUS
 62
    2
 10
594.30300545646196
 20
690.24791667240311
 11
1593.3030054564631
 21
690.24791667240311
  0
LINE
  8
_0-1_計細線
  6
CONTINUOUS
 62
    3
 10
594.30300545646196
 20
687.04791667240283
 11
825.80300545646196
 21
687.04791667240283
  0
LINE
  8
_0-1_計細線
  6
CONTINUOUS
 62
    3
 10
825.80300545646196
 20
687.04791667240283
 11
1593.3030054564631
 21
687.04791667240283
  0
LINE
  8
_0-1_計細線
  6
CONTINUOUS
 62
    3
 10
594.30300545646196
 20
669.64791667074678
 11
1593.3030054564631
 21
669.64791667074678
  0
LINE
  8
_0-1_計細線
  6
CONTINUOUS
 62
    3
 10
594.30300545646196
 20
669.64791667074678
 11
594.30300545646196
 21
681.04791667074733
  0
LINE
  8
_0-1_計細線
  6
CONTINUOUS
 62
    3
 10
1593.3030054564631
 20
669.64791667074678
 11
1593.3030054564631
 21
681.04791667074733
  0
LINE
  8
_0-0_計極細
  6
CONTINUOUS
 62
    2
 10
594.30300545646196
 20
677.84791667074717
 11
1593.3030054564631
 21
677.84791667074717
  0
LINE
  8
_0-0_計極細
  6
CONTINUOUS
 62
    2
 10
594.30300545646196
 20
672.84791667074717
 11
1593.3030054564631
 21
672.84791667074717
  0
LINE
  8
_0-1_計細線
  6
CONTINUOUS
 62
    3
 10
825.80300545646185
 20
681.04791667074733
 11
1593.3030054564631
 21
681.04791667074733
  0
LINE
  8
_0-1_計細線
  6
CONTINUOUS
 62
    3
 10
594.30300545646196
 20
681.04791667074733
 11
825.80300545646185
 21
681.04791667074733
  0
LINE
  8
_0-1_計細線
  6
CONTINUOUS
 62
    3
 10
710.80300545646185
 20
686.39791667156817
 11
772.80300545646105
 21
686.39791667156817
  0
LINE
  8
_0-1_計細線
  6
CONTINUOUS
 62
    3
 10
772.80300545646105
 20
681.69791667156824
 11
710.80300545646185
 21
681.69791667156824
  0
LINE
  8
_0-1_計細線
  6
CONTINUOUS
 62
    3
 10
710.80300545646185
 20
681.69791667156824
 11
710.80300545646185
 21
686.39791667156817
  0
LINE
  8
_0-1_計細線
  6
CONTINUOUS
 62
    3
 10
762.80300545646105
 20
681.69791667156824
 11
762.80300545646105
 21
686.39791667156817
  0
LINE
  8
_0-1_計細線
  6
CONTINUOUS
 62
    3
 10
770.80300545646094
 20
681.69791667156824
 11
770.80300545646094
 21
686.39791667156817
  0
LINE
  8
_0-1_計細線
  6
CONTINUOUS
 62
    3
 10
772.80300545646105
 20
681.69791667156824
 11
772.80300545646105
 21
686.39791667156817
  0
LINE
  8
_0-1_計細線
  6
CONTINUOUS
 62
    3
 10
768.80300545646094
 20
681.69791667156824
 11
768.80300545646094
 21
686.39791667156817
  0
LINE
  8
_0-1_計細線
  6
CONTINUOUS
 62
    3
 10
766.80300545646094
 20
681.69791667156824
 11
766.80300545646094
 21
686.39791667156817
  0
LINE
  8
_0-1_計細線
  6
CONTINUOUS
 62
    3
 10
764.80300545646105
 20
681.69791667156824
 11
764.80300545646105
 21
686.39791667156817
  0
LINE
  8
_0-0_計極細
  6
CONTINUOUS
 62
    2
 10
753.80300545646196
 20
681.04791667074733
 11
753.80300545646196
 21
681.69791667156824
  0
LINE
  8
_0-0_計極細
  6
CONTINUOUS
 62
    2
 10
753.80300545646196
 20
686.39791667156817
 11
753.80300545646196
 21
687.04791666668416
  0
LINE
  8
_0-0_計極細
  6
CONTINUOUS
 62
    2
 10
763.80300545646196
 20
681.04791667074733
 11
763.80300545646196
 21
681.69791667156824
  0
LINE
  8
_0-0_計極細
  6
CONTINUOUS
 62
    2
 10
763.80300545646196
 20
686.39791667156817
 11
763.80300545646196
 21
687.04791666668416
  0
LINE
  8
_0-b_細線3
  6
CONTINUOUS
 62
    7
 10
485.13252308751868
 20
235.04097309634986
 11
477.38252309033169
 21
235.04097309634986
  0
LINE
  8
_0-b_細線3
  6
CONTINUOUS
 62
    7
 10
485.13252308751868
 20
245.70804186269541
 11
492.96585642085211
 21
245.70804186269541
  0
LINE
  8
_0-b_細線3
  6
DASHED2
 62
    7
 10
485.13252308751868
 20
217.37470852936141
 11
492.96585642085211
 21
217.37470852936141
  0
LINE
  8
_0-b_細線3
  6
DASHED2
 62
    7
 10
485.13252308751868
 20
240.70804186269541
 11
492.96585642085211
 21
240.70804186269541
  0
LINE
  8
_0-b_細線3
  6
CONTINUOUS
 62
    7
 10
492.96585642085211
 20
212.37470852936156
 11
485.13252308751868
 21
212.37470852936156
  0
LINE
  8
_0-b_細線3
  6
CONTINUOUS
 62
    7
 10
492.96585642085211
 20
245.70804186269541
 11
492.96585642085211
 21
212.37470852936156
  0
LINE
  8
_0-b_細線3
  6
CONTINUOUS
 62
    7
 10
485.13252308751868
 20
212.37470852936156
 11
485.13252308751868
 21
245.70804186269541
  0
LINE
  8
_0-b_細線3
  6
CONTINUOUS
 62
    7
 10
500.71585641857297
 20
235.04097309634986
 11
492.96585642085211
 21
235.04097309634986
  0
LINE
  8
_0-b_細線3
  6
CONTINUOUS
 62
    7
 10
1086.3825230848306
 20
218.37430642968314
 11
1094.1325231011378
 21
218.37430642968314
  0
LINE
  8
_0-b_細線3
  6
CONTINUOUS
 62
    7
 10
1101.9658564344713
 20
218.37430642968314
 11
1109.7158564163242
 21
218.37430642968314
  0
LINE
  8
_0-b_細線3
  6
CONTINUOUS
 62
    7
 10
1086.3825230848306
 20
235.04097309634986
 11
1094.1325231011378
 21
235.04097309634986
  0
LINE
  8
_0-b_細線3
  6
CONTINUOUS
 62
    7
 10
1101.9658564344713
 20
245.70804186269541
 11
1094.1325231011378
 21
245.70804186269541
  0
LINE
  8
_0-b_細線3
  6
DASHED2
 62
    7
 10
1101.9658564344713
 20
217.37470852936141
 11
1094.1325231011378
 21
217.37470852936141
  0
LINE
  8
_0-b_細線3
  6
DASHED2
 62
    7
 10
1101.9658564344713
 20
240.70804186269541
 11
1094.1325231011378
 21
240.70804186269541
  0
LINE
  8
_0-b_細線3
  6
CONTINUOUS
 62
    7
 10
1094.1325231011378
 20
212.37470852936156
 11
1101.9658564344713
 21
212.37470852936156
  0
LINE
  8
_0-b_細線3
  6
CONTINUOUS
 62
    7
 10
1094.1325231011378
 20
245.70804186269541
 11
1094.1325231011378
 21
212.37470852936156
  0
LINE
  8
_0-b_細線3
  6
CONTINUOUS
 62
    7
 10
1101.9658564344713
 20
212.37470852936156
 11
1101.9658564344713
 21
245.70804186269541
  0
LINE
  8
_0-b_細線3
  6
CONTINUOUS
 62
    7
 10
1101.9658564344713
 20
235.04097309634986
 11
1109.7158564163242
 21
235.04097309634986
  0
LINE
  8
_0-b_細線3
  6
CONTINUOUS
 62
    7
 10
492.96585642085211
 20
218.37430642968314
 11
500.71585641796992
 21
218.37430642968314
  0
LINE
  8
_0-b_細線3
  6
CONTINUOUS
 62
    7
 10
477.38252309033169
 20
218.37430642968314
 11
485.13252308751868
 21
218.37430642968314
  0
LINE
  8
_0-7_枠細線
  6
CONTINUOUS
 62
    5
 10
2040
 20
1372.5000000000002
 11
1505
 21
1372.5000000000002
  0
LINE
  8
_0-7_枠細線
  6
CONTINUOUS
 62
    5
 10
1530
 20
1373.7500000000002
 11
1522.5
 21
1388.7500000000002
  0
LINE
  8
_0-7_枠細線
  6
CONTINUOUS
 62
    5
 10
1515.0000000000002
 20
1373.7500000000002
 11
1530
 21
1373.7500000000002
  0
LINE
  8
_0-7_枠細線
  6
CONTINUOUS
 62
    5
 10
1522.5
 20
1388.7500000000002
 11
1515.0000000000002
 21
1373.7500000000002
  0
TEXT
  8
_0-7_枠細線
 62
    5
 10
1517.3651512681486
 20
1373.4429977546197
 40
12.5
 41
0.8
 50
0
  1
２
  0
TEXT
  8
_0-7_枠細線
 62
    5
 10
1553.8503703703702
 20
1375.0000000000002
 40
12.5
 41
1
 50
0
  1
取外具形状変更
  0
TEXT
  8
_0-7_枠細線
 62
    5
 10
1795
 20
1375.0000000000002
 40
12.5
 41
0.7199999999999999
 50
0
  1
２０１８．０４．０１
  0
TEXT
  8
_0-5_寸法線
 62
    7
 10
973.28105961856181
 20
552.6309012216575
 40
15
 41
0.8000000000000001
 50
0
  1
ＧＳＬ－２５
  0
LINE
  8
_0-5_寸法線
  6
CONTINUOUS
 62
    7
 10
737.15602262844027
 20
683.76543209876434
 11
734.5678321774152
 21
674.10617383587351
  0
LINE
  8
_0-5_寸法線
  6
CONTINUOUS
 62
    7
 10
737.15602262844027
 20
683.76543209876434
 11
730.08495481657496
 21
676.6943642868988
  0
LINE
  8
_0-5_寸法線
  6
CONTINUOUS
 62
    7
 10
737.15602262844027
 20
683.76543209876434
 11
669.34336586324002
 21
566.31046518520645
  0
LINE
  8
_0-5_寸法線
  6
CONTINUOUS
 62
    7
 10
669.34336586324002
 20
566.31046518520645
 11
609.34336586324014
 21
566.31046518520645
  0
TEXT
  8
_0-5_寸法線
 62
    7
 10
609.34336586324002
 20
566.31046518520668
 40
15
 41
0.8000000000000001
 50
-0.0000000000002035
  1
取　外　具
  0
TEXT
  8
_0-5_寸法線
 62
    7
 10
607.40496098736935
 20
548.66817381487544
 40
15
 41
0.8000000000000001
 50
-0.0000000000002714
  1
(標準付属)
  0
LINE
  8
_0-7_枠細線
  6
CONTINUOUS
 62
    5
 10
606.17543971357009
 20
568.38880353330933
 11
598.67543971357009
 21
583.38880353330933
  0
LINE
  8
_0-7_枠細線
  6
CONTINUOUS
 62
    5
 10
591.17543971357031
 20
568.38880353330933
 11
606.17543971357009
 21
568.38880353330933
  0
LINE
  8
_0-7_枠細線
  6
CONTINUOUS
 62
    5
 10
598.67543971357009
 20
583.38880353330933
 11
591.17543971357031
 21
568.38880353330933
  0
TEXT
  8
_0-7_枠細線
 62
    5
 10
593.54059098171842
 20
568.08180128792878
 40
12.5
 41
0.8
 50
0
  1
２
  0
TEXT
  8
_0-7_枠細線
 62
    5
 10
1650.4214320920539
 20
280.0127819693754
 40
12.5
 41
0.8
 50
0
  1
１
  0
LINE
  8
_0-b_細線3
  6
CONTINUOUS
 62
    7
 10
1218.5491897609954
 20
219.04101019435004
 11
1218.5491897609954
 21
160.70767686101675
  0
LINE
  8
_0-b_細線3
  6
CONTINUOUS
 62
    7
 10
1218.5491897609954
 20
160.70767686101675
 11
1222.3825230943289
 21
160.70767686101675
  0
LINE
  8
_0-b_細線3
  6
CONTINUOUS
 62
    7
 10
1222.3825230943289
 20
160.70767686101675
 11
1222.3825230943289
 21
219.04101019435004
  0
LINE
  8
_0-b_細線3
  6
CONTINUOUS
 62
    7
 10
1222.3825230943289
 20
219.04101019435004
 11
1218.5491897609954
 21
219.04101019435004
  0
LINE
  8
_0-a_極細3
  6
CONTINUOUS
 62
    7
 10
1222.3825230943289
 20
192.37434352768332
 11
1218.5491897609954
 21
192.37434352768332
  0
LINE
  8
_0-a_極細3
  6
CONTINUOUS
 62
    7
 10
1222.3825230943289
 20
195.70767686101675
 11
1218.5491897609954
 21
195.70767686101675
  0
LINE
  8
_0-a_極細3
  6
CONTINUOUS
 62
    7
 10
1222.3825230943289
 20
189.04101019434995
 11
1218.5491897609954
 21
189.04101019434995
  0
LINE
  8
_0-a_極細3
  6
CONTINUOUS
 62
    7
 10
1222.3825230943289
 20
199.04101019434995
 11
1218.5491897609954
 21
199.04101019434995
  0
LINE
  8
_0-a_極細3
  6
CONTINUOUS
 62
    7
 10
1218.5491897609954
 20
165.70767686101675
 11
1222.3825230943289
 21
165.70767686101675
  0
LINE
  8
_0-a_極細3
  6
CONTINUOUS
 62
    7
 10
1222.3825230943289
 20
215.70767686101675
 11
1218.5491897609954
 21
215.70767686101675
  0
LINE
  8
_0-7_枠細線
  6
CONTINUOUS
 62
    5
 10
1240.3132399349511
 20
208.37433199428986
 11
1232.8132399349511
 21
223.37433199428986
  0
LINE
  8
_0-7_枠細線
  6
CONTINUOUS
 62
    5
 10
1225.3132399349511
 20
208.37433199428986
 11
1240.3132399349511
 21
208.37433199428986
  0
LINE
  8
_0-7_枠細線
  6
CONTINUOUS
 62
    5
 10
1232.8132399349511
 20
223.37433199428986
 11
1225.3132399349511
 21
208.37433199428986
  0
LINE
  8
_0-b_細線3
  6
CONTINUOUS
 62
    7
 10
368.55161670459609
 20
219.04101019435004
 11
368.55161670459609
 21
160.70767686101675
  0
LINE
  8
_0-b_細線3
  6
CONTINUOUS
 62
    7
 10
368.55161670459609
 20
160.70767686101675
 11
364.71828337126271
 21
160.70767686101675
  0
LINE
  8
_0-b_細線3
  6
CONTINUOUS
 62
    7
 10
364.71828337126271
 20
160.70767686101675
 11
364.71828337126271
 21
219.04101019435004
  0
LINE
  8
_0-b_細線3
  6
CONTINUOUS
 62
    7
 10
364.71828337126271
 20
219.04101019435004
 11
368.55161670459609
 21
219.04101019435004
  0
LINE
  8
_0-a_極細3
  6
CONTINUOUS
 62
    7
 10
364.71828337126271
 20
192.37434352768332
 11
368.55161670459609
 21
192.37434352768332
  0
LINE
  8
_0-a_極細3
  6
CONTINUOUS
 62
    7
 10
364.71828337126271
 20
195.70767686101675
 11
368.55161670459609
 21
195.70767686101675
  0
LINE
  8
_0-a_極細3
  6
CONTINUOUS
 62
    7
 10
364.71828337126271
 20
189.04101019434995
 11
368.55161670459609
 21
189.04101019434995
  0
LINE
  8
_0-a_極細3
  6
CONTINUOUS
 62
    7
 10
364.71828337126271
 20
199.04101019434995
 11
368.55161670459609
 21
199.04101019434995
  0
LINE
  8
_0-a_極細3
  6
CONTINUOUS
 62
    7
 10
368.55161670459609
 20
165.70767686101675
 11
364.71828337126271
 21
165.70767686101675
  0
LINE
  8
_0-a_極細3
  6
CONTINUOUS
 62
    7
 10
364.71828337126271
 20
215.70767686101675
 11
368.55161670459609
 21
215.70767686101675
  0
LINE
  8
_0-7_枠細線
  6
CONTINUOUS
 62
    5
 10
1530
 20
1356.4423339717471
 11
1522.5
 21
1371.4423339717471
  0
LINE
  8
_0-7_枠細線
  6
CONTINUOUS
 62
    5
 10
1515
 20
1356.4423339717471
 11
1530
 21
1356.4423339717471
  0
LINE
  8
_0-7_枠細線
  6
CONTINUOUS
 62
    5
 10
1522.5
 20
1371.4423339717471
 11
1515
 21
1356.4423339717471
  0
LINE
  8
_0-7_枠細線
  6
CONTINUOUS
 62
    5
 10
2040
 20
1355.0000000000002
 11
1505
 21
1355.0000000000002
  0
TEXT
  8
_0-7_枠細線
 62
    5
 10
1795
 20
1357.5000000000002
 40
12.5
 41
0.7199999999999999
 50
0
  1
２０１９．０９．０１
  0
TEXT
  8
_0-7_枠細線
 62
    5
 10
1553.8503703703702
 20
1357.5000000000002
 40
12.5
 41
1
 50
0
  1
アンカー材質･厚み変更
  0
LINE
  8
_0-7_枠細線
  6
CONTINUOUS
 62
    5
 10
1505
 20
1355
 11
1505
 21
1424.9999999999989
  0
LINE
  8
_0-7_枠細線
  6
CONTINUOUS
 62
    5
 10
1540
 20
1355
 11
1540
 21
1424.9999999999991
  0
LINE
  8
_0-7_枠細線
  6
CONTINUOUS
 62
    5
 10
1790
 20
1355
 11
1790
 21
1424.9999999999991
  0
LINE
  8
_0-7_枠細線
  6
CONTINUOUS
 62
    5
 10
1890
 20
1355
 11
1890
 21
1424.9999999999991
  0
TEXT
  8
_0-7_枠細線
 62
    5
 10
1517.3651512681481
 20
1355.4935140068972
 40
12.5
 41
0.8
 50
0
  1
３
  0
TEXT
  8
_0-7_枠細線
 62
    5
 10
1227.6783912030992
 20
207.42551202944
 40
12.5
 41
0.8
 50
0
  1
３
  0
LINE
  8
_0-5_寸法線
  6
CONTINUOUS
 62
    7
 10
539.3136954284837
 20
1121.7479166672554
 11
536.72550497745851
 21
1131.4071749301461
  0
LINE
  8
_0-5_寸法線
  6
CONTINUOUS
 62
    7
 10
539.3136954284837
 20
1121.7479166672554
 11
541.90188587950888
 21
1131.4071749301461
  0
LINE
  8
_0-5_寸法線
  6
CONTINUOUS
 62
    7
 10
579.31369542848279
 20
1118.7479166672554
 11
534.3136954284837
 21
1118.7479166672554
  0
CIRCLE
  8
_0-5_寸法線
  6
CONTINUOUS
 62
    1
 10
539.3136954284837
 20
1118.7479166672554
 40
1.5000000000000002
  0
LINE
  8
_0-5_寸法線
  6
CONTINUOUS
 62
    7
 10
539.3136954284837
 20
1146.7479166672554
 11
539.3136954284837
 21
1118.7479166672554
  0
TEXT
  8
_0-5_寸法線
 62
    7
 10
539.3136954284837
 20
1135.6420927467302
 40
15
 41
1
 50
90
  1
3
  0
LINE
  8
_0-5_寸法線
  6
CONTINUOUS
 62
    7
 10
579.31369542848302
 20
1116.7479166672554
 11
534.31369542848449
 21
1116.7479166672554
  0
LINE
  8
_0-5_寸法線
  6
CONTINUOUS
 62
    7
 10
539.3136954284837
 20
1118.7479166672554
 11
539.31369542848449
 21
1116.7479166672554
  0
TEXT
  8
_0-5_寸法線
 62
    7
 10
558.34753600211388
 20
1105.9187695424312
 40
15
 41
1
 50
90
  1
2
  0
LINE
  8
_0-5_寸法線
  6
CONTINUOUS
 62
    7
 10
539.31369542848449
 20
1116.7479166672554
 11
541.90188587950968
 21
1107.0886584043647
  0
LINE
  8
_0-5_寸法線
  6
CONTINUOUS
 62
    7
 10
539.31369542848449
 20
1116.7479166672554
 11
536.7255049774592
 21
1107.0886584043647
  0
LINE
  8
_0-5_寸法線
  6
CONTINUOUS
 62
    7
 10
579.3136954284829
 20
616.74791666725991
 11
534.3136954284829
 21
616.74791666725991
  0
LINE
  8
_0-5_寸法線
  6
CONTINUOUS
 62
    7
 10
539.3136954284829
 20
616.74791666725991
 11
536.72550497745772
 21
626.40717493015063
  0
LINE
  8
_0-5_寸法線
  6
CONTINUOUS
 62
    7
 10
539.3136954284829
 20
616.74791666725991
 11
541.9018858795082
 21
626.40717493015063
  0
LINE
  8
_0-5_寸法線
  6
CONTINUOUS
 62
    7
 10
539.31369542848449
 20
1116.7479166672554
 11
539.3136954284829
 21
616.74791666725991
  0
TEXT
  8
_0-5_寸法線
 62
    7
 10
539.3136954284837
 20
855.49791666725764
 40
15
 41
1
 50
90
  1
500
  0
LINE
  8
_0-5_寸法線
  6
CONTINUOUS
 62
    7
 10
579.3136954284829
 20
614.74791666725991
 11
534.31369542848279
 21
614.74791666725991
  0
CIRCLE
  8
_0-5_寸法線
  6
CONTINUOUS
 62
    1
 10
539.31369542848279
 20
614.74791666725991
 40
1.5000000000000002
  0
LINE
  8
_0-5_寸法線
  6
CONTINUOUS
 62
    7
 10
539.3136954284829
 20
616.74791666725991
 11
539.31369542848279
 21
614.74791666725991
  0
TEXT
  8
_0-5_寸法線
 62
    7
 10
557.20912053551785
 20
620.33954287224196
 40
15
 41
1
 50
90
  1
2
  0
LINE
  8
_0-5_寸法線
  6
CONTINUOUS
 62
    7
 10
539.3136954284796
 20
611.74791666725537
 11
541.90188587949456
 21
602.08865840436192
  0
LINE
  8
_0-5_寸法線
  6
CONTINUOUS
 62
    7
 10
539.3136954284796
 20
611.74791666725537
 11
536.72550497744407
 21
602.08865840436749
  0
LINE
  8
_0-5_寸法線
  6
CONTINUOUS
 62
    7
 10
539.31369542848279
 20
614.74791666725991
 11
539.31369542845323
 21
586.74791666725537
  0
TEXT
  8
_0-5_寸法線
 62
    7
 10
539.31369542848279
 20
588.48229620821826
 40
15
 41
1
 50
90
  1
3
  0
LINE
  8
_0-5_寸法線
  6
CONTINUOUS
 62
    7
 10
955.41760250143102
 20
613.82349381424979
 11
961.31553381582444
 21
605.74795010433809
  0
LINE
  8
_0-5_寸法線
  6
CONTINUOUS
 62
    7
 10
955.41760250143102
 20
613.82349381424979
 11
956.48758899451548
 21
603.88090215489774
  0
LINE
  8
_0-5_寸法線
  6
CONTINUOUS
 62
    7
 10
955.41760250143102
 20
613.82349381424979
 11
973.28105961856181
 21
567.6309012216575
  0
LINE
  8
_0-5_寸法線
  6
CONTINUOUS
 62
    7
 10
973.28105961856181
 20
567.6309012216575
 11
1082.1062692038558
 21
567.6309012216575
  0
TEXT
  8
_0-5_寸法線
 62
    7
 10
974.10626920385596
 20
568.2309012216574
 40
15
 41
0.8000000000000001
 50
0
  1
ＳＵＳアングル受枠
  0
TEXT
  8
_0-5_寸法線
 62
    7
 10
1207.1140344103123
 20
552.7596049253616
 40
15
 41
0.8000000000000001
 50
0
  1
ＧＲＺ－２５Ｗ５００
  0
LINE
  8
_0-5_寸法線
  6
CONTINUOUS
 62
    7
 10
1156.564540938416
 20
693.28466814503963
 11
1162.5804248177112
 21
685.29660572973285
  0
LINE
  8
_0-5_寸法線
  6
CONTINUOUS
 62
    7
 10
1156.564540938416
 20
693.28466814503963
 11
1157.7804179964494
 21
683.35886122672082
  0
LINE
  8
_0-5_寸法線
  6
CONTINUOUS
 62
    7
 10
1156.564540938416
 20
693.28466814503963
 11
1207.2904888808293
 21
567.6309012216575
  0
LINE
  8
_0-5_寸法線
  6
CONTINUOUS
 62
    7
 10
1207.2904888808293
 20
567.6309012216575
 11
1327.2904888808293
 21
567.6309012216575
  0
TEXT
  8
_0-5_寸法線
 62
    7
 10
1207.2904888808293
 20
567.6309012216575
 40
15
 41
0.8000000000000001
 50
0
  1
ＳＵＧＲＡ　　　　  
  0
LINE
  8
_0-d_寸法3
  6
CONTINUOUS
 62
    7
 10
368.54918976118995
 20
330.70767686101527
 11
358.88993149829912
 21
328.11948640999003
  0
LINE
  8
_0-d_寸法3
  6
CONTINUOUS
 62
    7
 10
368.54918976118995
 20
330.70767686101527
 11
358.88993149829929
 21
333.29586731204046
  0
LINE
  8
_0-d_寸法3
  6
CONTINUOUS
 62
    7
 10
373.54918976118995
 20
249.87470852936156
 11
373.54918976118995
 21
335.70767686101527
  0
CIRCLE
  8
_0-d_寸法3
  6
CONTINUOUS
 62
    1
 10
373.54918976118995
 20
330.70767686101527
 40
1.5000000000000002
  0
LINE
  8
_0-d_寸法3
  6
CONTINUOUS
 62
    7
 10
343.54918976118995
 20
330.70767686101527
 11
373.54918976118995
 21
330.70767686101527
  0
TEXT
  8
_0-d_寸法3
 62
    7
 10
347.40452181726664
 20
330.70767686101527
 40
15
 41
1
 50
0
  1
3
  0
LINE
  8
_0-d_寸法3
  6
CONTINUOUS
 62
    7
 10
376.88252309452309
 20
247.37470686101722
 11
376.88252309452338
 21
335.70767686101527
  0
LINE
  8
_0-d_寸法3
  6
CONTINUOUS
 62
    7
 10
373.54918976118995
 20
330.70767686101527
 11
376.88252309452338
 21
330.70767686101527
  0
TEXT
  8
_0-d_寸法3
 62
    7
 10
378.15505611626776
 20
330.70767686101527
 40
15
 41
1
 50
0
  1
2
  0
LINE
  8
_0-d_寸法3
  6
CONTINUOUS
 62
    7
 10
376.88252309452338
 20
330.70767686101527
 11
386.54178135741404
 21
333.2958673120404
  0
LINE
  8
_0-d_寸法3
  6
CONTINUOUS
 62
    7
 10
376.88252309452338
 20
330.70767686101527
 11
386.54178135741404
 21
328.11948640999003
  0
LINE
  8
_0-d_寸法3
  6
CONTINUOUS
 62
    7
 10
1210.2158564278566
 20
247.37470686101722
 11
1210.2158564278568
 21
335.70767686101527
  0
LINE
  8
_0-d_寸法3
  6
CONTINUOUS
 62
    7
 10
1210.2158564278568
 20
330.70767686101527
 11
1200.5565981649661
 21
328.11948640999003
  0
LINE
  8
_0-d_寸法3
  6
CONTINUOUS
 62
    7
 10
1210.2158564278568
 20
330.70767686101527
 11
1200.5565981649661
 21
333.29586731204046
  0
LINE
  8
_0-d_寸法3
  6
CONTINUOUS
 62
    7
 10
376.88252309452338
 20
330.70767686101527
 11
1210.2158564278568
 21
330.70767686101527
  0
TEXT
  8
_0-d_寸法3
 62
    7
 10
782.29918976119029
 20
330.70767686101499
 40
15
 41
1
 50
0
  1
500
  0
LINE
  8
_0-d_寸法3
  6
CONTINUOUS
 62
    7
 10
1213.5491897611894
 20
249.87470852936156
 11
1213.5491897611896
 21
335.70767686101527
  0
CIRCLE
  8
_0-d_寸法3
  6
CONTINUOUS
 62
    1
 10
1213.5491897611896
 20
330.70767686101527
 40
1.5000000000000002
  0
LINE
  8
_0-d_寸法3
  6
CONTINUOUS
 62
    7
 10
1210.2158564278568
 20
330.70767686101527
 11
1213.5491897611896
 21
330.70767686101527
  0
TEXT
  8
_0-d_寸法3
 62
    7
 10
1201.1537515071082
 20
330.70767686101527
 40
15
 41
1
 50
0
  1
2
  0
LINE
  8
_0-d_寸法3
  6
CONTINUOUS
 62
    7
 10
1218.5491897611896
 20
330.70767686101527
 11
1228.2084480240803
 21
333.2958673120404
  0
LINE
  8
_0-d_寸法3
  6
CONTINUOUS
 62
    7
 10
1218.5491897611896
 20
330.70767686101527
 11
1228.2084480240803
 21
328.11948640998997
  0
LINE
  8
_0-d_寸法3
  6
CONTINUOUS
 62
    7
 10
1213.5491897611896
 20
330.70767686101527
 11
1243.5491897611896
 21
330.70767686101527
  0
TEXT
  8
_0-d_寸法3
 62
    7
 10
1232.6314572598742
 20
330.70767686101527
 40
15
 41
1
 50
0
  1
3
  0
ENDSEC
  0
EOF
