  0
SECTION
  2
HEADER
  9
$ACADVER
  1
AC1009
  9
$INSBASE
 10
0
 20
0
 30
0
  9
$EXTMIN
 10
0
 20
0
  9
$EXTMAX
 10
1782
 20
1260
  9
$LIMMIN
 10
0
 20
0
  9
$LIMMAX
 10
1782
 20
1260
  9
$LTSCALE
 40
6
  0
ENDSEC
  0
SECTION
  2
TABLES
  0
TABLE
  2
LTYPE
 70
     9
  0
LTYPE
  2
CONTINUOUS
 70
    64
  3
実線
 72
    65
 73
     0
 40
0.0
  0
LTYPE
  2
DASHED1
 70
    64
  3
--  --  --  --  --  --  --  --  
 72
    65
 73
     2
 40
2.5
 49
1.25
 49
-1.25
  0
LTYPE
  2
DASHED2
 70
    64
  3
----    ----    ----    ----    
 72
    65
 73
     2
 40
5.0
 49
2.5
 49
-2.5
  0
LTYPE
  2
DASHED3
 70
    64
  3
------  ------  ------  ------  
 72
    65
 73
     2
 40
5.0
 49
3.75
 49
-1.25
  0
LTYPE
  2
CENTER1
 70
    64
  3
----- - ----- - ----- - ----- - 
 72
    65
 73
     4
 40
10.0
 49
6.25
 49
-1.25
 49
1.25
 49
-1.25
  0
LTYPE
  2
CENTER2
 70
    64
  3
----------  --  ----------  --  
 72
    65
 73
     4
 40
20.0
 49
12.5
 49
-2.5
 49
2.5
 49
-2.5
  0
LTYPE
  2
PHANTOM1
 70
    64
  3
--- - - --- - - --- - - --- - - 
 72
    65
 73
     6
 40
10.0
 49
3.25
 49
-1.25
 49
1.25
 49
-1.25
 49
1.25
 49
-1.25
  0
LTYPE
  2
PHANTOM2
 70
    64
  3
--------  -  -  --------  -  -  
 72
    65
 73
     6
 40
20.0
 49
10.0
 49
-2.5
 49
1.25
 49
-2.5
 49
1.25
 49
-2.5
  0
LTYPE
  2
DOT
 70
    64
  3
-   -   -   -   -   -   -   -   
 72
    65
 73
     2
 40
2.5
 49
0.625
 49
-1.875
  0
LTYPE
  2
DUMMY
 70
    64
  3
ダミー
 72
    65
 73
     0
 40
0.0
  0
LTYPE
  2
RAND1
 70
    64
  3
ランダム線1
 72
    65
 73
     4
 40
10.0
 49
1.0
 49
-2.0
 49
3.0
 49
-4.0
  0
LTYPE
  2
RAND2
 70
    64
  3
ランダム線2
 72
    65
 73
     4
 40
14.0
 49
2.0
 49
-3.0
 49
4.0
 49
-5.0
  0
LTYPE
  2
RAND3
 70
    64
  3
ランダム線3
 72
    65
 73
     4
 40
18.0
 49
3.0
 49
-4.0
 49
5.0
 49
-6.0
  0
LTYPE
  2
RAND4
 70
    64
  3
ランダム線4
 72
    65
 73
     4
 40
22.0
 49
4.0
 49
-5.0
 49
6.0
 49
-7.0
  0
LTYPE
  2
RAND5
 70
    64
  3
ランダム線5
 72
    65
 73
     4
 40
26.0
 49
5.0
 49
-6.0
 49
7.0
 49
-8.0
  0
LTYPE
  2
LONG1
 70
    64
  3
----------  --  ----------  --  
 72
    65
 73
     4
 40
40.0
 49
32.5
 49
-2.5
 49
2.5
 49
-2.5
  0
LTYPE
  2
LONG2
 70
    64
  3
--------  -  -  --------  -  -  
 72
    65
 73
     6
 40
40.0
 49
30.0
 49
-2.5
 49
1.25
 49
-2.5
 49
1.25
 49
-2.5
  0
LTYPE
  2
LONG3
 70
    64
  3
+++++++++++++++..+++++++++++++++
 72
    65
 73
     2
 40
40.0
 49
37.5
 49
-2.5
  0
LTYPE
  2
LONG4
 70
    64
  3
+++++++++++++++..+++++++++++++++
 72
    65
 73
     2
 40
80.0
 49
75.0
 49
-5.0
  0
LTYPE
  2
LONG5
 70
    64
  3
----------  --  ----------  --  
 72
    65
 73
     4
 40
60.0
 49
37.5
 49
-7.5
 49
7.5
 49
-7.5
  0
LTYPE
  2
dashed
 70
   64
  3
-------   -------------   ------
 72
   65
 73
    2
 40
7.5
 49
6
 49
-1.5
  0
LTYPE
  2
dashed_spaced
 70
   64
  3
----        --------        ----
 72
   65
 73
    2
 40
12
 49
6
 49
-6
  0
LTYPE
  2
long_dashed_dotted
 70
   64
  3
------------- --- --------------
 72
   65
 73
    4
 40
15.25
 49
12
 49
-1.5
 49
0.25
 49
-1.5
  0
LTYPE
  2
long_dashed_double-dotted
 70
   64
  3
----------- --- --- ------------
 72
   65
 73
    6
 40
17
 49
12
 49
-1.5
 49
0.25
 49
-1.5
 49
0.25
 49
-1.5
  0
LTYPE
  2
long_dashed_triplicate-dotted
 70
   64
  3
--------- --- --- --- ----------
 72
   65
 73
    8
 40
18.75
 49
12
 49
-1.5
 49
0.25
 49
-1.5
 49
0.25
 49
-1.5
 49
0.25
 49
-1.5
  0
LTYPE
  2
dotted
 70
   64
  3
   -       -       -       -    
 72
   65
 73
    2
 40
1.75
 49
0.25
 49
-1.5
  0
LTYPE
  2
chain
 70
   64
  3
-------------- -- --------------
 72
   65
 73
    4
 40
18.5
 49
12
 49
-1.5
 49
3.5
 49
-1.5
  0
LTYPE
  2
chain_double_dash
 70
   64
  3
------------ -- -- -------------
 72
   65
 73
    6
 40
23.5
 49
12
 49
-1.5
 49
3.5
 49
-1.5
 49
3.5
 49
-1.5
  0
LTYPE
  2
dashed_dotted
 70
   64
  3
-----------     -     ----------
 72
   65
 73
    4
 40
9.25
 49
6
 49
-1.5
 49
0.25
 49
-1.5
  0
LTYPE
  2
double-dashed_dotted
 70
   64
  3
------   -----------   -   -----
 72
   65
 73
    6
 40
16.75
 49
6
 49
-1.5
 49
6
 49
-1.5
 49
0.25
 49
-1.5
  0
LTYPE
  2
dashed_double-dotted
 70
   64
  3
---------    -    -    ---------
 72
   65
 73
    6
 40
11
 49
6
 49
-1.5
 49
0.25
 49
-1.5
 49
0.25
 49
-1.5
  0
LTYPE
  2
double-dashed_double-dotted
 70
   64
  3
-----   ---------   -   -   ----
 72
   65
 73
    8
 40
18.5
 49
6
 49
-1.5
 49
6
 49
-1.5
 49
0.25
 49
-1.5
 49
0.25
 49
-1.5
  0
LTYPE
  2
dashed_triplicate-dotted
 70
   64
  3
-------    -    -    -    ------
 72
   65
 73
    8
 40
12.75
 49
6
 49
-1.5
 49
0.25
 49
-1.5
 49
0.25
 49
-1.5
 49
0.25
 49
-1.5
  0
LTYPE
  2
double-dashed_triplicate-dotted
 70
   64
  3
-----  ---------  -  -  -  -----
 72
   65
 73
   10
 40
20.25
 49
6
 49
-1.5
 49
6
 49
-1.5
 49
0.25
 49
-1.5
 49
0.25
 49
-1.5
 49
0.25
 49
-1.5
  0
LTYPE
  2
undefined
 70
   64
  3
--------------------------------
 72
   65
 73
    0
 40
0
  0
ENDTAB
  0
TABLE
  2
STYLE
  5
3
100
AcDbSymbolTable
 70
     1
  0
STYLE
  5
10
100
AcDbSymbolTableRecord
100
AcDbTextStyleTableRecord
  2
STANDARD
 70
     0
 40
0.0
 41
1.0
 50
0.0
 71
     0
 42
0.2
  3
txt
  4
bigfont.shx
  0
STYLE
  5
26
100
AcDbSymbolTableRecord
100
AcDbTextStyleTableRecord
  2
TATEGAKI
 70
    68
 40
0.0
 41
1.0
 50
0.0
 71
     0
 42
1.0
  3
txt
  4
bigfont.shx
  0
ENDTAB
  0
TABLE
  2
LAYER
 70
    9
  0
LAYER
  2
_0-0_計極細
 70
   64
 62
    7
  6
CONTINUOUS
  0
LAYER
  2
_0-1_計細線
 70
   64
 62
    7
  6
CONTINUOUS
  0
LAYER
  2
_0-5_寸法線
 70
   64
 62
    7
  6
CONTINUOUS
  0
LAYER
  2
_0-7_枠細線
 70
   64
 62
    7
  6
CONTINUOUS
  0
LAYER
  2
_0-8_枠中線
 70
   64
 62
    7
  6
CONTINUOUS
  0
LAYER
  2
_1-2_極細2
 70
   64
 62
    7
  6
CONTINUOUS
  0
LAYER
  2
_1-3_細線2
 70
   64
 62
    7
  6
CONTINUOUS
  0
LAYER
  2
_1-5_寸法2
 70
   64
 62
    7
  6
CONTINUOUS
  0
LAYER
  2
ADD_LINE
 70
   64
 62
    7
  6
CONTINUOUS
  0
ENDTAB
  0
ENDSEC
  0
SECTION
  2
BLOCKS
  0
ENDSEC
  0
SECTION
  2
ENTITIES
  0
LINE
  8
_0-8_枠中線
  6
CONTINUOUS
 62
    5
 10
72
 20
72
 11
72
 21
1152
  0
LINE
  8
_0-8_枠中線
  6
CONTINUOUS
 62
    5
 10
72
 20
1152
 11
1710
 21
1152
  0
LINE
  8
_0-8_枠中線
  6
CONTINUOUS
 62
    5
 10
1710
 20
1152
 11
1710
 21
72
  0
LINE
  8
_0-8_枠中線
  6
CONTINUOUS
 62
    5
 10
1710
 20
72
 11
72
 21
72
  0
LINE
  8
_0-7_枠細線
  6
CONTINUOUS
 62
    5
 10
1422
 20
216
 11
1422
 21
120
  0
TEXT
  8
_0-7_枠細線
 62
    5
 10
1125
 20
117
 40
21
 41
1
 50
0
  1
備考
  7
TATEGAKI
  0
TEXT
  8
_0-7_枠細線
 62
    5
 10
1125
 20
165
 40
21
 41
1
 50
0
  1
品番
  7
TATEGAKI
  0
TEXT
  8
_0-7_枠細線
 62
    5
 10
1125
 20
213
 40
21
 41
1
 50
0
  1
品名
  7
TATEGAKI
  0
LINE
  8
_0-7_枠細線
  6
CONTINUOUS
 62
    5
 10
1422
 20
168
 11
1110
 21
168
  0
LINE
  8
_0-7_枠細線
  6
CONTINUOUS
 62
    5
 10
1140
 20
216
 11
1140
 21
72
  0
LINE
  8
_0-8_枠中線
  6
CONTINUOUS
 62
    5
 10
1710
 20
216
 11
1110
 21
216
  0
LINE
  8
_0-8_枠中線
  6
CONTINUOUS
 62
    5
 10
1110
 20
216
 11
1110
 21
72
  0
LINE
  8
_0-7_枠細線
  6
CONTINUOUS
 62
    5
 10
1494
 20
216
 11
1494
 21
72
  0
TEXT
  8
_0-7_枠細線
 62
    5
 10
1431
 20
192
 40
18
 41
1
 50
0
  1
縮　尺
  0
LINE
  8
_0-7_枠細線
  6
CONTINUOUS
 62
    5
 10
1422
 20
186
 11
1494
 21
186
  0
LINE
  8
_0-7_枠細線
  6
CONTINUOUS
 62
    5
 10
1494
 20
120
 11
1110
 21
120
  0
LINE
  8
_0-7_枠細線
  6
CONTINUOUS
 62
    5
 10
1710
 20
108
 11
1494
 21
108
  0
LINE
  8
_0-7_枠細線
  6
CONTINUOUS
 62
    5
 10
1494
 20
144
 11
1710
 21
144
  0
LINE
  8
_0-7_枠細線
  6
CONTINUOUS
 62
    5
 10
1710
 20
168
 11
1494
 21
168
  0
TEXT
  8
_0-7_枠細線
 62
    5
 10
1506
 20
177
 40
30
 41
0.8
 50
0
  1
株式会社シマブン
  0
TEXT
  8
_0-7_枠細線
 62
    5
 10
1503
 20
72
 40
18
 41
1
 50
0
  1
年月日
  0
TEXT
  8
_0-7_枠細線
 62
    5
 10
1503
 20
90
 40
18
 41
1
 50
0
  1
作　成
  0
TEXT
  8
_0-7_枠細線
 62
    5
 10
1507.5
 20
147
 40
18
 41
1
 50
0
  1
承 認
  0
LINE
  8
_0-7_枠細線
  6
CONTINUOUS
 62
    5
 10
1566
 20
168
 11
1566
 21
72
  0
TEXT
  8
_0-7_枠細線
 62
    5
 10
1579.5
 20
147
 40
18
 41
1
 50
0
  1
検 図
  0
LINE
  8
_0-7_枠細線
  6
CONTINUOUS
 62
    5
 10
1638
 20
168
 11
1638
 21
108
  0
TEXT
  8
_0-7_枠細線
 62
    5
 10
1651.5
 20
147
 40
18
 41
1
 50
0
  1
設 計
  0
TEXT
  8
_0-7_枠細線
 62
    5
 10
1650
 20
114
 40
24
 41
1
 50
0
  1
藤戸
  0
TEXT
  8
_0-7_枠細線
 62
    5
 10
1432.7999999999997
 20
141
 40
24
 41
0.6999999999999998
 50
0
  1
１：６
  0
LINE
  8
_0-1_計細線
  6
CONTINUOUS
 62
    3
 10
1723.4465993058161
 20
796.64196472428898
 11
1723.446594369296
 21
796.6433281967345
  0
TEXT
  8
_0-7_枠細線
 62
    5
 10
1506
 20
114
 40
24
 41
1
 50
0
  1
大野
  0
TEXT
  8
_0-7_枠細線
 62
    5
 10
1578
 20
114
 40
24
 41
1
 50
0
  1
深川
  0
TEXT
  8
_0-7_枠細線
 62
    5
 10
1572
 20
81
 40
18
 41
0.6666666666666666
 50
0
  1
２０１５年０４月０１日
  0
TEXT
  8
_0-5_寸法線
 62
    7
 10
145.25872185928802
 20
863.83542229942839
 40
18
 41
1
 50
0
  1
Ｂ部
  0
LINE
  8
_0-5_寸法線
  6
CONTINUOUS
 62
    7
 10
669.7584264158213
 20
856.04293717273606
 11
669.34507691248564
 21
844.05005836120415
  0
LINE
  8
_0-5_寸法線
  6
CONTINUOUS
 62
    7
 10
669.7584264158213
 20
856.04293717273606
 11
663.40401583952496
 21
845.86347420910897
  0
LINE
  8
_0-5_寸法線
  6
CONTINUOUS
 62
    7
 10
669.7584264158213
 20
856.04293717273606
 11
656.59705208292758
 21
812.92401946494533
  0
LINE
  8
_0-5_寸法線
  6
CONTINUOUS
 62
    7
 10
656.59705208292758
 20
812.92401946494533
 11
611.58699784439159
 21
812.92401946494533
  0
TEXT
  8
_0-5_寸法線
 62
    7
 10
611.58699784439159
 20
812.92401946494533
 40
18
 41
0.7999999999999998
 50
0
  1
上フタ
  0
LINE
  8
_0-1_計細線
  6
CONTINUOUS
 62
    3
 10
192.81304121194577
 20
860.36031331592812
 11
192.81304121194577
 21
850.36031331592812
  0
LINE
  8
_0-1_計細線
  6
CONTINUOUS
 62
    3
 10
192.81304121194577
 20
875.86031331592767
 11
192.81304121194577
 21
865.86031331592767
  0
LINE
  8
_0-1_計細線
  6
CONTINUOUS
 62
    3
 10
192.81304121194577
 20
906.86031331592721
 11
192.81304121194577
 21
896.8603133159271
  0
LINE
  8
_0-1_計細線
  6
CONTINUOUS
 62
    3
 10
192.81304121194577
 20
922.36031331592676
 11
192.81304121194577
 21
912.36031331592665
  0
LINE
  8
_0-0_計極細
  6
CONTINUOUS
 62
    2
 10
239.81303933189562
 20
875.86031517597496
 11
239.81303933189562
 21
881.36031495596956
  0
LINE
  8
_0-0_計極細
  6
CONTINUOUS
 62
    2
 10
239.81303933189562
 20
860.36031579599137
 11
239.81303933189562
 21
865.86031557598562
  0
LINE
  8
_0-0_計極細
  6
CONTINUOUS
 62
    2
 10
199.81304093190417
 20
860.36031579599137
 11
199.81304093190417
 21
865.86031557598562
  0
LINE
  8
_0-0_計極細
  6
CONTINUOUS
 62
    2
 10
239.81303933189562
 20
912.36031371593742
 11
239.81303933189562
 21
906.86031393594351
  0
LINE
  8
_0-0_計極細
  6
CONTINUOUS
 62
    2
 10
199.81304093190417
 20
912.36031371593742
 11
199.81304093190417
 21
906.86031393594351
  0
LINE
  8
_0-0_計極細
  6
CONTINUOUS
 62
    2
 10
239.81303933189562
 20
896.86031433595383
 11
239.81303933189562
 21
891.36031455595923
  0
LINE
  8
_0-0_計極細
  6
CONTINUOUS
 62
    2
 10
235.76304193735538
 20
860.36031331592812
 11
235.76304193735538
 21
865.86031331592767
  0
LINE
  8
_0-0_計極細
  6
CONTINUOUS
 62
    2
 10
228.86304193723299
 20
860.36031331592812
 11
228.86304193723299
 21
865.86031331592767
  0
LINE
  8
_0-0_計極細
  6
CONTINUOUS
 62
    2
 10
235.7630396168031
 20
912.36031331592665
 11
235.76304192798125
 21
906.86031331592721
  0
LINE
  8
_0-0_計極細
  6
CONTINUOUS
 62
    2
 10
228.86303964700636
 20
912.36031331592665
 11
228.86304192798139
 21
906.86031331592721
  0
LINE
  8
_0-0_計極細
  6
CONTINUOUS
 62
    2
 10
228.86304193723299
 20
896.8603133159271
 11
228.86304193723299
 21
895.26031439996416
  0
LINE
  8
_0-0_計極細
  6
CONTINUOUS
 62
    2
 10
228.86304193723299
 20
894.26031443996396
 11
228.86304193723299
 21
891.36031331592721
  0
LINE
  8
_0-0_計極細
  6
CONTINUOUS
 62
    2
 10
235.76304193735538
 20
896.8603133159271
 11
235.76304193735538
 21
895.26031439996416
  0
LINE
  8
_0-0_計極細
  6
CONTINUOUS
 62
    2
 10
235.76304193735538
 20
894.26031443996396
 11
235.76304193735538
 21
891.36031331592721
  0
LINE
  8
_0-0_計極細
  6
CONTINUOUS
 62
    2
 10
228.86304193723299
 20
875.86031331592767
 11
228.86304193723299
 21
877.46031511196463
  0
LINE
  8
_0-0_計極細
  6
CONTINUOUS
 62
    2
 10
228.86304193723299
 20
878.46031507196449
 11
228.86304193723299
 21
881.36031331592721
  0
LINE
  8
_0-0_計極細
  6
CONTINUOUS
 62
    2
 10
235.76304193735538
 20
875.86031331592767
 11
235.76304193735538
 21
877.46031511196463
  0
LINE
  8
_0-0_計極細
  6
CONTINUOUS
 62
    2
 10
235.76304193735538
 20
878.46031507196449
 11
235.76304193735538
 21
881.36031331592721
  0
LINE
  8
_0-0_計極細
  6
CONTINUOUS
 62
    2
 10
196.31304109190336
 20
876.46031515196444
 11
205.31304073190444
 21
876.46031515196444
  0
LINE
  8
_0-0_計極細
  6
CONTINUOUS
 62
    2
 10
196.31304109190336
 20
876.46031515196444
 11
196.31304109190336
 21
877.46031511196463
  0
LINE
  8
_0-0_計極細
  6
CONTINUOUS
 62
    2
 10
205.31304073190444
 20
876.46031515196444
 11
205.31304073190444
 21
877.46031511196463
  0
LINE
  8
_0-0_計極細
  6
CONTINUOUS
 62
    2
 10
196.31304109190336
 20
896.26031435996435
 11
205.31304073190444
 21
896.26031435996435
  0
LINE
  8
_0-0_計極細
  6
CONTINUOUS
 62
    2
 10
196.31304109190336
 20
896.26031435996435
 11
196.31304109190336
 21
895.26031439996416
  0
LINE
  8
_0-0_計極細
  6
CONTINUOUS
 62
    2
 10
205.31304073190444
 20
896.26031435996435
 11
205.31304073190444
 21
895.26031439996416
  0
LINE
  8
_0-1_計細線
  6
CONTINUOUS
 62
    3
 10
237.31303945190388
 20
894.26031443996396
 11
237.31303945190388
 21
895.26031439996416
  0
LINE
  8
_0-1_計細線
  6
CONTINUOUS
 62
    3
 10
224.51303996390465
 20
894.26031443996396
 11
237.31303945190388
 21
894.26031443996396
  0
LINE
  8
_0-1_計細線
  6
CONTINUOUS
 62
    3
 10
237.31303945190388
 20
895.26031439996416
 11
195.31304113190384
 21
895.26031439996416
  0
LINE
  8
_0-1_計細線
  6
CONTINUOUS
 62
    3
 10
195.31304113190384
 20
877.46031511196463
 11
237.31303945190388
 21
877.46031511196463
  0
LINE
  8
_0-1_計細線
  6
CONTINUOUS
 62
    3
 10
237.31303945190388
 20
878.46031507196449
 11
224.51303996390465
 21
878.46031507196449
  0
LINE
  8
_0-1_計細線
  6
CONTINUOUS
 62
    3
 10
237.31303945190388
 20
877.46031511196463
 11
237.31303945190388
 21
878.46031507196449
  0
LINE
  8
_0-1_計細線
  6
CONTINUOUS
 62
    3
 10
224.51303996390465
 20
877.46031511196463
 11
224.51303996390465
 21
895.26031439996416
  0
LINE
  8
_0-1_計細線
  6
CONTINUOUS
 62
    3
 10
195.31304113190384
 20
895.26031439996416
 11
195.31304113190384
 21
877.46031511196463
  0
LINE
  8
_0-1_計細線
  6
CONTINUOUS
 62
    3
 10
226.81303985190468
 20
891.36031455595923
 11
226.81303985190468
 21
881.36031495596956
  0
CIRCLE
  8
_0-5_寸法線
  6
CONTINUOUS
 62
    7
 10
211.8191009975362
 20
886.3603147559644
 40
32.624478443415455
  0
LINE
  8
_0-0_計極細
  6
CONTINUOUS
 62
    2
 10
199.81304093190417
 20
896.86031433595383
 11
199.81304093190417
 21
896.26031435996435
  0
LINE
  8
_0-0_計極細
  6
CONTINUOUS
 62
    2
 10
199.81304093190417
 20
876.46031515196444
 11
199.81304093190417
 21
875.86031517597496
  0
LINE
  8
_0-0_計極細
  6
CENTER1
 62
    2
 10
1532.1294964028777
 20
886.3603133159271
 11
1643.9496402877699
 21
886.3603133159271
  0
LINE
  8
_0-1_計細線
  6
CONTINUOUS
 62
    3
 10
1558.7763929071746
 20
927.36050324292046
 11
1558.7763929071746
 21
845.36050324292034
  0
LINE
  8
_0-1_計細線
  6
CONTINUOUS
 62
    3
 10
1558.7763929071746
 20
845.36050324292034
 11
1581.7763929071743
 21
845.36050324292034
  0
LINE
  8
_0-1_計細線
  6
CONTINUOUS
 62
    3
 10
1581.7763929071743
 20
845.36050324292034
 11
1581.7763929071743
 21
927.36050324292046
  0
LINE
  8
_0-1_計細線
  6
CONTINUOUS
 62
    3
 10
1581.7763929071743
 20
927.36050324292046
 11
1558.7763929071746
 21
927.36050324292046
  0
LINE
  8
_0-1_計細線
  6
CONTINUOUS
 62
    3
 10
1365.313041611957
 20
895.86031293592316
 11
1365.313041611957
 21
886.86031329592686
  0
LINE
  8
_0-0_計極細
  6
CENTER1
 62
    2
 10
180.14158195412026
 20
886.3603133159271
 11
1377.1703025807533
 21
886.3603133159271
  0
LINE
  8
_0-1_計細線
  6
CONTINUOUS
 62
    3
 10
1368.3130412119458
 20
845.36031331592721
 11
1368.3130412119458
 21
927.36031331592721
  0
LINE
  8
_0-1_計細線
  6
CONTINUOUS
 62
    3
 10
1368.3130412119458
 20
927.36031331592721
 11
188.31304121194577
 21
927.36031331592721
  0
LINE
  8
_0-1_計細線
  6
CONTINUOUS
 62
    3
 10
188.31304121194577
 20
927.36031331592721
 11
188.31304121194577
 21
845.36031331592721
  0
LINE
  8
_0-1_計細線
  6
CONTINUOUS
 62
    3
 10
188.31304121194577
 20
845.36031331592721
 11
1368.3130412119458
 21
845.36031331592721
  0
LINE
  8
_0-1_計細線
  6
CONTINUOUS
 62
    3
 10
191.31304121194577
 20
924.36031331592721
 11
191.31304121194577
 21
848.36031331592721
  0
LINE
  8
_0-1_計細線
  6
CONTINUOUS
 62
    3
 10
191.31304121194577
 20
848.36031331592721
 11
1365.3130412119458
 21
848.36031331592721
  0
LINE
  8
_0-1_計細線
  6
CONTINUOUS
 62
    3
 10
1365.3130412119458
 20
848.36031331592721
 11
1365.3130412119458
 21
924.36031331592721
  0
LINE
  8
_0-1_計細線
  6
CONTINUOUS
 62
    3
 10
1365.3130412119458
 20
924.36031331592721
 11
191.31304121194577
 21
924.36031331592721
  0
LINE
  8
_0-0_計極細
  6
CONTINUOUS
 62
    2
 10
508.76304078176639
 20
860.36031331592812
 11
508.76304078176639
 21
865.86031331592767
  0
LINE
  8
_0-0_計極細
  6
CONTINUOUS
 62
    2
 10
501.86304078164392
 20
860.36031331592812
 11
501.86304078164392
 21
865.86031331592767
  0
LINE
  8
_0-0_計極細
  6
CONTINUOUS
 62
    2
 10
508.76304078176639
 20
875.86031331592767
 11
508.76304078176639
 21
881.36031331592721
  0
LINE
  8
_0-0_計極細
  6
CONTINUOUS
 62
    2
 10
501.86304078164392
 20
875.86031331592767
 11
501.86304078164392
 21
881.36031331592721
  0
LINE
  8
_0-0_計極細
  6
CONTINUOUS
 62
    2
 10
508.76304078176639
 20
896.8603133159271
 11
508.76304078176639
 21
891.36031331592721
  0
LINE
  8
_0-0_計極細
  6
CONTINUOUS
 62
    2
 10
501.86304078164392
 20
896.8603133159271
 11
501.86304078164392
 21
891.36031331592721
  0
LINE
  8
_0-0_計極細
  6
CONTINUOUS
 62
    2
 10
508.76303846121385
 20
912.36031331592665
 11
508.76304077239217
 21
906.86031331592721
  0
LINE
  8
_0-0_計極細
  6
CONTINUOUS
 62
    2
 10
501.86303849141729
 20
912.36031331592665
 11
501.86304077239214
 21
906.86031331592721
  0
LINE
  8
_0-0_計極細
  6
CONTINUOUS
 62
    2
 10
512.8130404723845
 20
875.86031373593767
 11
512.8130404723845
 21
881.36031351593226
  0
LINE
  8
_0-0_計極細
  6
CONTINUOUS
 62
    2
 10
497.81304107239987
 20
875.86031373593767
 11
497.81304107239987
 21
881.36031351593226
  0
LINE
  8
_0-0_計極細
  6
CONTINUOUS
 62
    2
 10
512.8130404723845
 20
860.36031435595407
 11
512.8130404723845
 21
865.86031413594833
  0
LINE
  8
_0-0_計極細
  6
CONTINUOUS
 62
    2
 10
497.81304107239987
 20
860.36031435595407
 11
497.81304107239987
 21
865.86031413594833
  0
LINE
  8
_0-0_計極細
  6
CONTINUOUS
 62
    2
 10
512.8130404723845
 20
912.36031227590013
 11
512.8130404723845
 21
906.86031249590621
  0
LINE
  8
_0-0_計極細
  6
CONTINUOUS
 62
    2
 10
497.81304107239987
 20
912.36031227590013
 11
497.81304107239987
 21
906.86031249590621
  0
LINE
  8
_0-0_計極細
  6
CONTINUOUS
 62
    2
 10
512.8130404723845
 20
896.86031289591654
 11
512.8130404723845
 21
891.36031311592194
  0
LINE
  8
_0-0_計極細
  6
CONTINUOUS
 62
    2
 10
497.81304107239987
 20
896.86031289591654
 11
497.81304107239987
 21
891.36031311592194
  0
LINE
  8
_0-5_寸法線
  6
CONTINUOUS
 62
    7
 10
505.30918717740417
 20
936.3842485922886
 11
516.90029709287307
 21
939.49007713351875
  0
LINE
  8
_0-5_寸法線
  6
CONTINUOUS
 62
    7
 10
505.30918717740417
 20
936.3842485922886
 11
516.90029709287307
 21
933.27842005105822
  0
LINE
  8
_0-5_寸法線
  6
CONTINUOUS
 62
    7
 10
505.30918717740417
 20
936.3842485922886
 11
559.06455324196418
 21
936.3842485922886
  0
LINE
  8
_0-5_寸法線
  6
CONTINUOUS
 62
    7
 10
559.06455324196418
 20
936.3842485922886
 11
559.06455324196418
 21
936.0006668905728
  0
LINE
  8
_0-5_寸法線
  6
CONTINUOUS
 62
    7
 10
505.30918717740417
 20
815.16111572476007
 11
516.90029709287307
 21
818.26694426599022
  0
LINE
  8
_0-5_寸法線
  6
CONTINUOUS
 62
    7
 10
505.30918717740417
 20
815.16111572476007
 11
516.90029709287307
 21
812.0552871835298
  0
LINE
  8
_0-5_寸法線
  6
CONTINUOUS
 62
    7
 10
505.30918717740417
 20
815.16111572476007
 11
559.06455324196418
 21
815.16111572476007
  0
LINE
  8
_0-5_寸法線
  6
CONTINUOUS
 62
    7
 10
559.06455324196418
 20
815.16111572476007
 11
559.06455324196418
 21
814.77753402304427
  0
LINE
  8
_0-0_計極細
  6
CENTER1
 62
    2
 10
505.31304077239213
 20
950.70333595367345
 11
505.31304077239213
 21
804.98031495019495
  0
LINE
  8
_0-0_計極細
  6
CONTINUOUS
 62
    2
 10
781.76304078176645
 20
860.36031331592812
 11
781.76304078176645
 21
865.86031331592767
  0
LINE
  8
_0-0_計極細
  6
CONTINUOUS
 62
    2
 10
774.86304078164392
 20
860.36031331592812
 11
774.86304078164392
 21
865.86031331592767
  0
LINE
  8
_0-0_計極細
  6
CONTINUOUS
 62
    2
 10
781.76304078176645
 20
875.86031331592767
 11
781.76304078176645
 21
881.36031331592721
  0
LINE
  8
_0-0_計極細
  6
CONTINUOUS
 62
    2
 10
774.86304078164392
 20
875.86031331592767
 11
774.86304078164392
 21
881.36031331592721
  0
LINE
  8
_0-0_計極細
  6
CONTINUOUS
 62
    2
 10
781.76304078176645
 20
896.8603133159271
 11
781.76304078176645
 21
891.36031331592721
  0
LINE
  8
_0-0_計極細
  6
CONTINUOUS
 62
    2
 10
774.86304078164392
 20
896.8603133159271
 11
774.86304078164392
 21
891.36031331592721
  0
LINE
  8
_0-0_計極細
  6
CONTINUOUS
 62
    2
 10
781.76303846121391
 20
912.36031331592665
 11
781.76304077239217
 21
906.86031331592721
  0
LINE
  8
_0-0_計極細
  6
CONTINUOUS
 62
    2
 10
774.86303849141723
 20
912.36031331592665
 11
774.8630407723922
 21
906.86031331592721
  0
LINE
  8
_0-0_計極細
  6
CONTINUOUS
 62
    2
 10
785.8130404723845
 20
875.86031373593767
 11
785.8130404723845
 21
881.36031351593226
  0
LINE
  8
_0-0_計極細
  6
CONTINUOUS
 62
    2
 10
770.81304107239998
 20
875.86031373593767
 11
770.81304107239998
 21
881.36031351593226
  0
LINE
  8
_0-0_計極細
  6
CONTINUOUS
 62
    2
 10
785.8130404723845
 20
860.36031435595407
 11
785.8130404723845
 21
865.86031413594833
  0
LINE
  8
_0-0_計極細
  6
CONTINUOUS
 62
    2
 10
770.81304107239998
 20
860.36031435595407
 11
770.81304107239998
 21
865.86031413594833
  0
LINE
  8
_0-0_計極細
  6
CONTINUOUS
 62
    2
 10
785.8130404723845
 20
912.36031227590013
 11
785.8130404723845
 21
906.86031249590621
  0
LINE
  8
_0-0_計極細
  6
CONTINUOUS
 62
    2
 10
770.81304107239998
 20
912.36031227590013
 11
770.81304107239998
 21
906.86031249590621
  0
LINE
  8
_0-0_計極細
  6
CONTINUOUS
 62
    2
 10
785.8130404723845
 20
896.86031289591654
 11
785.8130404723845
 21
891.36031311592194
  0
LINE
  8
_0-0_計極細
  6
CONTINUOUS
 62
    2
 10
770.81304107239998
 20
896.86031289591654
 11
770.81304107239998
 21
891.36031311592194
  0
LINE
  8
_0-0_計極細
  6
CONTINUOUS
 62
    2
 10
1054.7630407817664
 20
860.36031331592812
 11
1054.7630407817664
 21
865.86031331592767
  0
LINE
  8
_0-0_計極細
  6
CONTINUOUS
 62
    2
 10
1047.863040781644
 20
860.36031331592812
 11
1047.863040781644
 21
865.86031331592767
  0
LINE
  8
_0-0_計極細
  6
CONTINUOUS
 62
    2
 10
1054.7630407817664
 20
875.86031331592767
 11
1054.7630407817664
 21
881.36031331592721
  0
LINE
  8
_0-0_計極細
  6
CONTINUOUS
 62
    2
 10
1047.863040781644
 20
875.86031331592767
 11
1047.863040781644
 21
881.36031331592721
  0
LINE
  8
_0-0_計極細
  6
CONTINUOUS
 62
    2
 10
1054.7630407817664
 20
896.8603133159271
 11
1054.7630407817664
 21
891.36031331592721
  0
LINE
  8
_0-0_計極細
  6
CONTINUOUS
 62
    2
 10
1047.863040781644
 20
896.8603133159271
 11
1047.863040781644
 21
891.36031331592721
  0
LINE
  8
_0-0_計極細
  6
CONTINUOUS
 62
    2
 10
1054.7630384612139
 20
912.36031331592665
 11
1054.7630407723923
 21
906.86031331592721
  0
LINE
  8
_0-0_計極細
  6
CONTINUOUS
 62
    2
 10
1047.8630384914172
 20
912.36031331592665
 11
1047.8630407723922
 21
906.86031331592721
  0
LINE
  8
_0-0_計極細
  6
CONTINUOUS
 62
    2
 10
1058.8130404723845
 20
875.86031373593767
 11
1058.8130404723845
 21
881.36031351593226
  0
LINE
  8
_0-0_計極細
  6
CONTINUOUS
 62
    2
 10
1043.8130410724
 20
875.86031373593767
 11
1043.8130410724
 21
881.36031351593226
  0
LINE
  8
_0-0_計極細
  6
CONTINUOUS
 62
    2
 10
1058.8130404723845
 20
860.36031435595407
 11
1058.8130404723845
 21
865.86031413594833
  0
LINE
  8
_0-0_計極細
  6
CONTINUOUS
 62
    2
 10
1043.8130410724
 20
860.36031435595407
 11
1043.8130410724
 21
865.86031413594833
  0
LINE
  8
_0-0_計極細
  6
CONTINUOUS
 62
    2
 10
1058.8130404723845
 20
912.36031227590013
 11
1058.8130404723845
 21
906.86031249590621
  0
LINE
  8
_0-0_計極細
  6
CONTINUOUS
 62
    2
 10
1043.8130410724
 20
912.36031227590013
 11
1043.8130410724
 21
906.86031249590621
  0
LINE
  8
_0-0_計極細
  6
CONTINUOUS
 62
    2
 10
1058.8130404723845
 20
896.86031289591654
 11
1058.8130404723845
 21
891.36031311592194
  0
LINE
  8
_0-0_計極細
  6
CONTINUOUS
 62
    2
 10
1043.8130410724
 20
896.86031289591654
 11
1043.8130410724
 21
891.36031311592194
  0
LINE
  8
_1-5_寸法2
  6
CONTINUOUS
 62
    7
 10
310.04960835509155
 20
366.01616135385143
 11
310.04960835509155
 21
415.51616177626113
  0
LINE
  8
_1-5_寸法2
  6
CONTINUOUS
 62
    7
 10
310.04960835509155
 20
403.51616177626113
 11
298.45849843962264
 21
400.41033323503086
  0
LINE
  8
_1-5_寸法2
  6
CONTINUOUS
 62
    7
 10
310.04960835509155
 20
403.51616177626113
 11
298.45849843962276
 21
406.62199031749134
  0
LINE
  8
_1-5_寸法2
  6
CONTINUOUS
 62
    7
 10
326.54960835509155
 20
366.01616135385143
 11
326.54960835509155
 21
415.51616177626113
  0
LINE
  8
_1-5_寸法2
  6
CONTINUOUS
 62
    7
 10
281.68503185901773
 20
403.51616177626113
 11
326.54960835509155
 21
403.51616177626113
  0
TEXT
  8
_1-5_寸法2
 62
    7
 10
281.68503185901773
 20
403.51616177626113
 40
18
 41
1
 50
0
  1
5.5
  0
LINE
  8
_1-5_寸法2
  6
CONTINUOUS
 62
    7
 10
326.54960835509155
 20
403.51616177626113
 11
338.1407182705604
 21
406.62199031749128
  0
LINE
  8
_1-5_寸法2
  6
CONTINUOUS
 62
    7
 10
326.54960835509155
 20
403.51616177626113
 11
338.14071827056034
 21
400.41033323503075
  0
LINE
  8
_1-5_寸法2
  6
CONTINUOUS
 62
    7
 10
356.54960835509155
 20
366.01616135385143
 11
356.54960835509155
 21
415.51616177626113
  0
LINE
  8
_1-5_寸法2
  6
CONTINUOUS
 62
    7
 10
356.54960835509155
 20
403.51616177626113
 11
344.95849843962264
 21
400.41033323503086
  0
LINE
  8
_1-5_寸法2
  6
CONTINUOUS
 62
    7
 10
356.54960835509155
 20
403.51616177626113
 11
344.95849843962276
 21
406.62199031749134
  0
LINE
  8
_1-5_寸法2
  6
CONTINUOUS
 62
    7
 10
326.54960835509155
 20
403.51616177626113
 11
356.54960835509155
 21
403.51616177626113
  0
TEXT
  8
_1-5_寸法2
 62
    7
 10
332.54960835509155
 20
403.51616177626113
 40
18
 41
1
 50
0
  1
10
  0
LINE
  8
_1-2_極細2
  6
CONTINUOUS
 62
    2
 10
526.94960866123893
 20
335.41616135385118
 11
529.04960866123884
 21
335.41616135385118
  0
LINE
  8
_1-3_細線2
  6
CONTINUOUS
 62
    4
 10
399.44960835509073
 20
349.21616135385125
 11
376.64960835509237
 21
349.21616135385125
  0
LINE
  8
_1-3_細線2
  6
CONTINUOUS
 62
    4
 10
376.64960835509237
 20
349.21616135385125
 11
376.64960835509237
 21
304.81616135385161
  0
LINE
  8
_1-3_細線2
  6
CONTINUOUS
 62
    4
 10
330.149608355091
 20
349.21616135385125
 11
352.94960835509141
 21
349.21616135385125
  0
LINE
  8
_1-3_細線2
  6
CONTINUOUS
 62
    4
 10
352.94960835509141
 20
349.21616135385125
 11
352.94960835509141
 21
304.81616135385161
  0
ARC
  8
_1-3_細線2
  6
CONTINUOUS
 62
    4
 10
399.44960835509147
 20
349.21616135385148
 40
3.5999999999999996
 50
0
 51
89.999999999999915
  0
LINE
  8
_1-3_細線2
  6
CONTINUOUS
 62
    4
 10
373.04960835509155
 20
349.21616135385148
 11
373.04960835509155
 21
304.81616135385161
  0
LINE
  8
_1-3_細線2
  6
CONTINUOUS
 62
    4
 10
399.44960835509147
 20
352.81616135385161
 11
376.64960835509157
 21
352.81616135385161
  0
ARC
  8
_1-3_細線2
  6
CONTINUOUS
 62
    4
 10
376.64960835509157
 20
349.21616135385148
 40
3.5999999999999996
 50
89.999999999999915
 51
179.99999999999983
  0
LINE
  8
_1-3_細線2
  6
CONTINUOUS
 62
    4
 10
356.54960835509155
 20
349.21616135385148
 11
356.54960835509155
 21
304.81616135385161
  0
ARC
  8
_1-3_細線2
  6
CONTINUOUS
 62
    4
 10
352.94960835509141
 20
349.21616135385148
 40
3.5999999999999996
 50
0
 51
89.999999999999915
  0
LINE
  8
_1-3_細線2
  6
CONTINUOUS
 62
    4
 10
330.14960835509072
 20
352.81616135385161
 11
352.94960835509141
 21
352.81616135385161
  0
ARC
  8
_1-3_細線2
  6
CONTINUOUS
 62
    4
 10
330.14960835509072
 20
349.21616135385148
 40
3.5999999999999996
 50
89.999999999999915
 51
179.99999999999983
  0
LINE
  8
_1-3_細線2
  6
CONTINUOUS
 62
    4
 10
352.94960835509141
 20
304.81616135385161
 11
356.54960835509155
 21
304.81616135385161
  0
LINE
  8
_1-3_細線2
  6
CONTINUOUS
 62
    4
 10
373.04960835509155
 20
304.81616135385161
 11
376.64960835509237
 21
304.81616135385161
  0
LINE
  8
_1-3_細線2
  6
CONTINUOUS
 62
    4
 10
403.04960835509155
 20
334.81616093144203
 11
399.44960835509073
 21
334.8161609314418
  0
LINE
  8
_1-3_細線2
  6
CONTINUOUS
 62
    4
 10
326.54960835509087
 20
334.81616093144203
 11
330.14960835509169
 21
334.8161609314418
  0
LINE
  8
_1-3_細線2
  6
CONTINUOUS
 62
    4
 10
399.44960835509073
 20
349.21616135385125
 11
399.44960835509073
 21
334.81616093144203
  0
LINE
  8
_1-3_細線2
  6
CONTINUOUS
 62
    4
 10
330.149608355091
 20
349.21616135385125
 11
330.14960835509169
 21
334.81616093144203
  0
LINE
  8
_1-3_細線2
  6
CONTINUOUS
 62
    4
 10
403.04960835509155
 20
349.21616135385148
 11
403.04960835509155
 21
334.81616093144203
  0
LINE
  8
_1-3_細線2
  6
CONTINUOUS
 62
    4
 10
326.54960835509087
 20
349.21616135385148
 11
326.54960835509087
 21
334.81616093144203
  0
LINE
  8
_1-3_細線2
  6
CONTINUOUS
 62
    4
 10
310.04960835509331
 20
309.46616093144212
 11
352.94960835509278
 21
309.46616093144212
  0
LINE
  8
_1-3_細線2
  6
CONTINUOUS
 62
    4
 10
310.04960835509331
 20
330.16616093144216
 11
352.94960835509278
 21
330.16616093144216
  0
LINE
  8
_1-3_細線2
  6
CONTINUOUS
 62
    4
 10
356.54960835509263
 20
330.16616093144216
 11
373.04960835509155
 21
330.16616093144216
  0
LINE
  8
_1-3_細線2
  6
CONTINUOUS
 62
    4
 10
356.54960835509263
 20
309.46616093144212
 11
373.04960835509155
 21
309.46616093144212
  0
LINE
  8
_1-3_細線2
  6
CONTINUOUS
 62
    4
 10
419.54960866123946
 20
309.46616093144212
 11
376.64960866124022
 21
309.46616093144212
  0
LINE
  8
_1-3_細線2
  6
CONTINUOUS
 62
    4
 10
419.54960866123946
 20
330.16616093144216
 11
376.64960866124022
 21
330.16616093144216
  0
LINE
  8
_1-3_細線2
  6
CONTINUOUS
 62
    4
 10
469.64960866123943
 20
327.57116135385149
 11
469.64960866123943
 21
315.66116135385141
  0
LINE
  8
_1-3_細線2
  6
CONTINUOUS
 62
    4
 10
469.64960866123943
 20
349.21616135385125
 11
469.64960866123943
 21
304.81616135385161
  0
LINE
  8
_1-3_細線2
  6
CONTINUOUS
 62
    4
 10
445.94960866123796
 20
349.21616135385125
 11
423.14960866123823
 21
349.21616135385125
  0
LINE
  8
_1-3_細線2
  6
CONTINUOUS
 62
    4
 10
492.44960866123864
 20
349.21616135385125
 11
469.64960866123943
 21
349.21616135385125
  0
LINE
  8
_1-3_細線2
  6
CONTINUOUS
 62
    4
 10
423.14960866123823
 20
349.21616135385125
 11
423.14960866123823
 21
304.81616135385161
  0
ARC
  8
_1-3_細線2
  6
CONTINUOUS
 62
    4
 10
492.44960866123961
 20
349.21616135385148
 40
3.5999999999999996
 50
0
 51
89.999999999999915
  0
LINE
  8
_1-3_細線2
  6
CONTINUOUS
 62
    4
 10
466.04960866123861
 20
349.21616135385148
 11
466.04960866123861
 21
304.81616135385161
  0
LINE
  8
_1-3_細線2
  6
CONTINUOUS
 62
    4
 10
492.44960866123961
 20
352.81616135385161
 11
469.64960866123852
 21
352.81616135385161
  0
ARC
  8
_1-3_細線2
  6
CONTINUOUS
 62
    4
 10
469.64960866123852
 20
349.21616135385148
 40
3.5999999999999996
 50
89.999999999999915
 51
179.99999999999983
  0
ARC
  8
_1-3_細線2
  6
CONTINUOUS
 62
    4
 10
445.94960866123893
 20
349.21616135385148
 40
3.5999999999999996
 50
0
 51
89.999999999999915
  0
LINE
  8
_1-3_細線2
  6
CONTINUOUS
 62
    4
 10
419.54960866123946
 20
349.21616135385148
 11
419.54960866123946
 21
304.81616135385161
  0
LINE
  8
_1-3_細線2
  6
CONTINUOUS
 62
    4
 10
445.94960866123893
 20
352.81616135385161
 11
423.1496086612396
 21
352.81616135385161
  0
ARC
  8
_1-3_細線2
  6
CONTINUOUS
 62
    4
 10
423.1496086612396
 20
349.21616135385148
 40
3.5999999999999996
 50
89.999999999999915
 51
179.99999999999983
  0
LINE
  8
_1-3_細線2
  6
CONTINUOUS
 62
    4
 10
419.54960866123946
 20
304.81616135385161
 11
423.14960866123823
 21
304.81616135385161
  0
LINE
  8
_1-3_細線2
  6
CONTINUOUS
 62
    4
 10
466.04960866123861
 20
304.81616135385161
 11
469.64960866123943
 21
304.81616135385161
  0
LINE
  8
_1-3_細線2
  6
CONTINUOUS
 62
    4
 10
496.04960866123946
 20
334.81616093144203
 11
492.44960866123864
 21
334.81616093144203
  0
LINE
  8
_1-3_細線2
  6
CONTINUOUS
 62
    4
 10
449.54960866123878
 20
334.81616093144203
 11
445.94960866123796
 21
334.81616093144203
  0
LINE
  8
_1-3_細線2
  6
CONTINUOUS
 62
    4
 10
445.94960866123796
 20
349.21616135385125
 11
445.94960866123796
 21
334.81616093144203
  0
LINE
  8
_1-3_細線2
  6
CONTINUOUS
 62
    4
 10
492.44960866123864
 20
349.21616135385125
 11
492.44960866123864
 21
334.81616093144203
  0
LINE
  8
_1-3_細線2
  6
CONTINUOUS
 62
    4
 10
496.04960866123946
 20
349.21616135385148
 11
496.04960866123946
 21
334.81616093144203
  0
LINE
  8
_1-3_細線2
  6
CONTINUOUS
 62
    4
 10
449.54960866123878
 20
349.21616135385148
 11
449.54960866123878
 21
334.81616093144203
  0
LINE
  8
_1-3_細線2
  6
CONTINUOUS
 62
    4
 10
466.04960896738817
 20
309.46616093144212
 11
423.14960896738899
 21
309.46616093144212
  0
LINE
  8
_1-3_細線2
  6
CONTINUOUS
 62
    4
 10
466.04960896738817
 20
330.16616093144216
 11
423.14960896738899
 21
330.16616093144216
  0
LINE
  8
_1-3_細線2
  6
CONTINUOUS
 62
    4
 10
306.44960835509454
 20
349.21616135385125
 11
306.44960835509454
 21
304.81616135385161
  0
LINE
  8
_1-3_細線2
  6
CONTINUOUS
 62
    4
 10
283.64960835509481
 20
349.21616135385125
 11
306.44960835509454
 21
349.21616135385125
  0
LINE
  8
_1-3_細線2
  6
CONTINUOUS
 62
    4
 10
310.04960835509331
 20
349.21616135385148
 11
310.04960835509331
 21
304.81616135385161
  0
ARC
  8
_1-3_細線2
  6
CONTINUOUS
 62
    4
 10
306.44960835509346
 20
349.21616135385148
 40
3.5999999999999996
 50
0
 51
89.999999999999915
  0
LINE
  8
_1-3_細線2
  6
CONTINUOUS
 62
    4
 10
283.64960835509396
 20
352.81616135385161
 11
306.44960835509346
 21
352.81616135385161
  0
ARC
  8
_1-3_細線2
  6
CONTINUOUS
 62
    4
 10
283.64960835509396
 20
349.21616135385148
 40
3.5999999999999996
 50
89.999999999999915
 51
179.99999999999983
  0
LINE
  8
_1-3_細線2
  6
CONTINUOUS
 62
    4
 10
306.44960835509454
 20
304.81616135385161
 11
310.04960835509331
 21
304.81616135385161
  0
LINE
  8
_1-3_細線2
  6
CONTINUOUS
 62
    4
 10
280.04960835509399
 20
334.81616093144203
 11
283.64960835509481
 21
334.8161609314418
  0
LINE
  8
_1-3_細線2
  6
CONTINUOUS
 62
    4
 10
283.64960835509481
 20
349.21616135385125
 11
283.64960835509481
 21
334.81616093144203
  0
LINE
  8
_1-3_細線2
  6
CONTINUOUS
 62
    4
 10
280.04960835509399
 20
349.21616135385148
 11
280.04960835509399
 21
334.81616093144203
  0
LINE
  8
_1-2_極細2
  6
CONTINUOUS
 62
    2
 10
458.54960835509178
 20
306.31616135385161
 11
458.54960835509155
 21
304.81616135385138
  0
LINE
  8
_1-2_極細2
  6
CONTINUOUS
 62
    2
 10
458.54960835509155
 20
303.01616135385154
 11
458.54960835509155
 21
301.51616135385154
  0
LINE
  8
_1-2_極細2
  6
CONTINUOUS
 62
    2
 10
454.79960835509178
 20
304.81616135385161
 11
454.79960835509178
 21
303.01616135385154
  0
LINE
  8
_1-2_極細2
  6
CONTINUOUS
 62
    2
 10
456.29960835509178
 20
304.81616135385161
 11
456.29960835509178
 21
303.01616135385154
  0
LINE
  8
_1-2_極細2
  6
CONTINUOUS
 62
    2
 10
454.79960835509178
 20
303.60000000000002
 11
456.29960835509178
 21
303.60000000000002
  0
LINE
  8
_1-2_極細2
  6
CONTINUOUS
 62
    2
 10
454.79960835509178
 20
304.2000000000001
 11
456.29960835509178
 21
304.2000000000001
  0
LINE
  8
_1-2_極細2
  6
CONTINUOUS
 62
    2
 10
454.79960835509178
 20
304.80000000000013
 11
456.29960835509178
 21
304.80000000000013
  0
LINE
  8
_1-2_極細2
  6
CONTINUOUS
 62
    2
 10
437.54960835509178
 20
306.31616135385161
 11
437.54960835509223
 21
304.81616135385161
  0
LINE
  8
_1-2_極細2
  6
CONTINUOUS
 62
    2
 10
437.54960835509223
 20
303.01616135385154
 11
437.54960835509155
 21
301.51616135385154
  0
LINE
  8
_1-2_極細2
  6
CONTINUOUS
 62
    2
 10
439.79960835509178
 20
304.81616135385161
 11
439.79960835509178
 21
303.01616135385154
  0
LINE
  8
_1-2_極細2
  6
CONTINUOUS
 62
    2
 10
441.29960835509178
 20
304.81616135385161
 11
441.29960835509178
 21
303.01616135385154
  0
LINE
  8
_1-2_極細2
  6
CONTINUOUS
 62
    2
 10
439.79960835509178
 20
303.60000000000002
 11
441.29960835509178
 21
303.60000000000002
  0
LINE
  8
_1-2_極細2
  6
CONTINUOUS
 62
    2
 10
439.79960835509178
 20
304.2000000000001
 11
441.29960835509178
 21
304.2000000000001
  0
LINE
  8
_1-2_極細2
  6
CONTINUOUS
 62
    2
 10
439.79960835509178
 20
304.80000000000013
 11
441.29960835509178
 21
304.80000000000013
  0
LINE
  8
_1-2_極細2
  6
CONTINUOUS
 62
    2
 10
437.54960835509223
 20
306.31616135385161
 11
458.54960835509155
 21
306.31616135385161
  0
LINE
  8
_1-2_極細2
  6
CONTINUOUS
 62
    2
 10
437.54960835509223
 20
305.40000000000009
 11
458.54960835509161
 21
305.40000000000009
  0
LINE
  8
_1-2_極細2
  6
CONTINUOUS
 62
    2
 10
437.54960835509223
 20
306.00000000000011
 11
458.54960835509161
 21
306.00000000000011
  0
LINE
  8
_1-2_極細2
  6
CONTINUOUS
 62
    2
 10
437.54960835509178
 20
301.80000000000007
 11
458.54960835509155
 21
301.80000000000007
  0
LINE
  8
_1-2_極細2
  6
CONTINUOUS
 62
    2
 10
437.54960835509178
 20
302.40000000000009
 11
458.54960835509155
 21
302.40000000000009
  0
LINE
  8
_1-2_極細2
  6
CONTINUOUS
 62
    2
 10
437.54960835509178
 20
303.00000000000011
 11
458.54960835509155
 21
303.00000000000011
  0
LINE
  8
_1-2_極細2
  6
CONTINUOUS
 62
    2
 10
437.54960835509178
 20
301.51616135385154
 11
458.54960835509155
 21
301.51616135385154
  0
LINE
  8
_1-2_極細2
  6
CONTINUOUS
 62
    2
 10
334.79960835509223
 20
304.81616135385161
 11
334.79960835509223
 21
303.01616135385154
  0
LINE
  8
_1-2_極細2
  6
CONTINUOUS
 62
    2
 10
336.29960835509223
 20
304.81616135385161
 11
336.29960835509223
 21
303.01616135385154
  0
LINE
  8
_1-2_極細2
  6
CONTINUOUS
 62
    2
 10
334.79960835509229
 20
303.60000000000002
 11
336.29960835509195
 21
303.60000000000002
  0
LINE
  8
_1-2_極細2
  6
CONTINUOUS
 62
    2
 10
334.79960835509229
 20
304.2000000000001
 11
336.29960835509195
 21
304.2000000000001
  0
LINE
  8
_1-2_極細2
  6
CONTINUOUS
 62
    2
 10
334.79960835509229
 20
304.80000000000013
 11
336.29960835509195
 21
304.80000000000013
  0
LINE
  8
_1-2_極細2
  6
CONTINUOUS
 62
    2
 10
338.54960835509178
 20
303.01616135385154
 11
338.54960835509178
 21
301.51616135385154
  0
LINE
  8
_1-2_極細2
  6
CONTINUOUS
 62
    2
 10
338.54960835509223
 20
306.31616135385161
 11
338.54960835509178
 21
304.81616135385138
  0
LINE
  8
_1-2_極細2
  6
CONTINUOUS
 62
    2
 10
317.54960835509246
 20
303.01616135385154
 11
317.54960835509178
 21
301.51616135385154
  0
LINE
  8
_1-2_極細2
  6
CONTINUOUS
 62
    2
 10
317.54960835509223
 20
306.31616135385161
 11
317.54960835509246
 21
304.81616135385161
  0
LINE
  8
_1-2_極細2
  6
CONTINUOUS
 62
    2
 10
319.79960835509223
 20
304.81616135385161
 11
319.79960835509223
 21
303.01616135385154
  0
LINE
  8
_1-2_極細2
  6
CONTINUOUS
 62
    2
 10
321.29960835509223
 20
304.81616135385161
 11
321.29960835509223
 21
303.01616135385154
  0
LINE
  8
_1-2_極細2
  6
CONTINUOUS
 62
    2
 10
319.79960835509212
 20
303.60000000000002
 11
321.29960835509246
 21
303.60000000000002
  0
LINE
  8
_1-2_極細2
  6
CONTINUOUS
 62
    2
 10
319.79960835509212
 20
304.2000000000001
 11
321.29960835509246
 21
304.2000000000001
  0
LINE
  8
_1-2_極細2
  6
CONTINUOUS
 62
    2
 10
319.79960835509212
 20
304.80000000000013
 11
321.29960835509246
 21
304.80000000000013
  0
LINE
  8
_1-2_極細2
  6
CONTINUOUS
 62
    2
 10
317.54960835509223
 20
301.51616135385154
 11
338.54960835509178
 21
301.51616135385154
  0
LINE
  8
_1-2_極細2
  6
CONTINUOUS
 62
    2
 10
317.54960835509223
 20
301.80000000000007
 11
338.54960835509178
 21
301.80000000000007
  0
LINE
  8
_1-2_極細2
  6
CONTINUOUS
 62
    2
 10
317.54960835509223
 20
302.40000000000009
 11
338.54960835509178
 21
302.40000000000009
  0
LINE
  8
_1-2_極細2
  6
CONTINUOUS
 62
    2
 10
317.54960835509223
 20
303.00000000000011
 11
338.54960835509178
 21
303.00000000000011
  0
LINE
  8
_1-2_極細2
  6
CONTINUOUS
 62
    2
 10
317.54960835509246
 20
305.40000000000009
 11
338.54960835509195
 21
305.40000000000009
  0
LINE
  8
_1-2_極細2
  6
CONTINUOUS
 62
    2
 10
317.54960835509246
 20
306.00000000000011
 11
338.54960835509195
 21
306.00000000000011
  0
LINE
  8
_1-2_極細2
  6
CONTINUOUS
 62
    2
 10
317.54960835509246
 20
306.31616135385161
 11
338.54960835509178
 21
306.31616135385161
  0
LINE
  8
_1-2_極細2
  6
CONTINUOUS
 62
    2
 10
471.44960835509181
 20
345.91616135385141
 11
469.64960835509191
 21
345.91616135385141
  0
LINE
  8
_1-2_極細2
  6
CONTINUOUS
 62
    2
 10
471.44960835509181
 20
345.91616135385141
 11
471.44960835509181
 21
303.01616135385154
  0
LINE
  8
_1-2_極細2
  6
CONTINUOUS
 62
    2
 10
304.64960835509169
 20
345.91616135385141
 11
306.44960835509164
 21
345.91616135385141
  0
LINE
  8
_1-2_極細2
  6
CONTINUOUS
 62
    2
 10
306.44960835509164
 20
304.81616135385161
 11
469.64960835509191
 21
304.81616135385161
  0
LINE
  8
_1-2_極細2
  6
CONTINUOUS
 62
    2
 10
304.64960835509169
 20
345.91616135385141
 11
304.64960835509169
 21
303.01616135385154
  0
LINE
  8
_1-2_極細2
  6
CONTINUOUS
 62
    2
 10
304.64960835509169
 20
303.01616135385154
 11
471.44960835509181
 21
303.01616135385154
  0
LINE
  8
_1-2_極細2
  6
CONTINUOUS
 62
    2
 10
474.43985235509359
 20
319.81616093144203
 11
483.45340035509383
 21
319.81616093144203
  0
LINE
  8
_1-3_細線2
  6
CONTINUOUS
 62
    4
 10
474.43985235509359
 20
309.31616093144339
 11
483.45343635509204
 21
309.31616093144339
  0
ARC
  8
_1-3_細線2
  6
CONTINUOUS
 62
    4
 10
483.45343635509204
 20
309.91616093144285
 40
0.6000000000000002
 50
269.99999999999977
 51
359.99999999999966
  0
ARC
  8
_1-2_極細2
  6
CONTINUOUS
 62
    2
 10
460.77949635509327
 20
314.56572293144382
 40
23.273868
 50
346.96432999999968
 51
13.038021999994573
  0
ARC
  8
_1-3_細線2
  6
CONTINUOUS
 62
    4
 10
483.45343635509204
 20
329.71616093144371
 40
0.6000000000000002
 50
0
 51
89.999999999999915
  0
ARC
  8
_1-2_極細2
  6
CONTINUOUS
 62
    2
 10
460.77949635509327
 20
325.0665929314423
 40
23.273868
 50
346.9619780000009
 51
13.035669999999625
  0
LINE
  8
_1-3_細線2
  6
CONTINUOUS
 62
    4
 10
474.43985235509359
 20
330.31616093144316
 11
483.45343635509204
 21
330.31616093144316
  0
LINE
  8
_1-3_細線2
  6
CONTINUOUS
 62
    4
 10
484.0534363550932
 20
309.91616093144285
 11
484.0534363550932
 21
329.71616093144371
  0
ARC
  8
_1-3_細線2
  6
CONTINUOUS
 62
    4
 10
473.83985235509243
 20
305.41616093144285
 40
0.6000000000000002
 50
269.99999999999977
 51
359.99999999999966
  0
LINE
  8
_1-3_細線2
  6
CONTINUOUS
 62
    4
 10
471.44960835509181
 20
304.81616093144271
 11
473.83985235509243
 21
304.81616093144271
  0
ARC
  8
_1-3_細線2
  6
CONTINUOUS
 62
    4
 10
473.83985235509243
 20
334.21616093144212
 40
0.6000000000000002
 50
0
 51
89.999999999999915
  0
LINE
  8
_1-3_細線2
  6
CONTINUOUS
 62
    4
 10
471.44960835509181
 20
334.81616093144316
 11
473.83985235509243
 21
334.81616093144316
  0
LINE
  8
_1-3_細線2
  6
CONTINUOUS
 62
    4
 10
474.43985235509359
 20
334.21616093144212
 11
474.43985235509359
 21
305.41616093144285
  0
ARC
  8
_1-3_細線2
  6
CONTINUOUS
 62
    4
 10
302.25936435509107
 20
305.41616050903326
 40
0.6000000000000002
 50
179.99999999999983
 51
269.99999999999977
  0
LINE
  8
_1-3_細線2
  6
CONTINUOUS
 62
    4
 10
304.64960835509169
 20
304.81616050903312
 11
302.25936435509107
 21
304.81616050903312
  0
ARC
  8
_1-3_細線2
  6
CONTINUOUS
 62
    4
 10
302.25936435509107
 20
334.21616050903253
 40
0.6000000000000002
 50
89.999999999999915
 51
179.99999999999983
  0
LINE
  8
_1-3_細線2
  6
CONTINUOUS
 62
    4
 10
304.64960835509169
 20
334.81616050903358
 11
302.25936435509107
 21
334.81616050903358
  0
LINE
  8
_1-3_細線2
  6
CONTINUOUS
 62
    4
 10
301.65936435508996
 20
318.31616050903312
 11
301.65936435508996
 21
305.41616050903326
  0
LINE
  8
_1-3_細線2
  6
CONTINUOUS
 62
    4
 10
301.65936435508996
 20
334.21616050903253
 11
301.65936435508996
 21
318.31616050903312
  0
LINE
  8
_1-2_極細2
  6
CONTINUOUS
 62
    2
 10
301.65936435508996
 20
319.81616050903244
 11
292.64581635508972
 21
319.81616050903244
  0
LINE
  8
_1-3_細線2
  6
CONTINUOUS
 62
    4
 10
301.65936435508996
 20
309.31616050903381
 11
292.64578035509152
 21
309.31616050903381
  0
ARC
  8
_1-3_細線2
  6
CONTINUOUS
 62
    4
 10
292.64578035509152
 20
309.91616050903326
 40
0.6000000000000002
 50
179.99999999999983
 51
269.99999999999977
  0
ARC
  8
_1-2_極細2
  6
CONTINUOUS
 62
    2
 10
315.31972035509028
 20
314.56572250903423
 40
23.273868
 50
166.96197800000505
 51
193.03566999999961
  0
ARC
  8
_1-3_細線2
  6
CONTINUOUS
 62
    4
 10
292.64578035509152
 20
329.71616050903413
 40
0.6000000000000002
 50
89.999999999999915
 51
179.99999999999983
  0
ARC
  8
_1-2_極細2
  6
CONTINUOUS
 62
    2
 10
315.31972035509028
 20
325.06659250903272
 40
23.273868
 50
166.96433000000002
 51
193.03802199999842
  0
LINE
  8
_1-3_細線2
  6
CONTINUOUS
 62
    4
 10
301.65936435508996
 20
330.31616050903358
 11
292.64578035509152
 21
330.31616050903358
  0
LINE
  8
_1-3_細線2
  6
CONTINUOUS
 62
    4
 10
292.04578035509036
 20
309.91616050903326
 11
292.04578035509036
 21
329.71616050903413
  0
LINE
  8
_1-2_極細2
  6
CENTER1
 62
    2
 10
287.96035211536508
 20
319.81616093144203
 11
489.10823381000739
 21
319.81616093144203
  0
LINE
  8
_1-2_極細2
  6
CENTER1
 62
    2
 10
388.04960835509155
 20
377.764504988814
 11
388.04960835509155
 21
278.05227477298649
  0
ARC
  8
_1-2_極細2
  6
CONTINUOUS
 62
    2
 10
274.04960896105757
 20
301.51616135385154
 40
9.0000000000000036
 50
179.99999999999983
 51
269.99999999999977
  0
LINE
  8
_1-2_極細2
  6
CONTINUOUS
 62
    2
 10
265.04960896105757
 20
301.51616135385154
 11
265.04960896105757
 21
360.01616135385154
  0
LINE
  8
_1-2_極細2
  6
CONTINUOUS
 62
    2
 10
274.04960896105757
 20
292.51616135385154
 11
353.54960896105757
 21
292.51616135385154
  0
LINE
  8
_1-2_極細2
  6
CONTINUOUS
 62
    2
 10
355.04960896105757
 20
294.01616135385154
 11
353.54960896105757
 21
292.51616135385154
  0
LINE
  8
_1-2_極細2
  6
CONTINUOUS
 62
    2
 10
355.04960896105757
 20
300.01616135385154
 11
355.04960896105757
 21
294.01616135385154
  0
LINE
  8
_1-2_極細2
  6
CONTINUOUS
 62
    2
 10
353.54960896105757
 20
301.51616135385154
 11
355.04960896105757
 21
300.01616135385154
  0
LINE
  8
_1-2_極細2
  6
CONTINUOUS
 62
    2
 10
274.04960896105757
 20
301.51616135385154
 11
353.54960896105757
 21
301.51616135385154
  0
LINE
  8
_1-2_極細2
  6
CONTINUOUS
 62
    2
 10
266.5496089610574
 20
361.51616135385154
 11
265.04960896105757
 21
360.01616135385154
  0
LINE
  8
_1-2_極細2
  6
CONTINUOUS
 62
    2
 10
272.5496089610574
 20
361.51616135385154
 11
266.5496089610574
 21
361.51616135385154
  0
LINE
  8
_1-2_極細2
  6
CONTINUOUS
 62
    2
 10
274.04960896105757
 20
360.01616135385154
 11
272.5496089610574
 21
361.51616135385154
  0
LINE
  8
_1-2_極細2
  6
CONTINUOUS
 62
    2
 10
274.04960896105757
 20
301.51616135385154
 11
274.04960896105757
 21
360.01616135385154
  0
ARC
  8
_1-2_極細2
  6
CONTINUOUS
 62
    2
 10
502.04960804260327
 20
301.51616135385154
 40
9.0000000000000036
 50
269.99999999999977
 51
359.99999999999966
  0
LINE
  8
_1-2_極細2
  6
CONTINUOUS
 62
    2
 10
511.04960804260327
 20
301.51616135385154
 11
511.04960804260327
 21
360.01616135385154
  0
LINE
  8
_1-2_極細2
  6
CONTINUOUS
 62
    2
 10
502.04960804260327
 20
292.51616135385154
 11
422.54960804260304
 21
292.51616135385154
  0
LINE
  8
_1-2_極細2
  6
CONTINUOUS
 62
    2
 10
421.04960804260304
 20
294.01616135385154
 11
422.54960804260304
 21
292.51616135385154
  0
LINE
  8
_1-2_極細2
  6
CONTINUOUS
 62
    2
 10
421.04960804260304
 20
300.01616135385154
 11
421.04960804260304
 21
294.01616135385154
  0
LINE
  8
_1-2_極細2
  6
CONTINUOUS
 62
    2
 10
422.54960804260304
 20
301.51616135385154
 11
421.04960804260304
 21
300.01616135385154
  0
LINE
  8
_1-2_極細2
  6
CONTINUOUS
 62
    2
 10
502.04960804260327
 20
301.51616135385154
 11
422.54960804260304
 21
301.51616135385154
  0
LINE
  8
_1-2_極細2
  6
CONTINUOUS
 62
    2
 10
509.54960804260327
 20
361.51616135385154
 11
511.04960804260327
 21
360.01616135385154
  0
LINE
  8
_1-2_極細2
  6
CONTINUOUS
 62
    2
 10
503.54960804260327
 20
361.51616135385154
 11
509.54960804260327
 21
361.51616135385154
  0
LINE
  8
_1-2_極細2
  6
CONTINUOUS
 62
    2
 10
502.04960804260327
 20
360.01616135385154
 11
503.54960804260327
 21
361.51616135385154
  0
LINE
  8
_1-2_極細2
  6
CONTINUOUS
 62
    2
 10
502.04960804260327
 20
301.51616135385154
 11
502.04960804260327
 21
360.01616135385154
  0
CIRCLE
  8
_1-2_極細2
  6
CONTINUOUS
 62
    2
 10
433.02337241020314
 20
268.47007788161898
 40
3.2859566508265057
  0
CIRCLE
  8
_1-2_極細2
  6
CONTINUOUS
 62
    2
 10
456.58003907687083
 20
263.45396677050672
 40
0.9955555555555292
  0
LINE
  8
_1-2_極細2
  6
CONTINUOUS
 62
    2
 10
218.11603934398849
 20
340.51616135385149
 11
239.11603881318297
 21
361.51616082304588
  0
LINE
  8
_1-2_極細2
  6
CONTINUOUS
 62
    2
 10
200.33955210114161
 20
360.92344029507797
 11
200.93227292781714
 21
361.51616112175338
  0
LINE
  8
_1-2_極細2
  6
DASHED2
 62
    2
 10
237.20792243602517
 20
340.51616135385149
 11
250.04960804260267
 21
353.35784696042884
  0
LINE
  8
_1-2_極細2
  6
DASHED2
 62
    2
 10
200.33955210114161
 20
341.83155720304137
 11
220.02415587049958
 21
361.51616097239958
  0
LINE
  8
_1-2_極細2
  6
CONTINUOUS
 62
    2
 10
265.04960804260304
 20
340.51616135385149
 11
200.33955210114161
 21
340.51616135385149
  0
LINE
  8
_1-2_極細2
  6
CONTINUOUS
 62
    2
 10
250.04960804260267
 20
361.51616135385166
 11
200.33955210114161
 21
361.51616135385166
  0
LINE
  8
_1-2_極細2
  6
CONTINUOUS
 62
    2
 10
572.90252539500125
 20
340.51616135385149
 11
574.83609409361566
 21
342.44973005246567
  0
LINE
  8
_1-2_極細2
  6
CONTINUOUS
 62
    2
 10
534.71875921092783
 20
340.51616135385149
 11
555.71875897883001
 21
361.51616112175338
  0
LINE
  8
_1-2_極細2
  6
DASHED2
 62
    2
 10
553.81064230296465
 20
340.51616135385149
 11
574.8106419215128
 21
361.51616097239958
  0
LINE
  8
_1-2_極細2
  6
DASHED2
 62
    2
 10
526.04960804260281
 20
350.93889327756324
 11
536.62687603614654
 21
361.51616127110674
  0
LINE
  8
_1-2_極細2
  6
CONTINUOUS
 62
    2
 10
511.04960804260327
 20
340.51616135385149
 11
574.83609409361566
 21
340.51616135385149
  0
LINE
  8
_1-2_極細2
  6
CONTINUOUS
 62
    2
 10
526.04960804260327
 20
361.51616135385166
 11
574.83609409361566
 21
361.51616135385166
  0
CIRCLE
  8
_1-2_極細2
  6
CONTINUOUS
 62
    2
 10
297.33917701078116
 20
225.16695567344269
 40
3.2859566508265057
  0
CIRCLE
  8
_1-2_極細2
  6
CONTINUOUS
 62
    2
 10
206.62485069709678
 20
221.1673001029352
 40
0.9955555555555292
  0
CIRCLE
  8
_1-2_極細2
  6
CONTINUOUS
 62
    2
 10
280.13917700978925
 20
243.52650098029028
 40
0.9955555555555292
  0
CIRCLE
  8
_1-2_極細2
  6
CONTINUOUS
 62
    2
 10
217.1391770083363
 20
260.40730010384016
 40
0.9955555555555292
  0
LINE
  8
_1-2_極細2
  6
CONTINUOUS
 62
    2
 10
250.04960804260327
 20
347.12051665915607
 11
256.65396334790756
 21
340.51616135385149
  0
LINE
  8
_1-2_極細2
  6
CONTINUOUS
 62
    2
 10
250.04960804260327
 20
354.75726989597064
 11
264.29071658472208
 21
340.51616135385149
  0
LINE
  8
_1-2_極細2
  6
CONTINUOUS
 62
    2
 10
265.04960804260304
 20
347.39402313278572
 11
250.92746982153662
 21
361.51616135385166
  0
LINE
  8
_1-2_極細2
  6
CONTINUOUS
 62
    2
 10
265.04960804260304
 20
355.03077636960029
 11
258.5642230583519
 21
361.51616135385143
  0
LINE
  8
_1-2_極細2
  6
CONTINUOUS
 62
    2
 10
250.04960804260267
 20
358.79938137674174
 11
252.76638801971285
 21
361.51616135385166
  0
LINE
  8
_1-2_極細2
  6
CONTINUOUS
 62
    2
 10
250.04960804260267
 20
351.16262813992694
 11
260.40314125652719
 21
361.51616135385166
  0
LINE
  8
_1-2_極細2
  6
CONTINUOUS
 62
    2
 10
250.04960804260267
 20
343.52587490311237
 11
265.04960804260304
 21
358.52587490311225
  0
LINE
  8
_1-2_極細2
  6
CONTINUOUS
 62
    2
 10
254.67664773015699
 20
340.51616135385149
 11
265.04960804260304
 21
350.88912166629768
  0
LINE
  8
_1-2_極細2
  6
CONTINUOUS
 62
    2
 10
262.3134009669713
 20
340.51616135385149
 11
265.04960804260304
 21
343.25236842948289
  0
LINE
  8
_1-2_極細2
  6
CONTINUOUS
 62
    2
 10
265.04960804260304
 20
360.0161613538516
 11
265.04960804260304
 21
361.51616135385166
  0
LINE
  8
_1-2_極細2
  6
CONTINUOUS
 62
    2
 10
265.04960804260304
 20
361.51616135385166
 11
250.04960804260267
 21
361.51616135385166
  0
LINE
  8
_1-2_極細2
  6
CONTINUOUS
 62
    2
 10
250.04960804260267
 20
361.51616135385166
 11
250.04960804260267
 21
340.51616135385149
  0
CIRCLE
  8
_1-2_極細2
  6
CONTINUOUS
 62
    2
 10
343.07584367500317
 20
268.47007788161898
 40
3.2859566508265057
  0
CIRCLE
  8
_1-2_極細2
  6
CONTINUOUS
 62
    2
 10
229.05917700833672
 20
336.67396677050567
 40
0.9955555555555292
  0
CIRCLE
  8
_1-2_極細2
  6
CONTINUOUS
 62
    2
 10
329.68806589722431
 20
248.30830814895268
 40
0.9955555555555292
  0
CIRCLE
  8
_1-2_極細2
  6
CONTINUOUS
 62
    2
 10
244.24917700833655
 20
258.07007788161803
 40
3.2859566508265057
  0
CIRCLE
  8
_1-2_極細2
  6
CONTINUOUS
 62
    2
 10
248.97917700833659
 20
304.66007788161738
 40
3.2859566508265057
  0
CIRCLE
  8
_1-2_極細2
  6
CONTINUOUS
 62
    2
 10
239.13917700833642
 20
265.6339667705065
 40
0.9955555555555292
  0
CIRCLE
  8
_1-2_極細2
  6
CONTINUOUS
 62
    2
 10
218.25917700833665
 20
290.83396677050627
 40
0.9955555555555292
  0
CIRCLE
  8
_1-2_極細2
  6
CONTINUOUS
 62
    2
 10
255.21917700833637
 20
292.11396677050624
 40
0.9955555555555292
  0
CIRCLE
  8
_1-2_極細2
  6
CONTINUOUS
 62
    2
 10
250.73917700833636
 20
327.63396677050588
 40
0.9955555555555292
  0
CIRCLE
  8
_1-2_極細2
  6
CONTINUOUS
 62
    2
 10
308.95917700833525
 20
227.13396677050702
 40
0.9955555555555292
  0
CIRCLE
  8
_1-2_極細2
  6
CONTINUOUS
 62
    2
 10
301.59917700833591
 20
272.0939667705066
 40
0.9955555555555292
  0
CIRCLE
  8
_1-2_極細2
  6
CONTINUOUS
 62
    2
 10
319.51917700833536
 20
263.45396677050672
 40
0.9955555555555292
  0
CIRCLE
  8
_1-2_極細2
  6
CONTINUOUS
 62
    2
 10
478.76003907442464
 20
225.16695567344269
 40
3.2859566508265057
  0
CIRCLE
  8
_1-2_極細2
  6
CONTINUOUS
 62
    2
 10
569.47436538810916
 20
221.1673001029352
 40
0.9955555555555292
  0
CIRCLE
  8
_1-2_極細2
  6
CONTINUOUS
 62
    2
 10
495.96003907541672
 20
243.52650098029028
 40
0.9955555555555292
  0
CIRCLE
  8
_1-2_極細2
  6
CONTINUOUS
 62
    2
 10
558.96003907686963
 20
260.40730010384016
 40
0.9955555555555292
  0
LINE
  8
_1-2_極細2
  6
CONTINUOUS
 62
    2
 10
526.04960804260281
 20
347.12051665915607
 11
519.44525273729801
 21
340.51616135385149
  0
LINE
  8
_1-2_極細2
  6
CONTINUOUS
 62
    2
 10
526.04960804260281
 20
354.75726989597064
 11
511.80849950048423
 21
340.51616135385149
  0
LINE
  8
_1-2_極細2
  6
CONTINUOUS
 62
    2
 10
511.04960804260327
 20
347.39402313278572
 11
525.17174626366932
 21
361.51616135385166
  0
LINE
  8
_1-2_極細2
  6
CONTINUOUS
 62
    2
 10
511.04960804260327
 20
355.03077636960029
 11
517.53499302685441
 21
361.51616135385143
  0
LINE
  8
_1-2_極細2
  6
CONTINUOUS
 62
    2
 10
526.04960804260327
 20
358.79938137674174
 11
523.33282806549323
 21
361.51616135385166
  0
LINE
  8
_1-2_極細2
  6
CONTINUOUS
 62
    2
 10
526.04960804260327
 20
351.16262813992694
 11
515.69607482867877
 21
361.51616135385166
  0
LINE
  8
_1-2_極細2
  6
CONTINUOUS
 62
    2
 10
526.04960804260327
 20
343.52587490311237
 11
511.04960804260327
 21
358.52587490311225
  0
LINE
  8
_1-2_極細2
  6
CONTINUOUS
 62
    2
 10
521.42256835504895
 20
340.51616135385149
 11
511.04960804260327
 21
350.88912166629768
  0
LINE
  8
_1-2_極細2
  6
CONTINUOUS
 62
    2
 10
513.7858151182345
 20
340.51616135385149
 11
511.04960804260327
 21
343.25236842948289
  0
LINE
  8
_1-2_極細2
  6
CONTINUOUS
 62
    2
 10
511.04960804260327
 20
360.0161613538516
 11
511.04960804260327
 21
361.51616135385166
  0
LINE
  8
_1-2_極細2
  6
CONTINUOUS
 62
    2
 10
511.04960804260327
 20
361.51616135385166
 11
526.04960804260327
 21
361.51616135385166
  0
LINE
  8
_1-2_極細2
  6
CONTINUOUS
 62
    2
 10
526.04960804260327
 20
361.51616135385166
 11
526.04960804260327
 21
340.51616135385149
  0
CIRCLE
  8
_1-2_極細2
  6
CONTINUOUS
 62
    2
 10
547.04003907686956
 20
336.67396677050567
 40
0.9955555555555292
  0
CIRCLE
  8
_1-2_極細2
  6
CONTINUOUS
 62
    2
 10
446.41115018798178
 20
248.30830814895268
 40
0.9955555555555292
  0
CIRCLE
  8
_1-2_極細2
  6
CONTINUOUS
 62
    2
 10
531.85003907686905
 20
258.07007788161803
 40
3.2859566508265057
  0
CIRCLE
  8
_1-2_極細2
  6
CONTINUOUS
 62
    2
 10
527.12003907686926
 20
304.66007788161738
 40
3.2859566508265057
  0
CIRCLE
  8
_1-2_極細2
  6
CONTINUOUS
 62
    2
 10
536.96003907686941
 20
265.6339667705065
 40
0.9955555555555292
  0
CIRCLE
  8
_1-2_極細2
  6
CONTINUOUS
 62
    2
 10
557.84003907686952
 20
290.83396677050627
 40
0.9955555555555292
  0
CIRCLE
  8
_1-2_極細2
  6
CONTINUOUS
 62
    2
 10
520.88003907686925
 20
292.11396677050624
 40
0.9955555555555292
  0
CIRCLE
  8
_1-2_極細2
  6
CONTINUOUS
 62
    2
 10
525.36003907686973
 20
327.63396677050588
 40
0.9955555555555292
  0
CIRCLE
  8
_1-2_極細2
  6
CONTINUOUS
 62
    2
 10
467.14003907687078
 20
227.13396677050702
 40
0.9955555555555292
  0
CIRCLE
  8
_1-2_極細2
  6
CONTINUOUS
 62
    2
 10
474.50003907687005
 20
272.0939667705066
 40
0.9955555555555292
  0
TEXT
  8
_0-7_枠細線
 62
    5
 10
317.66751935482051
 20
515.04070147870357
 40
24
 41
0.8
 50
0
  1
Ａ－Ａ’断面図
  0
TEXT
  8
_0-7_枠細線
 62
    5
 10
468.59397290194221
 20
515.04070147870357
 40
24
 41
0.6000000000000002
 50
0
  1
Ｓ＝１：２
  0
LINE
  8
_1-5_寸法2
  6
CONTINUOUS
 62
    7
 10
265.04960804260304
 20
373.51616135385149
 11
265.04960804260327
 21
493.51616177626119
  0
LINE
  8
_1-5_寸法2
  6
CONTINUOUS
 62
    7
 10
265.04960804260327
 20
487.51616177626119
 11
276.64071795807206
 21
490.6219903174914
  0
LINE
  8
_1-5_寸法2
  6
CONTINUOUS
 62
    7
 10
265.04960804260327
 20
487.51616177626119
 11
276.64071795807206
 21
484.41033323503086
  0
LINE
  8
_1-5_寸法2
  6
CONTINUOUS
 62
    7
 10
511.04960804260327
 20
373.51616135385154
 11
511.04960804260344
 21
493.51616177626119
  0
LINE
  8
_1-5_寸法2
  6
CONTINUOUS
 62
    7
 10
511.04960804260344
 20
487.51616177626119
 11
499.45849812713465
 21
484.41033323503098
  0
LINE
  8
_1-5_寸法2
  6
CONTINUOUS
 62
    7
 10
511.04960804260344
 20
487.51616177626119
 11
499.45849812713465
 21
490.6219903174914
  0
LINE
  8
_1-5_寸法2
  6
CONTINUOUS
 62
    7
 10
265.04960804260327
 20
487.51616177626119
 11
511.04960804260344
 21
487.51616177626119
  0
TEXT
  8
_1-5_寸法2
 62
    7
 10
379.04960804260344
 20
487.51616177626119
 40
18
 41
1
 50
0
  1
82
  0
LINE
  8
_1-5_寸法2
  6
CONTINUOUS
 62
    7
 10
265.04960804260304
 20
373.51616135385166
 11
265.0496080426031
 21
451.51616177626119
  0
LINE
  8
_1-5_寸法2
  6
CONTINUOUS
 62
    7
 10
265.0496080426031
 20
445.51616177626119
 11
253.45849812713431
 21
442.41033323503098
  0
LINE
  8
_1-5_寸法2
  6
CONTINUOUS
 62
    7
 10
265.0496080426031
 20
445.51616177626119
 11
253.45849812713431
 21
448.6219903174914
  0
LINE
  8
_1-5_寸法2
  6
CONTINUOUS
 62
    7
 10
274.04960896105757
 20
373.51616135385166
 11
274.04960896105774
 21
451.51616177626119
  0
CIRCLE
  8
_1-5_寸法2
  6
CONTINUOUS
 62
    1
 10
274.04960896105774
 20
445.51616177626119
 40
1.7999999999999996
  0
LINE
  8
_1-5_寸法2
  6
CONTINUOUS
 62
    7
 10
235.0496080426031
 20
445.51616177626119
 11
274.04960896105774
 21
445.51616177626119
  0
TEXT
  8
_1-5_寸法2
 62
    7
 10
246.07652441657319
 20
445.51616177626119
 40
18
 41
1
 50
0
  1
3
  0
LINE
  8
_1-5_寸法2
  6
CONTINUOUS
 62
    7
 10
280.04960835509399
 20
373.51616135385166
 11
280.04960835509416
 21
451.51616177626119
  0
LINE
  8
_1-5_寸法2
  6
CONTINUOUS
 62
    7
 10
274.04960896105774
 20
445.51616177626119
 11
280.04960835509416
 21
445.51616177626119
  0
TEXT
  8
_1-5_寸法2
 62
    7
 10
272.54960865807595
 20
445.51616177626119
 40
18
 41
1
 50
0
  1
2
  0
LINE
  8
_1-5_寸法2
  6
CONTINUOUS
 62
    7
 10
280.04960835509416
 20
445.51616177626119
 11
291.64071827056296
 21
448.6219903174914
  0
LINE
  8
_1-5_寸法2
  6
CONTINUOUS
 62
    7
 10
280.04960835509416
 20
445.51616177626119
 11
291.64071827056296
 21
442.41033323503086
  0
LINE
  8
_1-5_寸法2
  6
CONTINUOUS
 62
    7
 10
496.04960866123952
 20
373.51616135385149
 11
496.04960866123974
 21
451.51616177626119
  0
LINE
  8
_1-5_寸法2
  6
CONTINUOUS
 62
    7
 10
496.04960866123974
 20
445.51616177626119
 11
484.45849874577084
 21
442.41033323503098
  0
LINE
  8
_1-5_寸法2
  6
CONTINUOUS
 62
    7
 10
496.04960866123974
 20
445.51616177626119
 11
484.45849874577095
 21
448.6219903174914
  0
LINE
  8
_1-5_寸法2
  6
CONTINUOUS
 62
    7
 10
280.04960835509416
 20
445.51616177626119
 11
496.04960866123974
 21
445.51616177626119
  0
TEXT
  8
_1-5_寸法2
 62
    7
 10
379.04960850816701
 20
445.51616177626119
 40
18
 41
1
 50
0
  1
72
  0
LINE
  8
_1-5_寸法2
  6
CONTINUOUS
 62
    7
 10
502.04960804260327
 20
373.51616135385149
 11
502.04960804260344
 21
451.51616177626119
  0
CIRCLE
  8
_1-5_寸法2
  6
CONTINUOUS
 62
    1
 10
502.04960804260344
 20
445.51616177626119
 40
1.7999999999999996
  0
LINE
  8
_1-5_寸法2
  6
CONTINUOUS
 62
    7
 10
496.04960866123974
 20
445.51616177626119
 11
502.04960804260344
 21
445.51616177626119
  0
TEXT
  8
_1-5_寸法2
 62
    7
 10
494.54960835192145
 20
445.51616177626119
 40
18
 41
1
 50
0
  1
2
  0
LINE
  8
_1-5_寸法2
  6
CONTINUOUS
 62
    7
 10
511.04960804260327
 20
373.51616135385149
 11
511.04960804260344
 21
451.51616177626119
  0
LINE
  8
_1-5_寸法2
  6
CONTINUOUS
 62
    7
 10
511.04960804260344
 20
445.51616177626119
 11
522.64071795807217
 21
448.62199031749134
  0
LINE
  8
_1-5_寸法2
  6
CONTINUOUS
 62
    7
 10
511.04960804260344
 20
445.51616177626119
 11
522.64071795807217
 21
442.41033323503086
  0
LINE
  8
_1-5_寸法2
  6
CONTINUOUS
 62
    7
 10
502.04960804260344
 20
445.51616177626119
 11
541.0496080426035
 21
445.51616177626119
  0
TEXT
  8
_1-5_寸法2
 62
    7
 10
525.2386514406146
 20
445.51616177626119
 40
18
 41
1
 50
0
  1
3
  0
LINE
  8
_1-2_極細2
  6
CONTINUOUS
 62
    2
 10
353.54960896105757
 20
292.51616135385154
 11
355.04960896105757
 21
292.51616135385154
  0
LINE
  8
_1-2_極細2
  6
CONTINUOUS
 62
    2
 10
355.04960896105757
 20
292.51616135385154
 11
355.04960896105757
 21
232.51616135385152
  0
LINE
  8
_1-2_極細2
  6
CONTINUOUS
 62
    2
 10
422.54960774912547
 20
292.51616135385154
 11
421.04960774912547
 21
292.51616135385154
  0
LINE
  8
_1-2_極細2
  6
CONTINUOUS
 62
    2
 10
421.04960774912547
 20
292.51616135385154
 11
421.04960774912547
 21
232.51616135385152
  0
LINE
  8
_1-5_寸法2
  6
CONTINUOUS
 62
    7
 10
265.04960896105757
 20
289.51616135385154
 11
265.0496089610574
 21
226.51616135385152
  0
LINE
  8
_1-5_寸法2
  6
CONTINUOUS
 62
    7
 10
265.0496089610574
 20
232.51616135385152
 11
276.64071887652631
 21
235.62198989508175
  0
LINE
  8
_1-5_寸法2
  6
CONTINUOUS
 62
    7
 10
265.0496089610574
 20
232.51616135385152
 11
276.64071887652631
 21
229.41033281262128
  0
LINE
  8
_1-5_寸法2
  6
CONTINUOUS
 62
    7
 10
355.04960896105757
 20
280.51616135385154
 11
355.04960896105752
 21
226.51616135385152
  0
LINE
  8
_1-5_寸法2
  6
CONTINUOUS
 62
    7
 10
355.04960896105752
 20
232.51616135385152
 11
343.45849904558861
 21
229.41033281262128
  0
LINE
  8
_1-5_寸法2
  6
CONTINUOUS
 62
    7
 10
355.04960896105752
 20
232.51616135385152
 11
343.45849904558872
 21
235.62198989508184
  0
LINE
  8
_1-5_寸法2
  6
CONTINUOUS
 62
    7
 10
265.0496089610574
 20
232.51616135385152
 11
355.04960896105752
 21
232.51616135385152
  0
TEXT
  8
_1-5_寸法2
 62
    7
 10
301.04960896105752
 20
232.51616135385152
 40
18
 41
1
 50
0
  1
30
  0
LINE
  8
_1-5_寸法2
  6
CONTINUOUS
 62
    7
 10
355.04960896105752
 20
232.51616135385152
 11
366.64071887652636
 21
235.62198989508175
  0
LINE
  8
_1-5_寸法2
  6
CONTINUOUS
 62
    7
 10
355.04960896105752
 20
232.51616135385152
 11
366.64071887652631
 21
229.41033281262119
  0
LINE
  8
_1-5_寸法2
  6
CONTINUOUS
 62
    7
 10
421.04960774912547
 20
280.51616135385154
 11
421.0496077491253
 21
226.51616135385152
  0
LINE
  8
_1-5_寸法2
  6
CONTINUOUS
 62
    7
 10
421.0496077491253
 20
232.51616135385152
 11
409.45849783365651
 21
229.41033281262128
  0
LINE
  8
_1-5_寸法2
  6
CONTINUOUS
 62
    7
 10
421.0496077491253
 20
232.51616135385152
 11
409.45849783365651
 21
235.62198989508184
  0
LINE
  8
_1-5_寸法2
  6
CONTINUOUS
 62
    7
 10
355.04960896105752
 20
232.51616135385152
 11
421.0496077491253
 21
232.51616135385152
  0
TEXT
  8
_1-5_寸法2
 62
    7
 10
379.04960835509144
 20
232.51616135385152
 40
18
 41
1
 50
0
  1
22
  0
LINE
  8
_1-5_寸法2
  6
CONTINUOUS
 62
    7
 10
421.0496077491253
 20
232.51616135385152
 11
432.64071766459415
 21
235.62198989508175
  0
LINE
  8
_1-5_寸法2
  6
CONTINUOUS
 62
    7
 10
421.0496077491253
 20
232.51616135385152
 11
432.64071766459409
 21
229.41033281262119
  0
LINE
  8
_1-5_寸法2
  6
CONTINUOUS
 62
    7
 10
511.04960804260315
 20
289.51616135385154
 11
511.0496080426031
 21
226.51616135385152
  0
LINE
  8
_1-5_寸法2
  6
CONTINUOUS
 62
    7
 10
511.0496080426031
 20
232.51616135385152
 11
499.45849812713425
 21
229.41033281262128
  0
LINE
  8
_1-5_寸法2
  6
CONTINUOUS
 62
    7
 10
511.0496080426031
 20
232.51616135385152
 11
499.45849812713431
 21
235.62198989508184
  0
LINE
  8
_1-5_寸法2
  6
CONTINUOUS
 62
    7
 10
421.0496077491253
 20
232.51616135385152
 11
511.0496080426031
 21
232.51616135385152
  0
TEXT
  8
_1-5_寸法2
 62
    7
 10
457.0496078958642
 20
232.51616135385152
 40
18
 41
1
 50
0
  1
30
  0
LINE
  8
_1-5_寸法2
  6
CONTINUOUS
 62
    7
 10
249.44960804260262
 20
292.5161613538516
 11
199.04960896105757
 21
292.51616135385166
  0
LINE
  8
_1-5_寸法2
  6
CONTINUOUS
 62
    7
 10
205.04960896105757
 20
292.51616135385166
 11
201.94378041982742
 21
304.10727126932056
  0
LINE
  8
_1-5_寸法2
  6
CONTINUOUS
 62
    7
 10
205.04960896105757
 20
292.51616135385166
 11
208.1554375022879
 21
304.10727126932045
  0
LINE
  8
_1-5_寸法2
  6
CONTINUOUS
 62
    7
 10
253.04960804260301
 20
361.51616135385166
 11
199.04960896105757
 21
361.51616135385183
  0
LINE
  8
_1-5_寸法2
  6
CONTINUOUS
 62
    7
 10
205.04960896105757
 20
361.51616135385183
 11
208.15543750228781
 21
349.92505143838298
  0
LINE
  8
_1-5_寸法2
  6
CONTINUOUS
 62
    7
 10
205.04960896105757
 20
361.51616135385183
 11
201.94378041982733
 21
349.92505143838304
  0
LINE
  8
_1-5_寸法2
  6
CONTINUOUS
 62
    7
 10
205.04960896105757
 20
292.51616135385166
 11
205.04960896105757
 21
361.51616135385183
  0
TEXT
  8
_1-5_寸法2
 62
    7
 10
205.04960896105757
 20
318.01616135385177
 40
18
 41
1
 50
89.99999999999973
  1
23
  0
LINE
  8
_0-1_計細線
  6
CONTINUOUS
 62
    3
 10
192.81304121194577
 20
850.36031331592812
 11
1363.813041211946
 21
850.36031331592812
  0
LINE
  8
_0-1_計細線
  6
CONTINUOUS
 62
    3
 10
1363.8130412119458
 20
860.36031331592812
 11
192.81304121194577
 21
860.36031331592812
  0
LINE
  8
_0-1_計細線
  6
CONTINUOUS
 62
    3
 10
192.81304121194577
 20
865.86031331592767
 11
1363.8130412119453
 21
865.86031331592767
  0
LINE
  8
_0-1_計細線
  6
CONTINUOUS
 62
    3
 10
1363.8130412119453
 20
875.86031331592767
 11
192.81304121194577
 21
875.86031331592767
  0
LINE
  8
_0-1_計細線
  6
CONTINUOUS
 62
    3
 10
226.81303985190468
 20
881.36031331592721
 11
1363.8130412119453
 21
881.36031331592721
  0
LINE
  8
_0-1_計細線
  6
CONTINUOUS
 62
    3
 10
1363.8130412119458
 20
891.36031331592721
 11
226.81303985190468
 21
891.36031331592721
  0
LINE
  8
_0-1_計細線
  6
CONTINUOUS
 62
    3
 10
192.81304121194577
 20
896.8603133159271
 11
1363.8130412119458
 21
896.8603133159271
  0
LINE
  8
_0-1_計細線
  6
CONTINUOUS
 62
    3
 10
1363.8130412119458
 20
906.86031331592721
 11
192.81304121194577
 21
906.86031331592721
  0
LINE
  8
_0-1_計細線
  6
CONTINUOUS
 62
    3
 10
192.81304121194577
 20
912.36031331592665
 11
1363.8130412119453
 21
912.36031331592665
  0
LINE
  8
_0-1_計細線
  6
CONTINUOUS
 62
    3
 10
1363.8130412119453
 20
922.36031331592676
 11
192.81304121194577
 21
922.36031331592676
  0
LINE
  8
_0-1_計細線
  6
CONTINUOUS
 62
    3
 10
1363.8130412119453
 20
922.36031331592676
 11
1363.8130412119453
 21
912.36031331592665
  0
LINE
  8
_0-1_計細線
  6
CONTINUOUS
 62
    3
 10
1363.8130412119453
 20
906.86031331592721
 11
1363.8130412119453
 21
896.8603133159271
  0
LINE
  8
_0-1_計細線
  6
CONTINUOUS
 62
    3
 10
1363.8130412119458
 20
891.36031331592721
 11
1363.8130412119458
 21
881.36031331592721
  0
LINE
  8
_0-1_計細線
  6
CONTINUOUS
 62
    3
 10
1363.8130412119458
 20
875.86031331592767
 11
1363.8130412119458
 21
865.86031331592767
  0
LINE
  8
_0-1_計細線
  6
CONTINUOUS
 62
    3
 10
1363.8130412119453
 20
860.36031331592812
 11
1363.8130412119453
 21
850.36031331592812
  0
LINE
  8
_0-0_計極細
  6
CONTINUOUS
 62
    2
 10
1316.8130433981578
 20
912.36031371593742
 11
1316.8130433981578
 21
906.86031393594351
  0
LINE
  8
_0-0_計極細
  6
CONTINUOUS
 62
    2
 10
1356.8130417981492
 20
912.36031371593742
 11
1356.8130417981492
 21
906.86031393594351
  0
LINE
  8
_0-0_計極細
  6
CONTINUOUS
 62
    2
 10
1320.8630431132501
 20
912.36031331592665
 11
1320.8630408020722
 21
906.86031331592721
  0
LINE
  8
_0-0_計極細
  6
CONTINUOUS
 62
    2
 10
1327.763043083047
 20
912.36031331592665
 11
1327.7630408020718
 21
906.86031331592721
  0
LINE
  8
_0-0_計極細
  6
CONTINUOUS
 62
    2
 10
1316.8130433981578
 20
896.86031371593788
 11
1316.8130433981578
 21
891.36031393594396
  0
LINE
  8
_0-0_計極細
  6
CONTINUOUS
 62
    2
 10
1356.8130417981492
 20
896.86031371593788
 11
1356.8130417981492
 21
891.36031393594396
  0
LINE
  8
_0-0_計極細
  6
CONTINUOUS
 62
    2
 10
1320.8630431132501
 20
896.8603133159271
 11
1320.8630408020722
 21
891.36031331592767
  0
LINE
  8
_0-0_計極細
  6
CONTINUOUS
 62
    2
 10
1327.763043083047
 20
896.8603133159271
 11
1327.7630408020718
 21
891.36031331592767
  0
LINE
  8
_0-0_計極細
  6
CONTINUOUS
 62
    2
 10
1316.8130433981578
 20
881.36031371593776
 11
1316.8130433981578
 21
875.86031393594385
  0
LINE
  8
_0-0_計極細
  6
CONTINUOUS
 62
    2
 10
1356.8130417981492
 20
881.36031371593776
 11
1356.8130417981492
 21
875.86031393594385
  0
LINE
  8
_0-0_計極細
  6
CONTINUOUS
 62
    2
 10
1320.8630431132501
 20
881.36031331592721
 11
1320.8630408020722
 21
875.86031331592767
  0
LINE
  8
_0-0_計極細
  6
CONTINUOUS
 62
    2
 10
1327.763043083047
 20
881.36031331592721
 11
1327.7630408020718
 21
875.86031331592767
  0
LINE
  8
_0-0_計極細
  6
CONTINUOUS
 62
    2
 10
1316.8130433981578
 20
865.86031371593822
 11
1316.8130433981578
 21
860.3603139359443
  0
LINE
  8
_0-0_計極細
  6
CONTINUOUS
 62
    2
 10
1356.8130417981492
 20
865.86031371593822
 11
1356.8130417981492
 21
860.3603139359443
  0
LINE
  8
_0-0_計極細
  6
CONTINUOUS
 62
    2
 10
1320.8630431132501
 20
865.86031331592767
 11
1320.8630408020722
 21
860.36031331592812
  0
LINE
  8
_0-0_計極細
  6
CONTINUOUS
 62
    2
 10
1327.763043083047
 20
865.86031331592767
 11
1327.7630408020718
 21
860.36031331592812
  0
TEXT
  8
_0-7_枠細線
 62
    5
 10
1158.5999999999999
 20
132
 40
24
 41
0.6
 50
0
  1
ＧＳＥ－Ｌ１２００Ｔ
  0
LINE
  8
_0-5_寸法線
  6
CONTINUOUS
 62
    7
 10
1340.9204337865287
 20
925.91601392515258
 11
1332.4351524122901
 21
934.40129529939122
  0
LINE
  8
_0-5_寸法線
  6
CONTINUOUS
 62
    7
 10
1340.9204337865287
 20
925.91601392515258
 11
1337.8146052452985
 21
937.50712384062126
  0
LINE
  8
_0-5_寸法線
  6
CONTINUOUS
 62
    7
 10
1340.9204337865287
 20
925.91601392515258
 11
1326.2301606839237
 21
951.36031331592721
  0
LINE
  8
_0-5_寸法線
  6
CONTINUOUS
 62
    7
 10
1326.2301606839237
 20
951.36031331592721
 11
1239.8301606839236
 21
951.36031331592721
  0
TEXT
  8
_0-5_寸法線
 62
    7
 10
1239.8301606839236
 20
951.36031331592721
 40
18
 41
0.7999999999999998
 50
0
  1
Ｌアングル枠
  0
TEXT
  8
_0-7_枠細線
 62
    5
 10
1158.5999999999995
 20
180
 40
24
 41
0.5999999999999998
 50
0
  1
玄関排水Ｌアングル枠仕様 取外し具付
  0
LINE
  8
_0-5_寸法線
  6
CONTINUOUS
 62
    7
 10
211.71257103662373
 20
880.1769759734417
 11
217.941451686595
 21
869.92021986595751
  0
LINE
  8
_0-5_寸法線
  6
CONTINUOUS
 62
    7
 10
211.71257103662373
 20
880.1769759734417
 11
211.97856186289806
 21
868.17992429895344
  0
LINE
  8
_0-5_寸法線
  6
CONTINUOUS
 62
    7
 10
211.71257103662373
 20
880.1769759734417
 11
231.34064157626722
 21
812.92401946494533
  0
LINE
  8
_0-5_寸法線
  6
CONTINUOUS
 62
    7
 10
231.34064157626722
 20
812.92401946494533
 11
288.94064157626713
 21
812.92401946494533
  0
TEXT
  8
_0-5_寸法線
 62
    7
 10
231.34064157626722
 20
812.92401946494533
 40
18
 41
0.7999999999999998
 50
0
  1
取外し具
  0
LINE
  8
_0-5_寸法線
  6
CONTINUOUS
 62
    7
 10
1380.3130412119458
 20
845.36031331592721
 11
1434.3130412119453
 21
845.36031331592687
  0
LINE
  8
_0-5_寸法線
  6
CONTINUOUS
 62
    7
 10
1428.3130412119453
 20
845.36031331592687
 11
1425.2072126707153
 21
856.95142323139567
  0
LINE
  8
_0-5_寸法線
  6
CONTINUOUS
 62
    7
 10
1428.3130412119453
 20
845.36031331592687
 11
1431.4188697531758
 21
856.95142323139567
  0
LINE
  8
_0-5_寸法線
  6
CONTINUOUS
 62
    7
 10
1380.3130412119458
 20
927.36031331592721
 11
1434.3130412119453
 21
927.36031331592699
  0
LINE
  8
_0-5_寸法線
  6
CONTINUOUS
 62
    7
 10
1428.3130412119453
 20
927.36031331592699
 11
1431.4188697531758
 21
915.7692034004582
  0
LINE
  8
_0-5_寸法線
  6
CONTINUOUS
 62
    7
 10
1428.3130412119453
 20
927.36031331592699
 11
1425.2072126707153
 21
915.7692034004582
  0
LINE
  8
_0-5_寸法線
  6
CONTINUOUS
 62
    7
 10
1428.3130412119453
 20
845.36031331592687
 11
1428.3130412119453
 21
927.36031331592699
  0
TEXT
  8
_0-5_寸法線
 62
    7
 10
1428.3130412119458
 20
877.36031331592699
 40
18
 41
1
 50
90
  1
82
  0
TEXT
  8
_0-7_枠細線
 62
    5
 10
1158.5999999999997
 20
84
 40
24.000000000000007
 41
0.5999999999999997
 50
0
  1
表面形状については記号表参照のこと
  0
TEXT
  8
_0-7_枠細線
 62
    5
 10
914.55385896956807
 20
534.61061827912522
 40
24
 41
0.6000000000000002
 50
0
  1
Ｓ＝１：２
  0
TEXT
  8
_0-7_枠細線
 62
    5
 10
782.82740542244642
 20
534.61061827912522
 40
24
 41
0.8
 50
0
  1
Ｂ部詳細図
  0
LINE
  8
_1-2_極細2
  6
CENTER1
 62
    2
 10
848.86056597894503
 20
432.08433814526217
 11
863.73624333172484
 21
397.03943846048452
  0
CIRCLE
  8
_1-2_極細2
  6
DASHED2
 62
    2
 10
857.26095780497781
 20
412.29425518805681
 40
9
  0
LINE
  8
_1-2_極細2
  6
CENTER1
 62
    2
 10
873.82186549517246
 20
419.32394343611611
 11
842.92742459294232
 21
406.21003131224359
  0
LINE
  8
_1-2_極細2
  6
DASHED2
 62
    2
 10
904.05319998479263
 20
354.91616075385161
 11
869.29622381878698
 21
354.91616075385161
  0
LINE
  8
_1-2_極細2
  6
DASHED2
 62
    2
 10
869.4541174673177
 20
435.39489062192968
 11
903.68216432297686
 21
354.75866545949555
  0
LINE
  8
_1-2_極細2
  6
CONTINUOUS
 62
    2
 10
908.29622381878698
 20
304.516161353852
 11
908.29622381878698
 21
306.61616135385236
  0
LINE
  8
_1-2_極細2
  6
CONTINUOUS
 62
    2
 10
869.29622381878698
 20
324.4371118091027
 11
869.29622381878698
 21
306.61616075385189
  0
LINE
  8
_1-2_極細2
  6
CONTINUOUS
 62
    2
 10
788.29622381878676
 20
306.61616135385236
 11
788.29622381878676
 21
304.516161353852
  0
LINE
  8
_1-2_極細2
  6
CONTINUOUS
 62
    2
 10
788.29622381878676
 20
306.61616135385236
 11
908.29622240878689
 21
306.61616135385236
  0
LINE
  8
_1-2_極細2
  6
CONTINUOUS
 62
    2
 10
788.29622381878676
 20
304.516161353852
 11
908.29622240878689
 21
304.516161353852
  0
LINE
  8
_1-2_極細2
  6
CONTINUOUS
 62
    2
 10
789.83518384839613
 20
306.61616135385236
 11
831.83518384839613
 21
306.61616135385236
  0
LINE
  8
_1-2_極細2
  6
DASHED2
 62
    2
 10
869.29622381878698
 20
354.91616075385161
 11
869.29622381878698
 21
324.4371118091027
  0
LINE
  8
_1-5_寸法2
  6
CONTINUOUS
 62
    7
 10
836.43784824488034
 20
376.66664719355538
 11
825.66290854040903
 21
371.3845382998478
  0
ARC
  8
_1-5_寸法2
  6
CONTINUOUS
 62
    7
 10
885.79622381878698
 20
320.11616075385189
 40
75.061353277580906
 50
131.11509464913786
 51
160.1952802838328
  0
LINE
  8
_1-5_寸法2
  6
CONTINUOUS
 62
    7
 10
815.17453473452292
 20
345.54810497263804
 11
816.17965387935442
 21
357.50593652792816
  0
LINE
  8
_1-5_寸法2
  6
CONTINUOUS
 62
    7
 10
815.17453473452292
 20
345.54810497263804
 11
822.02390922542168
 21
355.40133130127867
  0
LINE
  8
_1-5_寸法2
  6
CONTINUOUS
 62
    7
 10
836.43784824488034
 20
376.66664719355538
 11
829.74753118341619
 21
366.70473685381273
  0
LINE
  8
_1-3_細線2
  6
CONTINUOUS
 62
    4
 10
908.68300088908973
 20
331.46056181050687
 11
899.5398924824417
 21
353.00037538129379
  0
LINE
  8
_1-3_細線2
  6
CONTINUOUS
 62
    4
 10
834.68702657674135
 20
405.97127101103825
 11
873.36940829717878
 21
314.84129051924663
  0
ARC
  8
_1-3_細線2
  6
CONTINUOUS
 62
    4
 10
885.79622381878698
 20
320.11616075385189
 40
13.5
 50
202.99999999999858
 51
292.99999999999983
  0
LINE
  8
_1-3_細線2
  6
CONTINUOUS
 62
    4
 10
891.07109405339224
 20
307.68934523224368
 11
900.73639501464231
 21
311.79202208138111
  0
ARC
  8
_1-3_細線2
  6
CONTINUOUS
 62
    4
 10
894.87542808730313
 20
325.5995948831677
 40
15
 50
292.99999999999989
 51
22.999999999998316
  0
LINE
  8
_1-3_細線2
  6
CONTINUOUS
 62
    4
 10
906.443678883335
 20
355.93085884496338
 11
872.21563202767447
 21
436.56708400739751
  0
LINE
  8
_1-3_細線2
  6
CONTINUOUS
 62
    4
 10
899.5398924824417
 20
353.00037538129379
 11
906.443678883335
 21
355.93085884496338
  0
LINE
  8
_1-3_細線2
  6
CONTINUOUS
 62
    4
 10
872.21563202767447
 20
436.56708400739751
 11
841.83897186374293
 21
423.67295676725132
  0
CIRCLE
  8
_1-3_細線2
  6
CONTINUOUS
 62
    4
 10
857.26095780497781
 20
412.29425518805681
 40
5.25
  0
ARC
  8
_1-3_細線2
  6
CONTINUOUS
 62
    4
 10
847.11384209834841
 20
411.24614124564351
 40
13.5
 50
113.00000000000109
 51
202.99999999999881
  0
CIRCLE
  8
_1-3_細線2
  6
CONTINUOUS
 62
    4
 10
857.26095780497781
 20
412.29425518805681
 40
13.5
  0
LINE
  8
_1-2_極細2
  6
CONTINUOUS
 62
    2
 10
954.963196146977
 20
354.91616075385161
 11
904.05319998479263
 21
354.91616075385161
  0
LINE
  8
_1-2_極細2
  6
CONTINUOUS
 62
    2
 10
869.29622381878698
 20
306.61616075385189
 11
972.42458556244469
 21
306.61616075385189
  0
LINE
  8
_1-2_極細2
  6
CONTINUOUS
 62
    2
 10
962.10962111030835
 20
369.73562471204866
 11
962.00117983562018
 21
369.54412844985143
  0
LINE
  8
_1-2_極細2
  6
CONTINUOUS
 62
    2
 10
962.00117983562018
 20
369.54412844985143
 11
961.67896891038413
 21
368.97485897949298
  0
LINE
  8
_1-2_極細2
  6
CONTINUOUS
 62
    2
 10
961.67896891038413
 20
368.97485897949298
 11
961.15311394676223
 21
368.04330822724739
  0
LINE
  8
_1-2_極細2
  6
CONTINUOUS
 62
    2
 10
961.15311394676223
 20
368.04330822724739
 11
960.44278387367444
 21
366.77475556539741
  0
LINE
  8
_1-2_極細2
  6
CONTINUOUS
 62
    2
 10
960.44278387367444
 20
366.77475556539741
 11
959.57856888689071
 21
365.20349955602603
  0
LINE
  8
_1-2_極細2
  6
CONTINUOUS
 62
    2
 10
959.57856888689071
 20
365.20349955602603
 11
958.60400124280454
 21
363.37185847757371
  0
LINE
  8
_1-2_極細2
  6
CONTINUOUS
 62
    2
 10
958.60400124280454
 20
363.37185847757371
 11
957.57506152223982
 21
361.32899717183898
  0
LINE
  8
_1-2_極細2
  6
CONTINUOUS
 62
    2
 10
957.57506152223982
 20
361.32899717183898
 11
956.55692007986522
 21
359.12963293291239
  0
LINE
  8
_1-2_極細2
  6
CONTINUOUS
 62
    2
 10
956.55692007986522
 20
359.12963293291239
 11
955.61783969772046
 21
356.83266015668039
  0
LINE
  8
_1-2_極細2
  6
CONTINUOUS
 62
    2
 10
955.61783969772046
 20
356.83266015668039
 11
954.82094592177441
 21
354.49971661208372
  0
LINE
  8
_1-2_極細2
  6
CONTINUOUS
 62
    2
 10
954.82094592177441
 20
354.49971661208372
 11
954.21525684596986
 21
352.19369877365705
  0
LINE
  8
_1-2_極細2
  6
CONTINUOUS
 62
    2
 10
954.21525684596986
 20
352.19369877365705
 11
953.82776989513218
 21
349.97722458317878
  0
LINE
  8
_1-2_極細2
  6
CONTINUOUS
 62
    2
 10
953.82776989513218
 20
349.97722458317878
 11
953.65840665153132
 21
347.91104256527285
  0
LINE
  8
_1-2_極細2
  6
CONTINUOUS
 62
    2
 10
953.65840665153132
 20
347.91104256527285
 11
953.67918902085489
 21
346.0523971750539
  0
LINE
  8
_1-2_極細2
  6
CONTINUOUS
 62
    2
 10
953.67918902085489
 20
346.0523971750539
 11
953.83823596552588
 21
344.45337959051369
  0
LINE
  8
_1-2_極細2
  6
CONTINUOUS
 62
    2
 10
953.83823596552588
 20
344.45337959051369
 11
954.06819343411939
 21
343.15931648752837
  0
LINE
  8
_1-2_極細2
  6
CONTINUOUS
 62
    2
 10
954.06819343411939
 20
343.15931648752837
 11
954.29775687720189
 21
342.20727088031242
  0
LINE
  8
_1-2_極細2
  6
CONTINUOUS
 62
    2
 10
954.29775687720189
 20
342.20727088031242
 11
954.46423391780058
 21
341.62474307669629
  0
LINE
  8
_1-2_極細2
  6
CONTINUOUS
 62
    2
 10
954.46423391780058
 20
341.62474307669629
 11
954.5247932442046
 21
341.42866174908534
  0
LINE
  8
_1-2_極細2
  6
CONTINUOUS
 62
    2
 10
954.5247932442046
 20
341.42866174908534
 11
954.5876653678863
 21
341.23251743463504
  0
LINE
  8
_1-2_極細2
  6
CONTINUOUS
 62
    2
 10
954.5876653678863
 20
341.23251743463504
 11
954.78795714322746
 21
340.64905744024952
  0
LINE
  8
_1-2_極細2
  6
CONTINUOUS
 62
    2
 10
954.78795714322746
 20
340.64905744024952
 11
955.15712655499942
 21
339.69307394787381
  0
LINE
  8
_1-2_極細2
  6
CONTINUOUS
 62
    2
 10
955.15712655499942
 20
339.69307394787381
 11
955.73659255761891
 21
338.3888085506718
  0
LINE
  8
_1-2_極細2
  6
CONTINUOUS
 62
    2
 10
955.73659255761891
 20
338.3888085506718
 11
956.56409555136293
 21
336.76936693418236
  0
LINE
  8
_1-2_極細2
  6
CONTINUOUS
 62
    2
 10
956.56409555136293
 20
336.76936693418236
 11
957.65963813619987
 21
334.87595543277519
  0
LINE
  8
_1-2_極細2
  6
CONTINUOUS
 62
    2
 10
957.65963813619987
 20
334.87595543277519
 11
959.01454374933769
 21
332.75697606383835
  0
LINE
  8
_1-2_極細2
  6
CONTINUOUS
 62
    2
 10
959.01454374933769
 20
332.75697606383835
 11
960.5864519708864
 21
330.46700571434405
  0
LINE
  8
_1-2_極細2
  6
CONTINUOUS
 62
    2
 10
960.5864519708864
 20
330.46700571434405
 11
962.3016644771003
 21
328.06566745894804
  0
LINE
  8
_1-2_極細2
  6
CONTINUOUS
 62
    2
 10
962.3016644771003
 20
328.06566745894804
 11
964.0645027906728
 21
325.61638319453812
  0
LINE
  8
_1-2_極細2
  6
CONTINUOUS
 62
    2
 10
964.0645027906728
 20
325.61638319453812
 11
965.77166033413755
 21
323.18498340890676
  0
LINE
  8
_1-2_極細2
  6
CONTINUOUS
 62
    2
 10
965.77166033413755
 20
323.18498340890676
 11
967.32833151038653
 21
320.83814763219527
  0
LINE
  8
_1-2_極細2
  6
CONTINUOUS
 62
    2
 10
967.32833151038653
 20
320.83814763219527
 11
968.66246916595969
 21
318.64166119045638
  0
LINE
  8
_1-2_極細2
  6
CONTINUOUS
 62
    2
 10
968.66246916595969
 20
318.64166119045638
 11
969.73396341141756
 21
316.65850006464677
  0
LINE
  8
_1-2_極細2
  6
CONTINUOUS
 62
    2
 10
969.73396341141756
 20
316.65850006464677
 11
970.53674369468649
 21
314.94679203656744
  0
LINE
  8
_1-2_極細2
  6
CONTINUOUS
 62
    2
 10
970.53674369468649
 20
314.94679203656744
 11
971.09349170502969
 21
313.55774193794412
  0
LINE
  8
_1-2_極細2
  6
CONTINUOUS
 62
    2
 10
971.09349170502969
 20
313.55774193794412
 11
971.44440968969161
 21
312.53364319228592
  0
LINE
  8
_1-2_極細2
  6
CONTINUOUS
 62
    2
 10
971.44440968969161
 20
312.53364319228592
 11
971.63289442841938
 21
311.90611873736623
  0
LINE
  8
_1-2_極細2
  6
CONTINUOUS
 62
    2
 10
971.63289442841938
 20
311.90611873736623
 11
971.69168338160193
 21
311.69473582315948
  0
LINE
  8
_1-2_極細2
  6
CONTINUOUS
 62
    2
 10
971.69168338160193
 20
311.69473582315948
 11
971.74810352974032
 21
311.48320687196372
  0
LINE
  8
_1-2_極細2
  6
CONTINUOUS
 62
    2
 10
971.74810352974032
 20
311.48320687196372
 11
971.90194858748123
 21
310.85353586651979
  0
LINE
  8
_1-2_極細2
  6
CONTINUOUS
 62
    2
 10
971.90194858748123
 20
310.85353586651979
 11
972.10980669190963
 21
309.82048483265214
  0
LINE
  8
_1-2_極細2
  6
CONTINUOUS
 62
    2
 10
972.10980669190963
 20
309.82048483265214
 11
972.30821413187709
 21
308.40867541984915
  0
LINE
  8
_1-2_極細2
  6
CONTINUOUS
 62
    2
 10
972.30821413187709
 20
308.40867541984915
 11
972.42515574492904
 21
306.65251859844068
  0
LINE
  8
_1-2_極細2
  6
CONTINUOUS
 62
    2
 10
972.42515574492904
 20
306.65251859844068
 11
972.39290350161059
 21
304.59594533928191
  0
LINE
  8
_1-2_極細2
  6
CONTINUOUS
 62
    2
 10
972.39290350161059
 20
304.59594533928191
 11
972.15978322527849
 21
302.29181883588296
  0
LINE
  8
_1-2_極細2
  6
CONTINUOUS
 62
    2
 10
972.15978322527849
 20
302.29181883588296
 11
971.69876836006893
 21
299.80093473319482
  0
LINE
  8
_1-2_極細2
  6
CONTINUOUS
 62
    2
 10
971.69876836006893
 20
299.80093473319482
 11
971.01152887384774
 21
297.19056661971752
  0
LINE
  8
_1-2_極細2
  6
CONTINUOUS
 62
    2
 10
971.01152887384774
 20
297.19056661971752
 11
970.12753977670923
 21
294.53257891132387
  0
LINE
  8
_1-2_極細2
  6
CONTINUOUS
 62
    2
 10
970.12753977670923
 20
294.53257891132387
 11
969.09885402139867
 21
291.90119432980612
  0
LINE
  8
_1-2_極細2
  6
CONTINUOUS
 62
    2
 10
969.09885402139867
 20
291.90119432980612
 11
967.99194761935246
 21
289.37055475145269
  0
LINE
  8
_1-2_極細2
  6
CONTINUOUS
 62
    2
 10
967.99194761935246
 20
289.37055475145269
 11
966.87848290849183
 21
287.01224188742242
  0
LINE
  8
_1-2_極細2
  6
CONTINUOUS
 62
    2
 10
966.87848290849183
 20
287.01224188742242
 11
965.82683231238457
 21
284.89292331562785
  0
LINE
  8
_1-2_極細2
  6
CONTINUOUS
 62
    2
 10
965.82683231238457
 20
284.89292331562785
 11
964.8957892835067
 21
283.07226165779855
  0
LINE
  8
_1-2_極細2
  6
CONTINUOUS
 62
    2
 10
964.8957892835067
 20
283.07226165779855
 11
964.13119118951522
 21
281.60117798470981
  0
LINE
  8
_1-2_極細2
  6
CONTINUOUS
 62
    2
 10
964.13119118951522
 20
281.60117798470981
 11
963.56537946013054
 21
280.52050655252935
  0
LINE
  8
_1-2_極細2
  6
CONTINUOUS
 62
    2
 10
963.56537946013054
 20
280.52050655252935
 11
963.21872951542196
 21
279.86002941980939
  0
LINE
  8
_1-2_極細2
  6
CONTINUOUS
 62
    2
 10
963.21872951542196
 20
279.86002941980939
 11
963.10206589197037
 21
279.63784693427067
  0
LINE
  8
_1-5_寸法2
  6
CONTINUOUS
 62
    7
 10
914.54396781642936
 20
317.65298900872057
 11
979.43956018828158
 21
345.19953365358464
  0
LINE
  8
_1-5_寸法2
  6
CONTINUOUS
 62
    7
 10
976.67804562792446
 20
344.02734026811652
 11
971.13709234999351
 21
351.11943705057695
  0
LINE
  8
_1-5_寸法2
  6
CONTINUOUS
 62
    7
 10
976.67804562792446
 20
344.02734026811652
 11
975.42548771928375
 21
352.93975288679064
  0
LINE
  8
_1-5_寸法2
  6
CONTINUOUS
 62
    7
 10
886.02320482946152
 20
442.42805093473692
 11
930.20743799863294
 21
461.18314518858926
  0
LINE
  8
_1-5_寸法2
  6
CONTINUOUS
 62
    7
 10
927.44592343827571
 20
460.0109518031212
 11
932.98687671620667
 21
452.91885502066077
  0
LINE
  8
_1-5_寸法2
  6
CONTINUOUS
 62
    7
 10
927.44592343827571
 20
460.0109518031212
 11
928.69848134691642
 21
451.09853918444702
  0
LINE
  8
_1-5_寸法2
  6
CONTINUOUS
 62
    7
 10
976.67804562792446
 20
344.02734026811652
 11
927.44592343827571
 21
460.0109518031212
  0
TEXT
  8
_1-5_寸法2
 62
    7
 10
948.54540437669675
 20
410.30368971669077
 40
18
 41
1
 50
-66.999999999999687
  1
42
  0
LINE
  8
_1-5_寸法2
  6
CONTINUOUS
 62
    7
 10
828.82605964940262
 20
419.77884381282536
 11
804.79609521466568
 21
476.38989237708188
  0
LINE
  8
_1-5_寸法2
  6
CONTINUOUS
 62
    7
 10
805.96828860013306
 20
473.62837781672442
 11
813.06038538259349
 21
479.16933109465543
  0
LINE
  8
_1-5_寸法2
  6
CONTINUOUS
 62
    7
 10
805.96828860013306
 20
473.62837781672442
 11
814.8807012188073
 21
474.88093572536502
  0
LINE
  8
_1-5_寸法2
  6
CONTINUOUS
 62
    7
 10
866.35466510033564
 20
450.37465680918433
 11
847.59957090020225
 21
494.55888985183265
  0
LINE
  8
_1-5_寸法2
  6
CONTINUOUS
 62
    7
 10
848.77176428566975
 20
491.79737529147519
 11
841.6796675032092
 21
486.25642201354412
  0
LINE
  8
_1-5_寸法2
  6
CONTINUOUS
 62
    7
 10
848.77176428566975
 20
491.79737529147519
 11
839.85935166699551
 21
490.54481738283454
  0
LINE
  8
_1-5_寸法2
  6
CONTINUOUS
 62
    7
 10
805.96828860013306
 20
473.62837781672442
 11
848.77176428566975
 21
491.79737529147519
  0
TEXT
  8
_1-5_寸法2
 62
    7
 10
810.80093908075764
 20
475.67971624129279
 40
18
 41
1
 50
23.000000000000313
  1
15.5
  0
LINE
  8
_1-2_極細2
  6
CENTER1
 62
    2
 10
871.41092845499065
 20
322.08301489334599
 11
900.14332900380464
 21
322.08301489334599
  0
LINE
  8
_1-2_極細2
  6
CENTER1
 62
    2
 10
886.59088442193502
 20
307.08054724552449
 11
886.59088442193502
 21
336.64326024671209
  0
CIRCLE
  8
_1-2_極細2
  6
CONTINUOUS
 62
    2
 10
886.59088442193502
 20
322.08301498762398
 40
10.350000000000001
  0
CIRCLE
  8
_1-3_細線2
  6
CONTINUOUS
 62
    4
 10
886.59088442193502
 20
322.08301498762398
 40
10.800000000000001
  0
LINE
  8
_1-2_極細2
  6
DASHED2
 62
    2
 10
842.33518384839533
 20
301.51616135385166
 11
972.01622390465764
 21
301.51616135385166
  0
LINE
  8
_1-2_極細2
  6
DASHED2
 62
    2
 10
842.33518384839533
 20
292.51616135385166
 11
969.33926274844862
 21
292.51616135385166
  0
ARC
  8
_1-2_極細2
  6
CONTINUOUS
 62
    2
 10
762.83518384839613
 20
301.51616135385166
 40
9.0000000000000018
 50
179.99999999999983
 51
269.99999999999977
  0
LINE
  8
_1-2_極細2
  6
CONTINUOUS
 62
    2
 10
753.83518384839613
 20
301.51616135385166
 11
753.83518384839613
 21
360.01616135385166
  0
LINE
  8
_1-2_極細2
  6
CONTINUOUS
 62
    2
 10
843.83518384839613
 20
294.01616135385166
 11
842.33518384839533
 21
292.51616135385166
  0
LINE
  8
_1-2_極細2
  6
CONTINUOUS
 62
    2
 10
843.83518384839613
 20
300.01616135385166
 11
843.83518384839613
 21
294.01616135385166
  0
LINE
  8
_1-2_極細2
  6
CONTINUOUS
 62
    2
 10
842.33518384839533
 20
301.51616135385166
 11
843.83518384839613
 21
300.01616135385166
  0
LINE
  8
_1-2_極細2
  6
CONTINUOUS
 62
    2
 10
755.33518384839613
 20
361.51616135385166
 11
753.83518384839613
 21
360.01616135385166
  0
LINE
  8
_1-2_極細2
  6
CONTINUOUS
 62
    2
 10
761.33518384839613
 20
361.51616135385166
 11
755.33518384839613
 21
361.51616135385166
  0
LINE
  8
_1-2_極細2
  6
CONTINUOUS
 62
    2
 10
762.83518384839613
 20
360.01616135385166
 11
761.33518384839613
 21
361.51616135385166
  0
LINE
  8
_1-2_極細2
  6
CONTINUOUS
 62
    2
 10
762.83518384839613
 20
301.51616135385166
 11
762.83518384839613
 21
360.01616135385166
  0
LINE
  8
_1-2_極細2
  6
CONTINUOUS
 62
    2
 10
762.83518384839613
 20
301.51616135385166
 11
842.33518384839533
 21
301.51616135385166
  0
LINE
  8
_1-2_極細2
  6
CONTINUOUS
 62
    2
 10
762.83518384839613
 20
292.51616135385166
 11
842.33518384839533
 21
292.51616135385166
  0
LINE
  8
_1-5_寸法2
  6
CONTINUOUS
 62
    7
 10
868.53478305208591
 20
426.88526725998179
 11
871.64061159331618
 21
438.47637717545058
  0
LINE
  8
_1-5_寸法2
  6
CONTINUOUS
 62
    7
 10
868.53478305208591
 20
426.88526725998179
 11
877.02006442632455
 21
435.37054863422031
  0
LINE
  8
_1-5_寸法2
  6
CONTINUOUS
 62
    7
 10
868.53478305208591
 20
426.88526725998179
 11
895.23226742947293
 21
473.12666663589249
  0
LINE
  8
_1-5_寸法2
  6
CONTINUOUS
 62
    7
 10
895.23226742947293
 20
473.12666663589249
 11
952.83226742947306
 21
473.12666663589249
  0
TEXT
  8
_1-5_寸法2
 62
    7
 10
895.23226742947293
 20
473.12666663589249
 40
18
 41
0.7999999999999998
 50
0
  1
取外し具
  0
LINE
  8
_0-7_枠細線
  6
CONTINUOUS
 62
    5
 10
1610.375456919061
 20
494.76240208876453
 11
1610.375456919061
 21
368.76240208876516
  0
TEXT
  8
_0-7_枠細線
 62
    5
 10
1501.1754569190621
 20
470.76240208876453
 40
18.000000000000004
 41
0.8
 50
0
  1
ノンスリップ
  0
LINE
  8
_0-7_枠細線
  6
CONTINUOUS
 62
    5
 10
1490.2887069244684
 20
407.46572806905453
 11
1604.145290913084
 21
407.46572806905453
  0
LINE
  8
_0-7_枠細線
  6
CONTINUOUS
 62
    5
 10
1485.8064749249161
 20
427.46572806705456
 11
1599.6630589135318
 21
427.46572806705456
  0
ARC
  8
_0-7_枠細線
  6
CONTINUOUS
 62
    5
 10
1503.3754569231603
 20
413.46572806845444
 40
3.9999999996
 50
51.317813000007057
 51
203.57817800000151
  0
ARC
  8
_0-7_枠細線
  6
CONTINUOUS
 62
    5
 10
1508.3754569226603
 20
419.71072606783008
 40
3.9999999996
 50
231.31781299999906
 51
308.68218699999511
  0
LINE
  8
_0-7_枠細線
  6
CONTINUOUS
 62
    5
 10
1499.709396923527
 20
411.86572806861449
 11
1517.0415169217931
 21
411.86572806861449
  0
ARC
  8
_0-7_枠細線
  6
CONTINUOUS
 62
    5
 10
1513.3754569221605
 20
413.46572806845444
 40
3.9999999996
 50
336.42182199999388
 51
128.6821870000002
  0
ARC
  8
_0-7_枠細線
  6
CONTINUOUS
 62
    5
 10
1539.3754569195601
 20
421.46572806765448
 40
3.9999999996
 50
156.42182199999607
 51
308.68218699999818
  0
ARC
  8
_0-7_枠細線
  6
CONTINUOUS
 62
    5
 10
1544.3754569190603
 20
415.22073006827884
 40
3.9999999996
 50
51.317813000010105
 51
128.68218700000006
  0
ARC
  8
_0-7_枠細線
  6
CONTINUOUS
 62
    5
 10
1549.3754569185605
 20
421.46572806765448
 40
3.9999999996
 50
231.31781299999602
 51
23.578178000003568
  0
LINE
  8
_0-7_枠細線
  6
CONTINUOUS
 62
    5
 10
1535.7093969199277
 20
423.06572806749443
 11
1553.0415169181927
 21
423.06572806749443
  0
LINE
  8
_0-7_枠細線
  6
CONTINUOUS
 62
    5
 10
1571.7093969163275
 20
411.86572806861449
 11
1589.0415169145936
 21
411.86572806861449
  0
ARC
  8
_0-7_枠細線
  6
CONTINUOUS
 62
    5
 10
1575.3754569159598
 20
413.46572806845444
 40
3.9999999996
 50
51.317813000001969
 51
203.57817800000151
  0
ARC
  8
_0-7_枠細線
  6
CONTINUOUS
 62
    5
 10
1580.3754569154601
 20
419.71072606783008
 40
3.9999999996
 50
231.31781299999906
 51
308.68218700000023
  0
ARC
  8
_0-7_枠細線
  6
CONTINUOUS
 62
    5
 10
1585.3754569149603
 20
413.46572806845444
 40
3.9999999996
 50
336.42182199999644
 51
128.6821870000002
  0
ARC
  8
_0-7_枠細線
  6
CONTINUOUS
 62
    5
 10
1539.3754569195601
 20
421.46572806765448
 40
7.4599999992540358
 50
151.14636799999553
 51
308.68218700000631
  0
LINE
  8
_0-7_枠細線
  6
CONTINUOUS
 62
    5
 10
1485.3669509249612
 20
425.06572806729446
 11
1532.8415769202124
 21
425.06572806729446
  0
LINE
  8
_0-7_枠細線
  6
CONTINUOUS
 62
    5
 10
1519.9093389215066
 20
409.86572806881463
 11
1568.8415769166147
 21
409.86572806881463
  0
ARC
  8
_0-7_枠細線
  6
CONTINUOUS
 62
    5
 10
1480.4399349254541
 20
410.50963406874996
 40
10.308427998969092
 50
317.56162899999873
 51
42.438371000002093
  0
ARC
  8
_0-7_枠細線
  6
CONTINUOUS
 62
    5
 10
1503.3754569231603
 20
413.46572806845444
 40
7.4599999992540358
 50
51.317812999991972
 51
208.85363199999784
  0
ARC
  8
_0-7_枠細線
  6
CONTINUOUS
 62
    5
 10
1495.6552489239318
 20
424.42182206735902
 40
10.308427998969092
 50
137.56162899999933
 51
222.43837100000192
  0
LINE
  8
_0-7_枠細線
  6
CONTINUOUS
 62
    5
 10
1490.7282329244247
 20
409.86572806881463
 11
1496.8415769238127
 21
409.86572806881463
  0
ARC
  8
_0-7_枠細線
  6
CONTINUOUS
 62
    5
 10
1508.3754569226603
 20
419.71072606783008
 40
0.5399999999459634
 50
231.31781300002677
 51
308.68218699999136
  0
ARC
  8
_0-7_枠細線
  6
CONTINUOUS
 62
    5
 10
1513.3754569221605
 20
413.46572806845444
 40
7.4599999992540358
 50
331.14636800000056
 51
128.6821870000077
  0
ARC
  8
_0-7_枠細線
  6
CONTINUOUS
 62
    5
 10
1594.2965189140689
 20
410.50963406874996
 40
10.308427998969092
 50
317.56162899999788
 51
42.438371000002093
  0
ARC
  8
_0-7_枠細線
  6
CONTINUOUS
 62
    5
 10
1609.5118329125476
 20
424.42182206735902
 40
10.308427998969092
 50
137.56162900000274
 51
222.43837099999939
  0
LINE
  8
_0-7_枠細線
  6
CONTINUOUS
 62
    5
 10
1591.9093389143061
 20
409.86572806881463
 11
1604.5848169130404
 21
409.86572806881463
  0
LINE
  8
_0-7_枠細線
  6
CONTINUOUS
 62
    5
 10
1555.9093389179063
 20
425.06572806729446
 11
1599.223534913576
 21
425.06572806729446
  0
ARC
  8
_0-7_枠細線
  6
CONTINUOUS
 62
    5
 10
1575.3754569159598
 20
413.46572806845444
 40
7.4599999992540358
 50
51.317812999991972
 51
208.85363200000666
  0
ARC
  8
_0-7_枠細線
  6
CONTINUOUS
 62
    5
 10
1544.3754569190603
 20
415.22073006827884
 40
0.5399999999459634
 50
51.317813000030881
 51
128.68218699998795
  0
ARC
  8
_0-7_枠細線
  6
CONTINUOUS
 62
    5
 10
1549.3754569185605
 20
421.46572806765448
 40
7.4599999992540358
 50
231.31781299999028
 51
28.853631999997937
  0
ARC
  8
_0-7_枠細線
  6
CONTINUOUS
 62
    5
 10
1580.3754569154601
 20
419.71072606783008
 40
0.5399999999459634
 50
231.31781300002677
 51
308.68218699999136
  0
ARC
  8
_0-7_枠細線
  6
CONTINUOUS
 62
    5
 10
1585.3754569149603
 20
413.46572806845444
 40
7.4599999992540358
 50
331.14636800000056
 51
128.6821870000077
  0
LINE
  8
_0-7_枠細線
  6
CENTER1
 62
    5
 10
1508.3754569226603
 20
429.14547406688627
 11
1508.3754569226603
 21
405.92769606920831
  0
LINE
  8
_0-7_枠細線
  6
CENTER1
 62
    5
 10
1580.3754569154601
 20
429.14547406688627
 11
1580.3754569154601
 21
405.92769606920831
  0
LINE
  8
_0-7_枠細線
  6
CENTER1
 62
    5
 10
1544.3754569190603
 20
429.14547406688627
 11
1544.3754569190603
 21
405.92769606920831
  0
LINE
  8
_0-7_枠細線
  6
CONTINUOUS
 62
    5
 10
1508.3754569226603
 20
401.46572806905453
 11
1508.3754569226603
 21
371.46572806905442
  0
LINE
  8
_0-7_枠細線
  6
CONTINUOUS
 62
    5
 10
1508.3754569226603
 20
377.46572806905442
 11
1519.9665668381292
 21
380.57155661028474
  0
LINE
  8
_0-7_枠細線
  6
CONTINUOUS
 62
    5
 10
1508.3754569226603
 20
377.46572806905442
 11
1519.9665668381292
 21
374.35989952782421
  0
LINE
  8
_0-7_枠細線
  6
CONTINUOUS
 62
    5
 10
1544.3754569190603
 20
401.46572806905453
 11
1544.3754569190603
 21
371.46572806905442
  0
LINE
  8
_0-7_枠細線
  6
CONTINUOUS
 62
    5
 10
1544.3754569190603
 20
377.46572806905442
 11
1532.7843470035914
 21
374.35989952782427
  0
LINE
  8
_0-7_枠細線
  6
CONTINUOUS
 62
    5
 10
1544.3754569190603
 20
377.46572806905442
 11
1532.7843470035914
 21
380.57155661028474
  0
LINE
  8
_0-7_枠細線
  6
CONTINUOUS
 62
    5
 10
1508.3754569226603
 20
377.46572806905442
 11
1544.3754569190603
 21
377.46572806905442
  0
TEXT
  8
_0-7_枠細線
 62
    5
 10
1517.37545692086
 20
377.46572806905442
 40
18
 41
1
 50
0
  1
18
  0
LINE
  8
_0-7_枠細線
  6
CONTINUOUS
 62
    5
 10
1544.3754569190603
 20
377.46572806905442
 11
1555.9665668345292
 21
380.57155661028457
  0
LINE
  8
_0-7_枠細線
  6
CONTINUOUS
 62
    5
 10
1544.3754569190603
 20
377.46572806905442
 11
1555.9665668345292
 21
374.35989952782415
  0
LINE
  8
_0-7_枠細線
  6
CONTINUOUS
 62
    5
 10
1580.3754569154601
 20
401.46572806905453
 11
1580.3754569154601
 21
371.46572806905442
  0
LINE
  8
_0-7_枠細線
  6
CONTINUOUS
 62
    5
 10
1580.3754569154601
 20
377.46572806905442
 11
1568.7843469999909
 21
374.35989952782427
  0
LINE
  8
_0-7_枠細線
  6
CONTINUOUS
 62
    5
 10
1580.3754569154601
 20
377.46572806905442
 11
1568.7843469999909
 21
380.57155661028474
  0
LINE
  8
_0-7_枠細線
  6
CONTINUOUS
 62
    5
 10
1544.3754569190603
 20
377.46572806905442
 11
1580.3754569154601
 21
377.46572806905442
  0
TEXT
  8
_0-7_枠細線
 62
    5
 10
1553.3754569172606
 20
377.46572806905442
 40
18
 41
1
 50
0
  1
18
  0
TEXT
  8
_0-7_枠細線
 62
    5
 10
1515.5754569190615
 20
440.7624020887647
 40
18.000000000000004
 41
0.7999999999999997
 50
0
  1
品番－Ｄ
  0
LINE
  8
_0-7_枠細線
  6
CONTINUOUS
 62
    5
 10
1478.3754569190605
 20
494.76240208876453
 11
1478.3754569190605
 21
368.76240208876516
  0
TEXT
  8
_0-7_枠細線
 62
    5
 10
1383.5754569190603
 20
470.7624020887647
 40
18.000000000000004
 41
0.8
 50
0
  1
プレーン
  0
LINE
  8
_0-7_枠細線
  6
CONTINUOUS
 62
    5
 10
1357.6882799245286
 20
407.46572806905453
 11
1471.5448639131437
 21
407.46572806905453
  0
LINE
  8
_0-7_枠細線
  6
CONTINUOUS
 62
    5
 10
1353.2060479249765
 20
427.46572806705456
 11
1467.0626319135922
 21
427.46572806705456
  0
ARC
  8
_0-7_枠細線
  6
CONTINUOUS
 62
    5
 10
1461.6960919141279
 20
410.50963406874996
 40
10.308427998969092
 50
317.56162900000442
 51
42.438370999996032
  0
ARC
  8
_0-7_枠細線
  6
CONTINUOUS
 62
    5
 10
1347.8395079255138
 20
410.50963406874996
 40
10.308427998969206
 50
317.56162900000021
 51
42.438371000000259
  0
LINE
  8
_0-7_枠細線
  6
CONTINUOUS
 62
    5
 10
1352.7665239250209
 20
425.06572806729446
 11
1466.6231079136367
 21
425.06572806729446
  0
LINE
  8
_0-7_枠細線
  6
CONTINUOUS
 62
    5
 10
1358.1278059244851
 20
409.86572806881463
 11
1471.9843899130999
 21
409.86572806881463
  0
ARC
  8
_0-7_枠細線
  6
CONTINUOUS
 62
    5
 10
1363.0548219239936
 20
424.42182206735902
 40
10.308427998969206
 50
137.56162900000081
 51
222.43837100000303
  0
ARC
  8
_0-7_枠細線
  6
CONTINUOUS
 62
    5
 10
1476.9114059126071
 20
424.42182206735902
 40
10.308427998969092
 50
137.56162899999933
 51
222.4383710000028
  0
TEXT
  8
_0-7_枠細線
 62
    5
 10
1383.5754569190617
 20
440.7624020887647
 40
18.000000000000004
 41
0.7999999999999997
 50
0
  1
品番－Ｆ
  0
TEXT
  8
_0-7_枠細線
 62
    5
 10
1287.5754569190608
 20
470.76240208876453
 40
18.000000000000004
 41
0.8
 50
0
  1
タ イ プ
  0
LINE
  8
_0-7_枠細線
  6
CONTINUOUS
 62
    5
 10
1286.3754569190601
 20
434.7624020887647
 11
1610.375456919061
 21
434.7624020887647
  0
LINE
  8
_0-7_枠細線
  6
CONTINUOUS
 62
    5
 10
1286.3754569190601
 20
464.76240208876453
 11
1610.375456919061
 21
464.76240208876453
  0
LINE
  8
_0-7_枠細線
  6
CONTINUOUS
 62
    5
 10
1286.3754569190601
 20
494.76240208876453
 11
1610.375456919061
 21
494.76240208876453
  0
LINE
  8
_0-7_枠細線
  6
CONTINUOUS
 62
    5
 10
1286.3754569190601
 20
368.76240208876516
 11
1610.375456919061
 21
368.76240208876516
  0
LINE
  8
_0-7_枠細線
  6
CONTINUOUS
 62
    5
 10
1346.375456919061
 20
494.76240208876453
 11
1346.375456919061
 21
368.76240208876516
  0
LINE
  8
_0-7_枠細線
  6
CONTINUOUS
 62
    5
 10
1286.3754569190601
 20
494.76240208876453
 11
1286.3754569190601
 21
368.76240208876516
  0
TEXT
  8
_0-7_枠細線
 62
    5
 10
1287.5754569190608
 20
392.76240208876487
 40
18.000000000000004
 41
0.8
 50
0
  1
表面形状
  0
TEXT
  8
_0-7_枠細線
 62
    5
 10
1295.7045105280336
 20
497.7624020887647
 40
21.000000000000004
 41
0.7999999999999997
 50
0
  1
記号表
  0
TEXT
  8
_0-7_枠細線
 62
    5
 10
1287.5754569190608
 20
440.76240208876482
 40
18.000000000000004
 41
0.8
 50
0
  1
記　　号
  0
TEXT
  8
_0-5_寸法線
 62
    7
 10
531.81478786076809
 20
933.66296666843527
 40
24
 41
1
 50
0
  1
Ａ’
  0
TEXT
  8
_0-5_寸法線
 62
    7
 10
531.74609688955229
 20
812.52552227181718
 40
24
 41
1
 50
0
  1
Ａ
  0
LINE
  8
_0-1_計細線
  6
CONTINUOUS
 62
    3
 10
1569.7763929071748
 20
929.66050324292007
 11
1569.7763929071748
 21
927.36050324292012
  0
LINE
  8
_0-1_計細線
  6
CONTINUOUS
 62
    3
 10
1569.7763929071748
 20
927.36050324292012
 11
1604.7763929071737
 21
927.36050324292012
  0
LINE
  8
_0-1_計細線
  6
CONTINUOUS
 62
    3
 10
1604.7763929071737
 20
927.36050324292012
 11
1604.7763929071737
 21
929.66050324292007
  0
LINE
  8
_0-1_計細線
  6
CONTINUOUS
 62
    3
 10
1604.7763929071737
 20
929.66050324292007
 11
1569.7763929071748
 21
929.66050324292007
  0
LINE
  8
_0-0_計極細
  6
CONTINUOUS
 62
    2
 10
1571.7763929071748
 20
927.36050324292012
 11
1571.7763929071748
 21
929.66050324292007
  0
LINE
  8
_0-0_計極細
  6
CONTINUOUS
 62
    2
 10
1583.7763929071748
 20
927.36050324292012
 11
1583.7763929071748
 21
929.66050324292007
  0
LINE
  8
_0-0_計極細
  6
CONTINUOUS
 62
    2
 10
1585.7763929071739
 20
927.36050324292012
 11
1585.7763929071739
 21
929.66050324292007
  0
LINE
  8
_0-0_計極細
  6
CONTINUOUS
 62
    2
 10
1587.7763929071739
 20
927.36050324292012
 11
1587.7763929071739
 21
929.66050324292007
  0
LINE
  8
_0-0_計極細
  6
CONTINUOUS
 62
    2
 10
1601.7763929071737
 20
927.36050324292012
 11
1601.7763929071737
 21
929.66050324292007
  0
LINE
  8
_0-0_計極細
  6
CONTINUOUS
 62
    2
 10
1581.7763929071748
 20
927.36050324292012
 11
1581.7763929071748
 21
929.66050324292007
  0
LINE
  8
_0-1_計細線
  6
CONTINUOUS
 62
    3
 10
1569.7763929071748
 20
845.36050324292034
 11
1569.7763929071748
 21
843.06050324292039
  0
LINE
  8
_0-1_計細線
  6
CONTINUOUS
 62
    3
 10
1569.7763929071748
 20
843.06050324292039
 11
1604.7763929071737
 21
843.06050324292039
  0
LINE
  8
_0-1_計細線
  6
CONTINUOUS
 62
    3
 10
1604.7763929071737
 20
843.06050324292039
 11
1604.7763929071737
 21
845.36050324292034
  0
LINE
  8
_0-1_計細線
  6
CONTINUOUS
 62
    3
 10
1604.7763929071737
 20
845.36050324292034
 11
1569.7763929071748
 21
845.36050324292034
  0
LINE
  8
_0-0_計極細
  6
CONTINUOUS
 62
    2
 10
1571.7763929071748
 20
843.06050324292039
 11
1571.7763929071748
 21
845.36050324292034
  0
LINE
  8
_0-0_計極細
  6
CONTINUOUS
 62
    2
 10
1583.7763929071748
 20
843.06050324292039
 11
1583.7763929071748
 21
845.36050324292034
  0
LINE
  8
_0-0_計極細
  6
CONTINUOUS
 62
    2
 10
1585.7763929071739
 20
843.06050324292039
 11
1585.7763929071739
 21
845.36050324292034
  0
LINE
  8
_0-0_計極細
  6
CONTINUOUS
 62
    2
 10
1587.7763929071739
 20
843.06050324292039
 11
1587.7763929071739
 21
845.36050324292034
  0
LINE
  8
_0-0_計極細
  6
CONTINUOUS
 62
    2
 10
1601.7763929071737
 20
843.06050324292039
 11
1601.7763929071737
 21
845.36050324292034
  0
LINE
  8
_0-0_計極細
  6
CONTINUOUS
 62
    2
 10
1581.7763929071748
 20
843.06050324292039
 11
1581.7763929071748
 21
845.36050324292034
  0
LINE
  8
_0-7_枠細線
  6
CONTINUOUS
 62
    5
 10
1710
 20
1131
 11
1068
 21
1131
  0
TEXT
  8
_0-7_枠細線
 62
    5
 10
1074
 20
1133.9999999999995
 40
15
 41
1
 50
0
  1
記号
  0
TEXT
  8
_0-7_枠細線
 62
    5
 10
1196.25
 20
1134
 40
15
 41
1
 50
0
  1
訂　 正　 記　 事
  0
TEXT
  8
_0-7_枠細線
 62
    5
 10
1417.5
 20
1134
 40
15
 41
1
 50
0
  1
訂 正 年 月 日
  0
TEXT
  8
_0-7_枠細線
 62
    5
 10
1567.5
 20
1134
 40
15
 41
1
 50
0
  1
備　　　　　考
  0
LINE
  8
_0-7_枠細線
  6
CONTINUOUS
 62
    5
 10
1710
 20
1110
 11
1068
 21
1110
  0
LINE
  8
_0-7_枠細線
  6
CONTINUOUS
 62
    5
 10
1068
 20
1110
 11
1068
 21
1151.9999999999993
  0
LINE
  8
_0-7_枠細線
  6
CONTINUOUS
 62
    5
 10
1110
 20
1110
 11
1110
 21
1151.9999999999993
  0
LINE
  8
_0-7_枠細線
  6
CONTINUOUS
 62
    5
 10
1410
 20
1110
 11
1410
 21
1152
  0
LINE
  8
_0-7_枠細線
  6
CONTINUOUS
 62
    5
 10
1530
 20
1110
 11
1530
 21
1151.9999999999993
  0
LINE
  8
_0-7_枠細線
  6
CONTINUOUS
 62
    5
 10
1098
 20
1111.7308007660963
 11
1089
 21
1129.7308007660963
  0
LINE
  8
_0-7_枠細線
  6
CONTINUOUS
 62
    5
 10
1080
 20
1111.7308007660963
 11
1098
 21
1111.7308007660963
  0
LINE
  8
_0-7_枠細線
  6
CONTINUOUS
 62
    5
 10
1089
 20
1129.7308007660963
 11
1080
 21
1111.7308007660963
  0
TEXT
  8
_0-7_枠細線
 62
    5
 10
1082.8381815217776
 20
1111.3623980716397
 40
15
 41
0.8
 50
0
  1
１
  0
TEXT
  8
_0-7_枠細線
 62
    5
 10
1416
 20
1113
 40
15
 41
0.7199999999999999
 50
0
  1
２０１９．０９．０１
  0
TEXT
  8
_0-7_枠細線
 62
    5
 10
1126.6204444444443
 20
1113
 40
15.000000000000004
 41
1
 50
0
  1
アンカー材質･厚み変更
  0
LINE
  8
_0-7_枠細線
  6
CONTINUOUS
 62
    5
 10
1628.4990253411306
 20
929.51050465670369
 11
1619.4990253411306
 21
947.51050465670369
  0
LINE
  8
_0-7_枠細線
  6
CONTINUOUS
 62
    5
 10
1610.4990253411306
 20
929.51050465670369
 11
1628.4990253411306
 21
929.51050465670369
  0
LINE
  8
_0-7_枠細線
  6
CONTINUOUS
 62
    5
 10
1619.4990253411306
 20
947.51050465670369
 11
1610.4990253411306
 21
929.51050465670369
  0
TEXT
  8
_0-7_枠細線
 62
    5
 10
1613.3372068629083
 20
929.14210196224712
 40
15
 41
0.8
 50
0
  1
１
  0
LINE
  8
_0-5_寸法線
  6
CONTINUOUS
 62
    7
 10
188.31304121194586
 20
939.36031331592721
 11
188.31304121194594
 21
1035.3603133159272
  0
LINE
  8
_0-5_寸法線
  6
CONTINUOUS
 62
    7
 10
188.31304121194594
 20
1029.3603133159272
 11
199.90415112741482
 21
1032.4661418571575
  0
LINE
  8
_0-5_寸法線
  6
CONTINUOUS
 62
    7
 10
188.31304121194594
 20
1029.3603133159272
 11
199.90415112741482
 21
1026.2544847746967
  0
LINE
  8
_0-5_寸法線
  6
CONTINUOUS
 62
    7
 10
1368.3130412119458
 20
939.36031331592721
 11
1368.313041211946
 21
1035.3603133159272
  0
LINE
  8
_0-5_寸法線
  6
CONTINUOUS
 62
    7
 10
1368.313041211946
 20
1029.3603133159272
 11
1356.7219312964771
 21
1026.2544847746967
  0
LINE
  8
_0-5_寸法線
  6
CONTINUOUS
 62
    7
 10
1368.313041211946
 20
1029.3603133159272
 11
1356.7219312964771
 21
1032.4661418571575
  0
LINE
  8
_0-5_寸法線
  6
CONTINUOUS
 62
    7
 10
188.31304121194594
 20
1029.3603133159272
 11
1368.313041211946
 21
1029.3603133159272
  0
TEXT
  8
_0-5_寸法線
 62
    7
 10
760.31304121194603
 20
1029.3603133159272
 40
18
 41
1
 50
0
  1
1180
  0
LINE
  8
_0-5_寸法線
  6
CONTINUOUS
 62
    7
 10
188.31304121194586
 20
939.36031331592721
 11
188.31304121194586
 21
993.36031331592721
  0
LINE
  8
_0-5_寸法線
  6
CONTINUOUS
 62
    7
 10
188.31304121194586
 20
987.36031331592721
 11
176.72193129647707
 21
984.25448477469695
  0
LINE
  8
_0-5_寸法線
  6
CONTINUOUS
 62
    7
 10
188.31304121194586
 20
987.36031331592721
 11
176.72193129647707
 21
990.46614185715748
  0
LINE
  8
_0-5_寸法線
  6
CONTINUOUS
 62
    7
 10
191.31304121194586
 20
939.36031331592721
 11
191.31304121194586
 21
993.36031331592721
  0
CIRCLE
  8
_0-5_寸法線
  6
CONTINUOUS
 62
    1
 10
191.31304121194586
 20
987.36031331592721
 40
1.7999999999999996
  0
LINE
  8
_0-5_寸法線
  6
CONTINUOUS
 62
    7
 10
158.31304121194586
 20
987.36031331592721
 11
191.31304121194586
 21
987.36031331592721
  0
TEXT
  8
_0-5_寸法線
 62
    7
 10
164.61125162146317
 20
987.36031331592699
 40
18
 41
1
 50
0
  1
3
  0
LINE
  8
_0-5_寸法線
  6
CONTINUOUS
 62
    7
 10
192.81304121194586
 20
939.36031331592721
 11
192.81304121194586
 21
993.36031331592721
  0
LINE
  8
_0-5_寸法線
  6
CONTINUOUS
 62
    7
 10
191.31304121194586
 20
987.36031331592721
 11
192.81304121194586
 21
987.36031331592721
  0
TEXT
  8
_0-5_寸法線
 62
    7
 10
197.47293488871918
 20
987.36031331592699
 40
18
 41
1
 50
0
  1
1.5
  0
LINE
  8
_0-5_寸法線
  6
CONTINUOUS
 62
    7
 10
192.81304121194586
 20
987.36031331592721
 11
204.40415112741474
 21
990.46614185715748
  0
LINE
  8
_0-5_寸法線
  6
CONTINUOUS
 62
    7
 10
192.81304121194586
 20
987.36031331592721
 11
204.40415112741474
 21
984.25448477469683
  0
LINE
  8
_0-5_寸法線
  6
CONTINUOUS
 62
    7
 10
1363.8130412119453
 20
939.36031331592721
 11
1363.8130412119458
 21
993.36031331592721
  0
LINE
  8
_0-5_寸法線
  6
CONTINUOUS
 62
    7
 10
1363.8130412119458
 20
987.36031331592721
 11
1352.2219312964769
 21
984.25448477469695
  0
LINE
  8
_0-5_寸法線
  6
CONTINUOUS
 62
    7
 10
1363.8130412119458
 20
987.36031331592721
 11
1352.2219312964769
 21
990.46614185715748
  0
LINE
  8
_0-5_寸法線
  6
CONTINUOUS
 62
    7
 10
192.81304121194586
 20
987.36031331592721
 11
1363.8130412119458
 21
987.36031331592721
  0
TEXT
  8
_0-5_寸法線
 62
    7
 10
760.3130412119458
 20
987.36031331592721
 40
18
 41
1
 50
0
  1
1171
  0
LINE
  8
_0-5_寸法線
  6
CONTINUOUS
 62
    7
 10
1365.3130412119458
 20
939.36031331592721
 11
1365.313041211946
 21
993.36031331592721
  0
CIRCLE
  8
_0-5_寸法線
  6
CONTINUOUS
 62
    1
 10
1365.313041211946
 20
987.36031331592721
 40
1.7999999999999996
  0
LINE
  8
_0-5_寸法線
  6
CONTINUOUS
 62
    7
 10
1363.8130412119458
 20
987.36031331592721
 11
1365.313041211946
 21
987.36031331592721
  0
TEXT
  8
_0-5_寸法線
 62
    7
 10
1332.4440853255223
 20
987.36031331592721
 40
18
 41
1
 50
0
  1
1.5
  0
LINE
  8
_0-5_寸法線
  6
CONTINUOUS
 62
    7
 10
1368.3130412119458
 20
939.36031331592721
 11
1368.313041211946
 21
993.36031331592721
  0
LINE
  8
_0-5_寸法線
  6
CONTINUOUS
 62
    7
 10
1368.313041211946
 20
987.36031331592721
 11
1379.9041511274149
 21
990.46614185715725
  0
LINE
  8
_0-5_寸法線
  6
CONTINUOUS
 62
    7
 10
1368.313041211946
 20
987.36031331592721
 11
1379.9041511274149
 21
984.25448477469683
  0
LINE
  8
_0-5_寸法線
  6
CONTINUOUS
 62
    7
 10
1365.313041211946
 20
987.36031331592721
 11
1398.313041211946
 21
987.36031331592721
  0
TEXT
  8
_0-5_寸法線
 62
    7
 10
1382.4269045241824
 20
987.36031331592699
 40
18
 41
1
 50
0
  1
3
  0
LINE
  8
_0-5_寸法線
  6
CONTINUOUS
 62
    7
 10
1558.7763929071746
 20
939.36050324292046
 11
1558.7763929071748
 21
1035.3603133159272
  0
LINE
  8
_0-5_寸法線
  6
CONTINUOUS
 62
    7
 10
1558.7763929071748
 20
1029.3603133159272
 11
1570.3675028226437
 21
1032.4661418571575
  0
LINE
  8
_0-5_寸法線
  6
CONTINUOUS
 62
    7
 10
1558.7763929071748
 20
1029.3603133159272
 11
1570.3675028226437
 21
1026.2544847746967
  0
LINE
  8
_0-5_寸法線
  6
CONTINUOUS
 62
    7
 10
1604.7763929071737
 20
941.66050324292007
 11
1604.7763929071739
 21
1035.3603133159272
  0
LINE
  8
_0-5_寸法線
  6
CONTINUOUS
 62
    7
 10
1604.7763929071739
 20
1029.3603133159272
 11
1593.1852829917052
 21
1026.2544847746967
  0
LINE
  8
_0-5_寸法線
  6
CONTINUOUS
 62
    7
 10
1604.7763929071739
 20
1029.3603133159272
 11
1593.1852829917052
 21
1032.4661418571575
  0
LINE
  8
_0-5_寸法線
  6
CONTINUOUS
 62
    7
 10
1558.7763929071748
 20
1029.3603133159272
 11
1604.7763929071739
 21
1029.3603133159272
  0
TEXT
  8
_0-5_寸法線
 62
    7
 10
1572.7763929071743
 20
1029.3603133159272
 40
18
 41
1
 50
0
  1
46
  0
LINE
  8
_0-5_寸法線
  6
CONTINUOUS
 62
    7
 10
1558.7763929071746
 20
939.36050324292012
 11
1558.7763929071746
 21
993.36031331592721
  0
LINE
  8
_0-5_寸法線
  6
CONTINUOUS
 62
    7
 10
1558.7763929071746
 20
987.36031331592721
 11
1547.1852829917057
 21
984.25448477469695
  0
LINE
  8
_0-5_寸法線
  6
CONTINUOUS
 62
    7
 10
1558.7763929071746
 20
987.36031331592721
 11
1547.1852829917057
 21
990.46614185715748
  0
LINE
  8
_0-5_寸法線
  6
CONTINUOUS
 62
    7
 10
1581.7763929071748
 20
941.66050324292007
 11
1581.7763929071748
 21
993.36031331592721
  0
CIRCLE
  8
_0-5_寸法線
  6
CONTINUOUS
 62
    1
 10
1581.7763929071748
 20
987.36031331592721
 40
1.7999999999999996
  0
LINE
  8
_0-5_寸法線
  6
CONTINUOUS
 62
    7
 10
1528.7763929071748
 20
987.36031331592721
 11
1581.7763929071748
 21
987.36031331592721
  0
TEXT
  8
_0-5_寸法線
 62
    7
 10
1530.9292335308405
 20
987.36031331592721
 40
18
 41
1
 50
0
  1
23
  0
LINE
  8
_0-5_寸法線
  6
CONTINUOUS
 62
    7
 10
1604.7763929071748
 20
941.66050324292007
 11
1604.7763929071748
 21
993.36031331592721
  0
LINE
  8
_0-5_寸法線
  6
CONTINUOUS
 62
    7
 10
1604.7763929071748
 20
987.36031331592721
 11
1616.3675028226435
 21
990.46614185715725
  0
LINE
  8
_0-5_寸法線
  6
CONTINUOUS
 62
    7
 10
1604.7763929071748
 20
987.36031331592721
 11
1616.3675028226435
 21
984.25448477469683
  0
LINE
  8
_0-5_寸法線
  6
CONTINUOUS
 62
    7
 10
1581.7763929071748
 20
987.36031331592721
 11
1634.7763929071748
 21
987.36031331592721
  0
TEXT
  8
_0-5_寸法線
 62
    7
 10
1618.2123202729342
 20
987.36031331592721
 40
18
 41
1
 50
0
  1
23
  0
LINE
  8
_0-5_寸法線
  6
CONTINUOUS
 62
    7
 10
1380.3130412119458
 20
660.3603133159271
 11
1434.3130411607458
 21
660.36031331592653
  0
LINE
  8
_0-5_寸法線
  6
CONTINUOUS
 62
    7
 10
1428.3130411607458
 20
660.36031331592665
 11
1425.2072126195155
 21
671.95142323139544
  0
LINE
  8
_0-5_寸法線
  6
CONTINUOUS
 62
    7
 10
1428.3130411607458
 20
660.36031331592665
 11
1431.4188697019758
 21
671.95142323139544
  0
LINE
  8
_0-5_寸法線
  6
CONTINUOUS
 62
    7
 10
1380.3130412119458
 20
683.36031331592699
 11
1434.3130411607458
 21
683.36031331592653
  0
LINE
  8
_0-5_寸法線
  6
CONTINUOUS
 62
    7
 10
1428.3130411607458
 20
683.36031331592665
 11
1431.4188697019758
 21
671.76920340045785
  0
LINE
  8
_0-5_寸法線
  6
CONTINUOUS
 62
    7
 10
1428.3130411607458
 20
683.36031331592665
 11
1425.2072126195155
 21
671.76920340045785
  0
LINE
  8
_0-5_寸法線
  6
CONTINUOUS
 62
    7
 10
1428.3130411607458
 20
660.36031331592665
 11
1428.3130411607458
 21
683.36031331592665
  0
TEXT
  8
_0-5_寸法線
 62
    7
 10
1428.3130411607458
 20
662.86031331592653
 40
18
 41
1
 50
90
  1
23
  0
LINE
  8
_0-1_計細線
  6
CONTINUOUS
 62
    3
 10
232.3130414361608
 20
672.36031331592721
 11
230.31304143616074
 21
670.36031331592721
  0
LINE
  8
_0-1_計細線
  6
CONTINUOUS
 62
    3
 10
230.31304143616074
 20
660.36031331592721
 11
230.31304143616074
 21
670.36031331592721
  0
LINE
  8
_0-1_計細線
  6
CONTINUOUS
 62
    3
 10
246.31304112999936
 20
670.36031331592721
 11
244.31304112999939
 21
672.36031331592721
  0
LINE
  8
_0-1_計細線
  6
CONTINUOUS
 62
    3
 10
246.31304112999936
 20
660.36031331592721
 11
246.31304112999936
 21
670.36031331592721
  0
LINE
  8
_0-1_計細線
  6
CONTINUOUS
 62
    3
 10
232.3130414361608
 20
656.36031331592721
 11
230.31304143616074
 21
654.36031331592721
  0
LINE
  8
_0-1_計細線
  6
CONTINUOUS
 62
    3
 10
232.3130414361608
 20
658.36031331592721
 11
232.3130414361608
 21
656.36031331592721
  0
LINE
  8
_0-1_計細線
  6
CONTINUOUS
 62
    3
 10
230.31304143616074
 20
660.36031331592721
 11
232.3130414361608
 21
658.36031331592721
  0
LINE
  8
_0-1_計細線
  6
CONTINUOUS
 62
    3
 10
244.31304112999939
 20
656.36031331592721
 11
246.31304112999936
 21
654.36031331592721
  0
LINE
  8
_0-1_計細線
  6
CONTINUOUS
 62
    3
 10
244.31304112999939
 20
658.36031331592721
 11
244.31304112999939
 21
656.36031331592721
  0
LINE
  8
_0-1_計細線
  6
CONTINUOUS
 62
    3
 10
246.31304112999936
 20
660.36031331592721
 11
244.31304112999939
 21
658.36031331592721
  0
LINE
  8
_0-1_計細線
  6
CONTINUOUS
 62
    3
 10
230.31304143616074
 20
654.36031331592721
 11
230.31304143616074
 21
640.36031331592721
  0
ARC
  8
_0-1_計細線
  6
CONTINUOUS
 62
    3
 10
233.31304143616074
 20
640.36031331592721
 40
3
 50
179.99999999999983
 51
269.99999999999977
  0
LINE
  8
_0-1_計細線
  6
CONTINUOUS
 62
    3
 10
233.31304143616074
 20
637.36031331592721
 11
243.31304112999936
 21
637.36031331592721
  0
LINE
  8
_0-1_計細線
  6
CONTINUOUS
 62
    3
 10
246.31304112999936
 20
654.36031331592721
 11
246.31304112999936
 21
640.36031331592721
  0
ARC
  8
_0-1_計細線
  6
CONTINUOUS
 62
    3
 10
243.31304112999936
 20
640.36031331592721
 40
3
 50
269.99999999999977
 51
359.99999999999966
  0
LINE
  8
_0-0_計極細
  6
CENTER1
 62
    2
 10
238.31304121194574
 20
684.00168718131499
 11
238.31304121194574
 21
628.73156934507188
  0
LINE
  8
_0-1_計細線
  6
CONTINUOUS
 62
    3
 10
232.3130414361608
 20
672.36031331592721
 11
244.31304112999939
 21
672.36031331592721
  0
LINE
  8
_0-1_計細線
  6
CONTINUOUS
 62
    3
 10
1312.3130414361608
 20
672.36031331592721
 11
1310.3130414361608
 21
670.36031331592721
  0
LINE
  8
_0-1_計細線
  6
CONTINUOUS
 62
    3
 10
1310.3130414361608
 20
660.36031331592721
 11
1310.3130414361608
 21
670.36031331592721
  0
LINE
  8
_0-1_計細線
  6
CONTINUOUS
 62
    3
 10
1326.3130411299994
 20
670.36031331592721
 11
1324.3130411299994
 21
672.36031331592721
  0
LINE
  8
_0-1_計細線
  6
CONTINUOUS
 62
    3
 10
1326.3130411299994
 20
660.36031331592721
 11
1326.3130411299994
 21
670.36031331592721
  0
LINE
  8
_0-1_計細線
  6
CONTINUOUS
 62
    3
 10
1312.3130414361608
 20
656.36031331592721
 11
1310.3130414361608
 21
654.36031331592721
  0
LINE
  8
_0-1_計細線
  6
CONTINUOUS
 62
    3
 10
1312.3130414361608
 20
658.36031331592721
 11
1312.3130414361608
 21
656.36031331592721
  0
LINE
  8
_0-1_計細線
  6
CONTINUOUS
 62
    3
 10
1310.3130414361608
 20
660.36031331592721
 11
1312.3130414361608
 21
658.36031331592721
  0
LINE
  8
_0-1_計細線
  6
CONTINUOUS
 62
    3
 10
1324.3130411299994
 20
656.36031331592721
 11
1326.3130411299994
 21
654.36031331592721
  0
LINE
  8
_0-1_計細線
  6
CONTINUOUS
 62
    3
 10
1324.3130411299994
 20
658.36031331592721
 11
1324.3130411299994
 21
656.36031331592721
  0
LINE
  8
_0-1_計細線
  6
CONTINUOUS
 62
    3
 10
1326.3130411299994
 20
660.36031331592721
 11
1324.3130411299994
 21
658.36031331592721
  0
LINE
  8
_0-1_計細線
  6
CONTINUOUS
 62
    3
 10
1310.3130414361608
 20
654.36031331592721
 11
1310.3130414361608
 21
640.36031331592721
  0
ARC
  8
_0-1_計細線
  6
CONTINUOUS
 62
    3
 10
1313.3130414361608
 20
640.36031331592721
 40
3
 50
179.99999999999983
 51
269.99999999999977
  0
LINE
  8
_0-1_計細線
  6
CONTINUOUS
 62
    3
 10
1313.3130414361608
 20
637.36031331592721
 11
1323.3130411299994
 21
637.36031331592721
  0
LINE
  8
_0-1_計細線
  6
CONTINUOUS
 62
    3
 10
1326.3130411299994
 20
654.36031331592721
 11
1326.3130411299994
 21
640.36031331592721
  0
ARC
  8
_0-1_計細線
  6
CONTINUOUS
 62
    3
 10
1323.3130411299994
 20
640.36031331592721
 40
3
 50
269.99999999999977
 51
359.99999999999966
  0
LINE
  8
_0-0_計極細
  6
CENTER1
 62
    2
 10
1318.3130412119458
 20
684.00168718131499
 11
1318.3130412119458
 21
628.73156934507188
  0
LINE
  8
_0-1_計細線
  6
CONTINUOUS
 62
    3
 10
1312.3130414361608
 20
672.36031331592721
 11
1324.3130411299994
 21
672.36031331592721
  0
LINE
  8
_0-1_計細線
  6
CONTINUOUS
 62
    3
 10
592.3130414361608
 20
672.36031331592721
 11
590.3130414361608
 21
670.36031331592721
  0
LINE
  8
_0-1_計細線
  6
CONTINUOUS
 62
    3
 10
590.3130414361608
 20
660.36031331592721
 11
590.3130414361608
 21
670.36031331592721
  0
LINE
  8
_0-1_計細線
  6
CONTINUOUS
 62
    3
 10
606.31304112999942
 20
670.36031331592721
 11
604.31304112999942
 21
672.36031331592721
  0
LINE
  8
_0-1_計細線
  6
CONTINUOUS
 62
    3
 10
606.31304112999942
 20
660.36031331592721
 11
606.31304112999942
 21
670.36031331592721
  0
LINE
  8
_0-1_計細線
  6
CONTINUOUS
 62
    3
 10
592.3130414361608
 20
656.36031331592721
 11
590.3130414361608
 21
654.36031331592721
  0
LINE
  8
_0-1_計細線
  6
CONTINUOUS
 62
    3
 10
592.3130414361608
 20
658.36031331592721
 11
592.3130414361608
 21
656.36031331592721
  0
LINE
  8
_0-1_計細線
  6
CONTINUOUS
 62
    3
 10
590.3130414361608
 20
660.36031331592721
 11
592.3130414361608
 21
658.36031331592721
  0
LINE
  8
_0-1_計細線
  6
CONTINUOUS
 62
    3
 10
604.31304112999942
 20
656.36031331592721
 11
606.31304112999942
 21
654.36031331592721
  0
LINE
  8
_0-1_計細線
  6
CONTINUOUS
 62
    3
 10
604.31304112999942
 20
658.36031331592721
 11
604.31304112999942
 21
656.36031331592721
  0
LINE
  8
_0-1_計細線
  6
CONTINUOUS
 62
    3
 10
606.31304112999942
 20
660.36031331592721
 11
604.31304112999942
 21
658.36031331592721
  0
LINE
  8
_0-1_計細線
  6
CONTINUOUS
 62
    3
 10
590.3130414361608
 20
654.36031331592721
 11
590.3130414361608
 21
640.36031331592721
  0
ARC
  8
_0-1_計細線
  6
CONTINUOUS
 62
    3
 10
593.3130414361608
 20
640.36031331592721
 40
3
 50
179.99999999999983
 51
269.99999999999977
  0
LINE
  8
_0-1_計細線
  6
CONTINUOUS
 62
    3
 10
593.3130414361608
 20
637.36031331592721
 11
603.31304112999942
 21
637.36031331592721
  0
LINE
  8
_0-1_計細線
  6
CONTINUOUS
 62
    3
 10
606.31304112999942
 20
654.36031331592721
 11
606.31304112999942
 21
640.36031331592721
  0
ARC
  8
_0-1_計細線
  6
CONTINUOUS
 62
    3
 10
603.31304112999942
 20
640.36031331592721
 40
3
 50
269.99999999999977
 51
359.99999999999966
  0
LINE
  8
_0-0_計極細
  6
CENTER1
 62
    2
 10
598.3130412119458
 20
684.00168718131499
 11
598.3130412119458
 21
628.73156934507188
  0
LINE
  8
_0-1_計細線
  6
CONTINUOUS
 62
    3
 10
592.3130414361608
 20
672.36031331592721
 11
604.31304112999942
 21
672.36031331592721
  0
LINE
  8
_0-1_計細線
  6
CONTINUOUS
 62
    3
 10
952.3130414361608
 20
672.36031331592721
 11
950.3130414361608
 21
670.36031331592721
  0
LINE
  8
_0-1_計細線
  6
CONTINUOUS
 62
    3
 10
950.3130414361608
 20
660.36031331592721
 11
950.3130414361608
 21
670.36031331592721
  0
LINE
  8
_0-1_計細線
  6
CONTINUOUS
 62
    3
 10
966.31304112999942
 20
670.36031331592721
 11
964.31304112999931
 21
672.36031331592721
  0
LINE
  8
_0-1_計細線
  6
CONTINUOUS
 62
    3
 10
966.31304112999942
 20
660.36031331592721
 11
966.31304112999942
 21
670.36031331592721
  0
LINE
  8
_0-1_計細線
  6
CONTINUOUS
 62
    3
 10
952.3130414361608
 20
656.36031331592721
 11
950.3130414361608
 21
654.36031331592721
  0
LINE
  8
_0-1_計細線
  6
CONTINUOUS
 62
    3
 10
952.3130414361608
 20
658.36031331592721
 11
952.3130414361608
 21
656.36031331592721
  0
LINE
  8
_0-1_計細線
  6
CONTINUOUS
 62
    3
 10
950.3130414361608
 20
660.36031331592721
 11
952.3130414361608
 21
658.36031331592721
  0
LINE
  8
_0-1_計細線
  6
CONTINUOUS
 62
    3
 10
964.31304112999931
 20
656.36031331592721
 11
966.31304112999942
 21
654.36031331592721
  0
LINE
  8
_0-1_計細線
  6
CONTINUOUS
 62
    3
 10
964.31304112999931
 20
658.36031331592721
 11
964.31304112999931
 21
656.36031331592721
  0
LINE
  8
_0-1_計細線
  6
CONTINUOUS
 62
    3
 10
966.31304112999942
 20
660.36031331592721
 11
964.31304112999931
 21
658.36031331592721
  0
LINE
  8
_0-1_計細線
  6
CONTINUOUS
 62
    3
 10
950.3130414361608
 20
654.36031331592721
 11
950.3130414361608
 21
640.36031331592721
  0
ARC
  8
_0-1_計細線
  6
CONTINUOUS
 62
    3
 10
953.3130414361608
 20
640.36031331592721
 40
3
 50
179.99999999999983
 51
269.99999999999977
  0
LINE
  8
_0-1_計細線
  6
CONTINUOUS
 62
    3
 10
953.3130414361608
 20
637.36031331592721
 11
963.31304112999942
 21
637.36031331592721
  0
LINE
  8
_0-1_計細線
  6
CONTINUOUS
 62
    3
 10
966.31304112999942
 20
654.36031331592721
 11
966.31304112999942
 21
640.36031331592721
  0
ARC
  8
_0-1_計細線
  6
CONTINUOUS
 62
    3
 10
963.31304112999942
 20
640.36031331592721
 40
3
 50
269.99999999999977
 51
359.99999999999966
  0
LINE
  8
_0-0_計極細
  6
CENTER1
 62
    2
 10
958.3130412119458
 20
684.00168718131499
 11
958.3130412119458
 21
628.73156934507188
  0
LINE
  8
_0-1_計細線
  6
CONTINUOUS
 62
    3
 10
952.3130414361608
 20
672.36031331592721
 11
964.31304112999931
 21
672.36031331592721
  0
LINE
  8
_0-1_計細線
  6
CONTINUOUS
 62
    3
 10
188.31304121194577
 20
683.36031331592721
 11
188.31304121194577
 21
660.36031331592721
  0
LINE
  8
_0-1_計細線
  6
CONTINUOUS
 62
    3
 10
1368.3130412119458
 20
660.36031331592721
 11
1368.3130412119458
 21
683.36031331592721
  0
LINE
  8
_0-1_計細線
  6
CONTINUOUS
 62
    3
 10
1368.3130412119458
 20
683.36031331592721
 11
188.31304121194577
 21
683.36031331592721
  0
LINE
  8
_0-1_計細線
  6
CONTINUOUS
 62
    3
 10
188.31304121194577
 20
660.36031331592721
 11
230.31304143616074
 21
660.36031331592721
  0
LINE
  8
_0-1_計細線
  6
CONTINUOUS
 62
    3
 10
1326.3130411299994
 20
660.36031331592721
 11
1368.3130412119458
 21
660.36031331592721
  0
LINE
  8
_0-1_計細線
  6
CONTINUOUS
 62
    3
 10
966.31304112999942
 20
660.36031331592721
 11
1310.3130414361608
 21
660.36031331592721
  0
LINE
  8
_0-1_計細線
  6
CONTINUOUS
 62
    3
 10
246.31304112999936
 20
660.36031331592721
 11
590.3130414361608
 21
660.36031331592721
  0
LINE
  8
_0-1_計細線
  6
CONTINUOUS
 62
    3
 10
606.31304112999953
 20
660.36031331592721
 11
950.3130414361608
 21
660.36031331592721
  0
LINE
  8
_0-5_寸法線
  6
CONTINUOUS
 62
    7
 10
238.31304121194574
 20
637.36031331592721
 11
245.2038845688345
 21
627.53604347889473
  0
LINE
  8
_0-5_寸法線
  6
CONTINUOUS
 62
    7
 10
238.31304121194574
 20
637.36031331592721
 11
239.36855169399442
 21
625.4068243849797
  0
LINE
  8
_0-5_寸法線
  6
CONTINUOUS
 62
    7
 10
238.31304121194574
 20
637.36031331592721
 11
251.58781373500818
 21
600.9795027496408
  0
LINE
  8
_0-5_寸法線
  6
CONTINUOUS
 62
    7
 10
251.58781373500818
 20
600.9795027496408
 11
309.18781373500826
 21
600.9795027496408
  0
TEXT
  8
_0-5_寸法線
 62
    7
 10
251.58781373500818
 20
600.9795027496408
 40
18
 41
0.7999999999999998
 50
0
  1
アンカー
  0
LINE
  8
_0-7_枠細線
  6
CONTINUOUS
 62
    5
 10
271.94451607936219
 20
621.77351288778482
 11
262.94451607936219
 21
639.77351288778482
  0
LINE
  8
_0-7_枠細線
  6
CONTINUOUS
 62
    5
 10
253.94451607936219
 20
621.77351288778482
 11
271.94451607936219
 21
621.77351288778482
  0
LINE
  8
_0-7_枠細線
  6
CONTINUOUS
 62
    5
 10
262.94451607936219
 20
639.77351288778482
 11
253.94451607936219
 21
621.77351288778482
  0
TEXT
  8
_0-7_枠細線
 62
    5
 10
256.78269760113972
 20
621.40511019332826
 40
15
 41
0.8
 50
0
  1
１
  0
LINE
  8
_0-5_寸法線
  6
CONTINUOUS
 62
    7
 10
188.31304121194586
 20
695.36031331592721
 11
188.31304121194577
 21
749.36031331592721
  0
LINE
  8
_0-5_寸法線
  6
CONTINUOUS
 62
    7
 10
188.31304121194577
 20
743.36031331592721
 11
199.90415112741465
 21
746.46614185715748
  0
LINE
  8
_0-5_寸法線
  6
CONTINUOUS
 62
    7
 10
188.31304121194577
 20
743.36031331592721
 11
199.90415112741465
 21
740.25448477469695
  0
LINE
  8
_0-5_寸法線
  6
CONTINUOUS
 62
    7
 10
238.31304121194583
 20
695.36031331592721
 11
238.31304121194574
 21
749.36031331592721
  0
LINE
  8
_0-5_寸法線
  6
CONTINUOUS
 62
    7
 10
238.31304121194574
 20
743.36031331592721
 11
226.72193129647695
 21
740.25448477469706
  0
LINE
  8
_0-5_寸法線
  6
CONTINUOUS
 62
    7
 10
238.31304121194574
 20
743.36031331592721
 11
226.72193129647695
 21
746.46614185715748
  0
LINE
  8
_0-5_寸法線
  6
CONTINUOUS
 62
    7
 10
188.31304121194577
 20
743.36031331592721
 11
238.31304121194574
 21
743.36031331592721
  0
TEXT
  8
_0-5_寸法線
 62
    7
 10
204.3130412119458
 20
743.36031331592721
 40
18
 41
1
 50
0
  1
50
  0
LINE
  8
_0-5_寸法線
  6
CONTINUOUS
 62
    7
 10
238.31304121194574
 20
743.36031331592721
 11
249.90415112741462
 21
746.46614185715737
  0
LINE
  8
_0-5_寸法線
  6
CONTINUOUS
 62
    7
 10
238.31304121194574
 20
743.36031331592721
 11
249.90415112741454
 21
740.25448477469695
  0
LINE
  8
_0-5_寸法線
  6
CONTINUOUS
 62
    7
 10
598.3130412119458
 20
695.36031331592721
 11
598.3130412119458
 21
749.36031331592721
  0
LINE
  8
_0-5_寸法線
  6
CONTINUOUS
 62
    7
 10
598.3130412119458
 20
743.36031331592721
 11
586.7219312964769
 21
740.25448477469706
  0
LINE
  8
_0-5_寸法線
  6
CONTINUOUS
 62
    7
 10
598.3130412119458
 20
743.36031331592721
 11
586.7219312964769
 21
746.46614185715748
  0
LINE
  8
_0-5_寸法線
  6
CONTINUOUS
 62
    7
 10
238.31304121194574
 20
743.36031331592721
 11
598.3130412119458
 21
743.36031331592721
  0
TEXT
  8
_0-5_寸法線
 62
    7
 10
404.81304121194574
 20
743.36031331592699
 40
18
 41
1
 50
0
  1
360
  0
LINE
  8
_0-5_寸法線
  6
CONTINUOUS
 62
    7
 10
598.3130412119458
 20
743.36031331592721
 11
609.90415112741448
 21
746.46614185715737
  0
LINE
  8
_0-5_寸法線
  6
CONTINUOUS
 62
    7
 10
598.3130412119458
 20
743.36031331592721
 11
609.90415112741448
 21
740.25448477469695
  0
LINE
  8
_0-5_寸法線
  6
CONTINUOUS
 62
    7
 10
958.3130412119458
 20
695.36031331592721
 11
958.3130412119458
 21
749.36031331592721
  0
LINE
  8
_0-5_寸法線
  6
CONTINUOUS
 62
    7
 10
958.3130412119458
 20
743.36031331592721
 11
946.7219312964769
 21
740.25448477469706
  0
LINE
  8
_0-5_寸法線
  6
CONTINUOUS
 62
    7
 10
958.3130412119458
 20
743.36031331592721
 11
946.7219312964769
 21
746.46614185715748
  0
LINE
  8
_0-5_寸法線
  6
CONTINUOUS
 62
    7
 10
598.3130412119458
 20
743.36031331592721
 11
958.3130412119458
 21
743.36031331592721
  0
TEXT
  8
_0-5_寸法線
 62
    7
 10
764.8130412119458
 20
743.36031331592699
 40
18
 41
1
 50
0
  1
360
  0
LINE
  8
_0-5_寸法線
  6
CONTINUOUS
 62
    7
 10
958.3130412119458
 20
743.36031331592721
 11
969.90415112741448
 21
746.46614185715737
  0
LINE
  8
_0-5_寸法線
  6
CONTINUOUS
 62
    7
 10
958.3130412119458
 20
743.36031331592721
 11
969.90415112741448
 21
740.25448477469695
  0
LINE
  8
_0-5_寸法線
  6
CONTINUOUS
 62
    7
 10
1318.3130412119458
 20
695.36031331592721
 11
1318.3130412119458
 21
749.36031331592721
  0
LINE
  8
_0-5_寸法線
  6
CONTINUOUS
 62
    7
 10
1318.3130412119458
 20
743.36031331592721
 11
1306.7219312964767
 21
740.25448477469706
  0
LINE
  8
_0-5_寸法線
  6
CONTINUOUS
 62
    7
 10
1318.3130412119458
 20
743.36031331592721
 11
1306.7219312964767
 21
746.46614185715748
  0
LINE
  8
_0-5_寸法線
  6
CONTINUOUS
 62
    7
 10
958.3130412119458
 20
743.36031331592721
 11
1318.3130412119458
 21
743.36031331592721
  0
TEXT
  8
_0-5_寸法線
 62
    7
 10
1124.8130412119458
 20
743.36031331592699
 40
18
 41
1
 50
0
  1
360
  0
LINE
  8
_0-5_寸法線
  6
CONTINUOUS
 62
    7
 10
1318.3130412119458
 20
743.36031331592721
 11
1329.9041511274147
 21
746.46614185715737
  0
LINE
  8
_0-5_寸法線
  6
CONTINUOUS
 62
    7
 10
1318.3130412119458
 20
743.36031331592721
 11
1329.9041511274147
 21
740.25448477469695
  0
LINE
  8
_0-5_寸法線
  6
CONTINUOUS
 62
    7
 10
1368.3130412119458
 20
695.36031331592721
 11
1368.3130412119458
 21
749.36031331592721
  0
LINE
  8
_0-5_寸法線
  6
CONTINUOUS
 62
    7
 10
1368.3130412119458
 20
743.36031331592721
 11
1356.7219312964769
 21
740.25448477469706
  0
LINE
  8
_0-5_寸法線
  6
CONTINUOUS
 62
    7
 10
1368.3130412119458
 20
743.36031331592721
 11
1356.7219312964769
 21
746.46614185715748
  0
LINE
  8
_0-5_寸法線
  6
CONTINUOUS
 62
    7
 10
1318.3130412119458
 20
743.36031331592721
 11
1368.3130412119458
 21
743.36031331592721
  0
TEXT
  8
_0-5_寸法線
 62
    7
 10
1334.313041211946
 20
743.36031331592721
 40
18
 41
1
 50
0
  1
50
  0
ENDSEC
  0
EOF
