  0
SECTION
  2
HEADER
  9
$ACADVER
  1
AC1009
  9
$INSBASE
 10
0
 20
0
 30
0
  9
$EXTMIN
 10
0
 20
0
  9
$EXTMAX
 10
2376
 20
1680
  9
$LIMMIN
 10
0
 20
0
  9
$LIMMAX
 10
2376
 20
1680
  9
$LTSCALE
 40
8
  0
ENDSEC
  0
SECTION
  2
TABLES
  0
TABLE
  2
LTYPE
 70
     9
  0
LTYPE
  2
CONTINUOUS
 70
    64
  3
実線
 72
    65
 73
     0
 40
0.0
  0
LTYPE
  2
DASHED1
 70
    64
  3
--  --  --  --  --  --  --  --  
 72
    65
 73
     2
 40
2.5
 49
1.25
 49
-1.25
  0
LTYPE
  2
DASHED2
 70
    64
  3
----    ----    ----    ----    
 72
    65
 73
     2
 40
5.0
 49
2.5
 49
-2.5
  0
LTYPE
  2
DASHED3
 70
    64
  3
------  ------  ------  ------  
 72
    65
 73
     2
 40
5.0
 49
3.75
 49
-1.25
  0
LTYPE
  2
CENTER1
 70
    64
  3
----- - ----- - ----- - ----- - 
 72
    65
 73
     4
 40
10.0
 49
6.25
 49
-1.25
 49
1.25
 49
-1.25
  0
LTYPE
  2
CENTER2
 70
    64
  3
----------  --  ----------  --  
 72
    65
 73
     4
 40
20.0
 49
12.5
 49
-2.5
 49
2.5
 49
-2.5
  0
LTYPE
  2
PHANTOM1
 70
    64
  3
--- - - --- - - --- - - --- - - 
 72
    65
 73
     6
 40
10.0
 49
3.25
 49
-1.25
 49
1.25
 49
-1.25
 49
1.25
 49
-1.25
  0
LTYPE
  2
PHANTOM2
 70
    64
  3
--------  -  -  --------  -  -  
 72
    65
 73
     6
 40
20.0
 49
10.0
 49
-2.5
 49
1.25
 49
-2.5
 49
1.25
 49
-2.5
  0
LTYPE
  2
DOT
 70
    64
  3
-   -   -   -   -   -   -   -   
 72
    65
 73
     2
 40
2.5
 49
0.625
 49
-1.875
  0
LTYPE
  2
DUMMY
 70
    64
  3
ダミー
 72
    65
 73
     0
 40
0.0
  0
LTYPE
  2
RAND1
 70
    64
  3
ランダム線1
 72
    65
 73
     4
 40
10.0
 49
1.0
 49
-2.0
 49
3.0
 49
-4.0
  0
LTYPE
  2
RAND2
 70
    64
  3
ランダム線2
 72
    65
 73
     4
 40
14.0
 49
2.0
 49
-3.0
 49
4.0
 49
-5.0
  0
LTYPE
  2
RAND3
 70
    64
  3
ランダム線3
 72
    65
 73
     4
 40
18.0
 49
3.0
 49
-4.0
 49
5.0
 49
-6.0
  0
LTYPE
  2
RAND4
 70
    64
  3
ランダム線4
 72
    65
 73
     4
 40
22.0
 49
4.0
 49
-5.0
 49
6.0
 49
-7.0
  0
LTYPE
  2
RAND5
 70
    64
  3
ランダム線5
 72
    65
 73
     4
 40
26.0
 49
5.0
 49
-6.0
 49
7.0
 49
-8.0
  0
LTYPE
  2
LONG1
 70
    64
  3
----------  --  ----------  --  
 72
    65
 73
     4
 40
40.0
 49
32.5
 49
-2.5
 49
2.5
 49
-2.5
  0
LTYPE
  2
LONG2
 70
    64
  3
--------  -  -  --------  -  -  
 72
    65
 73
     6
 40
40.0
 49
30.0
 49
-2.5
 49
1.25
 49
-2.5
 49
1.25
 49
-2.5
  0
LTYPE
  2
LONG3
 70
    64
  3
+++++++++++++++..+++++++++++++++
 72
    65
 73
     2
 40
40.0
 49
37.5
 49
-2.5
  0
LTYPE
  2
LONG4
 70
    64
  3
+++++++++++++++..+++++++++++++++
 72
    65
 73
     2
 40
80.0
 49
75.0
 49
-5.0
  0
LTYPE
  2
LONG5
 70
    64
  3
----------  --  ----------  --  
 72
    65
 73
     4
 40
60.0
 49
37.5
 49
-7.5
 49
7.5
 49
-7.5
  0
LTYPE
  2
dashed
 70
   64
  3
-------   -------------   ------
 72
   65
 73
    2
 40
7.5
 49
6
 49
-1.5
  0
LTYPE
  2
dashed_spaced
 70
   64
  3
----        --------        ----
 72
   65
 73
    2
 40
12
 49
6
 49
-6
  0
LTYPE
  2
long_dashed_dotted
 70
   64
  3
------------- --- --------------
 72
   65
 73
    4
 40
15.25
 49
12
 49
-1.5
 49
0.25
 49
-1.5
  0
LTYPE
  2
long_dashed_double-dotted
 70
   64
  3
----------- --- --- ------------
 72
   65
 73
    6
 40
17
 49
12
 49
-1.5
 49
0.25
 49
-1.5
 49
0.25
 49
-1.5
  0
LTYPE
  2
long_dashed_triplicate-dotted
 70
   64
  3
--------- --- --- --- ----------
 72
   65
 73
    8
 40
18.75
 49
12
 49
-1.5
 49
0.25
 49
-1.5
 49
0.25
 49
-1.5
 49
0.25
 49
-1.5
  0
LTYPE
  2
dotted
 70
   64
  3
   -       -       -       -    
 72
   65
 73
    2
 40
1.75
 49
0.25
 49
-1.5
  0
LTYPE
  2
chain
 70
   64
  3
-------------- -- --------------
 72
   65
 73
    4
 40
18.5
 49
12
 49
-1.5
 49
3.5
 49
-1.5
  0
LTYPE
  2
chain_double_dash
 70
   64
  3
------------ -- -- -------------
 72
   65
 73
    6
 40
23.5
 49
12
 49
-1.5
 49
3.5
 49
-1.5
 49
3.5
 49
-1.5
  0
LTYPE
  2
dashed_dotted
 70
   64
  3
-----------     -     ----------
 72
   65
 73
    4
 40
9.25
 49
6
 49
-1.5
 49
0.25
 49
-1.5
  0
LTYPE
  2
double-dashed_dotted
 70
   64
  3
------   -----------   -   -----
 72
   65
 73
    6
 40
16.75
 49
6
 49
-1.5
 49
6
 49
-1.5
 49
0.25
 49
-1.5
  0
LTYPE
  2
dashed_double-dotted
 70
   64
  3
---------    -    -    ---------
 72
   65
 73
    6
 40
11
 49
6
 49
-1.5
 49
0.25
 49
-1.5
 49
0.25
 49
-1.5
  0
LTYPE
  2
double-dashed_double-dotted
 70
   64
  3
-----   ---------   -   -   ----
 72
   65
 73
    8
 40
18.5
 49
6
 49
-1.5
 49
6
 49
-1.5
 49
0.25
 49
-1.5
 49
0.25
 49
-1.5
  0
LTYPE
  2
dashed_triplicate-dotted
 70
   64
  3
-------    -    -    -    ------
 72
   65
 73
    8
 40
12.75
 49
6
 49
-1.5
 49
0.25
 49
-1.5
 49
0.25
 49
-1.5
 49
0.25
 49
-1.5
  0
LTYPE
  2
double-dashed_triplicate-dotted
 70
   64
  3
-----  ---------  -  -  -  -----
 72
   65
 73
   10
 40
20.25
 49
6
 49
-1.5
 49
6
 49
-1.5
 49
0.25
 49
-1.5
 49
0.25
 49
-1.5
 49
0.25
 49
-1.5
  0
LTYPE
  2
undefined
 70
   64
  3
--------------------------------
 72
   65
 73
    0
 40
0
  0
ENDTAB
  0
TABLE
  2
STYLE
  5
3
100
AcDbSymbolTable
 70
     1
  0
STYLE
  5
10
100
AcDbSymbolTableRecord
100
AcDbTextStyleTableRecord
  2
STANDARD
 70
     0
 40
0.0
 41
1.0
 50
0.0
 71
     0
 42
0.2
  3
txt
  4
bigfont.shx
  0
STYLE
  5
26
100
AcDbSymbolTableRecord
100
AcDbTextStyleTableRecord
  2
TATEGAKI
 70
    68
 40
0.0
 41
1.0
 50
0.0
 71
     0
 42
1.0
  3
txt
  4
bigfont.shx
  0
ENDTAB
  0
TABLE
  2
LAYER
 70
    9
  0
LAYER
  2
_0-0_計極細
 70
   64
 62
    7
  6
CONTINUOUS
  0
LAYER
  2
_0-1_計細線
 70
   64
 62
    7
  6
CONTINUOUS
  0
LAYER
  2
_0-5_寸法線
 70
   64
 62
    7
  6
CONTINUOUS
  0
LAYER
  2
_0-7_枠細線
 70
   64
 62
    7
  6
CONTINUOUS
  0
LAYER
  2
_0-8_枠中線
 70
   64
 62
    7
  6
CONTINUOUS
  0
LAYER
  2
_1-2_極細2
 70
   64
 62
    7
  6
CONTINUOUS
  0
LAYER
  2
_1-3_細線2
 70
   64
 62
    7
  6
CONTINUOUS
  0
LAYER
  2
_1-5_寸法2
 70
   64
 62
    7
  6
CONTINUOUS
  0
LAYER
  2
ADD_LINE
 70
   64
 62
    7
  6
CONTINUOUS
  0
ENDTAB
  0
ENDSEC
  0
SECTION
  2
BLOCKS
  0
ENDSEC
  0
SECTION
  2
ENTITIES
  0
LINE
  8
_0-8_枠中線
  6
CONTINUOUS
 62
    5
 10
96
 20
96
 11
96
 21
1536
  0
LINE
  8
_0-8_枠中線
  6
CONTINUOUS
 62
    5
 10
96
 20
1536
 11
2280
 21
1536
  0
LINE
  8
_0-8_枠中線
  6
CONTINUOUS
 62
    5
 10
2280
 20
1536
 11
2280
 21
96
  0
LINE
  8
_0-8_枠中線
  6
CONTINUOUS
 62
    5
 10
2280
 20
96
 11
96
 21
96
  0
LINE
  8
_0-7_枠細線
  6
CONTINUOUS
 62
    5
 10
1896
 20
288
 11
1896
 21
160
  0
TEXT
  8
_0-7_枠細線
 62
    5
 10
1500
 20
156
 40
28
 41
1
 50
0
  1
備考
  7
TATEGAKI
  0
TEXT
  8
_0-7_枠細線
 62
    5
 10
1500
 20
220
 40
28
 41
1
 50
0
  1
品番
  7
TATEGAKI
  0
TEXT
  8
_0-7_枠細線
 62
    5
 10
1500
 20
284
 40
28
 41
1
 50
0
  1
品名
  7
TATEGAKI
  0
LINE
  8
_0-7_枠細線
  6
CONTINUOUS
 62
    5
 10
1896
 20
224
 11
1480
 21
224
  0
LINE
  8
_0-7_枠細線
  6
CONTINUOUS
 62
    5
 10
1520
 20
288
 11
1520
 21
96
  0
LINE
  8
_0-8_枠中線
  6
CONTINUOUS
 62
    5
 10
2280
 20
288
 11
1480
 21
288
  0
LINE
  8
_0-8_枠中線
  6
CONTINUOUS
 62
    5
 10
1480
 20
288
 11
1480
 21
96
  0
LINE
  8
_0-7_枠細線
  6
CONTINUOUS
 62
    5
 10
1992
 20
288
 11
1992
 21
96
  0
TEXT
  8
_0-7_枠細線
 62
    5
 10
1908
 20
256
 40
24
 41
1
 50
0
  1
縮　尺
  0
LINE
  8
_0-7_枠細線
  6
CONTINUOUS
 62
    5
 10
1896
 20
248
 11
1992
 21
248
  0
LINE
  8
_0-7_枠細線
  6
CONTINUOUS
 62
    5
 10
1992
 20
160
 11
1480
 21
160
  0
LINE
  8
_0-7_枠細線
  6
CONTINUOUS
 62
    5
 10
2280
 20
144
 11
1992
 21
144
  0
LINE
  8
_0-7_枠細線
  6
CONTINUOUS
 62
    5
 10
1992
 20
192
 11
2280
 21
192
  0
LINE
  8
_0-7_枠細線
  6
CONTINUOUS
 62
    5
 10
2280
 20
224
 11
1992
 21
224
  0
TEXT
  8
_0-7_枠細線
 62
    5
 10
2008
 20
236
 40
40
 41
0.8
 50
0
  1
株式会社シマブン
  0
TEXT
  8
_0-7_枠細線
 62
    5
 10
2004
 20
96
 40
24
 41
1
 50
0
  1
年月日
  0
TEXT
  8
_0-7_枠細線
 62
    5
 10
2004
 20
120
 40
24
 41
1
 50
0
  1
作　成
  0
TEXT
  8
_0-7_枠細線
 62
    5
 10
2010
 20
196
 40
24
 41
1
 50
0
  1
承 認
  0
LINE
  8
_0-7_枠細線
  6
CONTINUOUS
 62
    5
 10
2088
 20
224
 11
2088
 21
96
  0
TEXT
  8
_0-7_枠細線
 62
    5
 10
2106
 20
196
 40
24
 41
1
 50
0
  1
検 図
  0
LINE
  8
_0-7_枠細線
  6
CONTINUOUS
 62
    5
 10
2184
 20
224
 11
2184
 21
144
  0
TEXT
  8
_0-7_枠細線
 62
    5
 10
2202
 20
196
 40
24
 41
1
 50
0
  1
設 計
  0
TEXT
  8
_0-7_枠細線
 62
    5
 10
2200
 20
152
 40
32
 41
1
 50
0
  1
藤戸
  0
LINE
  8
_0-1_計細線
  6
CONTINUOUS
 62
    3
 10
1723.4465993058161
 20
796.64196472428898
 11
1723.4465943692962
 21
796.6433281967345
  0
TEXT
  8
_0-7_枠細線
 62
    5
 10
2008
 20
152
 40
32
 41
1
 50
0
  1
大野
  0
TEXT
  8
_0-7_枠細線
 62
    5
 10
2104
 20
152
 40
32
 41
1
 50
0
  1
深川
  0
TEXT
  8
_0-7_枠細線
 62
    5
 10
2096
 20
108
 40
24
 41
0.6666666666666666
 50
0
  1
２０１５年０４月０１日
  0
LINE
  8
_1-5_寸法2
  6
CONTINUOUS
 62
    7
 10
413.3994778067887
 20
488.02154847180191
 11
413.3994778067887
 21
554.0215490350148
  0
LINE
  8
_1-5_寸法2
  6
CONTINUOUS
 62
    7
 10
413.3994778067887
 20
538.0215490350148
 11
397.94466458616353
 21
533.88044431337448
  0
LINE
  8
_1-5_寸法2
  6
CONTINUOUS
 62
    7
 10
413.3994778067887
 20
538.0215490350148
 11
397.94466458616364
 21
542.16265375665523
  0
LINE
  8
_1-5_寸法2
  6
CONTINUOUS
 62
    7
 10
435.3994778067887
 20
488.02154847180191
 11
435.3994778067887
 21
554.0215490350148
  0
LINE
  8
_1-5_寸法2
  6
CONTINUOUS
 62
    7
 10
375.5800424786903
 20
538.0215490350148
 11
435.3994778067887
 21
538.0215490350148
  0
TEXT
  8
_1-5_寸法2
 62
    7
 10
375.5800424786903
 20
538.0215490350148
 40
24
 41
1
 50
0
  1
5.5
  0
LINE
  8
_1-5_寸法2
  6
CONTINUOUS
 62
    7
 10
435.3994778067887
 20
538.0215490350148
 11
450.85429102741386
 21
542.162653756655
  0
LINE
  8
_1-5_寸法2
  6
CONTINUOUS
 62
    7
 10
435.3994778067887
 20
538.0215490350148
 11
450.85429102741375
 21
533.88044431337437
  0
LINE
  8
_1-5_寸法2
  6
CONTINUOUS
 62
    7
 10
475.3994778067887
 20
488.02154847180191
 11
475.3994778067887
 21
554.0215490350148
  0
LINE
  8
_1-5_寸法2
  6
CONTINUOUS
 62
    7
 10
475.3994778067887
 20
538.0215490350148
 11
459.94466458616353
 21
533.88044431337448
  0
LINE
  8
_1-5_寸法2
  6
CONTINUOUS
 62
    7
 10
475.3994778067887
 20
538.0215490350148
 11
459.94466458616364
 21
542.16265375665523
  0
LINE
  8
_1-5_寸法2
  6
CONTINUOUS
 62
    7
 10
435.3994778067887
 20
538.0215490350148
 11
475.3994778067887
 21
538.0215490350148
  0
TEXT
  8
_1-5_寸法2
 62
    7
 10
443.3994778067887
 20
538.0215490350148
 40
24
 41
1
 50
0
  1
10
  0
LINE
  8
_1-2_極細2
  6
CONTINUOUS
 62
    2
 10
702.5994782149852
 20
447.22154847180155
 11
705.39947821498504
 21
447.22154847180155
  0
LINE
  8
_1-3_細線2
  6
CONTINUOUS
 62
    4
 10
532.5994778067876
 20
465.62154847180165
 11
502.19947780678979
 21
465.62154847180165
  0
LINE
  8
_1-3_細線2
  6
CONTINUOUS
 62
    4
 10
502.19947780678979
 20
465.62154847180165
 11
502.19947780678979
 21
406.42154847180211
  0
LINE
  8
_1-3_細線2
  6
CONTINUOUS
 62
    4
 10
440.19947780678797
 20
465.62154847180165
 11
470.59947780678851
 21
465.62154847180165
  0
LINE
  8
_1-3_細線2
  6
CONTINUOUS
 62
    4
 10
470.59947780678851
 20
465.62154847180165
 11
470.59947780678851
 21
406.42154847180211
  0
ARC
  8
_1-3_細線2
  6
CONTINUOUS
 62
    4
 10
532.59947780678863
 20
465.62154847180193
 40
4.7999999999999989
 50
0
 51
89.999999999999915
  0
LINE
  8
_1-3_細線2
  6
CONTINUOUS
 62
    4
 10
497.3994778067887
 20
465.62154847180193
 11
497.3994778067887
 21
406.42154847180211
  0
LINE
  8
_1-3_細線2
  6
CONTINUOUS
 62
    4
 10
532.59947780678863
 20
470.42154847180211
 11
502.19947780678876
 21
470.42154847180211
  0
ARC
  8
_1-3_細線2
  6
CONTINUOUS
 62
    4
 10
502.19947780678876
 20
465.62154847180193
 40
4.7999999999999989
 50
89.999999999999915
 51
179.99999999999983
  0
LINE
  8
_1-3_細線2
  6
CONTINUOUS
 62
    4
 10
475.3994778067887
 20
465.62154847180193
 11
475.3994778067887
 21
406.42154847180211
  0
ARC
  8
_1-3_細線2
  6
CONTINUOUS
 62
    4
 10
470.59947780678851
 20
465.62154847180193
 40
4.7999999999999989
 50
0
 51
89.999999999999915
  0
LINE
  8
_1-3_細線2
  6
CONTINUOUS
 62
    4
 10
440.19947780678763
 20
470.42154847180211
 11
470.59947780678851
 21
470.42154847180211
  0
ARC
  8
_1-3_細線2
  6
CONTINUOUS
 62
    4
 10
440.19947780678763
 20
465.62154847180193
 40
4.7999999999999989
 50
89.999999999999915
 51
179.99999999999983
  0
LINE
  8
_1-3_細線2
  6
CONTINUOUS
 62
    4
 10
470.59947780678851
 20
406.42154847180211
 11
475.3994778067887
 21
406.42154847180211
  0
LINE
  8
_1-3_細線2
  6
CONTINUOUS
 62
    4
 10
497.3994778067887
 20
406.42154847180211
 11
502.19947780678979
 21
406.42154847180211
  0
LINE
  8
_1-3_細線2
  6
CONTINUOUS
 62
    4
 10
537.3994778067887
 20
446.42154790858933
 11
532.5994778067876
 21
446.42154790858905
  0
LINE
  8
_1-3_細線2
  6
CONTINUOUS
 62
    4
 10
435.39947780678779
 20
446.42154790858933
 11
440.19947780678888
 21
446.42154790858905
  0
LINE
  8
_1-3_細線2
  6
CONTINUOUS
 62
    4
 10
532.5994778067876
 20
465.62154847180165
 11
532.5994778067876
 21
446.42154790858933
  0
LINE
  8
_1-3_細線2
  6
CONTINUOUS
 62
    4
 10
440.19947780678797
 20
465.62154847180165
 11
440.19947780678888
 21
446.42154790858933
  0
LINE
  8
_1-3_細線2
  6
CONTINUOUS
 62
    4
 10
537.3994778067887
 20
465.62154847180193
 11
537.3994778067887
 21
446.42154790858933
  0
LINE
  8
_1-3_細線2
  6
CONTINUOUS
 62
    4
 10
435.39947780678779
 20
465.62154847180193
 11
435.39947780678779
 21
446.42154790858933
  0
LINE
  8
_1-3_細線2
  6
CONTINUOUS
 62
    4
 10
413.39947780679108
 20
412.62154790858949
 11
470.59947780679033
 21
412.62154790858949
  0
LINE
  8
_1-3_細線2
  6
CONTINUOUS
 62
    4
 10
413.39947780679108
 20
440.22154790858951
 11
470.59947780679033
 21
440.22154790858951
  0
LINE
  8
_1-3_細線2
  6
CONTINUOUS
 62
    4
 10
475.39947780679017
 20
440.22154790858951
 11
497.3994778067887
 21
440.22154790858951
  0
LINE
  8
_1-3_細線2
  6
CONTINUOUS
 62
    4
 10
475.39947780679017
 20
412.62154790858949
 11
497.3994778067887
 21
412.62154790858949
  0
LINE
  8
_1-3_細線2
  6
CONTINUOUS
 62
    4
 10
559.39947821498595
 20
412.62154790858949
 11
502.19947821498693
 21
412.62154790858949
  0
LINE
  8
_1-3_細線2
  6
CONTINUOUS
 62
    4
 10
559.39947821498595
 20
440.22154790858951
 11
502.19947821498693
 21
440.22154790858951
  0
LINE
  8
_1-3_細線2
  6
CONTINUOUS
 62
    4
 10
626.1994782149859
 20
436.76154847180197
 11
626.1994782149859
 21
420.88154847180186
  0
LINE
  8
_1-3_細線2
  6
CONTINUOUS
 62
    4
 10
626.1994782149859
 20
465.62154847180165
 11
626.1994782149859
 21
406.42154847180211
  0
LINE
  8
_1-3_細線2
  6
CONTINUOUS
 62
    4
 10
594.59947821498395
 20
465.62154847180165
 11
564.19947821498431
 21
465.62154847180165
  0
LINE
  8
_1-3_細線2
  6
CONTINUOUS
 62
    4
 10
656.59947821498486
 20
465.62154847180165
 11
626.1994782149859
 21
465.62154847180165
  0
LINE
  8
_1-3_細線2
  6
CONTINUOUS
 62
    4
 10
564.19947821498431
 20
465.62154847180165
 11
564.19947821498431
 21
406.42154847180211
  0
ARC
  8
_1-3_細線2
  6
CONTINUOUS
 62
    4
 10
656.59947821498611
 20
465.62154847180193
 40
4.7999999999999989
 50
0
 51
89.999999999999915
  0
LINE
  8
_1-3_細線2
  6
CONTINUOUS
 62
    4
 10
621.39947821498481
 20
465.62154847180193
 11
621.39947821498481
 21
406.42154847180211
  0
LINE
  8
_1-3_細線2
  6
CONTINUOUS
 62
    4
 10
656.59947821498611
 20
470.42154847180211
 11
626.19947821498465
 21
470.42154847180211
  0
ARC
  8
_1-3_細線2
  6
CONTINUOUS
 62
    4
 10
626.19947821498465
 20
465.62154847180193
 40
4.7999999999999989
 50
89.999999999999915
 51
179.99999999999983
  0
ARC
  8
_1-3_細線2
  6
CONTINUOUS
 62
    4
 10
594.5994782149852
 20
465.62154847180193
 40
4.7999999999999989
 50
0
 51
89.999999999999915
  0
LINE
  8
_1-3_細線2
  6
CONTINUOUS
 62
    4
 10
559.39947821498595
 20
465.62154847180193
 11
559.39947821498595
 21
406.42154847180211
  0
LINE
  8
_1-3_細線2
  6
CONTINUOUS
 62
    4
 10
594.5994782149852
 20
470.42154847180211
 11
564.19947821498613
 21
470.42154847180211
  0
ARC
  8
_1-3_細線2
  6
CONTINUOUS
 62
    4
 10
564.19947821498613
 20
465.62154847180193
 40
4.7999999999999989
 50
89.999999999999915
 51
179.99999999999983
  0
LINE
  8
_1-3_細線2
  6
CONTINUOUS
 62
    4
 10
559.39947821498595
 20
406.42154847180211
 11
564.19947821498431
 21
406.42154847180211
  0
LINE
  8
_1-3_細線2
  6
CONTINUOUS
 62
    4
 10
621.39947821498481
 20
406.42154847180211
 11
626.1994782149859
 21
406.42154847180211
  0
LINE
  8
_1-3_細線2
  6
CONTINUOUS
 62
    4
 10
661.39947821498595
 20
446.42154790858933
 11
656.59947821498486
 21
446.42154790858933
  0
LINE
  8
_1-3_細線2
  6
CONTINUOUS
 62
    4
 10
599.39947821498504
 20
446.42154790858933
 11
594.59947821498395
 21
446.42154790858933
  0
LINE
  8
_1-3_細線2
  6
CONTINUOUS
 62
    4
 10
594.59947821498395
 20
465.62154847180165
 11
594.59947821498395
 21
446.42154790858933
  0
LINE
  8
_1-3_細線2
  6
CONTINUOUS
 62
    4
 10
656.59947821498486
 20
465.62154847180165
 11
656.59947821498486
 21
446.42154790858933
  0
LINE
  8
_1-3_細線2
  6
CONTINUOUS
 62
    4
 10
661.39947821498595
 20
465.62154847180193
 11
661.39947821498595
 21
446.42154790858933
  0
LINE
  8
_1-3_細線2
  6
CONTINUOUS
 62
    4
 10
599.39947821498504
 20
465.62154847180193
 11
599.39947821498504
 21
446.42154790858933
  0
LINE
  8
_1-3_細線2
  6
CONTINUOUS
 62
    4
 10
621.39947862318422
 20
412.62154790858949
 11
564.19947862318531
 21
412.62154790858949
  0
LINE
  8
_1-3_細線2
  6
CONTINUOUS
 62
    4
 10
621.39947862318422
 20
440.22154790858951
 11
564.19947862318531
 21
440.22154790858951
  0
LINE
  8
_1-3_細線2
  6
CONTINUOUS
 62
    4
 10
408.59947780679272
 20
465.62154847180165
 11
408.59947780679272
 21
406.42154847180211
  0
LINE
  8
_1-3_細線2
  6
CONTINUOUS
 62
    4
 10
378.19947780679308
 20
465.62154847180165
 11
408.59947780679272
 21
465.62154847180165
  0
LINE
  8
_1-3_細線2
  6
CONTINUOUS
 62
    4
 10
413.39947780679108
 20
465.62154847180193
 11
413.39947780679108
 21
406.42154847180211
  0
ARC
  8
_1-3_細線2
  6
CONTINUOUS
 62
    4
 10
408.59947780679124
 20
465.62154847180193
 40
4.7999999999999989
 50
0
 51
89.999999999999915
  0
LINE
  8
_1-3_細線2
  6
CONTINUOUS
 62
    4
 10
378.19947780679195
 20
470.42154847180211
 11
408.59947780679124
 21
470.42154847180211
  0
ARC
  8
_1-3_細線2
  6
CONTINUOUS
 62
    4
 10
378.19947780679195
 20
465.62154847180193
 40
4.7999999999999989
 50
89.999999999999915
 51
179.99999999999983
  0
LINE
  8
_1-3_細線2
  6
CONTINUOUS
 62
    4
 10
408.59947780679272
 20
406.42154847180211
 11
413.39947780679108
 21
406.42154847180211
  0
LINE
  8
_1-3_細線2
  6
CONTINUOUS
 62
    4
 10
373.39947780679199
 20
446.42154790858933
 11
378.19947780679308
 21
446.42154790858905
  0
LINE
  8
_1-3_細線2
  6
CONTINUOUS
 62
    4
 10
378.19947780679308
 20
465.62154847180165
 11
378.19947780679308
 21
446.42154790858933
  0
LINE
  8
_1-3_細線2
  6
CONTINUOUS
 62
    4
 10
373.39947780679199
 20
465.62154847180193
 11
373.39947780679199
 21
446.42154790858933
  0
LINE
  8
_1-2_極細2
  6
CONTINUOUS
 62
    2
 10
611.39947780678904
 20
408.42154847180211
 11
611.3994778067887
 21
406.42154847180183
  0
LINE
  8
_1-2_極細2
  6
CONTINUOUS
 62
    2
 10
611.3994778067887
 20
404.02154847180202
 11
611.3994778067887
 21
402.02154847180202
  0
LINE
  8
_1-2_極細2
  6
CONTINUOUS
 62
    2
 10
606.39947780678904
 20
406.42154847180211
 11
606.39947780678904
 21
404.02154847180202
  0
LINE
  8
_1-2_極細2
  6
CONTINUOUS
 62
    2
 10
608.39947780678904
 20
406.42154847180211
 11
608.39947780678904
 21
404.02154847180202
  0
LINE
  8
_1-2_極細2
  6
CONTINUOUS
 62
    2
 10
606.39947780678904
 20
404.80000000000007
 11
608.39947780678904
 21
404.80000000000007
  0
LINE
  8
_1-2_極細2
  6
CONTINUOUS
 62
    2
 10
606.39947780678904
 20
405.60000000000008
 11
608.39947780678904
 21
405.60000000000008
  0
LINE
  8
_1-2_極細2
  6
CONTINUOUS
 62
    2
 10
606.39947780678904
 20
406.40000000000009
 11
608.39947780678904
 21
406.40000000000009
  0
LINE
  8
_1-2_極細2
  6
CONTINUOUS
 62
    2
 10
583.39947780678904
 20
408.42154847180211
 11
583.3994778067896
 21
406.42154847180211
  0
LINE
  8
_1-2_極細2
  6
CONTINUOUS
 62
    2
 10
583.3994778067896
 20
404.02154847180202
 11
583.3994778067887
 21
402.02154847180202
  0
LINE
  8
_1-2_極細2
  6
CONTINUOUS
 62
    2
 10
586.39947780678904
 20
406.42154847180211
 11
586.39947780678904
 21
404.02154847180202
  0
LINE
  8
_1-2_極細2
  6
CONTINUOUS
 62
    2
 10
588.39947780678904
 20
406.42154847180211
 11
588.39947780678904
 21
404.02154847180202
  0
LINE
  8
_1-2_極細2
  6
CONTINUOUS
 62
    2
 10
586.39947780678904
 20
404.80000000000007
 11
588.39947780678904
 21
404.80000000000007
  0
LINE
  8
_1-2_極細2
  6
CONTINUOUS
 62
    2
 10
586.39947780678904
 20
405.60000000000008
 11
588.39947780678904
 21
405.60000000000008
  0
LINE
  8
_1-2_極細2
  6
CONTINUOUS
 62
    2
 10
586.39947780678904
 20
406.40000000000009
 11
588.39947780678904
 21
406.40000000000009
  0
LINE
  8
_1-2_極細2
  6
CONTINUOUS
 62
    2
 10
583.3994778067896
 20
408.42154847180211
 11
611.3994778067887
 21
408.42154847180211
  0
LINE
  8
_1-2_極細2
  6
CONTINUOUS
 62
    2
 10
583.3994778067896
 20
407.20000000000005
 11
611.39947780678881
 21
407.20000000000005
  0
LINE
  8
_1-2_極細2
  6
CONTINUOUS
 62
    2
 10
583.3994778067896
 20
408.00000000000006
 11
611.39947780678881
 21
408.00000000000006
  0
LINE
  8
_1-2_極細2
  6
CONTINUOUS
 62
    2
 10
583.39947780678904
 20
402.40000000000003
 11
611.3994778067887
 21
402.40000000000003
  0
LINE
  8
_1-2_極細2
  6
CONTINUOUS
 62
    2
 10
583.39947780678904
 20
403.20000000000005
 11
611.3994778067887
 21
403.20000000000005
  0
LINE
  8
_1-2_極細2
  6
CONTINUOUS
 62
    2
 10
583.39947780678904
 20
404.00000000000006
 11
611.3994778067887
 21
404.00000000000006
  0
LINE
  8
_1-2_極細2
  6
CONTINUOUS
 62
    2
 10
583.39947780678904
 20
402.02154847180202
 11
611.3994778067887
 21
402.02154847180202
  0
LINE
  8
_1-2_極細2
  6
CONTINUOUS
 62
    2
 10
446.3994778067896
 20
406.42154847180211
 11
446.3994778067896
 21
404.02154847180202
  0
LINE
  8
_1-2_極細2
  6
CONTINUOUS
 62
    2
 10
448.3994778067896
 20
406.42154847180211
 11
448.3994778067896
 21
404.02154847180202
  0
LINE
  8
_1-2_極細2
  6
CONTINUOUS
 62
    2
 10
446.39947780678972
 20
404.80000000000007
 11
448.39947780678926
 21
404.80000000000007
  0
LINE
  8
_1-2_極細2
  6
CONTINUOUS
 62
    2
 10
446.39947780678972
 20
405.60000000000008
 11
448.39947780678926
 21
405.60000000000008
  0
LINE
  8
_1-2_極細2
  6
CONTINUOUS
 62
    2
 10
446.39947780678972
 20
406.40000000000009
 11
448.39947780678926
 21
406.40000000000009
  0
LINE
  8
_1-2_極細2
  6
CONTINUOUS
 62
    2
 10
451.39947780678904
 20
404.02154847180202
 11
451.39947780678904
 21
402.02154847180202
  0
LINE
  8
_1-2_極細2
  6
CONTINUOUS
 62
    2
 10
451.3994778067896
 20
408.42154847180211
 11
451.39947780678904
 21
406.42154847180183
  0
LINE
  8
_1-2_極細2
  6
CONTINUOUS
 62
    2
 10
423.39947780678995
 20
404.02154847180202
 11
423.39947780678904
 21
402.02154847180202
  0
LINE
  8
_1-2_極細2
  6
CONTINUOUS
 62
    2
 10
423.3994778067896
 20
408.42154847180211
 11
423.39947780678995
 21
406.42154847180211
  0
LINE
  8
_1-2_極細2
  6
CONTINUOUS
 62
    2
 10
426.3994778067896
 20
406.42154847180211
 11
426.3994778067896
 21
404.02154847180202
  0
LINE
  8
_1-2_極細2
  6
CONTINUOUS
 62
    2
 10
428.3994778067896
 20
406.42154847180211
 11
428.3994778067896
 21
404.02154847180202
  0
LINE
  8
_1-2_極細2
  6
CONTINUOUS
 62
    2
 10
426.39947780678949
 20
404.80000000000007
 11
428.39947780678995
 21
404.80000000000007
  0
LINE
  8
_1-2_極細2
  6
CONTINUOUS
 62
    2
 10
426.39947780678949
 20
405.60000000000008
 11
428.39947780678995
 21
405.60000000000008
  0
LINE
  8
_1-2_極細2
  6
CONTINUOUS
 62
    2
 10
426.39947780678949
 20
406.40000000000009
 11
428.39947780678995
 21
406.40000000000009
  0
LINE
  8
_1-2_極細2
  6
CONTINUOUS
 62
    2
 10
423.3994778067896
 20
402.02154847180202
 11
451.39947780678904
 21
402.02154847180202
  0
LINE
  8
_1-2_極細2
  6
CONTINUOUS
 62
    2
 10
423.3994778067896
 20
402.40000000000003
 11
451.39947780678904
 21
402.40000000000003
  0
LINE
  8
_1-2_極細2
  6
CONTINUOUS
 62
    2
 10
423.3994778067896
 20
403.20000000000005
 11
451.39947780678904
 21
403.20000000000005
  0
LINE
  8
_1-2_極細2
  6
CONTINUOUS
 62
    2
 10
423.3994778067896
 20
404.00000000000006
 11
451.39947780678904
 21
404.00000000000006
  0
LINE
  8
_1-2_極細2
  6
CONTINUOUS
 62
    2
 10
423.39947780678995
 20
407.20000000000005
 11
451.39947780678926
 21
407.20000000000005
  0
LINE
  8
_1-2_極細2
  6
CONTINUOUS
 62
    2
 10
423.39947780678995
 20
408.00000000000006
 11
451.39947780678926
 21
408.00000000000006
  0
LINE
  8
_1-2_極細2
  6
CONTINUOUS
 62
    2
 10
423.39947780678995
 20
408.42154847180211
 11
451.39947780678904
 21
408.42154847180211
  0
LINE
  8
_1-2_極細2
  6
CONTINUOUS
 62
    2
 10
628.59947780678908
 20
461.22154847180184
 11
626.19947780678922
 21
461.22154847180184
  0
LINE
  8
_1-2_極細2
  6
CONTINUOUS
 62
    2
 10
628.59947780678908
 20
461.22154847180184
 11
628.59947780678908
 21
404.02154847180202
  0
LINE
  8
_1-2_極細2
  6
CONTINUOUS
 62
    2
 10
406.19947780678888
 20
461.22154847180184
 11
408.59947780678885
 21
461.22154847180184
  0
LINE
  8
_1-2_極細2
  6
CONTINUOUS
 62
    2
 10
408.59947780678885
 20
406.42154847180211
 11
626.19947780678922
 21
406.42154847180211
  0
LINE
  8
_1-2_極細2
  6
CONTINUOUS
 62
    2
 10
406.19947780678888
 20
461.22154847180184
 11
406.19947780678888
 21
404.02154847180202
  0
LINE
  8
_1-2_極細2
  6
CONTINUOUS
 62
    2
 10
406.19947780678888
 20
404.02154847180202
 11
628.59947780678908
 21
404.02154847180202
  0
LINE
  8
_1-2_極細2
  6
CONTINUOUS
 62
    2
 10
632.58646980679146
 20
426.42154790858933
 11
644.60453380679178
 21
426.42154790858933
  0
LINE
  8
_1-3_細線2
  6
CONTINUOUS
 62
    4
 10
632.58646980679146
 20
412.42154790859115
 11
644.60458180678938
 21
412.42154790859115
  0
ARC
  8
_1-3_細線2
  6
CONTINUOUS
 62
    4
 10
644.60458180678938
 20
413.22154790859042
 40
0.8000000000000002
 50
269.99999999999977
 51
359.99999999999966
  0
ARC
  8
_1-2_極細2
  6
CONTINUOUS
 62
    2
 10
614.37266180679103
 20
419.42096390859172
 40
31.031824
 50
346.96432999999968
 51
13.038021999994573
  0
ARC
  8
_1-3_細線2
  6
CONTINUOUS
 62
    4
 10
644.60458180678938
 20
439.62154790859159
 40
0.8000000000000002
 50
0
 51
89.999999999999915
  0
ARC
  8
_1-2_極細2
  6
CONTINUOUS
 62
    2
 10
614.37266180679103
 20
433.4221239085897
 40
31.031824
 50
346.9619780000009
 51
13.035669999999625
  0
LINE
  8
_1-3_細線2
  6
CONTINUOUS
 62
    4
 10
632.58646980679146
 20
440.42154790859087
 11
644.60458180678938
 21
440.42154790859087
  0
LINE
  8
_1-3_細線2
  6
CONTINUOUS
 62
    4
 10
645.40458180679093
 20
413.22154790859042
 11
645.40458180679093
 21
439.62154790859159
  0
ARC
  8
_1-3_細線2
  6
CONTINUOUS
 62
    4
 10
631.78646980678991
 20
407.22154790859042
 40
0.8000000000000002
 50
269.99999999999977
 51
359.99999999999966
  0
LINE
  8
_1-3_細線2
  6
CONTINUOUS
 62
    4
 10
628.59947780678908
 20
406.42154790859024
 11
631.78646980678991
 21
406.42154790859024
  0
ARC
  8
_1-3_細線2
  6
CONTINUOUS
 62
    4
 10
631.78646980678991
 20
445.62154790858949
 40
0.8000000000000002
 50
0
 51
89.999999999999915
  0
LINE
  8
_1-3_細線2
  6
CONTINUOUS
 62
    4
 10
628.59947780678908
 20
446.42154790859087
 11
631.78646980678991
 21
446.42154790859087
  0
LINE
  8
_1-3_細線2
  6
CONTINUOUS
 62
    4
 10
632.58646980679146
 20
445.62154790858949
 11
632.58646980679146
 21
407.22154790859042
  0
ARC
  8
_1-3_細線2
  6
CONTINUOUS
 62
    4
 10
403.01248580678805
 20
407.22154734537764
 40
0.8000000000000002
 50
179.99999999999983
 51
269.99999999999977
  0
LINE
  8
_1-3_細線2
  6
CONTINUOUS
 62
    4
 10
406.19947780678888
 20
406.42154734537746
 11
403.01248580678805
 21
406.42154734537746
  0
ARC
  8
_1-3_細線2
  6
CONTINUOUS
 62
    4
 10
403.01248580678805
 20
445.62154734537671
 40
0.8000000000000002
 50
89.999999999999915
 51
179.99999999999983
  0
LINE
  8
_1-3_細線2
  6
CONTINUOUS
 62
    4
 10
406.19947780678888
 20
446.42154734537809
 11
403.01248580678805
 21
446.42154734537809
  0
LINE
  8
_1-3_細線2
  6
CONTINUOUS
 62
    4
 10
402.21248580678662
 20
424.42154734537746
 11
402.21248580678662
 21
407.22154734537764
  0
LINE
  8
_1-3_細線2
  6
CONTINUOUS
 62
    4
 10
402.21248580678662
 20
445.62154734537671
 11
402.21248580678662
 21
424.42154734537746
  0
LINE
  8
_1-2_極細2
  6
CONTINUOUS
 62
    2
 10
402.21248580678662
 20
426.42154734537655
 11
390.19442180678629
 21
426.42154734537655
  0
LINE
  8
_1-3_細線2
  6
CONTINUOUS
 62
    4
 10
402.21248580678662
 20
412.42154734537837
 11
390.19437380678869
 21
412.42154734537837
  0
ARC
  8
_1-3_細線2
  6
CONTINUOUS
 62
    4
 10
390.19437380678869
 20
413.22154734537764
 40
0.8000000000000002
 50
179.99999999999983
 51
269.99999999999977
  0
ARC
  8
_1-2_極細2
  6
CONTINUOUS
 62
    2
 10
420.42629380678704
 20
419.42096334537894
 40
31.031824
 50
166.96197800000505
 51
193.03566999999961
  0
ARC
  8
_1-3_細線2
  6
CONTINUOUS
 62
    4
 10
390.19437380678869
 20
439.62154734537881
 40
0.8000000000000002
 50
89.999999999999915
 51
179.99999999999983
  0
ARC
  8
_1-2_極細2
  6
CONTINUOUS
 62
    2
 10
420.42629380678704
 20
433.42212334537692
 40
31.031824
 50
166.96433000000002
 51
193.03802199999836
  0
LINE
  8
_1-3_細線2
  6
CONTINUOUS
 62
    4
 10
402.21248580678662
 20
440.42154734537809
 11
390.19437380678869
 21
440.42154734537809
  0
LINE
  8
_1-3_細線2
  6
CONTINUOUS
 62
    4
 10
389.39437380678714
 20
413.22154734537764
 11
389.39437380678714
 21
439.62154734537881
  0
LINE
  8
_1-2_極細2
  6
CENTER1
 62
    2
 10
383.94713615382011
 20
426.42154790858933
 11
652.14431174667652
 21
426.42154790858933
  0
LINE
  8
_1-2_極細2
  6
CENTER1
 62
    2
 10
517.3994778067887
 20
503.686006651752
 11
517.3994778067887
 21
370.73636636398197
  0
ARC
  8
_1-2_極細2
  6
CONTINUOUS
 62
    2
 10
365.39947861474343
 20
402.02154847180202
 40
12.000000000000004
 50
179.99999999999983
 51
269.99999999999977
  0
LINE
  8
_1-2_極細2
  6
CONTINUOUS
 62
    2
 10
353.39947861474343
 20
402.02154847180202
 11
353.39947861474343
 21
480.02154847180202
  0
LINE
  8
_1-2_極細2
  6
CONTINUOUS
 62
    2
 10
365.39947861474343
 20
390.02154847180202
 11
471.39947861474343
 21
390.02154847180202
  0
LINE
  8
_1-2_極細2
  6
CONTINUOUS
 62
    2
 10
473.39947861474343
 20
392.02154847180202
 11
471.39947861474343
 21
390.02154847180202
  0
LINE
  8
_1-2_極細2
  6
CONTINUOUS
 62
    2
 10
473.39947861474343
 20
400.02154847180202
 11
473.39947861474343
 21
392.02154847180202
  0
LINE
  8
_1-2_極細2
  6
CONTINUOUS
 62
    2
 10
471.39947861474343
 20
402.02154847180202
 11
473.39947861474343
 21
400.02154847180202
  0
LINE
  8
_1-2_極細2
  6
CONTINUOUS
 62
    2
 10
365.39947861474343
 20
402.02154847180202
 11
471.39947861474343
 21
402.02154847180202
  0
LINE
  8
_1-2_極細2
  6
CONTINUOUS
 62
    2
 10
355.3994786147432
 20
482.02154847180202
 11
353.39947861474343
 21
480.02154847180202
  0
LINE
  8
_1-2_極細2
  6
CONTINUOUS
 62
    2
 10
363.3994786147432
 20
482.02154847180202
 11
355.3994786147432
 21
482.02154847180202
  0
LINE
  8
_1-2_極細2
  6
CONTINUOUS
 62
    2
 10
365.39947861474343
 20
480.02154847180202
 11
363.3994786147432
 21
482.02154847180202
  0
LINE
  8
_1-2_極細2
  6
CONTINUOUS
 62
    2
 10
365.39947861474343
 20
402.02154847180202
 11
365.39947861474343
 21
480.02154847180202
  0
ARC
  8
_1-2_極細2
  6
CONTINUOUS
 62
    2
 10
669.39947739013769
 20
402.02154847180202
 40
12.000000000000004
 50
269.99999999999977
 51
359.99999999999966
  0
LINE
  8
_1-2_極細2
  6
CONTINUOUS
 62
    2
 10
681.39947739013769
 20
402.02154847180202
 11
681.39947739013769
 21
480.02154847180202
  0
LINE
  8
_1-2_極細2
  6
CONTINUOUS
 62
    2
 10
669.39947739013769
 20
390.02154847180202
 11
563.39947739013735
 21
390.02154847180202
  0
LINE
  8
_1-2_極細2
  6
CONTINUOUS
 62
    2
 10
561.39947739013735
 20
392.02154847180202
 11
563.39947739013735
 21
390.02154847180202
  0
LINE
  8
_1-2_極細2
  6
CONTINUOUS
 62
    2
 10
561.39947739013735
 20
400.02154847180202
 11
561.39947739013735
 21
392.02154847180202
  0
LINE
  8
_1-2_極細2
  6
CONTINUOUS
 62
    2
 10
563.39947739013735
 20
402.02154847180202
 11
561.39947739013735
 21
400.02154847180202
  0
LINE
  8
_1-2_極細2
  6
CONTINUOUS
 62
    2
 10
669.39947739013769
 20
402.02154847180202
 11
563.39947739013735
 21
402.02154847180202
  0
LINE
  8
_1-2_極細2
  6
CONTINUOUS
 62
    2
 10
679.39947739013769
 20
482.02154847180202
 11
681.39947739013769
 21
480.02154847180202
  0
LINE
  8
_1-2_極細2
  6
CONTINUOUS
 62
    2
 10
671.39947739013769
 20
482.02154847180202
 11
679.39947739013769
 21
482.02154847180202
  0
LINE
  8
_1-2_極細2
  6
CONTINUOUS
 62
    2
 10
669.39947739013769
 20
480.02154847180202
 11
671.39947739013769
 21
482.02154847180202
  0
LINE
  8
_1-2_極細2
  6
CONTINUOUS
 62
    2
 10
669.39947739013769
 20
402.02154847180202
 11
669.39947739013769
 21
480.02154847180202
  0
CIRCLE
  8
_1-2_極細2
  6
CONTINUOUS
 62
    2
 10
577.36449654693752
 20
357.96010384215862
 40
4.3812755344353409
  0
CIRCLE
  8
_1-2_極細2
  6
CONTINUOUS
 62
    2
 10
608.77338543582778
 20
351.27195569400897
 40
1.3274074074073723
  0
LINE
  8
_1-2_極細2
  6
CONTINUOUS
 62
    2
 10
290.82138579198465
 20
454.02154847180196
 11
318.82138508424396
 21
482.02154776406115
  0
LINE
  8
_1-2_極細2
  6
CONTINUOUS
 62
    2
 10
267.11940280152214
 20
481.2312537267706
 11
267.90969723708952
 21
482.02154816233781
  0
LINE
  8
_1-2_極細2
  6
DASHED2
 62
    2
 10
316.27722991470023
 20
454.02154847180196
 11
333.39947739013689
 21
471.14379594723846
  0
LINE
  8
_1-2_極細2
  6
DASHED2
 62
    2
 10
267.11940280152214
 20
455.77540960405514
 11
293.36554116066611
 21
482.0215479631994
  0
LINE
  8
_1-2_極細2
  6
CONTINUOUS
 62
    2
 10
353.39947739013735
 20
454.02154847180196
 11
267.11940280152214
 21
454.02154847180196
  0
LINE
  8
_1-2_極細2
  6
CONTINUOUS
 62
    2
 10
333.39947739013689
 20
482.02154847180219
 11
267.11940280152214
 21
482.02154847180219
  0
LINE
  8
_1-2_極細2
  6
CONTINUOUS
 62
    2
 10
763.87003386000163
 20
454.02154847180196
 11
766.44812545815421
 21
456.59964006995421
  0
LINE
  8
_1-2_極細2
  6
CONTINUOUS
 62
    2
 10
712.95834561457036
 20
454.02154847180196
 11
740.9583453051066
 21
482.02154816233781
  0
LINE
  8
_1-2_極細2
  6
DASHED2
 62
    2
 10
738.41418973728616
 20
454.02154847180196
 11
766.41418922868365
 21
482.0215479631994
  0
LINE
  8
_1-2_極細2
  6
DASHED2
 62
    2
 10
701.39947739013701
 20
467.9185243700843
 11
715.50250138152865
 21
482.02154836147565
  0
LINE
  8
_1-2_極細2
  6
CONTINUOUS
 62
    2
 10
681.39947739013769
 20
454.02154847180196
 11
766.44812545815421
 21
454.02154847180196
  0
LINE
  8
_1-2_極細2
  6
CONTINUOUS
 62
    2
 10
701.39947739013769
 20
482.02154847180219
 11
766.44812545815421
 21
482.02154847180219
  0
CIRCLE
  8
_1-2_極細2
  6
CONTINUOUS
 62
    2
 10
396.45223601437488
 20
300.22260756459025
 40
4.3812755344353409
  0
CIRCLE
  8
_1-2_極細2
  6
CONTINUOUS
 62
    2
 10
275.49980092946237
 20
294.88973347058027
 40
1.3274074074073723
  0
CIRCLE
  8
_1-2_極細2
  6
CONTINUOUS
 62
    2
 10
373.51890267971896
 20
324.70200130705371
 40
1.3274074074073723
  0
CIRCLE
  8
_1-2_極細2
  6
CONTINUOUS
 62
    2
 10
289.51890267778174
 20
347.20973347178688
 40
1.3274074074073723
  0
LINE
  8
_1-2_極細2
  6
CONTINUOUS
 62
    2
 10
333.39947739013769
 20
462.82735554554142
 11
342.20528446387675
 21
454.02154847180196
  0
LINE
  8
_1-2_極細2
  6
CONTINUOUS
 62
    2
 10
333.39947739013769
 20
473.00969319462752
 11
352.38762211296273
 21
454.02154847180196
  0
LINE
  8
_1-2_極細2
  6
CONTINUOUS
 62
    2
 10
353.39947739013735
 20
463.19203084371429
 11
334.56995976204882
 21
482.02154847180219
  0
LINE
  8
_1-2_極細2
  6
CONTINUOUS
 62
    2
 10
353.39947739013735
 20
473.37436849280039
 11
344.75229741113583
 21
482.02154847180191
  0
LINE
  8
_1-2_極細2
  6
CONTINUOUS
 62
    2
 10
333.39947739013689
 20
478.39917516898896
 11
337.02185069295047
 21
482.02154847180219
  0
LINE
  8
_1-2_極細2
  6
CONTINUOUS
 62
    2
 10
333.39947739013689
 20
468.21683751990258
 11
347.20418834203622
 21
482.02154847180219
  0
LINE
  8
_1-2_極細2
  6
CONTINUOUS
 62
    2
 10
333.39947739013689
 20
458.03449987081649
 11
353.39947739013735
 21
478.03449987081632
  0
LINE
  8
_1-2_極細2
  6
CONTINUOUS
 62
    2
 10
339.56886364020932
 20
454.02154847180196
 11
353.39947739013735
 21
467.85216222173023
  0
LINE
  8
_1-2_極細2
  6
CONTINUOUS
 62
    2
 10
349.75120128929507
 20
454.02154847180196
 11
353.39947739013735
 21
457.66982457264385
  0
LINE
  8
_1-2_極細2
  6
CONTINUOUS
 62
    2
 10
353.39947739013735
 20
480.02154847180213
 11
353.39947739013735
 21
482.02154847180219
  0
LINE
  8
_1-2_極細2
  6
CONTINUOUS
 62
    2
 10
353.39947739013735
 20
482.02154847180219
 11
333.39947739013689
 21
482.02154847180219
  0
LINE
  8
_1-2_極細2
  6
CONTINUOUS
 62
    2
 10
333.39947739013689
 20
482.02154847180219
 11
333.39947739013689
 21
454.02154847180196
  0
CIRCLE
  8
_1-2_極細2
  6
CONTINUOUS
 62
    2
 10
457.43445823333752
 20
357.96010384215862
 40
4.3812755344353409
  0
CIRCLE
  8
_1-2_極細2
  6
CONTINUOUS
 62
    2
 10
305.41223601111562
 20
448.89862236067421
 40
1.3274074074073723
  0
CIRCLE
  8
_1-2_極細2
  6
CONTINUOUS
 62
    2
 10
439.5840878629657
 20
331.07774419860357
 40
1.3274074074073723
  0
CIRCLE
  8
_1-2_極細2
  6
CONTINUOUS
 62
    2
 10
325.66556934444873
 20
344.09343717549069
 40
4.3812755344353409
  0
CIRCLE
  8
_1-2_極細2
  6
CONTINUOUS
 62
    2
 10
331.97223601111546
 20
406.21343717548984
 40
4.3812755344353409
  0
CIRCLE
  8
_1-2_極細2
  6
CONTINUOUS
 62
    2
 10
318.85223601111522
 20
354.17862236067532
 40
1.3274074074073723
  0
CIRCLE
  8
_1-2_極細2
  6
CONTINUOUS
 62
    2
 10
291.01223601111553
 20
387.778622360675
 40
1.3274074074073723
  0
CIRCLE
  8
_1-2_極細2
  6
CONTINUOUS
 62
    2
 10
340.29223601111516
 20
389.48528902734165
 40
1.3274074074073723
  0
CIRCLE
  8
_1-2_極細2
  6
CONTINUOUS
 62
    2
 10
334.31890267778181
 20
436.84528902734115
 40
1.3274074074073723
  0
CIRCLE
  8
_1-2_極細2
  6
CONTINUOUS
 62
    2
 10
411.94556934444699
 20
302.84528902734269
 40
1.3274074074073723
  0
CIRCLE
  8
_1-2_極細2
  6
CONTINUOUS
 62
    2
 10
402.13223601111451
 20
362.79195569400878
 40
1.3274074074073723
  0
CIRCLE
  8
_1-2_極細2
  6
CONTINUOUS
 62
    2
 10
426.02556934444715
 20
351.27195569400897
 40
1.3274074074073723
  0
CIRCLE
  8
_1-2_極細2
  6
CONTINUOUS
 62
    2
 10
638.34671876589948
 20
300.22260756459025
 40
4.3812755344353409
  0
CIRCLE
  8
_1-2_極細2
  6
CONTINUOUS
 62
    2
 10
759.29915385081222
 20
294.88973347058027
 40
1.3274074074073723
  0
CIRCLE
  8
_1-2_極細2
  6
CONTINUOUS
 62
    2
 10
661.28005210055562
 20
324.70200130705371
 40
1.3274074074073723
  0
CIRCLE
  8
_1-2_極細2
  6
CONTINUOUS
 62
    2
 10
745.28005210249285
 20
347.20973347178688
 40
1.3274074074073723
  0
LINE
  8
_1-2_極細2
  6
CONTINUOUS
 62
    2
 10
701.39947739013701
 20
462.82735554554142
 11
692.59367031639727
 21
454.02154847180196
  0
LINE
  8
_1-2_極細2
  6
CONTINUOUS
 62
    2
 10
701.39947739013701
 20
473.00969319462752
 11
682.41133266731231
 21
454.02154847180196
  0
LINE
  8
_1-2_極細2
  6
CONTINUOUS
 62
    2
 10
681.39947739013769
 20
463.19203084371429
 11
700.22899501822576
 21
482.02154847180219
  0
LINE
  8
_1-2_極細2
  6
CONTINUOUS
 62
    2
 10
681.39947739013769
 20
473.37436849280039
 11
690.04665736913921
 21
482.02154847180191
  0
LINE
  8
_1-2_極細2
  6
CONTINUOUS
 62
    2
 10
701.39947739013769
 20
478.39917516898896
 11
697.77710408732423
 21
482.02154847180219
  0
LINE
  8
_1-2_極細2
  6
CONTINUOUS
 62
    2
 10
701.39947739013769
 20
468.21683751990258
 11
687.59476643823837
 21
482.02154847180219
  0
LINE
  8
_1-2_極細2
  6
CONTINUOUS
 62
    2
 10
701.39947739013769
 20
458.03449987081649
 11
681.39947739013769
 21
478.03449987081632
  0
LINE
  8
_1-2_極細2
  6
CONTINUOUS
 62
    2
 10
695.23009114006527
 20
454.02154847180196
 11
681.39947739013769
 21
467.85216222173023
  0
LINE
  8
_1-2_極細2
  6
CONTINUOUS
 62
    2
 10
685.04775349097929
 20
454.02154847180196
 11
681.39947739013769
 21
457.66982457264385
  0
LINE
  8
_1-2_極細2
  6
CONTINUOUS
 62
    2
 10
681.39947739013769
 20
480.02154847180213
 11
681.39947739013769
 21
482.02154847180219
  0
LINE
  8
_1-2_極細2
  6
CONTINUOUS
 62
    2
 10
681.39947739013769
 20
482.02154847180219
 11
701.39947739013769
 21
482.02154847180219
  0
LINE
  8
_1-2_極細2
  6
CONTINUOUS
 62
    2
 10
701.39947739013769
 20
482.02154847180219
 11
701.39947739013769
 21
454.02154847180196
  0
CIRCLE
  8
_1-2_極細2
  6
CONTINUOUS
 62
    2
 10
729.38671876915942
 20
448.89862236067421
 40
1.3274074074073723
  0
CIRCLE
  8
_1-2_極細2
  6
CONTINUOUS
 62
    2
 10
595.214866917309
 20
331.07774419860357
 40
1.3274074074073723
  0
CIRCLE
  8
_1-2_極細2
  6
CONTINUOUS
 62
    2
 10
709.1333854358254
 20
344.09343717549069
 40
4.3812755344353409
  0
CIRCLE
  8
_1-2_極細2
  6
CONTINUOUS
 62
    2
 10
702.82671876915902
 20
406.21343717548984
 40
4.3812755344353409
  0
CIRCLE
  8
_1-2_極細2
  6
CONTINUOUS
 62
    2
 10
715.94671876915913
 20
354.17862236067532
 40
1.3274074074073723
  0
CIRCLE
  8
_1-2_極細2
  6
CONTINUOUS
 62
    2
 10
743.78671876915928
 20
387.778622360675
 40
1.3274074074073723
  0
CIRCLE
  8
_1-2_極細2
  6
CONTINUOUS
 62
    2
 10
694.50671876915897
 20
389.48528902734165
 40
1.3274074074073723
  0
CIRCLE
  8
_1-2_極細2
  6
CONTINUOUS
 62
    2
 10
700.48005210249289
 20
436.84528902734115
 40
1.3274074074073723
  0
CIRCLE
  8
_1-2_極細2
  6
CONTINUOUS
 62
    2
 10
622.8533854358277
 20
302.84528902734269
 40
1.3274074074073723
  0
CIRCLE
  8
_1-2_極細2
  6
CONTINUOUS
 62
    2
 10
632.66671876916007
 20
362.79195569400878
 40
1.3274074074073723
  0
TEXT
  8
_0-7_枠細線
 62
    5
 10
423.55669247309402
 20
686.72093530493805
 40
32
 41
0.8
 50
0
  1
Ａ－Ａ’断面図
  0
TEXT
  8
_0-7_枠細線
 62
    5
 10
624.79196386925628
 20
686.72093530493805
 40
32
 41
0.6000000000000002
 50
0
  1
Ｓ＝１：２
  0
LINE
  8
_1-5_寸法2
  6
CONTINUOUS
 62
    7
 10
353.39947739013746
 20
498.02154847180196
 11
353.39947739013769
 21
658.02154903501491
  0
LINE
  8
_1-5_寸法2
  6
CONTINUOUS
 62
    7
 10
353.39947739013769
 20
650.02154903501491
 11
368.85429061076275
 21
654.16265375665523
  0
LINE
  8
_1-5_寸法2
  6
CONTINUOUS
 62
    7
 10
353.39947739013769
 20
650.02154903501491
 11
368.85429061076275
 21
645.8804443133746
  0
LINE
  8
_1-5_寸法2
  6
CONTINUOUS
 62
    7
 10
681.39947739013769
 20
498.02154847180202
 11
681.39947739013792
 21
658.02154903501491
  0
LINE
  8
_1-5_寸法2
  6
CONTINUOUS
 62
    7
 10
681.39947739013792
 20
650.02154903501491
 11
665.94466416951286
 21
645.8804443133746
  0
LINE
  8
_1-5_寸法2
  6
CONTINUOUS
 62
    7
 10
681.39947739013792
 20
650.02154903501491
 11
665.94466416951286
 21
654.16265375665535
  0
LINE
  8
_1-5_寸法2
  6
CONTINUOUS
 62
    7
 10
353.39947739013769
 20
650.02154903501491
 11
681.39947739013792
 21
650.02154903501491
  0
TEXT
  8
_1-5_寸法2
 62
    7
 10
505.39947739013792
 20
650.02154903501491
 40
24
 41
1
 50
0
  1
82
  0
LINE
  8
_1-2_極細2
  6
CONTINUOUS
 62
    2
 10
471.39947861474343
 20
390.02154847180202
 11
473.39947861474343
 21
390.02154847180202
  0
LINE
  8
_1-2_極細2
  6
CONTINUOUS
 62
    2
 10
473.39947861474343
 20
390.02154847180202
 11
473.39947861474343
 21
310.02154847180202
  0
LINE
  8
_1-2_極細2
  6
CONTINUOUS
 62
    2
 10
563.39947699883396
 20
390.02154847180202
 11
561.39947699883396
 21
390.02154847180202
  0
LINE
  8
_1-2_極細2
  6
CONTINUOUS
 62
    2
 10
561.39947699883396
 20
390.02154847180202
 11
561.39947699883396
 21
310.02154847180202
  0
LINE
  8
_1-5_寸法2
  6
CONTINUOUS
 62
    7
 10
353.39947861474343
 20
386.02154847180202
 11
353.3994786147432
 21
302.02154847180202
  0
LINE
  8
_1-5_寸法2
  6
CONTINUOUS
 62
    7
 10
353.3994786147432
 20
310.02154847180202
 11
368.85429183536837
 21
314.16265319344234
  0
LINE
  8
_1-5_寸法2
  6
CONTINUOUS
 62
    7
 10
353.3994786147432
 20
310.02154847180202
 11
368.85429183536837
 21
305.8804437501617
  0
LINE
  8
_1-5_寸法2
  6
CONTINUOUS
 62
    7
 10
473.39947861474343
 20
374.02154847180202
 11
473.39947861474332
 21
302.02154847180202
  0
LINE
  8
_1-5_寸法2
  6
CONTINUOUS
 62
    7
 10
473.39947861474332
 20
310.02154847180202
 11
457.94466539411815
 21
305.8804437501617
  0
LINE
  8
_1-5_寸法2
  6
CONTINUOUS
 62
    7
 10
473.39947861474332
 20
310.02154847180202
 11
457.94466539411826
 21
314.16265319344234
  0
LINE
  8
_1-5_寸法2
  6
CONTINUOUS
 62
    7
 10
353.3994786147432
 20
310.02154847180202
 11
473.39947861474332
 21
310.02154847180202
  0
TEXT
  8
_1-5_寸法2
 62
    7
 10
401.39947861474332
 20
310.02154847180202
 40
24
 41
1
 50
0
  1
30
  0
LINE
  8
_1-5_寸法2
  6
CONTINUOUS
 62
    7
 10
473.39947861474332
 20
310.02154847180202
 11
488.85429183536849
 21
314.16265319344222
  0
LINE
  8
_1-5_寸法2
  6
CONTINUOUS
 62
    7
 10
473.39947861474332
 20
310.02154847180202
 11
488.85429183536837
 21
305.88044375016159
  0
LINE
  8
_1-5_寸法2
  6
CONTINUOUS
 62
    7
 10
561.39947699883396
 20
374.02154847180202
 11
561.39947699883373
 21
302.02154847180202
  0
LINE
  8
_1-5_寸法2
  6
CONTINUOUS
 62
    7
 10
561.39947699883373
 20
310.02154847180202
 11
545.94466377820868
 21
305.8804437501617
  0
LINE
  8
_1-5_寸法2
  6
CONTINUOUS
 62
    7
 10
561.39947699883373
 20
310.02154847180202
 11
545.94466377820868
 21
314.16265319344234
  0
LINE
  8
_1-5_寸法2
  6
CONTINUOUS
 62
    7
 10
473.39947861474332
 20
310.02154847180202
 11
561.39947699883373
 21
310.02154847180202
  0
TEXT
  8
_1-5_寸法2
 62
    7
 10
505.39947780678858
 20
310.02154847180202
 40
24
 41
1
 50
0
  1
22
  0
LINE
  8
_1-5_寸法2
  6
CONTINUOUS
 62
    7
 10
561.39947699883373
 20
310.02154847180202
 11
576.8542902194589
 21
314.16265319344222
  0
LINE
  8
_1-5_寸法2
  6
CONTINUOUS
 62
    7
 10
561.39947699883373
 20
310.02154847180202
 11
576.85429021945879
 21
305.88044375016159
  0
LINE
  8
_1-5_寸法2
  6
CONTINUOUS
 62
    7
 10
681.39947739013746
 20
386.02154847180202
 11
681.39947739013746
 21
302.02154847180202
  0
LINE
  8
_1-5_寸法2
  6
CONTINUOUS
 62
    7
 10
681.39947739013746
 20
310.02154847180202
 11
665.94466416951241
 21
305.8804437501617
  0
LINE
  8
_1-5_寸法2
  6
CONTINUOUS
 62
    7
 10
681.39947739013746
 20
310.02154847180202
 11
665.94466416951241
 21
314.16265319344234
  0
LINE
  8
_1-5_寸法2
  6
CONTINUOUS
 62
    7
 10
561.39947699883373
 20
310.02154847180202
 11
681.39947739013746
 21
310.02154847180202
  0
TEXT
  8
_1-5_寸法2
 62
    7
 10
609.3994771944856
 20
310.02154847180202
 40
24
 41
1
 50
0
  1
30
  0
LINE
  8
_1-5_寸法2
  6
CONTINUOUS
 62
    7
 10
332.59947739013683
 20
390.02154847180208
 11
265.39947861474343
 21
390.02154847180219
  0
LINE
  8
_1-5_寸法2
  6
CONTINUOUS
 62
    7
 10
273.39947861474343
 20
390.02154847180219
 11
269.25837389310323
 21
405.4763616924273
  0
LINE
  8
_1-5_寸法2
  6
CONTINUOUS
 62
    7
 10
273.39947861474343
 20
390.02154847180219
 11
277.54058333638386
 21
405.4763616924273
  0
LINE
  8
_1-5_寸法2
  6
CONTINUOUS
 62
    7
 10
337.39947739013735
 20
482.02154847180225
 11
265.39947861474343
 21
482.02154847180242
  0
LINE
  8
_1-5_寸法2
  6
CONTINUOUS
 62
    7
 10
273.39947861474343
 20
482.02154847180242
 11
277.54058333638375
 21
466.56673525117731
  0
LINE
  8
_1-5_寸法2
  6
CONTINUOUS
 62
    7
 10
273.39947861474343
 20
482.02154847180242
 11
269.25837389310311
 21
466.56673525117736
  0
LINE
  8
_1-5_寸法2
  6
CONTINUOUS
 62
    7
 10
273.39947861474343
 20
390.02154847180219
 11
273.39947861474343
 21
482.02154847180242
  0
TEXT
  8
_1-5_寸法2
 62
    7
 10
273.39947861474343
 20
424.02154847180236
 40
24
 41
1
 50
90
  1
23
  0
TEXT
  8
_0-7_枠細線
 62
    5
 10
1544.7999999999997
 20
240
 40
32
 41
0.55
 50
0
  1
玄関排水Ｌアングル枠仕様 盗難防止金具付
  0
LINE
  8
_0-1_計細線
  6
CONTINUOUS
 62
    3
 10
206.7816118860419
 20
1167.2005507263955
 11
206.7816118860419
 21
1157.2005507263955
  0
LINE
  8
_0-1_計細線
  6
CONTINUOUS
 62
    3
 10
206.7816118860419
 20
1182.700550726395
 11
206.7816118860419
 21
1172.700550726395
  0
LINE
  8
_0-1_計細線
  6
CONTINUOUS
 62
    3
 10
206.7816118860419
 20
1213.7005507263946
 11
206.7816118860419
 21
1203.7005507263946
  0
LINE
  8
_0-1_計細線
  6
CONTINUOUS
 62
    3
 10
206.7816118860419
 20
1229.2005507263941
 11
206.7816118860419
 21
1219.2005507263941
  0
LINE
  8
_0-0_計極細
  6
CONTINUOUS
 62
    2
 10
253.78161000599175
 20
1182.7005525864422
 11
253.78161000599175
 21
1188.2005523664368
  0
LINE
  8
_0-0_計極細
  6
CONTINUOUS
 62
    2
 10
253.78161000599175
 20
1167.2005532064588
 11
253.78161000599175
 21
1172.700552986453
  0
LINE
  8
_0-0_計極細
  6
CONTINUOUS
 62
    2
 10
213.7816116060003
 20
1167.2005532064588
 11
213.7816116060003
 21
1172.700552986453
  0
LINE
  8
_0-0_計極細
  6
CONTINUOUS
 62
    2
 10
253.78161000599175
 20
1219.2005511264049
 11
253.78161000599175
 21
1213.7005513464107
  0
LINE
  8
_0-0_計極細
  6
CONTINUOUS
 62
    2
 10
213.7816116060003
 20
1219.2005511264049
 11
213.7816116060003
 21
1213.7005513464107
  0
LINE
  8
_0-0_計極細
  6
CONTINUOUS
 62
    2
 10
253.78161000599175
 20
1203.7005517464211
 11
253.78161000599175
 21
1198.2005519664265
  0
LINE
  8
_0-0_計極細
  6
CONTINUOUS
 62
    2
 10
249.73161261145151
 20
1167.2005507263955
 11
249.73161261145151
 21
1172.700550726395
  0
LINE
  8
_0-0_計極細
  6
CONTINUOUS
 62
    2
 10
242.83161261132909
 20
1167.2005507263955
 11
242.83161261132909
 21
1172.700550726395
  0
LINE
  8
_0-0_計極細
  6
CONTINUOUS
 62
    2
 10
249.73161029089943
 20
1219.2005507263941
 11
249.73161260207735
 21
1213.7005507263946
  0
LINE
  8
_0-0_計極細
  6
CONTINUOUS
 62
    2
 10
242.83161032110229
 20
1219.2005507263941
 11
242.83161260207771
 21
1213.7005507263946
  0
LINE
  8
_0-0_計極細
  6
CONTINUOUS
 62
    2
 10
242.83161261132909
 20
1203.7005507263946
 11
242.83161261132909
 21
1202.1005518104314
  0
LINE
  8
_0-0_計極細
  6
CONTINUOUS
 62
    2
 10
242.83161261132909
 20
1201.1005518504314
 11
242.83161261132909
 21
1198.2005507263946
  0
LINE
  8
_0-0_計極細
  6
CONTINUOUS
 62
    2
 10
249.73161261145151
 20
1203.7005507263946
 11
249.73161261145151
 21
1202.1005518104314
  0
LINE
  8
_0-0_計極細
  6
CONTINUOUS
 62
    2
 10
249.73161261145151
 20
1201.1005518504314
 11
249.73161261145151
 21
1198.2005507263946
  0
LINE
  8
_0-0_計極細
  6
CONTINUOUS
 62
    2
 10
242.83161261132909
 20
1182.700550726395
 11
242.83161261132909
 21
1184.3005525224319
  0
LINE
  8
_0-0_計極細
  6
CONTINUOUS
 62
    2
 10
242.83161261132909
 20
1185.3005524824318
 11
242.83161261132909
 21
1188.2005507263946
  0
LINE
  8
_0-0_計極細
  6
CONTINUOUS
 62
    2
 10
249.73161261145151
 20
1182.700550726395
 11
249.73161261145151
 21
1184.3005525224319
  0
LINE
  8
_0-0_計極細
  6
CONTINUOUS
 62
    2
 10
249.73161261145151
 20
1185.3005524824318
 11
249.73161261145151
 21
1188.2005507263946
  0
LINE
  8
_0-0_計極細
  6
CONTINUOUS
 62
    2
 10
210.28161176599951
 20
1183.3005525624319
 11
219.28161140600059
 21
1183.3005525624319
  0
LINE
  8
_0-0_計極細
  6
CONTINUOUS
 62
    2
 10
210.28161176599951
 20
1183.3005525624319
 11
210.28161176599951
 21
1184.3005525224319
  0
LINE
  8
_0-0_計極細
  6
CONTINUOUS
 62
    2
 10
219.28161140600059
 20
1183.3005525624319
 11
219.28161140600059
 21
1184.3005525224319
  0
LINE
  8
_0-0_計極細
  6
CONTINUOUS
 62
    2
 10
210.28161176599951
 20
1203.1005517704318
 11
219.28161140600059
 21
1203.1005517704318
  0
LINE
  8
_0-0_計極細
  6
CONTINUOUS
 62
    2
 10
210.28161176599951
 20
1203.1005517704318
 11
210.28161176599951
 21
1202.1005518104314
  0
LINE
  8
_0-0_計極細
  6
CONTINUOUS
 62
    2
 10
219.28161140600059
 20
1203.1005517704318
 11
219.28161140600059
 21
1202.1005518104314
  0
LINE
  8
_0-1_計細線
  6
CONTINUOUS
 62
    3
 10
251.28161012600003
 20
1201.1005518504314
 11
251.28161012600003
 21
1202.1005518104314
  0
LINE
  8
_0-1_計細線
  6
CONTINUOUS
 62
    3
 10
238.4816106380008
 20
1201.1005518504314
 11
251.28161012600003
 21
1201.1005518504314
  0
LINE
  8
_0-1_計細線
  6
CONTINUOUS
 62
    3
 10
251.28161012600003
 20
1202.1005518104314
 11
209.281611806
 21
1202.1005518104314
  0
LINE
  8
_0-1_計細線
  6
CONTINUOUS
 62
    3
 10
209.281611806
 20
1184.3005525224319
 11
251.28161012600003
 21
1184.3005525224319
  0
LINE
  8
_0-1_計細線
  6
CONTINUOUS
 62
    3
 10
251.28161012600003
 20
1185.3005524824318
 11
238.4816106380008
 21
1185.3005524824318
  0
LINE
  8
_0-1_計細線
  6
CONTINUOUS
 62
    3
 10
251.28161012600003
 20
1184.3005525224319
 11
251.28161012600003
 21
1185.3005524824318
  0
LINE
  8
_0-1_計細線
  6
CONTINUOUS
 62
    3
 10
238.4816106380008
 20
1184.3005525224319
 11
238.4816106380008
 21
1202.1005518104314
  0
LINE
  8
_0-1_計細線
  6
CONTINUOUS
 62
    3
 10
209.281611806
 20
1202.1005518104314
 11
209.281611806
 21
1184.3005525224319
  0
LINE
  8
_0-1_計細線
  6
CONTINUOUS
 62
    3
 10
240.7816105260008
 20
1198.2005519664265
 11
240.7816105260008
 21
1188.2005523664368
  0
CIRCLE
  8
_0-5_寸法線
  6
CONTINUOUS
 62
    7
 10
225.78767167163232
 20
1193.2005521664316
 40
32.624478443415455
  0
LINE
  8
_0-0_計極細
  6
CONTINUOUS
 62
    2
 10
213.7816116060003
 20
1203.7005517464211
 11
213.7816116060003
 21
1203.1005517704318
  0
LINE
  8
_0-0_計極細
  6
CONTINUOUS
 62
    2
 10
213.7816116060003
 20
1183.3005525624319
 11
213.7816116060003
 21
1182.7005525864422
  0
LINE
  8
_0-0_計極細
  6
CENTER1
 62
    2
 10
2146.0980670769727
 20
1193.2005507263946
 11
2257.9182109618646
 21
1193.2005507263946
  0
LINE
  8
_0-1_計細線
  6
CONTINUOUS
 62
    3
 10
2172.7449635812695
 20
1234.2007406533878
 11
2172.7449635812695
 21
1152.2007406533878
  0
LINE
  8
_0-1_計細線
  6
CONTINUOUS
 62
    3
 10
2172.7449635812695
 20
1152.2007406533878
 11
2195.7449635812695
 21
1152.2007406533878
  0
LINE
  8
_0-1_計細線
  6
CONTINUOUS
 62
    3
 10
2195.7449635812695
 20
1152.2007406533878
 11
2195.7449635812695
 21
1234.2007406533878
  0
LINE
  8
_0-1_計細線
  6
CONTINUOUS
 62
    3
 10
2195.7449635812695
 20
1234.2007406533878
 11
2172.7449635812695
 21
1234.2007406533878
  0
LINE
  8
_0-0_計極細
  6
CONTINUOUS
 62
    2
 10
1969.2816126860557
 20
1192.7005507463948
 11
1969.2816126860557
 21
1193.7005507063943
  0
LINE
  8
_0-1_計細線
  6
CONTINUOUS
 62
    3
 10
1978.2816123260513
 20
1202.7005503463906
 11
1979.2816122860527
 21
1202.7005503463906
  0
ARC
  8
_0-1_計細線
  6
CONTINUOUS
 62
    3
 10
1978.2816123260513
 20
1193.7005507063943
 40
0.9999999599995135
 50
269.99999999999977
 51
359.99999999999966
  0
LINE
  8
_0-1_計細線
  6
CONTINUOUS
 62
    3
 10
1967.2816127660567
 20
1192.7005507463948
 11
1967.2816127660567
 21
1193.7005507063943
  0
LINE
  8
_0-1_計細線
  6
CONTINUOUS
 62
    3
 10
1967.2816127660567
 20
1193.7005507063943
 11
1978.2816123260513
 21
1193.7005507063943
  0
LINE
  8
_0-1_計細線
  6
CONTINUOUS
 62
    3
 10
1978.2816123260513
 20
1192.7005507463948
 11
1967.2816127660567
 21
1192.7005507463948
  0
LINE
  8
_0-1_計細線
  6
CONTINUOUS
 62
    3
 10
1978.2816123260513
 20
1193.7005507063943
 11
1978.2816123260513
 21
1202.7005503463906
  0
LINE
  8
_0-1_計細線
  6
CONTINUOUS
 62
    3
 10
1979.2816122860527
 20
1202.7005503463906
 11
1979.2816122860527
 21
1193.7005507063943
  0
LINE
  8
_0-0_計極細
  6
CONTINUOUS
 62
    2
 10
1918.3831395390548
 20
1157.2005507263955
 11
1921.062631463366
 21
1167.2005507263955
  0
LINE
  8
_0-0_計極細
  6
CONTINUOUS
 62
    2
 10
1922.5363520217375
 20
1172.700550726395
 11
1925.2158439460486
 21
1182.700550726395
  0
LINE
  8
_0-0_計極細
  6
CONTINUOUS
 62
    2
 10
1926.6895645044192
 20
1188.2005507263946
 11
1929.3690564287303
 21
1198.2005507263946
  0
LINE
  8
_0-0_計極細
  6
CONTINUOUS
 62
    2
 10
1930.8427769871009
 20
1203.7005507263941
 11
1933.5222689114121
 21
1213.7005507263941
  0
LINE
  8
_0-0_計極細
  6
CONTINUOUS
 62
    2
 10
1934.9959894697836
 20
1219.2005507263941
 11
1937.6754813940947
 21
1229.2005507263941
  0
LINE
  8
_0-0_計極細
  6
CENTER1
 62
    2
 10
194.11015262821638
 20
1193.2005507263946
 11
1991.1388732548489
 21
1193.2005507263946
  0
LINE
  8
_0-1_計細線
  6
CONTINUOUS
 62
    3
 10
1982.2816118860405
 20
1152.2005507263946
 11
1982.2816118860405
 21
1234.2005507263946
  0
LINE
  8
_0-1_計細線
  6
CONTINUOUS
 62
    3
 10
1982.2816118860405
 20
1234.2005507263946
 11
202.2816118860419
 21
1234.2005507263946
  0
LINE
  8
_0-1_計細線
  6
CONTINUOUS
 62
    3
 10
202.2816118860419
 20
1234.2005507263946
 11
202.2816118860419
 21
1152.2005507263946
  0
LINE
  8
_0-1_計細線
  6
CONTINUOUS
 62
    3
 10
202.2816118860419
 20
1152.2005507263946
 11
1982.2816118860405
 21
1152.2005507263946
  0
LINE
  8
_0-1_計細線
  6
CONTINUOUS
 62
    3
 10
205.2816118860419
 20
1231.2005507263946
 11
205.2816118860419
 21
1155.2005507263946
  0
LINE
  8
_0-1_計細線
  6
CONTINUOUS
 62
    3
 10
205.2816118860419
 20
1155.2005507263946
 11
1979.2816118860405
 21
1155.2005507263946
  0
LINE
  8
_0-1_計細線
  6
CONTINUOUS
 62
    3
 10
1979.2816118860405
 20
1155.2005507263946
 11
1979.2816118860405
 21
1231.2005507263946
  0
LINE
  8
_0-1_計細線
  6
CONTINUOUS
 62
    3
 10
1979.2816118860405
 20
1231.2005507263946
 11
205.2816118860419
 21
1231.2005507263946
  0
LINE
  8
_0-1_計細線
  6
CONTINUOUS
 62
    3
 10
206.7816118860419
 20
1157.2005507263955
 11
1918.3831394559479
 21
1157.2005507263955
  0
LINE
  8
_0-1_計細線
  6
CONTINUOUS
 62
    3
 10
1921.0626313335038
 20
1167.2005507263955
 11
206.7816118860419
 21
1167.2005507263955
  0
LINE
  8
_0-1_計細線
  6
CONTINUOUS
 62
    3
 10
206.7816118860419
 20
1172.700550726395
 11
1922.5363520032502
 21
1172.700550726395
  0
LINE
  8
_0-1_計細線
  6
CONTINUOUS
 62
    3
 10
1925.215843880806
 20
1182.700550726395
 11
206.7816118860419
 21
1182.700550726395
  0
LINE
  8
_0-1_計細線
  6
CONTINUOUS
 62
    3
 10
1929.369056308899
 20
1198.2005507263946
 11
240.7816105260008
 21
1198.2005507263946
  0
LINE
  8
_0-1_計細線
  6
CONTINUOUS
 62
    3
 10
206.7816118860419
 20
1203.7005507263946
 11
1930.8427769786454
 21
1203.7005507263946
  0
LINE
  8
_0-1_計細線
  6
CONTINUOUS
 62
    3
 10
1933.5222688562012
 20
1213.7005507263946
 11
206.7816118860419
 21
1213.7005507263946
  0
LINE
  8
_0-1_計細線
  6
CONTINUOUS
 62
    3
 10
206.7816118860419
 20
1219.2005507263941
 11
1934.9959894067383
 21
1219.2005507263941
  0
LINE
  8
_0-1_計細線
  6
CONTINUOUS
 62
    3
 10
1937.6754812842942
 20
1229.2005507263941
 11
206.7816118860419
 21
1229.2005507263941
  0
LINE
  8
_0-1_計細線
  6
CONTINUOUS
 62
    3
 10
240.7816105260008
 20
1188.2005507263946
 11
1926.6895644313431
 21
1188.2005507263946
  0
LINE
  8
_0-1_計細線
  6
CONTINUOUS
 62
    3
 10
1930.9767515833169
 20
1204.2005507263946
 11
1952.2816118860405
 21
1204.2005507263946
  0
LINE
  8
_0-1_計細線
  6
CONTINUOUS
 62
    3
 10
1952.2816118860405
 20
1204.2005507263946
 11
1952.2816118860405
 21
1182.2005507263946
  0
LINE
  8
_0-1_計細線
  6
CONTINUOUS
 62
    3
 10
1952.2816118860405
 20
1182.2005507263946
 11
1925.0818693498327
 21
1182.2005507263946
  0
LINE
  8
_0-5_寸法線
  6
CONTINUOUS
 62
    7
 10
1998.2816118860405
 20
1152.2005507263946
 11
2126.2816118860405
 21
1152.2005507263941
  0
LINE
  8
_0-5_寸法線
  6
CONTINUOUS
 62
    7
 10
2118.2816118860405
 20
1152.2005507263941
 11
2114.1405071644003
 21
1167.6553639470192
  0
LINE
  8
_0-5_寸法線
  6
CONTINUOUS
 62
    7
 10
2118.2816118860405
 20
1152.2005507263941
 11
2122.4227166076807
 21
1167.6553639470192
  0
LINE
  8
_0-5_寸法線
  6
CONTINUOUS
 62
    7
 10
1998.2816118860405
 20
1234.2005507263946
 11
2126.2816118860405
 21
1234.2005507263941
  0
LINE
  8
_0-5_寸法線
  6
CONTINUOUS
 62
    7
 10
2118.2816118860405
 20
1234.2005507263941
 11
2122.4227166076807
 21
1218.7457375057691
  0
LINE
  8
_0-5_寸法線
  6
CONTINUOUS
 62
    7
 10
2118.2816118860405
 20
1234.2005507263941
 11
2114.1405071644003
 21
1218.7457375057691
  0
LINE
  8
_0-5_寸法線
  6
CONTINUOUS
 62
    7
 10
2118.2816118860405
 20
1152.2005507263941
 11
2118.2816118860405
 21
1234.2005507263941
  0
TEXT
  8
_0-5_寸法線
 62
    7
 10
2118.2816118860405
 20
1181.2005507263941
 40
24
 41
1
 50
90
  1
82
  0
LINE
  8
_0-5_寸法線
  6
CONTINUOUS
 62
    7
 10
1998.2816118860405
 20
1152.2005507263946
 11
2070.2816118860405
 21
1152.2005507263941
  0
LINE
  8
_0-5_寸法線
  6
CONTINUOUS
 62
    7
 10
2062.2816118860405
 20
1152.2005507263941
 11
2058.1405071644003
 21
1167.6553639470192
  0
LINE
  8
_0-5_寸法線
  6
CONTINUOUS
 62
    7
 10
2062.2816118860405
 20
1152.2005507263941
 11
2066.4227166076807
 21
1167.6553639470192
  0
LINE
  8
_0-5_寸法線
  6
CONTINUOUS
 62
    7
 10
1998.2816118860405
 20
1182.2005507263946
 11
2070.2816118860405
 21
1182.2005507263941
  0
LINE
  8
_0-5_寸法線
  6
CONTINUOUS
 62
    7
 10
2062.2816118860405
 20
1182.2005507263941
 11
2066.4227166076807
 21
1166.7457375057691
  0
LINE
  8
_0-5_寸法線
  6
CONTINUOUS
 62
    7
 10
2062.2816118860405
 20
1182.2005507263941
 11
2058.1405071644003
 21
1166.7457375057691
  0
LINE
  8
_0-5_寸法線
  6
CONTINUOUS
 62
    7
 10
2062.2816118860405
 20
1152.2005507263941
 11
2062.2816118860405
 21
1182.2005507263941
  0
TEXT
  8
_0-5_寸法線
 62
    7
 10
2062.2816118860405
 20
1155.2005507263941
 40
24
 41
1
 50
90
  1
30
  0
LINE
  8
_0-5_寸法線
  6
CONTINUOUS
 62
    7
 10
2062.2816118860405
 20
1182.2005507263941
 11
2058.1405071644003
 21
1197.6553639470192
  0
LINE
  8
_0-5_寸法線
  6
CONTINUOUS
 62
    7
 10
2062.2816118860405
 20
1182.2005507263941
 11
2066.4227166076807
 21
1197.6553639470192
  0
LINE
  8
_0-5_寸法線
  6
CONTINUOUS
 62
    7
 10
1998.2816118860405
 20
1204.2005507263946
 11
2070.2816118860405
 21
1204.2005507263941
  0
LINE
  8
_0-5_寸法線
  6
CONTINUOUS
 62
    7
 10
2062.2816118860405
 20
1204.2005507263941
 11
2066.4227166076807
 21
1188.7457375057691
  0
LINE
  8
_0-5_寸法線
  6
CONTINUOUS
 62
    7
 10
2062.2816118860405
 20
1204.2005507263941
 11
2058.1405071644003
 21
1188.7457375057691
  0
LINE
  8
_0-5_寸法線
  6
CONTINUOUS
 62
    7
 10
2062.2816118860405
 20
1182.2005507263941
 11
2062.2816118860405
 21
1204.2005507263941
  0
TEXT
  8
_0-5_寸法線
 62
    7
 10
2062.2816118860414
 20
1181.2005507263941
 40
24
 41
1
 50
90
  1
22
  0
LINE
  8
_0-5_寸法線
  6
CONTINUOUS
 62
    7
 10
2062.2816118860405
 20
1204.2005507263941
 11
2058.1405071644003
 21
1219.6553639470192
  0
LINE
  8
_0-5_寸法線
  6
CONTINUOUS
 62
    7
 10
2062.2816118860405
 20
1204.2005507263941
 11
2066.4227166076807
 21
1219.6553639470192
  0
LINE
  8
_0-5_寸法線
  6
CONTINUOUS
 62
    7
 10
1998.2816118860405
 20
1234.2005507263946
 11
2070.2816118860405
 21
1234.2005507263941
  0
LINE
  8
_0-5_寸法線
  6
CONTINUOUS
 62
    7
 10
2062.2816118860405
 20
1234.2005507263941
 11
2066.4227166076807
 21
1218.7457375057691
  0
LINE
  8
_0-5_寸法線
  6
CONTINUOUS
 62
    7
 10
2062.2816118860405
 20
1234.2005507263941
 11
2058.1405071644003
 21
1218.7457375057691
  0
LINE
  8
_0-5_寸法線
  6
CONTINUOUS
 62
    7
 10
2062.2816118860405
 20
1204.2005507263941
 11
2062.2816118860405
 21
1234.2005507263941
  0
TEXT
  8
_0-5_寸法線
 62
    7
 10
2062.2816118860405
 20
1207.2005507263941
 40
24
 41
1
 50
90
  1
30
  0
LINE
  8
_0-5_寸法線
  6
CONTINUOUS
 62
    7
 10
225.68114171071966
 20
1187.0172133839089
 11
233.68114171071966
 21
1173.160806923358
  0
LINE
  8
_0-5_寸法線
  6
CONTINUOUS
 62
    7
 10
225.68114171071966
 20
1187.0172133839089
 11
225.68114171071966
 21
1171.0172133839089
  0
LINE
  8
_0-5_寸法線
  6
CONTINUOUS
 62
    7
 10
225.68114171071966
 20
1187.0172133839089
 11
245.72820605019206
 21
1112.2005507263946
  0
LINE
  8
_0-5_寸法線
  6
CONTINUOUS
 62
    7
 10
245.72820605019206
 20
1112.2005507263946
 11
399.32820605019197
 21
1112.2005507263946
  0
TEXT
  8
_0-5_寸法線
 62
    7
 10
245.72820605019206
 20
1112.2005507263946
 40
24
 41
0.7999999999999998
 50
0
  1
ボルトカバー金具
  0
LINE
  8
_0-5_寸法線
  6
CONTINUOUS
 62
    7
 10
1969.2816126860557
 20
1192.7005507463948
 11
1965.1405079644153
 21
1177.2457375257698
  0
LINE
  8
_0-5_寸法線
  6
CONTINUOUS
 62
    7
 10
1969.2816126860557
 20
1192.7005507463948
 11
1957.9679041870709
 21
1181.38684224741
  0
LINE
  8
_0-5_寸法線
  6
CONTINUOUS
 62
    7
 10
1969.2816126860557
 20
1192.7005507463948
 11
1922.8049160047435
 21
1112.2005507263946
  0
LINE
  8
_0-5_寸法線
  6
CONTINUOUS
 62
    7
 10
1922.8049160047435
 20
1112.2005507263946
 11
1788.4049160047437
 21
1112.2005507263946
  0
TEXT
  8
_0-5_寸法線
 62
    7
 10
1788.4049160047437
 20
1112.2005507263946
 40
24
 41
0.7999999999999998
 50
0
  1
抜け防止Ｌ金具
  0
LINE
  8
_0-5_寸法線
  6
CONTINUOUS
 62
    7
 10
1956.8729353867743
 20
1225.3521203205194
 11
1945.5592268877895
 21
1236.665828819504
  0
LINE
  8
_0-5_寸法線
  6
CONTINUOUS
 62
    7
 10
1956.8729353867743
 20
1225.3521203205194
 11
1952.7318306651339
 21
1240.8069335411444
  0
LINE
  8
_0-5_寸法線
  6
CONTINUOUS
 62
    7
 10
1956.8729353867743
 20
1225.3521203205194
 11
1933.2890830959682
 21
1266.2005507263946
  0
LINE
  8
_0-5_寸法線
  6
CONTINUOUS
 62
    7
 10
1933.2890830959682
 20
1266.2005507263946
 11
1818.0890830959681
 21
1266.2005507263946
  0
TEXT
  8
_0-5_寸法線
 62
    7
 10
1818.0890830959681
 20
1266.2005507263946
 40
24
 41
0.7999999999999998
 50
0
  1
Ｌアングル枠
  0
TEXT
  8
_0-5_寸法線
 62
    7
 10
145.99583940488992
 20
1163.4076103914924
 40
24
 41
1
 50
0
  1
Ｂ部
  0
TEXT
  8
_0-7_枠細線
 62
    5
 10
1544.7999999999997
 20
176
 40
32
 41
0.6
 50
0
  1
ＧＳＥ－Ｌ１８００Ｎ
  0
TEXT
  8
_0-7_枠細線
 62
    5
 10
1910.4000000000001
 20
188
 40
32
 41
0.6999999999999998
 50
0
  1
１：８
  0
LINE
  8
_0-5_寸法線
  6
CONTINUOUS
 62
    7
 10
754.34299167458039
 20
1162.8831745832033
 11
754.34299167458028
 21
1146.8831745832033
  0
LINE
  8
_0-5_寸法線
  6
CONTINUOUS
 62
    7
 10
754.34299167458039
 20
1162.8831745832033
 11
746.34299167458039
 21
1149.0267681226524
  0
LINE
  8
_0-5_寸法線
  6
CONTINUOUS
 62
    7
 10
754.34299167458039
 20
1162.8831745832033
 11
740.76262354185792
 21
1112.2005507263946
  0
LINE
  8
_0-5_寸法線
  6
CONTINUOUS
 62
    7
 10
740.76262354185792
 20
1112.2005507263946
 11
683.16262354185778
 21
1112.2005507263946
  0
TEXT
  8
_0-5_寸法線
 62
    7
 10
683.1626235418579
 20
1112.2005507263946
 40
24
 41
0.7999999999999998
 50
0
  1
上フタ
  0
LINE
  8
_0-0_計極細
  6
CONTINUOUS
 62
    2
 10
531.73161031537541
 20
1167.2005507263955
 11
531.73161031537541
 21
1172.700550726395
  0
LINE
  8
_0-0_計極細
  6
CONTINUOUS
 62
    2
 10
524.83161031525299
 20
1167.2005507263955
 11
524.83161031525299
 21
1172.700550726395
  0
LINE
  8
_0-0_計極細
  6
CONTINUOUS
 62
    2
 10
531.73161031537541
 20
1182.700550726395
 11
531.73161031537541
 21
1188.2005507263946
  0
LINE
  8
_0-0_計極細
  6
CONTINUOUS
 62
    2
 10
524.83161031525299
 20
1182.700550726395
 11
524.83161031525299
 21
1188.2005507263946
  0
LINE
  8
_0-0_計極細
  6
CONTINUOUS
 62
    2
 10
531.73161031537541
 20
1203.7005507263946
 11
531.73161031537541
 21
1198.2005507263946
  0
LINE
  8
_0-0_計極細
  6
CONTINUOUS
 62
    2
 10
524.83161031525299
 20
1203.7005507263946
 11
524.83161031525299
 21
1198.2005507263946
  0
LINE
  8
_0-0_計極細
  6
CONTINUOUS
 62
    2
 10
531.73160799482287
 20
1219.2005507263941
 11
531.73161030600124
 21
1213.7005507263946
  0
LINE
  8
_0-0_計極細
  6
CONTINUOUS
 62
    2
 10
524.83160802502618
 20
1219.2005507263941
 11
524.83161030600115
 21
1213.7005507263946
  0
LINE
  8
_0-0_計極細
  6
CONTINUOUS
 62
    2
 10
535.78161000599323
 20
1182.7005511464051
 11
535.78161000599323
 21
1188.2005509263997
  0
LINE
  8
_0-0_計極細
  6
CONTINUOUS
 62
    2
 10
520.78161060600871
 20
1182.7005511464051
 11
520.78161060600871
 21
1188.2005509263997
  0
LINE
  8
_0-0_計極細
  6
CONTINUOUS
 62
    2
 10
535.78161000599323
 20
1167.2005517664215
 11
535.78161000599323
 21
1172.7005515464159
  0
LINE
  8
_0-0_計極細
  6
CONTINUOUS
 62
    2
 10
520.78161060600871
 20
1167.2005517664215
 11
520.78161060600871
 21
1172.7005515464159
  0
LINE
  8
_0-0_計極細
  6
CONTINUOUS
 62
    2
 10
535.78161000599323
 20
1219.2005496863676
 11
535.78161000599323
 21
1213.7005499063737
  0
LINE
  8
_0-0_計極細
  6
CONTINUOUS
 62
    2
 10
520.78161060600871
 20
1219.2005496863676
 11
520.78161060600871
 21
1213.7005499063737
  0
LINE
  8
_0-0_計極細
  6
CONTINUOUS
 62
    2
 10
535.78161000599323
 20
1203.700550306384
 11
535.78161000599323
 21
1198.2005505263894
  0
LINE
  8
_0-0_計極細
  6
CONTINUOUS
 62
    2
 10
520.78161060600871
 20
1203.700550306384
 11
520.78161060600871
 21
1198.2005505263894
  0
LINE
  8
_0-5_寸法線
  6
CONTINUOUS
 62
    7
 10
528.27775671101301
 20
1107.6256318961468
 11
543.73256993163807
 21
1111.7667366177873
  0
LINE
  8
_0-5_寸法線
  6
CONTINUOUS
 62
    7
 10
528.27775671101301
 20
1107.6256318961468
 11
543.73256993163807
 21
1103.4845271745064
  0
LINE
  8
_0-5_寸法線
  6
CONTINUOUS
 62
    7
 10
528.27775671101301
 20
1107.6256318961468
 11
582.03312277557291
 21
1107.6256318961468
  0
LINE
  8
_0-5_寸法線
  6
CONTINUOUS
 62
    7
 10
582.03312277557291
 20
1107.6256318961468
 11
582.03312277557291
 21
1107.1141896271927
  0
LINE
  8
_0-5_寸法線
  6
CONTINUOUS
 62
    7
 10
528.27775671101301
 20
1258.1778431893597
 11
543.73256993163807
 21
1262.3189479110001
  0
LINE
  8
_0-5_寸法線
  6
CONTINUOUS
 62
    7
 10
528.27775671101301
 20
1258.1778431893597
 11
543.73256993163807
 21
1254.0367384677193
  0
LINE
  8
_0-5_寸法線
  6
CONTINUOUS
 62
    7
 10
528.27775671101301
 20
1258.1778431893597
 11
582.03312277557291
 21
1258.1778431893597
  0
LINE
  8
_0-5_寸法線
  6
CONTINUOUS
 62
    7
 10
582.03312277557291
 20
1258.1778431893597
 11
582.03312277557291
 21
1257.6664009204053
  0
LINE
  8
_0-0_計極細
  6
CENTER1
 62
    2
 10
528.28161030600097
 20
1274.8328557903806
 11
528.28161030600097
 21
1093.9605997223016
  0
LINE
  8
_0-0_計極細
  6
CONTINUOUS
 62
    2
 10
813.73161031537529
 20
1167.2005507263955
 11
813.73161031537529
 21
1172.700550726395
  0
LINE
  8
_0-0_計極細
  6
CONTINUOUS
 62
    2
 10
806.83161031525287
 20
1167.2005507263955
 11
806.83161031525287
 21
1172.700550726395
  0
LINE
  8
_0-0_計極細
  6
CONTINUOUS
 62
    2
 10
813.73161031537529
 20
1182.700550726395
 11
813.73161031537529
 21
1188.2005507263946
  0
LINE
  8
_0-0_計極細
  6
CONTINUOUS
 62
    2
 10
806.83161031525287
 20
1182.700550726395
 11
806.83161031525287
 21
1188.2005507263946
  0
LINE
  8
_0-0_計極細
  6
CONTINUOUS
 62
    2
 10
813.73161031537529
 20
1203.7005507263946
 11
813.73161031537529
 21
1198.2005507263946
  0
LINE
  8
_0-0_計極細
  6
CONTINUOUS
 62
    2
 10
806.83161031525287
 20
1203.7005507263946
 11
806.83161031525287
 21
1198.2005507263946
  0
LINE
  8
_0-0_計極細
  6
CONTINUOUS
 62
    2
 10
813.73160799482275
 20
1219.2005507263941
 11
813.73161030600113
 21
1213.7005507263946
  0
LINE
  8
_0-0_計極細
  6
CONTINUOUS
 62
    2
 10
806.83160802502607
 20
1219.2005507263941
 11
806.83161030600104
 21
1213.7005507263946
  0
LINE
  8
_0-0_計極細
  6
CONTINUOUS
 62
    2
 10
817.78161000599312
 20
1182.7005511464051
 11
817.78161000599312
 21
1188.2005509263997
  0
LINE
  8
_0-0_計極細
  6
CONTINUOUS
 62
    2
 10
802.7816106060086
 20
1182.7005511464051
 11
802.7816106060086
 21
1188.2005509263997
  0
LINE
  8
_0-0_計極細
  6
CONTINUOUS
 62
    2
 10
817.78161000599312
 20
1167.2005517664215
 11
817.78161000599312
 21
1172.7005515464159
  0
LINE
  8
_0-0_計極細
  6
CONTINUOUS
 62
    2
 10
802.7816106060086
 20
1167.2005517664215
 11
802.7816106060086
 21
1172.7005515464159
  0
LINE
  8
_0-0_計極細
  6
CONTINUOUS
 62
    2
 10
817.78161000599312
 20
1219.2005496863676
 11
817.78161000599312
 21
1213.7005499063737
  0
LINE
  8
_0-0_計極細
  6
CONTINUOUS
 62
    2
 10
802.7816106060086
 20
1219.2005496863676
 11
802.7816106060086
 21
1213.7005499063737
  0
LINE
  8
_0-0_計極細
  6
CONTINUOUS
 62
    2
 10
817.78161000599312
 20
1203.700550306384
 11
817.78161000599312
 21
1198.2005505263894
  0
LINE
  8
_0-0_計極細
  6
CONTINUOUS
 62
    2
 10
802.7816106060086
 20
1203.700550306384
 11
802.7816106060086
 21
1198.2005505263894
  0
LINE
  8
_0-0_計極細
  6
CONTINUOUS
 62
    2
 10
1095.7316103153753
 20
1167.2005507263955
 11
1095.7316103153753
 21
1172.700550726395
  0
LINE
  8
_0-0_計極細
  6
CONTINUOUS
 62
    2
 10
1088.8316103152529
 20
1167.2005507263955
 11
1088.8316103152529
 21
1172.700550726395
  0
LINE
  8
_0-0_計極細
  6
CONTINUOUS
 62
    2
 10
1095.7316103153753
 20
1182.700550726395
 11
1095.7316103153753
 21
1188.2005507263946
  0
LINE
  8
_0-0_計極細
  6
CONTINUOUS
 62
    2
 10
1088.8316103152529
 20
1182.700550726395
 11
1088.8316103152529
 21
1188.2005507263946
  0
LINE
  8
_0-0_計極細
  6
CONTINUOUS
 62
    2
 10
1095.7316103153753
 20
1203.7005507263946
 11
1095.7316103153753
 21
1198.2005507263946
  0
LINE
  8
_0-0_計極細
  6
CONTINUOUS
 62
    2
 10
1088.8316103152529
 20
1203.7005507263946
 11
1088.8316103152529
 21
1198.2005507263946
  0
LINE
  8
_0-0_計極細
  6
CONTINUOUS
 62
    2
 10
1095.7316079948228
 20
1219.2005507263941
 11
1095.7316103060011
 21
1213.7005507263946
  0
LINE
  8
_0-0_計極細
  6
CONTINUOUS
 62
    2
 10
1088.8316080250261
 20
1219.2005507263941
 11
1088.831610306001
 21
1213.7005507263946
  0
LINE
  8
_0-0_計極細
  6
CONTINUOUS
 62
    2
 10
1099.7816100059931
 20
1182.7005511464051
 11
1099.7816100059931
 21
1188.2005509263997
  0
LINE
  8
_0-0_計極細
  6
CONTINUOUS
 62
    2
 10
1084.7816106060086
 20
1182.7005511464051
 11
1084.7816106060086
 21
1188.2005509263997
  0
LINE
  8
_0-0_計極細
  6
CONTINUOUS
 62
    2
 10
1099.7816100059931
 20
1167.2005517664215
 11
1099.7816100059931
 21
1172.7005515464159
  0
LINE
  8
_0-0_計極細
  6
CONTINUOUS
 62
    2
 10
1084.7816106060086
 20
1167.2005517664215
 11
1084.7816106060086
 21
1172.7005515464159
  0
LINE
  8
_0-0_計極細
  6
CONTINUOUS
 62
    2
 10
1099.7816100059931
 20
1219.2005496863676
 11
1099.7816100059931
 21
1213.7005499063737
  0
LINE
  8
_0-0_計極細
  6
CONTINUOUS
 62
    2
 10
1084.7816106060086
 20
1219.2005496863676
 11
1084.7816106060086
 21
1213.7005499063737
  0
LINE
  8
_0-0_計極細
  6
CONTINUOUS
 62
    2
 10
1099.7816100059931
 20
1203.700550306384
 11
1099.7816100059931
 21
1198.2005505263894
  0
LINE
  8
_0-0_計極細
  6
CONTINUOUS
 62
    2
 10
1084.7816106060086
 20
1203.700550306384
 11
1084.7816106060086
 21
1198.2005505263894
  0
LINE
  8
_0-0_計極細
  6
CONTINUOUS
 62
    2
 10
1377.7316103153753
 20
1167.2005507263955
 11
1377.7316103153753
 21
1172.700550726395
  0
LINE
  8
_0-0_計極細
  6
CONTINUOUS
 62
    2
 10
1370.8316103152529
 20
1167.2005507263955
 11
1370.8316103152529
 21
1172.700550726395
  0
LINE
  8
_0-0_計極細
  6
CONTINUOUS
 62
    2
 10
1377.7316103153753
 20
1182.700550726395
 11
1377.7316103153753
 21
1188.2005507263946
  0
LINE
  8
_0-0_計極細
  6
CONTINUOUS
 62
    2
 10
1370.8316103152529
 20
1182.700550726395
 11
1370.8316103152529
 21
1188.2005507263946
  0
LINE
  8
_0-0_計極細
  6
CONTINUOUS
 62
    2
 10
1377.7316103153753
 20
1203.7005507263946
 11
1377.7316103153753
 21
1198.2005507263946
  0
LINE
  8
_0-0_計極細
  6
CONTINUOUS
 62
    2
 10
1370.8316103152529
 20
1203.7005507263946
 11
1370.8316103152529
 21
1198.2005507263946
  0
LINE
  8
_0-0_計極細
  6
CONTINUOUS
 62
    2
 10
1377.7316079948228
 20
1219.2005507263941
 11
1377.7316103060011
 21
1213.7005507263946
  0
LINE
  8
_0-0_計極細
  6
CONTINUOUS
 62
    2
 10
1370.8316080250261
 20
1219.2005507263941
 11
1370.831610306001
 21
1213.7005507263946
  0
LINE
  8
_0-0_計極細
  6
CONTINUOUS
 62
    2
 10
1381.7816100059931
 20
1182.7005511464051
 11
1381.7816100059931
 21
1188.2005509263997
  0
LINE
  8
_0-0_計極細
  6
CONTINUOUS
 62
    2
 10
1366.7816106060086
 20
1182.7005511464051
 11
1366.7816106060086
 21
1188.2005509263997
  0
LINE
  8
_0-0_計極細
  6
CONTINUOUS
 62
    2
 10
1381.7816100059931
 20
1167.2005517664215
 11
1381.7816100059931
 21
1172.7005515464159
  0
LINE
  8
_0-0_計極細
  6
CONTINUOUS
 62
    2
 10
1366.7816106060086
 20
1167.2005517664215
 11
1366.7816106060086
 21
1172.7005515464159
  0
LINE
  8
_0-0_計極細
  6
CONTINUOUS
 62
    2
 10
1381.7816100059931
 20
1219.2005496863676
 11
1381.7816100059931
 21
1213.7005499063737
  0
LINE
  8
_0-0_計極細
  6
CONTINUOUS
 62
    2
 10
1366.7816106060086
 20
1219.2005496863676
 11
1366.7816106060086
 21
1213.7005499063737
  0
LINE
  8
_0-0_計極細
  6
CONTINUOUS
 62
    2
 10
1381.7816100059931
 20
1203.700550306384
 11
1381.7816100059931
 21
1198.2005505263894
  0
LINE
  8
_0-0_計極細
  6
CONTINUOUS
 62
    2
 10
1366.7816106060086
 20
1203.700550306384
 11
1366.7816106060086
 21
1198.2005505263894
  0
LINE
  8
_0-0_計極細
  6
CONTINUOUS
 62
    2
 10
1659.7316103153753
 20
1167.2005507263955
 11
1659.7316103153753
 21
1172.700550726395
  0
LINE
  8
_0-0_計極細
  6
CONTINUOUS
 62
    2
 10
1652.8316103152529
 20
1167.2005507263955
 11
1652.8316103152529
 21
1172.700550726395
  0
LINE
  8
_0-0_計極細
  6
CONTINUOUS
 62
    2
 10
1659.7316103153753
 20
1182.700550726395
 11
1659.7316103153753
 21
1188.2005507263946
  0
LINE
  8
_0-0_計極細
  6
CONTINUOUS
 62
    2
 10
1652.8316103152529
 20
1182.700550726395
 11
1652.8316103152529
 21
1188.2005507263946
  0
LINE
  8
_0-0_計極細
  6
CONTINUOUS
 62
    2
 10
1659.7316103153753
 20
1203.7005507263946
 11
1659.7316103153753
 21
1198.2005507263946
  0
LINE
  8
_0-0_計極細
  6
CONTINUOUS
 62
    2
 10
1652.8316103152529
 20
1203.7005507263946
 11
1652.8316103152529
 21
1198.2005507263946
  0
LINE
  8
_0-0_計極細
  6
CONTINUOUS
 62
    2
 10
1659.7316079948228
 20
1219.2005507263941
 11
1659.7316103060011
 21
1213.7005507263946
  0
LINE
  8
_0-0_計極細
  6
CONTINUOUS
 62
    2
 10
1652.8316080250261
 20
1219.2005507263941
 11
1652.831610306001
 21
1213.7005507263946
  0
LINE
  8
_0-0_計極細
  6
CONTINUOUS
 62
    2
 10
1663.7816100059931
 20
1182.7005511464051
 11
1663.7816100059931
 21
1188.2005509263997
  0
LINE
  8
_0-0_計極細
  6
CONTINUOUS
 62
    2
 10
1648.7816106060086
 20
1182.7005511464051
 11
1648.7816106060086
 21
1188.2005509263997
  0
LINE
  8
_0-0_計極細
  6
CONTINUOUS
 62
    2
 10
1663.7816100059931
 20
1167.2005517664215
 11
1663.7816100059931
 21
1172.7005515464159
  0
LINE
  8
_0-0_計極細
  6
CONTINUOUS
 62
    2
 10
1648.7816106060086
 20
1167.2005517664215
 11
1648.7816106060086
 21
1172.7005515464159
  0
LINE
  8
_0-0_計極細
  6
CONTINUOUS
 62
    2
 10
1663.7816100059931
 20
1219.2005496863676
 11
1663.7816100059931
 21
1213.7005499063737
  0
LINE
  8
_0-0_計極細
  6
CONTINUOUS
 62
    2
 10
1648.7816106060086
 20
1219.2005496863676
 11
1648.7816106060086
 21
1213.7005499063737
  0
LINE
  8
_0-0_計極細
  6
CONTINUOUS
 62
    2
 10
1663.7816100059931
 20
1203.700550306384
 11
1663.7816100059931
 21
1198.2005505263894
  0
LINE
  8
_0-0_計極細
  6
CONTINUOUS
 62
    2
 10
1648.7816106060086
 20
1203.700550306384
 11
1648.7816106060086
 21
1198.2005505263894
  0
TEXT
  8
_0-7_枠細線
 62
    5
 10
1985.5672758920832
 20
627.68320278501938
 40
24.000000000000004
 41
0.8
 50
0
  1
ノンスリップ
  0
TEXT
  8
_0-7_枠細線
 62
    5
 10
1796.7672758920808
 20
627.6832027850196
 40
24.000000000000004
 41
0.8
 50
0
  1
プレーン
  0
TEXT
  8
_0-7_枠細線
 62
    5
 10
1652.7672758920814
 20
627.68320278501938
 40
24.000000000000004
 41
0.8
 50
0
  1
タ イ プ
  0
LINE
  8
_0-7_枠細線
  6
CONTINUOUS
 62
    5
 10
1651.1672758920804
 20
579.6832027850196
 11
2147.1672758920818
 21
579.6832027850196
  0
LINE
  8
_0-7_枠細線
  6
CONTINUOUS
 62
    5
 10
1651.1672758920804
 20
619.68320278501938
 11
2147.1672758920818
 21
619.68320278501938
  0
LINE
  8
_0-7_枠細線
  6
CONTINUOUS
 62
    5
 10
1651.1672758920804
 20
659.68320278501938
 11
2147.1672758920818
 21
659.68320278501938
  0
LINE
  8
_0-7_枠細線
  6
CONTINUOUS
 62
    5
 10
1971.051609232625
 20
543.28763742540593
 11
2122.8603878841122
 21
543.28763742540593
  0
LINE
  8
_0-7_枠細線
  6
CONTINUOUS
 62
    5
 10
1965.0752998998892
 20
569.95430408940592
 11
2116.8840785513758
 21
569.95430408940592
  0
ARC
  8
_0-7_枠細線
  6
CONTINUOUS
 62
    5
 10
1988.5006092308804
 20
551.28763742460592
 40
5.3333333327999997
 50
51.317813000005657
 51
203.57817800000262
  0
ARC
  8
_0-7_枠細線
  6
CONTINUOUS
 62
    5
 10
1995.1672758968807
 20
559.61430142377344
 40
5.3333333327999997
 50
231.31781300000299
 51
308.68218699999818
  0
LINE
  8
_0-7_枠細線
  6
CONTINUOUS
 62
    5
 10
1983.6125292313698
 20
549.15430409148598
 11
2006.7220225623919
 21
549.15430409148598
  0
ARC
  8
_0-7_枠細線
  6
CONTINUOUS
 62
    5
 10
2001.833942562881
 20
551.28763742460592
 40
5.3333333327999997
 50
336.42182199999178
 51
128.68218700000352
  0
ARC
  8
_0-7_枠細線
  6
CONTINUOUS
 62
    5
 10
2036.5006092260808
 20
561.95430409020582
 40
5.3333333327999997
 50
156.42182199999701
 51
308.68218699999784
  0
ARC
  8
_0-7_枠細線
  6
CONTINUOUS
 62
    5
 10
2043.1672758920804
 20
553.6276400910383
 40
5.3333333327999997
 50
51.317813000007185
 51
128.68218699999284
  0
ARC
  8
_0-7_枠細線
  6
CONTINUOUS
 62
    5
 10
2049.8339425580812
 20
561.95430409020582
 40
5.3333333327999997
 50
231.3178129999977
 51
23.578178000004584
  0
LINE
  8
_0-7_枠細線
  6
CONTINUOUS
 62
    5
 10
2031.6125292265706
 20
564.08763742332576
 11
2054.7220225575907
 21
564.08763742332576
  0
LINE
  8
_0-7_枠細線
  6
CONTINUOUS
 62
    5
 10
2079.6125292217703
 20
549.15430409148598
 11
2102.7220225527917
 21
549.15430409148598
  0
ARC
  8
_0-7_枠細線
  6
CONTINUOUS
 62
    5
 10
2084.5006092212811
 20
551.28763742460592
 40
5.3333333327999997
 50
51.317813000007561
 51
203.57817800000262
  0
ARC
  8
_0-7_枠細線
  6
CONTINUOUS
 62
    5
 10
2091.1672758872805
 20
559.61430142377344
 40
5.3333333327999997
 50
231.3178129999973
 51
308.68218699999818
  0
ARC
  8
_0-7_枠細線
  6
CONTINUOUS
 62
    5
 10
2097.8339425532804
 20
551.28763742460592
 40
5.3333333327999997
 50
336.42182199999667
 51
128.6821869999921
  0
ARC
  8
_0-7_枠細線
  6
CONTINUOUS
 62
    5
 10
2036.5006092260808
 20
561.95430409020582
 40
9.9466666656720477
 50
151.14636799999636
 51
308.68218700000597
  0
LINE
  8
_0-7_枠細線
  6
CONTINUOUS
 62
    5
 10
1964.4892678999486
 20
566.75430408972579
 11
2027.7887692269503
 21
566.75430408972579
  0
LINE
  8
_0-7_枠細線
  6
CONTINUOUS
 62
    5
 10
2010.5457852286754
 20
546.48763742508606
 11
2075.788769222153
 21
546.48763742508606
  0
ARC
  8
_0-7_枠細線
  6
CONTINUOUS
 62
    5
 10
1957.919913233939
 20
547.34617875833317
 40
13.744570665292123
 50
317.56162900000015
 51
42.438371000002093
  0
ARC
  8
_0-7_枠細線
  6
CONTINUOUS
 62
    5
 10
1988.5006092308804
 20
551.28763742460592
 40
9.9466666656720477
 50
51.317812999990608
 51
208.8536319999987
  0
ARC
  8
_0-7_枠細線
  6
CONTINUOUS
 62
    5
 10
1978.2069985652424
 20
565.89576275647858
 40
13.744570665292123
 50
137.56162899999859
 51
222.43837100000243
  0
LINE
  8
_0-7_枠細線
  6
CONTINUOUS
 62
    5
 10
1971.6376438992336
 20
546.48763742508606
 11
1979.7887692317513
 21
546.48763742508606
  0
ARC
  8
_0-7_枠細線
  6
CONTINUOUS
 62
    5
 10
1995.1672758968807
 20
559.61430142377344
 40
0.7199999999279512
 50
231.3178130000324
 51
308.68218699996686
  0
ARC
  8
_0-7_枠細線
  6
CONTINUOUS
 62
    5
 10
2001.833942562881
 20
551.28763742460592
 40
9.9466666656720477
 50
331.14636800000056
 51
128.682187000006
  0
ARC
  8
_0-7_枠細線
  6
CONTINUOUS
 62
    5
 10
2109.7286918854256
 20
547.34617875833317
 40
13.744570665292123
 50
317.56162900000083
 51
42.438370999999542
  0
ARC
  8
_0-7_枠細線
  6
CONTINUOUS
 62
    5
 10
2130.0157772167304
 20
565.89576275647858
 40
13.744570665292123
 50
137.56162900000371
 51
222.43837100000118
  0
LINE
  8
_0-7_枠細線
  6
CONTINUOUS
 62
    5
 10
2106.5457852190762
 20
546.48763742508606
 11
2123.4464225507209
 21
546.48763742508606
  0
LINE
  8
_0-7_枠細線
  6
CONTINUOUS
 62
    5
 10
2058.5457852238756
 20
566.75430408972579
 11
2116.2980465514361
 21
566.75430408972579
  0
ARC
  8
_0-7_枠細線
  6
CONTINUOUS
 62
    5
 10
2084.5006092212811
 20
551.28763742460592
 40
9.9466666656720477
 50
51.317812999994693
 51
208.85363200000455
  0
ARC
  8
_0-7_枠細線
  6
CONTINUOUS
 62
    5
 10
2043.1672758920804
 20
553.6276400910383
 40
0.7199999999279512
 50
51.317812999990394
 51
128.68218699996723
  0
ARC
  8
_0-7_枠細線
  6
CONTINUOUS
 62
    5
 10
2049.8339425580812
 20
561.95430409020582
 40
9.9466666656720477
 50
231.31781299998818
 51
28.853631999998139
  0
ARC
  8
_0-7_枠細線
  6
CONTINUOUS
 62
    5
 10
2091.1672758872805
 20
559.61430142377344
 40
0.7199999999279512
 50
231.31781300000418
 51
308.68218700002336
  0
ARC
  8
_0-7_枠細線
  6
CONTINUOUS
 62
    5
 10
2097.8339425532804
 20
551.28763742460592
 40
9.9466666656720477
 50
331.14636800000056
 51
128.68218700000699
  0
LINE
  8
_0-7_枠細線
  6
CENTER1
 62
    5
 10
1995.1672758968807
 20
572.19396542251502
 11
1995.1672758968807
 21
541.23692809227759
  0
LINE
  8
_0-7_枠細線
  6
CENTER1
 62
    5
 10
2091.1672758872805
 20
572.19396542251502
 11
2091.1672758872805
 21
541.23692809227759
  0
LINE
  8
_0-7_枠細線
  6
CENTER1
 62
    5
 10
2043.1672758920804
 20
572.19396542251502
 11
2043.1672758920804
 21
541.23692809227759
  0
LINE
  8
_0-7_枠細線
  6
CONTINUOUS
 62
    5
 10
1762.2510398993718
 20
543.28763742540593
 11
1914.0598185508593
 21
543.28763742540593
  0
LINE
  8
_0-7_枠細線
  6
CONTINUOUS
 62
    5
 10
1756.2747305666358
 20
569.95430408940592
 11
1908.0835092181233
 21
569.95430408940592
  0
ARC
  8
_0-7_枠細線
  6
CONTINUOUS
 62
    5
 10
1900.9281225521709
 20
547.34617875833317
 40
13.744570665292123
 50
317.56162900000368
 51
42.438370999997048
  0
ARC
  8
_0-7_枠細線
  6
CONTINUOUS
 62
    5
 10
1749.1193439006856
 20
547.34617875833317
 40
13.744570665292274
 50
317.5616290000001
 51
42.438371000000565
  0
LINE
  8
_0-7_枠細線
  6
CONTINUOUS
 62
    5
 10
1755.6886985666952
 20
566.75430408972579
 11
1907.4974772181822
 21
566.75430408972579
  0
LINE
  8
_0-7_枠細線
  6
CONTINUOUS
 62
    5
 10
1762.8370745659804
 20
546.48763742508606
 11
1914.6458532174665
 21
546.48763742508606
  0
ARC
  8
_0-7_枠細線
  6
CONTINUOUS
 62
    5
 10
1769.4064292319918
 20
565.89576275647858
 40
13.744570665292274
 50
137.56162900000047
 51
222.43837100000314
  0
ARC
  8
_0-7_枠細線
  6
CONTINUOUS
 62
    5
 10
1921.2152078834768
 20
565.89576275647858
 40
13.744570665292123
 50
137.56162900000052
 51
222.4383710000005
  0
LINE
  8
_0-7_枠細線
  6
CONTINUOUS
 62
    5
 10
1995.1672758968807
 20
535.28763742540593
 11
1995.1672758968807
 21
495.28763742540593
  0
LINE
  8
_0-7_枠細線
  6
CONTINUOUS
 62
    5
 10
1995.1672758968807
 20
503.28763742540593
 11
2010.6220891175058
 21
507.42874214704625
  0
LINE
  8
_0-7_枠細線
  6
CONTINUOUS
 62
    5
 10
1995.1672758968807
 20
503.28763742540593
 11
2010.6220891175058
 21
499.14653270376562
  0
LINE
  8
_0-7_枠細線
  6
CONTINUOUS
 62
    5
 10
2043.1672758920804
 20
535.28763742540593
 11
2043.1672758920804
 21
495.28763742540593
  0
LINE
  8
_0-7_枠細線
  6
CONTINUOUS
 62
    5
 10
2043.1672758920804
 20
503.28763742540593
 11
2027.7124626714553
 21
499.14653270376567
  0
LINE
  8
_0-7_枠細線
  6
CONTINUOUS
 62
    5
 10
2043.1672758920804
 20
503.28763742540593
 11
2027.7124626714553
 21
507.42874214704631
  0
LINE
  8
_0-7_枠細線
  6
CONTINUOUS
 62
    5
 10
1995.1672758968807
 20
503.28763742540593
 11
2043.1672758920804
 21
503.28763742540593
  0
TEXT
  8
_0-7_枠細線
 62
    5
 10
2007.1672758944803
 20
503.28763742540593
 40
24
 41
1
 50
0
  1
18
  0
LINE
  8
_0-7_枠細線
  6
CONTINUOUS
 62
    5
 10
2043.1672758920804
 20
503.28763742540593
 11
2058.6220891127055
 21
507.42874214704614
  0
LINE
  8
_0-7_枠細線
  6
CONTINUOUS
 62
    5
 10
2043.1672758920804
 20
503.28763742540593
 11
2058.6220891127055
 21
499.1465327037655
  0
LINE
  8
_0-7_枠細線
  6
CONTINUOUS
 62
    5
 10
2091.1672758872805
 20
535.28763742540593
 11
2091.1672758872805
 21
495.28763742540593
  0
LINE
  8
_0-7_枠細線
  6
CONTINUOUS
 62
    5
 10
2091.1672758872805
 20
503.28763742540593
 11
2075.7124626666555
 21
499.14653270376567
  0
LINE
  8
_0-7_枠細線
  6
CONTINUOUS
 62
    5
 10
2091.1672758872805
 20
503.28763742540593
 11
2075.7124626666555
 21
507.42874214704631
  0
LINE
  8
_0-7_枠細線
  6
CONTINUOUS
 62
    5
 10
2043.1672758920804
 20
503.28763742540593
 11
2091.1672758872805
 21
503.28763742540593
  0
TEXT
  8
_0-7_枠細線
 62
    5
 10
2055.1672758896812
 20
503.28763742540593
 40
24
 41
1
 50
0
  1
18
  0
LINE
  8
_0-7_枠細線
  6
CONTINUOUS
 62
    5
 10
1651.1672758920804
 20
491.68320278502011
 11
2147.1672758920818
 21
491.68320278502011
  0
LINE
  8
_0-7_枠細線
  6
CONTINUOUS
 62
    5
 10
2147.1672758920818
 20
659.68320278501938
 11
2147.1672758920818
 21
491.68320278502011
  0
LINE
  8
_0-7_枠細線
  6
CONTINUOUS
 62
    5
 10
1939.1672758920811
 20
659.68320278501938
 11
1939.1672758920811
 21
491.68320278502011
  0
LINE
  8
_0-7_枠細線
  6
CONTINUOUS
 62
    5
 10
1731.1672758920818
 20
659.68320278501938
 11
1731.1672758920818
 21
491.68320278502011
  0
LINE
  8
_0-7_枠細線
  6
CONTINUOUS
 62
    5
 10
1651.1672758920804
 20
659.68320278501938
 11
1651.1672758920804
 21
491.68320278502011
  0
TEXT
  8
_0-7_枠細線
 62
    5
 10
1652.7672758920814
 20
523.68320278501983
 40
24.000000000000004
 41
0.8
 50
0
  1
表面形状
  0
TEXT
  8
_0-7_枠細線
 62
    5
 10
1663.6060140373784
 20
663.6832027850196
 40
28.000000000000004
 41
0.7999999999999997
 50
0
  1
記号表
  0
TEXT
  8
_0-7_枠細線
 62
    5
 10
1652.7672758920814
 20
587.6832027850196
 40
24.000000000000004
 41
0.8
 50
0
  1
記　　号
  0
TEXT
  8
_0-7_枠細線
 62
    5
 10
1796.7672758920824
 20
587.6832027850196
 40
24.000000000000004
 41
0.7999999999999997
 50
0
  1
品番－Ｆ
  0
TEXT
  8
_0-7_枠細線
 62
    5
 10
2004.7672758920814
 20
587.6832027850196
 40
24.000000000000004
 41
0.7999999999999997
 50
0
  1
品番－Ｄ
  0
TEXT
  8
_0-7_枠細線
 62
    5
 10
1544.7999999999995
 20
112
 40
32.000000000000007
 41
0.5999999999999997
 50
0
  1
表面形状については記号表参照のこと
  0
TEXT
  8
_0-7_枠細線
 62
    5
 10
1226.3968031629133
 20
712.81415770550029
 40
32
 41
0.6000000000000002
 50
0
  1
Ｓ＝１：２
  0
TEXT
  8
_0-7_枠細線
 62
    5
 10
1050.7615317667514
 20
712.81415770550029
 40
32
 41
0.8
 50
0
  1
Ｂ部詳細図
  0
LINE
  8
_1-2_極細2
  6
CENTER1
 62
    2
 10
1138.8057458420831
 20
576.11245086034955
 11
1158.6399823124561
 21
529.38591794731269
  0
CIRCLE
  8
_1-2_極細2
  6
DASHED2
 62
    2
 10
1150.0062682767934
 20
549.72567358407559
 40
12
  0
LINE
  8
_1-2_極細2
  6
CENTER1
 62
    2
 10
1172.0874785303863
 20
559.09859124815466
 11
1130.8948906607461
 21
541.6133750829913
  0
LINE
  8
_1-2_極細2
  6
CONTINUOUS
 62
    2
 10
1165.0380352729376
 20
569.18035634664238
 11
1176.3517437719224
 21
580.49406484562724
  0
LINE
  8
_1-2_極細2
  6
DASHED2
 62
    2
 10
1212.3959245165465
 20
473.22154767180211
 11
1166.053289628539
 21
473.22154767180211
  0
LINE
  8
_1-2_極細2
  6
DASHED2
 62
    2
 10
1166.2638144932466
 20
580.52652082923942
 11
1211.9012103007922
 21
473.01155394599402
  0
LINE
  8
_1-2_極細2
  6
CONTINUOUS
 62
    2
 10
1165.0380352729376
 20
569.18035634664238
 11
1169.1791399945782
 21
584.63516956726721
  0
LINE
  8
_1-2_極細2
  6
CONTINUOUS
 62
    2
 10
1218.053289628539
 20
406.02154847180265
 11
1218.053289628539
 21
408.82154847180311
  0
LINE
  8
_1-2_極細2
  6
CONTINUOUS
 62
    2
 10
1166.053289628539
 20
432.58281574547021
 11
1166.053289628539
 21
408.82154767180248
  0
LINE
  8
_1-2_極細2
  6
CONTINUOUS
 62
    2
 10
1098.7904967961495
 20
432.82154847180311
 11
1098.7904967961495
 21
411.22154847180275
  0
LINE
  8
_1-2_極細2
  6
CONTINUOUS
 62
    2
 10
1077.4199758732193
 20
432.82154847180311
 11
1077.4199758732193
 21
411.22154847180303
  0
LINE
  8
_1-2_極細2
  6
CONTINUOUS
 62
    2
 10
1058.0532896285386
 20
408.82154847180311
 11
1058.0532896285386
 21
406.02154847180265
  0
LINE
  8
_1-2_極細2
  6
CONTINUOUS
 62
    2
 10
1058.0532896285386
 20
408.82154847180311
 11
1218.0532877485389
 21
408.82154847180311
  0
LINE
  8
_1-2_極細2
  6
CONTINUOUS
 62
    2
 10
1058.0532896285386
 20
406.02154847180265
 11
1218.0532877485389
 21
406.02154847180265
  0
LINE
  8
_1-2_極細2
  6
CONTINUOUS
 62
    2
 10
1060.1052363346844
 20
408.82154847180311
 11
1116.1052363346844
 21
408.82154847180311
  0
LINE
  8
_1-2_極細2
  6
DASHED2
 62
    2
 10
1166.053289628539
 20
473.22154767180211
 11
1166.053289628539
 21
432.58281574547021
  0
LINE
  8
_1-5_寸法2
  6
CONTINUOUS
 62
    7
 10
1122.2421221966633
 20
502.22219625807378
 11
1107.8755359240349
 21
495.17938439979702
  0
ARC
  8
_1-5_寸法2
  6
CONTINUOUS
 62
    7
 10
1188.053289628539
 20
426.82154767180248
 40
100.08180437010788
 50
131.11509464913794
 51
160.19528028383283
  0
LINE
  8
_1-5_寸法2
  6
CONTINUOUS
 62
    7
 10
1093.8910375161868
 20
460.73080663018402
 11
1095.2311963759621
 21
476.67458203723749
  0
LINE
  8
_1-5_寸法2
  6
CONTINUOUS
 62
    7
 10
1093.8910375161868
 20
460.73080663018402
 11
1103.0235368373851
 21
473.86844173503818
  0
LINE
  8
_1-5_寸法2
  6
CONTINUOUS
 62
    7
 10
1122.2421221966633
 20
502.22219625807378
 11
1113.3216994480445
 21
488.93964913841694
  0
LINE
  8
_1-3_細線2
  6
CONTINUOUS
 62
    4
 10
1218.5689923889427
 20
441.94741574734246
 11
1206.3781811800786
 21
470.66716717505835
  0
LINE
  8
_1-3_細線2
  6
CONTINUOUS
 62
    4
 10
1119.9076933058113
 20
541.29502801471767
 11
1171.4842022663947
 21
419.78838735899546
  0
LINE
  8
_1-3_細線2
  6
CONTINUOUS
 62
    4
 10
1110.2052363346847
 20
432.82154847180311
 11
1066.005236334684
 21
432.82154847180311
  0
LINE
  8
_1-3_細線2
  6
CONTINUOUS
 62
    4
 10
1116.1052363346844
 20
411.22154847180303
 11
1060.1052363346844
 21
411.22154847180303
  0
LINE
  8
_1-3_細線2
  6
CONTINUOUS
 62
    4
 10
1100.1052363346844
 20
432.82154847180311
 11
1100.1052363346844
 21
438.02154847180265
  0
LINE
  8
_1-3_細線2
  6
CONTINUOUS
 62
    4
 10
1096.1052363346844
 20
442.02154847180265
 11
1100.1052363346844
 21
438.02154847180265
  0
LINE
  8
_1-3_細線2
  6
CONTINUOUS
 62
    4
 10
1076.1052363346844
 20
432.82154847180311
 11
1076.1052363346844
 21
438.02154847180265
  0
LINE
  8
_1-3_細線2
  6
CONTINUOUS
 62
    4
 10
1076.1052363346844
 20
438.02154847180265
 11
1080.1052363346844
 21
442.02154847180265
  0
LINE
  8
_1-3_細線2
  6
CONTINUOUS
 62
    4
 10
1080.1052363346844
 20
442.02154847180265
 11
1096.1052363346844
 21
442.02154847180265
  0
LINE
  8
_1-3_細線2
  6
CONTINUOUS
 62
    4
 10
1100.1052363346844
 20
406.02154847180265
 11
1100.1052363346844
 21
402.02154847180265
  0
LINE
  8
_1-3_細線2
  6
CONTINUOUS
 62
    4
 10
1060.1052363346844
 20
411.22154847180303
 11
1060.1052363346844
 21
408.82154847180311
  0
LINE
  8
_1-3_細線2
  6
CONTINUOUS
 62
    4
 10
1076.1052363346844
 20
406.02154847180265
 11
1076.1052363346844
 21
402.02154847180265
  0
LINE
  8
_1-3_細線2
  6
CONTINUOUS
 62
    4
 10
1066.005236334684
 20
432.82154847180311
 11
1066.005236334684
 21
411.22154847180303
  0
LINE
  8
_1-3_細線2
  6
DASHED2
 62
    4
 10
1100.1052363346844
 20
432.82154847180311
 11
1100.1052363346844
 21
406.02154847180265
  0
LINE
  8
_1-3_細線2
  6
DASHED2
 62
    4
 10
1076.1052363346844
 20
432.82154847180311
 11
1076.1052363346844
 21
406.02154847180265
  0
ARC
  8
_1-3_細線2
  6
CONTINUOUS
 62
    4
 10
1188.053289628539
 20
426.82154767180248
 40
18
 50
202.99999999999861
 51
292.99999999999977
  0
LINE
  8
_1-3_細線2
  6
CONTINUOUS
 62
    4
 10
1116.1052363346844
 20
411.22154847180303
 11
1116.1052363346844
 21
408.82154847180311
  0
LINE
  8
_1-3_細線2
  6
CONTINUOUS
 62
    4
 10
1110.2052363346847
 20
432.82154847180311
 11
1110.2052363346847
 21
411.22154847180275
  0
LINE
  8
_1-3_細線2
  6
CONTINUOUS
 62
    4
 10
1195.086449941346
 20
410.2524603096582
 11
1207.9735178896794
 21
415.7226961085081
  0
ARC
  8
_1-3_細線2
  6
CONTINUOUS
 62
    4
 10
1200.1588953198939
 20
434.13279317755689
 40
20
 50
292.99999999999989
 51
22.999999999998263
  0
LINE
  8
_1-3_細線2
  6
CONTINUOUS
 62
    4
 10
1215.583229714603
 20
474.57447845995114
 11
1169.9458339070557
 21
582.08944534319653
  0
LINE
  8
_1-3_細線2
  6
CONTINUOUS
 62
    4
 10
1206.3781811800786
 20
470.66716717505835
 11
1215.583229714603
 21
474.57447845995114
  0
LINE
  8
_1-3_細線2
  6
CONTINUOUS
 62
    4
 10
1169.9458339070557
 20
582.08944534319653
 11
1129.4436203551468
 21
564.89727568966828
  0
CIRCLE
  8
_1-3_細線2
  6
CONTINUOUS
 62
    4
 10
1150.0062682767934
 20
549.72567358407559
 40
7
  0
ARC
  8
_1-3_細線2
  6
CONTINUOUS
 62
    4
 10
1136.4767806679542
 20
548.32818832752469
 40
18
 50
113.00000000000144
 51
202.99999999999861
  0
CIRCLE
  8
_1-3_細線2
  6
CONTINUOUS
 62
    4
 10
1150.0062682767934
 20
549.72567358407559
 40
18
  0
LINE
  8
_1-5_寸法2
  6
CONTINUOUS
 62
    7
 10
1072.7433850667949
 20
431.14013686733034
 11
1061.42967656781
 21
442.45384536631514
  0
LINE
  8
_1-5_寸法2
  6
CONTINUOUS
 62
    7
 10
1072.7433850667949
 20
431.14013686733034
 11
1068.6022803451544
 21
446.59495008795545
  0
LINE
  8
_1-5_寸法2
  6
CONTINUOUS
 62
    7
 10
1072.7433850667949
 20
431.14013686733034
 11
1026.9248677037153
 21
510.50013686766135
  0
LINE
  8
_1-5_寸法2
  6
CONTINUOUS
 62
    7
 10
1026.9248677037153
 20
510.50013686766135
 11
892.52486770371536
 21
510.50013686766135
  0
TEXT
  8
_1-5_寸法2
 62
    7
 10
892.52486770371536
 20
510.50013686766135
 40
24
 41
0.7999999999999998
 50
0
  1
フランジナット
  0
LINE
  8
_1-2_極細2
  6
CONTINUOUS
 62
    2
 10
1280.2759193994589
 20
473.22154767180211
 11
1212.3959245165465
 21
473.22154767180211
  0
LINE
  8
_1-2_極細2
  6
CONTINUOUS
 62
    2
 10
1166.053289628539
 20
408.82154767180248
 11
1303.5577719534158
 21
408.82154767180248
  0
LINE
  8
_1-2_極細2
  6
CONTINUOUS
 62
    2
 10
1289.804486017234
 20
492.98083294939818
 11
1289.6598976509831
 21
492.72550459980187
  0
LINE
  8
_1-2_極細2
  6
CONTINUOUS
 62
    2
 10
1289.6598976509831
 20
492.72550459980187
 11
1289.2302830840017
 21
491.96647863932395
  0
LINE
  8
_1-2_極細2
  6
CONTINUOUS
 62
    2
 10
1289.2302830840017
 20
491.96647863932395
 11
1288.5291431325059
 21
490.72441096966315
  0
LINE
  8
_1-2_極細2
  6
CONTINUOUS
 62
    2
 10
1288.5291431325059
 20
490.72441096966315
 11
1287.5820363683888
 21
489.03300742052983
  0
LINE
  8
_1-2_極細2
  6
CONTINUOUS
 62
    2
 10
1287.5820363683888
 20
489.03300742052983
 11
1286.4297497193438
 21
486.93799940803467
  0
LINE
  8
_1-2_極細2
  6
CONTINUOUS
 62
    2
 10
1286.4297497193438
 20
486.93799940803467
 11
1285.1303261938956
 21
484.49581130343159
  0
LINE
  8
_1-2_極細2
  6
CONTINUOUS
 62
    2
 10
1285.1303261938956
 20
484.49581130343159
 11
1283.758406566476
 21
481.7719962291186
  0
LINE
  8
_1-2_極細2
  6
CONTINUOUS
 62
    2
 10
1283.758406566476
 20
481.7719962291186
 11
1282.4008846433098
 21
478.83951057721646
  0
LINE
  8
_1-2_極細2
  6
CONTINUOUS
 62
    2
 10
1282.4008846433098
 20
478.83951057721646
 11
1281.1487774671168
 21
475.77688020890713
  0
LINE
  8
_1-2_極細2
  6
CONTINUOUS
 62
    2
 10
1281.1487774671168
 20
475.77688020890713
 11
1280.0862524325221
 21
472.6662888161116
  0
LINE
  8
_1-2_極細2
  6
CONTINUOUS
 62
    2
 10
1280.0862524325221
 20
472.6662888161116
 11
1279.278666998116
 21
469.59159836487601
  0
LINE
  8
_1-2_極細2
  6
CONTINUOUS
 62
    2
 10
1279.278666998116
 20
469.59159836487601
 11
1278.7620177303324
 21
466.63629944423832
  0
LINE
  8
_1-2_極細2
  6
CONTINUOUS
 62
    2
 10
1278.7620177303324
 20
466.63629944423832
 11
1278.536200072198
 21
463.88139008703041
  0
LINE
  8
_1-2_極細2
  6
CONTINUOUS
 62
    2
 10
1278.536200072198
 20
463.88139008703041
 11
1278.5639098979627
 21
461.40319623340514
  0
LINE
  8
_1-2_極細2
  6
CONTINUOUS
 62
    2
 10
1278.5639098979627
 20
461.40319623340514
 11
1278.7759724908574
 21
459.27117278735153
  0
LINE
  8
_1-2_極細2
  6
CONTINUOUS
 62
    2
 10
1278.7759724908574
 20
459.27117278735153
 11
1279.0825824489821
 21
457.54575531670446
  0
LINE
  8
_1-2_極細2
  6
CONTINUOUS
 62
    2
 10
1279.0825824489821
 20
457.54575531670446
 11
1279.3886670397587
 21
456.27636117374988
  0
LINE
  8
_1-2_極細2
  6
CONTINUOUS
 62
    2
 10
1279.3886670397587
 20
456.27636117374988
 11
1279.6106364272237
 21
455.499657435595
  0
LINE
  8
_1-2_極細2
  6
CONTINUOUS
 62
    2
 10
1279.6106364272237
 20
455.499657435595
 11
1279.6913821957623
 21
455.23821566544706
  0
LINE
  8
_1-2_極細2
  6
CONTINUOUS
 62
    2
 10
1279.6913821957623
 20
455.23821566544706
 11
1279.7752116940046
 21
454.97668991284667
  0
LINE
  8
_1-2_極細2
  6
CONTINUOUS
 62
    2
 10
1279.7752116940046
 20
454.97668991284667
 11
1280.0422673944595
 21
454.19874325366601
  0
LINE
  8
_1-2_極細2
  6
CONTINUOUS
 62
    2
 10
1280.0422673944595
 20
454.19874325366601
 11
1280.5344932768221
 21
452.92409859716503
  0
LINE
  8
_1-2_極細2
  6
CONTINUOUS
 62
    2
 10
1280.5344932768221
 20
452.92409859716503
 11
1281.3071146136481
 21
451.18507806756236
  0
LINE
  8
_1-2_極細2
  6
CONTINUOUS
 62
    2
 10
1281.3071146136481
 20
451.18507806756236
 11
1282.4104519386401
 21
449.02582257890975
  0
LINE
  8
_1-2_極細2
  6
CONTINUOUS
 62
    2
 10
1282.4104519386401
 20
449.02582257890975
 11
1283.8711753850894
 21
446.50127391036688
  0
LINE
  8
_1-2_極細2
  6
CONTINUOUS
 62
    2
 10
1283.8711753850894
 20
446.50127391036688
 11
1285.6777162026065
 21
443.67596808511774
  0
LINE
  8
_1-2_極細2
  6
CONTINUOUS
 62
    2
 10
1285.6777162026065
 20
443.67596808511774
 11
1287.7735938313381
 21
440.62267428579202
  0
LINE
  8
_1-2_極細2
  6
CONTINUOUS
 62
    2
 10
1287.7735938313381
 20
440.62267428579202
 11
1290.0605438396233
 21
437.42088994526404
  0
LINE
  8
_1-2_極細2
  6
CONTINUOUS
 62
    2
 10
1290.0605438396233
 20
437.42088994526404
 11
1292.4109949243866
 21
434.15517759271745
  0
LINE
  8
_1-2_極細2
  6
CONTINUOUS
 62
    2
 10
1292.4109949243866
 20
434.15517759271745
 11
1294.6872049823396
 21
430.91331121187562
  0
LINE
  8
_1-2_極細2
  6
CONTINUOUS
 62
    2
 10
1294.6872049823396
 20
430.91331121187562
 11
1296.7627665506716
 21
427.78419684292697
  0
LINE
  8
_1-2_極細2
  6
CONTINUOUS
 62
    2
 10
1296.7627665506716
 20
427.78419684292697
 11
1298.5416167581025
 21
424.85554825394178
  0
LINE
  8
_1-2_極細2
  6
CONTINUOUS
 62
    2
 10
1298.5416167581025
 20
424.85554825394178
 11
1299.9702757520463
 21
422.21133341952901
  0
LINE
  8
_1-2_極細2
  6
CONTINUOUS
 62
    2
 10
1299.9702757520463
 20
422.21133341952901
 11
1301.0406494630715
 21
419.92905604875654
  0
LINE
  8
_1-2_極細2
  6
CONTINUOUS
 62
    2
 10
1301.0406494630715
 20
419.92905604875654
 11
1301.7829801435291
 21
418.07698925059213
  0
LINE
  8
_1-2_極細2
  6
CONTINUOUS
 62
    2
 10
1301.7829801435291
 20
418.07698925059213
 11
1302.250870789745
 21
416.71152425638121
  0
LINE
  8
_1-2_極細2
  6
CONTINUOUS
 62
    2
 10
1302.250870789745
 20
416.71152425638121
 11
1302.5021837747154
 21
415.87482498315495
  0
LINE
  8
_1-2_極細2
  6
CONTINUOUS
 62
    2
 10
1302.5021837747154
 20
415.87482498315495
 11
1302.5805690456255
 21
415.59298109754593
  0
LINE
  8
_1-2_極細2
  6
CONTINUOUS
 62
    2
 10
1302.5805690456255
 20
415.59298109754593
 11
1302.65579590981
 21
415.31094249595156
  0
LINE
  8
_1-2_極細2
  6
CONTINUOUS
 62
    2
 10
1302.65579590981
 20
415.31094249595156
 11
1302.8609226534645
 21
414.47138115535967
  0
LINE
  8
_1-2_極細2
  6
CONTINUOUS
 62
    2
 10
1302.8609226534645
 20
414.47138115535967
 11
1303.1380667927024
 21
413.0939797768695
  0
LINE
  8
_1-2_極細2
  6
CONTINUOUS
 62
    2
 10
1303.1380667927024
 20
413.0939797768695
 11
1303.4026100459923
 21
411.21156722646549
  0
LINE
  8
_1-2_極細2
  6
CONTINUOUS
 62
    2
 10
1303.4026100459923
 20
411.21156722646549
 11
1303.5585321967283
 21
408.87002479792085
  0
LINE
  8
_1-2_極細2
  6
CONTINUOUS
 62
    2
 10
1303.5585321967283
 20
408.87002479792085
 11
1303.515529205637
 21
406.12792711904251
  0
LINE
  8
_1-2_極細2
  6
CONTINUOUS
 62
    2
 10
1303.515529205637
 20
406.12792711904251
 11
1303.2047021705275
 21
403.05575844784391
  0
LINE
  8
_1-2_極細2
  6
CONTINUOUS
 62
    2
 10
1303.2047021705275
 20
403.05575844784391
 11
1302.5900156835814
 21
399.73457964425972
  0
LINE
  8
_1-2_極細2
  6
CONTINUOUS
 62
    2
 10
1302.5900156835814
 20
399.73457964425972
 11
1301.6736963686199
 21
396.25408882629
  0
LINE
  8
_1-2_極細2
  6
CONTINUOUS
 62
    2
 10
1301.6736963686199
 20
396.25408882629
 11
1300.4950442391018
 21
392.71010521509845
  0
LINE
  8
_1-2_極細2
  6
CONTINUOUS
 62
    2
 10
1300.4950442391018
 20
392.71010521509845
 11
1299.1234632320211
 21
389.20159243974143
  0
LINE
  8
_1-2_極細2
  6
CONTINUOUS
 62
    2
 10
1299.1234632320211
 20
389.20159243974143
 11
1297.6475880292928
 21
385.82740633527021
  0
LINE
  8
_1-2_極細2
  6
CONTINUOUS
 62
    2
 10
1297.6475880292928
 20
385.82740633527021
 11
1296.162968414812
 21
382.68298918322984
  0
LINE
  8
_1-2_極細2
  6
CONTINUOUS
 62
    2
 10
1296.162968414812
 20
382.68298918322984
 11
1294.7607676200023
 21
379.85723108750375
  0
LINE
  8
_1-2_極細2
  6
CONTINUOUS
 62
    2
 10
1294.7607676200023
 20
379.85723108750375
 11
1293.5193769148318
 21
377.42968221039803
  0
LINE
  8
_1-2_極細2
  6
CONTINUOUS
 62
    2
 10
1293.5193769148318
 20
377.42968221039803
 11
1292.4999127895098
 21
375.46823731294637
  0
LINE
  8
_1-2_極細2
  6
CONTINUOUS
 62
    2
 10
1292.4999127895098
 20
375.46823731294637
 11
1291.7454971503303
 21
374.02734207003908
  0
LINE
  8
_1-2_極細2
  6
CONTINUOUS
 62
    2
 10
1291.7454971503303
 20
374.02734207003908
 11
1291.2832972240521
 21
373.14670589307917
  0
LINE
  8
_1-2_極細2
  6
CONTINUOUS
 62
    2
 10
1291.2832972240521
 20
373.14670589307917
 11
1291.1277457261167
 21
372.85046257902752
  0
LINE
  8
_1-5_寸法2
  6
CONTINUOUS
 62
    7
 10
1226.3836149587287
 20
423.53731867829407
 11
1312.9110714545313
 21
460.26604487144618
  0
LINE
  8
_1-5_寸法2
  6
CONTINUOUS
 62
    7
 10
1309.2290520407219
 20
458.70312035748867
 11
1301.8411143368139
 21
468.15924940076928
  0
LINE
  8
_1-5_寸法2
  6
CONTINUOUS
 62
    7
 10
1309.2290520407219
 20
458.70312035748867
 11
1307.5589748292009
 21
470.58633718238752
  0
LINE
  8
_1-5_寸法2
  6
CONTINUOUS
 62
    7
 10
1188.3559309761049
 20
589.90406791298255
 11
1247.2682418683335
 21
614.9108602514525
  0
LINE
  8
_1-5_寸法2
  6
CONTINUOUS
 62
    7
 10
1243.586222454524
 20
613.34793573749494
 11
1250.9741601584319
 21
603.89180669421432
  0
LINE
  8
_1-5_寸法2
  6
CONTINUOUS
 62
    7
 10
1243.586222454524
 20
613.34793573749494
 11
1245.2562996660449
 21
601.46471891259614
  0
LINE
  8
_1-5_寸法2
  6
CONTINUOUS
 62
    7
 10
1309.2290520407219
 20
458.70312035748867
 11
1243.586222454524
 21
613.34793573749494
  0
TEXT
  8
_1-5_寸法2
 62
    7
 10
1271.718863705752
 20
547.07158628892103
 40
24
 41
1
 50
-66.999999999999687
  1
42
  0
LINE
  8
_1-5_寸法2
  6
CONTINUOUS
 62
    7
 10
1112.0930707360262
 20
559.70512508376714
 11
1080.053118156377
 21
635.18652316944235
  0
LINE
  8
_1-5_寸法2
  6
CONTINUOUS
 62
    7
 10
1081.6160426703336
 20
631.50450375563241
 11
1091.0721717136141
 21
638.89244145954035
  0
LINE
  8
_1-5_寸法2
  6
CONTINUOUS
 62
    7
 10
1081.6160426703336
 20
631.50450375563241
 11
1093.4992594952325
 21
633.17458096715336
  0
LINE
  8
_1-5_寸法2
  6
CONTINUOUS
 62
    7
 10
1162.1312113372705
 20
600.49954241224577
 11
1137.1244190704256
 21
659.41185313577671
  0
LINE
  8
_1-5_寸法2
  6
CONTINUOUS
 62
    7
 10
1138.6873435843822
 20
655.72983372196677
 11
1129.2312145411017
 21
648.34189601805883
  0
LINE
  8
_1-5_寸法2
  6
CONTINUOUS
 62
    7
 10
1138.6873435843822
 20
655.72983372196677
 11
1126.8041267594833
 21
654.05975651044582
  0
LINE
  8
_1-5_寸法2
  6
CONTINUOUS
 62
    7
 10
1081.6160426703336
 20
631.50450375563241
 11
1138.6873435843822
 21
655.72983372196677
  0
TEXT
  8
_1-5_寸法2
 62
    7
 10
1088.0595766444997
 20
634.23962165505691
 40
24
 41
1
 50
23.000000000000313
  1
15.5
  0
LINE
  8
_1-5_寸法2
  6
CONTINUOUS
 62
    7
 10
1165.0380352729376
 20
569.18035634664238
 11
1169.179139994578
 21
584.63516956726744
  0
LINE
  8
_1-5_寸法2
  6
CONTINUOUS
 62
    7
 10
1165.0380352729376
 20
569.18035634664238
 11
1176.3517437719224
 21
580.49406484562712
  0
LINE
  8
_1-5_寸法2
  6
CONTINUOUS
 62
    7
 10
1165.0380352729376
 20
569.18035634664238
 11
1200.6346811094531
 21
630.83555551452332
  0
LINE
  8
_1-5_寸法2
  6
CONTINUOUS
 62
    7
 10
1200.6346811094531
 20
630.83555551452332
 11
1354.234681109453
 21
630.83555551452332
  0
TEXT
  8
_1-5_寸法2
 62
    7
 10
1200.6346811094531
 20
630.83555551452332
 40
24
 41
0.7999999999999998
 50
0
  1
ボルトカバー金具
  0
LINE
  8
_1-5_寸法2
  6
CONTINUOUS
 62
    7
 10
1086.8054213577243
 20
442.02154847180265
 11
1077.4061885075648
 21
454.96969203868059
  0
LINE
  8
_1-5_寸法2
  6
CONTINUOUS
 62
    7
 10
1086.8054213577243
 20
442.02154847180265
 11
1085.13951871684
 21
457.93458615764672
  0
LINE
  8
_1-5_寸法2
  6
CONTINUOUS
 62
    7
 10
1086.8054213577243
 20
442.02154847180265
 11
1042.9887147021259
 21
556.30861831456764
  0
LINE
  8
_1-5_寸法2
  6
CONTINUOUS
 62
    7
 10
1042.9887147021259
 20
556.30861831456764
 11
908.58871470212603
 21
556.30861831456764
  0
TEXT
  8
_1-5_寸法2
 62
    7
 10
908.58871470212591
 20
556.30861831456764
 40
24
 41
0.7999999999999998
 50
0
  1
スタッドボルト
  0
LINE
  8
_1-2_極細2
  6
CENTER1
 62
    2
 10
1168.8728958101437
 20
429.44401985779461
 11
1207.1827632085624
 21
429.44401985779461
  0
LINE
  8
_1-2_極細2
  6
CENTER1
 62
    2
 10
1189.1128370994029
 20
409.44072966069928
 11
1189.1128370994029
 21
448.85768032894941
  0
CIRCLE
  8
_1-2_極細2
  6
CONTINUOUS
 62
    2
 10
1189.1128370994029
 20
429.44401998349861
 40
13.800000000000001
  0
CIRCLE
  8
_1-3_細線2
  6
CONTINUOUS
 62
    4
 10
1189.1128370994029
 20
429.44401998349861
 40
14.4
  0
LINE
  8
_1-2_極細2
  6
DASHED2
 62
    2
 10
1130.105236334683
 20
402.02154847180219
 11
1303.0132897430331
 21
402.02154847180219
  0
LINE
  8
_1-2_極細2
  6
DASHED2
 62
    2
 10
1130.105236334683
 20
390.02154847180219
 11
1299.4440082014212
 21
390.02154847180219
  0
ARC
  8
_1-2_極細2
  6
CONTINUOUS
 62
    2
 10
1024.1052363346844
 20
402.02154847180219
 40
12.000000000000002
 50
179.99999999999983
 51
269.99999999999977
  0
LINE
  8
_1-2_極細2
  6
CONTINUOUS
 62
    2
 10
1012.1052363346845
 20
402.02154847180219
 11
1012.1052363346845
 21
480.02154847180219
  0
LINE
  8
_1-2_極細2
  6
CONTINUOUS
 62
    2
 10
1132.1052363346844
 20
392.02154847180219
 11
1130.105236334683
 21
390.02154847180219
  0
LINE
  8
_1-2_極細2
  6
CONTINUOUS
 62
    2
 10
1132.1052363346844
 20
400.02154847180219
 11
1132.1052363346844
 21
392.02154847180219
  0
LINE
  8
_1-2_極細2
  6
CONTINUOUS
 62
    2
 10
1130.105236334683
 20
402.02154847180219
 11
1132.1052363346844
 21
400.02154847180219
  0
LINE
  8
_1-2_極細2
  6
CONTINUOUS
 62
    2
 10
1014.1052363346845
 20
482.02154847180219
 11
1012.1052363346845
 21
480.02154847180219
  0
LINE
  8
_1-2_極細2
  6
CONTINUOUS
 62
    2
 10
1022.1052363346845
 20
482.02154847180219
 11
1014.1052363346845
 21
482.02154847180219
  0
LINE
  8
_1-2_極細2
  6
CONTINUOUS
 62
    2
 10
1024.1052363346844
 20
480.02154847180219
 11
1022.1052363346845
 21
482.02154847180219
  0
LINE
  8
_1-2_極細2
  6
CONTINUOUS
 62
    2
 10
1024.1052363346844
 20
402.02154847180219
 11
1024.1052363346844
 21
480.02154847180219
  0
LINE
  8
_1-2_極細2
  6
CONTINUOUS
 62
    2
 10
1024.1052363346844
 20
402.02154847180219
 11
1130.105236334683
 21
402.02154847180219
  0
LINE
  8
_1-2_極細2
  6
CONTINUOUS
 62
    2
 10
1024.1052363346844
 20
390.02154847180219
 11
1130.105236334683
 21
390.02154847180219
  0
TEXT
  8
_0-5_寸法線
 62
    7
 10
546.78335739437682
 20
1255.4544961301765
 40
32
 41
1
 50
0
  1
Ａ’
  0
TEXT
  8
_0-5_寸法線
 62
    7
 10
550.71466642316113
 20
1105.5616122209387
 40
32
 41
1
 50
0
  1
Ａ
  0
LINE
  8
_0-1_計細線
  6
CONTINUOUS
 62
    3
 10
2183.7449635812695
 20
1152.200740653388
 11
2183.7449635812695
 21
1149.9007406533881
  0
LINE
  8
_0-1_計細線
  6
CONTINUOUS
 62
    3
 10
2183.7449635812695
 20
1149.9007406533881
 11
2218.7449635812695
 21
1149.9007406533881
  0
LINE
  8
_0-1_計細線
  6
CONTINUOUS
 62
    3
 10
2218.7449635812695
 20
1149.9007406533881
 11
2218.7449635812695
 21
1152.200740653388
  0
LINE
  8
_0-1_計細線
  6
CONTINUOUS
 62
    3
 10
2218.7449635812695
 20
1152.200740653388
 11
2183.7449635812695
 21
1152.200740653388
  0
LINE
  8
_0-0_計極細
  6
CONTINUOUS
 62
    2
 10
2185.7449635812695
 20
1149.9007406533881
 11
2185.7449635812695
 21
1152.200740653388
  0
LINE
  8
_0-0_計極細
  6
CONTINUOUS
 62
    2
 10
2197.7449635812695
 20
1149.9007406533881
 11
2197.7449635812695
 21
1152.200740653388
  0
LINE
  8
_0-0_計極細
  6
CONTINUOUS
 62
    2
 10
2199.7449635812695
 20
1149.9007406533881
 11
2199.7449635812695
 21
1152.200740653388
  0
LINE
  8
_0-0_計極細
  6
CONTINUOUS
 62
    2
 10
2201.7449635812695
 20
1149.9007406533881
 11
2201.7449635812695
 21
1152.200740653388
  0
LINE
  8
_0-0_計極細
  6
CONTINUOUS
 62
    2
 10
2215.7449635812695
 20
1149.9007406533881
 11
2215.7449635812695
 21
1152.200740653388
  0
LINE
  8
_0-0_計極細
  6
CONTINUOUS
 62
    2
 10
2195.7449635812695
 20
1149.9007406533881
 11
2195.7449635812695
 21
1152.200740653388
  0
LINE
  8
_0-1_計細線
  6
CONTINUOUS
 62
    3
 10
2183.7449635812695
 20
1236.5007406533878
 11
2183.7449635812695
 21
1234.2007406533878
  0
LINE
  8
_0-1_計細線
  6
CONTINUOUS
 62
    3
 10
2183.7449635812695
 20
1234.2007406533878
 11
2218.7449635812695
 21
1234.2007406533878
  0
LINE
  8
_0-1_計細線
  6
CONTINUOUS
 62
    3
 10
2218.7449635812695
 20
1234.2007406533878
 11
2218.7449635812695
 21
1236.5007406533878
  0
LINE
  8
_0-1_計細線
  6
CONTINUOUS
 62
    3
 10
2218.7449635812695
 20
1236.5007406533878
 11
2183.7449635812695
 21
1236.5007406533878
  0
LINE
  8
_0-0_計極細
  6
CONTINUOUS
 62
    2
 10
2185.7449635812695
 20
1234.2007406533878
 11
2185.7449635812695
 21
1236.5007406533878
  0
LINE
  8
_0-0_計極細
  6
CONTINUOUS
 62
    2
 10
2197.7449635812695
 20
1234.2007406533878
 11
2197.7449635812695
 21
1236.5007406533878
  0
LINE
  8
_0-0_計極細
  6
CONTINUOUS
 62
    2
 10
2199.7449635812695
 20
1234.2007406533878
 11
2199.7449635812695
 21
1236.5007406533878
  0
LINE
  8
_0-0_計極細
  6
CONTINUOUS
 62
    2
 10
2201.7449635812695
 20
1234.2007406533878
 11
2201.7449635812695
 21
1236.5007406533878
  0
LINE
  8
_0-0_計極細
  6
CONTINUOUS
 62
    2
 10
2215.7449635812695
 20
1234.2007406533878
 11
2215.7449635812695
 21
1236.5007406533878
  0
LINE
  8
_0-0_計極細
  6
CONTINUOUS
 62
    2
 10
2195.7449635812695
 20
1234.2007406533878
 11
2195.7449635812695
 21
1236.5007406533878
  0
LINE
  8
_0-7_枠細線
  6
CONTINUOUS
 62
    5
 10
2250.3751401598784
 20
1237.0674092050992
 11
2238.3751401598784
 21
1261.0674092050992
  0
LINE
  8
_0-7_枠細線
  6
CONTINUOUS
 62
    5
 10
2226.3751401598784
 20
1237.0674092050992
 11
2250.3751401598784
 21
1237.0674092050992
  0
LINE
  8
_0-7_枠細線
  6
CONTINUOUS
 62
    5
 10
2238.3751401598784
 20
1261.0674092050992
 11
2226.3751401598784
 21
1237.0674092050992
  0
TEXT
  8
_0-7_枠細線
 62
    5
 10
2230.1593821889155
 20
1236.5762056124904
 40
20
 41
0.8
 50
0
  1
１
  0
LINE
  8
_0-7_枠細線
  6
CONTINUOUS
 62
    5
 10
2280
 20
1508
 11
1424
 21
1508
  0
TEXT
  8
_0-7_枠細線
 62
    5
 10
1432
 20
1511.9999999999993
 40
20
 41
1
 50
0
  1
記号
  0
TEXT
  8
_0-7_枠細線
 62
    5
 10
1595
 20
1512
 40
20
 41
1
 50
0
  1
訂　 正　 記　 事
  0
TEXT
  8
_0-7_枠細線
 62
    5
 10
1890
 20
1512
 40
20
 41
1
 50
0
  1
訂 正 年 月 日
  0
TEXT
  8
_0-7_枠細線
 62
    5
 10
2090
 20
1512
 40
20
 41
1
 50
0
  1
備　　　　　考
  0
LINE
  8
_0-7_枠細線
  6
CONTINUOUS
 62
    5
 10
2280
 20
1480
 11
1424
 21
1480
  0
LINE
  8
_0-7_枠細線
  6
CONTINUOUS
 62
    5
 10
1424
 20
1480
 11
1424
 21
1535.9999999999991
  0
LINE
  8
_0-7_枠細線
  6
CONTINUOUS
 62
    5
 10
1480
 20
1480
 11
1480
 21
1535.9999999999991
  0
LINE
  8
_0-7_枠細線
  6
CONTINUOUS
 62
    5
 10
1880
 20
1480
 11
1880
 21
1536
  0
LINE
  8
_0-7_枠細線
  6
CONTINUOUS
 62
    5
 10
2040
 20
1480
 11
2040
 21
1535.9999999999991
  0
LINE
  8
_0-7_枠細線
  6
CONTINUOUS
 62
    5
 10
1464
 20
1482.307734354795
 11
1452
 21
1506.307734354795
  0
LINE
  8
_0-7_枠細線
  6
CONTINUOUS
 62
    5
 10
1440
 20
1482.307734354795
 11
1464
 21
1482.307734354795
  0
LINE
  8
_0-7_枠細線
  6
CONTINUOUS
 62
    5
 10
1452
 20
1506.307734354795
 11
1440
 21
1482.307734354795
  0
TEXT
  8
_0-7_枠細線
 62
    5
 10
1443.7842420290369
 20
1481.8165307621864
 40
20
 41
0.8
 50
0
  1
１
  0
TEXT
  8
_0-7_枠細線
 62
    5
 10
1888
 20
1484
 40
20
 41
0.7199999999999999
 50
0
  1
２０１９．０９．０１
  0
TEXT
  8
_0-7_枠細線
 62
    5
 10
1502.1605925925924
 20
1484
 40
20.000000000000004
 41
1
 50
0
  1
アンカー材質･厚み変更
  0
LINE
  8
_0-5_寸法線
  6
CONTINUOUS
 62
    7
 10
202.2816118860419
 20
1250.2005507263946
 11
202.2816118860419
 21
1378.2005507263946
  0
LINE
  8
_0-5_寸法線
  6
CONTINUOUS
 62
    7
 10
202.2816118860419
 20
1370.2005507263946
 11
217.73642510666696
 21
1374.341655448035
  0
LINE
  8
_0-5_寸法線
  6
CONTINUOUS
 62
    7
 10
202.2816118860419
 20
1370.2005507263946
 11
217.73642510666696
 21
1366.0594460047541
  0
LINE
  8
_0-5_寸法線
  6
CONTINUOUS
 62
    7
 10
1982.2816118860405
 20
1250.2005507263946
 11
1982.2816118860405
 21
1378.2005507263946
  0
LINE
  8
_0-5_寸法線
  6
CONTINUOUS
 62
    7
 10
1982.2816118860405
 20
1370.2005507263946
 11
1966.8267986654155
 21
1366.0594460047544
  0
LINE
  8
_0-5_寸法線
  6
CONTINUOUS
 62
    7
 10
1982.2816118860405
 20
1370.2005507263946
 11
1966.8267986654155
 21
1374.341655448035
  0
LINE
  8
_0-5_寸法線
  6
CONTINUOUS
 62
    7
 10
202.2816118860419
 20
1370.2005507263946
 11
1982.2816118860405
 21
1370.2005507263946
  0
TEXT
  8
_0-5_寸法線
 62
    7
 10
1068.2816118860414
 20
1370.2005507263946
 40
24
 41
1
 50
0
  1
1780
  0
LINE
  8
_0-5_寸法線
  6
CONTINUOUS
 62
    7
 10
2172.7449635812695
 20
1250.2007406533878
 11
2172.7449635812695
 21
1378.2005507263946
  0
LINE
  8
_0-5_寸法線
  6
CONTINUOUS
 62
    7
 10
2172.7449635812695
 20
1370.2005507263946
 11
2188.1997768018946
 21
1374.341655448035
  0
LINE
  8
_0-5_寸法線
  6
CONTINUOUS
 62
    7
 10
2172.7449635812695
 20
1370.2005507263946
 11
2188.1997768018946
 21
1366.0594460047541
  0
LINE
  8
_0-5_寸法線
  6
CONTINUOUS
 62
    7
 10
2218.7449635812695
 20
1251.4007406533874
 11
2218.7449635812695
 21
1378.2005507263946
  0
LINE
  8
_0-5_寸法線
  6
CONTINUOUS
 62
    7
 10
2218.7449635812695
 20
1370.2005507263946
 11
2203.2901503606445
 21
1366.0594460047544
  0
LINE
  8
_0-5_寸法線
  6
CONTINUOUS
 62
    7
 10
2218.7449635812695
 20
1370.2005507263946
 11
2203.2901503606445
 21
1374.341655448035
  0
LINE
  8
_0-5_寸法線
  6
CONTINUOUS
 62
    7
 10
2172.7449635812695
 20
1370.2005507263946
 11
2218.7449635812695
 21
1370.2005507263946
  0
TEXT
  8
_0-5_寸法線
 62
    7
 10
2183.7449635812704
 20
1370.2005507263946
 40
24
 41
1
 50
0
  1
46
  0
LINE
  8
_0-5_寸法線
  6
CONTINUOUS
 62
    7
 10
2172.7449635812695
 20
1250.2007406533878
 11
2172.7449635812695
 21
1322.2005507263946
  0
LINE
  8
_0-5_寸法線
  6
CONTINUOUS
 62
    7
 10
2172.7449635812695
 20
1314.2005507263946
 11
2157.2901503606445
 21
1310.0594460047544
  0
LINE
  8
_0-5_寸法線
  6
CONTINUOUS
 62
    7
 10
2172.7449635812695
 20
1314.2005507263946
 11
2157.2901503606445
 21
1318.341655448035
  0
LINE
  8
_0-5_寸法線
  6
CONTINUOUS
 62
    7
 10
2195.7449635812695
 20
1252.5007406533878
 11
2195.7449635812695
 21
1322.2005507263946
  0
CIRCLE
  8
_0-5_寸法線
  6
CONTINUOUS
 62
    1
 10
2195.7449635812695
 20
1314.2005507263946
 40
2.3999999999999999
  0
LINE
  8
_0-5_寸法線
  6
CONTINUOUS
 62
    7
 10
2132.7449635812695
 20
1314.2005507263946
 11
2195.7449635812695
 21
1314.2005507263946
  0
TEXT
  8
_0-5_寸法線
 62
    7
 10
2133.2074984219257
 20
1314.2005507263946
 40
24
 41
1
 50
0
  1
23
  0
LINE
  8
_0-5_寸法線
  6
CONTINUOUS
 62
    7
 10
2218.7449635812695
 20
1252.5007406533878
 11
2218.7449635812695
 21
1322.2005507263946
  0
LINE
  8
_0-5_寸法線
  6
CONTINUOUS
 62
    7
 10
2218.7449635812695
 20
1314.2005507263946
 11
2234.1997768018946
 21
1318.3416554480348
  0
LINE
  8
_0-5_寸法線
  6
CONTINUOUS
 62
    7
 10
2218.7449635812695
 20
1314.2005507263946
 11
2234.1997768018946
 21
1310.0594460047541
  0
LINE
  8
_0-5_寸法線
  6
CONTINUOUS
 62
    7
 10
2195.7449635812695
 20
1314.2005507263946
 11
2262.9581480013503
 21
1314.2005507263946
  0
TEXT
  8
_0-5_寸法線
 62
    7
 10
2238.9581480013508
 20
1314.2005507263946
 40
24
 41
1
 50
0
  1
23
  0
LINE
  8
_0-1_計細線
  6
CONTINUOUS
 62
    3
 10
246.2816121102569
 20
925.20055072639457
 11
244.2816121102569
 21
923.20055072639457
  0
LINE
  8
_0-1_計細線
  6
CONTINUOUS
 62
    3
 10
244.2816121102569
 20
913.20055072639457
 11
244.2816121102569
 21
923.20055072639457
  0
LINE
  8
_0-1_計細線
  6
CONTINUOUS
 62
    3
 10
260.28161180409552
 20
923.20055072639457
 11
258.28161180409552
 21
925.20055072639457
  0
LINE
  8
_0-1_計細線
  6
CONTINUOUS
 62
    3
 10
260.28161180409552
 20
913.20055072639457
 11
260.28161180409552
 21
923.20055072639457
  0
LINE
  8
_0-1_計細線
  6
CONTINUOUS
 62
    3
 10
246.2816121102569
 20
909.20055072639457
 11
244.2816121102569
 21
907.20055072639457
  0
LINE
  8
_0-1_計細線
  6
CONTINUOUS
 62
    3
 10
246.2816121102569
 20
911.20055072639457
 11
246.2816121102569
 21
909.20055072639457
  0
LINE
  8
_0-1_計細線
  6
CONTINUOUS
 62
    3
 10
244.2816121102569
 20
913.20055072639457
 11
246.2816121102569
 21
911.20055072639457
  0
LINE
  8
_0-1_計細線
  6
CONTINUOUS
 62
    3
 10
258.28161180409552
 20
909.20055072639457
 11
260.28161180409552
 21
907.20055072639457
  0
LINE
  8
_0-1_計細線
  6
CONTINUOUS
 62
    3
 10
258.28161180409552
 20
911.20055072639457
 11
258.28161180409552
 21
909.20055072639457
  0
LINE
  8
_0-1_計細線
  6
CONTINUOUS
 62
    3
 10
260.28161180409552
 20
913.20055072639457
 11
258.28161180409552
 21
911.20055072639457
  0
LINE
  8
_0-1_計細線
  6
CONTINUOUS
 62
    3
 10
244.2816121102569
 20
907.20055072639457
 11
244.2816121102569
 21
893.20055072639457
  0
ARC
  8
_0-1_計細線
  6
CONTINUOUS
 62
    3
 10
247.2816121102569
 20
893.20055072639457
 40
3
 50
179.99999999999983
 51
269.99999999999977
  0
LINE
  8
_0-1_計細線
  6
CONTINUOUS
 62
    3
 10
247.2816121102569
 20
890.20055072639457
 11
257.28161180409552
 21
890.20055072639457
  0
LINE
  8
_0-1_計細線
  6
CONTINUOUS
 62
    3
 10
260.28161180409552
 20
907.20055072639457
 11
260.28161180409552
 21
893.20055072639457
  0
ARC
  8
_0-1_計細線
  6
CONTINUOUS
 62
    3
 10
257.28161180409552
 20
893.20055072639457
 40
3
 50
269.99999999999977
 51
359.99999999999966
  0
LINE
  8
_0-0_計極細
  6
CENTER1
 62
    2
 10
252.2816118860419
 20
936.84192459178234
 11
252.2816118860419
 21
881.57180675553923
  0
LINE
  8
_0-1_計細線
  6
CONTINUOUS
 62
    3
 10
246.2816121102569
 20
925.20055072639457
 11
258.28161180409552
 21
925.20055072639457
  0
LINE
  8
_0-5_寸法線
  6
CONTINUOUS
 62
    7
 10
1998.2816118860405
 20
913.20055072639445
 11
2050.2816118348414
 21
913.200550726394
  0
LINE
  8
_0-5_寸法線
  6
CONTINUOUS
 62
    7
 10
2042.2816118348414
 20
913.20055072639411
 11
2038.1405071132012
 21
928.65536394701917
  0
LINE
  8
_0-5_寸法線
  6
CONTINUOUS
 62
    7
 10
2042.2816118348414
 20
913.20055072639411
 11
2046.4227165564819
 21
928.65536394701917
  0
LINE
  8
_0-5_寸法線
  6
CONTINUOUS
 62
    7
 10
1998.2816118860405
 20
936.20055072639445
 11
2050.2816118348414
 21
936.200550726394
  0
LINE
  8
_0-5_寸法線
  6
CONTINUOUS
 62
    7
 10
2042.2816118348414
 20
936.20055072639411
 11
2046.4227165564819
 21
920.74573750576906
  0
LINE
  8
_0-5_寸法線
  6
CONTINUOUS
 62
    7
 10
2042.2816118348414
 20
936.20055072639411
 11
2038.1405071132012
 21
920.74573750576906
  0
LINE
  8
_0-5_寸法線
  6
CONTINUOUS
 62
    7
 10
2042.2816118348414
 20
913.20055072639411
 11
2042.2816118348414
 21
936.20055072639411
  0
TEXT
  8
_0-5_寸法線
 62
    7
 10
2042.2816118348414
 20
912.70055072639411
 40
24
 41
1
 50
90
  1
23
  0
LINE
  8
_0-1_計細線
  6
CONTINUOUS
 62
    3
 10
1926.2816121102564
 20
925.20055072639457
 11
1924.2816121102564
 21
923.20055072639457
  0
LINE
  8
_0-1_計細線
  6
CONTINUOUS
 62
    3
 10
1924.2816121102564
 20
913.20055072639457
 11
1924.2816121102564
 21
923.20055072639457
  0
LINE
  8
_0-1_計細線
  6
CONTINUOUS
 62
    3
 10
1940.2816118040951
 20
923.20055072639457
 11
1938.2816118040951
 21
925.20055072639457
  0
LINE
  8
_0-1_計細線
  6
CONTINUOUS
 62
    3
 10
1940.2816118040951
 20
913.20055072639457
 11
1940.2816118040951
 21
923.20055072639457
  0
LINE
  8
_0-1_計細線
  6
CONTINUOUS
 62
    3
 10
1926.2816121102564
 20
909.20055072639457
 11
1924.2816121102564
 21
907.20055072639457
  0
LINE
  8
_0-1_計細線
  6
CONTINUOUS
 62
    3
 10
1926.2816121102564
 20
911.20055072639457
 11
1926.2816121102564
 21
909.20055072639457
  0
LINE
  8
_0-1_計細線
  6
CONTINUOUS
 62
    3
 10
1924.2816121102564
 20
913.20055072639457
 11
1926.2816121102564
 21
911.20055072639457
  0
LINE
  8
_0-1_計細線
  6
CONTINUOUS
 62
    3
 10
1938.2816118040951
 20
909.20055072639457
 11
1940.2816118040951
 21
907.20055072639457
  0
LINE
  8
_0-1_計細線
  6
CONTINUOUS
 62
    3
 10
1938.2816118040951
 20
911.20055072639457
 11
1938.2816118040951
 21
909.20055072639457
  0
LINE
  8
_0-1_計細線
  6
CONTINUOUS
 62
    3
 10
1940.2816118040951
 20
913.20055072639457
 11
1938.2816118040951
 21
911.20055072639457
  0
LINE
  8
_0-1_計細線
  6
CONTINUOUS
 62
    3
 10
1924.2816121102564
 20
907.20055072639457
 11
1924.2816121102564
 21
893.20055072639457
  0
ARC
  8
_0-1_計細線
  6
CONTINUOUS
 62
    3
 10
1927.2816121102564
 20
893.20055072639457
 40
3
 50
179.99999999999983
 51
269.99999999999977
  0
LINE
  8
_0-1_計細線
  6
CONTINUOUS
 62
    3
 10
1927.2816121102564
 20
890.20055072639457
 11
1937.2816118040951
 21
890.20055072639457
  0
LINE
  8
_0-1_計細線
  6
CONTINUOUS
 62
    3
 10
1940.2816118040951
 20
907.20055072639457
 11
1940.2816118040951
 21
893.20055072639457
  0
ARC
  8
_0-1_計細線
  6
CONTINUOUS
 62
    3
 10
1937.2816118040951
 20
893.20055072639457
 40
3
 50
269.99999999999977
 51
359.99999999999966
  0
LINE
  8
_0-0_計極細
  6
CENTER1
 62
    2
 10
1932.2816118860405
 20
936.84192459178234
 11
1932.2816118860405
 21
881.57180675553923
  0
LINE
  8
_0-1_計細線
  6
CONTINUOUS
 62
    3
 10
1926.2816121102564
 20
925.20055072639457
 11
1938.2816118040951
 21
925.20055072639457
  0
LINE
  8
_0-1_計細線
  6
CONTINUOUS
 62
    3
 10
666.2816121102569
 20
925.20055072639457
 11
664.2816121102569
 21
923.20055072639457
  0
LINE
  8
_0-1_計細線
  6
CONTINUOUS
 62
    3
 10
664.2816121102569
 20
913.20055072639457
 11
664.2816121102569
 21
923.20055072639457
  0
LINE
  8
_0-1_計細線
  6
CONTINUOUS
 62
    3
 10
680.28161180409552
 20
923.20055072639457
 11
678.28161180409552
 21
925.20055072639457
  0
LINE
  8
_0-1_計細線
  6
CONTINUOUS
 62
    3
 10
680.28161180409552
 20
913.20055072639457
 11
680.28161180409552
 21
923.20055072639457
  0
LINE
  8
_0-1_計細線
  6
CONTINUOUS
 62
    3
 10
666.2816121102569
 20
909.20055072639457
 11
664.2816121102569
 21
907.20055072639457
  0
LINE
  8
_0-1_計細線
  6
CONTINUOUS
 62
    3
 10
666.2816121102569
 20
911.20055072639457
 11
666.2816121102569
 21
909.20055072639457
  0
LINE
  8
_0-1_計細線
  6
CONTINUOUS
 62
    3
 10
664.2816121102569
 20
913.20055072639457
 11
666.2816121102569
 21
911.20055072639457
  0
LINE
  8
_0-1_計細線
  6
CONTINUOUS
 62
    3
 10
678.28161180409552
 20
909.20055072639457
 11
680.28161180409552
 21
907.20055072639457
  0
LINE
  8
_0-1_計細線
  6
CONTINUOUS
 62
    3
 10
678.28161180409552
 20
911.20055072639457
 11
678.28161180409552
 21
909.20055072639457
  0
LINE
  8
_0-1_計細線
  6
CONTINUOUS
 62
    3
 10
680.28161180409552
 20
913.20055072639457
 11
678.28161180409552
 21
911.20055072639457
  0
LINE
  8
_0-1_計細線
  6
CONTINUOUS
 62
    3
 10
664.2816121102569
 20
907.20055072639457
 11
664.2816121102569
 21
893.20055072639457
  0
ARC
  8
_0-1_計細線
  6
CONTINUOUS
 62
    3
 10
667.2816121102569
 20
893.20055072639457
 40
3
 50
179.99999999999983
 51
269.99999999999977
  0
LINE
  8
_0-1_計細線
  6
CONTINUOUS
 62
    3
 10
667.2816121102569
 20
890.20055072639457
 11
677.28161180409552
 21
890.20055072639457
  0
LINE
  8
_0-1_計細線
  6
CONTINUOUS
 62
    3
 10
680.28161180409552
 20
907.20055072639457
 11
680.28161180409552
 21
893.20055072639457
  0
ARC
  8
_0-1_計細線
  6
CONTINUOUS
 62
    3
 10
677.28161180409552
 20
893.20055072639457
 40
3
 50
269.99999999999977
 51
359.99999999999966
  0
LINE
  8
_0-0_計極細
  6
CENTER1
 62
    2
 10
672.2816118860419
 20
936.84192459178234
 11
672.2816118860419
 21
881.57180675553923
  0
LINE
  8
_0-1_計細線
  6
CONTINUOUS
 62
    3
 10
666.2816121102569
 20
925.20055072639457
 11
678.28161180409552
 21
925.20055072639457
  0
LINE
  8
_0-1_計細線
  6
CONTINUOUS
 62
    3
 10
1086.2816121102569
 20
925.20055072639457
 11
1084.2816121102569
 21
923.20055072639457
  0
LINE
  8
_0-1_計細線
  6
CONTINUOUS
 62
    3
 10
1084.2816121102569
 20
913.20055072639457
 11
1084.2816121102569
 21
923.20055072639457
  0
LINE
  8
_0-1_計細線
  6
CONTINUOUS
 62
    3
 10
1100.2816118040955
 20
923.20055072639457
 11
1098.2816118040955
 21
925.20055072639457
  0
LINE
  8
_0-1_計細線
  6
CONTINUOUS
 62
    3
 10
1100.2816118040955
 20
913.20055072639457
 11
1100.2816118040955
 21
923.20055072639457
  0
LINE
  8
_0-1_計細線
  6
CONTINUOUS
 62
    3
 10
1086.2816121102569
 20
909.20055072639457
 11
1084.2816121102569
 21
907.20055072639457
  0
LINE
  8
_0-1_計細線
  6
CONTINUOUS
 62
    3
 10
1086.2816121102569
 20
911.20055072639457
 11
1086.2816121102569
 21
909.20055072639457
  0
LINE
  8
_0-1_計細線
  6
CONTINUOUS
 62
    3
 10
1084.2816121102569
 20
913.20055072639457
 11
1086.2816121102569
 21
911.20055072639457
  0
LINE
  8
_0-1_計細線
  6
CONTINUOUS
 62
    3
 10
1098.2816118040955
 20
909.20055072639457
 11
1100.2816118040955
 21
907.20055072639457
  0
LINE
  8
_0-1_計細線
  6
CONTINUOUS
 62
    3
 10
1098.2816118040955
 20
911.20055072639457
 11
1098.2816118040955
 21
909.20055072639457
  0
LINE
  8
_0-1_計細線
  6
CONTINUOUS
 62
    3
 10
1100.2816118040955
 20
913.20055072639457
 11
1098.2816118040955
 21
911.20055072639457
  0
LINE
  8
_0-1_計細線
  6
CONTINUOUS
 62
    3
 10
1084.2816121102569
 20
907.20055072639457
 11
1084.2816121102569
 21
893.20055072639457
  0
ARC
  8
_0-1_計細線
  6
CONTINUOUS
 62
    3
 10
1087.2816121102569
 20
893.20055072639457
 40
3
 50
179.99999999999983
 51
269.99999999999977
  0
LINE
  8
_0-1_計細線
  6
CONTINUOUS
 62
    3
 10
1087.2816121102569
 20
890.20055072639457
 11
1097.2816118040955
 21
890.20055072639457
  0
LINE
  8
_0-1_計細線
  6
CONTINUOUS
 62
    3
 10
1100.2816118040955
 20
907.20055072639457
 11
1100.2816118040955
 21
893.20055072639457
  0
ARC
  8
_0-1_計細線
  6
CONTINUOUS
 62
    3
 10
1097.2816118040955
 20
893.20055072639457
 40
3
 50
269.99999999999977
 51
359.99999999999966
  0
LINE
  8
_0-0_計極細
  6
CENTER1
 62
    2
 10
1092.2816118860419
 20
936.84192459178234
 11
1092.2816118860419
 21
881.57180675553923
  0
LINE
  8
_0-1_計細線
  6
CONTINUOUS
 62
    3
 10
1086.2816121102569
 20
925.20055072639457
 11
1098.2816118040955
 21
925.20055072639457
  0
LINE
  8
_0-1_計細線
  6
CONTINUOUS
 62
    3
 10
1506.2816121102564
 20
925.20055072639457
 11
1504.2816121102564
 21
923.20055072639457
  0
LINE
  8
_0-1_計細線
  6
CONTINUOUS
 62
    3
 10
1504.2816121102564
 20
913.20055072639457
 11
1504.2816121102564
 21
923.20055072639457
  0
LINE
  8
_0-1_計細線
  6
CONTINUOUS
 62
    3
 10
1520.2816118040951
 20
923.20055072639457
 11
1518.2816118040951
 21
925.20055072639457
  0
LINE
  8
_0-1_計細線
  6
CONTINUOUS
 62
    3
 10
1520.2816118040951
 20
913.20055072639457
 11
1520.2816118040951
 21
923.20055072639457
  0
LINE
  8
_0-1_計細線
  6
CONTINUOUS
 62
    3
 10
1506.2816121102564
 20
909.20055072639457
 11
1504.2816121102564
 21
907.20055072639457
  0
LINE
  8
_0-1_計細線
  6
CONTINUOUS
 62
    3
 10
1506.2816121102564
 20
911.20055072639457
 11
1506.2816121102564
 21
909.20055072639457
  0
LINE
  8
_0-1_計細線
  6
CONTINUOUS
 62
    3
 10
1504.2816121102564
 20
913.20055072639457
 11
1506.2816121102564
 21
911.20055072639457
  0
LINE
  8
_0-1_計細線
  6
CONTINUOUS
 62
    3
 10
1518.2816118040951
 20
909.20055072639457
 11
1520.2816118040951
 21
907.20055072639457
  0
LINE
  8
_0-1_計細線
  6
CONTINUOUS
 62
    3
 10
1518.2816118040951
 20
911.20055072639457
 11
1518.2816118040951
 21
909.20055072639457
  0
LINE
  8
_0-1_計細線
  6
CONTINUOUS
 62
    3
 10
1520.2816118040951
 20
913.20055072639457
 11
1518.2816118040951
 21
911.20055072639457
  0
LINE
  8
_0-1_計細線
  6
CONTINUOUS
 62
    3
 10
1504.2816121102564
 20
907.20055072639457
 11
1504.2816121102564
 21
893.20055072639457
  0
ARC
  8
_0-1_計細線
  6
CONTINUOUS
 62
    3
 10
1507.2816121102564
 20
893.20055072639457
 40
3
 50
179.99999999999983
 51
269.99999999999977
  0
LINE
  8
_0-1_計細線
  6
CONTINUOUS
 62
    3
 10
1507.2816121102564
 20
890.20055072639457
 11
1517.2816118040951
 21
890.20055072639457
  0
LINE
  8
_0-1_計細線
  6
CONTINUOUS
 62
    3
 10
1520.2816118040951
 20
907.20055072639457
 11
1520.2816118040951
 21
893.20055072639457
  0
ARC
  8
_0-1_計細線
  6
CONTINUOUS
 62
    3
 10
1517.2816118040951
 20
893.20055072639457
 40
3
 50
269.99999999999977
 51
359.99999999999966
  0
LINE
  8
_0-0_計極細
  6
CENTER1
 62
    2
 10
1512.2816118860414
 20
936.84192459178234
 11
1512.2816118860414
 21
881.57180675553923
  0
LINE
  8
_0-1_計細線
  6
CONTINUOUS
 62
    3
 10
1506.2816121102564
 20
925.20055072639457
 11
1518.2816118040951
 21
925.20055072639457
  0
LINE
  8
_0-1_計細線
  6
CONTINUOUS
 62
    3
 10
202.2816118860419
 20
936.20055072639457
 11
202.2816118860419
 21
913.20055072639457
  0
LINE
  8
_0-1_計細線
  6
CONTINUOUS
 62
    3
 10
1982.2816118860405
 20
913.20055072639457
 11
1982.2816118860405
 21
936.20055072639457
  0
LINE
  8
_0-1_計細線
  6
CONTINUOUS
 62
    3
 10
1982.2816118860405
 20
936.20055072639457
 11
202.2816118860419
 21
936.20055072639457
  0
LINE
  8
_0-1_計細線
  6
CONTINUOUS
 62
    3
 10
202.2816118860419
 20
913.20055072639457
 11
244.2816121102569
 21
913.20055072639457
  0
LINE
  8
_0-1_計細線
  6
CONTINUOUS
 62
    3
 10
1940.2816118040951
 20
913.20055072639457
 11
1982.2816118860405
 21
913.20055072639457
  0
LINE
  8
_0-1_計細線
  6
CONTINUOUS
 62
    3
 10
260.28161180409552
 20
913.20055072639457
 11
664.2816121102569
 21
913.20055072639457
  0
LINE
  8
_0-1_計細線
  6
CONTINUOUS
 62
    3
 10
680.28161180409552
 20
913.20055072639457
 11
1084.2816121102569
 21
913.20055072639457
  0
LINE
  8
_0-1_計細線
  6
CONTINUOUS
 62
    3
 10
1100.2816118040955
 20
913.20055072639457
 11
1504.2816121102564
 21
913.20055072639457
  0
LINE
  8
_0-1_計細線
  6
CONTINUOUS
 62
    3
 10
1520.2816118040951
 20
913.20055072639457
 11
1924.2816121102564
 21
913.20055072639457
  0
LINE
  8
_0-5_寸法線
  6
CONTINUOUS
 62
    7
 10
252.2816118860419
 20
890.20055072639457
 11
260.70217034749794
 21
876.5956179739992
  0
LINE
  8
_0-5_寸法線
  6
CONTINUOUS
 62
    7
 10
252.2816118860419
 20
890.20055072639457
 11
252.77156305151721
 21
874.20805411531319
  0
LINE
  8
_0-5_寸法線
  6
CONTINUOUS
 62
    7
 10
252.2816118860419
 20
890.20055072639457
 11
265.55638440910434
 21
846.10664829907978
  0
LINE
  8
_0-5_寸法線
  6
CONTINUOUS
 62
    7
 10
265.55638440910434
 20
846.10664829907978
 11
342.35638440910429
 21
846.10664829907978
  0
TEXT
  8
_0-5_寸法線
 62
    7
 10
265.55638440910434
 20
846.10664829907978
 40
24
 41
0.7999999999999998
 50
0
  1
アンカー
  0
LINE
  8
_0-7_枠細線
  6
CONTINUOUS
 62
    5
 10
292.13332496462453
 20
873.3610664311376
 11
280.13332496462453
 21
897.3610664311376
  0
LINE
  8
_0-7_枠細線
  6
CONTINUOUS
 62
    5
 10
268.13332496462453
 20
873.3610664311376
 11
292.13332496462453
 21
873.3610664311376
  0
LINE
  8
_0-7_枠細線
  6
CONTINUOUS
 62
    5
 10
280.13332496462453
 20
897.3610664311376
 11
268.13332496462453
 21
873.3610664311376
  0
TEXT
  8
_0-7_枠細線
 62
    5
 10
271.91756699366113
 20
872.86986283852889
 40
20
 41
0.8
 50
0
  1
１
  0
LINE
  8
_0-5_寸法線
  6
CONTINUOUS
 62
    7
 10
202.2816118860419
 20
952.20055072639457
 11
202.2816118860419
 21
1024.2005507263946
  0
LINE
  8
_0-5_寸法線
  6
CONTINUOUS
 62
    7
 10
202.2816118860419
 20
1016.2005507263946
 11
217.73642510666696
 21
1020.3416554480349
  0
LINE
  8
_0-5_寸法線
  6
CONTINUOUS
 62
    7
 10
202.2816118860419
 20
1016.2005507263946
 11
217.73642510666696
 21
1012.0594460047542
  0
LINE
  8
_0-5_寸法線
  6
CONTINUOUS
 62
    7
 10
252.2816118860419
 20
952.20055072639457
 11
252.2816118860419
 21
1024.2005507263946
  0
LINE
  8
_0-5_寸法線
  6
CONTINUOUS
 62
    7
 10
252.2816118860419
 20
1016.2005507263946
 11
236.82679866541685
 21
1012.0594460047542
  0
LINE
  8
_0-5_寸法線
  6
CONTINUOUS
 62
    7
 10
252.2816118860419
 20
1016.2005507263946
 11
236.82679866541685
 21
1020.341655448035
  0
LINE
  8
_0-5_寸法線
  6
CONTINUOUS
 62
    7
 10
202.2816118860419
 20
1016.2005507263946
 11
252.2816118860419
 21
1016.2005507263946
  0
TEXT
  8
_0-5_寸法線
 62
    7
 10
215.2816118860419
 20
1016.2005507263946
 40
24
 41
1
 50
0
  1
50
  0
LINE
  8
_0-5_寸法線
  6
CONTINUOUS
 62
    7
 10
252.2816118860419
 20
1016.2005507263946
 11
267.73642510666696
 21
1020.3416554480348
  0
LINE
  8
_0-5_寸法線
  6
CONTINUOUS
 62
    7
 10
252.2816118860419
 20
1016.2005507263946
 11
267.73642510666696
 21
1012.0594460047541
  0
LINE
  8
_0-5_寸法線
  6
CONTINUOUS
 62
    7
 10
672.2816118860419
 20
952.20055072639457
 11
672.2816118860419
 21
1024.2005507263946
  0
LINE
  8
_0-5_寸法線
  6
CONTINUOUS
 62
    7
 10
672.2816118860419
 20
1016.2005507263946
 11
656.82679866541685
 21
1012.0594460047542
  0
LINE
  8
_0-5_寸法線
  6
CONTINUOUS
 62
    7
 10
672.2816118860419
 20
1016.2005507263946
 11
656.82679866541685
 21
1020.341655448035
  0
LINE
  8
_0-5_寸法線
  6
CONTINUOUS
 62
    7
 10
252.2816118860419
 20
1016.2005507263946
 11
672.2816118860419
 21
1016.2005507263946
  0
TEXT
  8
_0-5_寸法線
 62
    7
 10
444.2816118860419
 20
1016.2005507263946
 40
24
 41
1
 50
0
  1
420
  0
LINE
  8
_0-5_寸法線
  6
CONTINUOUS
 62
    7
 10
672.2816118860419
 20
1016.2005507263946
 11
687.73642510666707
 21
1020.3416554480348
  0
LINE
  8
_0-5_寸法線
  6
CONTINUOUS
 62
    7
 10
672.2816118860419
 20
1016.2005507263946
 11
687.73642510666696
 21
1012.0594460047541
  0
LINE
  8
_0-5_寸法線
  6
CONTINUOUS
 62
    7
 10
1092.2816118860419
 20
952.20055072639457
 11
1092.2816118860419
 21
1024.2005507263946
  0
LINE
  8
_0-5_寸法線
  6
CONTINUOUS
 62
    7
 10
1092.2816118860419
 20
1016.2005507263946
 11
1076.8267986654168
 21
1012.0594460047542
  0
LINE
  8
_0-5_寸法線
  6
CONTINUOUS
 62
    7
 10
1092.2816118860419
 20
1016.2005507263946
 11
1076.8267986654168
 21
1020.341655448035
  0
LINE
  8
_0-5_寸法線
  6
CONTINUOUS
 62
    7
 10
672.2816118860419
 20
1016.2005507263946
 11
1092.2816118860419
 21
1016.2005507263946
  0
TEXT
  8
_0-5_寸法線
 62
    7
 10
864.28161188604145
 20
1016.2005507263941
 40
24
 41
1
 50
0
  1
420
  0
LINE
  8
_0-5_寸法線
  6
CONTINUOUS
 62
    7
 10
1092.2816118860419
 20
1016.2005507263946
 11
1107.736425106667
 21
1020.3416554480348
  0
LINE
  8
_0-5_寸法線
  6
CONTINUOUS
 62
    7
 10
1092.2816118860419
 20
1016.2005507263946
 11
1107.736425106667
 21
1012.0594460047541
  0
LINE
  8
_0-5_寸法線
  6
CONTINUOUS
 62
    7
 10
1512.2816118860414
 20
952.20055072639457
 11
1512.2816118860414
 21
1024.2005507263946
  0
LINE
  8
_0-5_寸法線
  6
CONTINUOUS
 62
    7
 10
1512.2816118860414
 20
1016.2005507263946
 11
1496.8267986654164
 21
1012.0594460047542
  0
LINE
  8
_0-5_寸法線
  6
CONTINUOUS
 62
    7
 10
1512.2816118860414
 20
1016.2005507263946
 11
1496.8267986654164
 21
1020.341655448035
  0
LINE
  8
_0-5_寸法線
  6
CONTINUOUS
 62
    7
 10
1092.2816118860419
 20
1016.2005507263946
 11
1512.2816118860414
 21
1016.2005507263946
  0
TEXT
  8
_0-5_寸法線
 62
    7
 10
1284.2816118860414
 20
1016.2005507263941
 40
24
 41
1
 50
0
  1
420
  0
LINE
  8
_0-5_寸法線
  6
CONTINUOUS
 62
    7
 10
1512.2816118860414
 20
1016.2005507263946
 11
1527.7364251066665
 21
1020.3416554480348
  0
LINE
  8
_0-5_寸法線
  6
CONTINUOUS
 62
    7
 10
1512.2816118860414
 20
1016.2005507263946
 11
1527.7364251066665
 21
1012.0594460047541
  0
LINE
  8
_0-5_寸法線
  6
CONTINUOUS
 62
    7
 10
1932.2816118860405
 20
952.20055072639457
 11
1932.2816118860405
 21
1024.2005507263946
  0
LINE
  8
_0-5_寸法線
  6
CONTINUOUS
 62
    7
 10
1932.2816118860405
 20
1016.2005507263946
 11
1916.8267986654155
 21
1012.0594460047542
  0
LINE
  8
_0-5_寸法線
  6
CONTINUOUS
 62
    7
 10
1932.2816118860405
 20
1016.2005507263946
 11
1916.8267986654155
 21
1020.341655448035
  0
LINE
  8
_0-5_寸法線
  6
CONTINUOUS
 62
    7
 10
1512.2816118860414
 20
1016.2005507263946
 11
1932.2816118860405
 21
1016.2005507263946
  0
TEXT
  8
_0-5_寸法線
 62
    7
 10
1704.2816118860414
 20
1016.2005507263941
 40
24
 41
1
 50
0
  1
420
  0
LINE
  8
_0-5_寸法線
  6
CONTINUOUS
 62
    7
 10
1932.2816118860405
 20
1016.2005507263946
 11
1947.7364251066656
 21
1020.3416554480348
  0
LINE
  8
_0-5_寸法線
  6
CONTINUOUS
 62
    7
 10
1932.2816118860405
 20
1016.2005507263946
 11
1947.7364251066656
 21
1012.0594460047541
  0
LINE
  8
_0-5_寸法線
  6
CONTINUOUS
 62
    7
 10
1982.2816118860405
 20
952.20055072639457
 11
1982.2816118860405
 21
1024.2005507263946
  0
LINE
  8
_0-5_寸法線
  6
CONTINUOUS
 62
    7
 10
1982.2816118860405
 20
1016.2005507263946
 11
1966.8267986654155
 21
1012.0594460047542
  0
LINE
  8
_0-5_寸法線
  6
CONTINUOUS
 62
    7
 10
1982.2816118860405
 20
1016.2005507263946
 11
1966.8267986654155
 21
1020.341655448035
  0
LINE
  8
_0-5_寸法線
  6
CONTINUOUS
 62
    7
 10
1932.2816118860405
 20
1016.2005507263946
 11
1982.2816118860405
 21
1016.2005507263946
  0
TEXT
  8
_0-5_寸法線
 62
    7
 10
1945.2816118860414
 20
1016.2005507263946
 40
24
 41
1
 50
0
  1
50
  0
LINE
  8
_1-5_寸法2
  6
CONTINUOUS
 62
    7
 10
353.39947739013735
 20
498.02154847180219
 11
353.39947739013746
 21
602.02154903501491
  0
LINE
  8
_1-5_寸法2
  6
CONTINUOUS
 62
    7
 10
353.39947739013746
 20
594.02154903501491
 11
337.94466416951241
 21
589.8804443133746
  0
LINE
  8
_1-5_寸法2
  6
CONTINUOUS
 62
    7
 10
353.39947739013746
 20
594.02154903501491
 11
337.94466416951241
 21
598.16265375665535
  0
LINE
  8
_1-5_寸法2
  6
CONTINUOUS
 62
    7
 10
365.39947861474343
 20
498.02154847180219
 11
365.39947861474366
 21
602.02154903501491
  0
CIRCLE
  8
_1-5_寸法2
  6
CONTINUOUS
 62
    1
 10
365.39947861474366
 20
594.02154903501491
 40
2.3999999999999995
  0
LINE
  8
_1-5_寸法2
  6
CONTINUOUS
 62
    7
 10
313.39947739013746
 20
594.02154903501491
 11
365.39947861474366
 21
594.02154903501491
  0
TEXT
  8
_1-5_寸法2
 62
    7
 10
319.59153075654501
 20
594.02154903501491
 40
24
 41
1
 50
0
  1
3
  0
LINE
  8
_1-5_寸法2
  6
CONTINUOUS
 62
    7
 10
373.39947780679199
 20
498.02154847180219
 11
373.39947780679222
 21
602.02154903501491
  0
LINE
  8
_1-5_寸法2
  6
CONTINUOUS
 62
    7
 10
365.39947861474366
 20
594.02154903501491
 11
373.39947780679222
 21
594.02154903501491
  0
TEXT
  8
_1-5_寸法2
 62
    7
 10
363.39947821076794
 20
594.02154903501491
 40
24
 41
1
 50
0
  1
2
  0
LINE
  8
_1-5_寸法2
  6
CONTINUOUS
 62
    7
 10
373.39947780679222
 20
594.02154903501491
 11
388.85429102741728
 21
598.16265375665523
  0
LINE
  8
_1-5_寸法2
  6
CONTINUOUS
 62
    7
 10
373.39947780679222
 20
594.02154903501491
 11
388.85429102741728
 21
589.8804443133746
  0
LINE
  8
_1-5_寸法2
  6
CONTINUOUS
 62
    7
 10
661.39947821498595
 20
498.02154847180196
 11
661.39947821498629
 21
602.02154903501491
  0
LINE
  8
_1-5_寸法2
  6
CONTINUOUS
 62
    7
 10
661.39947821498629
 20
594.02154903501491
 11
645.94466499436123
 21
589.8804443133746
  0
LINE
  8
_1-5_寸法2
  6
CONTINUOUS
 62
    7
 10
661.39947821498629
 20
594.02154903501491
 11
645.94466499436123
 21
598.16265375665535
  0
LINE
  8
_1-5_寸法2
  6
CONTINUOUS
 62
    7
 10
373.39947780679222
 20
594.02154903501491
 11
661.39947821498629
 21
594.02154903501491
  0
TEXT
  8
_1-5_寸法2
 62
    7
 10
505.39947801088931
 20
594.02154903501491
 40
24
 41
1
 50
0
  1
72
  0
LINE
  8
_1-5_寸法2
  6
CONTINUOUS
 62
    7
 10
669.39947739013769
 20
498.02154847180196
 11
669.39947739013792
 21
602.02154903501491
  0
CIRCLE
  8
_1-5_寸法2
  6
CONTINUOUS
 62
    1
 10
669.39947739013792
 20
594.02154903501491
 40
2.3999999999999995
  0
LINE
  8
_1-5_寸法2
  6
CONTINUOUS
 62
    7
 10
661.39947821498629
 20
594.02154903501491
 11
669.39947739013792
 21
594.02154903501491
  0
TEXT
  8
_1-5_寸法2
 62
    7
 10
659.39947780256193
 20
594.02154903501491
 40
24
 41
1
 50
0
  1
2
  0
LINE
  8
_1-5_寸法2
  6
CONTINUOUS
 62
    7
 10
681.39947739013769
 20
498.02154847180196
 11
681.39947739013792
 21
602.02154903501491
  0
LINE
  8
_1-5_寸法2
  6
CONTINUOUS
 62
    7
 10
681.39947739013792
 20
594.02154903501491
 11
696.85429061076309
 21
598.16265375665512
  0
LINE
  8
_1-5_寸法2
  6
CONTINUOUS
 62
    7
 10
681.39947739013792
 20
594.02154903501491
 11
696.85429061076297
 21
589.88044431337448
  0
LINE
  8
_1-5_寸法2
  6
CONTINUOUS
 62
    7
 10
669.39947739013792
 20
594.02154903501491
 11
721.39947739013792
 21
594.02154903501491
  0
TEXT
  8
_1-5_寸法2
 62
    7
 10
704.46998722860712
 20
594.02154903501491
 40
24
 41
1
 50
0
  1
3
  0
LINE
  8
_0-5_寸法線
  6
CONTINUOUS
 62
    7
 10
202.2816118860419
 20
1250.2005507263946
 11
202.2816118860419
 21
1322.2005507263946
  0
LINE
  8
_0-5_寸法線
  6
CONTINUOUS
 62
    7
 10
202.2816118860419
 20
1314.2005507263946
 11
186.82679866541685
 21
1310.0594460047544
  0
LINE
  8
_0-5_寸法線
  6
CONTINUOUS
 62
    7
 10
202.2816118860419
 20
1314.2005507263946
 11
186.82679866541685
 21
1318.341655448035
  0
LINE
  8
_0-5_寸法線
  6
CONTINUOUS
 62
    7
 10
205.2816118860419
 20
1250.2005507263946
 11
205.2816118860419
 21
1322.2005507263946
  0
CIRCLE
  8
_0-5_寸法線
  6
CONTINUOUS
 62
    1
 10
205.2816118860419
 20
1314.2005507263946
 40
2.3999999999999999
  0
LINE
  8
_0-5_寸法線
  6
CONTINUOUS
 62
    7
 10
162.2816118860419
 20
1314.2005507263946
 11
205.2816118860419
 21
1314.2005507263946
  0
TEXT
  8
_0-5_寸法線
 62
    7
 10
167.99011562758403
 20
1314.2005507263946
 40
24
 41
1
 50
0
  1
3
  0
LINE
  8
_0-5_寸法線
  6
CONTINUOUS
 62
    7
 10
206.7816118860419
 20
1250.2005507263946
 11
206.7816118860419
 21
1322.2005507263946
  0
LINE
  8
_0-5_寸法線
  6
CONTINUOUS
 62
    7
 10
205.2816118860419
 20
1314.2005507263946
 11
206.7816118860419
 21
1314.2005507263946
  0
TEXT
  8
_0-5_寸法線
 62
    7
 10
212.994803455073
 20
1314.2005507263946
 40
24
 41
1
 50
0
  1
1.5
  0
LINE
  8
_0-5_寸法線
  6
CONTINUOUS
 62
    7
 10
206.7816118860419
 20
1314.2005507263946
 11
222.23642510666696
 21
1318.341655448035
  0
LINE
  8
_0-5_寸法線
  6
CONTINUOUS
 62
    7
 10
206.7816118860419
 20
1314.2005507263946
 11
222.23642510666696
 21
1310.0594460047541
  0
LINE
  8
_0-5_寸法線
  6
CONTINUOUS
 62
    7
 10
1977.7816118860405
 20
1250.2005507263946
 11
1977.7816118860405
 21
1322.2005507263946
  0
LINE
  8
_0-5_寸法線
  6
CONTINUOUS
 62
    7
 10
1977.7816118860405
 20
1314.2005507263946
 11
1962.3267986654155
 21
1310.0594460047544
  0
LINE
  8
_0-5_寸法線
  6
CONTINUOUS
 62
    7
 10
1977.7816118860405
 20
1314.2005507263946
 11
1962.3267986654155
 21
1318.341655448035
  0
LINE
  8
_0-5_寸法線
  6
CONTINUOUS
 62
    7
 10
206.7816118860419
 20
1314.2005507263946
 11
1977.7816118860405
 21
1314.2005507263946
  0
TEXT
  8
_0-5_寸法線
 62
    7
 10
1068.2816118860419
 20
1314.2005507263946
 40
24
 41
1
 50
0
  1
1771
  0
LINE
  8
_0-5_寸法線
  6
CONTINUOUS
 62
    7
 10
1979.2816118860405
 20
1250.2005507263946
 11
1979.2816118860405
 21
1322.2005507263946
  0
CIRCLE
  8
_0-5_寸法線
  6
CONTINUOUS
 62
    1
 10
1979.2816118860405
 20
1314.2005507263946
 40
2.3999999999999999
  0
LINE
  8
_0-5_寸法線
  6
CONTINUOUS
 62
    7
 10
1977.7816118860405
 20
1314.2005507263946
 11
1979.2816118860405
 21
1314.2005507263946
  0
TEXT
  8
_0-5_寸法線
 62
    7
 10
1935.9563373708083
 20
1314.2005507263946
 40
24
 41
1
 50
0
  1
1.5
  0
LINE
  8
_0-5_寸法線
  6
CONTINUOUS
 62
    7
 10
1982.2816118860405
 20
1250.2005507263946
 11
1982.2816118860405
 21
1322.2005507263946
  0
LINE
  8
_0-5_寸法線
  6
CONTINUOUS
 62
    7
 10
1982.2816118860405
 20
1314.2005507263946
 11
1997.7364251066656
 21
1318.3416554480348
  0
LINE
  8
_0-5_寸法線
  6
CONTINUOUS
 62
    7
 10
1982.2816118860405
 20
1314.2005507263946
 11
1997.7364251066656
 21
1310.0594460047541
  0
LINE
  8
_0-5_寸法線
  6
CONTINUOUS
 62
    7
 10
1979.2816118860405
 20
1314.2005507263946
 11
2022.2816118860405
 21
1314.2005507263946
  0
TEXT
  8
_0-5_寸法線
 62
    7
 10
2005.1218664826802
 20
1314.2005507263937
 40
24
 41
1
 50
0
  1
3
  0
ENDSEC
  0
EOF
