  0
SECTION
  2
HEADER
  9
$ACADVER
  1
AC1009
  9
$INSBASE
 10
0
 20
0
 30
0
  9
$EXTMIN
 10
0
 20
0
  9
$EXTMAX
 10
1782
 20
1260
  9
$LIMMIN
 10
0
 20
0
  9
$LIMMAX
 10
1782
 20
1260
  9
$LTSCALE
 40
6
  0
ENDSEC
  0
SECTION
  2
TABLES
  0
TABLE
  2
LTYPE
 70
     9
  0
LTYPE
  2
CONTINUOUS
 70
    64
  3
実線
 72
    65
 73
     0
 40
0.0
  0
LTYPE
  2
DASHED1
 70
    64
  3
--  --  --  --  --  --  --  --  
 72
    65
 73
     2
 40
2.5
 49
1.25
 49
-1.25
  0
LTYPE
  2
DASHED2
 70
    64
  3
----    ----    ----    ----    
 72
    65
 73
     2
 40
5.0
 49
2.5
 49
-2.5
  0
LTYPE
  2
DASHED3
 70
    64
  3
------  ------  ------  ------  
 72
    65
 73
     2
 40
5.0
 49
3.75
 49
-1.25
  0
LTYPE
  2
CENTER1
 70
    64
  3
----- - ----- - ----- - ----- - 
 72
    65
 73
     4
 40
10.0
 49
6.25
 49
-1.25
 49
1.25
 49
-1.25
  0
LTYPE
  2
CENTER2
 70
    64
  3
----------  --  ----------  --  
 72
    65
 73
     4
 40
20.0
 49
12.5
 49
-2.5
 49
2.5
 49
-2.5
  0
LTYPE
  2
PHANTOM1
 70
    64
  3
--- - - --- - - --- - - --- - - 
 72
    65
 73
     6
 40
10.0
 49
3.25
 49
-1.25
 49
1.25
 49
-1.25
 49
1.25
 49
-1.25
  0
LTYPE
  2
PHANTOM2
 70
    64
  3
--------  -  -  --------  -  -  
 72
    65
 73
     6
 40
20.0
 49
10.0
 49
-2.5
 49
1.25
 49
-2.5
 49
1.25
 49
-2.5
  0
LTYPE
  2
DOT
 70
    64
  3
-   -   -   -   -   -   -   -   
 72
    65
 73
     2
 40
2.5
 49
0.625
 49
-1.875
  0
LTYPE
  2
DUMMY
 70
    64
  3
ダミー
 72
    65
 73
     0
 40
0.0
  0
LTYPE
  2
RAND1
 70
    64
  3
ランダム線1
 72
    65
 73
     4
 40
10.0
 49
1.0
 49
-2.0
 49
3.0
 49
-4.0
  0
LTYPE
  2
RAND2
 70
    64
  3
ランダム線2
 72
    65
 73
     4
 40
14.0
 49
2.0
 49
-3.0
 49
4.0
 49
-5.0
  0
LTYPE
  2
RAND3
 70
    64
  3
ランダム線3
 72
    65
 73
     4
 40
18.0
 49
3.0
 49
-4.0
 49
5.0
 49
-6.0
  0
LTYPE
  2
RAND4
 70
    64
  3
ランダム線4
 72
    65
 73
     4
 40
22.0
 49
4.0
 49
-5.0
 49
6.0
 49
-7.0
  0
LTYPE
  2
RAND5
 70
    64
  3
ランダム線5
 72
    65
 73
     4
 40
26.0
 49
5.0
 49
-6.0
 49
7.0
 49
-8.0
  0
LTYPE
  2
LONG1
 70
    64
  3
----------  --  ----------  --  
 72
    65
 73
     4
 40
40.0
 49
32.5
 49
-2.5
 49
2.5
 49
-2.5
  0
LTYPE
  2
LONG2
 70
    64
  3
--------  -  -  --------  -  -  
 72
    65
 73
     6
 40
40.0
 49
30.0
 49
-2.5
 49
1.25
 49
-2.5
 49
1.25
 49
-2.5
  0
LTYPE
  2
LONG3
 70
    64
  3
+++++++++++++++..+++++++++++++++
 72
    65
 73
     2
 40
40.0
 49
37.5
 49
-2.5
  0
LTYPE
  2
LONG4
 70
    64
  3
+++++++++++++++..+++++++++++++++
 72
    65
 73
     2
 40
80.0
 49
75.0
 49
-5.0
  0
LTYPE
  2
LONG5
 70
    64
  3
----------  --  ----------  --  
 72
    65
 73
     4
 40
60.0
 49
37.5
 49
-7.5
 49
7.5
 49
-7.5
  0
LTYPE
  2
dashed
 70
   64
  3
-------   -------------   ------
 72
   65
 73
    2
 40
7.5
 49
6
 49
-1.5
  0
LTYPE
  2
dashed_spaced
 70
   64
  3
----        --------        ----
 72
   65
 73
    2
 40
12
 49
6
 49
-6
  0
LTYPE
  2
long_dashed_dotted
 70
   64
  3
------------- --- --------------
 72
   65
 73
    4
 40
15.25
 49
12
 49
-1.5
 49
0.25
 49
-1.5
  0
LTYPE
  2
long_dashed_double-dotted
 70
   64
  3
----------- --- --- ------------
 72
   65
 73
    6
 40
17
 49
12
 49
-1.5
 49
0.25
 49
-1.5
 49
0.25
 49
-1.5
  0
LTYPE
  2
long_dashed_triplicate-dotted
 70
   64
  3
--------- --- --- --- ----------
 72
   65
 73
    8
 40
18.75
 49
12
 49
-1.5
 49
0.25
 49
-1.5
 49
0.25
 49
-1.5
 49
0.25
 49
-1.5
  0
LTYPE
  2
dotted
 70
   64
  3
   -       -       -       -    
 72
   65
 73
    2
 40
1.75
 49
0.25
 49
-1.5
  0
LTYPE
  2
chain
 70
   64
  3
-------------- -- --------------
 72
   65
 73
    4
 40
18.5
 49
12
 49
-1.5
 49
3.5
 49
-1.5
  0
LTYPE
  2
chain_double_dash
 70
   64
  3
------------ -- -- -------------
 72
   65
 73
    6
 40
23.5
 49
12
 49
-1.5
 49
3.5
 49
-1.5
 49
3.5
 49
-1.5
  0
LTYPE
  2
dashed_dotted
 70
   64
  3
-----------     -     ----------
 72
   65
 73
    4
 40
9.25
 49
6
 49
-1.5
 49
0.25
 49
-1.5
  0
LTYPE
  2
double-dashed_dotted
 70
   64
  3
------   -----------   -   -----
 72
   65
 73
    6
 40
16.75
 49
6
 49
-1.5
 49
6
 49
-1.5
 49
0.25
 49
-1.5
  0
LTYPE
  2
dashed_double-dotted
 70
   64
  3
---------    -    -    ---------
 72
   65
 73
    6
 40
11
 49
6
 49
-1.5
 49
0.25
 49
-1.5
 49
0.25
 49
-1.5
  0
LTYPE
  2
double-dashed_double-dotted
 70
   64
  3
-----   ---------   -   -   ----
 72
   65
 73
    8
 40
18.5
 49
6
 49
-1.5
 49
6
 49
-1.5
 49
0.25
 49
-1.5
 49
0.25
 49
-1.5
  0
LTYPE
  2
dashed_triplicate-dotted
 70
   64
  3
-------    -    -    -    ------
 72
   65
 73
    8
 40
12.75
 49
6
 49
-1.5
 49
0.25
 49
-1.5
 49
0.25
 49
-1.5
 49
0.25
 49
-1.5
  0
LTYPE
  2
double-dashed_triplicate-dotted
 70
   64
  3
-----  ---------  -  -  -  -----
 72
   65
 73
   10
 40
20.25
 49
6
 49
-1.5
 49
6
 49
-1.5
 49
0.25
 49
-1.5
 49
0.25
 49
-1.5
 49
0.25
 49
-1.5
  0
LTYPE
  2
undefined
 70
   64
  3
--------------------------------
 72
   65
 73
    0
 40
0
  0
ENDTAB
  0
TABLE
  2
STYLE
  5
3
100
AcDbSymbolTable
 70
     1
  0
STYLE
  5
10
100
AcDbSymbolTableRecord
100
AcDbTextStyleTableRecord
  2
STANDARD
 70
     0
 40
0.0
 41
1.0
 50
0.0
 71
     0
 42
0.2
  3
txt
  4
bigfont.shx
  0
STYLE
  5
26
100
AcDbSymbolTableRecord
100
AcDbTextStyleTableRecord
  2
TATEGAKI
 70
    68
 40
0.0
 41
1.0
 50
0.0
 71
     0
 42
1.0
  3
txt
  4
bigfont.shx
  0
ENDTAB
  0
TABLE
  2
LAYER
 70
    9
  0
LAYER
  2
_0-0_計極細
 70
   64
 62
    7
  6
CONTINUOUS
  0
LAYER
  2
_0-1_計細線
 70
   64
 62
    7
  6
CONTINUOUS
  0
LAYER
  2
_0-5_寸法線
 70
   64
 62
    7
  6
CONTINUOUS
  0
LAYER
  2
_0-7_枠細線
 70
   64
 62
    7
  6
CONTINUOUS
  0
LAYER
  2
_0-8_枠中線
 70
   64
 62
    7
  6
CONTINUOUS
  0
LAYER
  2
_1-2_極細2
 70
   64
 62
    7
  6
CONTINUOUS
  0
LAYER
  2
_1-3_細線2
 70
   64
 62
    7
  6
CONTINUOUS
  0
LAYER
  2
_1-5_寸法2
 70
   64
 62
    7
  6
CONTINUOUS
  0
LAYER
  2
ADD_LINE
 70
   64
 62
    7
  6
CONTINUOUS
  0
ENDTAB
  0
ENDSEC
  0
SECTION
  2
BLOCKS
  0
ENDSEC
  0
SECTION
  2
ENTITIES
  0
LINE
  8
_0-8_枠中線
  6
CONTINUOUS
 62
    5
 10
72
 20
72
 11
72
 21
1152
  0
LINE
  8
_0-8_枠中線
  6
CONTINUOUS
 62
    5
 10
72
 20
1152
 11
1710
 21
1152
  0
LINE
  8
_0-8_枠中線
  6
CONTINUOUS
 62
    5
 10
1710
 20
1152
 11
1710
 21
72
  0
LINE
  8
_0-8_枠中線
  6
CONTINUOUS
 62
    5
 10
1710
 20
72
 11
72
 21
72
  0
LINE
  8
_0-7_枠細線
  6
CONTINUOUS
 62
    5
 10
1422
 20
216
 11
1422
 21
120
  0
TEXT
  8
_0-7_枠細線
 62
    5
 10
1125
 20
117
 40
21
 41
1
 50
0
  1
備考
  7
TATEGAKI
  0
TEXT
  8
_0-7_枠細線
 62
    5
 10
1125
 20
165
 40
21
 41
1
 50
0
  1
品番
  7
TATEGAKI
  0
TEXT
  8
_0-7_枠細線
 62
    5
 10
1125
 20
213
 40
21
 41
1
 50
0
  1
品名
  7
TATEGAKI
  0
LINE
  8
_0-7_枠細線
  6
CONTINUOUS
 62
    5
 10
1422
 20
168
 11
1110
 21
168
  0
LINE
  8
_0-7_枠細線
  6
CONTINUOUS
 62
    5
 10
1140
 20
216
 11
1140
 21
72
  0
LINE
  8
_0-8_枠中線
  6
CONTINUOUS
 62
    5
 10
1710
 20
216
 11
1110
 21
216
  0
LINE
  8
_0-8_枠中線
  6
CONTINUOUS
 62
    5
 10
1110
 20
216
 11
1110
 21
72
  0
LINE
  8
_0-7_枠細線
  6
CONTINUOUS
 62
    5
 10
1494
 20
216
 11
1494
 21
72
  0
TEXT
  8
_0-7_枠細線
 62
    5
 10
1431
 20
192
 40
18
 41
1
 50
0
  1
縮　尺
  0
LINE
  8
_0-7_枠細線
  6
CONTINUOUS
 62
    5
 10
1422
 20
186
 11
1494
 21
186
  0
LINE
  8
_0-7_枠細線
  6
CONTINUOUS
 62
    5
 10
1494
 20
120
 11
1110
 21
120
  0
LINE
  8
_0-7_枠細線
  6
CONTINUOUS
 62
    5
 10
1710
 20
108
 11
1494
 21
108
  0
LINE
  8
_0-7_枠細線
  6
CONTINUOUS
 62
    5
 10
1494
 20
144
 11
1710
 21
144
  0
LINE
  8
_0-7_枠細線
  6
CONTINUOUS
 62
    5
 10
1710
 20
168
 11
1494
 21
168
  0
TEXT
  8
_0-7_枠細線
 62
    5
 10
1506
 20
177
 40
30
 41
0.8
 50
0
  1
株式会社シマブン
  0
TEXT
  8
_0-7_枠細線
 62
    5
 10
1503
 20
72
 40
18
 41
1
 50
0
  1
年月日
  0
TEXT
  8
_0-7_枠細線
 62
    5
 10
1503
 20
90
 40
18
 41
1
 50
0
  1
作　成
  0
TEXT
  8
_0-7_枠細線
 62
    5
 10
1507.5
 20
147
 40
18
 41
1
 50
0
  1
承 認
  0
LINE
  8
_0-7_枠細線
  6
CONTINUOUS
 62
    5
 10
1566
 20
168
 11
1566
 21
72
  0
TEXT
  8
_0-7_枠細線
 62
    5
 10
1579.5
 20
147
 40
18
 41
1
 50
0
  1
検 図
  0
LINE
  8
_0-7_枠細線
  6
CONTINUOUS
 62
    5
 10
1638
 20
168
 11
1638
 21
108
  0
TEXT
  8
_0-7_枠細線
 62
    5
 10
1651.5
 20
147
 40
18
 41
1
 50
0
  1
設 計
  0
TEXT
  8
_0-7_枠細線
 62
    5
 10
1650
 20
114
 40
24
 41
1
 50
0
  1
藤戸
  0
TEXT
  8
_0-7_枠細線
 62
    5
 10
1432.7999999999997
 20
141
 40
24
 41
0.6999999999999998
 50
0
  1
１：６
  0
LINE
  8
_0-1_計細線
  6
CONTINUOUS
 62
    3
 10
1723.4465993058161
 20
796.64196472428898
 11
1723.446594369296
 21
796.6433281967345
  0
TEXT
  8
_0-7_枠細線
 62
    5
 10
1506
 20
114
 40
24
 41
1
 50
0
  1
大野
  0
TEXT
  8
_0-7_枠細線
 62
    5
 10
1578
 20
114
 40
24
 41
1
 50
0
  1
深川
  0
TEXT
  8
_0-7_枠細線
 62
    5
 10
1572
 20
81
 40
18
 41
0.6666666666666666
 50
0
  1
２０１５年０４月０１日
  0
LINE
  8
_1-5_寸法2
  6
CONTINUOUS
 62
    7
 10
310.04960835509155
 20
366.01616135385143
 11
310.04960835509155
 21
415.51616177626113
  0
LINE
  8
_1-5_寸法2
  6
CONTINUOUS
 62
    7
 10
310.04960835509155
 20
403.51616177626113
 11
298.45849843962264
 21
400.41033323503086
  0
LINE
  8
_1-5_寸法2
  6
CONTINUOUS
 62
    7
 10
310.04960835509155
 20
403.51616177626113
 11
298.45849843962276
 21
406.62199031749134
  0
LINE
  8
_1-5_寸法2
  6
CONTINUOUS
 62
    7
 10
326.54960835509155
 20
366.01616135385143
 11
326.54960835509155
 21
415.51616177626113
  0
LINE
  8
_1-5_寸法2
  6
CONTINUOUS
 62
    7
 10
281.68503185901773
 20
403.51616177626113
 11
326.54960835509155
 21
403.51616177626113
  0
TEXT
  8
_1-5_寸法2
 62
    7
 10
281.68503185901773
 20
403.51616177626113
 40
18
 41
1
 50
0
  1
5.5
  0
LINE
  8
_1-5_寸法2
  6
CONTINUOUS
 62
    7
 10
326.54960835509155
 20
403.51616177626113
 11
338.1407182705604
 21
406.62199031749128
  0
LINE
  8
_1-5_寸法2
  6
CONTINUOUS
 62
    7
 10
326.54960835509155
 20
403.51616177626113
 11
338.14071827056034
 21
400.41033323503075
  0
LINE
  8
_1-5_寸法2
  6
CONTINUOUS
 62
    7
 10
356.54960835509155
 20
366.01616135385143
 11
356.54960835509155
 21
415.51616177626113
  0
LINE
  8
_1-5_寸法2
  6
CONTINUOUS
 62
    7
 10
356.54960835509155
 20
403.51616177626113
 11
344.95849843962264
 21
400.41033323503086
  0
LINE
  8
_1-5_寸法2
  6
CONTINUOUS
 62
    7
 10
356.54960835509155
 20
403.51616177626113
 11
344.95849843962276
 21
406.62199031749134
  0
LINE
  8
_1-5_寸法2
  6
CONTINUOUS
 62
    7
 10
326.54960835509155
 20
403.51616177626113
 11
356.54960835509155
 21
403.51616177626113
  0
TEXT
  8
_1-5_寸法2
 62
    7
 10
332.54960835509155
 20
403.51616177626113
 40
18
 41
1
 50
0
  1
10
  0
LINE
  8
_1-2_極細2
  6
CONTINUOUS
 62
    2
 10
526.94960866123893
 20
335.41616135385118
 11
529.04960866123884
 21
335.41616135385118
  0
LINE
  8
_1-3_細線2
  6
CONTINUOUS
 62
    4
 10
399.44960835509073
 20
349.21616135385125
 11
376.64960835509237
 21
349.21616135385125
  0
LINE
  8
_1-3_細線2
  6
CONTINUOUS
 62
    4
 10
376.64960835509237
 20
349.21616135385125
 11
376.64960835509237
 21
304.81616135385161
  0
LINE
  8
_1-3_細線2
  6
CONTINUOUS
 62
    4
 10
330.149608355091
 20
349.21616135385125
 11
352.94960835509141
 21
349.21616135385125
  0
LINE
  8
_1-3_細線2
  6
CONTINUOUS
 62
    4
 10
352.94960835509141
 20
349.21616135385125
 11
352.94960835509141
 21
304.81616135385161
  0
ARC
  8
_1-3_細線2
  6
CONTINUOUS
 62
    4
 10
399.44960835509147
 20
349.21616135385148
 40
3.5999999999999996
 50
0
 51
89.999999999999915
  0
LINE
  8
_1-3_細線2
  6
CONTINUOUS
 62
    4
 10
373.04960835509155
 20
349.21616135385148
 11
373.04960835509155
 21
304.81616135385161
  0
LINE
  8
_1-3_細線2
  6
CONTINUOUS
 62
    4
 10
399.44960835509147
 20
352.81616135385161
 11
376.64960835509157
 21
352.81616135385161
  0
ARC
  8
_1-3_細線2
  6
CONTINUOUS
 62
    4
 10
376.64960835509157
 20
349.21616135385148
 40
3.5999999999999996
 50
89.999999999999915
 51
179.99999999999983
  0
LINE
  8
_1-3_細線2
  6
CONTINUOUS
 62
    4
 10
356.54960835509155
 20
349.21616135385148
 11
356.54960835509155
 21
304.81616135385161
  0
ARC
  8
_1-3_細線2
  6
CONTINUOUS
 62
    4
 10
352.94960835509141
 20
349.21616135385148
 40
3.5999999999999996
 50
0
 51
89.999999999999915
  0
LINE
  8
_1-3_細線2
  6
CONTINUOUS
 62
    4
 10
330.14960835509072
 20
352.81616135385161
 11
352.94960835509141
 21
352.81616135385161
  0
ARC
  8
_1-3_細線2
  6
CONTINUOUS
 62
    4
 10
330.14960835509072
 20
349.21616135385148
 40
3.5999999999999996
 50
89.999999999999915
 51
179.99999999999983
  0
LINE
  8
_1-3_細線2
  6
CONTINUOUS
 62
    4
 10
352.94960835509141
 20
304.81616135385161
 11
356.54960835509155
 21
304.81616135385161
  0
LINE
  8
_1-3_細線2
  6
CONTINUOUS
 62
    4
 10
373.04960835509155
 20
304.81616135385161
 11
376.64960835509237
 21
304.81616135385161
  0
LINE
  8
_1-3_細線2
  6
CONTINUOUS
 62
    4
 10
403.04960835509155
 20
334.81616093144203
 11
399.44960835509073
 21
334.8161609314418
  0
LINE
  8
_1-3_細線2
  6
CONTINUOUS
 62
    4
 10
326.54960835509087
 20
334.81616093144203
 11
330.14960835509169
 21
334.8161609314418
  0
LINE
  8
_1-3_細線2
  6
CONTINUOUS
 62
    4
 10
399.44960835509073
 20
349.21616135385125
 11
399.44960835509073
 21
334.81616093144203
  0
LINE
  8
_1-3_細線2
  6
CONTINUOUS
 62
    4
 10
330.149608355091
 20
349.21616135385125
 11
330.14960835509169
 21
334.81616093144203
  0
LINE
  8
_1-3_細線2
  6
CONTINUOUS
 62
    4
 10
403.04960835509155
 20
349.21616135385148
 11
403.04960835509155
 21
334.81616093144203
  0
LINE
  8
_1-3_細線2
  6
CONTINUOUS
 62
    4
 10
326.54960835509087
 20
349.21616135385148
 11
326.54960835509087
 21
334.81616093144203
  0
LINE
  8
_1-3_細線2
  6
CONTINUOUS
 62
    4
 10
310.04960835509331
 20
309.46616093144212
 11
352.94960835509278
 21
309.46616093144212
  0
LINE
  8
_1-3_細線2
  6
CONTINUOUS
 62
    4
 10
310.04960835509331
 20
330.16616093144216
 11
352.94960835509278
 21
330.16616093144216
  0
LINE
  8
_1-3_細線2
  6
CONTINUOUS
 62
    4
 10
356.54960835509263
 20
330.16616093144216
 11
373.04960835509155
 21
330.16616093144216
  0
LINE
  8
_1-3_細線2
  6
CONTINUOUS
 62
    4
 10
356.54960835509263
 20
309.46616093144212
 11
373.04960835509155
 21
309.46616093144212
  0
LINE
  8
_1-3_細線2
  6
CONTINUOUS
 62
    4
 10
419.54960866123946
 20
309.46616093144212
 11
376.64960866124022
 21
309.46616093144212
  0
LINE
  8
_1-3_細線2
  6
CONTINUOUS
 62
    4
 10
419.54960866123946
 20
330.16616093144216
 11
376.64960866124022
 21
330.16616093144216
  0
LINE
  8
_1-3_細線2
  6
CONTINUOUS
 62
    4
 10
469.64960866123943
 20
327.57116135385149
 11
469.64960866123943
 21
315.66116135385141
  0
LINE
  8
_1-3_細線2
  6
CONTINUOUS
 62
    4
 10
469.64960866123943
 20
349.21616135385125
 11
469.64960866123943
 21
304.81616135385161
  0
LINE
  8
_1-3_細線2
  6
CONTINUOUS
 62
    4
 10
445.94960866123796
 20
349.21616135385125
 11
423.14960866123823
 21
349.21616135385125
  0
LINE
  8
_1-3_細線2
  6
CONTINUOUS
 62
    4
 10
492.44960866123864
 20
349.21616135385125
 11
469.64960866123943
 21
349.21616135385125
  0
LINE
  8
_1-3_細線2
  6
CONTINUOUS
 62
    4
 10
423.14960866123823
 20
349.21616135385125
 11
423.14960866123823
 21
304.81616135385161
  0
ARC
  8
_1-3_細線2
  6
CONTINUOUS
 62
    4
 10
492.44960866123961
 20
349.21616135385148
 40
3.5999999999999996
 50
0
 51
89.999999999999915
  0
LINE
  8
_1-3_細線2
  6
CONTINUOUS
 62
    4
 10
466.04960866123861
 20
349.21616135385148
 11
466.04960866123861
 21
304.81616135385161
  0
LINE
  8
_1-3_細線2
  6
CONTINUOUS
 62
    4
 10
492.44960866123961
 20
352.81616135385161
 11
469.64960866123852
 21
352.81616135385161
  0
ARC
  8
_1-3_細線2
  6
CONTINUOUS
 62
    4
 10
469.64960866123852
 20
349.21616135385148
 40
3.5999999999999996
 50
89.999999999999915
 51
179.99999999999983
  0
ARC
  8
_1-3_細線2
  6
CONTINUOUS
 62
    4
 10
445.94960866123893
 20
349.21616135385148
 40
3.5999999999999996
 50
0
 51
89.999999999999915
  0
LINE
  8
_1-3_細線2
  6
CONTINUOUS
 62
    4
 10
419.54960866123946
 20
349.21616135385148
 11
419.54960866123946
 21
304.81616135385161
  0
LINE
  8
_1-3_細線2
  6
CONTINUOUS
 62
    4
 10
445.94960866123893
 20
352.81616135385161
 11
423.1496086612396
 21
352.81616135385161
  0
ARC
  8
_1-3_細線2
  6
CONTINUOUS
 62
    4
 10
423.1496086612396
 20
349.21616135385148
 40
3.5999999999999996
 50
89.999999999999915
 51
179.99999999999983
  0
LINE
  8
_1-3_細線2
  6
CONTINUOUS
 62
    4
 10
419.54960866123946
 20
304.81616135385161
 11
423.14960866123823
 21
304.81616135385161
  0
LINE
  8
_1-3_細線2
  6
CONTINUOUS
 62
    4
 10
466.04960866123861
 20
304.81616135385161
 11
469.64960866123943
 21
304.81616135385161
  0
LINE
  8
_1-3_細線2
  6
CONTINUOUS
 62
    4
 10
496.04960866123946
 20
334.81616093144203
 11
492.44960866123864
 21
334.81616093144203
  0
LINE
  8
_1-3_細線2
  6
CONTINUOUS
 62
    4
 10
449.54960866123878
 20
334.81616093144203
 11
445.94960866123796
 21
334.81616093144203
  0
LINE
  8
_1-3_細線2
  6
CONTINUOUS
 62
    4
 10
445.94960866123796
 20
349.21616135385125
 11
445.94960866123796
 21
334.81616093144203
  0
LINE
  8
_1-3_細線2
  6
CONTINUOUS
 62
    4
 10
492.44960866123864
 20
349.21616135385125
 11
492.44960866123864
 21
334.81616093144203
  0
LINE
  8
_1-3_細線2
  6
CONTINUOUS
 62
    4
 10
496.04960866123946
 20
349.21616135385148
 11
496.04960866123946
 21
334.81616093144203
  0
LINE
  8
_1-3_細線2
  6
CONTINUOUS
 62
    4
 10
449.54960866123878
 20
349.21616135385148
 11
449.54960866123878
 21
334.81616093144203
  0
LINE
  8
_1-3_細線2
  6
CONTINUOUS
 62
    4
 10
466.04960896738817
 20
309.46616093144212
 11
423.14960896738899
 21
309.46616093144212
  0
LINE
  8
_1-3_細線2
  6
CONTINUOUS
 62
    4
 10
466.04960896738817
 20
330.16616093144216
 11
423.14960896738899
 21
330.16616093144216
  0
LINE
  8
_1-3_細線2
  6
CONTINUOUS
 62
    4
 10
306.44960835509454
 20
349.21616135385125
 11
306.44960835509454
 21
304.81616135385161
  0
LINE
  8
_1-3_細線2
  6
CONTINUOUS
 62
    4
 10
283.64960835509481
 20
349.21616135385125
 11
306.44960835509454
 21
349.21616135385125
  0
LINE
  8
_1-3_細線2
  6
CONTINUOUS
 62
    4
 10
310.04960835509331
 20
349.21616135385148
 11
310.04960835509331
 21
304.81616135385161
  0
ARC
  8
_1-3_細線2
  6
CONTINUOUS
 62
    4
 10
306.44960835509346
 20
349.21616135385148
 40
3.5999999999999996
 50
0
 51
89.999999999999915
  0
LINE
  8
_1-3_細線2
  6
CONTINUOUS
 62
    4
 10
283.64960835509396
 20
352.81616135385161
 11
306.44960835509346
 21
352.81616135385161
  0
ARC
  8
_1-3_細線2
  6
CONTINUOUS
 62
    4
 10
283.64960835509396
 20
349.21616135385148
 40
3.5999999999999996
 50
89.999999999999915
 51
179.99999999999983
  0
LINE
  8
_1-3_細線2
  6
CONTINUOUS
 62
    4
 10
306.44960835509454
 20
304.81616135385161
 11
310.04960835509331
 21
304.81616135385161
  0
LINE
  8
_1-3_細線2
  6
CONTINUOUS
 62
    4
 10
280.04960835509399
 20
334.81616093144203
 11
283.64960835509481
 21
334.8161609314418
  0
LINE
  8
_1-3_細線2
  6
CONTINUOUS
 62
    4
 10
283.64960835509481
 20
349.21616135385125
 11
283.64960835509481
 21
334.81616093144203
  0
LINE
  8
_1-3_細線2
  6
CONTINUOUS
 62
    4
 10
280.04960835509399
 20
349.21616135385148
 11
280.04960835509399
 21
334.81616093144203
  0
LINE
  8
_1-2_極細2
  6
CONTINUOUS
 62
    2
 10
458.54960835509178
 20
306.31616135385161
 11
458.54960835509155
 21
304.81616135385138
  0
LINE
  8
_1-2_極細2
  6
CONTINUOUS
 62
    2
 10
458.54960835509155
 20
303.01616135385154
 11
458.54960835509155
 21
301.51616135385154
  0
LINE
  8
_1-2_極細2
  6
CONTINUOUS
 62
    2
 10
454.79960835509178
 20
304.81616135385161
 11
454.79960835509178
 21
303.01616135385154
  0
LINE
  8
_1-2_極細2
  6
CONTINUOUS
 62
    2
 10
456.29960835509178
 20
304.81616135385161
 11
456.29960835509178
 21
303.01616135385154
  0
LINE
  8
_1-2_極細2
  6
CONTINUOUS
 62
    2
 10
454.79960835509178
 20
303.60000000000002
 11
456.29960835509178
 21
303.60000000000002
  0
LINE
  8
_1-2_極細2
  6
CONTINUOUS
 62
    2
 10
454.79960835509178
 20
304.2000000000001
 11
456.29960835509178
 21
304.2000000000001
  0
LINE
  8
_1-2_極細2
  6
CONTINUOUS
 62
    2
 10
454.79960835509178
 20
304.80000000000013
 11
456.29960835509178
 21
304.80000000000013
  0
LINE
  8
_1-2_極細2
  6
CONTINUOUS
 62
    2
 10
437.54960835509178
 20
306.31616135385161
 11
437.54960835509223
 21
304.81616135385161
  0
LINE
  8
_1-2_極細2
  6
CONTINUOUS
 62
    2
 10
437.54960835509223
 20
303.01616135385154
 11
437.54960835509155
 21
301.51616135385154
  0
LINE
  8
_1-2_極細2
  6
CONTINUOUS
 62
    2
 10
439.79960835509178
 20
304.81616135385161
 11
439.79960835509178
 21
303.01616135385154
  0
LINE
  8
_1-2_極細2
  6
CONTINUOUS
 62
    2
 10
441.29960835509178
 20
304.81616135385161
 11
441.29960835509178
 21
303.01616135385154
  0
LINE
  8
_1-2_極細2
  6
CONTINUOUS
 62
    2
 10
439.79960835509178
 20
303.60000000000002
 11
441.29960835509178
 21
303.60000000000002
  0
LINE
  8
_1-2_極細2
  6
CONTINUOUS
 62
    2
 10
439.79960835509178
 20
304.2000000000001
 11
441.29960835509178
 21
304.2000000000001
  0
LINE
  8
_1-2_極細2
  6
CONTINUOUS
 62
    2
 10
439.79960835509178
 20
304.80000000000013
 11
441.29960835509178
 21
304.80000000000013
  0
LINE
  8
_1-2_極細2
  6
CONTINUOUS
 62
    2
 10
437.54960835509223
 20
306.31616135385161
 11
458.54960835509155
 21
306.31616135385161
  0
LINE
  8
_1-2_極細2
  6
CONTINUOUS
 62
    2
 10
437.54960835509223
 20
305.40000000000009
 11
458.54960835509161
 21
305.40000000000009
  0
LINE
  8
_1-2_極細2
  6
CONTINUOUS
 62
    2
 10
437.54960835509223
 20
306.00000000000011
 11
458.54960835509161
 21
306.00000000000011
  0
LINE
  8
_1-2_極細2
  6
CONTINUOUS
 62
    2
 10
437.54960835509178
 20
301.80000000000007
 11
458.54960835509155
 21
301.80000000000007
  0
LINE
  8
_1-2_極細2
  6
CONTINUOUS
 62
    2
 10
437.54960835509178
 20
302.40000000000009
 11
458.54960835509155
 21
302.40000000000009
  0
LINE
  8
_1-2_極細2
  6
CONTINUOUS
 62
    2
 10
437.54960835509178
 20
303.00000000000011
 11
458.54960835509155
 21
303.00000000000011
  0
LINE
  8
_1-2_極細2
  6
CONTINUOUS
 62
    2
 10
437.54960835509178
 20
301.51616135385154
 11
458.54960835509155
 21
301.51616135385154
  0
LINE
  8
_1-2_極細2
  6
CONTINUOUS
 62
    2
 10
334.79960835509223
 20
304.81616135385161
 11
334.79960835509223
 21
303.01616135385154
  0
LINE
  8
_1-2_極細2
  6
CONTINUOUS
 62
    2
 10
336.29960835509223
 20
304.81616135385161
 11
336.29960835509223
 21
303.01616135385154
  0
LINE
  8
_1-2_極細2
  6
CONTINUOUS
 62
    2
 10
334.79960835509229
 20
303.60000000000002
 11
336.29960835509195
 21
303.60000000000002
  0
LINE
  8
_1-2_極細2
  6
CONTINUOUS
 62
    2
 10
334.79960835509229
 20
304.2000000000001
 11
336.29960835509195
 21
304.2000000000001
  0
LINE
  8
_1-2_極細2
  6
CONTINUOUS
 62
    2
 10
334.79960835509229
 20
304.80000000000013
 11
336.29960835509195
 21
304.80000000000013
  0
LINE
  8
_1-2_極細2
  6
CONTINUOUS
 62
    2
 10
338.54960835509178
 20
303.01616135385154
 11
338.54960835509178
 21
301.51616135385154
  0
LINE
  8
_1-2_極細2
  6
CONTINUOUS
 62
    2
 10
338.54960835509223
 20
306.31616135385161
 11
338.54960835509178
 21
304.81616135385138
  0
LINE
  8
_1-2_極細2
  6
CONTINUOUS
 62
    2
 10
317.54960835509246
 20
303.01616135385154
 11
317.54960835509178
 21
301.51616135385154
  0
LINE
  8
_1-2_極細2
  6
CONTINUOUS
 62
    2
 10
317.54960835509223
 20
306.31616135385161
 11
317.54960835509246
 21
304.81616135385161
  0
LINE
  8
_1-2_極細2
  6
CONTINUOUS
 62
    2
 10
319.79960835509223
 20
304.81616135385161
 11
319.79960835509223
 21
303.01616135385154
  0
LINE
  8
_1-2_極細2
  6
CONTINUOUS
 62
    2
 10
321.29960835509223
 20
304.81616135385161
 11
321.29960835509223
 21
303.01616135385154
  0
LINE
  8
_1-2_極細2
  6
CONTINUOUS
 62
    2
 10
319.79960835509212
 20
303.60000000000002
 11
321.29960835509246
 21
303.60000000000002
  0
LINE
  8
_1-2_極細2
  6
CONTINUOUS
 62
    2
 10
319.79960835509212
 20
304.2000000000001
 11
321.29960835509246
 21
304.2000000000001
  0
LINE
  8
_1-2_極細2
  6
CONTINUOUS
 62
    2
 10
319.79960835509212
 20
304.80000000000013
 11
321.29960835509246
 21
304.80000000000013
  0
LINE
  8
_1-2_極細2
  6
CONTINUOUS
 62
    2
 10
317.54960835509223
 20
301.51616135385154
 11
338.54960835509178
 21
301.51616135385154
  0
LINE
  8
_1-2_極細2
  6
CONTINUOUS
 62
    2
 10
317.54960835509223
 20
301.80000000000007
 11
338.54960835509178
 21
301.80000000000007
  0
LINE
  8
_1-2_極細2
  6
CONTINUOUS
 62
    2
 10
317.54960835509223
 20
302.40000000000009
 11
338.54960835509178
 21
302.40000000000009
  0
LINE
  8
_1-2_極細2
  6
CONTINUOUS
 62
    2
 10
317.54960835509223
 20
303.00000000000011
 11
338.54960835509178
 21
303.00000000000011
  0
LINE
  8
_1-2_極細2
  6
CONTINUOUS
 62
    2
 10
317.54960835509246
 20
305.40000000000009
 11
338.54960835509195
 21
305.40000000000009
  0
LINE
  8
_1-2_極細2
  6
CONTINUOUS
 62
    2
 10
317.54960835509246
 20
306.00000000000011
 11
338.54960835509195
 21
306.00000000000011
  0
LINE
  8
_1-2_極細2
  6
CONTINUOUS
 62
    2
 10
317.54960835509246
 20
306.31616135385161
 11
338.54960835509178
 21
306.31616135385161
  0
LINE
  8
_1-2_極細2
  6
CONTINUOUS
 62
    2
 10
471.44960835509181
 20
345.91616135385141
 11
469.64960835509191
 21
345.91616135385141
  0
LINE
  8
_1-2_極細2
  6
CONTINUOUS
 62
    2
 10
471.44960835509181
 20
345.91616135385141
 11
471.44960835509181
 21
303.01616135385154
  0
LINE
  8
_1-2_極細2
  6
CONTINUOUS
 62
    2
 10
304.64960835509169
 20
345.91616135385141
 11
306.44960835509164
 21
345.91616135385141
  0
LINE
  8
_1-2_極細2
  6
CONTINUOUS
 62
    2
 10
306.44960835509164
 20
304.81616135385161
 11
469.64960835509191
 21
304.81616135385161
  0
LINE
  8
_1-2_極細2
  6
CONTINUOUS
 62
    2
 10
304.64960835509169
 20
345.91616135385141
 11
304.64960835509169
 21
303.01616135385154
  0
LINE
  8
_1-2_極細2
  6
CONTINUOUS
 62
    2
 10
304.64960835509169
 20
303.01616135385154
 11
471.44960835509181
 21
303.01616135385154
  0
LINE
  8
_1-2_極細2
  6
CONTINUOUS
 62
    2
 10
474.43985235509359
 20
319.81616093144203
 11
483.45340035509383
 21
319.81616093144203
  0
LINE
  8
_1-3_細線2
  6
CONTINUOUS
 62
    4
 10
474.43985235509359
 20
309.31616093144339
 11
483.45343635509204
 21
309.31616093144339
  0
ARC
  8
_1-3_細線2
  6
CONTINUOUS
 62
    4
 10
483.45343635509204
 20
309.91616093144285
 40
0.6000000000000002
 50
269.99999999999977
 51
359.99999999999966
  0
ARC
  8
_1-2_極細2
  6
CONTINUOUS
 62
    2
 10
460.77949635509327
 20
314.56572293144382
 40
23.273868
 50
346.96432999999968
 51
13.038021999994573
  0
ARC
  8
_1-3_細線2
  6
CONTINUOUS
 62
    4
 10
483.45343635509204
 20
329.71616093144371
 40
0.6000000000000002
 50
0
 51
89.999999999999915
  0
ARC
  8
_1-2_極細2
  6
CONTINUOUS
 62
    2
 10
460.77949635509327
 20
325.0665929314423
 40
23.273868
 50
346.9619780000009
 51
13.035669999999625
  0
LINE
  8
_1-3_細線2
  6
CONTINUOUS
 62
    4
 10
474.43985235509359
 20
330.31616093144316
 11
483.45343635509204
 21
330.31616093144316
  0
LINE
  8
_1-3_細線2
  6
CONTINUOUS
 62
    4
 10
484.0534363550932
 20
309.91616093144285
 11
484.0534363550932
 21
329.71616093144371
  0
ARC
  8
_1-3_細線2
  6
CONTINUOUS
 62
    4
 10
473.83985235509243
 20
305.41616093144285
 40
0.6000000000000002
 50
269.99999999999977
 51
359.99999999999966
  0
LINE
  8
_1-3_細線2
  6
CONTINUOUS
 62
    4
 10
471.44960835509181
 20
304.81616093144271
 11
473.83985235509243
 21
304.81616093144271
  0
ARC
  8
_1-3_細線2
  6
CONTINUOUS
 62
    4
 10
473.83985235509243
 20
334.21616093144212
 40
0.6000000000000002
 50
0
 51
89.999999999999915
  0
LINE
  8
_1-3_細線2
  6
CONTINUOUS
 62
    4
 10
471.44960835509181
 20
334.81616093144316
 11
473.83985235509243
 21
334.81616093144316
  0
LINE
  8
_1-3_細線2
  6
CONTINUOUS
 62
    4
 10
474.43985235509359
 20
334.21616093144212
 11
474.43985235509359
 21
305.41616093144285
  0
ARC
  8
_1-3_細線2
  6
CONTINUOUS
 62
    4
 10
302.25936435509107
 20
305.41616050903326
 40
0.6000000000000002
 50
179.99999999999983
 51
269.99999999999977
  0
LINE
  8
_1-3_細線2
  6
CONTINUOUS
 62
    4
 10
304.64960835509169
 20
304.81616050903312
 11
302.25936435509107
 21
304.81616050903312
  0
ARC
  8
_1-3_細線2
  6
CONTINUOUS
 62
    4
 10
302.25936435509107
 20
334.21616050903253
 40
0.6000000000000002
 50
89.999999999999915
 51
179.99999999999983
  0
LINE
  8
_1-3_細線2
  6
CONTINUOUS
 62
    4
 10
304.64960835509169
 20
334.81616050903358
 11
302.25936435509107
 21
334.81616050903358
  0
LINE
  8
_1-3_細線2
  6
CONTINUOUS
 62
    4
 10
301.65936435508996
 20
318.31616050903312
 11
301.65936435508996
 21
305.41616050903326
  0
LINE
  8
_1-3_細線2
  6
CONTINUOUS
 62
    4
 10
301.65936435508996
 20
334.21616050903253
 11
301.65936435508996
 21
318.31616050903312
  0
LINE
  8
_1-2_極細2
  6
CONTINUOUS
 62
    2
 10
301.65936435508996
 20
319.81616050903244
 11
292.64581635508972
 21
319.81616050903244
  0
LINE
  8
_1-3_細線2
  6
CONTINUOUS
 62
    4
 10
301.65936435508996
 20
309.31616050903381
 11
292.64578035509152
 21
309.31616050903381
  0
ARC
  8
_1-3_細線2
  6
CONTINUOUS
 62
    4
 10
292.64578035509152
 20
309.91616050903326
 40
0.6000000000000002
 50
179.99999999999983
 51
269.99999999999977
  0
ARC
  8
_1-2_極細2
  6
CONTINUOUS
 62
    2
 10
315.31972035509028
 20
314.56572250903423
 40
23.273868
 50
166.96197800000505
 51
193.03566999999961
  0
ARC
  8
_1-3_細線2
  6
CONTINUOUS
 62
    4
 10
292.64578035509152
 20
329.71616050903413
 40
0.6000000000000002
 50
89.999999999999915
 51
179.99999999999983
  0
ARC
  8
_1-2_極細2
  6
CONTINUOUS
 62
    2
 10
315.31972035509028
 20
325.06659250903272
 40
23.273868
 50
166.96433000000002
 51
193.03802199999842
  0
LINE
  8
_1-3_細線2
  6
CONTINUOUS
 62
    4
 10
301.65936435508996
 20
330.31616050903358
 11
292.64578035509152
 21
330.31616050903358
  0
LINE
  8
_1-3_細線2
  6
CONTINUOUS
 62
    4
 10
292.04578035509036
 20
309.91616050903326
 11
292.04578035509036
 21
329.71616050903413
  0
LINE
  8
_1-2_極細2
  6
CENTER1
 62
    2
 10
287.96035211536508
 20
319.81616093144203
 11
489.10823381000739
 21
319.81616093144203
  0
LINE
  8
_1-2_極細2
  6
CENTER1
 62
    2
 10
388.04960835509155
 20
377.764504988814
 11
388.04960835509155
 21
278.05227477298649
  0
ARC
  8
_1-2_極細2
  6
CONTINUOUS
 62
    2
 10
274.04960896105757
 20
301.51616135385154
 40
9.0000000000000036
 50
179.99999999999983
 51
269.99999999999977
  0
LINE
  8
_1-2_極細2
  6
CONTINUOUS
 62
    2
 10
265.04960896105757
 20
301.51616135385154
 11
265.04960896105757
 21
360.01616135385154
  0
LINE
  8
_1-2_極細2
  6
CONTINUOUS
 62
    2
 10
274.04960896105757
 20
292.51616135385154
 11
353.54960896105757
 21
292.51616135385154
  0
LINE
  8
_1-2_極細2
  6
CONTINUOUS
 62
    2
 10
355.04960896105757
 20
294.01616135385154
 11
353.54960896105757
 21
292.51616135385154
  0
LINE
  8
_1-2_極細2
  6
CONTINUOUS
 62
    2
 10
355.04960896105757
 20
300.01616135385154
 11
355.04960896105757
 21
294.01616135385154
  0
LINE
  8
_1-2_極細2
  6
CONTINUOUS
 62
    2
 10
353.54960896105757
 20
301.51616135385154
 11
355.04960896105757
 21
300.01616135385154
  0
LINE
  8
_1-2_極細2
  6
CONTINUOUS
 62
    2
 10
274.04960896105757
 20
301.51616135385154
 11
353.54960896105757
 21
301.51616135385154
  0
LINE
  8
_1-2_極細2
  6
CONTINUOUS
 62
    2
 10
266.5496089610574
 20
361.51616135385154
 11
265.04960896105757
 21
360.01616135385154
  0
LINE
  8
_1-2_極細2
  6
CONTINUOUS
 62
    2
 10
272.5496089610574
 20
361.51616135385154
 11
266.5496089610574
 21
361.51616135385154
  0
LINE
  8
_1-2_極細2
  6
CONTINUOUS
 62
    2
 10
274.04960896105757
 20
360.01616135385154
 11
272.5496089610574
 21
361.51616135385154
  0
LINE
  8
_1-2_極細2
  6
CONTINUOUS
 62
    2
 10
274.04960896105757
 20
301.51616135385154
 11
274.04960896105757
 21
360.01616135385154
  0
ARC
  8
_1-2_極細2
  6
CONTINUOUS
 62
    2
 10
502.04960804260327
 20
301.51616135385154
 40
9.0000000000000036
 50
269.99999999999977
 51
359.99999999999966
  0
LINE
  8
_1-2_極細2
  6
CONTINUOUS
 62
    2
 10
511.04960804260327
 20
301.51616135385154
 11
511.04960804260327
 21
360.01616135385154
  0
LINE
  8
_1-2_極細2
  6
CONTINUOUS
 62
    2
 10
502.04960804260327
 20
292.51616135385154
 11
422.54960804260304
 21
292.51616135385154
  0
LINE
  8
_1-2_極細2
  6
CONTINUOUS
 62
    2
 10
421.04960804260304
 20
294.01616135385154
 11
422.54960804260304
 21
292.51616135385154
  0
LINE
  8
_1-2_極細2
  6
CONTINUOUS
 62
    2
 10
421.04960804260304
 20
300.01616135385154
 11
421.04960804260304
 21
294.01616135385154
  0
LINE
  8
_1-2_極細2
  6
CONTINUOUS
 62
    2
 10
422.54960804260304
 20
301.51616135385154
 11
421.04960804260304
 21
300.01616135385154
  0
LINE
  8
_1-2_極細2
  6
CONTINUOUS
 62
    2
 10
502.04960804260327
 20
301.51616135385154
 11
422.54960804260304
 21
301.51616135385154
  0
LINE
  8
_1-2_極細2
  6
CONTINUOUS
 62
    2
 10
509.54960804260327
 20
361.51616135385154
 11
511.04960804260327
 21
360.01616135385154
  0
LINE
  8
_1-2_極細2
  6
CONTINUOUS
 62
    2
 10
503.54960804260327
 20
361.51616135385154
 11
509.54960804260327
 21
361.51616135385154
  0
LINE
  8
_1-2_極細2
  6
CONTINUOUS
 62
    2
 10
502.04960804260327
 20
360.01616135385154
 11
503.54960804260327
 21
361.51616135385154
  0
LINE
  8
_1-2_極細2
  6
CONTINUOUS
 62
    2
 10
502.04960804260327
 20
301.51616135385154
 11
502.04960804260327
 21
360.01616135385154
  0
CIRCLE
  8
_1-2_極細2
  6
CONTINUOUS
 62
    2
 10
433.02337241020314
 20
268.47007788161898
 40
3.2859566508265057
  0
CIRCLE
  8
_1-2_極細2
  6
CONTINUOUS
 62
    2
 10
456.58003907687083
 20
263.45396677050672
 40
0.9955555555555292
  0
LINE
  8
_1-2_極細2
  6
CONTINUOUS
 62
    2
 10
218.11603934398849
 20
340.51616135385149
 11
239.11603881318297
 21
361.51616082304588
  0
LINE
  8
_1-2_極細2
  6
CONTINUOUS
 62
    2
 10
200.33955210114161
 20
360.92344029507797
 11
200.93227292781714
 21
361.51616112175338
  0
LINE
  8
_1-2_極細2
  6
DASHED2
 62
    2
 10
237.20792243602517
 20
340.51616135385149
 11
250.04960804260267
 21
353.35784696042884
  0
LINE
  8
_1-2_極細2
  6
DASHED2
 62
    2
 10
200.33955210114161
 20
341.83155720304137
 11
220.02415587049958
 21
361.51616097239958
  0
LINE
  8
_1-2_極細2
  6
CONTINUOUS
 62
    2
 10
265.04960804260304
 20
340.51616135385149
 11
200.33955210114161
 21
340.51616135385149
  0
LINE
  8
_1-2_極細2
  6
CONTINUOUS
 62
    2
 10
250.04960804260267
 20
361.51616135385166
 11
200.33955210114161
 21
361.51616135385166
  0
LINE
  8
_1-2_極細2
  6
CONTINUOUS
 62
    2
 10
572.90252539500125
 20
340.51616135385149
 11
574.83609409361566
 21
342.44973005246567
  0
LINE
  8
_1-2_極細2
  6
CONTINUOUS
 62
    2
 10
534.71875921092783
 20
340.51616135385149
 11
555.71875897883001
 21
361.51616112175338
  0
LINE
  8
_1-2_極細2
  6
DASHED2
 62
    2
 10
553.81064230296465
 20
340.51616135385149
 11
574.8106419215128
 21
361.51616097239958
  0
LINE
  8
_1-2_極細2
  6
DASHED2
 62
    2
 10
526.04960804260281
 20
350.93889327756324
 11
536.62687603614654
 21
361.51616127110674
  0
LINE
  8
_1-2_極細2
  6
CONTINUOUS
 62
    2
 10
511.04960804260327
 20
340.51616135385149
 11
574.83609409361566
 21
340.51616135385149
  0
LINE
  8
_1-2_極細2
  6
CONTINUOUS
 62
    2
 10
526.04960804260327
 20
361.51616135385166
 11
574.83609409361566
 21
361.51616135385166
  0
CIRCLE
  8
_1-2_極細2
  6
CONTINUOUS
 62
    2
 10
297.33917701078116
 20
225.16695567344269
 40
3.2859566508265057
  0
CIRCLE
  8
_1-2_極細2
  6
CONTINUOUS
 62
    2
 10
206.62485069709678
 20
221.1673001029352
 40
0.9955555555555292
  0
CIRCLE
  8
_1-2_極細2
  6
CONTINUOUS
 62
    2
 10
280.13917700978925
 20
243.52650098029028
 40
0.9955555555555292
  0
CIRCLE
  8
_1-2_極細2
  6
CONTINUOUS
 62
    2
 10
217.1391770083363
 20
260.40730010384016
 40
0.9955555555555292
  0
LINE
  8
_1-2_極細2
  6
CONTINUOUS
 62
    2
 10
250.04960804260327
 20
347.12051665915607
 11
256.65396334790756
 21
340.51616135385149
  0
LINE
  8
_1-2_極細2
  6
CONTINUOUS
 62
    2
 10
250.04960804260327
 20
354.75726989597064
 11
264.29071658472208
 21
340.51616135385149
  0
LINE
  8
_1-2_極細2
  6
CONTINUOUS
 62
    2
 10
265.04960804260304
 20
347.39402313278572
 11
250.92746982153662
 21
361.51616135385166
  0
LINE
  8
_1-2_極細2
  6
CONTINUOUS
 62
    2
 10
265.04960804260304
 20
355.03077636960029
 11
258.5642230583519
 21
361.51616135385143
  0
LINE
  8
_1-2_極細2
  6
CONTINUOUS
 62
    2
 10
250.04960804260267
 20
358.79938137674174
 11
252.76638801971285
 21
361.51616135385166
  0
LINE
  8
_1-2_極細2
  6
CONTINUOUS
 62
    2
 10
250.04960804260267
 20
351.16262813992694
 11
260.40314125652719
 21
361.51616135385166
  0
LINE
  8
_1-2_極細2
  6
CONTINUOUS
 62
    2
 10
250.04960804260267
 20
343.52587490311237
 11
265.04960804260304
 21
358.52587490311225
  0
LINE
  8
_1-2_極細2
  6
CONTINUOUS
 62
    2
 10
254.67664773015699
 20
340.51616135385149
 11
265.04960804260304
 21
350.88912166629768
  0
LINE
  8
_1-2_極細2
  6
CONTINUOUS
 62
    2
 10
262.3134009669713
 20
340.51616135385149
 11
265.04960804260304
 21
343.25236842948289
  0
LINE
  8
_1-2_極細2
  6
CONTINUOUS
 62
    2
 10
265.04960804260304
 20
360.0161613538516
 11
265.04960804260304
 21
361.51616135385166
  0
LINE
  8
_1-2_極細2
  6
CONTINUOUS
 62
    2
 10
265.04960804260304
 20
361.51616135385166
 11
250.04960804260267
 21
361.51616135385166
  0
LINE
  8
_1-2_極細2
  6
CONTINUOUS
 62
    2
 10
250.04960804260267
 20
361.51616135385166
 11
250.04960804260267
 21
340.51616135385149
  0
CIRCLE
  8
_1-2_極細2
  6
CONTINUOUS
 62
    2
 10
343.07584367500317
 20
268.47007788161898
 40
3.2859566508265057
  0
CIRCLE
  8
_1-2_極細2
  6
CONTINUOUS
 62
    2
 10
229.05917700833672
 20
336.67396677050567
 40
0.9955555555555292
  0
CIRCLE
  8
_1-2_極細2
  6
CONTINUOUS
 62
    2
 10
329.68806589722431
 20
248.30830814895268
 40
0.9955555555555292
  0
CIRCLE
  8
_1-2_極細2
  6
CONTINUOUS
 62
    2
 10
244.24917700833655
 20
258.07007788161803
 40
3.2859566508265057
  0
CIRCLE
  8
_1-2_極細2
  6
CONTINUOUS
 62
    2
 10
248.97917700833659
 20
304.66007788161738
 40
3.2859566508265057
  0
CIRCLE
  8
_1-2_極細2
  6
CONTINUOUS
 62
    2
 10
239.13917700833642
 20
265.6339667705065
 40
0.9955555555555292
  0
CIRCLE
  8
_1-2_極細2
  6
CONTINUOUS
 62
    2
 10
218.25917700833665
 20
290.83396677050627
 40
0.9955555555555292
  0
CIRCLE
  8
_1-2_極細2
  6
CONTINUOUS
 62
    2
 10
255.21917700833637
 20
292.11396677050624
 40
0.9955555555555292
  0
CIRCLE
  8
_1-2_極細2
  6
CONTINUOUS
 62
    2
 10
250.73917700833636
 20
327.63396677050588
 40
0.9955555555555292
  0
CIRCLE
  8
_1-2_極細2
  6
CONTINUOUS
 62
    2
 10
308.95917700833525
 20
227.13396677050702
 40
0.9955555555555292
  0
CIRCLE
  8
_1-2_極細2
  6
CONTINUOUS
 62
    2
 10
301.59917700833591
 20
272.0939667705066
 40
0.9955555555555292
  0
CIRCLE
  8
_1-2_極細2
  6
CONTINUOUS
 62
    2
 10
319.51917700833536
 20
263.45396677050672
 40
0.9955555555555292
  0
CIRCLE
  8
_1-2_極細2
  6
CONTINUOUS
 62
    2
 10
478.76003907442464
 20
225.16695567344269
 40
3.2859566508265057
  0
CIRCLE
  8
_1-2_極細2
  6
CONTINUOUS
 62
    2
 10
569.47436538810916
 20
221.1673001029352
 40
0.9955555555555292
  0
CIRCLE
  8
_1-2_極細2
  6
CONTINUOUS
 62
    2
 10
495.96003907541672
 20
243.52650098029028
 40
0.9955555555555292
  0
CIRCLE
  8
_1-2_極細2
  6
CONTINUOUS
 62
    2
 10
558.96003907686963
 20
260.40730010384016
 40
0.9955555555555292
  0
LINE
  8
_1-2_極細2
  6
CONTINUOUS
 62
    2
 10
526.04960804260281
 20
347.12051665915607
 11
519.44525273729801
 21
340.51616135385149
  0
LINE
  8
_1-2_極細2
  6
CONTINUOUS
 62
    2
 10
526.04960804260281
 20
354.75726989597064
 11
511.80849950048423
 21
340.51616135385149
  0
LINE
  8
_1-2_極細2
  6
CONTINUOUS
 62
    2
 10
511.04960804260327
 20
347.39402313278572
 11
525.17174626366932
 21
361.51616135385166
  0
LINE
  8
_1-2_極細2
  6
CONTINUOUS
 62
    2
 10
511.04960804260327
 20
355.03077636960029
 11
517.53499302685441
 21
361.51616135385143
  0
LINE
  8
_1-2_極細2
  6
CONTINUOUS
 62
    2
 10
526.04960804260327
 20
358.79938137674174
 11
523.33282806549323
 21
361.51616135385166
  0
LINE
  8
_1-2_極細2
  6
CONTINUOUS
 62
    2
 10
526.04960804260327
 20
351.16262813992694
 11
515.69607482867877
 21
361.51616135385166
  0
LINE
  8
_1-2_極細2
  6
CONTINUOUS
 62
    2
 10
526.04960804260327
 20
343.52587490311237
 11
511.04960804260327
 21
358.52587490311225
  0
LINE
  8
_1-2_極細2
  6
CONTINUOUS
 62
    2
 10
521.42256835504895
 20
340.51616135385149
 11
511.04960804260327
 21
350.88912166629768
  0
LINE
  8
_1-2_極細2
  6
CONTINUOUS
 62
    2
 10
513.7858151182345
 20
340.51616135385149
 11
511.04960804260327
 21
343.25236842948289
  0
LINE
  8
_1-2_極細2
  6
CONTINUOUS
 62
    2
 10
511.04960804260327
 20
360.0161613538516
 11
511.04960804260327
 21
361.51616135385166
  0
LINE
  8
_1-2_極細2
  6
CONTINUOUS
 62
    2
 10
511.04960804260327
 20
361.51616135385166
 11
526.04960804260327
 21
361.51616135385166
  0
LINE
  8
_1-2_極細2
  6
CONTINUOUS
 62
    2
 10
526.04960804260327
 20
361.51616135385166
 11
526.04960804260327
 21
340.51616135385149
  0
CIRCLE
  8
_1-2_極細2
  6
CONTINUOUS
 62
    2
 10
547.04003907686956
 20
336.67396677050567
 40
0.9955555555555292
  0
CIRCLE
  8
_1-2_極細2
  6
CONTINUOUS
 62
    2
 10
446.41115018798178
 20
248.30830814895268
 40
0.9955555555555292
  0
CIRCLE
  8
_1-2_極細2
  6
CONTINUOUS
 62
    2
 10
531.85003907686905
 20
258.07007788161803
 40
3.2859566508265057
  0
CIRCLE
  8
_1-2_極細2
  6
CONTINUOUS
 62
    2
 10
527.12003907686926
 20
304.66007788161738
 40
3.2859566508265057
  0
CIRCLE
  8
_1-2_極細2
  6
CONTINUOUS
 62
    2
 10
536.96003907686941
 20
265.6339667705065
 40
0.9955555555555292
  0
CIRCLE
  8
_1-2_極細2
  6
CONTINUOUS
 62
    2
 10
557.84003907686952
 20
290.83396677050627
 40
0.9955555555555292
  0
CIRCLE
  8
_1-2_極細2
  6
CONTINUOUS
 62
    2
 10
520.88003907686925
 20
292.11396677050624
 40
0.9955555555555292
  0
CIRCLE
  8
_1-2_極細2
  6
CONTINUOUS
 62
    2
 10
525.36003907686973
 20
327.63396677050588
 40
0.9955555555555292
  0
CIRCLE
  8
_1-2_極細2
  6
CONTINUOUS
 62
    2
 10
467.14003907687078
 20
227.13396677050702
 40
0.9955555555555292
  0
CIRCLE
  8
_1-2_極細2
  6
CONTINUOUS
 62
    2
 10
474.50003907687005
 20
272.0939667705066
 40
0.9955555555555292
  0
TEXT
  8
_0-7_枠細線
 62
    5
 10
317.66751935482051
 20
515.04070147870357
 40
24
 41
0.8
 50
0
  1
Ａ－Ａ’断面図
  0
TEXT
  8
_0-7_枠細線
 62
    5
 10
468.59397290194221
 20
515.04070147870357
 40
24
 41
0.6000000000000002
 50
0
  1
Ｓ＝１：２
  0
LINE
  8
_1-5_寸法2
  6
CONTINUOUS
 62
    7
 10
265.04960804260304
 20
373.51616135385149
 11
265.04960804260327
 21
493.51616177626119
  0
LINE
  8
_1-5_寸法2
  6
CONTINUOUS
 62
    7
 10
265.04960804260327
 20
487.51616177626119
 11
276.64071795807206
 21
490.6219903174914
  0
LINE
  8
_1-5_寸法2
  6
CONTINUOUS
 62
    7
 10
265.04960804260327
 20
487.51616177626119
 11
276.64071795807206
 21
484.41033323503086
  0
LINE
  8
_1-5_寸法2
  6
CONTINUOUS
 62
    7
 10
511.04960804260327
 20
373.51616135385154
 11
511.04960804260344
 21
493.51616177626119
  0
LINE
  8
_1-5_寸法2
  6
CONTINUOUS
 62
    7
 10
511.04960804260344
 20
487.51616177626119
 11
499.45849812713465
 21
484.41033323503098
  0
LINE
  8
_1-5_寸法2
  6
CONTINUOUS
 62
    7
 10
511.04960804260344
 20
487.51616177626119
 11
499.45849812713465
 21
490.6219903174914
  0
LINE
  8
_1-5_寸法2
  6
CONTINUOUS
 62
    7
 10
265.04960804260327
 20
487.51616177626119
 11
511.04960804260344
 21
487.51616177626119
  0
TEXT
  8
_1-5_寸法2
 62
    7
 10
379.04960804260344
 20
487.51616177626119
 40
18
 41
1
 50
0
  1
82
  0
LINE
  8
_1-2_極細2
  6
CONTINUOUS
 62
    2
 10
353.54960896105757
 20
292.51616135385154
 11
355.04960896105757
 21
292.51616135385154
  0
LINE
  8
_1-2_極細2
  6
CONTINUOUS
 62
    2
 10
355.04960896105757
 20
292.51616135385154
 11
355.04960896105757
 21
232.51616135385152
  0
LINE
  8
_1-2_極細2
  6
CONTINUOUS
 62
    2
 10
422.54960774912547
 20
292.51616135385154
 11
421.04960774912547
 21
292.51616135385154
  0
LINE
  8
_1-2_極細2
  6
CONTINUOUS
 62
    2
 10
421.04960774912547
 20
292.51616135385154
 11
421.04960774912547
 21
232.51616135385152
  0
LINE
  8
_1-5_寸法2
  6
CONTINUOUS
 62
    7
 10
265.04960896105757
 20
289.51616135385154
 11
265.0496089610574
 21
226.51616135385152
  0
LINE
  8
_1-5_寸法2
  6
CONTINUOUS
 62
    7
 10
265.0496089610574
 20
232.51616135385152
 11
276.64071887652631
 21
235.62198989508175
  0
LINE
  8
_1-5_寸法2
  6
CONTINUOUS
 62
    7
 10
265.0496089610574
 20
232.51616135385152
 11
276.64071887652631
 21
229.41033281262128
  0
LINE
  8
_1-5_寸法2
  6
CONTINUOUS
 62
    7
 10
355.04960896105757
 20
280.51616135385154
 11
355.04960896105752
 21
226.51616135385152
  0
LINE
  8
_1-5_寸法2
  6
CONTINUOUS
 62
    7
 10
355.04960896105752
 20
232.51616135385152
 11
343.45849904558861
 21
229.41033281262128
  0
LINE
  8
_1-5_寸法2
  6
CONTINUOUS
 62
    7
 10
355.04960896105752
 20
232.51616135385152
 11
343.45849904558872
 21
235.62198989508184
  0
LINE
  8
_1-5_寸法2
  6
CONTINUOUS
 62
    7
 10
265.0496089610574
 20
232.51616135385152
 11
355.04960896105752
 21
232.51616135385152
  0
TEXT
  8
_1-5_寸法2
 62
    7
 10
301.04960896105752
 20
232.51616135385152
 40
18
 41
1
 50
0
  1
30
  0
LINE
  8
_1-5_寸法2
  6
CONTINUOUS
 62
    7
 10
355.04960896105752
 20
232.51616135385152
 11
366.64071887652636
 21
235.62198989508175
  0
LINE
  8
_1-5_寸法2
  6
CONTINUOUS
 62
    7
 10
355.04960896105752
 20
232.51616135385152
 11
366.64071887652631
 21
229.41033281262119
  0
LINE
  8
_1-5_寸法2
  6
CONTINUOUS
 62
    7
 10
421.04960774912547
 20
280.51616135385154
 11
421.0496077491253
 21
226.51616135385152
  0
LINE
  8
_1-5_寸法2
  6
CONTINUOUS
 62
    7
 10
421.0496077491253
 20
232.51616135385152
 11
409.45849783365651
 21
229.41033281262128
  0
LINE
  8
_1-5_寸法2
  6
CONTINUOUS
 62
    7
 10
421.0496077491253
 20
232.51616135385152
 11
409.45849783365651
 21
235.62198989508184
  0
LINE
  8
_1-5_寸法2
  6
CONTINUOUS
 62
    7
 10
355.04960896105752
 20
232.51616135385152
 11
421.0496077491253
 21
232.51616135385152
  0
TEXT
  8
_1-5_寸法2
 62
    7
 10
379.04960835509144
 20
232.51616135385152
 40
18
 41
1
 50
0
  1
22
  0
LINE
  8
_1-5_寸法2
  6
CONTINUOUS
 62
    7
 10
421.0496077491253
 20
232.51616135385152
 11
432.64071766459415
 21
235.62198989508175
  0
LINE
  8
_1-5_寸法2
  6
CONTINUOUS
 62
    7
 10
421.0496077491253
 20
232.51616135385152
 11
432.64071766459409
 21
229.41033281262119
  0
LINE
  8
_1-5_寸法2
  6
CONTINUOUS
 62
    7
 10
511.04960804260315
 20
289.51616135385154
 11
511.0496080426031
 21
226.51616135385152
  0
LINE
  8
_1-5_寸法2
  6
CONTINUOUS
 62
    7
 10
511.0496080426031
 20
232.51616135385152
 11
499.45849812713425
 21
229.41033281262128
  0
LINE
  8
_1-5_寸法2
  6
CONTINUOUS
 62
    7
 10
511.0496080426031
 20
232.51616135385152
 11
499.45849812713431
 21
235.62198989508184
  0
LINE
  8
_1-5_寸法2
  6
CONTINUOUS
 62
    7
 10
421.0496077491253
 20
232.51616135385152
 11
511.0496080426031
 21
232.51616135385152
  0
TEXT
  8
_1-5_寸法2
 62
    7
 10
457.0496078958642
 20
232.51616135385152
 40
18
 41
1
 50
0
  1
30
  0
LINE
  8
_1-5_寸法2
  6
CONTINUOUS
 62
    7
 10
249.44960804260262
 20
292.5161613538516
 11
199.04960896105757
 21
292.51616135385166
  0
LINE
  8
_1-5_寸法2
  6
CONTINUOUS
 62
    7
 10
205.04960896105757
 20
292.51616135385166
 11
201.94378041982742
 21
304.10727126932056
  0
LINE
  8
_1-5_寸法2
  6
CONTINUOUS
 62
    7
 10
205.04960896105757
 20
292.51616135385166
 11
208.1554375022879
 21
304.10727126932045
  0
LINE
  8
_1-5_寸法2
  6
CONTINUOUS
 62
    7
 10
253.04960804260301
 20
361.51616135385166
 11
199.04960896105757
 21
361.51616135385183
  0
LINE
  8
_1-5_寸法2
  6
CONTINUOUS
 62
    7
 10
205.04960896105757
 20
361.51616135385183
 11
208.15543750228781
 21
349.92505143838298
  0
LINE
  8
_1-5_寸法2
  6
CONTINUOUS
 62
    7
 10
205.04960896105757
 20
361.51616135385183
 11
201.94378041982733
 21
349.92505143838304
  0
LINE
  8
_1-5_寸法2
  6
CONTINUOUS
 62
    7
 10
205.04960896105757
 20
292.51616135385166
 11
205.04960896105757
 21
361.51616135385183
  0
TEXT
  8
_1-5_寸法2
 62
    7
 10
205.04960896105757
 20
318.01616135385177
 40
18
 41
1
 50
89.99999999999973
  1
23
  0
TEXT
  8
_0-7_枠細線
 62
    5
 10
1158.5999999999999
 20
180
 40
24
 41
0.55
 50
0
  1
玄関排水Ｌアングル枠仕様 盗難防止金具付
  0
TEXT
  8
_0-5_寸法線
 62
    7
 10
295.25872185928813
 20
863.83542229942839
 40
18
 41
1
 50
0
  1
Ｂ部
  0
LINE
  8
_0-5_寸法線
  6
CONTINUOUS
 62
    7
 10
819.7584264158213
 20
856.04293717273606
 11
819.34507691248575
 21
844.05005836120415
  0
LINE
  8
_0-5_寸法線
  6
CONTINUOUS
 62
    7
 10
819.7584264158213
 20
856.04293717273606
 11
813.40401583952496
 21
845.86347420910897
  0
LINE
  8
_0-5_寸法線
  6
CONTINUOUS
 62
    7
 10
819.7584264158213
 20
856.04293717273606
 11
806.5970520829278
 21
812.92401946494533
  0
LINE
  8
_0-5_寸法線
  6
CONTINUOUS
 62
    7
 10
806.5970520829278
 20
812.92401946494533
 11
761.58699784439182
 21
812.92401946494533
  0
TEXT
  8
_0-5_寸法線
 62
    7
 10
761.5869978443917
 20
812.92401946494533
 40
18
 41
0.7999999999999998
 50
0
  1
上フタ
  0
LINE
  8
_0-1_計細線
  6
CONTINUOUS
 62
    3
 10
342.81304121194586
 20
860.36031331592812
 11
342.81304121194586
 21
850.36031331592812
  0
LINE
  8
_0-1_計細線
  6
CONTINUOUS
 62
    3
 10
342.81304121194586
 20
875.86031331592767
 11
342.81304121194586
 21
865.86031331592767
  0
LINE
  8
_0-1_計細線
  6
CONTINUOUS
 62
    3
 10
342.81304121194586
 20
906.86031331592721
 11
342.81304121194586
 21
896.8603133159271
  0
LINE
  8
_0-1_計細線
  6
CONTINUOUS
 62
    3
 10
342.81304121194586
 20
922.36031331592676
 11
342.81304121194586
 21
912.36031331592665
  0
LINE
  8
_0-0_計極細
  6
CONTINUOUS
 62
    2
 10
389.81303933189571
 20
875.86031517597496
 11
389.81303933189571
 21
881.36031495596956
  0
LINE
  8
_0-0_計極細
  6
CONTINUOUS
 62
    2
 10
389.81303933189571
 20
860.36031579599137
 11
389.81303933189571
 21
865.86031557598562
  0
LINE
  8
_0-0_計極細
  6
CONTINUOUS
 62
    2
 10
349.81304093190425
 20
860.36031579599137
 11
349.81304093190425
 21
865.86031557598562
  0
LINE
  8
_0-0_計極細
  6
CONTINUOUS
 62
    2
 10
389.81303933189571
 20
912.36031371593742
 11
389.81303933189571
 21
906.86031393594351
  0
LINE
  8
_0-0_計極細
  6
CONTINUOUS
 62
    2
 10
349.81304093190425
 20
912.36031371593742
 11
349.81304093190425
 21
906.86031393594351
  0
LINE
  8
_0-0_計極細
  6
CONTINUOUS
 62
    2
 10
389.81303933189571
 20
896.86031433595383
 11
389.81303933189571
 21
891.36031455595923
  0
LINE
  8
_0-0_計極細
  6
CONTINUOUS
 62
    2
 10
385.76304193735547
 20
860.36031331592812
 11
385.76304193735547
 21
865.86031331592767
  0
LINE
  8
_0-0_計極細
  6
CONTINUOUS
 62
    2
 10
378.86304193723311
 20
860.36031331592812
 11
378.86304193723311
 21
865.86031331592767
  0
LINE
  8
_0-0_計極細
  6
CONTINUOUS
 62
    2
 10
385.76303961680321
 20
912.36031331592665
 11
385.76304192798136
 21
906.86031331592721
  0
LINE
  8
_0-0_計極細
  6
CONTINUOUS
 62
    2
 10
378.86303964700653
 20
912.36031331592665
 11
378.8630419279815
 21
906.86031331592721
  0
LINE
  8
_0-0_計極細
  6
CONTINUOUS
 62
    2
 10
378.86304193723311
 20
896.8603133159271
 11
378.86304193723311
 21
895.26031439996416
  0
LINE
  8
_0-0_計極細
  6
CONTINUOUS
 62
    2
 10
378.86304193723311
 20
894.26031443996396
 11
378.86304193723311
 21
891.36031331592721
  0
LINE
  8
_0-0_計極細
  6
CONTINUOUS
 62
    2
 10
385.76304193735547
 20
896.8603133159271
 11
385.76304193735547
 21
895.26031439996416
  0
LINE
  8
_0-0_計極細
  6
CONTINUOUS
 62
    2
 10
385.76304193735547
 20
894.26031443996396
 11
385.76304193735547
 21
891.36031331592721
  0
LINE
  8
_0-0_計極細
  6
CONTINUOUS
 62
    2
 10
378.86304193723311
 20
875.86031331592767
 11
378.86304193723311
 21
877.46031511196463
  0
LINE
  8
_0-0_計極細
  6
CONTINUOUS
 62
    2
 10
378.86304193723311
 20
878.46031507196449
 11
378.86304193723311
 21
881.36031331592721
  0
LINE
  8
_0-0_計極細
  6
CONTINUOUS
 62
    2
 10
385.76304193735547
 20
875.86031331592767
 11
385.76304193735547
 21
877.46031511196463
  0
LINE
  8
_0-0_計極細
  6
CONTINUOUS
 62
    2
 10
385.76304193735547
 20
878.46031507196449
 11
385.76304193735547
 21
881.36031331592721
  0
LINE
  8
_0-0_計極細
  6
CONTINUOUS
 62
    2
 10
346.31304109190353
 20
876.46031515196444
 11
355.31304073190461
 21
876.46031515196444
  0
LINE
  8
_0-0_計極細
  6
CONTINUOUS
 62
    2
 10
346.31304109190353
 20
876.46031515196444
 11
346.31304109190353
 21
877.46031511196463
  0
LINE
  8
_0-0_計極細
  6
CONTINUOUS
 62
    2
 10
355.31304073190461
 20
876.46031515196444
 11
355.31304073190461
 21
877.46031511196463
  0
LINE
  8
_0-0_計極細
  6
CONTINUOUS
 62
    2
 10
346.31304109190353
 20
896.26031435996435
 11
355.31304073190461
 21
896.26031435996435
  0
LINE
  8
_0-0_計極細
  6
CONTINUOUS
 62
    2
 10
346.31304109190353
 20
896.26031435996435
 11
346.31304109190353
 21
895.26031439996416
  0
LINE
  8
_0-0_計極細
  6
CONTINUOUS
 62
    2
 10
355.31304073190461
 20
896.26031435996435
 11
355.31304073190461
 21
895.26031439996416
  0
LINE
  8
_0-1_計細線
  6
CONTINUOUS
 62
    3
 10
387.31303945190405
 20
894.26031443996396
 11
387.31303945190405
 21
895.26031439996416
  0
LINE
  8
_0-1_計細線
  6
CONTINUOUS
 62
    3
 10
374.51303996390482
 20
894.26031443996396
 11
387.31303945190405
 21
894.26031443996396
  0
LINE
  8
_0-1_計細線
  6
CONTINUOUS
 62
    3
 10
387.31303945190405
 20
895.26031439996416
 11
345.31304113190401
 21
895.26031439996416
  0
LINE
  8
_0-1_計細線
  6
CONTINUOUS
 62
    3
 10
345.31304113190401
 20
877.46031511196463
 11
387.31303945190405
 21
877.46031511196463
  0
LINE
  8
_0-1_計細線
  6
CONTINUOUS
 62
    3
 10
387.31303945190405
 20
878.46031507196449
 11
374.51303996390482
 21
878.46031507196449
  0
LINE
  8
_0-1_計細線
  6
CONTINUOUS
 62
    3
 10
387.31303945190405
 20
877.46031511196463
 11
387.31303945190405
 21
878.46031507196449
  0
LINE
  8
_0-1_計細線
  6
CONTINUOUS
 62
    3
 10
374.51303996390482
 20
877.46031511196463
 11
374.51303996390482
 21
895.26031439996416
  0
LINE
  8
_0-1_計細線
  6
CONTINUOUS
 62
    3
 10
345.31304113190401
 20
895.26031439996416
 11
345.31304113190401
 21
877.46031511196463
  0
LINE
  8
_0-1_計細線
  6
CONTINUOUS
 62
    3
 10
376.81303985190476
 20
891.36031455595923
 11
376.81303985190476
 21
881.36031495596956
  0
CIRCLE
  8
_0-5_寸法線
  6
CONTINUOUS
 62
    7
 10
361.81910099753628
 20
886.3603147559644
 40
32.624478443415455
  0
LINE
  8
_0-0_計極細
  6
CONTINUOUS
 62
    2
 10
349.81304093190425
 20
896.86031433595383
 11
349.81304093190425
 21
896.26031435996435
  0
LINE
  8
_0-0_計極細
  6
CONTINUOUS
 62
    2
 10
349.81304093190425
 20
876.46031515196444
 11
349.81304093190425
 21
875.86031517597496
  0
LINE
  8
_0-5_寸法線
  6
CONTINUOUS
 62
    7
 10
361.7125710366239
 20
880.1769759734417
 11
367.94145168659509
 21
869.92021986595751
  0
LINE
  8
_0-5_寸法線
  6
CONTINUOUS
 62
    7
 10
361.7125710366239
 20
880.1769759734417
 11
361.97856186289823
 21
868.17992429895344
  0
LINE
  8
_0-5_寸法線
  6
CONTINUOUS
 62
    7
 10
361.7125710366239
 20
880.1769759734417
 11
381.34064157626733
 21
812.92401946494533
  0
LINE
  8
_0-5_寸法線
  6
CONTINUOUS
 62
    7
 10
381.34064157626733
 20
812.92401946494533
 11
496.54064157626749
 21
812.92401946494533
  0
TEXT
  8
_0-5_寸法線
 62
    7
 10
381.34064157626733
 20
812.92401946494533
 40
18
 41
0.7999999999999998
 50
0
  1
ボルトカバー金具
  0
LINE
  8
_0-0_計極細
  6
CENTER1
 62
    2
 10
1382.1294964028777
 20
886.3603133159271
 11
1493.9496402877699
 21
886.3603133159271
  0
LINE
  8
_0-5_寸法線
  6
CONTINUOUS
 62
    7
 10
1230.3130412119458
 20
845.36031331592721
 11
1326.3130412119458
 21
845.36031331592687
  0
LINE
  8
_0-5_寸法線
  6
CONTINUOUS
 62
    7
 10
1320.3130412119458
 20
845.36031331592687
 11
1317.2072126707155
 21
856.95142323139567
  0
LINE
  8
_0-5_寸法線
  6
CONTINUOUS
 62
    7
 10
1320.3130412119458
 20
845.36031331592687
 11
1323.4188697531758
 21
856.95142323139567
  0
LINE
  8
_0-5_寸法線
  6
CONTINUOUS
 62
    7
 10
1230.3130412119458
 20
927.36031331592721
 11
1326.3130412119458
 21
927.36031331592699
  0
LINE
  8
_0-5_寸法線
  6
CONTINUOUS
 62
    7
 10
1320.3130412119458
 20
927.36031331592699
 11
1323.4188697531758
 21
915.7692034004582
  0
LINE
  8
_0-5_寸法線
  6
CONTINUOUS
 62
    7
 10
1320.3130412119458
 20
927.36031331592699
 11
1317.2072126707155
 21
915.7692034004582
  0
LINE
  8
_0-5_寸法線
  6
CONTINUOUS
 62
    7
 10
1320.3130412119458
 20
845.36031331592687
 11
1320.3130412119458
 21
927.36031331592699
  0
TEXT
  8
_0-5_寸法線
 62
    7
 10
1320.3130412119458
 20
877.36031331592699
 40
18
 41
1
 50
90
  1
82
  0
LINE
  8
_0-1_計細線
  6
CONTINUOUS
 62
    3
 10
1408.7763929071748
 20
927.36050324292046
 11
1408.7763929071748
 21
845.36050324292034
  0
LINE
  8
_0-1_計細線
  6
CONTINUOUS
 62
    3
 10
1408.7763929071748
 20
845.36050324292034
 11
1431.7763929071743
 21
845.36050324292034
  0
LINE
  8
_0-1_計細線
  6
CONTINUOUS
 62
    3
 10
1431.7763929071743
 20
845.36050324292034
 11
1431.7763929071743
 21
927.36050324292046
  0
LINE
  8
_0-1_計細線
  6
CONTINUOUS
 62
    3
 10
1431.7763929071743
 20
927.36050324292046
 11
1408.7763929071748
 21
927.36050324292046
  0
LINE
  8
_0-0_計極細
  6
CONTINUOUS
 62
    2
 10
1205.3130420119605
 20
885.86031333592734
 11
1205.3130420119605
 21
886.86031329592686
  0
LINE
  8
_0-1_計細線
  6
CONTINUOUS
 62
    3
 10
1214.3130416519562
 20
895.86031293592316
 11
1215.313041611957
 21
895.86031293592316
  0
ARC
  8
_0-1_計細線
  6
CONTINUOUS
 62
    3
 10
1214.3130416519562
 20
886.86031329592686
 40
0.9999999599995135
 50
269.99999999999977
 51
359.99999999999966
  0
LINE
  8
_0-1_計細線
  6
CONTINUOUS
 62
    3
 10
1203.3130420919615
 20
885.86031333592734
 11
1203.3130420919615
 21
886.86031329592686
  0
LINE
  8
_0-1_計細線
  6
CONTINUOUS
 62
    3
 10
1203.3130420919615
 20
886.86031329592686
 11
1214.3130416519562
 21
886.86031329592686
  0
LINE
  8
_0-1_計細線
  6
CONTINUOUS
 62
    3
 10
1214.3130416519562
 20
885.86031333592734
 11
1203.3130420919615
 21
885.86031333592734
  0
LINE
  8
_0-1_計細線
  6
CONTINUOUS
 62
    3
 10
1214.3130416519562
 20
886.86031329592686
 11
1214.3130416519562
 21
895.86031293592316
  0
LINE
  8
_0-1_計細線
  6
CONTINUOUS
 62
    3
 10
1215.313041611957
 20
895.86031293592316
 11
1215.313041611957
 21
886.86031329592686
  0
LINE
  8
_0-5_寸法線
  6
CONTINUOUS
 62
    7
 10
1205.3130420119605
 20
885.86031333592734
 11
1201.8047811827585
 21
874.38459523402696
  0
LINE
  8
_0-5_寸法線
  6
CONTINUOUS
 62
    7
 10
1205.3130420119605
 20
885.86031333592734
 11
1196.5369399598196
 21
877.67618034761358
  0
LINE
  8
_0-5_寸法線
  6
CONTINUOUS
 62
    7
 10
1205.3130420119605
 20
885.86031333592734
 11
1159.7391514967171
 21
812.92401946494533
  0
LINE
  8
_0-5_寸法線
  6
CONTINUOUS
 62
    7
 10
1159.7391514967171
 20
812.92401946494533
 11
1058.9086909660964
 21
812.92401946494533
  0
TEXT
  8
_0-5_寸法線
 62
    7
 10
1058.9086909660964
 20
812.92401946494533
 40
18
 41
0.7999999999999998
 50
0
  1
抜け防止Ｌ金具
  0
LINE
  8
_0-0_計極細
  6
CONTINUOUS
 62
    2
 10
1154.4145688649592
 20
850.36031331592812
 11
1157.0940607892703
 21
860.36031331592812
  0
LINE
  8
_0-0_計極細
  6
CONTINUOUS
 62
    2
 10
1158.5677813476418
 20
865.86031331592767
 11
1161.247273271953
 21
875.86031331592767
  0
LINE
  8
_0-0_計極細
  6
CONTINUOUS
 62
    2
 10
1162.720993830324
 20
881.36031331592721
 11
1165.4004857546352
 21
891.36031331592721
  0
LINE
  8
_0-0_計極細
  6
CONTINUOUS
 62
    2
 10
1166.8742063130062
 20
896.86031331592676
 11
1169.5536982373173
 21
906.86031331592676
  0
LINE
  8
_0-0_計極細
  6
CONTINUOUS
 62
    2
 10
1171.0274187956888
 20
912.36031331592665
 11
1173.70691072
 21
922.36031331592676
  0
LINE
  8
_0-1_計細線
  6
CONTINUOUS
 62
    3
 10
1167.0081809092217
 20
897.36031331592721
 11
1188.3130412119458
 21
897.36031331592721
  0
LINE
  8
_0-1_計細線
  6
CONTINUOUS
 62
    3
 10
1188.3130412119458
 20
897.36031331592721
 11
1188.3130412119458
 21
875.36031331592721
  0
LINE
  8
_0-1_計細線
  6
CONTINUOUS
 62
    3
 10
1188.3130412119458
 20
875.36031331592721
 11
1161.113298675737
 21
875.36031331592721
  0
LINE
  8
_0-5_寸法線
  6
CONTINUOUS
 62
    7
 10
1230.3130412119458
 20
845.36031331592721
 11
1284.3130412119458
 21
845.36031331592687
  0
LINE
  8
_0-5_寸法線
  6
CONTINUOUS
 62
    7
 10
1278.3130412119458
 20
845.36031331592687
 11
1275.2072126707155
 21
856.95142323139567
  0
LINE
  8
_0-5_寸法線
  6
CONTINUOUS
 62
    7
 10
1278.3130412119458
 20
845.36031331592687
 11
1281.4188697531758
 21
856.95142323139567
  0
LINE
  8
_0-5_寸法線
  6
CONTINUOUS
 62
    7
 10
1230.3130412119458
 20
875.36031331592721
 11
1284.3130412119458
 21
875.36031331592721
  0
LINE
  8
_0-5_寸法線
  6
CONTINUOUS
 62
    7
 10
1278.3130412119458
 20
875.36031331592721
 11
1281.4188697531758
 21
863.76920340045842
  0
LINE
  8
_0-5_寸法線
  6
CONTINUOUS
 62
    7
 10
1278.3130412119458
 20
875.36031331592721
 11
1275.2072126707155
 21
863.76920340045842
  0
LINE
  8
_0-5_寸法線
  6
CONTINUOUS
 62
    7
 10
1278.3130412119458
 20
845.36031331592687
 11
1278.3130412119458
 21
875.36031331592721
  0
TEXT
  8
_0-5_寸法線
 62
    7
 10
1278.3130412119458
 20
851.36031331592699
 40
18
 41
1
 50
90
  1
30
  0
LINE
  8
_0-5_寸法線
  6
CONTINUOUS
 62
    7
 10
1278.3130412119458
 20
875.36031331592721
 11
1275.2072126707155
 21
886.95142323139601
  0
LINE
  8
_0-5_寸法線
  6
CONTINUOUS
 62
    7
 10
1278.3130412119458
 20
875.36031331592721
 11
1281.4188697531758
 21
886.95142323139601
  0
LINE
  8
_0-5_寸法線
  6
CONTINUOUS
 62
    7
 10
1230.3130412119458
 20
897.36031331592721
 11
1284.3130412119458
 21
897.36031331592721
  0
LINE
  8
_0-5_寸法線
  6
CONTINUOUS
 62
    7
 10
1278.3130412119458
 20
897.36031331592721
 11
1281.4188697531758
 21
885.76920340045831
  0
LINE
  8
_0-5_寸法線
  6
CONTINUOUS
 62
    7
 10
1278.3130412119458
 20
897.36031331592721
 11
1275.2072126707155
 21
885.76920340045831
  0
LINE
  8
_0-5_寸法線
  6
CONTINUOUS
 62
    7
 10
1278.3130412119458
 20
875.36031331592721
 11
1278.3130412119458
 21
897.36031331592721
  0
TEXT
  8
_0-5_寸法線
 62
    7
 10
1278.3130412119458
 20
877.3603133159271
 40
18
 41
1
 50
90
  1
22
  0
LINE
  8
_0-5_寸法線
  6
CONTINUOUS
 62
    7
 10
1278.3130412119458
 20
897.36031331592721
 11
1275.2072126707155
 21
908.95142323139589
  0
LINE
  8
_0-5_寸法線
  6
CONTINUOUS
 62
    7
 10
1278.3130412119458
 20
897.36031331592721
 11
1281.4188697531758
 21
908.95142323139589
  0
LINE
  8
_0-5_寸法線
  6
CONTINUOUS
 62
    7
 10
1230.3130412119458
 20
927.36031331592721
 11
1284.3130412119458
 21
927.36031331592699
  0
LINE
  8
_0-5_寸法線
  6
CONTINUOUS
 62
    7
 10
1278.3130412119458
 20
927.36031331592699
 11
1281.4188697531758
 21
915.7692034004582
  0
LINE
  8
_0-5_寸法線
  6
CONTINUOUS
 62
    7
 10
1278.3130412119458
 20
927.36031331592699
 11
1275.2072126707155
 21
915.7692034004582
  0
LINE
  8
_0-5_寸法線
  6
CONTINUOUS
 62
    7
 10
1278.3130412119458
 20
897.36031331592721
 11
1278.3130412119458
 21
927.36031331592699
  0
TEXT
  8
_0-5_寸法線
 62
    7
 10
1278.3130412119458
 20
903.36031331592699
 40
18
 41
1
 50
90
  1
30
  0
LINE
  8
_0-5_寸法線
  6
CONTINUOUS
 62
    7
 10
1192.9043647126791
 20
918.51188291005178
 11
1184.4190833384405
 21
926.99716428429042
  0
LINE
  8
_0-5_寸法線
  6
CONTINUOUS
 62
    7
 10
1192.9043647126791
 20
918.51188291005178
 11
1189.7985361714486
 21
930.10299282552069
  0
LINE
  8
_0-5_寸法線
  6
CONTINUOUS
 62
    7
 10
1192.9043647126791
 20
918.51188291005178
 11
1174.6474955896053
 21
950.13370781835124
  0
LINE
  8
_0-5_寸法線
  6
CONTINUOUS
 62
    7
 10
1174.6474955896053
 20
950.13370781835124
 11
1088.247495589605
 21
950.13370781835124
  0
TEXT
  8
_0-5_寸法線
 62
    7
 10
1088.247495589605
 20
950.13370781835124
 40
18
 41
0.7999999999999998
 50
0
  1
Ｌアングル枠
  0
LINE
  8
_0-0_計極細
  6
CENTER1
 62
    2
 10
330.14158195412034
 20
886.3603133159271
 11
1227.1703025807533
 21
886.3603133159271
  0
LINE
  8
_0-1_計細線
  6
CONTINUOUS
 62
    3
 10
1218.3130412119458
 20
845.36031331592721
 11
1218.3130412119458
 21
927.36031331592721
  0
LINE
  8
_0-1_計細線
  6
CONTINUOUS
 62
    3
 10
1218.3130412119458
 20
927.36031331592721
 11
338.31304121194586
 21
927.36031331592721
  0
LINE
  8
_0-1_計細線
  6
CONTINUOUS
 62
    3
 10
338.31304121194586
 20
927.36031331592721
 11
338.31304121194586
 21
845.36031331592721
  0
LINE
  8
_0-1_計細線
  6
CONTINUOUS
 62
    3
 10
338.31304121194586
 20
845.36031331592721
 11
1218.3130412119458
 21
845.36031331592721
  0
LINE
  8
_0-1_計細線
  6
CONTINUOUS
 62
    3
 10
341.31304121194586
 20
924.36031331592721
 11
341.31304121194586
 21
848.36031331592721
  0
LINE
  8
_0-1_計細線
  6
CONTINUOUS
 62
    3
 10
341.31304121194586
 20
848.36031331592721
 11
1215.3130412119458
 21
848.36031331592721
  0
LINE
  8
_0-1_計細線
  6
CONTINUOUS
 62
    3
 10
1215.3130412119458
 20
848.36031331592721
 11
1215.3130412119458
 21
924.36031331592721
  0
LINE
  8
_0-1_計細線
  6
CONTINUOUS
 62
    3
 10
1215.3130412119458
 20
924.36031331592721
 11
341.31304121194586
 21
924.36031331592721
  0
LINE
  8
_0-1_計細線
  6
CONTINUOUS
 62
    3
 10
342.81304121194586
 20
850.36031331592812
 11
1154.4145687818527
 21
850.36031331592812
  0
LINE
  8
_0-1_計細線
  6
CONTINUOUS
 62
    3
 10
1157.0940606594086
 20
860.36031331592812
 11
342.81304121194586
 21
860.36031331592812
  0
LINE
  8
_0-1_計細線
  6
CONTINUOUS
 62
    3
 10
342.81304121194586
 20
865.86031331592767
 11
1158.567781329155
 21
865.86031331592767
  0
LINE
  8
_0-1_計細線
  6
CONTINUOUS
 62
    3
 10
1161.2472732067108
 20
875.86031331592767
 11
342.81304121194586
 21
875.86031331592767
  0
LINE
  8
_0-1_計細線
  6
CONTINUOUS
 62
    3
 10
1165.4004856348038
 20
891.36031331592721
 11
376.81303985190476
 21
891.36031331592721
  0
LINE
  8
_0-1_計細線
  6
CONTINUOUS
 62
    3
 10
342.81304121194586
 20
896.8603133159271
 11
1166.8742063045502
 21
896.8603133159271
  0
LINE
  8
_0-1_計細線
  6
CONTINUOUS
 62
    3
 10
1169.553698182106
 20
906.86031331592721
 11
342.81304121194586
 21
906.86031331592721
  0
LINE
  8
_0-1_計細線
  6
CONTINUOUS
 62
    3
 10
342.81304121194586
 20
912.36031331592665
 11
1171.0274187326431
 21
912.36031331592665
  0
LINE
  8
_0-1_計細線
  6
CONTINUOUS
 62
    3
 10
1173.706910610199
 20
922.36031331592676
 11
342.81304121194586
 21
922.36031331592676
  0
LINE
  8
_0-1_計細線
  6
CONTINUOUS
 62
    3
 10
376.81303985190476
 20
881.36031331592721
 11
1162.7209937572479
 21
881.36031331592721
  0
TEXT
  8
_0-7_枠細線
 62
    5
 10
1158.5999999999999
 20
132
 40
24
 41
0.6
 50
0
  1
ＧＳＥ－Ｌ９００Ｎ
  0
LINE
  8
_0-0_計極細
  6
CONTINUOUS
 62
    2
 10
649.76304122132001
 20
860.36031331592812
 11
649.76304122132001
 21
865.86031331592767
  0
LINE
  8
_0-0_計極細
  6
CONTINUOUS
 62
    2
 10
642.8630412211977
 20
860.36031331592812
 11
642.8630412211977
 21
865.86031331592767
  0
LINE
  8
_0-0_計極細
  6
CONTINUOUS
 62
    2
 10
649.76304122132001
 20
875.86031331592767
 11
649.76304122132001
 21
881.36031331592721
  0
LINE
  8
_0-0_計極細
  6
CONTINUOUS
 62
    2
 10
642.8630412211977
 20
875.86031331592767
 11
642.8630412211977
 21
881.36031331592721
  0
LINE
  8
_0-0_計極細
  6
CONTINUOUS
 62
    2
 10
649.76304122132001
 20
896.8603133159271
 11
649.76304122132001
 21
891.36031331592721
  0
LINE
  8
_0-0_計極細
  6
CONTINUOUS
 62
    2
 10
642.8630412211977
 20
896.8603133159271
 11
642.8630412211977
 21
891.36031331592721
  0
LINE
  8
_0-0_計極細
  6
CONTINUOUS
 62
    2
 10
649.76303890076747
 20
912.36031331592665
 11
649.76304121194596
 21
906.86031331592721
  0
LINE
  8
_0-0_計極細
  6
CONTINUOUS
 62
    2
 10
642.86303893097102
 20
912.36031331592665
 11
642.86304121194576
 21
906.86031331592721
  0
LINE
  8
_0-0_計極細
  6
CONTINUOUS
 62
    2
 10
653.81304091193829
 20
875.86031373593767
 11
653.81304091193829
 21
881.36031351593226
  0
LINE
  8
_0-0_計極細
  6
CONTINUOUS
 62
    2
 10
638.81304151195366
 20
875.86031373593767
 11
638.81304151195366
 21
881.36031351593226
  0
LINE
  8
_0-0_計極細
  6
CONTINUOUS
 62
    2
 10
653.81304091193829
 20
860.36031435595407
 11
653.81304091193829
 21
865.86031413594833
  0
LINE
  8
_0-0_計極細
  6
CONTINUOUS
 62
    2
 10
638.81304151195366
 20
860.36031435595407
 11
638.81304151195366
 21
865.86031413594833
  0
LINE
  8
_0-0_計極細
  6
CONTINUOUS
 62
    2
 10
653.81304091193829
 20
912.36031227590013
 11
653.81304091193829
 21
906.86031249590621
  0
LINE
  8
_0-0_計極細
  6
CONTINUOUS
 62
    2
 10
638.81304151195366
 20
912.36031227590013
 11
638.81304151195366
 21
906.86031249590621
  0
LINE
  8
_0-0_計極細
  6
CONTINUOUS
 62
    2
 10
653.81304091193829
 20
896.86031289591654
 11
653.81304091193829
 21
891.36031311592194
  0
LINE
  8
_0-0_計極細
  6
CONTINUOUS
 62
    2
 10
638.81304151195366
 20
896.86031289591654
 11
638.81304151195366
 21
891.36031311592194
  0
LINE
  8
_0-5_寸法線
  6
CONTINUOUS
 62
    7
 10
646.30918761695796
 20
936.3842485922886
 11
657.90029753242675
 21
939.49007713351875
  0
LINE
  8
_0-5_寸法線
  6
CONTINUOUS
 62
    7
 10
646.30918761695796
 20
936.3842485922886
 11
657.90029753242675
 21
933.27842005105822
  0
LINE
  8
_0-5_寸法線
  6
CONTINUOUS
 62
    7
 10
646.30918761695796
 20
936.3842485922886
 11
700.06455368151796
 21
936.3842485922886
  0
LINE
  8
_0-5_寸法線
  6
CONTINUOUS
 62
    7
 10
700.06455368151796
 20
936.3842485922886
 11
700.06455368151796
 21
936.0006668905728
  0
LINE
  8
_0-5_寸法線
  6
CONTINUOUS
 62
    7
 10
646.30918761695796
 20
815.16111572476007
 11
657.90029753242675
 21
818.26694426599022
  0
LINE
  8
_0-5_寸法線
  6
CONTINUOUS
 62
    7
 10
646.30918761695796
 20
815.16111572476007
 11
657.90029753242675
 21
812.0552871835298
  0
LINE
  8
_0-5_寸法線
  6
CONTINUOUS
 62
    7
 10
646.30918761695796
 20
815.16111572476007
 11
700.06455368151796
 21
815.16111572476007
  0
LINE
  8
_0-5_寸法線
  6
CONTINUOUS
 62
    7
 10
700.06455368151796
 20
815.16111572476007
 11
700.06455368151796
 21
814.77753402304427
  0
LINE
  8
_0-0_計極細
  6
CENTER1
 62
    2
 10
646.31304121194592
 20
950.70333595367345
 11
646.31304121194592
 21
804.98031495019495
  0
LINE
  8
_0-0_計極細
  6
CONTINUOUS
 62
    2
 10
913.76304122132001
 20
860.36031331592812
 11
913.76304122132001
 21
865.86031331592767
  0
LINE
  8
_0-0_計極細
  6
CONTINUOUS
 62
    2
 10
906.86304122119759
 20
860.36031331592812
 11
906.86304122119759
 21
865.86031331592767
  0
LINE
  8
_0-0_計極細
  6
CONTINUOUS
 62
    2
 10
913.76304122132001
 20
875.86031331592767
 11
913.76304122132001
 21
881.36031331592721
  0
LINE
  8
_0-0_計極細
  6
CONTINUOUS
 62
    2
 10
906.86304122119759
 20
875.86031331592767
 11
906.86304122119759
 21
881.36031331592721
  0
LINE
  8
_0-0_計極細
  6
CONTINUOUS
 62
    2
 10
913.76304122132001
 20
896.8603133159271
 11
913.76304122132001
 21
891.36031331592721
  0
LINE
  8
_0-0_計極細
  6
CONTINUOUS
 62
    2
 10
906.86304122119759
 20
896.8603133159271
 11
906.86304122119759
 21
891.36031331592721
  0
LINE
  8
_0-0_計極細
  6
CONTINUOUS
 62
    2
 10
913.76303890076747
 20
912.36031331592665
 11
913.76304121194585
 21
906.86031331592721
  0
LINE
  8
_0-0_計極細
  6
CONTINUOUS
 62
    2
 10
906.86303893097102
 20
912.36031331592665
 11
906.86304121194576
 21
906.86031331592721
  0
LINE
  8
_0-0_計極細
  6
CONTINUOUS
 62
    2
 10
917.81304091193817
 20
875.86031373593767
 11
917.81304091193817
 21
881.36031351593226
  0
LINE
  8
_0-0_計極細
  6
CONTINUOUS
 62
    2
 10
902.81304151195366
 20
875.86031373593767
 11
902.81304151195366
 21
881.36031351593226
  0
LINE
  8
_0-0_計極細
  6
CONTINUOUS
 62
    2
 10
917.81304091193817
 20
860.36031435595407
 11
917.81304091193817
 21
865.86031413594833
  0
LINE
  8
_0-0_計極細
  6
CONTINUOUS
 62
    2
 10
902.81304151195366
 20
860.36031435595407
 11
902.81304151195366
 21
865.86031413594833
  0
LINE
  8
_0-0_計極細
  6
CONTINUOUS
 62
    2
 10
917.81304091193817
 20
912.36031227590013
 11
917.81304091193817
 21
906.86031249590621
  0
LINE
  8
_0-0_計極細
  6
CONTINUOUS
 62
    2
 10
902.81304151195366
 20
912.36031227590013
 11
902.81304151195366
 21
906.86031249590621
  0
LINE
  8
_0-0_計極細
  6
CONTINUOUS
 62
    2
 10
917.81304091193817
 20
896.86031289591654
 11
917.81304091193817
 21
891.36031311592194
  0
LINE
  8
_0-0_計極細
  6
CONTINUOUS
 62
    2
 10
902.81304151195366
 20
896.86031289591654
 11
902.81304151195366
 21
891.36031311592194
  0
TEXT
  8
_0-7_枠細線
 62
    5
 10
1158.5999999999997
 20
84
 40
24.000000000000007
 41
0.5999999999999997
 50
0
  1
表面形状については記号表参照のこと
  0
TEXT
  8
_0-7_枠細線
 62
    5
 10
919.79760237218511
 20
534.61061827912522
 40
24
 41
0.6000000000000002
 50
0
  1
Ｓ＝１：２
  0
TEXT
  8
_0-7_枠細線
 62
    5
 10
788.07114882506357
 20
534.61061827912522
 40
24
 41
0.8
 50
0
  1
Ｂ部詳細図
  0
LINE
  8
_1-2_極細2
  6
CENTER1
 62
    2
 10
854.1043093815623
 20
432.08433814526217
 11
868.97998673434211
 21
397.03943846048452
  0
CIRCLE
  8
_1-2_極細2
  6
DASHED2
 62
    2
 10
862.50470120759508
 20
412.29425518805681
 40
9
  0
LINE
  8
_1-2_極細2
  6
CENTER1
 62
    2
 10
879.06560889778973
 20
419.32394343611611
 11
848.17116799555959
 21
406.21003131224359
  0
LINE
  8
_1-2_極細2
  6
CONTINUOUS
 62
    2
 10
873.77852645470318
 20
426.88526725998179
 11
882.26380782894182
 21
435.37054863422043
  0
LINE
  8
_1-2_極細2
  6
DASHED2
 62
    2
 10
909.2969433874099
 20
354.91616075385161
 11
874.53996722140425
 21
354.91616075385161
  0
LINE
  8
_1-2_極細2
  6
DASHED2
 62
    2
 10
874.69786086993497
 20
435.39489062192968
 11
908.92590772559413
 21
354.75866545949555
  0
LINE
  8
_1-2_極細2
  6
CONTINUOUS
 62
    2
 10
873.77852645470318
 20
426.88526725998179
 11
876.88435499593368
 21
438.47637717545041
  0
LINE
  8
_1-2_極細2
  6
CONTINUOUS
 62
    2
 10
913.53996722140425
 20
304.516161353852
 11
913.53996722140425
 21
306.61616135385236
  0
LINE
  8
_1-2_極細2
  6
CONTINUOUS
 62
    2
 10
874.53996722140425
 20
324.4371118091027
 11
874.53996722140425
 21
306.61616075385189
  0
LINE
  8
_1-2_極細2
  6
CONTINUOUS
 62
    2
 10
824.09287259711209
 20
324.61616135385236
 11
824.09287259711209
 21
308.41616135385209
  0
LINE
  8
_1-2_極細2
  6
CONTINUOUS
 62
    2
 10
808.06498190491448
 20
324.61616135385236
 11
808.06498190491448
 21
308.41616135385232
  0
LINE
  8
_1-2_極細2
  6
CONTINUOUS
 62
    2
 10
793.53996722140391
 20
306.61616135385236
 11
793.53996722140391
 21
304.516161353852
  0
LINE
  8
_1-2_極細2
  6
CONTINUOUS
 62
    2
 10
793.53996722140391
 20
306.61616135385236
 11
913.53996581140416
 21
306.61616135385236
  0
LINE
  8
_1-2_極細2
  6
CONTINUOUS
 62
    2
 10
793.53996722140391
 20
304.516161353852
 11
913.53996581140416
 21
304.516161353852
  0
LINE
  8
_1-2_極細2
  6
CONTINUOUS
 62
    2
 10
795.07892725101328
 20
306.61616135385236
 11
837.07892725101328
 21
306.61616135385236
  0
LINE
  8
_1-2_極細2
  6
DASHED2
 62
    2
 10
874.53996722140425
 20
354.91616075385161
 11
874.53996722140425
 21
324.4371118091027
  0
LINE
  8
_1-5_寸法2
  6
CONTINUOUS
 62
    7
 10
841.6815916474975
 20
376.66664719355538
 11
830.90665194302619
 21
371.3845382998478
  0
ARC
  8
_1-5_寸法2
  6
CONTINUOUS
 62
    7
 10
891.03996722140425
 20
320.11616075385189
 40
75.061353277580906
 50
131.11509464913786
 51
160.1952802838328
  0
LINE
  8
_1-5_寸法2
  6
CONTINUOUS
 62
    7
 10
820.41827813714008
 20
345.54810497263804
 11
821.42339728197157
 21
357.50593652792816
  0
LINE
  8
_1-5_寸法2
  6
CONTINUOUS
 62
    7
 10
820.41827813714008
 20
345.54810497263804
 11
827.26765262803883
 21
355.40133130127867
  0
LINE
  8
_1-5_寸法2
  6
CONTINUOUS
 62
    7
 10
841.6815916474975
 20
376.66664719355538
 11
834.99127458603334
 21
366.70473685381273
  0
LINE
  8
_1-3_細線2
  6
CONTINUOUS
 62
    4
 10
913.926744291707
 20
331.46056181050687
 11
904.78363588505897
 21
353.00037538129379
  0
LINE
  8
_1-3_細線2
  6
CONTINUOUS
 62
    4
 10
839.9307699793585
 20
405.97127101103825
 11
878.61315169979605
 21
314.84129051924663
  0
LINE
  8
_1-3_細線2
  6
CONTINUOUS
 62
    4
 10
832.65392725101356
 20
324.61616135385236
 11
799.50392725101301
 21
324.61616135385236
  0
LINE
  8
_1-3_細線2
  6
CONTINUOUS
 62
    4
 10
837.07892725101328
 20
308.41616135385232
 11
795.07892725101328
 21
308.41616135385232
  0
LINE
  8
_1-3_細線2
  6
CONTINUOUS
 62
    4
 10
825.07892725101328
 20
324.61616135385236
 11
825.07892725101328
 21
328.516161353852
  0
LINE
  8
_1-3_細線2
  6
CONTINUOUS
 62
    4
 10
822.07892725101328
 20
331.516161353852
 11
825.07892725101328
 21
328.516161353852
  0
LINE
  8
_1-3_細線2
  6
CONTINUOUS
 62
    4
 10
807.07892725101328
 20
324.61616135385236
 11
807.07892725101328
 21
328.516161353852
  0
LINE
  8
_1-3_細線2
  6
CONTINUOUS
 62
    4
 10
807.07892725101328
 20
328.516161353852
 11
810.07892725101328
 21
331.516161353852
  0
LINE
  8
_1-3_細線2
  6
CONTINUOUS
 62
    4
 10
810.07892725101328
 20
331.516161353852
 11
822.07892725101328
 21
331.516161353852
  0
LINE
  8
_1-3_細線2
  6
CONTINUOUS
 62
    4
 10
825.07892725101328
 20
304.516161353852
 11
825.07892725101328
 21
301.516161353852
  0
LINE
  8
_1-3_細線2
  6
CONTINUOUS
 62
    4
 10
795.07892725101328
 20
308.41616135385232
 11
795.07892725101328
 21
306.61616135385236
  0
LINE
  8
_1-3_細線2
  6
CONTINUOUS
 62
    4
 10
807.07892725101328
 20
304.516161353852
 11
807.07892725101328
 21
301.516161353852
  0
LINE
  8
_1-3_細線2
  6
CONTINUOUS
 62
    4
 10
799.50392725101301
 20
324.61616135385236
 11
799.50392725101301
 21
308.41616135385232
  0
LINE
  8
_1-3_細線2
  6
DASHED2
 62
    4
 10
825.07892725101328
 20
324.61616135385236
 11
825.07892725101328
 21
304.516161353852
  0
LINE
  8
_1-3_細線2
  6
DASHED2
 62
    4
 10
807.07892725101328
 20
324.61616135385236
 11
807.07892725101328
 21
304.516161353852
  0
ARC
  8
_1-3_細線2
  6
CONTINUOUS
 62
    4
 10
891.03996722140425
 20
320.11616075385189
 40
13.5
 50
202.99999999999858
 51
292.99999999999983
  0
LINE
  8
_1-3_細線2
  6
CONTINUOUS
 62
    4
 10
837.07892725101328
 20
308.41616135385232
 11
837.07892725101328
 21
306.61616135385236
  0
LINE
  8
_1-3_細線2
  6
CONTINUOUS
 62
    4
 10
832.65392725101356
 20
324.61616135385236
 11
832.65392725101356
 21
308.41616135385209
  0
LINE
  8
_1-3_細線2
  6
CONTINUOUS
 62
    4
 10
896.31483745600951
 20
307.68934523224368
 11
905.98013841725958
 21
311.79202208138111
  0
ARC
  8
_1-3_細線2
  6
CONTINUOUS
 62
    4
 10
900.1191714899204
 20
325.5995948831677
 40
15
 50
292.99999999999989
 51
22.999999999998316
  0
LINE
  8
_1-3_細線2
  6
CONTINUOUS
 62
    4
 10
911.68742228595227
 20
355.93085884496338
 11
877.45937543029174
 21
436.56708400739751
  0
LINE
  8
_1-3_細線2
  6
CONTINUOUS
 62
    4
 10
904.78363588505897
 20
353.00037538129379
 11
911.68742228595227
 21
355.93085884496338
  0
LINE
  8
_1-3_細線2
  6
CONTINUOUS
 62
    4
 10
877.45937543029174
 20
436.56708400739751
 11
847.08271526636008
 21
423.67295676725132
  0
CIRCLE
  8
_1-3_細線2
  6
CONTINUOUS
 62
    4
 10
862.50470120759508
 20
412.29425518805681
 40
5.25
  0
ARC
  8
_1-3_細線2
  6
CONTINUOUS
 62
    4
 10
852.35758550096568
 20
411.24614124564351
 40
13.5
 50
113.00000000000109
 51
202.99999999999881
  0
CIRCLE
  8
_1-3_細線2
  6
CONTINUOUS
 62
    4
 10
862.50470120759508
 20
412.29425518805681
 40
13.5
  0
LINE
  8
_1-5_寸法2
  6
CONTINUOUS
 62
    7
 10
804.55753880009615
 20
323.35510265049777
 11
796.07225742585774
 21
331.84038402473635
  0
LINE
  8
_1-5_寸法2
  6
CONTINUOUS
 62
    7
 10
804.55753880009615
 20
323.35510265049777
 11
801.451710258866
 21
334.94621256596656
  0
LINE
  8
_1-5_寸法2
  6
CONTINUOUS
 62
    7
 10
804.55753880009615
 20
323.35510265049777
 11
770.1936507777865
 21
382.87510265074604
  0
LINE
  8
_1-5_寸法2
  6
CONTINUOUS
 62
    7
 10
770.1936507777865
 20
382.87510265074604
 11
669.39365077778621
 21
382.87510265074604
  0
TEXT
  8
_1-5_寸法2
 62
    7
 10
669.39365077778643
 20
382.87510265074604
 40
18
 41
0.7999999999999998
 50
0
  1
フランジナット
  0
LINE
  8
_1-2_極細2
  6
CONTINUOUS
 62
    2
 10
960.20693954959415
 20
354.91616075385161
 11
909.2969433874099
 21
354.91616075385161
  0
LINE
  8
_1-2_極細2
  6
CONTINUOUS
 62
    2
 10
874.53996722140425
 20
306.61616075385189
 11
977.66832896506185
 21
306.61616075385189
  0
LINE
  8
_1-2_極細2
  6
CONTINUOUS
 62
    2
 10
967.35336451292551
 20
369.73562471204866
 11
967.24492323823733
 21
369.54412844985143
  0
LINE
  8
_1-2_極細2
  6
CONTINUOUS
 62
    2
 10
967.24492323823733
 20
369.54412844985143
 11
966.92271231300128
 21
368.97485897949298
  0
LINE
  8
_1-2_極細2
  6
CONTINUOUS
 62
    2
 10
966.92271231300128
 20
368.97485897949298
 11
966.39685734937939
 21
368.04330822724739
  0
LINE
  8
_1-2_極細2
  6
CONTINUOUS
 62
    2
 10
966.39685734937939
 20
368.04330822724739
 11
965.6865272762916
 21
366.77475556539741
  0
LINE
  8
_1-2_極細2
  6
CONTINUOUS
 62
    2
 10
965.6865272762916
 20
366.77475556539741
 11
964.82231228950786
 21
365.20349955602603
  0
LINE
  8
_1-2_極細2
  6
CONTINUOUS
 62
    2
 10
964.82231228950786
 20
365.20349955602603
 11
963.8477446454217
 21
363.37185847757371
  0
LINE
  8
_1-2_極細2
  6
CONTINUOUS
 62
    2
 10
963.8477446454217
 20
363.37185847757371
 11
962.81880492485698
 21
361.32899717183898
  0
LINE
  8
_1-2_極細2
  6
CONTINUOUS
 62
    2
 10
962.81880492485698
 20
361.32899717183898
 11
961.80066348248238
 21
359.12963293291239
  0
LINE
  8
_1-2_極細2
  6
CONTINUOUS
 62
    2
 10
961.80066348248238
 20
359.12963293291239
 11
960.86158310033761
 21
356.83266015668039
  0
LINE
  8
_1-2_極細2
  6
CONTINUOUS
 62
    2
 10
960.86158310033761
 20
356.83266015668039
 11
960.06468932439157
 21
354.49971661208372
  0
LINE
  8
_1-2_極細2
  6
CONTINUOUS
 62
    2
 10
960.06468932439157
 20
354.49971661208372
 11
959.45900024858702
 21
352.19369877365705
  0
LINE
  8
_1-2_極細2
  6
CONTINUOUS
 62
    2
 10
959.45900024858702
 20
352.19369877365705
 11
959.07151329774933
 21
349.97722458317878
  0
LINE
  8
_1-2_極細2
  6
CONTINUOUS
 62
    2
 10
959.07151329774933
 20
349.97722458317878
 11
958.90215005414848
 21
347.91104256527285
  0
LINE
  8
_1-2_極細2
  6
CONTINUOUS
 62
    2
 10
958.90215005414848
 20
347.91104256527285
 11
958.92293242347205
 21
346.0523971750539
  0
LINE
  8
_1-2_極細2
  6
CONTINUOUS
 62
    2
 10
958.92293242347205
 20
346.0523971750539
 11
959.08197936814304
 21
344.45337959051369
  0
LINE
  8
_1-2_極細2
  6
CONTINUOUS
 62
    2
 10
959.08197936814304
 20
344.45337959051369
 11
959.31193683673655
 21
343.15931648752837
  0
LINE
  8
_1-2_極細2
  6
CONTINUOUS
 62
    2
 10
959.31193683673655
 20
343.15931648752837
 11
959.54150027981905
 21
342.20727088031242
  0
LINE
  8
_1-2_極細2
  6
CONTINUOUS
 62
    2
 10
959.54150027981905
 20
342.20727088031242
 11
959.70797732041774
 21
341.62474307669629
  0
LINE
  8
_1-2_極細2
  6
CONTINUOUS
 62
    2
 10
959.70797732041774
 20
341.62474307669629
 11
959.76853664682176
 21
341.42866174908534
  0
LINE
  8
_1-2_極細2
  6
CONTINUOUS
 62
    2
 10
959.76853664682176
 20
341.42866174908534
 11
959.83140877050346
 21
341.23251743463504
  0
LINE
  8
_1-2_極細2
  6
CONTINUOUS
 62
    2
 10
959.83140877050346
 20
341.23251743463504
 11
960.03170054584461
 21
340.64905744024952
  0
LINE
  8
_1-2_極細2
  6
CONTINUOUS
 62
    2
 10
960.03170054584461
 20
340.64905744024952
 11
960.40086995761658
 21
339.69307394787381
  0
LINE
  8
_1-2_極細2
  6
CONTINUOUS
 62
    2
 10
960.40086995761658
 20
339.69307394787381
 11
960.98033596023606
 21
338.3888085506718
  0
LINE
  8
_1-2_極細2
  6
CONTINUOUS
 62
    2
 10
960.98033596023606
 20
338.3888085506718
 11
961.80783895398008
 21
336.76936693418236
  0
LINE
  8
_1-2_極細2
  6
CONTINUOUS
 62
    2
 10
961.80783895398008
 20
336.76936693418236
 11
962.90338153881703
 21
334.87595543277519
  0
LINE
  8
_1-2_極細2
  6
CONTINUOUS
 62
    2
 10
962.90338153881703
 20
334.87595543277519
 11
964.25828715195485
 21
332.75697606383835
  0
LINE
  8
_1-2_極細2
  6
CONTINUOUS
 62
    2
 10
964.25828715195485
 20
332.75697606383835
 11
965.83019537350356
 21
330.46700571434405
  0
LINE
  8
_1-2_極細2
  6
CONTINUOUS
 62
    2
 10
965.83019537350356
 20
330.46700571434405
 11
967.54540787971746
 21
328.06566745894804
  0
LINE
  8
_1-2_極細2
  6
CONTINUOUS
 62
    2
 10
967.54540787971746
 20
328.06566745894804
 11
969.30824619328996
 21
325.61638319453812
  0
LINE
  8
_1-2_極細2
  6
CONTINUOUS
 62
    2
 10
969.30824619328996
 20
325.61638319453812
 11
971.01540373675471
 21
323.18498340890676
  0
LINE
  8
_1-2_極細2
  6
CONTINUOUS
 62
    2
 10
971.01540373675471
 20
323.18498340890676
 11
972.57207491300369
 21
320.83814763219527
  0
LINE
  8
_1-2_極細2
  6
CONTINUOUS
 62
    2
 10
972.57207491300369
 20
320.83814763219527
 11
973.90621256857685
 21
318.64166119045638
  0
LINE
  8
_1-2_極細2
  6
CONTINUOUS
 62
    2
 10
973.90621256857685
 20
318.64166119045638
 11
974.97770681403472
 21
316.65850006464677
  0
LINE
  8
_1-2_極細2
  6
CONTINUOUS
 62
    2
 10
974.97770681403472
 20
316.65850006464677
 11
975.78048709730365
 21
314.94679203656744
  0
LINE
  8
_1-2_極細2
  6
CONTINUOUS
 62
    2
 10
975.78048709730365
 20
314.94679203656744
 11
976.33723510764685
 21
313.55774193794412
  0
LINE
  8
_1-2_極細2
  6
CONTINUOUS
 62
    2
 10
976.33723510764685
 20
313.55774193794412
 11
976.68815309230877
 21
312.53364319228592
  0
LINE
  8
_1-2_極細2
  6
CONTINUOUS
 62
    2
 10
976.68815309230877
 20
312.53364319228592
 11
976.87663783103653
 21
311.90611873736623
  0
LINE
  8
_1-2_極細2
  6
CONTINUOUS
 62
    2
 10
976.87663783103653
 20
311.90611873736623
 11
976.93542678421909
 21
311.69473582315948
  0
LINE
  8
_1-2_極細2
  6
CONTINUOUS
 62
    2
 10
976.93542678421909
 20
311.69473582315948
 11
976.99184693235748
 21
311.48320687196372
  0
LINE
  8
_1-2_極細2
  6
CONTINUOUS
 62
    2
 10
976.99184693235748
 20
311.48320687196372
 11
977.14569199009838
 21
310.85353586651979
  0
LINE
  8
_1-2_極細2
  6
CONTINUOUS
 62
    2
 10
977.14569199009838
 20
310.85353586651979
 11
977.35355009452678
 21
309.82048483265214
  0
LINE
  8
_1-2_極細2
  6
CONTINUOUS
 62
    2
 10
977.35355009452678
 20
309.82048483265214
 11
977.55195753449425
 21
308.40867541984915
  0
LINE
  8
_1-2_極細2
  6
CONTINUOUS
 62
    2
 10
977.55195753449425
 20
308.40867541984915
 11
977.6688991475462
 21
306.65251859844068
  0
LINE
  8
_1-2_極細2
  6
CONTINUOUS
 62
    2
 10
977.6688991475462
 20
306.65251859844068
 11
977.63664690422775
 21
304.59594533928191
  0
LINE
  8
_1-2_極細2
  6
CONTINUOUS
 62
    2
 10
977.63664690422775
 20
304.59594533928191
 11
977.40352662789564
 21
302.29181883588296
  0
LINE
  8
_1-2_極細2
  6
CONTINUOUS
 62
    2
 10
977.40352662789564
 20
302.29181883588296
 11
976.94251176268608
 21
299.80093473319482
  0
LINE
  8
_1-2_極細2
  6
CONTINUOUS
 62
    2
 10
976.94251176268608
 20
299.80093473319482
 11
976.25527227646489
 21
297.19056661971752
  0
LINE
  8
_1-2_極細2
  6
CONTINUOUS
 62
    2
 10
976.25527227646489
 20
297.19056661971752
 11
975.37128317932638
 21
294.53257891132387
  0
LINE
  8
_1-2_極細2
  6
CONTINUOUS
 62
    2
 10
975.37128317932638
 20
294.53257891132387
 11
974.34259742401582
 21
291.90119432980612
  0
LINE
  8
_1-2_極細2
  6
CONTINUOUS
 62
    2
 10
974.34259742401582
 20
291.90119432980612
 11
973.23569102196961
 21
289.37055475145269
  0
LINE
  8
_1-2_極細2
  6
CONTINUOUS
 62
    2
 10
973.23569102196961
 20
289.37055475145269
 11
972.12222631110899
 21
287.01224188742242
  0
LINE
  8
_1-2_極細2
  6
CONTINUOUS
 62
    2
 10
972.12222631110899
 20
287.01224188742242
 11
971.07057571500172
 21
284.89292331562785
  0
LINE
  8
_1-2_極細2
  6
CONTINUOUS
 62
    2
 10
971.07057571500172
 20
284.89292331562785
 11
970.13953268612386
 21
283.07226165779855
  0
LINE
  8
_1-2_極細2
  6
CONTINUOUS
 62
    2
 10
970.13953268612386
 20
283.07226165779855
 11
969.37493459213238
 21
281.60117798470981
  0
LINE
  8
_1-2_極細2
  6
CONTINUOUS
 62
    2
 10
969.37493459213238
 20
281.60117798470981
 11
968.8091228627477
 21
280.52050655252935
  0
LINE
  8
_1-2_極細2
  6
CONTINUOUS
 62
    2
 10
968.8091228627477
 20
280.52050655252935
 11
968.46247291803911
 21
279.86002941980939
  0
LINE
  8
_1-2_極細2
  6
CONTINUOUS
 62
    2
 10
968.46247291803911
 20
279.86002941980939
 11
968.34580929458753
 21
279.63784693427067
  0
LINE
  8
_1-5_寸法2
  6
CONTINUOUS
 62
    7
 10
919.78771121904651
 20
317.65298900872057
 11
984.68330359089884
 21
345.19953365358464
  0
LINE
  8
_1-5_寸法2
  6
CONTINUOUS
 62
    7
 10
981.9217890305415
 20
344.02734026811652
 11
976.38083575261066
 21
351.11943705057695
  0
LINE
  8
_1-5_寸法2
  6
CONTINUOUS
 62
    7
 10
981.9217890305415
 20
344.02734026811652
 11
980.66923112190079
 21
352.93975288679064
  0
LINE
  8
_1-5_寸法2
  6
CONTINUOUS
 62
    7
 10
891.26694823207868
 20
442.42805093473692
 11
935.4511814012501
 21
461.18314518858926
  0
LINE
  8
_1-5_寸法2
  6
CONTINUOUS
 62
    7
 10
932.68966684089298
 20
460.0109518031212
 11
938.23062011882394
 21
452.91885502066077
  0
LINE
  8
_1-5_寸法2
  6
CONTINUOUS
 62
    7
 10
932.68966684089298
 20
460.0109518031212
 11
933.94222474953369
 21
451.09853918444702
  0
LINE
  8
_1-5_寸法2
  6
CONTINUOUS
 62
    7
 10
981.9217890305415
 20
344.02734026811652
 11
932.68966684089298
 21
460.0109518031212
  0
TEXT
  8
_1-5_寸法2
 62
    7
 10
953.78914777931402
 20
410.30368971669077
 40
18
 41
1
 50
-66.999999999999687
  1
42
  0
LINE
  8
_1-5_寸法2
  6
CONTINUOUS
 62
    7
 10
834.06980305201967
 20
419.77884381282536
 11
810.03983861728273
 21
476.38989237708188
  0
LINE
  8
_1-5_寸法2
  6
CONTINUOUS
 62
    7
 10
811.21203200275022
 20
473.62837781672442
 11
818.30412878521076
 21
479.16933109465543
  0
LINE
  8
_1-5_寸法2
  6
CONTINUOUS
 62
    7
 10
811.21203200275022
 20
473.62837781672442
 11
820.12444462142435
 21
474.88093572536502
  0
LINE
  8
_1-5_寸法2
  6
CONTINUOUS
 62
    7
 10
871.59840850295291
 20
450.37465680918433
 11
852.84331430281941
 21
494.55888985183265
  0
LINE
  8
_1-5_寸法2
  6
CONTINUOUS
 62
    7
 10
854.01550768828679
 20
491.79737529147519
 11
846.92341090582647
 21
486.25642201354412
  0
LINE
  8
_1-5_寸法2
  6
CONTINUOUS
 62
    7
 10
854.01550768828679
 20
491.79737529147519
 11
845.10309506961266
 21
490.54481738283454
  0
LINE
  8
_1-5_寸法2
  6
CONTINUOUS
 62
    7
 10
811.21203200275022
 20
473.62837781672442
 11
854.01550768828679
 21
491.79737529147519
  0
TEXT
  8
_1-5_寸法2
 62
    7
 10
816.0446824833748
 20
475.67971624129279
 40
18
 41
1
 50
23.00000000000021
  1
15.5
  0
LINE
  8
_1-5_寸法2
  6
CONTINUOUS
 62
    7
 10
873.77852645470318
 20
426.88526725998179
 11
876.88435499593334
 21
438.47637717545058
  0
LINE
  8
_1-5_寸法2
  6
CONTINUOUS
 62
    7
 10
873.77852645470318
 20
426.88526725998179
 11
882.26380782894171
 21
435.37054863422031
  0
LINE
  8
_1-5_寸法2
  6
CONTINUOUS
 62
    7
 10
873.77852645470318
 20
426.88526725998179
 11
900.47601083208997
 21
473.12666663589249
  0
LINE
  8
_1-5_寸法2
  6
CONTINUOUS
 62
    7
 10
900.47601083208997
 20
473.12666663589249
 11
1015.6760108320901
 21
473.12666663589249
  0
TEXT
  8
_1-5_寸法2
 62
    7
 10
900.47601083208997
 20
473.12666663589249
 40
18
 41
0.7999999999999998
 50
0
  1
ボルトカバー金具
  0
LINE
  8
_1-5_寸法2
  6
CONTINUOUS
 62
    7
 10
815.10406601829322
 20
331.516161353852
 11
808.05464138067362
 21
341.22726902901047
  0
LINE
  8
_1-5_寸法2
  6
CONTINUOUS
 62
    7
 10
815.10406601829322
 20
331.516161353852
 11
813.85463903763002
 21
343.45093961823505
  0
LINE
  8
_1-5_寸法2
  6
CONTINUOUS
 62
    7
 10
815.10406601829322
 20
331.516161353852
 11
782.24153602659442
 21
417.23146373592579
  0
LINE
  8
_1-5_寸法2
  6
CONTINUOUS
 62
    7
 10
782.24153602659442
 20
417.23146373592579
 11
681.44153602659458
 21
417.23146373592579
  0
TEXT
  8
_1-5_寸法2
 62
    7
 10
681.44153602659458
 20
417.23146373592579
 40
18
 41
0.7999999999999998
 50
0
  1
スタッドボルト
  0
LINE
  8
_1-2_極細2
  6
CENTER1
 62
    2
 10
876.65467185760781
 20
322.08301489334599
 11
905.38707240642179
 21
322.08301489334599
  0
LINE
  8
_1-2_極細2
  6
CENTER1
 62
    2
 10
891.83462782455217
 20
307.08054724552449
 11
891.83462782455217
 21
336.64326024671209
  0
CIRCLE
  8
_1-2_極細2
  6
CONTINUOUS
 62
    2
 10
891.83462782455217
 20
322.08301498762398
 40
10.350000000000001
  0
CIRCLE
  8
_1-3_細線2
  6
CONTINUOUS
 62
    4
 10
891.83462782455217
 20
322.08301498762398
 40
10.800000000000001
  0
LINE
  8
_1-2_極細2
  6
DASHED2
 62
    2
 10
847.57892725101237
 20
301.51616135385166
 11
977.25996730727479
 21
301.51616135385166
  0
LINE
  8
_1-2_極細2
  6
DASHED2
 62
    2
 10
847.57892725101237
 20
292.51616135385166
 11
974.58300615106589
 21
292.51616135385166
  0
ARC
  8
_1-2_極細2
  6
CONTINUOUS
 62
    2
 10
768.07892725101328
 20
301.51616135385166
 40
9.0000000000000018
 50
179.99999999999983
 51
269.99999999999977
  0
LINE
  8
_1-2_極細2
  6
CONTINUOUS
 62
    2
 10
759.0789272510134
 20
301.51616135385166
 11
759.0789272510134
 21
360.01616135385166
  0
LINE
  8
_1-2_極細2
  6
CONTINUOUS
 62
    2
 10
849.07892725101328
 20
294.01616135385166
 11
847.57892725101237
 21
292.51616135385166
  0
LINE
  8
_1-2_極細2
  6
CONTINUOUS
 62
    2
 10
849.07892725101328
 20
300.01616135385166
 11
849.07892725101328
 21
294.01616135385166
  0
LINE
  8
_1-2_極細2
  6
CONTINUOUS
 62
    2
 10
847.57892725101237
 20
301.51616135385166
 11
849.07892725101328
 21
300.01616135385166
  0
LINE
  8
_1-2_極細2
  6
CONTINUOUS
 62
    2
 10
760.5789272510134
 20
361.51616135385166
 11
759.0789272510134
 21
360.01616135385166
  0
LINE
  8
_1-2_極細2
  6
CONTINUOUS
 62
    2
 10
766.5789272510134
 20
361.51616135385166
 11
760.5789272510134
 21
361.51616135385166
  0
LINE
  8
_1-2_極細2
  6
CONTINUOUS
 62
    2
 10
768.07892725101328
 20
360.01616135385166
 11
766.5789272510134
 21
361.51616135385166
  0
LINE
  8
_1-2_極細2
  6
CONTINUOUS
 62
    2
 10
768.07892725101328
 20
301.51616135385166
 11
768.07892725101328
 21
360.01616135385166
  0
LINE
  8
_1-2_極細2
  6
CONTINUOUS
 62
    2
 10
768.07892725101328
 20
301.51616135385166
 11
847.57892725101237
 21
301.51616135385166
  0
LINE
  8
_1-2_極細2
  6
CONTINUOUS
 62
    2
 10
768.07892725101328
 20
292.51616135385166
 11
847.57892725101237
 21
292.51616135385166
  0
LINE
  8
_0-7_枠細線
  6
CONTINUOUS
 62
    5
 10
1610.375456919061
 20
494.76240208876453
 11
1610.375456919061
 21
368.76240208876516
  0
TEXT
  8
_0-7_枠細線
 62
    5
 10
1501.1754569190621
 20
470.76240208876453
 40
18.000000000000004
 41
0.8
 50
0
  1
ノンスリップ
  0
LINE
  8
_0-7_枠細線
  6
CONTINUOUS
 62
    5
 10
1490.2887069244684
 20
407.46572806905453
 11
1604.145290913084
 21
407.46572806905453
  0
LINE
  8
_0-7_枠細線
  6
CONTINUOUS
 62
    5
 10
1485.8064749249161
 20
427.46572806705461
 11
1599.6630589135318
 21
427.46572806705461
  0
ARC
  8
_0-7_枠細線
  6
CONTINUOUS
 62
    5
 10
1503.3754569231605
 20
413.46572806845444
 40
3.9999999996000004
 50
51.3178130000096
 51
203.57817800000151
  0
ARC
  8
_0-7_枠細線
  6
CONTINUOUS
 62
    5
 10
1508.3754569226603
 20
419.71072606783008
 40
3.9999999996000004
 50
231.31781300000162
 51
308.68218699999511
  0
LINE
  8
_0-7_枠細線
  6
CONTINUOUS
 62
    5
 10
1499.709396923527
 20
411.86572806861449
 11
1517.0415169217931
 21
411.86572806861449
  0
ARC
  8
_0-7_枠細線
  6
CONTINUOUS
 62
    5
 10
1513.3754569221605
 20
413.46572806845444
 40
3.9999999996000004
 50
336.42182199999388
 51
128.68218699999767
  0
ARC
  8
_0-7_枠細線
  6
CONTINUOUS
 62
    5
 10
1539.3754569195601
 20
421.46572806765448
 40
3.9999999996000004
 50
156.42182199999607
 51
308.68218699999818
  0
ARC
  8
_0-7_枠細線
  6
CONTINUOUS
 62
    5
 10
1544.3754569190601
 20
415.2207300682789
 40
3.9999999996000004
 50
51.317813000007057
 51
128.68218699999801
  0
ARC
  8
_0-7_枠細線
  6
CONTINUOUS
 62
    5
 10
1549.3754569185605
 20
421.46572806765448
 40
3.9999999996000004
 50
231.31781299999602
 51
23.578178000004865
  0
LINE
  8
_0-7_枠細線
  6
CONTINUOUS
 62
    5
 10
1535.7093969199277
 20
423.06572806749449
 11
1553.0415169181927
 21
423.06572806749449
  0
LINE
  8
_0-7_枠細線
  6
CONTINUOUS
 62
    5
 10
1571.7093969163275
 20
411.86572806861449
 11
1589.0415169145936
 21
411.86572806861449
  0
ARC
  8
_0-7_枠細線
  6
CONTINUOUS
 62
    5
 10
1575.3754569159598
 20
413.46572806845444
 40
3.9999999996000004
 50
51.317813000001969
 51
203.57817800000151
  0
ARC
  8
_0-7_枠細線
  6
CONTINUOUS
 62
    5
 10
1580.3754569154601
 20
419.71072606783008
 40
3.9999999996000004
 50
231.31781299999653
 51
308.68218699999767
  0
ARC
  8
_0-7_枠細線
  6
CONTINUOUS
 62
    5
 10
1585.3754569149603
 20
413.46572806845444
 40
3.9999999996000004
 50
336.42182199999519
 51
128.68218700000276
  0
ARC
  8
_0-7_枠細線
  6
CONTINUOUS
 62
    5
 10
1539.3754569195601
 20
421.46572806765448
 40
7.4599999992540358
 50
151.14636799999553
 51
308.68218700000631
  0
LINE
  8
_0-7_枠細線
  6
CONTINUOUS
 62
    5
 10
1485.3669509249612
 20
425.06572806729446
 11
1532.8415769202124
 21
425.06572806729446
  0
LINE
  8
_0-7_枠細線
  6
CONTINUOUS
 62
    5
 10
1519.9093389215063
 20
409.86572806881463
 11
1568.8415769166147
 21
409.86572806881463
  0
ARC
  8
_0-7_枠細線
  6
CONTINUOUS
 62
    5
 10
1480.4399349254541
 20
410.50963406874996
 40
10.308427998969092
 50
317.56162899999958
 51
42.438371000002093
  0
ARC
  8
_0-7_枠細線
  6
CONTINUOUS
 62
    5
 10
1503.3754569231605
 20
413.46572806845444
 40
7.4599999992540358
 50
51.317812999993329
 51
208.85363199999702
  0
ARC
  8
_0-7_枠細線
  6
CONTINUOUS
 62
    5
 10
1495.655248923932
 20
424.42182206735902
 40
10.308427998969092
 50
137.56162899999995
 51
222.4383710000011
  0
LINE
  8
_0-7_枠細線
  6
CONTINUOUS
 62
    5
 10
1490.7282329244249
 20
409.86572806881463
 11
1496.8415769238127
 21
409.86572806881463
  0
ARC
  8
_0-7_枠細線
  6
CONTINUOUS
 62
    5
 10
1508.3754569226603
 20
419.71072606783008
 40
0.5399999999459634
 50
231.31781300002677
 51
308.68218700001017
  0
ARC
  8
_0-7_枠細線
  6
CONTINUOUS
 62
    5
 10
1513.3754569221605
 20
413.46572806845444
 40
7.4599999992540358
 50
331.14636800000056
 51
128.68218700000631
  0
ARC
  8
_0-7_枠細線
  6
CONTINUOUS
 62
    5
 10
1594.2965189140689
 20
410.50963406874996
 40
10.308427998969092
 50
317.56162899999788
 51
42.438371000002093
  0
ARC
  8
_0-7_枠細線
  6
CONTINUOUS
 62
    5
 10
1609.5118329125476
 20
424.42182206735902
 40
10.308427998969092
 50
137.56162900000166
 51
222.43837099999939
  0
LINE
  8
_0-7_枠細線
  6
CONTINUOUS
 62
    5
 10
1591.9093389143061
 20
409.86572806881463
 11
1604.5848169130404
 21
409.86572806881463
  0
LINE
  8
_0-7_枠細線
  6
CONTINUOUS
 62
    5
 10
1555.9093389179063
 20
425.06572806729446
 11
1599.223534913576
 21
425.06572806729446
  0
ARC
  8
_0-7_枠細線
  6
CONTINUOUS
 62
    5
 10
1575.3754569159598
 20
413.46572806845444
 40
7.4599999992540358
 50
51.317812999990608
 51
208.85363200000666
  0
ARC
  8
_0-7_枠細線
  6
CONTINUOUS
 62
    5
 10
1544.3754569190601
 20
415.2207300682789
 40
0.5399999999459634
 50
51.317812999989442
 51
128.68218699997288
  0
ARC
  8
_0-7_枠細線
  6
CONTINUOUS
 62
    5
 10
1549.3754569185605
 20
421.46572806765448
 40
7.4599999992540358
 50
231.31781299998752
 51
28.853631999997937
  0
ARC
  8
_0-7_枠細線
  6
CONTINUOUS
 62
    5
 10
1580.3754569154601
 20
419.71072606783008
 40
0.5399999999459634
 50
231.31781300002677
 51
308.68218699997254
  0
ARC
  8
_0-7_枠細線
  6
CONTINUOUS
 62
    5
 10
1585.3754569149603
 20
413.46572806845444
 40
7.4599999992540358
 50
331.14636800000056
 51
128.68218700000904
  0
LINE
  8
_0-7_枠細線
  6
CENTER1
 62
    5
 10
1508.3754569226603
 20
429.14547406688627
 11
1508.3754569226603
 21
405.92769606920837
  0
LINE
  8
_0-7_枠細線
  6
CENTER1
 62
    5
 10
1580.3754569154601
 20
429.14547406688627
 11
1580.3754569154601
 21
405.92769606920837
  0
LINE
  8
_0-7_枠細線
  6
CENTER1
 62
    5
 10
1544.3754569190601
 20
429.14547406688627
 11
1544.3754569190601
 21
405.92769606920837
  0
LINE
  8
_0-7_枠細線
  6
CONTINUOUS
 62
    5
 10
1508.3754569226603
 20
401.46572806905453
 11
1508.3754569226603
 21
371.46572806905442
  0
LINE
  8
_0-7_枠細線
  6
CONTINUOUS
 62
    5
 10
1508.3754569226603
 20
377.46572806905442
 11
1519.9665668381292
 21
380.57155661028474
  0
LINE
  8
_0-7_枠細線
  6
CONTINUOUS
 62
    5
 10
1508.3754569226603
 20
377.46572806905442
 11
1519.9665668381292
 21
374.35989952782421
  0
LINE
  8
_0-7_枠細線
  6
CONTINUOUS
 62
    5
 10
1544.3754569190601
 20
401.46572806905453
 11
1544.3754569190601
 21
371.46572806905442
  0
LINE
  8
_0-7_枠細線
  6
CONTINUOUS
 62
    5
 10
1544.3754569190601
 20
377.46572806905442
 11
1532.7843470035912
 21
374.35989952782427
  0
LINE
  8
_0-7_枠細線
  6
CONTINUOUS
 62
    5
 10
1544.3754569190601
 20
377.46572806905442
 11
1532.7843470035912
 21
380.57155661028474
  0
LINE
  8
_0-7_枠細線
  6
CONTINUOUS
 62
    5
 10
1508.3754569226603
 20
377.46572806905442
 11
1544.3754569190601
 21
377.46572806905442
  0
TEXT
  8
_0-7_枠細線
 62
    5
 10
1517.37545692086
 20
377.46572806905442
 40
18
 41
1
 50
0
  1
18
  0
LINE
  8
_0-7_枠細線
  6
CONTINUOUS
 62
    5
 10
1544.3754569190601
 20
377.46572806905442
 11
1555.9665668345287
 21
380.57155661028457
  0
LINE
  8
_0-7_枠細線
  6
CONTINUOUS
 62
    5
 10
1544.3754569190601
 20
377.46572806905442
 11
1555.9665668345287
 21
374.35989952782415
  0
LINE
  8
_0-7_枠細線
  6
CONTINUOUS
 62
    5
 10
1580.3754569154601
 20
401.46572806905453
 11
1580.3754569154601
 21
371.46572806905442
  0
LINE
  8
_0-7_枠細線
  6
CONTINUOUS
 62
    5
 10
1580.3754569154601
 20
377.46572806905442
 11
1568.7843469999912
 21
374.35989952782427
  0
LINE
  8
_0-7_枠細線
  6
CONTINUOUS
 62
    5
 10
1580.3754569154601
 20
377.46572806905442
 11
1568.7843469999912
 21
380.57155661028474
  0
LINE
  8
_0-7_枠細線
  6
CONTINUOUS
 62
    5
 10
1544.3754569190601
 20
377.46572806905442
 11
1580.3754569154601
 21
377.46572806905442
  0
TEXT
  8
_0-7_枠細線
 62
    5
 10
1553.3754569172606
 20
377.46572806905442
 40
18
 41
1
 50
0
  1
18
  0
TEXT
  8
_0-7_枠細線
 62
    5
 10
1515.5754569190615
 20
440.7624020887647
 40
18.000000000000004
 41
0.7999999999999997
 50
0
  1
品番－Ｄ
  0
LINE
  8
_0-7_枠細線
  6
CONTINUOUS
 62
    5
 10
1478.3754569190605
 20
494.76240208876453
 11
1478.3754569190605
 21
368.76240208876516
  0
TEXT
  8
_0-7_枠細線
 62
    5
 10
1383.5754569190603
 20
470.7624020887647
 40
18.000000000000004
 41
0.8
 50
0
  1
プレーン
  0
LINE
  8
_0-7_枠細線
  6
CONTINUOUS
 62
    5
 10
1357.6882799245286
 20
407.46572806905453
 11
1471.5448639131437
 21
407.46572806905453
  0
LINE
  8
_0-7_枠細線
  6
CONTINUOUS
 62
    5
 10
1353.2060479249762
 20
427.46572806705461
 11
1467.0626319135922
 21
427.46572806705461
  0
ARC
  8
_0-7_枠細線
  6
CONTINUOUS
 62
    5
 10
1461.6960919141279
 20
410.50963406874996
 40
10.308427998969092
 50
317.56162900000442
 51
42.438370999996032
  0
ARC
  8
_0-7_枠細線
  6
CONTINUOUS
 62
    5
 10
1347.8395079255138
 20
410.50963406874996
 40
10.308427998969206
 50
317.56162900000129
 51
42.438370999999393
  0
LINE
  8
_0-7_枠細線
  6
CONTINUOUS
 62
    5
 10
1352.7665239250209
 20
425.06572806729446
 11
1466.6231079136369
 21
425.06572806729446
  0
LINE
  8
_0-7_枠細線
  6
CONTINUOUS
 62
    5
 10
1358.1278059244851
 20
409.86572806881463
 11
1471.9843899131001
 21
409.86572806881463
  0
ARC
  8
_0-7_枠細線
  6
CONTINUOUS
 62
    5
 10
1363.0548219239936
 20
424.42182206735902
 40
10.308427998969206
 50
137.56162900000166
 51
222.4383710000028
  0
ARC
  8
_0-7_枠細線
  6
CONTINUOUS
 62
    5
 10
1476.9114059126073
 20
424.42182206735902
 40
10.308427998969092
 50
137.56162899999995
 51
222.4383710000028
  0
TEXT
  8
_0-7_枠細線
 62
    5
 10
1383.5754569190617
 20
440.7624020887647
 40
18.000000000000004
 41
0.7999999999999997
 50
0
  1
品番－Ｆ
  0
TEXT
  8
_0-7_枠細線
 62
    5
 10
1287.5754569190606
 20
470.76240208876453
 40
18.000000000000004
 41
0.8
 50
0
  1
タ イ プ
  0
LINE
  8
_0-7_枠細線
  6
CONTINUOUS
 62
    5
 10
1286.3754569190601
 20
434.7624020887647
 11
1610.375456919061
 21
434.7624020887647
  0
LINE
  8
_0-7_枠細線
  6
CONTINUOUS
 62
    5
 10
1286.3754569190601
 20
464.76240208876453
 11
1610.375456919061
 21
464.76240208876453
  0
LINE
  8
_0-7_枠細線
  6
CONTINUOUS
 62
    5
 10
1286.3754569190601
 20
494.76240208876453
 11
1610.375456919061
 21
494.76240208876453
  0
LINE
  8
_0-7_枠細線
  6
CONTINUOUS
 62
    5
 10
1286.3754569190601
 20
368.76240208876516
 11
1610.375456919061
 21
368.76240208876516
  0
LINE
  8
_0-7_枠細線
  6
CONTINUOUS
 62
    5
 10
1346.375456919061
 20
494.76240208876453
 11
1346.375456919061
 21
368.76240208876516
  0
LINE
  8
_0-7_枠細線
  6
CONTINUOUS
 62
    5
 10
1286.3754569190601
 20
494.76240208876453
 11
1286.3754569190601
 21
368.76240208876516
  0
TEXT
  8
_0-7_枠細線
 62
    5
 10
1287.5754569190606
 20
392.76240208876487
 40
18.000000000000004
 41
0.8
 50
0
  1
表面形状
  0
TEXT
  8
_0-7_枠細線
 62
    5
 10
1295.7045105280336
 20
497.7624020887647
 40
21.000000000000004
 41
0.7999999999999997
 50
0
  1
記号表
  0
TEXT
  8
_0-7_枠細線
 62
    5
 10
1287.5754569190606
 20
440.76240208876487
 40
18.000000000000004
 41
0.8
 50
0
  1
記　　号
  0
TEXT
  8
_0-5_寸法線
 62
    7
 10
672.81478830032177
 20
933.66296666843527
 40
24
 41
1
 50
0
  1
Ａ’
  0
TEXT
  8
_0-5_寸法線
 62
    7
 10
672.74609732910608
 20
812.52552227181718
 40
24
 41
1
 50
0
  1
Ａ
  0
LINE
  8
_0-7_枠細線
  6
CONTINUOUS
 62
    5
 10
1710
 20
1131
 11
1068
 21
1131
  0
TEXT
  8
_0-7_枠細線
 62
    5
 10
1074
 20
1133.9999999999995
 40
15
 41
1
 50
0
  1
記号
  0
TEXT
  8
_0-7_枠細線
 62
    5
 10
1196.25
 20
1134
 40
15
 41
1
 50
0
  1
訂　 正　 記　 事
  0
TEXT
  8
_0-7_枠細線
 62
    5
 10
1417.5
 20
1134
 40
15
 41
1
 50
0
  1
訂 正 年 月 日
  0
TEXT
  8
_0-7_枠細線
 62
    5
 10
1567.5
 20
1134
 40
15
 41
1
 50
0
  1
備　　　　　考
  0
LINE
  8
_0-7_枠細線
  6
CONTINUOUS
 62
    5
 10
1710
 20
1110
 11
1068
 21
1110
  0
LINE
  8
_0-7_枠細線
  6
CONTINUOUS
 62
    5
 10
1068
 20
1110
 11
1068
 21
1151.9999999999993
  0
LINE
  8
_0-7_枠細線
  6
CONTINUOUS
 62
    5
 10
1110
 20
1110
 11
1110
 21
1151.9999999999993
  0
LINE
  8
_0-7_枠細線
  6
CONTINUOUS
 62
    5
 10
1410
 20
1110
 11
1410
 21
1152
  0
LINE
  8
_0-7_枠細線
  6
CONTINUOUS
 62
    5
 10
1530
 20
1110
 11
1530
 21
1151.9999999999993
  0
LINE
  8
_0-7_枠細線
  6
CONTINUOUS
 62
    5
 10
1098
 20
1111.7308007660963
 11
1089
 21
1129.7308007660963
  0
LINE
  8
_0-7_枠細線
  6
CONTINUOUS
 62
    5
 10
1080
 20
1111.7308007660963
 11
1098
 21
1111.7308007660963
  0
LINE
  8
_0-7_枠細線
  6
CONTINUOUS
 62
    5
 10
1089
 20
1129.7308007660963
 11
1080
 21
1111.7308007660963
  0
TEXT
  8
_0-7_枠細線
 62
    5
 10
1082.8381815217776
 20
1111.3623980716397
 40
15
 41
0.8
 50
0
  1
１
  0
TEXT
  8
_0-7_枠細線
 62
    5
 10
1416
 20
1113
 40
15
 41
0.7199999999999999
 50
0
  1
２０１９．０９．０１
  0
TEXT
  8
_0-7_枠細線
 62
    5
 10
1126.6204444444443
 20
1113
 40
15.000000000000004
 41
1
 50
0
  1
アンカー材質･厚み変更
  0
LINE
  8
_0-1_計細線
  6
CONTINUOUS
 62
    3
 10
1419.7763929071748
 20
845.36050324292034
 11
1419.7763929071748
 21
843.06050324292039
  0
LINE
  8
_0-1_計細線
  6
CONTINUOUS
 62
    3
 10
1419.7763929071748
 20
843.06050324292039
 11
1454.7763929071739
 21
843.06050324292039
  0
LINE
  8
_0-1_計細線
  6
CONTINUOUS
 62
    3
 10
1454.7763929071739
 20
843.06050324292039
 11
1454.7763929071739
 21
845.36050324292034
  0
LINE
  8
_0-1_計細線
  6
CONTINUOUS
 62
    3
 10
1454.7763929071739
 20
845.36050324292034
 11
1419.7763929071748
 21
845.36050324292034
  0
LINE
  8
_0-0_計極細
  6
CONTINUOUS
 62
    2
 10
1421.7763929071748
 20
843.06050324292039
 11
1421.7763929071748
 21
845.36050324292034
  0
LINE
  8
_0-0_計極細
  6
CONTINUOUS
 62
    2
 10
1433.7763929071748
 20
843.06050324292039
 11
1433.7763929071748
 21
845.36050324292034
  0
LINE
  8
_0-0_計極細
  6
CONTINUOUS
 62
    2
 10
1435.7763929071739
 20
843.06050324292039
 11
1435.7763929071739
 21
845.36050324292034
  0
LINE
  8
_0-0_計極細
  6
CONTINUOUS
 62
    2
 10
1437.7763929071739
 20
843.06050324292039
 11
1437.7763929071739
 21
845.36050324292034
  0
LINE
  8
_0-0_計極細
  6
CONTINUOUS
 62
    2
 10
1451.7763929071739
 20
843.06050324292039
 11
1451.7763929071739
 21
845.36050324292034
  0
LINE
  8
_0-0_計極細
  6
CONTINUOUS
 62
    2
 10
1431.7763929071748
 20
843.06050324292039
 11
1431.7763929071748
 21
845.36050324292034
  0
LINE
  8
_0-1_計細線
  6
CONTINUOUS
 62
    3
 10
1419.7763929071748
 20
929.66050324292007
 11
1419.7763929071748
 21
927.36050324292012
  0
LINE
  8
_0-1_計細線
  6
CONTINUOUS
 62
    3
 10
1419.7763929071748
 20
927.36050324292012
 11
1454.7763929071739
 21
927.36050324292012
  0
LINE
  8
_0-1_計細線
  6
CONTINUOUS
 62
    3
 10
1454.7763929071739
 20
927.36050324292012
 11
1454.7763929071739
 21
929.66050324292007
  0
LINE
  8
_0-1_計細線
  6
CONTINUOUS
 62
    3
 10
1454.7763929071739
 20
929.66050324292007
 11
1419.7763929071748
 21
929.66050324292007
  0
LINE
  8
_0-0_計極細
  6
CONTINUOUS
 62
    2
 10
1421.7763929071748
 20
927.36050324292012
 11
1421.7763929071748
 21
929.66050324292007
  0
LINE
  8
_0-0_計極細
  6
CONTINUOUS
 62
    2
 10
1433.7763929071748
 20
927.36050324292012
 11
1433.7763929071748
 21
929.66050324292007
  0
LINE
  8
_0-0_計極細
  6
CONTINUOUS
 62
    2
 10
1435.7763929071739
 20
927.36050324292012
 11
1435.7763929071739
 21
929.66050324292007
  0
LINE
  8
_0-0_計極細
  6
CONTINUOUS
 62
    2
 10
1437.7763929071739
 20
927.36050324292012
 11
1437.7763929071739
 21
929.66050324292007
  0
LINE
  8
_0-0_計極細
  6
CONTINUOUS
 62
    2
 10
1451.7763929071739
 20
927.36050324292012
 11
1451.7763929071739
 21
929.66050324292007
  0
LINE
  8
_0-0_計極細
  6
CONTINUOUS
 62
    2
 10
1431.7763929071748
 20
927.36050324292012
 11
1431.7763929071748
 21
929.66050324292007
  0
LINE
  8
_0-7_枠細線
  6
CONTINUOUS
 62
    5
 10
1478.4990253411306
 20
929.51050465670369
 11
1469.4990253411306
 21
947.51050465670369
  0
LINE
  8
_0-7_枠細線
  6
CONTINUOUS
 62
    5
 10
1460.4990253411306
 20
929.51050465670369
 11
1478.4990253411306
 21
929.51050465670369
  0
LINE
  8
_0-7_枠細線
  6
CONTINUOUS
 62
    5
 10
1469.4990253411306
 20
947.51050465670369
 11
1460.4990253411306
 21
929.51050465670369
  0
TEXT
  8
_0-7_枠細線
 62
    5
 10
1463.3372068629083
 20
929.14210196224712
 40
15
 41
0.8
 50
0
  1
１
  0
LINE
  8
_0-5_寸法線
  6
CONTINUOUS
 62
    7
 10
338.31304121194586
 20
939.36031331592721
 11
338.31304121194603
 21
1035.3603133159272
  0
LINE
  8
_0-5_寸法線
  6
CONTINUOUS
 62
    7
 10
338.31304121194603
 20
1029.3603133159272
 11
349.90415112741482
 21
1032.4661418571575
  0
LINE
  8
_0-5_寸法線
  6
CONTINUOUS
 62
    7
 10
338.31304121194603
 20
1029.3603133159272
 11
349.90415112741482
 21
1026.2544847746967
  0
LINE
  8
_0-5_寸法線
  6
CONTINUOUS
 62
    7
 10
1218.3130412119458
 20
939.36031331592721
 11
1218.313041211946
 21
1035.3603133159272
  0
LINE
  8
_0-5_寸法線
  6
CONTINUOUS
 62
    7
 10
1218.313041211946
 20
1029.3603133159272
 11
1206.7219312964771
 21
1026.2544847746967
  0
LINE
  8
_0-5_寸法線
  6
CONTINUOUS
 62
    7
 10
1218.313041211946
 20
1029.3603133159272
 11
1206.7219312964771
 21
1032.4661418571575
  0
LINE
  8
_0-5_寸法線
  6
CONTINUOUS
 62
    7
 10
338.31304121194603
 20
1029.3603133159272
 11
1218.313041211946
 21
1029.3603133159272
  0
TEXT
  8
_0-5_寸法線
 62
    7
 10
764.81304121194603
 20
1029.3603133159272
 40
18
 41
1
 50
0
  1
880
  0
LINE
  8
_0-5_寸法線
  6
CONTINUOUS
 62
    7
 10
1408.7763929071748
 20
939.36050324292046
 11
1408.7763929071748
 21
1035.3603133159272
  0
LINE
  8
_0-5_寸法線
  6
CONTINUOUS
 62
    7
 10
1408.7763929071748
 20
1029.3603133159272
 11
1420.3675028226439
 21
1032.4661418571575
  0
LINE
  8
_0-5_寸法線
  6
CONTINUOUS
 62
    7
 10
1408.7763929071748
 20
1029.3603133159272
 11
1420.3675028226439
 21
1026.2544847746967
  0
LINE
  8
_0-5_寸法線
  6
CONTINUOUS
 62
    7
 10
1454.7763929071739
 20
941.66050324292007
 11
1454.7763929071739
 21
1035.3603133159272
  0
LINE
  8
_0-5_寸法線
  6
CONTINUOUS
 62
    7
 10
1454.7763929071739
 20
1029.3603133159272
 11
1443.1852829917052
 21
1026.2544847746967
  0
LINE
  8
_0-5_寸法線
  6
CONTINUOUS
 62
    7
 10
1454.7763929071739
 20
1029.3603133159272
 11
1443.1852829917052
 21
1032.4661418571575
  0
LINE
  8
_0-5_寸法線
  6
CONTINUOUS
 62
    7
 10
1408.7763929071748
 20
1029.3603133159272
 11
1454.7763929071739
 21
1029.3603133159272
  0
TEXT
  8
_0-5_寸法線
 62
    7
 10
1422.7763929071743
 20
1029.3603133159272
 40
18
 41
1
 50
0
  1
46
  0
LINE
  8
_0-5_寸法線
  6
CONTINUOUS
 62
    7
 10
1408.7763929071748
 20
939.36050324292046
 11
1408.7763929071748
 21
993.36031331592721
  0
LINE
  8
_0-5_寸法線
  6
CONTINUOUS
 62
    7
 10
1408.7763929071748
 20
987.36031331592721
 11
1397.1852829917057
 21
984.25448477469695
  0
LINE
  8
_0-5_寸法線
  6
CONTINUOUS
 62
    7
 10
1408.7763929071748
 20
987.36031331592721
 11
1397.1852829917057
 21
990.46614185715748
  0
LINE
  8
_0-5_寸法線
  6
CONTINUOUS
 62
    7
 10
1431.7763929071748
 20
941.66050324292007
 11
1431.7763929071748
 21
993.36031331592721
  0
CIRCLE
  8
_0-5_寸法線
  6
CONTINUOUS
 62
    1
 10
1431.7763929071748
 20
987.36031331592721
 40
1.7999999999999996
  0
LINE
  8
_0-5_寸法線
  6
CONTINUOUS
 62
    7
 10
1371.2391333069108
 20
987.36031331592721
 11
1431.7763929071748
 21
987.36031331592721
  0
TEXT
  8
_0-5_寸法線
 62
    7
 10
1371.2391333069108
 20
987.36031331592721
 40
18
 41
1
 50
0
  1
23
  0
LINE
  8
_0-5_寸法線
  6
CONTINUOUS
 62
    7
 10
1454.7763929071739
 20
941.66050324292007
 11
1454.7763929071739
 21
993.36031331592721
  0
LINE
  8
_0-5_寸法線
  6
CONTINUOUS
 62
    7
 10
1454.7763929071739
 20
987.36031331592721
 11
1466.3675028226428
 21
990.46614185715725
  0
LINE
  8
_0-5_寸法線
  6
CONTINUOUS
 62
    7
 10
1454.7763929071739
 20
987.36031331592721
 11
1466.3675028226428
 21
984.25448477469683
  0
LINE
  8
_0-5_寸法線
  6
CONTINUOUS
 62
    7
 10
1431.7763929071748
 20
987.36031331592721
 11
1491.6357510899734
 21
987.36031331592721
  0
TEXT
  8
_0-5_寸法線
 62
    7
 10
1473.6357510899734
 20
987.36031331592721
 40
18
 41
1
 50
0
  1
23
  0
LINE
  8
_0-1_計細線
  6
CONTINUOUS
 62
    3
 10
382.31304143616092
 20
672.36031331592721
 11
380.31304143616092
 21
670.36031331592721
  0
LINE
  8
_0-1_計細線
  6
CONTINUOUS
 62
    3
 10
380.31304143616092
 20
660.36031331592721
 11
380.31304143616092
 21
670.36031331592721
  0
LINE
  8
_0-1_計細線
  6
CONTINUOUS
 62
    3
 10
396.31304112999953
 20
670.36031331592721
 11
394.31304112999948
 21
672.36031331592721
  0
LINE
  8
_0-1_計細線
  6
CONTINUOUS
 62
    3
 10
396.31304112999953
 20
660.36031331592721
 11
396.31304112999953
 21
670.36031331592721
  0
LINE
  8
_0-1_計細線
  6
CONTINUOUS
 62
    3
 10
382.31304143616092
 20
656.36031331592721
 11
380.31304143616092
 21
654.36031331592721
  0
LINE
  8
_0-1_計細線
  6
CONTINUOUS
 62
    3
 10
382.31304143616092
 20
658.36031331592721
 11
382.31304143616092
 21
656.36031331592721
  0
LINE
  8
_0-1_計細線
  6
CONTINUOUS
 62
    3
 10
380.31304143616092
 20
660.36031331592721
 11
382.31304143616092
 21
658.36031331592721
  0
LINE
  8
_0-1_計細線
  6
CONTINUOUS
 62
    3
 10
394.31304112999948
 20
656.36031331592721
 11
396.31304112999953
 21
654.36031331592721
  0
LINE
  8
_0-1_計細線
  6
CONTINUOUS
 62
    3
 10
394.31304112999948
 20
658.36031331592721
 11
394.31304112999948
 21
656.36031331592721
  0
LINE
  8
_0-1_計細線
  6
CONTINUOUS
 62
    3
 10
396.31304112999953
 20
660.36031331592721
 11
394.31304112999948
 21
658.36031331592721
  0
LINE
  8
_0-1_計細線
  6
CONTINUOUS
 62
    3
 10
380.31304143616092
 20
654.36031331592721
 11
380.31304143616092
 21
640.36031331592721
  0
ARC
  8
_0-1_計細線
  6
CONTINUOUS
 62
    3
 10
383.31304143616092
 20
640.36031331592721
 40
3
 50
179.99999999999983
 51
269.99999999999977
  0
LINE
  8
_0-1_計細線
  6
CONTINUOUS
 62
    3
 10
383.31304143616092
 20
637.36031331592721
 11
393.31304112999953
 21
637.36031331592721
  0
LINE
  8
_0-1_計細線
  6
CONTINUOUS
 62
    3
 10
396.31304112999953
 20
654.36031331592721
 11
396.31304112999953
 21
640.36031331592721
  0
ARC
  8
_0-1_計細線
  6
CONTINUOUS
 62
    3
 10
393.31304112999953
 20
640.36031331592721
 40
3
 50
269.99999999999977
 51
359.99999999999966
  0
LINE
  8
_0-0_計極細
  6
CENTER1
 62
    2
 10
388.31304121194592
 20
684.00168718131499
 11
388.31304121194592
 21
628.73156934507188
  0
LINE
  8
_0-1_計細線
  6
CONTINUOUS
 62
    3
 10
382.31304143616092
 20
672.36031331592721
 11
394.31304112999948
 21
672.36031331592721
  0
LINE
  8
_0-5_寸法線
  6
CONTINUOUS
 62
    7
 10
1230.3130412119458
 20
660.3603133159271
 11
1284.3130411607458
 21
660.36031331592653
  0
LINE
  8
_0-5_寸法線
  6
CONTINUOUS
 62
    7
 10
1278.3130411607458
 20
660.36031331592665
 11
1275.2072126195155
 21
671.95142323139544
  0
LINE
  8
_0-5_寸法線
  6
CONTINUOUS
 62
    7
 10
1278.3130411607458
 20
660.36031331592665
 11
1281.4188697019758
 21
671.95142323139544
  0
LINE
  8
_0-5_寸法線
  6
CONTINUOUS
 62
    7
 10
1230.3130412119458
 20
683.36031331592699
 11
1284.3130411607458
 21
683.36031331592653
  0
LINE
  8
_0-5_寸法線
  6
CONTINUOUS
 62
    7
 10
1278.3130411607458
 20
683.36031331592665
 11
1281.4188697019758
 21
671.76920340045785
  0
LINE
  8
_0-5_寸法線
  6
CONTINUOUS
 62
    7
 10
1278.3130411607458
 20
683.36031331592665
 11
1275.2072126195155
 21
671.76920340045785
  0
LINE
  8
_0-5_寸法線
  6
CONTINUOUS
 62
    7
 10
1278.3130411607458
 20
660.36031331592665
 11
1278.3130411607458
 21
683.36031331592665
  0
TEXT
  8
_0-5_寸法線
 62
    7
 10
1278.3130411607458
 20
662.86031331592653
 40
18
 41
1
 50
90
  1
23
  0
LINE
  8
_0-1_計細線
  6
CONTINUOUS
 62
    3
 10
1162.3130414361608
 20
672.36031331592721
 11
1160.3130414361608
 21
670.36031331592721
  0
LINE
  8
_0-1_計細線
  6
CONTINUOUS
 62
    3
 10
1160.3130414361608
 20
660.36031331592721
 11
1160.3130414361608
 21
670.36031331592721
  0
LINE
  8
_0-1_計細線
  6
CONTINUOUS
 62
    3
 10
1176.3130411299994
 20
670.36031331592721
 11
1174.3130411299994
 21
672.36031331592721
  0
LINE
  8
_0-1_計細線
  6
CONTINUOUS
 62
    3
 10
1176.3130411299994
 20
660.36031331592721
 11
1176.3130411299994
 21
670.36031331592721
  0
LINE
  8
_0-1_計細線
  6
CONTINUOUS
 62
    3
 10
1162.3130414361608
 20
656.36031331592721
 11
1160.3130414361608
 21
654.36031331592721
  0
LINE
  8
_0-1_計細線
  6
CONTINUOUS
 62
    3
 10
1162.3130414361608
 20
658.36031331592721
 11
1162.3130414361608
 21
656.36031331592721
  0
LINE
  8
_0-1_計細線
  6
CONTINUOUS
 62
    3
 10
1160.3130414361608
 20
660.36031331592721
 11
1162.3130414361608
 21
658.36031331592721
  0
LINE
  8
_0-1_計細線
  6
CONTINUOUS
 62
    3
 10
1174.3130411299994
 20
656.36031331592721
 11
1176.3130411299994
 21
654.36031331592721
  0
LINE
  8
_0-1_計細線
  6
CONTINUOUS
 62
    3
 10
1174.3130411299994
 20
658.36031331592721
 11
1174.3130411299994
 21
656.36031331592721
  0
LINE
  8
_0-1_計細線
  6
CONTINUOUS
 62
    3
 10
1176.3130411299994
 20
660.36031331592721
 11
1174.3130411299994
 21
658.36031331592721
  0
LINE
  8
_0-1_計細線
  6
CONTINUOUS
 62
    3
 10
1160.3130414361608
 20
654.36031331592721
 11
1160.3130414361608
 21
640.36031331592721
  0
ARC
  8
_0-1_計細線
  6
CONTINUOUS
 62
    3
 10
1163.3130414361608
 20
640.36031331592721
 40
3
 50
179.99999999999983
 51
269.99999999999977
  0
LINE
  8
_0-1_計細線
  6
CONTINUOUS
 62
    3
 10
1163.3130414361608
 20
637.36031331592721
 11
1173.3130411299994
 21
637.36031331592721
  0
LINE
  8
_0-1_計細線
  6
CONTINUOUS
 62
    3
 10
1176.3130411299994
 20
654.36031331592721
 11
1176.3130411299994
 21
640.36031331592721
  0
ARC
  8
_0-1_計細線
  6
CONTINUOUS
 62
    3
 10
1173.3130411299994
 20
640.36031331592721
 40
3
 50
269.99999999999977
 51
359.99999999999966
  0
LINE
  8
_0-0_計極細
  6
CENTER1
 62
    2
 10
1168.3130412119458
 20
684.00168718131499
 11
1168.3130412119458
 21
628.73156934507188
  0
LINE
  8
_0-1_計細線
  6
CONTINUOUS
 62
    3
 10
1162.3130414361608
 20
672.36031331592721
 11
1174.3130411299994
 21
672.36031331592721
  0
LINE
  8
_0-1_計細線
  6
CONTINUOUS
 62
    3
 10
772.3130414361608
 20
672.36031331592721
 11
770.31304143616092
 21
670.36031331592721
  0
LINE
  8
_0-1_計細線
  6
CONTINUOUS
 62
    3
 10
770.31304143616092
 20
660.36031331592721
 11
770.31304143616092
 21
670.36031331592721
  0
LINE
  8
_0-1_計細線
  6
CONTINUOUS
 62
    3
 10
786.31304112999953
 20
670.36031331592721
 11
784.31304112999942
 21
672.36031331592721
  0
LINE
  8
_0-1_計細線
  6
CONTINUOUS
 62
    3
 10
786.31304112999953
 20
660.36031331592721
 11
786.31304112999953
 21
670.36031331592721
  0
LINE
  8
_0-1_計細線
  6
CONTINUOUS
 62
    3
 10
772.3130414361608
 20
656.36031331592721
 11
770.31304143616092
 21
654.36031331592721
  0
LINE
  8
_0-1_計細線
  6
CONTINUOUS
 62
    3
 10
772.3130414361608
 20
658.36031331592721
 11
772.3130414361608
 21
656.36031331592721
  0
LINE
  8
_0-1_計細線
  6
CONTINUOUS
 62
    3
 10
770.31304143616092
 20
660.36031331592721
 11
772.3130414361608
 21
658.36031331592721
  0
LINE
  8
_0-1_計細線
  6
CONTINUOUS
 62
    3
 10
784.31304112999942
 20
656.36031331592721
 11
786.31304112999953
 21
654.36031331592721
  0
LINE
  8
_0-1_計細線
  6
CONTINUOUS
 62
    3
 10
784.31304112999942
 20
658.36031331592721
 11
784.31304112999942
 21
656.36031331592721
  0
LINE
  8
_0-1_計細線
  6
CONTINUOUS
 62
    3
 10
786.31304112999953
 20
660.36031331592721
 11
784.31304112999942
 21
658.36031331592721
  0
LINE
  8
_0-1_計細線
  6
CONTINUOUS
 62
    3
 10
770.31304143616092
 20
654.36031331592721
 11
770.31304143616092
 21
640.36031331592721
  0
ARC
  8
_0-1_計細線
  6
CONTINUOUS
 62
    3
 10
773.31304143616092
 20
640.36031331592721
 40
3
 50
179.99999999999983
 51
269.99999999999977
  0
LINE
  8
_0-1_計細線
  6
CONTINUOUS
 62
    3
 10
773.31304143616092
 20
637.36031331592721
 11
783.31304112999953
 21
637.36031331592721
  0
LINE
  8
_0-1_計細線
  6
CONTINUOUS
 62
    3
 10
786.31304112999953
 20
654.36031331592721
 11
786.31304112999953
 21
640.36031331592721
  0
ARC
  8
_0-1_計細線
  6
CONTINUOUS
 62
    3
 10
783.31304112999953
 20
640.36031331592721
 40
3
 50
269.99999999999977
 51
359.99999999999966
  0
LINE
  8
_0-0_計極細
  6
CENTER1
 62
    2
 10
778.31304121194592
 20
684.00168718131499
 11
778.31304121194592
 21
628.73156934507188
  0
LINE
  8
_0-1_計細線
  6
CONTINUOUS
 62
    3
 10
772.3130414361608
 20
672.36031331592721
 11
784.31304112999942
 21
672.36031331592721
  0
LINE
  8
_0-1_計細線
  6
CONTINUOUS
 62
    3
 10
338.31304121194586
 20
683.36031331592721
 11
338.31304121194586
 21
660.36031331592721
  0
LINE
  8
_0-1_計細線
  6
CONTINUOUS
 62
    3
 10
1218.3130412119458
 20
660.36031331592721
 11
1218.3130412119458
 21
683.36031331592721
  0
LINE
  8
_0-1_計細線
  6
CONTINUOUS
 62
    3
 10
1218.3130412119458
 20
683.36031331592721
 11
338.31304121194586
 21
683.36031331592721
  0
LINE
  8
_0-1_計細線
  6
CONTINUOUS
 62
    3
 10
338.31304121194586
 20
660.36031331592721
 11
380.31304143616092
 21
660.36031331592721
  0
LINE
  8
_0-1_計細線
  6
CONTINUOUS
 62
    3
 10
1176.3130411299994
 20
660.36031331592721
 11
1218.3130412119458
 21
660.36031331592721
  0
LINE
  8
_0-1_計細線
  6
CONTINUOUS
 62
    3
 10
396.31304112999953
 20
660.36031331592721
 11
770.31304143616092
 21
660.36031331592721
  0
LINE
  8
_0-1_計細線
  6
CONTINUOUS
 62
    3
 10
786.31304112999953
 20
660.36031331592721
 11
838.31304128308011
 21
660.36031331592721
  0
LINE
  8
_0-1_計細線
  6
CONTINUOUS
 62
    3
 10
838.31304128308011
 20
660.36031331592721
 11
1160.3130414361608
 21
660.36031331592721
  0
LINE
  8
_0-5_寸法線
  6
CONTINUOUS
 62
    7
 10
388.31304121194592
 20
637.36031331592721
 11
395.2038845688345
 21
627.53604347889473
  0
LINE
  8
_0-5_寸法線
  6
CONTINUOUS
 62
    7
 10
388.31304121194592
 20
637.36031331592721
 11
389.3685516939945
 21
625.4068243849797
  0
LINE
  8
_0-5_寸法線
  6
CONTINUOUS
 62
    7
 10
388.31304121194592
 20
637.36031331592721
 11
401.58781373500835
 21
600.9795027496408
  0
LINE
  8
_0-5_寸法線
  6
CONTINUOUS
 62
    7
 10
401.58781373500835
 20
600.9795027496408
 11
459.18781373500826
 21
600.9795027496408
  0
TEXT
  8
_0-5_寸法線
 62
    7
 10
401.58781373500835
 20
600.9795027496408
 40
18
 41
0.7999999999999998
 50
0
  1
アンカー
  0
LINE
  8
_0-7_枠細線
  6
CONTINUOUS
 62
    5
 10
421.94451607936236
 20
621.77351288778482
 11
412.94451607936236
 21
639.77351288778482
  0
LINE
  8
_0-7_枠細線
  6
CONTINUOUS
 62
    5
 10
403.94451607936236
 20
621.77351288778482
 11
421.94451607936236
 21
621.77351288778482
  0
LINE
  8
_0-7_枠細線
  6
CONTINUOUS
 62
    5
 10
412.94451607936236
 20
639.77351288778482
 11
403.94451607936236
 21
621.77351288778482
  0
TEXT
  8
_0-7_枠細線
 62
    5
 10
406.78269760113983
 20
621.40511019332826
 40
15
 41
0.8
 50
0
  1
１
  0
LINE
  8
_0-5_寸法線
  6
CONTINUOUS
 62
    7
 10
338.31304121194586
 20
695.36031331592721
 11
338.31304121194586
 21
749.36031331592721
  0
LINE
  8
_0-5_寸法線
  6
CONTINUOUS
 62
    7
 10
338.31304121194586
 20
743.36031331592721
 11
349.90415112741465
 21
746.46614185715748
  0
LINE
  8
_0-5_寸法線
  6
CONTINUOUS
 62
    7
 10
338.31304121194586
 20
743.36031331592721
 11
349.90415112741465
 21
740.25448477469695
  0
LINE
  8
_0-5_寸法線
  6
CONTINUOUS
 62
    7
 10
388.31304121194592
 20
695.36031331592721
 11
388.31304121194592
 21
749.36031331592721
  0
LINE
  8
_0-5_寸法線
  6
CONTINUOUS
 62
    7
 10
388.31304121194592
 20
743.36031331592721
 11
376.72193129647701
 21
740.25448477469706
  0
LINE
  8
_0-5_寸法線
  6
CONTINUOUS
 62
    7
 10
388.31304121194592
 20
743.36031331592721
 11
376.72193129647712
 21
746.46614185715748
  0
LINE
  8
_0-5_寸法線
  6
CONTINUOUS
 62
    7
 10
338.31304121194586
 20
743.36031331592721
 11
388.31304121194592
 21
743.36031331592721
  0
TEXT
  8
_0-5_寸法線
 62
    7
 10
354.31304121194592
 20
743.36031331592721
 40
18
 41
1
 50
0
  1
50
  0
LINE
  8
_0-5_寸法線
  6
CONTINUOUS
 62
    7
 10
388.31304121194592
 20
743.36031331592721
 11
399.90415112741471
 21
746.46614185715737
  0
LINE
  8
_0-5_寸法線
  6
CONTINUOUS
 62
    7
 10
388.31304121194592
 20
743.36031331592721
 11
399.90415112741471
 21
740.25448477469695
  0
LINE
  8
_0-5_寸法線
  6
CONTINUOUS
 62
    7
 10
778.31304121194592
 20
695.36031331592721
 11
778.31304121194592
 21
749.36031331592721
  0
LINE
  8
_0-5_寸法線
  6
CONTINUOUS
 62
    7
 10
778.31304121194592
 20
743.36031331592721
 11
766.72193129647712
 21
740.25448477469706
  0
LINE
  8
_0-5_寸法線
  6
CONTINUOUS
 62
    7
 10
778.31304121194592
 20
743.36031331592721
 11
766.72193129647712
 21
746.46614185715748
  0
LINE
  8
_0-5_寸法線
  6
CONTINUOUS
 62
    7
 10
388.31304121194592
 20
743.36031331592721
 11
778.31304121194592
 21
743.36031331592721
  0
TEXT
  8
_0-5_寸法線
 62
    7
 10
569.81304121194592
 20
743.36031331592699
 40
18
 41
1
 50
0
  1
390
  0
LINE
  8
_0-5_寸法線
  6
CONTINUOUS
 62
    7
 10
778.31304121194592
 20
743.36031331592721
 11
789.90415112741471
 21
746.46614185715737
  0
LINE
  8
_0-5_寸法線
  6
CONTINUOUS
 62
    7
 10
778.31304121194592
 20
743.36031331592721
 11
789.90415112741471
 21
740.25448477469695
  0
LINE
  8
_0-5_寸法線
  6
CONTINUOUS
 62
    7
 10
1168.3130412119458
 20
695.36031331592721
 11
1168.3130412119458
 21
749.36031331592721
  0
LINE
  8
_0-5_寸法線
  6
CONTINUOUS
 62
    7
 10
1168.3130412119458
 20
743.36031331592721
 11
1156.7219312964767
 21
740.25448477469706
  0
LINE
  8
_0-5_寸法線
  6
CONTINUOUS
 62
    7
 10
1168.3130412119458
 20
743.36031331592721
 11
1156.7219312964767
 21
746.46614185715748
  0
LINE
  8
_0-5_寸法線
  6
CONTINUOUS
 62
    7
 10
778.31304121194592
 20
743.36031331592721
 11
1168.3130412119458
 21
743.36031331592721
  0
TEXT
  8
_0-5_寸法線
 62
    7
 10
959.8130412119458
 20
743.36031331592699
 40
18
 41
1
 50
0
  1
390
  0
LINE
  8
_0-5_寸法線
  6
CONTINUOUS
 62
    7
 10
1168.3130412119458
 20
743.36031331592721
 11
1179.9041511274147
 21
746.46614185715737
  0
LINE
  8
_0-5_寸法線
  6
CONTINUOUS
 62
    7
 10
1168.3130412119458
 20
743.36031331592721
 11
1179.9041511274147
 21
740.25448477469695
  0
LINE
  8
_0-5_寸法線
  6
CONTINUOUS
 62
    7
 10
1218.3130412119458
 20
695.36031331592721
 11
1218.3130412119458
 21
749.36031331592721
  0
LINE
  8
_0-5_寸法線
  6
CONTINUOUS
 62
    7
 10
1218.3130412119458
 20
743.36031331592721
 11
1206.7219312964769
 21
740.25448477469706
  0
LINE
  8
_0-5_寸法線
  6
CONTINUOUS
 62
    7
 10
1218.3130412119458
 20
743.36031331592721
 11
1206.7219312964769
 21
746.46614185715748
  0
LINE
  8
_0-5_寸法線
  6
CONTINUOUS
 62
    7
 10
1168.3130412119458
 20
743.36031331592721
 11
1218.3130412119458
 21
743.36031331592721
  0
TEXT
  8
_0-5_寸法線
 62
    7
 10
1184.313041211946
 20
743.36031331592721
 40
18
 41
1
 50
0
  1
50
  0
LINE
  8
_0-5_寸法線
  6
CONTINUOUS
 62
    7
 10
338.31304121194586
 20
939.36031331592721
 11
338.31304121194592
 21
993.36031331592721
  0
LINE
  8
_0-5_寸法線
  6
CONTINUOUS
 62
    7
 10
338.31304121194592
 20
987.36031331592721
 11
326.72193129647707
 21
984.25448477469695
  0
LINE
  8
_0-5_寸法線
  6
CONTINUOUS
 62
    7
 10
338.31304121194592
 20
987.36031331592721
 11
326.72193129647712
 21
990.46614185715748
  0
LINE
  8
_0-5_寸法線
  6
CONTINUOUS
 62
    7
 10
341.31304121194586
 20
939.36031331592721
 11
341.31304121194592
 21
993.36031331592721
  0
CIRCLE
  8
_0-5_寸法線
  6
CONTINUOUS
 62
    1
 10
341.31304121194592
 20
987.36031331592721
 40
1.7999999999999996
  0
LINE
  8
_0-5_寸法線
  6
CONTINUOUS
 62
    7
 10
308.31304121194592
 20
987.36031331592721
 11
341.31304121194592
 21
987.36031331592721
  0
TEXT
  8
_0-5_寸法線
 62
    7
 10
308.80376095477101
 20
987.36031331592699
 40
18
 41
1
 50
0
  1
3
  0
LINE
  8
_0-5_寸法線
  6
CONTINUOUS
 62
    7
 10
342.81304121194586
 20
939.36031331592721
 11
342.81304121194592
 21
993.36031331592721
  0
LINE
  8
_0-5_寸法線
  6
CONTINUOUS
 62
    7
 10
341.31304121194592
 20
987.36031331592721
 11
342.81304121194592
 21
987.36031331592721
  0
TEXT
  8
_0-5_寸法線
 62
    7
 10
347.47293488871918
 20
987.36031331592699
 40
18
 41
1
 50
0
  1
1.5
  0
LINE
  8
_0-5_寸法線
  6
CONTINUOUS
 62
    7
 10
342.81304121194592
 20
987.36031331592721
 11
354.40415112741482
 21
990.46614185715748
  0
LINE
  8
_0-5_寸法線
  6
CONTINUOUS
 62
    7
 10
342.81304121194592
 20
987.36031331592721
 11
354.40415112741482
 21
984.25448477469683
  0
LINE
  8
_0-5_寸法線
  6
CONTINUOUS
 62
    7
 10
1213.8130412119453
 20
939.36031331592721
 11
1213.8130412119458
 21
993.36031331592721
  0
LINE
  8
_0-5_寸法線
  6
CONTINUOUS
 62
    7
 10
1213.8130412119458
 20
987.36031331592721
 11
1202.2219312964769
 21
984.25448477469695
  0
LINE
  8
_0-5_寸法線
  6
CONTINUOUS
 62
    7
 10
1213.8130412119458
 20
987.36031331592721
 11
1202.2219312964769
 21
990.46614185715748
  0
LINE
  8
_0-5_寸法線
  6
CONTINUOUS
 62
    7
 10
342.81304121194592
 20
987.36031331592721
 11
1213.8130412119458
 21
987.36031331592721
  0
TEXT
  8
_0-5_寸法線
 62
    7
 10
764.81304121194592
 20
987.36031331592721
 40
18
 41
1
 50
0
  1
871
  0
LINE
  8
_0-5_寸法線
  6
CONTINUOUS
 62
    7
 10
1215.3130412119458
 20
939.36031331592721
 11
1215.313041211946
 21
993.36031331592721
  0
CIRCLE
  8
_0-5_寸法線
  6
CONTINUOUS
 62
    1
 10
1215.313041211946
 20
987.36031331592721
 40
1.7999999999999996
  0
LINE
  8
_0-5_寸法線
  6
CONTINUOUS
 62
    7
 10
1213.8130412119458
 20
987.36031331592721
 11
1215.313041211946
 21
987.36031331592721
  0
TEXT
  8
_0-5_寸法線
 62
    7
 10
1182.4440853255223
 20
987.36031331592721
 40
18
 41
1
 50
0
  1
1.5
  0
LINE
  8
_0-5_寸法線
  6
CONTINUOUS
 62
    7
 10
1218.3130412119458
 20
939.36031331592721
 11
1218.313041211946
 21
993.36031331592721
  0
LINE
  8
_0-5_寸法線
  6
CONTINUOUS
 62
    7
 10
1218.313041211946
 20
987.36031331592721
 11
1229.9041511274149
 21
990.46614185715725
  0
LINE
  8
_0-5_寸法線
  6
CONTINUOUS
 62
    7
 10
1218.313041211946
 20
987.36031331592721
 11
1229.9041511274149
 21
984.25448477469683
  0
LINE
  8
_0-5_寸法線
  6
CONTINUOUS
 62
    7
 10
1215.313041211946
 20
987.36031331592721
 11
1248.313041211946
 21
987.36031331592721
  0
TEXT
  8
_0-5_寸法線
 62
    7
 10
1237.5267538644475
 20
987.36031331592699
 40
18
 41
1
 50
0
  1
3
  0
LINE
  8
_1-5_寸法2
  6
CONTINUOUS
 62
    7
 10
265.04960804260304
 20
373.51616135385166
 11
265.0496080426031
 21
451.51616177626119
  0
LINE
  8
_1-5_寸法2
  6
CONTINUOUS
 62
    7
 10
265.0496080426031
 20
445.51616177626119
 11
253.45849812713431
 21
442.41033323503098
  0
LINE
  8
_1-5_寸法2
  6
CONTINUOUS
 62
    7
 10
265.0496080426031
 20
445.51616177626119
 11
253.45849812713431
 21
448.6219903174914
  0
LINE
  8
_1-5_寸法2
  6
CONTINUOUS
 62
    7
 10
274.04960896105757
 20
373.51616135385166
 11
274.04960896105774
 21
451.51616177626119
  0
CIRCLE
  8
_1-5_寸法2
  6
CONTINUOUS
 62
    1
 10
274.04960896105774
 20
445.51616177626119
 40
1.7999999999999996
  0
LINE
  8
_1-5_寸法2
  6
CONTINUOUS
 62
    7
 10
235.0496080426031
 20
445.51616177626119
 11
274.04960896105774
 21
445.51616177626119
  0
TEXT
  8
_1-5_寸法2
 62
    7
 10
237.07652441657319
 20
445.51616177626119
 40
18
 41
1
 50
0
  1
3
  0
LINE
  8
_1-5_寸法2
  6
CONTINUOUS
 62
    7
 10
280.04960835509399
 20
373.51616135385166
 11
280.04960835509416
 21
451.51616177626119
  0
LINE
  8
_1-5_寸法2
  6
CONTINUOUS
 62
    7
 10
274.04960896105774
 20
445.51616177626119
 11
280.04960835509416
 21
445.51616177626119
  0
TEXT
  8
_1-5_寸法2
 62
    7
 10
272.54960865807595
 20
445.51616177626119
 40
18
 41
1
 50
0
  1
2
  0
LINE
  8
_1-5_寸法2
  6
CONTINUOUS
 62
    7
 10
280.04960835509416
 20
445.51616177626119
 11
291.64071827056296
 21
448.6219903174914
  0
LINE
  8
_1-5_寸法2
  6
CONTINUOUS
 62
    7
 10
280.04960835509416
 20
445.51616177626119
 11
291.64071827056296
 21
442.41033323503086
  0
LINE
  8
_1-5_寸法2
  6
CONTINUOUS
 62
    7
 10
496.04960866123952
 20
373.51616135385149
 11
496.04960866123974
 21
451.51616177626119
  0
LINE
  8
_1-5_寸法2
  6
CONTINUOUS
 62
    7
 10
496.04960866123974
 20
445.51616177626119
 11
484.45849874577084
 21
442.41033323503098
  0
LINE
  8
_1-5_寸法2
  6
CONTINUOUS
 62
    7
 10
496.04960866123974
 20
445.51616177626119
 11
484.45849874577095
 21
448.6219903174914
  0
LINE
  8
_1-5_寸法2
  6
CONTINUOUS
 62
    7
 10
280.04960835509416
 20
445.51616177626119
 11
496.04960866123974
 21
445.51616177626119
  0
TEXT
  8
_1-5_寸法2
 62
    7
 10
379.04960850816701
 20
445.51616177626119
 40
18
 41
1
 50
0
  1
72
  0
LINE
  8
_1-5_寸法2
  6
CONTINUOUS
 62
    7
 10
502.04960804260327
 20
373.51616135385149
 11
502.04960804260344
 21
451.51616177626119
  0
CIRCLE
  8
_1-5_寸法2
  6
CONTINUOUS
 62
    1
 10
502.04960804260344
 20
445.51616177626119
 40
1.7999999999999996
  0
LINE
  8
_1-5_寸法2
  6
CONTINUOUS
 62
    7
 10
496.04960866123974
 20
445.51616177626119
 11
502.04960804260344
 21
445.51616177626119
  0
TEXT
  8
_1-5_寸法2
 62
    7
 10
494.54960835192145
 20
445.51616177626119
 40
18
 41
1
 50
0
  1
2
  0
LINE
  8
_1-5_寸法2
  6
CONTINUOUS
 62
    7
 10
511.04960804260327
 20
373.51616135385149
 11
511.04960804260344
 21
451.51616177626119
  0
LINE
  8
_1-5_寸法2
  6
CONTINUOUS
 62
    7
 10
511.04960804260344
 20
445.51616177626119
 11
522.64071795807217
 21
448.62199031749134
  0
LINE
  8
_1-5_寸法2
  6
CONTINUOUS
 62
    7
 10
511.04960804260344
 20
445.51616177626119
 11
522.64071795807217
 21
442.41033323503086
  0
LINE
  8
_1-5_寸法2
  6
CONTINUOUS
 62
    7
 10
502.04960804260344
 20
445.51616177626119
 11
541.0496080426035
 21
445.51616177626119
  0
TEXT
  8
_1-5_寸法2
 62
    7
 10
528.02880169110892
 20
445.51616177626119
 40
18
 41
1
 50
0
  1
3
  0
ENDSEC
  0
EOF
