  0
SECTION
  2
HEADER
  9
$ACADVER
  1
AC1009
  9
$INSBASE
 10
0
 20
0
 30
0
  9
$EXTMIN
 10
0
 20
0
  9
$EXTMAX
 10
1485
 20
1050
  9
$LIMMIN
 10
0
 20
0
  9
$LIMMAX
 10
1485
 20
1050
  9
$LTSCALE
 40
5
  0
ENDSEC
  0
SECTION
  2
TABLES
  0
TABLE
  2
LTYPE
 70
     9
  0
LTYPE
  2
CONTINUOUS
 70
    64
  3
実線
 72
    65
 73
     0
 40
0.0
  0
LTYPE
  2
DASHED1
 70
    64
  3
--  --  --  --  --  --  --  --  
 72
    65
 73
     2
 40
2.5
 49
1.25
 49
-1.25
  0
LTYPE
  2
DASHED2
 70
    64
  3
----    ----    ----    ----    
 72
    65
 73
     2
 40
5.0
 49
2.5
 49
-2.5
  0
LTYPE
  2
DASHED3
 70
    64
  3
------  ------  ------  ------  
 72
    65
 73
     2
 40
5.0
 49
3.75
 49
-1.25
  0
LTYPE
  2
CENTER1
 70
    64
  3
----- - ----- - ----- - ----- - 
 72
    65
 73
     4
 40
10.0
 49
6.25
 49
-1.25
 49
1.25
 49
-1.25
  0
LTYPE
  2
CENTER2
 70
    64
  3
----------  --  ----------  --  
 72
    65
 73
     4
 40
20.0
 49
12.5
 49
-2.5
 49
2.5
 49
-2.5
  0
LTYPE
  2
PHANTOM1
 70
    64
  3
--- - - --- - - --- - - --- - - 
 72
    65
 73
     6
 40
10.0
 49
3.25
 49
-1.25
 49
1.25
 49
-1.25
 49
1.25
 49
-1.25
  0
LTYPE
  2
PHANTOM2
 70
    64
  3
--------  -  -  --------  -  -  
 72
    65
 73
     6
 40
20.0
 49
10.0
 49
-2.5
 49
1.25
 49
-2.5
 49
1.25
 49
-2.5
  0
LTYPE
  2
DOT
 70
    64
  3
-   -   -   -   -   -   -   -   
 72
    65
 73
     2
 40
2.5
 49
0.625
 49
-1.875
  0
LTYPE
  2
DUMMY
 70
    64
  3
ダミー
 72
    65
 73
     0
 40
0.0
  0
LTYPE
  2
RAND1
 70
    64
  3
ランダム線1
 72
    65
 73
     4
 40
10.0
 49
1.0
 49
-2.0
 49
3.0
 49
-4.0
  0
LTYPE
  2
RAND2
 70
    64
  3
ランダム線2
 72
    65
 73
     4
 40
14.0
 49
2.0
 49
-3.0
 49
4.0
 49
-5.0
  0
LTYPE
  2
RAND3
 70
    64
  3
ランダム線3
 72
    65
 73
     4
 40
18.0
 49
3.0
 49
-4.0
 49
5.0
 49
-6.0
  0
LTYPE
  2
RAND4
 70
    64
  3
ランダム線4
 72
    65
 73
     4
 40
22.0
 49
4.0
 49
-5.0
 49
6.0
 49
-7.0
  0
LTYPE
  2
RAND5
 70
    64
  3
ランダム線5
 72
    65
 73
     4
 40
26.0
 49
5.0
 49
-6.0
 49
7.0
 49
-8.0
  0
LTYPE
  2
LONG1
 70
    64
  3
----------  --  ----------  --  
 72
    65
 73
     4
 40
40.0
 49
32.5
 49
-2.5
 49
2.5
 49
-2.5
  0
LTYPE
  2
LONG2
 70
    64
  3
--------  -  -  --------  -  -  
 72
    65
 73
     6
 40
40.0
 49
30.0
 49
-2.5
 49
1.25
 49
-2.5
 49
1.25
 49
-2.5
  0
LTYPE
  2
LONG3
 70
    64
  3
+++++++++++++++..+++++++++++++++
 72
    65
 73
     2
 40
40.0
 49
37.5
 49
-2.5
  0
LTYPE
  2
LONG4
 70
    64
  3
+++++++++++++++..+++++++++++++++
 72
    65
 73
     2
 40
80.0
 49
75.0
 49
-5.0
  0
LTYPE
  2
LONG5
 70
    64
  3
----------  --  ----------  --  
 72
    65
 73
     4
 40
60.0
 49
37.5
 49
-7.5
 49
7.5
 49
-7.5
  0
LTYPE
  2
dashed
 70
   64
  3
-------   -------------   ------
 72
   65
 73
    2
 40
7.5
 49
6
 49
-1.5
  0
LTYPE
  2
dashed_spaced
 70
   64
  3
----        --------        ----
 72
   65
 73
    2
 40
12
 49
6
 49
-6
  0
LTYPE
  2
long_dashed_dotted
 70
   64
  3
------------- --- --------------
 72
   65
 73
    4
 40
15.25
 49
12
 49
-1.5
 49
0.25
 49
-1.5
  0
LTYPE
  2
long_dashed_double-dotted
 70
   64
  3
----------- --- --- ------------
 72
   65
 73
    6
 40
17
 49
12
 49
-1.5
 49
0.25
 49
-1.5
 49
0.25
 49
-1.5
  0
LTYPE
  2
long_dashed_triplicate-dotted
 70
   64
  3
--------- --- --- --- ----------
 72
   65
 73
    8
 40
18.75
 49
12
 49
-1.5
 49
0.25
 49
-1.5
 49
0.25
 49
-1.5
 49
0.25
 49
-1.5
  0
LTYPE
  2
dotted
 70
   64
  3
   -       -       -       -    
 72
   65
 73
    2
 40
1.75
 49
0.25
 49
-1.5
  0
LTYPE
  2
chain
 70
   64
  3
-------------- -- --------------
 72
   65
 73
    4
 40
18.5
 49
12
 49
-1.5
 49
3.5
 49
-1.5
  0
LTYPE
  2
chain_double_dash
 70
   64
  3
------------ -- -- -------------
 72
   65
 73
    6
 40
23.5
 49
12
 49
-1.5
 49
3.5
 49
-1.5
 49
3.5
 49
-1.5
  0
LTYPE
  2
dashed_dotted
 70
   64
  3
-----------     -     ----------
 72
   65
 73
    4
 40
9.25
 49
6
 49
-1.5
 49
0.25
 49
-1.5
  0
LTYPE
  2
double-dashed_dotted
 70
   64
  3
------   -----------   -   -----
 72
   65
 73
    6
 40
16.75
 49
6
 49
-1.5
 49
6
 49
-1.5
 49
0.25
 49
-1.5
  0
LTYPE
  2
dashed_double-dotted
 70
   64
  3
---------    -    -    ---------
 72
   65
 73
    6
 40
11
 49
6
 49
-1.5
 49
0.25
 49
-1.5
 49
0.25
 49
-1.5
  0
LTYPE
  2
double-dashed_double-dotted
 70
   64
  3
-----   ---------   -   -   ----
 72
   65
 73
    8
 40
18.5
 49
6
 49
-1.5
 49
6
 49
-1.5
 49
0.25
 49
-1.5
 49
0.25
 49
-1.5
  0
LTYPE
  2
dashed_triplicate-dotted
 70
   64
  3
-------    -    -    -    ------
 72
   65
 73
    8
 40
12.75
 49
6
 49
-1.5
 49
0.25
 49
-1.5
 49
0.25
 49
-1.5
 49
0.25
 49
-1.5
  0
LTYPE
  2
double-dashed_triplicate-dotted
 70
   64
  3
-----  ---------  -  -  -  -----
 72
   65
 73
   10
 40
20.25
 49
6
 49
-1.5
 49
6
 49
-1.5
 49
0.25
 49
-1.5
 49
0.25
 49
-1.5
 49
0.25
 49
-1.5
  0
LTYPE
  2
undefined
 70
   64
  3
--------------------------------
 72
   65
 73
    0
 40
0
  0
ENDTAB
  0
TABLE
  2
STYLE
  5
3
100
AcDbSymbolTable
 70
     1
  0
STYLE
  5
10
100
AcDbSymbolTableRecord
100
AcDbTextStyleTableRecord
  2
STANDARD
 70
     0
 40
0.0
 41
1.0
 50
0.0
 71
     0
 42
0.2
  3
txt
  4
bigfont.shx
  0
STYLE
  5
26
100
AcDbSymbolTableRecord
100
AcDbTextStyleTableRecord
  2
TATEGAKI
 70
    68
 40
0.0
 41
1.0
 50
0.0
 71
     0
 42
1.0
  3
txt
  4
bigfont.shx
  0
ENDTAB
  0
TABLE
  2
LAYER
 70
   10
  0
LAYER
  2
_0-0_計極細
 70
   64
 62
    7
  6
CONTINUOUS
  0
LAYER
  2
_0-1_計細線
 70
   64
 62
    7
  6
CONTINUOUS
  0
LAYER
  2
_0-5_寸法線
 70
   64
 62
    7
  6
CONTINUOUS
  0
LAYER
  2
_0-7_枠細線
 70
   64
 62
    7
  6
CONTINUOUS
  0
LAYER
  2
_0-8_枠中線
 70
   64
 62
    7
  6
CONTINUOUS
  0
LAYER
  2
_0-9_枠極太
 70
   64
 62
    7
  6
CONTINUOUS
  0
LAYER
  2
_0-a_極細3
 70
   64
 62
    7
  6
CONTINUOUS
  0
LAYER
  2
_0-b_細線3
 70
   64
 62
    7
  6
CONTINUOUS
  0
LAYER
  2
_0-d_寸法3
 70
   64
 62
    7
  6
CONTINUOUS
  0
LAYER
  2
ADD_LINE
 70
   64
 62
    7
  6
CONTINUOUS
  0
ENDTAB
  0
ENDSEC
  0
SECTION
  2
BLOCKS
  0
ENDSEC
  0
SECTION
  2
ENTITIES
  0
LINE
  8
_0-7_枠細線
  6
CONTINUOUS
 62
    5
 10
1425
 20
942.5
 11
890
 21
942.5
  0
TEXT
  8
_0-7_枠細線
 62
    5
 10
895
 20
945
 40
12.5
 41
1
 50
0
  1
記号
  0
TEXT
  8
_0-7_枠細線
 62
    5
 10
996.875
 20
945
 40
12.5
 41
1
 50
0
  1
訂　 正　 記　 事
  0
TEXT
  8
_0-7_枠細線
 62
    5
 10
1181.25
 20
945
 40
12.5
 41
1
 50
0
  1
訂 正 年 月 日
  0
TEXT
  8
_0-7_枠細線
 62
    5
 10
1306.25
 20
945
 40
12.5
 41
1
 50
0
  1
備　　　　　考
  0
LINE
  8
_0-7_枠細線
  6
CONTINUOUS
 62
    5
 10
1185
 20
180
 11
1185
 21
100
  0
TEXT
  8
_0-7_枠細線
 62
    5
 10
937.5
 20
97.5
 40
17.5
 41
1
 50
0
  1
備考
  7
TATEGAKI
  0
TEXT
  8
_0-7_枠細線
 62
    5
 10
937.5
 20
137.5
 40
17.5
 41
1
 50
0
  1
品番
  7
TATEGAKI
  0
TEXT
  8
_0-7_枠細線
 62
    5
 10
937.5
 20
177.5
 40
17.5
 41
1
 50
0
  1
品名
  7
TATEGAKI
  0
LINE
  8
_0-7_枠細線
  6
CONTINUOUS
 62
    5
 10
1185
 20
140
 11
925
 21
140
  0
LINE
  8
_0-7_枠細線
  6
CONTINUOUS
 62
    5
 10
950
 20
180
 11
950
 21
60
  0
LINE
  8
_0-8_枠中線
  6
CONTINUOUS
 62
    5
 10
1425
 20
180
 11
925
 21
180
  0
LINE
  8
_0-8_枠中線
  6
CONTINUOUS
 62
    5
 10
925
 20
180
 11
925
 21
60
  0
LINE
  8
_0-7_枠細線
  6
CONTINUOUS
 62
    5
 10
1245
 20
180
 11
1245
 21
60
  0
TEXT
  8
_0-7_枠細線
 62
    5
 10
1192.5
 20
160
 40
15
 41
1
 50
0
  1
縮　尺
  0
TEXT
  8
_0-7_枠細線
 62
    5
 10
1194
 20
117.5
 40
20
 41
0.7000000000000001
 50
0
  1
１：５
  0
LINE
  8
_0-7_枠細線
  6
CONTINUOUS
 62
    5
 10
1185
 20
155
 11
1245
 21
155
  0
LINE
  8
_0-7_枠細線
  6
CONTINUOUS
 62
    5
 10
1245
 20
100
 11
925
 21
100
  0
LINE
  8
_0-7_枠細線
  6
CONTINUOUS
 62
    5
 10
1425
 20
90
 11
1245
 21
90
  0
LINE
  8
_0-7_枠細線
  6
CONTINUOUS
 62
    5
 10
1245
 20
120
 11
1425
 21
120
  0
LINE
  8
_0-7_枠細線
  6
CONTINUOUS
 62
    5
 10
1425
 20
140
 11
1245
 21
140
  0
TEXT
  8
_0-7_枠細線
 62
    5
 10
1255
 20
147.5
 40
25
 41
0.8
 50
0
  1
株式会社シマブン
  0
TEXT
  8
_0-7_枠細線
 62
    5
 10
1252.5
 20
60
 40
15
 41
1
 50
0
  1
年月日
  0
TEXT
  8
_0-7_枠細線
 62
    5
 10
1252.5
 20
75
 40
15
 41
1
 50
0
  1
作　成
  0
TEXT
  8
_0-7_枠細線
 62
    5
 10
1256.25
 20
122.5
 40
15
 41
1
 50
0
  1
承 認
  0
LINE
  8
_0-7_枠細線
  6
CONTINUOUS
 62
    5
 10
1305
 20
140
 11
1305
 21
60
  0
TEXT
  8
_0-7_枠細線
 62
    5
 10
1316.25
 20
122.5
 40
15
 41
1
 50
0
  1
検 図
  0
LINE
  8
_0-7_枠細線
  6
CONTINUOUS
 62
    5
 10
1365
 20
140
 11
1365
 21
90
  0
TEXT
  8
_0-7_枠細線
 62
    5
 10
1375
 20
95
 40
20
 41
1
 50
0
  1
藤戸
  0
TEXT
  8
_0-7_枠細線
 62
    5
 10
1376.25
 20
122.5
 40
15
 41
1
 50
0
  1
設 計
  0
TEXT
  8
_0-7_枠細線
 62
    5
 10
1310
 20
67.5
 40
15
 41
0.6666666666666666
 50
0
  1
２０１１年０７月０４日
  0
TEXT
  8
_0-7_枠細線
 62
    5
 10
1255
 20
95
 40
20
 41
1
 50
0
  1
隠塚
  0
TEXT
  8
_0-7_枠細線
 62
    5
 10
1315
 20
95
 40
20
 41
1
 50
0
  1
渋田
  0
LINE
  8
_0-7_枠細線
  6
CONTINUOUS
 62
    5
 10
1425
 20
925
 11
890
 21
925
  0
TEXT
  8
_0-7_枠細線
 62
    5
 10
938.85037037037023
 20
927.5
 40
12.500000000000002
 41
1
 50
0
  1
品番変更
  0
TEXT
  8
_0-7_枠細線
 62
    5
 10
1180
 20
927.5
 40
12.5
 41
0.7199999999999999
 50
0
  1
２０１５．０４．０１
  0
ARC
  8
_0-b_細線3
  6
CONTINUOUS
 62
    7
 10
1009.0525108742037
 20
284.13755046903907
 40
14.236111111107119
 50
245.81048584600546
 51
294.1895141539955
  0
ARC
  8
_0-b_細線3
  6
CONTINUOUS
 62
    7
 10
1009.0525108742037
 20
275.66532824682463
 40
14.236111111107119
 50
65.810485846004127
 51
114.18951415399421
  0
ARC
  8
_0-b_細線3
  6
CONTINUOUS
 62
    7
 10
992.38584420753727
 20
284.13755046903907
 40
14.236111111107119
 50
245.81048584600546
 51
294.18951415399385
  0
ARC
  8
_0-b_細線3
  6
CONTINUOUS
 62
    7
 10
992.38584420753727
 20
275.66532824682463
 40
14.236111111107119
 50
65.810485846005804
 51
114.18951415399421
  0
ARC
  8
_0-b_細線3
  6
CONTINUOUS
 62
    7
 10
975.71917754087065
 20
284.13755046903907
 40
14.236111111107119
 50
245.81048584600376
 51
294.18951415399385
  0
ARC
  8
_0-b_細線3
  6
CONTINUOUS
 62
    7
 10
975.71917754087065
 20
275.66532824682463
 40
14.236111111107119
 50
65.810485846005804
 51
114.18951415399587
  0
ARC
  8
_0-b_細線3
  6
CONTINUOUS
 62
    7
 10
959.05251087420368
 20
284.13755046903907
 40
14.236111111107119
 50
245.81048584600546
 51
294.1895141539955
  0
ARC
  8
_0-b_細線3
  6
CONTINUOUS
 62
    7
 10
959.05251087420368
 20
275.66532824682463
 40
14.236111111107119
 50
65.810485846004127
 51
114.18951415399421
  0
ARC
  8
_0-b_細線3
  6
CONTINUOUS
 62
    7
 10
942.38584420753727
 20
284.13755046903907
 40
14.236111111107119
 50
245.81048584600546
 51
294.18951415399385
  0
ARC
  8
_0-b_細線3
  6
CONTINUOUS
 62
    7
 10
942.38584420753727
 20
275.66532824682463
 40
14.236111111107119
 50
65.810485846005804
 51
114.18951415399421
  0
ARC
  8
_0-b_細線3
  6
CONTINUOUS
 62
    7
 10
925.71917754087065
 20
284.13755046903907
 40
14.236111111107119
 50
245.81048584600376
 51
294.18951415399385
  0
ARC
  8
_0-b_細線3
  6
CONTINUOUS
 62
    7
 10
925.71917754087065
 20
275.66532824682463
 40
14.236111111107119
 50
65.810485846005804
 51
114.18951415399587
  0
LINE
  8
_0-d_寸法3
  6
CONTINUOUS
 62
    7
 10
967.38584420753955
 20
303.23477269126784
 11
967.38584420753955
 21
350.47204545040768
  0
LINE
  8
_0-d_寸法3
  6
CONTINUOUS
 62
    7
 10
967.38584420753955
 20
345.47204545040768
 11
977.04510247043015
 21
348.06023590143292
  0
LINE
  8
_0-d_寸法3
  6
CONTINUOUS
 62
    7
 10
967.38584420753955
 20
345.47204545040768
 11
977.04510247043015
 21
342.88385499938249
  0
LINE
  8
_0-d_寸法3
  6
CONTINUOUS
 62
    7
 10
984.05251087420595
 20
303.23477269126533
 11
984.05251087420595
 21
350.47204545040768
  0
LINE
  8
_0-d_寸法3
  6
CONTINUOUS
 62
    7
 10
984.05251087420595
 20
345.47204545040768
 11
974.39325261131535
 21
342.88385499938249
  0
LINE
  8
_0-d_寸法3
  6
CONTINUOUS
 62
    7
 10
984.05251087420595
 20
345.47204545040768
 11
974.39325261131535
 21
348.06023590143292
  0
LINE
  8
_0-d_寸法3
  6
CONTINUOUS
 62
    7
 10
967.38584420753955
 20
345.47204545040768
 11
984.05251087420595
 21
345.47204545040768
  0
TEXT
  8
_0-d_寸法3
 62
    7
 10
968.21917754087292
 20
345.47204545040768
 40
15
 41
1
 50
0
  1
10
  0
LINE
  8
_0-d_寸法3
  6
CONTINUOUS
 62
    7
 10
984.05251087420595
 20
345.47204545040768
 11
993.71176913709678
 21
348.06023590143286
  0
LINE
  8
_0-d_寸法3
  6
CONTINUOUS
 62
    7
 10
984.05251087420595
 20
345.47204545040768
 11
993.71176913709678
 21
342.88385499938244
  0
LINE
  8
_0-d_寸法3
  6
CONTINUOUS
 62
    7
 10
1000.7191775408729
 20
303.23477269126533
 11
1000.7191775408729
 21
350.47204545040768
  0
LINE
  8
_0-d_寸法3
  6
CONTINUOUS
 62
    7
 10
1000.7191775408729
 20
345.47204545040768
 11
991.05991927798232
 21
342.88385499938249
  0
LINE
  8
_0-d_寸法3
  6
CONTINUOUS
 62
    7
 10
1000.7191775408729
 20
345.47204545040768
 11
991.05991927798232
 21
348.06023590143292
  0
LINE
  8
_0-d_寸法3
  6
CONTINUOUS
 62
    7
 10
984.05251087420595
 20
345.47204545040768
 11
1000.7191775408729
 21
345.47204545040768
  0
TEXT
  8
_0-d_寸法3
 62
    7
 10
984.88584420754
 20
345.47204545040768
 40
15
 41
1
 50
0
  1
10
  0
LINE
  8
_0-d_寸法3
  6
CONTINUOUS
 62
    7
 10
919.88584420753909
 20
303.23477269126784
 11
919.88584420753909
 21
350.47204545040768
  0
LINE
  8
_0-d_寸法3
  6
CONTINUOUS
 62
    7
 10
919.88584420753909
 20
345.47204545040768
 11
910.22658594464826
 21
342.88385499938249
  0
LINE
  8
_0-d_寸法3
  6
CONTINUOUS
 62
    7
 10
919.88584420753909
 20
345.47204545040768
 11
910.22658594464826
 21
348.06023590143292
  0
LINE
  8
_0-d_寸法3
  6
CONTINUOUS
 62
    7
 10
931.55251087420595
 20
303.23477269126784
 11
931.55251087420595
 21
350.47204545040768
  0
CIRCLE
  8
_0-d_寸法3
  6
CONTINUOUS
 62
    1
 10
931.55251087420595
 20
345.47204545040768
 40
1.5000000000000002
  0
LINE
  8
_0-d_寸法3
  6
CONTINUOUS
 62
    7
 10
894.88584420753909
 20
345.47204545040768
 11
931.55251087420595
 21
345.47204545040768
  0
TEXT
  8
_0-d_寸法3
 62
    7
 10
904.7866905793536
 20
345.47204545040768
 40
15
 41
1
 50
0
  1
7
  0
LINE
  8
_0-d_寸法3
  6
CONTINUOUS
 62
    7
 10
936.55251087420595
 20
303.23477269126533
 11
936.55251087420595
 21
350.47204545040768
  0
LINE
  8
_0-d_寸法3
  6
CONTINUOUS
 62
    7
 10
936.55251087420595
 20
345.47204545040768
 11
946.21176913709678
 21
348.06023590143286
  0
LINE
  8
_0-d_寸法3
  6
CONTINUOUS
 62
    7
 10
936.55251087420595
 20
345.47204545040768
 11
946.21176913709678
 21
342.88385499938244
  0
LINE
  8
_0-d_寸法3
  6
CONTINUOUS
 62
    7
 10
931.55251087420595
 20
345.47204545040768
 11
961.55251087420595
 21
345.47204545040768
  0
TEXT
  8
_0-d_寸法3
 62
    7
 10
938.11936547647224
 20
345.47204545040768
 40
15
 41
1
 50
0
  1
3
  0
ARC
  8
_0-b_細線3
  6
CONTINUOUS
 62
    7
 10
909.05251087420424
 20
284.13755046903907
 40
14.236111111107119
 50
245.81048584600376
 51
294.18951415399385
  0
ARC
  8
_0-b_細線3
  6
CONTINUOUS
 62
    7
 10
909.05251087420424
 20
275.66532824682463
 40
14.236111111107119
 50
65.810485846005804
 51
114.18951415399587
  0
LINE
  8
_0-b_細線3
  6
CONTINUOUS
 62
    7
 10
893.05868383491827
 20
293.23477269126784
 11
1021.7886832916972
 21
293.23477269126784
  0
LINE
  8
_0-a_極細3
  6
CENTER1
 62
    7
 10
1030.1999182816112
 20
279.90143935793162
 11
885.38345737626719
 21
279.90143935793162
  0
LINE
  8
_0-b_細線3
  6
CONTINUOUS
 62
    7
 10
1019.8858442075395
 20
293.23477269126533
 11
1014.8858442075395
 21
293.23477269126533
  0
LINE
  8
_0-b_細線3
  6
CONTINUOUS
 62
    7
 10
1014.8858442075395
 20
293.23477269126533
 11
1014.8858442075395
 21
268.23477269126533
  0
LINE
  8
_0-b_細線3
  6
CONTINUOUS
 62
    7
 10
1014.8858442075395
 20
268.23477269126533
 11
1019.8858442075395
 21
268.23477269126533
  0
LINE
  8
_0-b_細線3
  6
CONTINUOUS
 62
    7
 10
1019.8858442075395
 20
268.23477269126533
 11
1019.8858442075395
 21
293.23477269126533
  0
LINE
  8
_0-b_細線3
  6
CONTINUOUS
 62
    7
 10
1003.2191775408729
 20
293.23477269126533
 11
998.21917754087292
 21
293.23477269126533
  0
LINE
  8
_0-b_細線3
  6
CONTINUOUS
 62
    7
 10
998.21917754087292
 20
293.23477269126533
 11
998.21917754087292
 21
268.23477269126533
  0
LINE
  8
_0-b_細線3
  6
CONTINUOUS
 62
    7
 10
998.21917754087292
 20
268.23477269126533
 11
1003.2191775408729
 21
268.23477269126533
  0
LINE
  8
_0-b_細線3
  6
CONTINUOUS
 62
    7
 10
1003.2191775408729
 20
268.23477269126533
 11
1003.2191775408729
 21
293.23477269126533
  0
LINE
  8
_0-b_細線3
  6
CONTINUOUS
 62
    7
 10
986.55251087420595
 20
293.23477269126533
 11
981.55251087420595
 21
293.23477269126533
  0
LINE
  8
_0-b_細線3
  6
CONTINUOUS
 62
    7
 10
981.55251087420595
 20
293.23477269126533
 11
981.55251087420595
 21
268.23477269126533
  0
LINE
  8
_0-b_細線3
  6
CONTINUOUS
 62
    7
 10
981.55251087420595
 20
268.23477269126533
 11
986.55251087420595
 21
268.23477269126533
  0
LINE
  8
_0-b_細線3
  6
CONTINUOUS
 62
    7
 10
986.55251087420595
 20
268.23477269126533
 11
986.55251087420595
 21
293.23477269126533
  0
LINE
  8
_0-b_細線3
  6
CONTINUOUS
 62
    7
 10
969.88584420753955
 20
293.23477269126533
 11
964.88584420753955
 21
293.23477269126533
  0
LINE
  8
_0-b_細線3
  6
CONTINUOUS
 62
    7
 10
964.88584420753955
 20
293.23477269126533
 11
964.88584420753955
 21
268.23477269126533
  0
LINE
  8
_0-b_細線3
  6
CONTINUOUS
 62
    7
 10
964.88584420753955
 20
268.23477269126533
 11
969.88584420753955
 21
268.23477269126533
  0
LINE
  8
_0-b_細線3
  6
CONTINUOUS
 62
    7
 10
969.88584420753955
 20
268.23477269126533
 11
969.88584420753955
 21
293.23477269126533
  0
LINE
  8
_0-b_細線3
  6
CONTINUOUS
 62
    7
 10
953.21917754087292
 20
293.23477269126533
 11
948.21917754087292
 21
293.23477269126533
  0
LINE
  8
_0-b_細線3
  6
CONTINUOUS
 62
    7
 10
948.21917754087292
 20
293.23477269126533
 11
948.21917754087292
 21
268.23477269126533
  0
LINE
  8
_0-b_細線3
  6
CONTINUOUS
 62
    7
 10
948.21917754087292
 20
268.23477269126533
 11
953.21917754087292
 21
268.23477269126533
  0
LINE
  8
_0-b_細線3
  6
CONTINUOUS
 62
    7
 10
953.21917754087292
 20
268.23477269126533
 11
953.21917754087292
 21
293.23477269126533
  0
LINE
  8
_0-b_細線3
  6
CONTINUOUS
 62
    7
 10
936.55251087420595
 20
293.23477269126533
 11
931.55251087420595
 21
293.23477269126533
  0
LINE
  8
_0-b_細線3
  6
CONTINUOUS
 62
    7
 10
931.55251087420595
 20
293.23477269126533
 11
931.55251087420595
 21
268.23477269126533
  0
LINE
  8
_0-b_細線3
  6
CONTINUOUS
 62
    7
 10
931.55251087420595
 20
268.23477269126533
 11
936.55251087420595
 21
268.23477269126533
  0
LINE
  8
_0-b_細線3
  6
CONTINUOUS
 62
    7
 10
936.55251087420595
 20
268.23477269126533
 11
936.55251087420595
 21
293.23477269126533
  0
LINE
  8
_0-b_細線3
  6
CONTINUOUS
 62
    7
 10
919.88584420753955
 20
293.23477269126533
 11
914.88584420753955
 21
293.23477269126533
  0
LINE
  8
_0-b_細線3
  6
CONTINUOUS
 62
    7
 10
914.88584420753955
 20
293.23477269126533
 11
914.88584420753955
 21
268.23477269126533
  0
LINE
  8
_0-b_細線3
  6
CONTINUOUS
 62
    7
 10
914.88584420753955
 20
268.23477269126533
 11
919.88584420753955
 21
268.23477269126533
  0
LINE
  8
_0-b_細線3
  6
CONTINUOUS
 62
    7
 10
919.88584420753955
 20
268.23477269126533
 11
919.88584420753955
 21
293.23477269126533
  0
LINE
  8
_0-b_細線3
  6
CONTINUOUS
 62
    7
 10
903.21917754087292
 20
293.23477269126533
 11
898.21917754087292
 21
293.23477269126533
  0
LINE
  8
_0-b_細線3
  6
CONTINUOUS
 62
    7
 10
898.21917754087292
 20
293.23477269126533
 11
898.21917754087292
 21
268.23477269126533
  0
LINE
  8
_0-b_細線3
  6
CONTINUOUS
 62
    7
 10
898.21917754087292
 20
268.23477269126533
 11
903.21917754087292
 21
268.23477269126533
  0
LINE
  8
_0-b_細線3
  6
CONTINUOUS
 62
    7
 10
903.21917754087292
 20
268.23477269126533
 11
903.21917754087292
 21
293.23477269126533
  0
LINE
  8
_0-b_細線3
  6
CONTINUOUS
 62
    7
 10
896.64232283795639
 20
268.23477269126533
 11
1025.372322294736
 21
268.23477269126533
  0
LINE
  8
_0-d_寸法3
  6
CONTINUOUS
 62
    7
 10
1035.3723222947356
 20
268.23477269126522
 11
1072.4585240897909
 21
268.23477269126488
  0
LINE
  8
_0-d_寸法3
  6
CONTINUOUS
 62
    7
 10
1067.4585240897909
 20
268.23477269126488
 11
1064.8703336387657
 21
277.89403095415554
  0
LINE
  8
_0-d_寸法3
  6
CONTINUOUS
 62
    7
 10
1067.4585240897909
 20
268.23477269126488
 11
1070.0467145408161
 21
277.89403095415554
  0
LINE
  8
_0-d_寸法3
  6
CONTINUOUS
 62
    7
 10
1031.7886832916975
 20
293.23477269126772
 11
1072.4585240897909
 21
293.23477269126732
  0
LINE
  8
_0-d_寸法3
  6
CONTINUOUS
 62
    7
 10
1067.4585240897909
 20
293.23477269126738
 11
1070.0467145408161
 21
283.57551442837678
  0
LINE
  8
_0-d_寸法3
  6
CONTINUOUS
 62
    7
 10
1067.4585240897909
 20
293.23477269126738
 11
1064.8703336387657
 21
283.57551442837678
  0
LINE
  8
_0-d_寸法3
  6
CONTINUOUS
 62
    7
 10
1067.4585240897909
 20
268.23477269126488
 11
1067.4585240897909
 21
293.23477269126738
  0
TEXT
  8
_0-d_寸法3
 62
    7
 10
1067.4585240897909
 20
273.23477269126624
 40
15
 41
1
 50
90
  1
15
  0
ARC
  8
_0-a_極細3
  6
CONTINUOUS
 62
    7
 10
915.67155211264264
 20
290.11918262666268
 40
22.826491478025751
 50
150.03871396148165
 51
205.23810402387943
  0
ARC
  8
_0-a_極細3
  6
CONTINUOUS
 62
    7
 10
874.37643436577503
 20
270.65362065024283
 40
22.826491478025751
 50
330.03871396148242
 51
25.238104023877408
  0
ARC
  8
_0-a_極細3
  6
CONTINUOUS
 62
    7
 10
1044.1624459785362
 20
289.24615131916562
 40
22.826491478025751
 50
150.0387139614823
 51
205.23810402387804
  0
ARC
  8
_0-a_極細3
  6
CONTINUOUS
 62
    7
 10
1002.8673282316687
 20
269.78058934274577
 40
22.826491478025751
 50
330.03871396148179
 51
25.238104023878375
  0
TEXT
  8
_0-7_枠細線
 62
    5
 10
908.61220398644207
 20
221.73388393903582
 40
25
 41
0.8
 50
0
  1
側面詳細図
  0
TEXT
  8
_0-7_枠細線
 62
    5
 10
974.01084011216926
 20
196.14641657611145
 40
20
 41
0.6
 50
0
  1
Ｓ＝１：３
  0
TEXT
  8
_0-7_枠細線
 62
    5
 10
965.50000000000011
 20
150
 40
20
 41
0.5
 50
0
  1
Ｆバー ステンレスグレーチング Ｈ１５タイプ
  0
CIRCLE
  8
_0-a_極細3
  6
CONTINUOUS
 62
    7
 10
323.71423266867055
 20
278.19373866348292
 40
0.5530864197530718
  0
LINE
  8
_0-a_極細3
  6
CONTINUOUS
 62
    7
 10
328.76399320518635
 20
293.23477269126784
 11
328.76399320518635
 21
281.56810602460087
  0
LINE
  8
_0-a_極細3
  6
CONTINUOUS
 62
    7
 10
328.76399320518635
 20
293.23477269126784
 11
239.58624606007177
 21
293.23477269126784
  0
LINE
  8
_0-a_極細3
  6
CONTINUOUS
 62
    7
 10
337.09732653851984
 20
281.56810602460087
 11
239.58624606007177
 21
281.56810602460087
  0
LINE
  8
_0-a_極細3
  6
CONTINUOUS
 62
    7
 10
337.09732653851984
 20
293.23477269126784
 11
328.76399320518635
 21
293.23477269126784
  0
LINE
  8
_0-a_極細3
  6
CONTINUOUS
 62
    7
 10
337.09732653851984
 20
292.40143935793435
 11
337.09732653851984
 21
293.23477269126784
  0
LINE
  8
_0-a_極細3
  6
CONTINUOUS
 62
    7
 10
336.8992362821603
 20
281.56810602460087
 11
337.09732653851938
 21
281.76619628096046
  0
LINE
  8
_0-a_極細3
  6
CONTINUOUS
 62
    7
 10
332.65659559504115
 20
281.56810602460087
 11
337.09732653851984
 21
286.00883696807955
  0
LINE
  8
_0-a_極細3
  6
CONTINUOUS
 62
    7
 10
328.76399320518635
 20
281.91814432186561
 11
337.09732653851984
 21
290.25147765519864
  0
LINE
  8
_0-a_極細3
  6
CONTINUOUS
 62
    7
 10
328.76399320518635
 20
286.1607850089847
 11
335.83798088746903
 21
293.23477269126784
  0
LINE
  8
_0-a_極細3
  6
CONTINUOUS
 62
    7
 10
328.76399320518635
 20
290.40342569610425
 11
331.59534020034994
 21
293.23477269126784
  0
LINE
  8
_0-a_極細3
  6
CONTINUOUS
 62
    7
 10
337.09732653851984
 20
290.95380581900895
 11
334.81635966626141
 21
293.23477269126784
  0
LINE
  8
_0-a_極細3
  6
CONTINUOUS
 62
    7
 10
337.09732653851984
 20
286.71116513188986
 11
330.57371897914186
 21
293.23477269126784
  0
LINE
  8
_0-a_極細3
  6
CONTINUOUS
 62
    7
 10
328.76399320518635
 20
290.80185777810379
 11
337.09732653851984
 21
282.46852444477076
  0
LINE
  8
_0-a_極細3
  6
CONTINUOUS
 62
    7
 10
328.76399320518635
 20
286.5592170909847
 11
333.75510427156973
 21
281.56810602460087
  0
LINE
  8
_0-a_極細3
  6
CONTINUOUS
 62
    7
 10
328.76399320518635
 20
282.31657640386516
 11
329.5124635844507
 21
281.56810602460087
  0
LINE
  8
_0-a_極細3
  6
CONTINUOUS
 62
    7
 10
319.9286735275557
 20
281.5681060184736
 11
328.76399320518635
 21
290.40342569610425
  0
LINE
  8
_0-a_極細3
  6
CONTINUOUS
 62
    7
 10
298.71547007724826
 20
281.56810600376252
 11
310.38213676475357
 21
293.23477269126738
  0
LINE
  8
_0-a_極細3
  6
CONTINUOUS
 62
    7
 10
277.50226662694035
 20
281.56810598905099
 11
289.16893332915674
 21
293.23477269126784
  0
LINE
  8
_0-a_極細3
  6
CONTINUOUS
 62
    7
 10
256.28906317663251
 20
281.56810597433991
 11
267.95572989356037
 21
293.23477269126784
  0
LINE
  8
_0-a_極細3
  6
CONTINUOUS
 62
    7
 10
239.58624606007177
 20
286.07849229337512
 11
246.742526457964
 21
293.23477269126738
  0
LINE
  8
_0-a_極細3
  6
DASHED2
 62
    7
 10
309.32207180240198
 20
281.56810601111806
 11
320.98873848255175
 21
293.23477269126784
  0
LINE
  8
_0-a_極細3
  6
DASHED2
 62
    7
 10
288.10886835209408
 20
281.56810599640653
 11
299.77553504695538
 21
293.23477269126784
  0
LINE
  8
_0-a_極細3
  6
DASHED2
 62
    7
 10
266.89566490178663
 20
281.56810598169545
 11
278.56233161135862
 21
293.23477269126784
  0
LINE
  8
_0-a_極細3
  6
DASHED2
 62
    7
 10
245.68246145147873
 20
281.56810596698438
 11
257.34912817576219
 21
293.23477269126784
  0
ARC
  8
_0-b_細線3
  6
CONTINUOUS
 62
    7
 10
470.43065987185287
 20
279.9014393579339
 40
8.75
 50
294.03943363457506
 51
65.960566365424228
  0
ARC
  8
_0-b_細線3
  6
CONTINUOUS
 62
    7
 10
470.43065987185287
 20
279.9014393579339
 40
8.75
 50
114.03943363457542
 51
245.96056636541877
  0
ARC
  8
_0-b_細線3
  6
CONTINUOUS
 62
    7
 10
470.43065987184559
 20
274.06810602454311
 40
2.4999999999928004
 50
179.99999999999983
 51
359.99999999999966
  0
LINE
  8
_0-b_細線3
  6
CONTINUOUS
 62
    7
 10
467.93065987185287
 20
285.73477269126738
 11
467.93065987185287
 21
274.06810602460041
  0
ARC
  8
_0-b_細線3
  6
CONTINUOUS
 62
    7
 10
470.43065987184559
 20
285.73477269133923
 40
2.5000000000072005
 50
0
 51
179.99999999999983
  0
LINE
  8
_0-b_細線3
  6
CONTINUOUS
 62
    7
 10
472.93065987185287
 20
274.06810602460041
 11
472.93065987185287
 21
285.73477269126738
  0
ARC
  8
_0-b_細線3
  6
CONTINUOUS
 62
    7
 10
470.43065987185832
 20
274.06810602458177
 40
4.1666666666723522
 50
179.99999999999983
 51
359.99999999999966
  0
LINE
  8
_0-b_細線3
  6
CONTINUOUS
 62
    7
 10
466.26399320518686
 20
285.73477269126738
 11
466.26399320518686
 21
274.06810602460041
  0
ARC
  8
_0-b_細線3
  6
CONTINUOUS
 62
    7
 10
470.43065987182018
 20
285.73477269136515
 40
4.1666666667000154
 50
0
 51
179.99999999999983
  0
LINE
  8
_0-b_細線3
  6
CONTINUOUS
 62
    7
 10
474.59732653851984
 20
274.06810602460041
 11
474.59732653851984
 21
285.73477269126738
  0
CIRCLE
  8
_0-a_極細3
  6
CONTINUOUS
 62
    7
 10
675.75867711311116
 20
278.50022014496449
 40
0.5530864197530718
  0
CIRCLE
  8
_0-a_極細3
  6
CONTINUOUS
 62
    7
 10
623.75867711311162
 20
279.43355347829788
 40
0.5530864197530718
  0
LINE
  8
_0-a_極細3
  6
CONTINUOUS
 62
    7
 10
612.09732653851938
 20
293.23477269126784
 11
612.09732653851938
 21
281.56810602460087
  0
LINE
  8
_0-a_極細3
  6
CONTINUOUS
 62
    7
 10
612.09732653851938
 20
293.23477269126784
 11
701.27507368363399
 21
293.23477269126784
  0
LINE
  8
_0-a_極細3
  6
CONTINUOUS
 62
    7
 10
603.7639932051859
 20
281.56810602460087
 11
701.27507368363399
 21
281.56810602460087
  0
LINE
  8
_0-a_極細3
  6
CONTINUOUS
 62
    7
 10
603.7639932051859
 20
293.23477269126784
 11
612.09732653851938
 21
293.23477269126784
  0
LINE
  8
_0-a_極細3
  6
CONTINUOUS
 62
    7
 10
603.7639932051859
 20
292.40143935793435
 11
603.7639932051859
 21
293.23477269126784
  0
LINE
  8
_0-a_極細3
  6
CONTINUOUS
 62
    7
 10
612.09732653851938
 20
285.23719230532583
 11
608.42824025779441
 21
281.56810602460087
  0
LINE
  8
_0-a_極細3
  6
CONTINUOUS
 62
    7
 10
612.09732653851938
 20
289.47983299244493
 11
604.18559957067532
 21
281.56810602460087
  0
LINE
  8
_0-a_極細3
  6
CONTINUOUS
 62
    7
 10
603.7639932051859
 20
285.38914034623099
 11
611.60962555022275
 21
293.23477269126784
  0
LINE
  8
_0-a_極細3
  6
CONTINUOUS
 62
    7
 10
603.7639932051859
 20
289.63178103335008
 11
607.3669848631032
 21
293.23477269126738
  0
LINE
  8
_0-a_極細3
  6
CONTINUOUS
 62
    7
 10
612.09732653851938
 20
291.72545048176221
 11
610.58800432901376
 21
293.23477269126784
  0
LINE
  8
_0-a_極細3
  6
CONTINUOUS
 62
    7
 10
612.09732653851938
 20
287.48280979464266
 11
606.34536364189466
 21
293.23477269126784
  0
LINE
  8
_0-a_極細3
  6
CONTINUOUS
 62
    7
 10
612.09732653851938
 20
283.24016910752357
 11
603.7639932051859
 21
291.57350244085706
  0
LINE
  8
_0-a_極細3
  6
CONTINUOUS
 62
    7
 10
609.52674893432254
 20
281.56810602460087
 11
603.7639932051859
 21
287.33086175373751
  0
LINE
  8
_0-a_極細3
  6
CONTINUOUS
 62
    7
 10
605.28410824720345
 20
281.56810602460087
 11
603.7639932051859
 21
283.08822106661842
  0
LINE
  8
_0-a_極細3
  6
CONTINUOUS
 62
    7
 10
680.55313193882216
 20
281.56810602460087
 11
692.21979797869994
 21
293.23477206447865
  0
LINE
  8
_0-a_極細3
  6
CONTINUOUS
 62
    7
 10
659.33992850322579
 20
281.56810602460087
 11
671.00659470905225
 21
293.23477223042732
  0
LINE
  8
_0-a_極細3
  6
CONTINUOUS
 62
    7
 10
638.12672506762942
 20
281.56810602460087
 11
649.7933914394041
 21
293.23477239637555
  0
LINE
  8
_0-a_極細3
  6
CONTINUOUS
 62
    7
 10
616.91352163203305
 20
281.56810602460087
 11
628.58018816975641
 21
293.23477256232422
  0
LINE
  8
_0-a_極細3
  6
DASHED2
 62
    7
 10
691.1597336566208
 20
281.56810602460087
 11
701.27507368363399
 21
291.68344605161451
  0
LINE
  8
_0-a_極細3
  6
DASHED2
 62
    7
 10
669.94653022102398
 20
281.56810602460087
 11
681.61319634387598
 21
293.23477214745276
  0
LINE
  8
_0-a_極細3
  6
DASHED2
 62
    7
 10
648.73332678542761
 20
281.56810602460087
 11
660.39999307422818
 21
293.23477231340144
  0
LINE
  8
_0-a_極細3
  6
DASHED2
 62
    7
 10
627.52012334983124
 20
281.56810602460087
 11
639.18678980458003
 21
293.23477247934966
  0
LINE
  8
_0-a_極細3
  6
DASHED2
 62
    7
 10
612.09732653851938
 20
287.35851264888538
 11
617.97358653493234
 21
293.23477264529834
  0
LINE
  8
_0-b_細線3
  6
CONTINUOUS
 62
    7
 10
590.43065987185287
 20
293.23477269126784
 11
350.43065987185287
 21
293.23477269126693
  0
LINE
  8
_0-a_極細3
  6
CENTER1
 62
    7
 10
606.43074827300802
 20
279.9014393579339
 11
335.44333409397927
 21
279.9014393579339
  0
LINE
  8
_0-a_極細3
  6
CENTER1
 62
    7
 10
470.43065987185287
 20
252.04894320581801
 11
470.43065987185287
 21
307.1656098724909
  0
LINE
  8
_0-d_寸法3
  6
CONTINUOUS
 62
    7
 10
462.23913942896297
 20
273.97053705477833
 11
426.88679770327752
 21
298.72451322446886
  0
LINE
  8
_0-d_寸法3
  6
CONTINUOUS
 62
    7
 10
430.98255792472241
 20
295.85663104271362
 11
428.39436747369723
 21
305.51588930560428
  0
LINE
  8
_0-d_寸法3
  6
CONTINUOUS
 62
    7
 10
430.98255792472241
 20
295.85663104271362
 11
433.57074837574771
 21
305.51588930560428
  0
LINE
  8
_0-d_寸法3
  6
CONTINUOUS
 62
    7
 10
462.23913942896303
 20
298.97053705477833
 11
426.88679770327752
 21
323.72451322446915
  0
LINE
  8
_0-d_寸法3
  6
CONTINUOUS
 62
    7
 10
430.98255792472241
 20
320.85663104271384
 11
433.57074837574766
 21
311.19737277982313
  0
LINE
  8
_0-d_寸法3
  6
CONTINUOUS
 62
    7
 10
430.98255792472241
 20
320.85663104271384
 11
428.39436747369717
 21
311.19737277982318
  0
LINE
  8
_0-d_寸法3
  6
CONTINUOUS
 62
    7
 10
430.98255792472241
 20
295.85663104271362
 11
430.98255792472241
 21
320.85663104271384
  0
TEXT
  8
_0-d_寸法3
 62
    7
 10
430.98255792472241
 20
300.85663104271339
 40
15
 41
1
 50
90
  1
15
  0
TEXT
  8
_0-7_枠細線
 62
    5
 10
420.50861223261904
 20
118.23440768958946
 40
25
 41
0.8
 50
0
  1
断面詳細図
  0
TEXT
  8
_0-7_枠細線
 62
    5
 10
535.45758198178714
 20
118.23440768958946
 40
20
 41
0.6
 50
0
  1
Ｓ＝１：３
  0
LINE
  8
_0-a_極細3
  6
CONTINUOUS
 62
    7
 10
270.43065987185264
 20
256.56810602460087
 11
270.43065987185264
 21
188.23477269126784
  0
LINE
  8
_0-a_極細3
  6
CONTINUOUS
 62
    7
 10
353.76399320518595
 20
188.23477269126784
 11
270.43065987185264
 21
188.23477269126784
  0
LINE
  8
_0-a_極細3
  6
CONTINUOUS
 62
    7
 10
270.43065987185264
 20
256.56810602460087
 11
239.58624606007149
 21
256.56810602460087
  0
LINE
  8
_0-a_極細3
  6
CONTINUOUS
 62
    7
 10
353.76399320518595
 20
188.23477269126784
 11
353.76399320518595
 21
161.99317239648849
  0
LINE
  8
_0-a_極細3
  6
CONTINUOUS
 62
    7
 10
316.34201864019616
 20
161.9931725129257
 11
342.58361881853921
 21
188.23477269126784
  0
LINE
  8
_0-a_極細3
  6
CONTINUOUS
 62
    7
 10
245.63134074155505
 20
161.99317273293877
 11
271.87294069988411
 21
188.23477269126784
  0
LINE
  8
_0-a_極細3
  6
CONTINUOUS
 62
    7
 10
239.58624606007149
 20
226.65875617011011
 11
269.49559591456278
 21
256.56810602460087
  0
LINE
  8
_0-a_極細3
  6
CONTINUOUS
 62
    7
 10
309.27095085033193
 20
161.9931725349268
 11
335.51255100667345
 21
188.23477269126784
  0
LINE
  8
_0-a_極細3
  6
CONTINUOUS
 62
    7
 10
239.58624606007149
 20
163.0191458633206
 11
270.43065987185264
 21
193.86355967510212
  0
LINE
  8
_0-a_極細3
  6
CONTINUOUS
 62
    7
 10
239.58624606007149
 20
233.72982398197541
 11
262.42452810269697
 21
256.56810602460087
  0
LINE
  8
_0-a_極細3
  6
CONTINUOUS
 62
    7
 10
302.19988306046872
 20
161.99317255692833
 11
328.44148319480774
 21
188.23477269126784
  0
LINE
  8
_0-a_極細3
  6
CONTINUOUS
 62
    7
 10
239.58624606007149
 20
170.09021367518628
 11
270.43065987185264
 21
200.93462748696743
  0
LINE
  8
_0-a_極細3
  6
CONTINUOUS
 62
    7
 10
239.58624606007149
 20
240.80089179384075
 11
255.35346029083172
 21
256.56810602460087
  0
CIRCLE
  8
_0-a_極細3
  6
CONTINUOUS
 62
    7
 10
257.48213390323872
 20
271.77151644126093
 40
0.5530864197530718
  0
CIRCLE
  8
_0-a_極細3
  6
CONTINUOUS
 62
    7
 10
247.15126970570827
 20
261.81596088570564
 40
0.5530864197530718
  0
CIRCLE
  8
_0-a_極細3
  6
CONTINUOUS
 62
    7
 10
257.75867711311548
 20
262.88262755237224
 40
0.5530864197530718
  0
CIRCLE
  8
_0-a_極細3
  6
CONTINUOUS
 62
    7
 10
270.38089933533774
 20
264.83818310792753
 40
0.5530864197530718
  0
CIRCLE
  8
_0-a_極細3
  6
CONTINUOUS
 62
    7
 10
298.82534377978186
 20
276.57151644126111
 40
0.5530864197530718
  0
CIRCLE
  8
_0-a_極細3
  6
CONTINUOUS
 62
    7
 10
329.40312155755942
 20
270.34929421903894
 40
0.5530864197530718
  0
CIRCLE
  8
_0-a_極細3
  6
CONTINUOUS
 62
    7
 10
304.51423266867073
 20
269.81596088570564
 40
0.5530864197530718
  0
CIRCLE
  8
_0-a_極細3
  6
CONTINUOUS
 62
    7
 10
277.32534377978209
 20
257.58262755237206
 40
0.5530864197530718
  0
CIRCLE
  8
_0-a_極細3
  6
CONTINUOUS
 62
    7
 10
297.7697882242262
 20
256.33818310792753
 40
0.5530864197530718
  0
CIRCLE
  8
_0-a_極細3
  6
CONTINUOUS
 62
    7
 10
322.83645489089281
 20
252.60484977459441
 40
0.5530864197530718
  0
CIRCLE
  8
_0-a_極細3
  6
CONTINUOUS
 62
    7
 10
310.2142326686706
 20
246.91596088570554
 40
0.5530864197530718
  0
CIRCLE
  8
_0-a_極細3
  6
CONTINUOUS
 62
    7
 10
295.45867711311507
 20
233.4048497745944
 40
0.5530864197530718
  0
CIRCLE
  8
_0-a_極細3
  6
CONTINUOUS
 62
    7
 10
322.83645489089281
 20
240.6937386634834
 40
0.5530864197530718
  0
CIRCLE
  8
_0-a_極細3
  6
CONTINUOUS
 62
    7
 10
281.72534377978172
 20
213.58262755237251
 40
0.5530864197530718
  0
CIRCLE
  8
_0-a_極細3
  6
CONTINUOUS
 62
    7
 10
276.03645489089286
 20
195.62707199681725
 40
0.5530864197530718
  0
CIRCLE
  8
_0-a_極細3
  6
CONTINUOUS
 62
    7
 10
284.74756600200408
 20
202.38262755237272
 40
0.5530864197530718
  0
CIRCLE
  8
_0-a_極細3
  6
CONTINUOUS
 62
    7
 10
290.96978822422602
 20
193.84929421903939
 40
0.5530864197530718
  0
CIRCLE
  8
_0-a_極細3
  6
CONTINUOUS
 62
    7
 10
330.2697882242262
 20
211.73818310792811
 40
0.5530864197530718
  0
CIRCLE
  8
_0-a_極細3
  6
CONTINUOUS
 62
    7
 10
319.06978822422644
 20
206.22707199681713
 40
0.5530864197530718
  0
CIRCLE
  8
_0-a_極細3
  6
CONTINUOUS
 62
    7
 10
325.29201044644816
 20
203.73818310792814
 40
0.5530864197530718
  0
CIRCLE
  8
_0-a_極細3
  6
CONTINUOUS
 62
    7
 10
321.73645489089245
 20
194.49373866348401
 40
0.5530864197530718
  0
CIRCLE
  8
_0-a_極細3
  6
CONTINUOUS
 62
    7
 10
341.647566002004
 20
195.56040533015064
 40
0.5530864197530718
  0
CIRCLE
  8
_0-a_極細3
  6
CONTINUOUS
 62
    7
 10
354.62534377978113
 20
198.76040533015043
 40
0.5530864197530718
  0
CIRCLE
  8
_0-a_極細3
  6
CONTINUOUS
 62
    7
 10
368.31423266867
 20
183.82707199681747
 40
0.5530864197530718
  0
CIRCLE
  8
_0-a_極細3
  6
CONTINUOUS
 62
    7
 10
361.38089933533661
 20
168.89373866348407
 40
0.5530864197530718
  0
CIRCLE
  8
_0-a_極細3
  6
CONTINUOUS
 62
    7
 10
344.71423266867055
 20
212.50855347829861
 40
0.5530864197530718
  0
CIRCLE
  8
_0-a_極細3
  6
CONTINUOUS
 62
    7
 10
359.46978822422602
 20
246.64188681163182
 40
0.5530864197530718
  0
CIRCLE
  8
_0-a_極細3
  6
CONTINUOUS
 62
    7
 10
374.58089933533643
 20
236.6863312560761
 40
0.5530864197530718
  0
CIRCLE
  8
_0-a_極細3
  6
CONTINUOUS
 62
    7
 10
375.11423266867018
 20
218.73077570052078
 40
0.5530864197530718
  0
CIRCLE
  8
_0-a_極細3
  6
CONTINUOUS
 62
    7
 10
339.86978822422566
 20
248.4641090338539
 40
0.5530864197530718
  0
CIRCLE
  8
_0-a_極細3
  6
CONTINUOUS
 62
    7
 10
319.58089933533734
 20
270.44805965113778
 40
1.825531472681392
  0
CIRCLE
  8
_0-a_極細3
  6
CONTINUOUS
 62
    7
 10
267.81877963390207
 20
277.37767392583532
 40
1.825531472681392
  0
CIRCLE
  8
_0-a_極細3
  6
CONTINUOUS
 62
    7
 10
294.35867711311471
 20
247.64805965113763
 40
1.825531472681392
  0
CIRCLE
  8
_0-a_極細3
  6
CONTINUOUS
 62
    7
 10
274.75867711311508
 20
209.64805965113808
 40
1.825531472681392
  0
CIRCLE
  8
_0-a_極細3
  6
CONTINUOUS
 62
    7
 10
327.95867711311416
 20
196.84805965113839
 40
1.825531472681392
  0
CIRCLE
  8
_0-a_極細3
  6
CONTINUOUS
 62
    7
 10
363.93645489089232
 20
193.24805965113839
 40
1.825531472681392
  0
CIRCLE
  8
_0-a_極細3
  6
CONTINUOUS
 62
    7
 10
368.73645489089154
 20
174.58139298447193
 40
1.825531472681392
  0
CIRCLE
  8
_0-a_極細3
  6
CONTINUOUS
 62
    7
 10
247.62170009282272
 20
278.27028187335986
 40
1.825531472681392
  0
LINE
  8
_0-a_極細3
  6
CONTINUOUS
 62
    7
 10
386.26399320518595
 20
263.23477269126784
 11
387.09732653851984
 21
263.23477269126784
  0
LINE
  8
_0-a_極細3
  6
CONTINUOUS
 62
    7
 10
387.09732653851984
 20
263.23477269126784
 11
387.09732653851984
 21
161.99317239648849
  0
CIRCLE
  8
_0-a_極細3
  6
CONTINUOUS
 62
    7
 10
380.20989239089045
 20
247.24805965113845
 40
1.825531472681392
  0
CIRCLE
  8
_0-a_極細3
  6
CONTINUOUS
 62
    7
 10
379.21793637237329
 20
192.53818310792823
 40
0.5530864197530718
  0
CIRCLE
  8
_0-a_極細3
  6
CONTINUOUS
 62
    7
 10
380.55126970570723
 20
169.88211207475871
 40
0.5530864197530718
  0
CIRCLE
  8
_0-a_極細3
  6
CONTINUOUS
 62
    7
 10
368.18089933533224
 20
228.13694854002759
 40
1.825531472681392
  0
LINE
  8
_0-a_極細3
  6
CONTINUOUS
 62
    7
 10
293.45725831803406
 20
213.11647385377114
 11
288.32695616814885
 21
227.21186316555963
  0
LINE
  8
_0-a_極細3
  6
CONTINUOUS
 62
    7
 10
343.45130099183075
 20
247.27548386480592
 11
348.5816031417155
 21
233.1800945530174
  0
LINE
  8
_0-a_極細3
  6
CONTINUOUS
 62
    7
 10
288.32695616814885
 20
227.21186316555963
 11
343.45130099183075
 21
247.27548386480592
  0
LINE
  8
_0-a_極細3
  6
CONTINUOUS
 62
    7
 10
293.45725831803406
 20
213.11647385377114
 11
348.5816031417155
 21
233.1800945530174
  0
LINE
  8
_0-a_極細3
  6
CENTER1
 62
    7
 10
285.93667385109893
 20
218.36053846963549
 11
349.96769433366467
 21
241.66592395467092
  0
LINE
  8
_0-a_極細3
  6
CONTINUOUS
 62
    7
 10
312.09732653851984
 20
188.23477269126784
 11
312.09732653851984
 21
232.32033403958397
  0
LINE
  8
_0-a_極細3
  6
CONTINUOUS
 62
    7
 10
312.09732653851984
 20
232.32033403958397
 11
297.09732653851984
 21
232.32033403958397
  0
LINE
  8
_0-a_極細3
  6
CONTINUOUS
 62
    7
 10
297.09732653851984
 20
232.32033403958397
 11
297.09732653851984
 21
188.23477269126784
  0
CIRCLE
  8
_0-a_極細3
  6
CONTINUOUS
 62
    7
 10
326.47719563163332
 20
218.15670162644642
 40
1.825531472681392
  0
CIRCLE
  8
_0-a_極細3
  6
CONTINUOUS
 62
    7
 10
348.18583760694196
 20
224.37892384866885
 40
1.825531472681392
  0
LINE
  8
_0-a_極細3
  6
CENTER1
 62
    7
 10
304.59732653851984
 20
179.95803240681497
 11
304.59732653851984
 21
236.59605420419325
  0
LINE
  8
_0-d_寸法3
  6
CONTINUOUS
 62
    7
 10
337.09732653851967
 20
214.90143935793438
 11
337.09732653851927
 21
197.75674745702901
  0
LINE
  8
_0-d_寸法3
  6
CONTINUOUS
 62
    7
 10
337.09732653851938
 20
202.75674745702901
 11
346.75658480141004
 21
205.34493790805416
  0
LINE
  8
_0-d_寸法3
  6
CONTINUOUS
 62
    7
 10
337.09732653851938
 20
202.75674745702901
 11
346.75658480141004
 21
200.16855700600374
  0
LINE
  8
_0-d_寸法3
  6
CONTINUOUS
 62
    7
 10
387.09732653851972
 20
253.23477269126784
 11
387.09732653851887
 21
197.75674745702901
  0
LINE
  8
_0-d_寸法3
  6
CONTINUOUS
 62
    7
 10
387.09732653851893
 20
202.75674745702901
 11
377.43806827562821
 21
200.16855700600374
  0
LINE
  8
_0-d_寸法3
  6
CONTINUOUS
 62
    7
 10
387.09732653851893
 20
202.75674745702901
 11
377.43806827562827
 21
205.34493790805419
  0
LINE
  8
_0-d_寸法3
  6
CONTINUOUS
 62
    7
 10
337.09732653851938
 20
202.75674745702901
 11
387.09732653851893
 21
202.75674745702901
  0
TEXT
  8
_0-d_寸法3
 62
    7
 10
354.59732653851938
 20
202.75674745702901
 40
15
 41
1
 50
0
  1
30
  0
ARC
  8
_0-b_細線3
  6
CONTINUOUS
 62
    7
 10
342.09732653851984
 20
268.23477269126784
 40
5
 50
179.99999999999983
 51
269.99999999999977
  0
LINE
  8
_0-b_細線3
  6
CONTINUOUS
 62
    7
 10
337.09732653851984
 20
268.23477269126784
 11
337.09732653851984
 21
292.40143935793435
  0
LINE
  8
_0-b_細線3
  6
CONTINUOUS
 62
    7
 10
342.09732653851984
 20
263.23477269126784
 11
386.26399320518595
 21
263.23477269126784
  0
LINE
  8
_0-b_細線3
  6
CONTINUOUS
 62
    7
 10
387.09732653851984
 20
264.06810602460087
 11
386.26399320518595
 21
263.23477269126784
  0
LINE
  8
_0-b_細線3
  6
CONTINUOUS
 62
    7
 10
387.09732653851984
 20
267.40143935793435
 11
387.09732653851984
 21
264.06810602460087
  0
LINE
  8
_0-b_細線3
  6
CONTINUOUS
 62
    7
 10
386.26399320518595
 20
268.23477269126784
 11
387.09732653851984
 21
267.40143935793435
  0
LINE
  8
_0-b_細線3
  6
CONTINUOUS
 62
    7
 10
342.09732653851984
 20
268.23477269126784
 11
386.26399320518595
 21
268.23477269126784
  0
LINE
  8
_0-b_細線3
  6
CONTINUOUS
 62
    7
 10
337.93065987185287
 20
293.23477269126784
 11
337.09732653851984
 21
292.40143935793435
  0
LINE
  8
_0-b_細線3
  6
CONTINUOUS
 62
    7
 10
341.26399320518635
 20
293.23477269126784
 11
337.93065987185287
 21
293.23477269126784
  0
LINE
  8
_0-b_細線3
  6
CONTINUOUS
 62
    7
 10
342.09732653851984
 20
292.40143935793435
 11
341.26399320518635
 21
293.23477269126784
  0
LINE
  8
_0-b_細線3
  6
CONTINUOUS
 62
    7
 10
342.09732653851984
 20
268.23477269126784
 11
342.09732653851984
 21
292.40143935793435
  0
LINE
  8
_0-b_細線3
  6
CONTINUOUS
 62
    7
 10
350.43065987185287
 20
268.23477269126738
 11
350.43065987185287
 21
293.23477269126693
  0
LINE
  8
_0-b_細線3
  6
CONTINUOUS
 62
    7
 10
350.43065987185287
 20
293.23477269126693
 11
345.43065987185287
 21
293.23477269126693
  0
LINE
  8
_0-b_細線3
  6
CONTINUOUS
 62
    7
 10
345.43065987185287
 20
293.23477269126693
 11
345.43065987185287
 21
268.23477269126738
  0
LINE
  8
_0-b_細線3
  6
CONTINUOUS
 62
    7
 10
345.43065987185287
 20
268.23477269126738
 11
350.43065987185287
 21
268.23477269126738
  0
LINE
  8
_0-a_極細3
  6
CONTINUOUS
 62
    7
 10
670.43065987185241
 20
256.56810602460087
 11
670.43065987185241
 21
188.23477269126784
  0
LINE
  8
_0-a_極細3
  6
CONTINUOUS
 62
    7
 10
587.09732653851938
 20
188.23477269126784
 11
670.43065987185241
 21
188.23477269126784
  0
LINE
  8
_0-a_極細3
  6
CONTINUOUS
 62
    7
 10
670.43065987185241
 20
256.56810602460087
 11
701.27507368363399
 21
256.56810602460087
  0
LINE
  8
_0-a_極細3
  6
CONTINUOUS
 62
    7
 10
587.09732653851938
 20
188.23477269126784
 11
587.09732653851938
 21
161.99317239648849
  0
LINE
  8
_0-a_極細3
  6
CONTINUOUS
 62
    7
 10
678.72066228644587
 20
161.99317239648849
 11
701.27507372517471
 21
184.54758383521749
  0
LINE
  8
_0-a_極細3
  6
CONTINUOUS
 62
    7
 10
608.00998416779089
 20
161.99317239648849
 11
634.25158446256978
 21
188.23477269126784
  0
LINE
  8
_0-a_極細3
  6
CONTINUOUS
 62
    7
 10
670.43065987185241
 20
224.41384810055027
 11
701.27507368438944
 21
255.25826191308738
  0
LINE
  8
_0-a_極細3
  6
CONTINUOUS
 62
    7
 10
671.64959447458
 20
161.99317239648849
 11
701.27507372109608
 21
191.61865164300457
  0
LINE
  8
_0-a_極細3
  6
CONTINUOUS
 62
    7
 10
600.93891635592513
 20
161.99317239648849
 11
627.18051665070448
 21
188.23477269126784
  0
LINE
  8
_0-a_極細3
  6
CONTINUOUS
 62
    7
 10
670.43065987185241
 20
231.4849159124158
 11
695.51384980448734
 21
256.5681058450507
  0
LINE
  8
_0-a_極細3
  6
CONTINUOUS
 62
    7
 10
664.57852666271481
 20
161.99317239648849
 11
701.27507371701756
 21
198.68971945079167
  0
LINE
  8
_0-a_極細3
  6
CONTINUOUS
 62
    7
 10
593.86784854405983
 20
161.99317239648849
 11
620.10944883883917
 21
188.23477269126784
  0
LINE
  8
_0-a_極細3
  6
CONTINUOUS
 62
    7
 10
670.43065987185241
 20
238.55598372428133
 11
688.44278204323814
 21
256.5681058956668
  0
CIRCLE
  8
_0-a_極細3
  6
CONTINUOUS
 62
    7
 10
573.5031215575566
 20
247.0891090338539
 40
0.5530864197530718
  0
CIRCLE
  8
_0-a_極細3
  6
CONTINUOUS
 62
    7
 10
583.45867711311189
 20
251.88910903385363
 40
0.5530864197530718
  0
CIRCLE
  8
_0-a_極細3
  6
CONTINUOUS
 62
    7
 10
579.36978822422338
 20
226.91133125607647
 40
0.5530864197530718
  0
CIRCLE
  8
_0-a_極細3
  6
CONTINUOUS
 62
    7
 10
596.90312155755669
 20
209.88910903385408
 40
0.5530864197530718
  0
CIRCLE
  8
_0-a_極細3
  6
CONTINUOUS
 62
    7
 10
579.0697882242232
 20
186.58910903385433
 40
0.5530864197530718
  0
CIRCLE
  8
_0-a_極細3
  6
CONTINUOUS
 62
    7
 10
569.73645489089017
 20
168.72244236718799
 40
0.5530864197530718
  0
CIRCLE
  8
_0-a_極細3
  6
CONTINUOUS
 62
    7
 10
581.20312155755641
 20
198.58910903385436
 40
0.5530864197530718
  0
CIRCLE
  8
_0-a_極細3
  6
CONTINUOUS
 62
    7
 10
595.0697882242232
 20
193.78910903385417
 40
0.5530864197530718
  0
CIRCLE
  8
_0-a_極細3
  6
CONTINUOUS
 62
    7
 10
622.0031215575566
 20
194.05577570052102
 40
0.5530864197530718
  0
CIRCLE
  8
_0-a_極細3
  6
CONTINUOUS
 62
    7
 10
610.0031215575566
 20
203.12244236718769
 40
0.5530864197530718
  0
CIRCLE
  8
_0-a_極細3
  6
CONTINUOUS
 62
    7
 10
621.20312155755641
 20
208.72244236718757
 40
0.5530864197530718
  0
CIRCLE
  8
_0-a_極細3
  6
CONTINUOUS
 62
    7
 10
609.22534377977831
 20
263.01133125607589
 40
0.5530864197530718
  0
CIRCLE
  8
_0-a_極細3
  6
CONTINUOUS
 62
    7
 10
629.75867711311162
 20
262.30022014496467
 40
0.5530864197530718
  0
CIRCLE
  8
_0-a_極細3
  6
CONTINUOUS
 62
    7
 10
618.15867711311171
 20
248.30022014496492
 40
0.5530864197530718
  0
CIRCLE
  8
_0-a_極細3
  6
CONTINUOUS
 62
    7
 10
657.35867711311153
 20
195.10022014496528
 40
0.5530864197530718
  0
CIRCLE
  8
_0-a_極細3
  6
CONTINUOUS
 62
    7
 10
664.55867711311146
 20
209.10022014496533
 40
0.5530864197530718
  0
CIRCLE
  8
_0-a_極細3
  6
CONTINUOUS
 62
    7
 10
662.95867711311098
 20
229.90022014496503
 40
0.5530864197530718
  0
CIRCLE
  8
_0-a_極細3
  6
CONTINUOUS
 62
    7
 10
644.95867711311143
 20
251.10022014496485
 40
0.5530864197530718
  0
CIRCLE
  8
_0-a_極細3
  6
CONTINUOUS
 62
    7
 10
661.75867711311116
 20
270.70022014496476
 40
0.5530864197530718
  0
CIRCLE
  8
_0-a_極細3
  6
CONTINUOUS
 62
    7
 10
658.95867711311098
 20
243.90022014496506
 40
0.5530864197530718
  0
CIRCLE
  8
_0-a_極細3
  6
CONTINUOUS
 62
    7
 10
688.55867711311089
 20
265.10022014496485
 40
0.5530864197530718
  0
CIRCLE
  8
_0-a_極細3
  6
CONTINUOUS
 62
    7
 10
683.75867711311071
 20
278.87028187335977
 40
1.825531472681392
  0
CIRCLE
  8
_0-a_極細3
  6
CONTINUOUS
 62
    7
 10
668.11423266866655
 20
263.40361520669308
 40
1.825531472681392
  0
CIRCLE
  8
_0-a_極細3
  6
CONTINUOUS
 62
    7
 10
612.69201044644501
 20
269.98139298447109
 40
1.825531472681392
  0
CIRCLE
  8
_0-a_極細3
  6
CONTINUOUS
 62
    7
 10
644.69201044644467
 20
237.98139298447111
 40
1.825531472681392
  0
CIRCLE
  8
_0-a_極細3
  6
CONTINUOUS
 62
    7
 10
574.2975660020013
 20
193.43139298447184
 40
1.825531472681392
  0
CIRCLE
  8
_0-a_極細3
  6
CONTINUOUS
 62
    7
 10
584.51978822422302
 20
223.29805965113817
 40
1.825531472681392
  0
CIRCLE
  8
_0-a_極細3
  6
CONTINUOUS
 62
    7
 10
619.71978822422284
 20
200.89805965113854
 40
1.825531472681392
  0
CIRCLE
  8
_0-a_極細3
  6
CONTINUOUS
 62
    7
 10
665.98498085950655
 20
190.71100725916878
 40
1.825531472681392
  0
CIRCLE
  8
_0-a_極細3
  6
CONTINUOUS
 62
    7
 10
615.31978822422275
 20
244.0980596511379
 40
1.825531472681392
  0
CIRCLE
  8
_0-a_極細3
  6
CONTINUOUS
 62
    7
 10
567.85373884150727
 20
238.67485424410165
 40
0.5530864197530718
  0
CIRCLE
  8
_0-a_極細3
  6
CONTINUOUS
 62
    7
 10
568.05373884150799
 20
214.71929868854636
 40
0.5530864197530718
  0
CIRCLE
  8
_0-a_極細3
  6
CONTINUOUS
 62
    7
 10
645.09201044644465
 20
275.44805965113778
 40
1.825531472681392
  0
LINE
  8
_0-a_極細3
  6
CONTINUOUS
 62
    7
 10
554.59732653851847
 20
263.23477269126784
 11
553.76399320518544
 21
263.23477269126784
  0
LINE
  8
_0-a_極細3
  6
CONTINUOUS
 62
    7
 10
553.76399320518544
 20
263.23477269126784
 11
553.76399320518544
 21
161.99317239648849
  0
CIRCLE
  8
_0-a_極細3
  6
CONTINUOUS
 62
    7
 10
559.7483890472688
 20
223.17799792274286
 40
0.5530864197530718
  0
CIRCLE
  8
_0-a_極細3
  6
CONTINUOUS
 62
    7
 10
561.0549734094086
 20
183.92244236718781
 40
0.5530864197530718
  0
CIRCLE
  8
_0-a_極細3
  6
CONTINUOUS
 62
    7
 10
560.41608452051901
 20
249.87583742891616
 40
1.825531472681392
  0
CIRCLE
  8
_0-a_極細3
  6
CONTINUOUS
 62
    7
 10
563.364232668667
 20
177.25361520669395
 40
1.825531472681392
  0
LINE
  8
_0-a_極細3
  6
CONTINUOUS
 62
    7
 10
647.40406142567122
 20
213.11647385377114
 11
652.53436357555643
 21
227.21186316555963
  0
LINE
  8
_0-a_極細3
  6
CONTINUOUS
 62
    7
 10
597.41001875187499
 20
247.27548386480592
 11
592.27971660199023
 21
233.1800945530174
  0
LINE
  8
_0-a_極細3
  6
CONTINUOUS
 62
    7
 10
652.53436357555643
 20
227.21186316555963
 11
597.41001875187499
 21
247.27548386480592
  0
LINE
  8
_0-a_極細3
  6
CONTINUOUS
 62
    7
 10
647.40406142567122
 20
213.11647385377114
 11
592.27971660199023
 21
233.1800945530174
  0
LINE
  8
_0-a_極細3
  6
CENTER1
 62
    7
 10
654.92464589260658
 20
218.36053846963549
 11
590.89362541004107
 21
241.66592395467092
  0
LINE
  8
_0-a_極細3
  6
CONTINUOUS
 62
    7
 10
628.7639932051859
 20
188.23477269126784
 11
628.7639932051859
 21
232.32033403958397
  0
LINE
  8
_0-a_極細3
  6
CONTINUOUS
 62
    7
 10
628.7639932051859
 20
232.32033403958397
 11
643.7639932051859
 21
232.32033403958397
  0
LINE
  8
_0-a_極細3
  6
CONTINUOUS
 62
    7
 10
643.7639932051859
 20
232.32033403958397
 11
643.7639932051859
 21
188.23477269126784
  0
LINE
  8
_0-a_極細3
  6
CENTER1
 62
    7
 10
636.2639932051859
 20
179.95803240681497
 11
636.2639932051859
 21
236.59605420419325
  0
CIRCLE
  8
_0-a_極細3
  6
CONTINUOUS
 62
    7
 10
630.38089933533433
 20
245.39651644126138
 40
0.5530864197530718
  0
CIRCLE
  8
_0-a_極細3
  6
CONTINUOUS
 62
    7
 10
652.59708589226125
 20
232.05330656471847
 40
0.5530864197530718
  0
LINE
  8
_0-d_寸法3
  6
CONTINUOUS
 62
    7
 10
603.76399320518635
 20
214.90143935793438
 11
603.76399320518635
 21
197.75674745702901
  0
LINE
  8
_0-d_寸法3
  6
CONTINUOUS
 62
    7
 10
603.76399320518635
 20
202.75674745702901
 11
594.10473494229564
 21
200.16855700600374
  0
LINE
  8
_0-d_寸法3
  6
CONTINUOUS
 62
    7
 10
603.76399320518635
 20
202.75674745702901
 11
594.10473494229564
 21
205.34493790805416
  0
LINE
  8
_0-d_寸法3
  6
CONTINUOUS
 62
    7
 10
553.76399320518635
 20
253.23477269126784
 11
553.76399320518635
 21
197.75674745702901
  0
LINE
  8
_0-d_寸法3
  6
CONTINUOUS
 62
    7
 10
553.76399320518635
 20
202.75674745702901
 11
563.42325146807707
 21
205.34493790805419
  0
LINE
  8
_0-d_寸法3
  6
CONTINUOUS
 62
    7
 10
553.76399320518635
 20
202.75674745702901
 11
563.42325146807707
 21
200.16855700600374
  0
LINE
  8
_0-d_寸法3
  6
CONTINUOUS
 62
    7
 10
603.76399320518635
 20
202.75674745702901
 11
553.76399320518635
 21
202.75674745702901
  0
TEXT
  8
_0-d_寸法3
 62
    7
 10
571.26399320518635
 20
202.75674745702895
 40
15
 41
1
 50
0.0000000000002714
  1
30
  0
ARC
  8
_0-b_細線3
  6
CONTINUOUS
 62
    7
 10
598.7639932051859
 20
268.23477269126784
 40
5
 50
269.99999999999977
 51
359.99999999999966
  0
LINE
  8
_0-b_細線3
  6
CONTINUOUS
 62
    7
 10
603.7639932051859
 20
268.23477269126784
 11
603.7639932051859
 21
292.40143935793435
  0
LINE
  8
_0-b_細線3
  6
CONTINUOUS
 62
    7
 10
598.7639932051859
 20
263.23477269126784
 11
554.59732653851847
 21
263.23477269126784
  0
LINE
  8
_0-b_細線3
  6
CONTINUOUS
 62
    7
 10
553.76399320518544
 20
264.06810602460087
 11
554.59732653851847
 21
263.23477269126784
  0
LINE
  8
_0-b_細線3
  6
CONTINUOUS
 62
    7
 10
553.76399320518544
 20
267.40143935793435
 11
553.76399320518544
 21
264.06810602460087
  0
LINE
  8
_0-b_細線3
  6
CONTINUOUS
 62
    7
 10
554.59732653851847
 20
268.23477269126784
 11
553.76399320518544
 21
267.40143935793435
  0
LINE
  8
_0-b_細線3
  6
CONTINUOUS
 62
    7
 10
598.7639932051859
 20
268.23477269126784
 11
554.59732653851847
 21
268.23477269126784
  0
LINE
  8
_0-b_細線3
  6
CONTINUOUS
 62
    7
 10
602.93065987185287
 20
293.23477269126784
 11
603.7639932051859
 21
292.40143935793435
  0
LINE
  8
_0-b_細線3
  6
CONTINUOUS
 62
    7
 10
599.59732653851938
 20
293.23477269126784
 11
602.93065987185287
 21
293.23477269126784
  0
LINE
  8
_0-b_細線3
  6
CONTINUOUS
 62
    7
 10
598.7639932051859
 20
292.40143935793435
 11
599.59732653851938
 21
293.23477269126784
  0
LINE
  8
_0-b_細線3
  6
CONTINUOUS
 62
    7
 10
598.7639932051859
 20
268.23477269126784
 11
598.7639932051859
 21
292.40143935793435
  0
LINE
  8
_0-b_細線3
  6
CONTINUOUS
 62
    7
 10
590.43065987185287
 20
268.23477269126784
 11
590.43065987185287
 21
293.23477269126784
  0
LINE
  8
_0-b_細線3
  6
CONTINUOUS
 62
    7
 10
590.43065987185287
 20
293.23477269126784
 11
595.43065987185287
 21
293.23477269126784
  0
LINE
  8
_0-b_細線3
  6
CONTINUOUS
 62
    7
 10
595.43065987185287
 20
293.23477269126784
 11
595.43065987185287
 21
268.23477269126784
  0
LINE
  8
_0-b_細線3
  6
CONTINUOUS
 62
    7
 10
595.43065987185287
 20
268.23477269126784
 11
590.43065987185287
 21
268.23477269126784
  0
LINE
  8
_0-d_寸法3
  6
CONTINUOUS
 62
    7
 10
387.09732653851984
 20
258.23477269126784
 11
387.09732653851984
 21
197.75674745702901
  0
LINE
  8
_0-d_寸法3
  6
CONTINUOUS
 62
    7
 10
387.09732653851984
 20
202.75674745702901
 11
396.75658480141055
 21
205.34493790805416
  0
LINE
  8
_0-d_寸法3
  6
CONTINUOUS
 62
    7
 10
387.09732653851984
 20
202.75674745702901
 11
396.75658480141055
 21
200.16855700600374
  0
LINE
  8
_0-d_寸法3
  6
CONTINUOUS
 62
    7
 10
553.76399320518544
 20
258.23477269126784
 11
553.76399320518544
 21
197.75674745702901
  0
LINE
  8
_0-d_寸法3
  6
CONTINUOUS
 62
    7
 10
553.76399320518544
 20
202.75674745702901
 11
544.10473494229473
 21
200.16855700600374
  0
LINE
  8
_0-d_寸法3
  6
CONTINUOUS
 62
    7
 10
553.76399320518544
 20
202.75674745702901
 11
544.10473494229473
 21
205.34493790805419
  0
LINE
  8
_0-d_寸法3
  6
CONTINUOUS
 62
    7
 10
387.09732653851984
 20
202.75674745702901
 11
553.76399320518544
 21
202.75674745702901
  0
TEXT
  8
_0-d_寸法3
 62
    7
 10
459.18065987185287
 20
202.75674745702901
 40
15
 41
1
 50
0
  1
100
  0
LINE
  8
_0-b_細線3
  6
CONTINUOUS
 62
    7
 10
590.43065987185287
 20
268.23477269126784
 11
350.43065987185287
 21
268.23477269126738
  0
LINE
  8
_0-d_寸法3
  6
CONTINUOUS
 62
    7
 10
337.09732653851984
 20
298.23477269126784
 11
337.09732653851984
 21
418.23477269126784
  0
LINE
  8
_0-d_寸法3
  6
CONTINUOUS
 62
    7
 10
337.09732653851984
 20
413.23477269126784
 11
346.75658480141055
 21
415.82296314229302
  0
LINE
  8
_0-d_寸法3
  6
CONTINUOUS
 62
    7
 10
337.09732653851984
 20
413.23477269126784
 11
346.75658480141055
 21
410.64658224024271
  0
LINE
  8
_0-d_寸法3
  6
CONTINUOUS
 62
    7
 10
603.7639932051859
 20
298.23477269126784
 11
603.7639932051859
 21
418.23477269126784
  0
LINE
  8
_0-d_寸法3
  6
CONTINUOUS
 62
    7
 10
603.7639932051859
 20
413.23477269126784
 11
594.10473494229518
 21
410.64658224024271
  0
LINE
  8
_0-d_寸法3
  6
CONTINUOUS
 62
    7
 10
603.7639932051859
 20
413.23477269126784
 11
594.10473494229518
 21
415.82296314229313
  0
LINE
  8
_0-d_寸法3
  6
CONTINUOUS
 62
    7
 10
337.09732653851984
 20
413.23477269126784
 11
603.7639932051859
 21
413.23477269126784
  0
TEXT
  8
_0-d_寸法3
 62
    7
 10
459.18065987185287
 20
413.23477269126784
 40
15
 41
1
 50
0
  1
160
  0
LINE
  8
_0-d_寸法3
  6
CONTINUOUS
 62
    7
 10
345.43065987185287
 20
303.23477269126784
 11
345.43065987185287
 21
348.23477269126784
  0
LINE
  8
_0-d_寸法3
  6
CONTINUOUS
 62
    7
 10
345.43065987185287
 20
343.23477269126784
 11
355.08991813474353
 21
345.82296314229302
  0
LINE
  8
_0-d_寸法3
  6
CONTINUOUS
 62
    7
 10
345.43065987185287
 20
343.23477269126784
 11
355.08991813474353
 21
340.64658224024265
  0
LINE
  8
_0-d_寸法3
  6
CONTINUOUS
 62
    7
 10
470.43065987185287
 20
303.23477269126784
 11
470.43065987185287
 21
348.23477269126784
  0
LINE
  8
_0-d_寸法3
  6
CONTINUOUS
 62
    7
 10
470.43065987185287
 20
343.23477269126784
 11
460.77140160896221
 21
340.64658224024265
  0
LINE
  8
_0-d_寸法3
  6
CONTINUOUS
 62
    7
 10
470.43065987185287
 20
343.23477269126784
 11
460.77140160896221
 21
345.82296314229313
  0
LINE
  8
_0-d_寸法3
  6
CONTINUOUS
 62
    7
 10
345.43065987185287
 20
343.23477269126784
 11
470.43065987185287
 21
343.23477269126784
  0
TEXT
  8
_0-d_寸法3
 62
    7
 10
400.43065987185287
 20
343.23477269126784
 40
15
 41
1
 50
0
  1
75
  0
LINE
  8
_0-d_寸法3
  6
CONTINUOUS
 62
    7
 10
470.43065987185287
 20
343.23477269126784
 11
480.08991813474358
 21
345.82296314229296
  0
LINE
  8
_0-d_寸法3
  6
CONTINUOUS
 62
    7
 10
470.43065987185287
 20
343.23477269126784
 11
480.08991813474353
 21
340.64658224024265
  0
LINE
  8
_0-d_寸法3
  6
CONTINUOUS
 62
    7
 10
595.43065987185287
 20
303.23477269126784
 11
595.43065987185287
 21
348.23477269126784
  0
LINE
  8
_0-d_寸法3
  6
CONTINUOUS
 62
    7
 10
595.43065987185287
 20
343.23477269126784
 11
585.77140160896215
 21
340.64658224024265
  0
LINE
  8
_0-d_寸法3
  6
CONTINUOUS
 62
    7
 10
595.43065987185287
 20
343.23477269126784
 11
585.77140160896215
 21
345.82296314229313
  0
LINE
  8
_0-d_寸法3
  6
CONTINUOUS
 62
    7
 10
470.43065987185287
 20
343.23477269126784
 11
595.43065987185287
 21
343.23477269126784
  0
TEXT
  8
_0-d_寸法3
 62
    7
 10
525.43065987185287
 20
343.23477269126784
 40
15
 41
1
 50
0
  1
75
  0
LINE
  8
_0-7_枠細線
  6
CONTINUOUS
 62
    5
 10
1139.4018171150183
 20
373.42884000293418
 11
1139.4018171150183
 21
453.42884000293418
  0
LINE
  8
_0-7_枠細線
  6
CONTINUOUS
 62
    5
 10
1229.4018171150183
 20
373.42884000293418
 11
1229.4018171150183
 21
453.42884000293418
  0
TEXT
  8
_0-7_枠細線
 62
    5
 10
1251.9018171150183
 20
430.92884000293418
 40
15
 41
1
 50
0
  1
蓋重量
  0
LINE
  8
_0-7_枠細線
  6
CONTINUOUS
 62
    5
 10
1319.4018171150183
 20
373.42884000293418
 11
1319.4018171150183
 21
453.42884000293418
  0
TEXT
  8
_0-7_枠細線
 62
    5
 10
1341.9018171150183
 20
430.92884000293418
 40
15
 41
1
 50
0
  1
枠重量
  0
LINE
  8
_0-7_枠細線
  6
CONTINUOUS
 62
    5
 10
1139.4018171150183
 20
423.42884000293418
 11
1409.4018171150183
 21
423.42884000293418
  0
LINE
  8
_0-7_枠細線
  6
CONTINUOUS
 62
    5
 10
1139.4018171150183
 20
453.42884000293418
 11
1409.4018171150183
 21
453.42884000293418
  0
LINE
  8
_0-7_枠細線
  6
CONTINUOUS
 62
    5
 10
1139.4018171150183
 20
373.42884000293418
 11
1409.4018171150183
 21
373.42884000293418
  0
LINE
  8
_0-7_枠細線
  6
CONTINUOUS
 62
    5
 10
1409.4018171150183
 20
373.42884000293418
 11
1409.4018171150183
 21
453.42884000293418
  0
TEXT
  8
_0-7_枠細線
 62
    5
 10
1250.4018171150183
 20
392.17884000293418
 40
15
 41
0.8000000000000001
 50
0
  1
6.0kg/枚
  0
TEXT
  8
_0-7_枠細線
 62
    5
 10
1334.4018171150183
 20
392.17884000293418
 40
15
 41
0.8000000000000001
 50
0
  1
2.2kg/ｍ組
  0
TEXT
  8
_0-7_枠細線
 62
    5
 10
1154.4018171150183
 20
430.92884000293418
 40
15
 41
1
 50
0
  1
適用荷重
  0
TEXT
  8
_0-7_枠細線
 62
    5
 10
1161.9018171150183
 20
400.92884000293418
 40
15
 41
1
 50
0
  1
歩道用
  0
TEXT
  8
_0-7_枠細線
 62
    5
 10
1139.4018171150183
 20
380.92884000293418
 40
15
 41
1
 50
0
  1
（5.0kN/㎡）
  0
LINE
  8
_0-0_計極細
  6
CENTER2
 62
    2
 10
212.54515045087288
 20
681.93908616188639
 11
1239.2513387014783
 21
681.93908616188639
  0
LINE
  8
_0-1_計細線
  6
CONTINUOUS
 62
    3
 10
1221.4337499878916
 20
753.93908616188742
 11
228.43374998789159
 21
753.93908616188742
  0
LINE
  8
_0-1_計細線
  6
CONTINUOUS
 62
    3
 10
228.43374998789159
 20
753.93908616188742
 11
228.43374998789159
 21
756.93908616188742
  0
LINE
  8
_0-1_計細線
  6
CONTINUOUS
 62
    3
 10
228.43374998789159
 20
756.93908616188742
 11
1221.4337499878916
 21
756.93908616188742
  0
LINE
  8
_0-1_計細線
  6
CONTINUOUS
 62
    3
 10
1221.4337499878916
 20
756.93908616188742
 11
1221.4337499878916
 21
753.93908616188742
  0
LINE
  8
_0-1_計細線
  6
CONTINUOUS
 62
    3
 10
1218.4337499878916
 20
731.93908616188742
 11
1211.4337499878916
 21
731.93908616188742
  0
LINE
  8
_0-1_計細線
  6
CONTINUOUS
 62
    3
 10
1208.4337499878916
 20
731.93908616188742
 11
1201.4337499878916
 21
731.93908616188742
  0
LINE
  8
_0-1_計細線
  6
CONTINUOUS
 62
    3
 10
1198.4337499878916
 20
731.93908616188742
 11
1191.4337499878916
 21
731.93908616188742
  0
LINE
  8
_0-1_計細線
  6
CONTINUOUS
 62
    3
 10
1188.4337499878916
 20
731.93908616188742
 11
1181.4337499878916
 21
731.93908616188742
  0
LINE
  8
_0-1_計細線
  6
CONTINUOUS
 62
    3
 10
1178.4337499878916
 20
731.93908616188742
 11
1171.4337499878916
 21
731.93908616188742
  0
LINE
  8
_0-1_計細線
  6
CONTINUOUS
 62
    3
 10
1168.4337499878916
 20
731.93908616188742
 11
1161.4337499878916
 21
731.93908616188742
  0
LINE
  8
_0-1_計細線
  6
CONTINUOUS
 62
    3
 10
1158.4337499878916
 20
731.93908616188742
 11
1151.4337499878916
 21
731.93908616188742
  0
LINE
  8
_0-1_計細線
  6
CONTINUOUS
 62
    3
 10
1148.4337499878916
 20
731.93908616188742
 11
1141.4337499878916
 21
731.93908616188742
  0
LINE
  8
_0-1_計細線
  6
CONTINUOUS
 62
    3
 10
1138.4337499878916
 20
731.93908616188742
 11
1131.4337499878916
 21
731.93908616188742
  0
LINE
  8
_0-1_計細線
  6
CONTINUOUS
 62
    3
 10
1128.4337499878916
 20
731.93908616188742
 11
1121.4337499878916
 21
731.93908616188742
  0
LINE
  8
_0-1_計細線
  6
CONTINUOUS
 62
    3
 10
1118.4337499878916
 20
731.93908616188742
 11
1111.4337499878916
 21
731.93908616188742
  0
LINE
  8
_0-1_計細線
  6
CONTINUOUS
 62
    3
 10
1108.4337499878916
 20
731.93908616188742
 11
1101.4337499878916
 21
731.93908616188742
  0
LINE
  8
_0-1_計細線
  6
CONTINUOUS
 62
    3
 10
1098.4337499878916
 20
731.93908616188742
 11
1091.4337499878916
 21
731.93908616188742
  0
LINE
  8
_0-1_計細線
  6
CONTINUOUS
 62
    3
 10
1088.4337499878916
 20
731.93908616188742
 11
1081.4337499878916
 21
731.93908616188742
  0
LINE
  8
_0-1_計細線
  6
CONTINUOUS
 62
    3
 10
1078.4337499878916
 20
731.93908616188742
 11
1071.4337499878916
 21
731.93908616188742
  0
LINE
  8
_0-1_計細線
  6
CONTINUOUS
 62
    3
 10
1068.4337499878916
 20
731.93908616188742
 11
1061.4337499878916
 21
731.93908616188742
  0
LINE
  8
_0-1_計細線
  6
CONTINUOUS
 62
    3
 10
1058.4337499878916
 20
731.93908616188742
 11
1051.4337499878916
 21
731.93908616188742
  0
LINE
  8
_0-1_計細線
  6
CONTINUOUS
 62
    3
 10
1048.4337499878916
 20
731.93908616188742
 11
1041.4337499878916
 21
731.93908616188742
  0
LINE
  8
_0-1_計細線
  6
CONTINUOUS
 62
    3
 10
1038.4337499878916
 20
731.93908616188742
 11
1031.4337499878916
 21
731.93908616188742
  0
LINE
  8
_0-1_計細線
  6
CONTINUOUS
 62
    3
 10
1028.4337499878916
 20
731.93908616188742
 11
1021.4337499878917
 21
731.93908616188742
  0
LINE
  8
_0-1_計細線
  6
CONTINUOUS
 62
    3
 10
1018.4337499878916
 20
731.93908616188742
 11
1011.4337499878917
 21
731.93908616188742
  0
LINE
  8
_0-1_計細線
  6
CONTINUOUS
 62
    3
 10
1008.4337499878916
 20
731.93908616188742
 11
1001.4337499878917
 21
731.93908616188742
  0
LINE
  8
_0-1_計細線
  6
CONTINUOUS
 62
    3
 10
998.43374998789159
 20
731.93908616188742
 11
991.4337499878917
 21
731.93908616188742
  0
LINE
  8
_0-1_計細線
  6
CONTINUOUS
 62
    3
 10
988.43374998789159
 20
731.93908616188742
 11
981.4337499878917
 21
731.93908616188742
  0
LINE
  8
_0-1_計細線
  6
CONTINUOUS
 62
    3
 10
978.43374998789159
 20
731.93908616188742
 11
971.4337499878917
 21
731.93908616188742
  0
LINE
  8
_0-1_計細線
  6
CONTINUOUS
 62
    3
 10
968.43374998789159
 20
731.93908616188742
 11
961.4337499878917
 21
731.93908616188742
  0
LINE
  8
_0-1_計細線
  6
CONTINUOUS
 62
    3
 10
958.43374998789159
 20
731.93908616188742
 11
951.4337499878917
 21
731.93908616188742
  0
LINE
  8
_0-1_計細線
  6
CONTINUOUS
 62
    3
 10
948.43374998789159
 20
731.93908616188742
 11
941.4337499878917
 21
731.93908616188742
  0
LINE
  8
_0-1_計細線
  6
CONTINUOUS
 62
    3
 10
938.43374998789159
 20
731.93908616188742
 11
931.4337499878917
 21
731.93908616188742
  0
LINE
  8
_0-1_計細線
  6
CONTINUOUS
 62
    3
 10
928.43374998789159
 20
731.93908616188742
 11
921.4337499878917
 21
731.93908616188742
  0
LINE
  8
_0-1_計細線
  6
CONTINUOUS
 62
    3
 10
918.43374998789159
 20
731.93908616188742
 11
911.4337499878917
 21
731.93908616188742
  0
LINE
  8
_0-1_計細線
  6
CONTINUOUS
 62
    3
 10
908.43374998789159
 20
731.93908616188742
 11
901.4337499878917
 21
731.93908616188742
  0
LINE
  8
_0-1_計細線
  6
CONTINUOUS
 62
    3
 10
898.43374998789159
 20
731.93908616188742
 11
891.4337499878917
 21
731.93908616188742
  0
LINE
  8
_0-1_計細線
  6
CONTINUOUS
 62
    3
 10
888.43374998789159
 20
731.93908616188742
 11
881.4337499878917
 21
731.93908616188742
  0
LINE
  8
_0-1_計細線
  6
CONTINUOUS
 62
    3
 10
878.43374998789159
 20
731.93908616188742
 11
871.4337499878917
 21
731.93908616188742
  0
LINE
  8
_0-1_計細線
  6
CONTINUOUS
 62
    3
 10
868.43374998789159
 20
731.93908616188742
 11
861.4337499878917
 21
731.93908616188742
  0
LINE
  8
_0-1_計細線
  6
CONTINUOUS
 62
    3
 10
858.43374998789159
 20
731.93908616188742
 11
851.4337499878917
 21
731.93908616188742
  0
LINE
  8
_0-1_計細線
  6
CONTINUOUS
 62
    3
 10
848.43374998789159
 20
731.93908616188742
 11
841.4337499878917
 21
731.93908616188742
  0
LINE
  8
_0-1_計細線
  6
CONTINUOUS
 62
    3
 10
838.43374998789159
 20
731.93908616188742
 11
831.4337499878917
 21
731.93908616188742
  0
LINE
  8
_0-1_計細線
  6
CONTINUOUS
 62
    3
 10
828.43374998789159
 20
731.93908616188742
 11
821.4337499878917
 21
731.93908616188742
  0
LINE
  8
_0-1_計細線
  6
CONTINUOUS
 62
    3
 10
818.43374998789159
 20
731.93908616188742
 11
811.4337499878917
 21
731.93908616188742
  0
LINE
  8
_0-1_計細線
  6
CONTINUOUS
 62
    3
 10
808.43374998789159
 20
731.93908616188742
 11
801.4337499878917
 21
731.93908616188742
  0
LINE
  8
_0-1_計細線
  6
CONTINUOUS
 62
    3
 10
798.43374998789159
 20
731.93908616188742
 11
791.4337499878917
 21
731.93908616188742
  0
LINE
  8
_0-1_計細線
  6
CONTINUOUS
 62
    3
 10
788.43374998789159
 20
731.93908616188742
 11
781.4337499878917
 21
731.93908616188742
  0
LINE
  8
_0-1_計細線
  6
CONTINUOUS
 62
    3
 10
778.43374998789159
 20
731.93908616188742
 11
771.4337499878917
 21
731.93908616188742
  0
LINE
  8
_0-1_計細線
  6
CONTINUOUS
 62
    3
 10
768.43374998789159
 20
731.93908616188742
 11
761.43374998789159
 21
731.93908616188742
  0
LINE
  8
_0-1_計細線
  6
CONTINUOUS
 62
    3
 10
758.43374998789159
 20
731.93908616188742
 11
751.43374998789159
 21
731.93908616188742
  0
LINE
  8
_0-1_計細線
  6
CONTINUOUS
 62
    3
 10
748.43374998789159
 20
731.93908616188742
 11
741.43374998789159
 21
731.93908616188742
  0
LINE
  8
_0-1_計細線
  6
CONTINUOUS
 62
    3
 10
738.43374998789159
 20
731.93908616188742
 11
731.43374998789159
 21
731.93908616188742
  0
LINE
  8
_0-1_計細線
  6
CONTINUOUS
 62
    3
 10
728.43374998789159
 20
731.93908616188742
 11
721.43374998789159
 21
731.93908616188742
  0
LINE
  8
_0-1_計細線
  6
CONTINUOUS
 62
    3
 10
718.43374998789159
 20
731.93908616188742
 11
711.43374998789159
 21
731.93908616188742
  0
LINE
  8
_0-1_計細線
  6
CONTINUOUS
 62
    3
 10
708.43374998789159
 20
731.93908616188742
 11
701.43374998789159
 21
731.93908616188742
  0
LINE
  8
_0-1_計細線
  6
CONTINUOUS
 62
    3
 10
698.43374998789159
 20
731.93908616188742
 11
691.43374998789159
 21
731.93908616188742
  0
LINE
  8
_0-1_計細線
  6
CONTINUOUS
 62
    3
 10
688.43374998789159
 20
731.93908616188742
 11
681.43374998789159
 21
731.93908616188742
  0
LINE
  8
_0-1_計細線
  6
CONTINUOUS
 62
    3
 10
678.43374998789159
 20
731.93908616188742
 11
671.43374998789159
 21
731.93908616188742
  0
LINE
  8
_0-1_計細線
  6
CONTINUOUS
 62
    3
 10
668.43374998789159
 20
731.93908616188742
 11
661.43374998789159
 21
731.93908616188742
  0
LINE
  8
_0-1_計細線
  6
CONTINUOUS
 62
    3
 10
658.43374998789159
 20
731.93908616188742
 11
651.43374998789159
 21
731.93908616188742
  0
LINE
  8
_0-1_計細線
  6
CONTINUOUS
 62
    3
 10
648.43374998789159
 20
731.93908616188742
 11
641.43374998789159
 21
731.93908616188742
  0
LINE
  8
_0-1_計細線
  6
CONTINUOUS
 62
    3
 10
638.43374998789159
 20
731.93908616188742
 11
631.43374998789159
 21
731.93908616188742
  0
LINE
  8
_0-1_計細線
  6
CONTINUOUS
 62
    3
 10
628.43374998789159
 20
731.93908616188742
 11
621.43374998789159
 21
731.93908616188742
  0
LINE
  8
_0-1_計細線
  6
CONTINUOUS
 62
    3
 10
618.43374998789159
 20
731.93908616188742
 11
611.43374998789159
 21
731.93908616188742
  0
LINE
  8
_0-1_計細線
  6
CONTINUOUS
 62
    3
 10
608.43374998789159
 20
731.93908616188742
 11
601.43374998789159
 21
731.93908616188742
  0
LINE
  8
_0-1_計細線
  6
CONTINUOUS
 62
    3
 10
598.43374998789159
 20
731.93908616188742
 11
591.43374998789159
 21
731.93908616188742
  0
LINE
  8
_0-1_計細線
  6
CONTINUOUS
 62
    3
 10
588.43374998789159
 20
731.93908616188742
 11
581.43374998789159
 21
731.93908616188742
  0
LINE
  8
_0-1_計細線
  6
CONTINUOUS
 62
    3
 10
578.43374998789159
 20
731.93908616188742
 11
571.43374998789159
 21
731.93908616188742
  0
LINE
  8
_0-1_計細線
  6
CONTINUOUS
 62
    3
 10
568.43374998789159
 20
731.93908616188742
 11
561.43374998789159
 21
731.93908616188742
  0
LINE
  8
_0-1_計細線
  6
CONTINUOUS
 62
    3
 10
558.43374998789159
 20
731.93908616188742
 11
551.43374998789159
 21
731.93908616188742
  0
LINE
  8
_0-1_計細線
  6
CONTINUOUS
 62
    3
 10
548.43374998789159
 20
731.93908616188742
 11
541.43374998789159
 21
731.93908616188742
  0
LINE
  8
_0-1_計細線
  6
CONTINUOUS
 62
    3
 10
538.43374998789159
 20
731.93908616188742
 11
531.43374998789159
 21
731.93908616188742
  0
LINE
  8
_0-1_計細線
  6
CONTINUOUS
 62
    3
 10
528.43374998789159
 20
731.93908616188742
 11
521.43374998789159
 21
731.93908616188742
  0
LINE
  8
_0-1_計細線
  6
CONTINUOUS
 62
    3
 10
518.43374998789159
 20
731.93908616188742
 11
511.43374998789164
 21
731.93908616188742
  0
LINE
  8
_0-1_計細線
  6
CONTINUOUS
 62
    3
 10
508.43374998789159
 20
731.93908616188742
 11
501.43374998789164
 21
731.93908616188742
  0
LINE
  8
_0-1_計細線
  6
CONTINUOUS
 62
    3
 10
498.43374998789159
 20
731.93908616188742
 11
491.43374998789164
 21
731.93908616188742
  0
LINE
  8
_0-1_計細線
  6
CONTINUOUS
 62
    3
 10
488.43374998789159
 20
731.93908616188742
 11
481.43374998789164
 21
731.93908616188742
  0
LINE
  8
_0-1_計細線
  6
CONTINUOUS
 62
    3
 10
478.43374998789159
 20
731.93908616188742
 11
471.43374998789164
 21
731.93908616188742
  0
LINE
  8
_0-1_計細線
  6
CONTINUOUS
 62
    3
 10
468.43374998789159
 20
731.93908616188742
 11
461.43374998789164
 21
731.93908616188742
  0
LINE
  8
_0-1_計細線
  6
CONTINUOUS
 62
    3
 10
458.43374998789159
 20
731.93908616188742
 11
451.43374998789164
 21
731.93908616188742
  0
LINE
  8
_0-1_計細線
  6
CONTINUOUS
 62
    3
 10
448.43374998789159
 20
731.93908616188742
 11
441.43374998789164
 21
731.93908616188742
  0
LINE
  8
_0-1_計細線
  6
CONTINUOUS
 62
    3
 10
438.43374998789159
 20
731.93908616188742
 11
431.43374998789164
 21
731.93908616188742
  0
LINE
  8
_0-1_計細線
  6
CONTINUOUS
 62
    3
 10
428.43374998789159
 20
731.93908616188742
 11
421.43374998789164
 21
731.93908616188742
  0
LINE
  8
_0-1_計細線
  6
CONTINUOUS
 62
    3
 10
418.43374998789159
 20
731.93908616188742
 11
411.43374998789164
 21
731.93908616188742
  0
LINE
  8
_0-1_計細線
  6
CONTINUOUS
 62
    3
 10
408.43374998789159
 20
731.93908616188742
 11
401.43374998789164
 21
731.93908616188742
  0
LINE
  8
_0-1_計細線
  6
CONTINUOUS
 62
    3
 10
398.43374998789159
 20
731.93908616188742
 11
391.43374998789164
 21
731.93908616188742
  0
LINE
  8
_0-1_計細線
  6
CONTINUOUS
 62
    3
 10
388.43374998789159
 20
731.93908616188742
 11
381.43374998789164
 21
731.93908616188742
  0
LINE
  8
_0-1_計細線
  6
CONTINUOUS
 62
    3
 10
378.43374998789159
 20
731.93908616188742
 11
371.43374998789164
 21
731.93908616188742
  0
LINE
  8
_0-1_計細線
  6
CONTINUOUS
 62
    3
 10
368.43374998789159
 20
731.93908616188742
 11
361.43374998789164
 21
731.93908616188742
  0
LINE
  8
_0-1_計細線
  6
CONTINUOUS
 62
    3
 10
358.43374998789159
 20
731.93908616188742
 11
351.43374998789164
 21
731.93908616188742
  0
LINE
  8
_0-1_計細線
  6
CONTINUOUS
 62
    3
 10
348.43374998789159
 20
731.93908616188742
 11
341.43374998789164
 21
731.93908616188742
  0
LINE
  8
_0-1_計細線
  6
CONTINUOUS
 62
    3
 10
338.43374998789159
 20
731.93908616188742
 11
331.43374998789164
 21
731.93908616188742
  0
LINE
  8
_0-1_計細線
  6
CONTINUOUS
 62
    3
 10
328.43374998789159
 20
731.93908616188742
 11
321.43374998789164
 21
731.93908616188742
  0
LINE
  8
_0-1_計細線
  6
CONTINUOUS
 62
    3
 10
318.43374998789159
 20
731.93908616188742
 11
311.43374998789159
 21
731.93908616188742
  0
LINE
  8
_0-1_計細線
  6
CONTINUOUS
 62
    3
 10
308.43374998789159
 20
731.93908616188742
 11
301.43374998789159
 21
731.93908616188742
  0
LINE
  8
_0-1_計細線
  6
CONTINUOUS
 62
    3
 10
298.43374998789159
 20
731.93908616188742
 11
291.43374998789159
 21
731.93908616188742
  0
LINE
  8
_0-1_計細線
  6
CONTINUOUS
 62
    3
 10
288.43374998789159
 20
731.93908616188742
 11
281.43374998789159
 21
731.93908616188742
  0
LINE
  8
_0-1_計細線
  6
CONTINUOUS
 62
    3
 10
278.43374998789159
 20
731.93908616188742
 11
271.43374998789159
 21
731.93908616188742
  0
LINE
  8
_0-1_計細線
  6
CONTINUOUS
 62
    3
 10
268.43374998789159
 20
731.93908616188742
 11
261.43374998789159
 21
731.93908616188742
  0
LINE
  8
_0-1_計細線
  6
CONTINUOUS
 62
    3
 10
258.43374998789159
 20
731.93908616188742
 11
251.43374998789156
 21
731.93908616188742
  0
LINE
  8
_0-1_計細線
  6
CONTINUOUS
 62
    3
 10
248.43374998789159
 20
731.93908616188742
 11
241.43374998789156
 21
731.93908616188742
  0
LINE
  8
_0-1_計細線
  6
CONTINUOUS
 62
    3
 10
238.43374998789159
 20
731.93908616188742
 11
231.43374998789156
 21
731.93908616188742
  0
LINE
  8
_0-1_計細線
  6
CONTINUOUS
 62
    3
 10
228.43374998789159
 20
731.93908616188742
 11
200.43374998789162
 21
731.93908616188742
  0
LINE
  8
_0-1_計細線
  6
CONTINUOUS
 62
    3
 10
1221.4337499878916
 20
731.93908616188742
 11
1249.4337499878916
 21
731.93908616188742
  0
LINE
  8
_0-1_計細線
  6
CONTINUOUS
 62
    3
 10
201.74584237341648
 20
758.93908616188742
 11
1250.7458423734165
 21
758.93908616188742
  0
LINE
  8
_0-1_計細線
  6
CONTINUOUS
 62
    3
 10
200.43374998789162
 20
761.93908616188742
 11
1249.4337499878916
 21
761.93908616188742
  0
ARC
  8
_0-0_計極細
  6
CONTINUOUS
 62
    2
 10
1236.4433689310804
 20
754.43908616188287
 40
15.000000000036371
 50
330.00000000009993
 51
29.999999999930402
  0
ARC
  8
_0-0_計極細
  6
CONTINUOUS
 62
    2
 10
1262.4241310446473
 20
739.43908616189879
 40
14.999999999996563
 50
150.00000000001793
 51
210.00000000005798
  0
ARC
  8
_0-0_計極細
  6
CONTINUOUS
 62
    2
 10
187.44336893113405
 20
754.43908616189094
 40
14.999999999993854
 50
329.99999999997038
 51
30.000000000005667
  0
ARC
  8
_0-0_計極細
  6
CONTINUOUS
 62
    2
 10
213.42413104464276
 20
739.43908616189094
 40
14.999999999988354
 50
149.99999999998181
 51
210.00000000004107
  0
LINE
  8
_0-1_計細線
  6
CONTINUOUS
 62
    3
 10
1221.4337499878916
 20
609.93908616188696
 11
228.43374998789159
 21
609.93908616188696
  0
LINE
  8
_0-1_計細線
  6
CONTINUOUS
 62
    3
 10
228.43374998789159
 20
609.93908616188696
 11
228.43374998789159
 21
606.93908616188685
  0
LINE
  8
_0-1_計細線
  6
CONTINUOUS
 62
    3
 10
228.43374998789159
 20
606.93908616188685
 11
1221.4337499878916
 21
606.93908616188685
  0
LINE
  8
_0-1_計細線
  6
CONTINUOUS
 62
    3
 10
1221.4337499878916
 20
606.93908616188685
 11
1221.4337499878916
 21
609.93908616188696
  0
LINE
  8
_0-1_計細線
  6
CONTINUOUS
 62
    3
 10
1218.4337499878916
 20
631.93908616188639
 11
1211.4337499878916
 21
631.93908616188639
  0
LINE
  8
_0-1_計細線
  6
CONTINUOUS
 62
    3
 10
1208.4337499878916
 20
631.93908616188639
 11
1201.4337499878916
 21
631.93908616188639
  0
LINE
  8
_0-1_計細線
  6
CONTINUOUS
 62
    3
 10
1198.4337499878916
 20
631.93908616188639
 11
1191.4337499878916
 21
631.93908616188639
  0
LINE
  8
_0-1_計細線
  6
CONTINUOUS
 62
    3
 10
1188.4337499878916
 20
631.93908616188639
 11
1181.4337499878916
 21
631.93908616188639
  0
LINE
  8
_0-1_計細線
  6
CONTINUOUS
 62
    3
 10
1178.4337499878916
 20
631.93908616188639
 11
1171.4337499878916
 21
631.93908616188639
  0
LINE
  8
_0-1_計細線
  6
CONTINUOUS
 62
    3
 10
1168.4337499878916
 20
631.93908616188639
 11
1161.4337499878916
 21
631.93908616188639
  0
LINE
  8
_0-1_計細線
  6
CONTINUOUS
 62
    3
 10
1158.4337499878916
 20
631.93908616188639
 11
1151.4337499878916
 21
631.93908616188639
  0
LINE
  8
_0-1_計細線
  6
CONTINUOUS
 62
    3
 10
1148.4337499878916
 20
631.93908616188639
 11
1141.4337499878916
 21
631.93908616188639
  0
LINE
  8
_0-1_計細線
  6
CONTINUOUS
 62
    3
 10
1138.4337499878916
 20
631.93908616188639
 11
1131.4337499878916
 21
631.93908616188639
  0
LINE
  8
_0-1_計細線
  6
CONTINUOUS
 62
    3
 10
1128.4337499878916
 20
631.93908616188639
 11
1121.4337499878916
 21
631.93908616188639
  0
LINE
  8
_0-1_計細線
  6
CONTINUOUS
 62
    3
 10
1118.4337499878916
 20
631.93908616188639
 11
1111.4337499878916
 21
631.93908616188639
  0
LINE
  8
_0-1_計細線
  6
CONTINUOUS
 62
    3
 10
1108.4337499878916
 20
631.93908616188639
 11
1101.4337499878916
 21
631.93908616188639
  0
LINE
  8
_0-1_計細線
  6
CONTINUOUS
 62
    3
 10
1098.4337499878916
 20
631.93908616188639
 11
1091.4337499878916
 21
631.93908616188639
  0
LINE
  8
_0-1_計細線
  6
CONTINUOUS
 62
    3
 10
1088.4337499878916
 20
631.93908616188639
 11
1081.4337499878916
 21
631.93908616188639
  0
LINE
  8
_0-1_計細線
  6
CONTINUOUS
 62
    3
 10
1078.4337499878916
 20
631.93908616188639
 11
1071.4337499878916
 21
631.93908616188639
  0
LINE
  8
_0-1_計細線
  6
CONTINUOUS
 62
    3
 10
1068.4337499878916
 20
631.93908616188639
 11
1061.4337499878916
 21
631.93908616188639
  0
LINE
  8
_0-1_計細線
  6
CONTINUOUS
 62
    3
 10
1058.4337499878916
 20
631.93908616188639
 11
1051.4337499878916
 21
631.93908616188639
  0
LINE
  8
_0-1_計細線
  6
CONTINUOUS
 62
    3
 10
1048.4337499878916
 20
631.93908616188639
 11
1041.4337499878916
 21
631.93908616188639
  0
LINE
  8
_0-1_計細線
  6
CONTINUOUS
 62
    3
 10
1038.4337499878916
 20
631.93908616188639
 11
1031.4337499878916
 21
631.93908616188639
  0
LINE
  8
_0-1_計細線
  6
CONTINUOUS
 62
    3
 10
1028.4337499878916
 20
631.93908616188639
 11
1021.4337499878917
 21
631.93908616188639
  0
LINE
  8
_0-1_計細線
  6
CONTINUOUS
 62
    3
 10
1018.4337499878916
 20
631.93908616188639
 11
1011.4337499878917
 21
631.93908616188639
  0
LINE
  8
_0-1_計細線
  6
CONTINUOUS
 62
    3
 10
1008.4337499878916
 20
631.93908616188639
 11
1001.4337499878917
 21
631.93908616188639
  0
LINE
  8
_0-1_計細線
  6
CONTINUOUS
 62
    3
 10
998.43374998789159
 20
631.93908616188639
 11
991.4337499878917
 21
631.93908616188639
  0
LINE
  8
_0-1_計細線
  6
CONTINUOUS
 62
    3
 10
988.43374998789159
 20
631.93908616188639
 11
981.4337499878917
 21
631.93908616188639
  0
LINE
  8
_0-1_計細線
  6
CONTINUOUS
 62
    3
 10
978.43374998789159
 20
631.93908616188639
 11
971.4337499878917
 21
631.93908616188639
  0
LINE
  8
_0-1_計細線
  6
CONTINUOUS
 62
    3
 10
968.43374998789159
 20
631.93908616188639
 11
961.4337499878917
 21
631.93908616188639
  0
LINE
  8
_0-1_計細線
  6
CONTINUOUS
 62
    3
 10
958.43374998789159
 20
631.93908616188639
 11
951.4337499878917
 21
631.93908616188639
  0
LINE
  8
_0-1_計細線
  6
CONTINUOUS
 62
    3
 10
948.43374998789159
 20
631.93908616188639
 11
941.4337499878917
 21
631.93908616188639
  0
LINE
  8
_0-1_計細線
  6
CONTINUOUS
 62
    3
 10
938.43374998789159
 20
631.93908616188639
 11
931.4337499878917
 21
631.93908616188639
  0
LINE
  8
_0-1_計細線
  6
CONTINUOUS
 62
    3
 10
928.43374998789159
 20
631.93908616188639
 11
921.4337499878917
 21
631.93908616188639
  0
LINE
  8
_0-1_計細線
  6
CONTINUOUS
 62
    3
 10
918.43374998789159
 20
631.93908616188639
 11
911.4337499878917
 21
631.93908616188639
  0
LINE
  8
_0-1_計細線
  6
CONTINUOUS
 62
    3
 10
908.43374998789159
 20
631.93908616188639
 11
901.4337499878917
 21
631.93908616188639
  0
LINE
  8
_0-1_計細線
  6
CONTINUOUS
 62
    3
 10
898.43374998789159
 20
631.93908616188639
 11
891.4337499878917
 21
631.93908616188639
  0
LINE
  8
_0-1_計細線
  6
CONTINUOUS
 62
    3
 10
888.43374998789159
 20
631.93908616188639
 11
881.4337499878917
 21
631.93908616188639
  0
LINE
  8
_0-1_計細線
  6
CONTINUOUS
 62
    3
 10
878.43374998789159
 20
631.93908616188639
 11
871.4337499878917
 21
631.93908616188639
  0
LINE
  8
_0-1_計細線
  6
CONTINUOUS
 62
    3
 10
868.43374998789159
 20
631.93908616188639
 11
861.4337499878917
 21
631.93908616188639
  0
LINE
  8
_0-1_計細線
  6
CONTINUOUS
 62
    3
 10
858.43374998789159
 20
631.93908616188639
 11
851.4337499878917
 21
631.93908616188639
  0
LINE
  8
_0-1_計細線
  6
CONTINUOUS
 62
    3
 10
848.43374998789159
 20
631.93908616188639
 11
841.4337499878917
 21
631.93908616188639
  0
LINE
  8
_0-1_計細線
  6
CONTINUOUS
 62
    3
 10
838.43374998789159
 20
631.93908616188639
 11
831.4337499878917
 21
631.93908616188639
  0
LINE
  8
_0-1_計細線
  6
CONTINUOUS
 62
    3
 10
828.43374998789159
 20
631.93908616188639
 11
821.4337499878917
 21
631.93908616188639
  0
LINE
  8
_0-1_計細線
  6
CONTINUOUS
 62
    3
 10
818.43374998789159
 20
631.93908616188639
 11
811.4337499878917
 21
631.93908616188639
  0
LINE
  8
_0-1_計細線
  6
CONTINUOUS
 62
    3
 10
808.43374998789159
 20
631.93908616188639
 11
801.4337499878917
 21
631.93908616188639
  0
LINE
  8
_0-1_計細線
  6
CONTINUOUS
 62
    3
 10
798.43374998789159
 20
631.93908616188639
 11
791.4337499878917
 21
631.93908616188639
  0
LINE
  8
_0-1_計細線
  6
CONTINUOUS
 62
    3
 10
788.43374998789159
 20
631.93908616188639
 11
781.4337499878917
 21
631.93908616188639
  0
LINE
  8
_0-1_計細線
  6
CONTINUOUS
 62
    3
 10
778.43374998789159
 20
631.93908616188639
 11
771.4337499878917
 21
631.93908616188639
  0
LINE
  8
_0-1_計細線
  6
CONTINUOUS
 62
    3
 10
768.43374998789159
 20
631.93908616188639
 11
761.43374998789159
 21
631.93908616188639
  0
LINE
  8
_0-1_計細線
  6
CONTINUOUS
 62
    3
 10
758.43374998789159
 20
631.93908616188639
 11
751.43374998789159
 21
631.93908616188639
  0
LINE
  8
_0-1_計細線
  6
CONTINUOUS
 62
    3
 10
748.43374998789159
 20
631.93908616188639
 11
741.43374998789159
 21
631.93908616188639
  0
LINE
  8
_0-1_計細線
  6
CONTINUOUS
 62
    3
 10
738.43374998789159
 20
631.93908616188639
 11
731.43374998789159
 21
631.93908616188639
  0
LINE
  8
_0-1_計細線
  6
CONTINUOUS
 62
    3
 10
728.43374998789159
 20
631.93908616188639
 11
721.43374998789159
 21
631.93908616188639
  0
LINE
  8
_0-1_計細線
  6
CONTINUOUS
 62
    3
 10
718.43374998789159
 20
631.93908616188639
 11
711.43374998789159
 21
631.93908616188639
  0
LINE
  8
_0-1_計細線
  6
CONTINUOUS
 62
    3
 10
708.43374998789159
 20
631.93908616188639
 11
701.43374998789159
 21
631.93908616188639
  0
LINE
  8
_0-1_計細線
  6
CONTINUOUS
 62
    3
 10
698.43374998789159
 20
631.93908616188639
 11
691.43374998789159
 21
631.93908616188639
  0
LINE
  8
_0-1_計細線
  6
CONTINUOUS
 62
    3
 10
688.43374998789159
 20
631.93908616188639
 11
681.43374998789159
 21
631.93908616188639
  0
LINE
  8
_0-1_計細線
  6
CONTINUOUS
 62
    3
 10
678.43374998789159
 20
631.93908616188639
 11
671.43374998789159
 21
631.93908616188639
  0
LINE
  8
_0-1_計細線
  6
CONTINUOUS
 62
    3
 10
668.43374998789159
 20
631.93908616188639
 11
661.43374998789159
 21
631.93908616188639
  0
LINE
  8
_0-1_計細線
  6
CONTINUOUS
 62
    3
 10
658.43374998789159
 20
631.93908616188639
 11
651.43374998789159
 21
631.93908616188639
  0
LINE
  8
_0-1_計細線
  6
CONTINUOUS
 62
    3
 10
648.43374998789159
 20
631.93908616188639
 11
641.43374998789159
 21
631.93908616188639
  0
LINE
  8
_0-1_計細線
  6
CONTINUOUS
 62
    3
 10
638.43374998789159
 20
631.93908616188639
 11
631.43374998789159
 21
631.93908616188639
  0
LINE
  8
_0-1_計細線
  6
CONTINUOUS
 62
    3
 10
628.43374998789159
 20
631.93908616188639
 11
621.43374998789159
 21
631.93908616188639
  0
LINE
  8
_0-1_計細線
  6
CONTINUOUS
 62
    3
 10
618.43374998789159
 20
631.93908616188639
 11
611.43374998789159
 21
631.93908616188639
  0
LINE
  8
_0-1_計細線
  6
CONTINUOUS
 62
    3
 10
608.43374998789159
 20
631.93908616188639
 11
601.43374998789159
 21
631.93908616188639
  0
LINE
  8
_0-1_計細線
  6
CONTINUOUS
 62
    3
 10
598.43374998789159
 20
631.93908616188639
 11
591.43374998789159
 21
631.93908616188639
  0
LINE
  8
_0-1_計細線
  6
CONTINUOUS
 62
    3
 10
588.43374998789159
 20
631.93908616188639
 11
581.43374998789159
 21
631.93908616188639
  0
LINE
  8
_0-1_計細線
  6
CONTINUOUS
 62
    3
 10
578.43374998789159
 20
631.93908616188639
 11
571.43374998789159
 21
631.93908616188639
  0
LINE
  8
_0-1_計細線
  6
CONTINUOUS
 62
    3
 10
568.43374998789159
 20
631.93908616188639
 11
561.43374998789159
 21
631.93908616188639
  0
LINE
  8
_0-1_計細線
  6
CONTINUOUS
 62
    3
 10
558.43374998789159
 20
631.93908616188639
 11
551.43374998789159
 21
631.93908616188639
  0
LINE
  8
_0-1_計細線
  6
CONTINUOUS
 62
    3
 10
548.43374998789159
 20
631.93908616188639
 11
541.43374998789159
 21
631.93908616188639
  0
LINE
  8
_0-1_計細線
  6
CONTINUOUS
 62
    3
 10
538.43374998789159
 20
631.93908616188639
 11
531.43374998789159
 21
631.93908616188639
  0
LINE
  8
_0-1_計細線
  6
CONTINUOUS
 62
    3
 10
528.43374998789159
 20
631.93908616188639
 11
521.43374998789159
 21
631.93908616188639
  0
LINE
  8
_0-1_計細線
  6
CONTINUOUS
 62
    3
 10
518.43374998789159
 20
631.93908616188639
 11
511.43374998789164
 21
631.93908616188639
  0
LINE
  8
_0-1_計細線
  6
CONTINUOUS
 62
    3
 10
508.43374998789159
 20
631.93908616188639
 11
501.43374998789164
 21
631.93908616188639
  0
LINE
  8
_0-1_計細線
  6
CONTINUOUS
 62
    3
 10
498.43374998789159
 20
631.93908616188639
 11
491.43374998789164
 21
631.93908616188639
  0
LINE
  8
_0-1_計細線
  6
CONTINUOUS
 62
    3
 10
488.43374998789159
 20
631.93908616188639
 11
481.43374998789164
 21
631.93908616188639
  0
LINE
  8
_0-1_計細線
  6
CONTINUOUS
 62
    3
 10
478.43374998789159
 20
631.93908616188639
 11
471.43374998789164
 21
631.93908616188639
  0
LINE
  8
_0-1_計細線
  6
CONTINUOUS
 62
    3
 10
468.43374998789159
 20
631.93908616188639
 11
461.43374998789164
 21
631.93908616188639
  0
LINE
  8
_0-1_計細線
  6
CONTINUOUS
 62
    3
 10
458.43374998789159
 20
631.93908616188639
 11
451.43374998789164
 21
631.93908616188639
  0
LINE
  8
_0-1_計細線
  6
CONTINUOUS
 62
    3
 10
448.43374998789159
 20
631.93908616188639
 11
441.43374998789164
 21
631.93908616188639
  0
LINE
  8
_0-1_計細線
  6
CONTINUOUS
 62
    3
 10
438.43374998789159
 20
631.93908616188639
 11
431.43374998789164
 21
631.93908616188639
  0
LINE
  8
_0-1_計細線
  6
CONTINUOUS
 62
    3
 10
428.43374998789159
 20
631.93908616188639
 11
421.43374998789164
 21
631.93908616188639
  0
LINE
  8
_0-1_計細線
  6
CONTINUOUS
 62
    3
 10
418.43374998789159
 20
631.93908616188639
 11
411.43374998789164
 21
631.93908616188639
  0
LINE
  8
_0-1_計細線
  6
CONTINUOUS
 62
    3
 10
408.43374998789159
 20
631.93908616188639
 11
401.43374998789164
 21
631.93908616188639
  0
LINE
  8
_0-1_計細線
  6
CONTINUOUS
 62
    3
 10
398.43374998789159
 20
631.93908616188639
 11
391.43374998789164
 21
631.93908616188639
  0
LINE
  8
_0-1_計細線
  6
CONTINUOUS
 62
    3
 10
388.43374998789159
 20
631.93908616188639
 11
381.43374998789164
 21
631.93908616188639
  0
LINE
  8
_0-1_計細線
  6
CONTINUOUS
 62
    3
 10
378.43374998789159
 20
631.93908616188639
 11
371.43374998789164
 21
631.93908616188639
  0
LINE
  8
_0-1_計細線
  6
CONTINUOUS
 62
    3
 10
368.43374998789159
 20
631.93908616188639
 11
361.43374998789164
 21
631.93908616188639
  0
LINE
  8
_0-1_計細線
  6
CONTINUOUS
 62
    3
 10
358.43374998789159
 20
631.93908616188639
 11
351.43374998789164
 21
631.93908616188639
  0
LINE
  8
_0-1_計細線
  6
CONTINUOUS
 62
    3
 10
348.43374998789159
 20
631.93908616188639
 11
341.43374998789164
 21
631.93908616188639
  0
LINE
  8
_0-1_計細線
  6
CONTINUOUS
 62
    3
 10
338.43374998789159
 20
631.93908616188639
 11
331.43374998789164
 21
631.93908616188639
  0
LINE
  8
_0-1_計細線
  6
CONTINUOUS
 62
    3
 10
328.43374998789159
 20
631.93908616188639
 11
321.43374998789164
 21
631.93908616188639
  0
LINE
  8
_0-1_計細線
  6
CONTINUOUS
 62
    3
 10
318.43374998789159
 20
631.93908616188639
 11
311.43374998789159
 21
631.93908616188639
  0
LINE
  8
_0-1_計細線
  6
CONTINUOUS
 62
    3
 10
308.43374998789159
 20
631.93908616188639
 11
301.43374998789159
 21
631.93908616188639
  0
LINE
  8
_0-1_計細線
  6
CONTINUOUS
 62
    3
 10
298.43374998789159
 20
631.93908616188639
 11
291.43374998789159
 21
631.93908616188639
  0
LINE
  8
_0-1_計細線
  6
CONTINUOUS
 62
    3
 10
288.43374998789159
 20
631.93908616188639
 11
281.43374998789159
 21
631.93908616188639
  0
LINE
  8
_0-1_計細線
  6
CONTINUOUS
 62
    3
 10
278.43374998789159
 20
631.93908616188639
 11
271.43374998789159
 21
631.93908616188639
  0
LINE
  8
_0-1_計細線
  6
CONTINUOUS
 62
    3
 10
268.43374998789159
 20
631.93908616188639
 11
261.43374998789159
 21
631.93908616188639
  0
LINE
  8
_0-1_計細線
  6
CONTINUOUS
 62
    3
 10
258.43374998789159
 20
631.93908616188639
 11
251.43374998789156
 21
631.93908616188639
  0
LINE
  8
_0-1_計細線
  6
CONTINUOUS
 62
    3
 10
248.43374998789159
 20
631.93908616188639
 11
241.43374998789156
 21
631.93908616188639
  0
LINE
  8
_0-1_計細線
  6
CONTINUOUS
 62
    3
 10
238.43374998789159
 20
631.93908616188639
 11
231.43374998789156
 21
631.93908616188639
  0
LINE
  8
_0-1_計細線
  6
CONTINUOUS
 62
    3
 10
199.12165760236618
 20
604.93908616188696
 11
1248.1216576023658
 21
604.93908616188696
  0
LINE
  8
_0-1_計細線
  6
CONTINUOUS
 62
    3
 10
200.43374998789162
 20
601.93908616188685
 11
1249.4337499878916
 21
601.93908616188685
  0
LINE
  8
_0-1_計細線
  6
CONTINUOUS
 62
    3
 10
1221.4337499878916
 20
631.93908616188776
 11
1249.4337499878916
 21
631.93908616188639
  0
LINE
  8
_0-1_計細線
  6
CONTINUOUS
 62
    3
 10
228.43374998789159
 20
631.93908616188776
 11
200.43374998789162
 21
631.93908616188776
  0
LINE
  8
_0-0_計極細
  6
CONTINUOUS
 62
    2
 10
1211.4337499878916
 20
679.43908616188639
 11
1218.4337499878916
 21
679.43908616188639
  0
LINE
  8
_0-0_計極細
  6
CONTINUOUS
 62
    2
 10
1211.4337499878916
 20
684.43908616188639
 11
1218.4337499878916
 21
684.43908616188639
  0
LINE
  8
_0-0_計極細
  6
CONTINUOUS
 62
    2
 10
1201.4337499878916
 20
679.43908616188639
 11
1208.4337499878916
 21
679.43908616188639
  0
LINE
  8
_0-0_計極細
  6
CONTINUOUS
 62
    2
 10
1201.4337499878916
 20
684.43908616188639
 11
1208.4337499878916
 21
684.43908616188639
  0
LINE
  8
_0-0_計極細
  6
CONTINUOUS
 62
    2
 10
1191.4337499878916
 20
679.43908616188639
 11
1198.4337499878916
 21
679.43908616188639
  0
LINE
  8
_0-0_計極細
  6
CONTINUOUS
 62
    2
 10
1191.4337499878916
 20
684.43908616188639
 11
1198.4337499878916
 21
684.43908616188639
  0
LINE
  8
_0-0_計極細
  6
CONTINUOUS
 62
    2
 10
1181.4337499878916
 20
679.43908616188639
 11
1188.4337499878916
 21
679.43908616188639
  0
LINE
  8
_0-0_計極細
  6
CONTINUOUS
 62
    2
 10
1181.4337499878916
 20
684.43908616188639
 11
1188.4337499878916
 21
684.43908616188639
  0
LINE
  8
_0-0_計極細
  6
CONTINUOUS
 62
    2
 10
1171.4337499878916
 20
679.43908616188639
 11
1178.4337499878916
 21
679.43908616188639
  0
LINE
  8
_0-0_計極細
  6
CONTINUOUS
 62
    2
 10
1171.4337499878916
 20
684.43908616188639
 11
1178.4337499878916
 21
684.43908616188639
  0
LINE
  8
_0-0_計極細
  6
CONTINUOUS
 62
    2
 10
1161.4337499878916
 20
679.43908616188639
 11
1168.4337499878916
 21
679.43908616188639
  0
LINE
  8
_0-0_計極細
  6
CONTINUOUS
 62
    2
 10
1161.4337499878916
 20
684.43908616188639
 11
1168.4337499878916
 21
684.43908616188639
  0
LINE
  8
_0-0_計極細
  6
CONTINUOUS
 62
    2
 10
1151.4337499878916
 20
679.43908616188639
 11
1158.4337499878916
 21
679.43908616188639
  0
LINE
  8
_0-0_計極細
  6
CONTINUOUS
 62
    2
 10
1151.4337499878916
 20
684.43908616188639
 11
1158.4337499878916
 21
684.43908616188639
  0
LINE
  8
_0-0_計極細
  6
CONTINUOUS
 62
    2
 10
1141.4337499878916
 20
679.43908616188639
 11
1148.4337499878916
 21
679.43908616188639
  0
LINE
  8
_0-0_計極細
  6
CONTINUOUS
 62
    2
 10
1141.4337499878916
 20
684.43908616188639
 11
1148.4337499878916
 21
684.43908616188639
  0
LINE
  8
_0-0_計極細
  6
CONTINUOUS
 62
    2
 10
1131.4337499878916
 20
679.43908616188639
 11
1138.4337499878916
 21
679.43908616188639
  0
LINE
  8
_0-0_計極細
  6
CONTINUOUS
 62
    2
 10
1131.4337499878916
 20
684.43908616188639
 11
1138.4337499878916
 21
684.43908616188639
  0
LINE
  8
_0-0_計極細
  6
CONTINUOUS
 62
    2
 10
1121.4337499878916
 20
679.43908616188639
 11
1128.4337499878916
 21
679.43908616188639
  0
LINE
  8
_0-0_計極細
  6
CONTINUOUS
 62
    2
 10
1121.4337499878916
 20
684.43908616188639
 11
1128.4337499878916
 21
684.43908616188639
  0
LINE
  8
_0-0_計極細
  6
CONTINUOUS
 62
    2
 10
1111.4337499878916
 20
679.43908616188639
 11
1118.4337499878916
 21
679.43908616188639
  0
LINE
  8
_0-0_計極細
  6
CONTINUOUS
 62
    2
 10
1111.4337499878916
 20
684.43908616188639
 11
1118.4337499878916
 21
684.43908616188639
  0
LINE
  8
_0-0_計極細
  6
CONTINUOUS
 62
    2
 10
1101.4337499878916
 20
679.43908616188639
 11
1108.4337499878916
 21
679.43908616188639
  0
LINE
  8
_0-0_計極細
  6
CONTINUOUS
 62
    2
 10
1101.4337499878916
 20
684.43908616188639
 11
1108.4337499878916
 21
684.43908616188639
  0
LINE
  8
_0-0_計極細
  6
CONTINUOUS
 62
    2
 10
1091.4337499878916
 20
679.43908616188639
 11
1098.4337499878916
 21
679.43908616188639
  0
LINE
  8
_0-0_計極細
  6
CONTINUOUS
 62
    2
 10
1091.4337499878916
 20
684.43908616188639
 11
1098.4337499878916
 21
684.43908616188639
  0
LINE
  8
_0-0_計極細
  6
CONTINUOUS
 62
    2
 10
1081.4337499878916
 20
679.43908616188639
 11
1088.4337499878916
 21
679.43908616188639
  0
LINE
  8
_0-0_計極細
  6
CONTINUOUS
 62
    2
 10
1081.4337499878916
 20
684.43908616188639
 11
1088.4337499878916
 21
684.43908616188639
  0
LINE
  8
_0-0_計極細
  6
CONTINUOUS
 62
    2
 10
1071.4337499878916
 20
679.43908616188639
 11
1078.4337499878916
 21
679.43908616188639
  0
LINE
  8
_0-0_計極細
  6
CONTINUOUS
 62
    2
 10
1071.4337499878916
 20
684.43908616188639
 11
1078.4337499878916
 21
684.43908616188639
  0
LINE
  8
_0-0_計極細
  6
CONTINUOUS
 62
    2
 10
1061.4337499878916
 20
679.43908616188639
 11
1068.4337499878916
 21
679.43908616188639
  0
LINE
  8
_0-0_計極細
  6
CONTINUOUS
 62
    2
 10
1061.4337499878916
 20
684.43908616188639
 11
1068.4337499878916
 21
684.43908616188639
  0
LINE
  8
_0-0_計極細
  6
CONTINUOUS
 62
    2
 10
1051.4337499878916
 20
679.43908616188639
 11
1058.4337499878916
 21
679.43908616188639
  0
LINE
  8
_0-0_計極細
  6
CONTINUOUS
 62
    2
 10
1051.4337499878916
 20
684.43908616188639
 11
1058.4337499878916
 21
684.43908616188639
  0
LINE
  8
_0-0_計極細
  6
CONTINUOUS
 62
    2
 10
1041.4337499878916
 20
679.43908616188639
 11
1048.4337499878916
 21
679.43908616188639
  0
LINE
  8
_0-0_計極細
  6
CONTINUOUS
 62
    2
 10
1041.4337499878916
 20
684.43908616188639
 11
1048.4337499878916
 21
684.43908616188639
  0
LINE
  8
_0-0_計極細
  6
CONTINUOUS
 62
    2
 10
1031.4337499878916
 20
679.43908616188639
 11
1038.4337499878916
 21
679.43908616188639
  0
LINE
  8
_0-0_計極細
  6
CONTINUOUS
 62
    2
 10
1031.4337499878916
 20
684.43908616188639
 11
1038.4337499878916
 21
684.43908616188639
  0
LINE
  8
_0-0_計極細
  6
CONTINUOUS
 62
    2
 10
1021.4337499878917
 20
679.43908616188639
 11
1028.4337499878916
 21
679.43908616188639
  0
LINE
  8
_0-0_計極細
  6
CONTINUOUS
 62
    2
 10
1021.4337499878917
 20
684.43908616188639
 11
1028.4337499878916
 21
684.43908616188639
  0
LINE
  8
_0-0_計極細
  6
CONTINUOUS
 62
    2
 10
1011.4337499878917
 20
679.43908616188639
 11
1018.4337499878916
 21
679.43908616188639
  0
LINE
  8
_0-0_計極細
  6
CONTINUOUS
 62
    2
 10
1011.4337499878917
 20
684.43908616188639
 11
1018.4337499878916
 21
684.43908616188639
  0
LINE
  8
_0-0_計極細
  6
CONTINUOUS
 62
    2
 10
1001.4337499878917
 20
679.43908616188639
 11
1008.4337499878916
 21
679.43908616188639
  0
LINE
  8
_0-0_計極細
  6
CONTINUOUS
 62
    2
 10
1001.4337499878917
 20
684.43908616188639
 11
1008.4337499878916
 21
684.43908616188639
  0
LINE
  8
_0-0_計極細
  6
CONTINUOUS
 62
    2
 10
991.4337499878917
 20
679.43908616188639
 11
998.43374998789159
 21
679.43908616188639
  0
LINE
  8
_0-0_計極細
  6
CONTINUOUS
 62
    2
 10
991.4337499878917
 20
684.43908616188639
 11
998.43374998789159
 21
684.43908616188639
  0
LINE
  8
_0-0_計極細
  6
CONTINUOUS
 62
    2
 10
981.4337499878917
 20
679.43908616188639
 11
988.43374998789159
 21
679.43908616188639
  0
LINE
  8
_0-0_計極細
  6
CONTINUOUS
 62
    2
 10
981.4337499878917
 20
684.43908616188639
 11
988.43374998789159
 21
684.43908616188639
  0
LINE
  8
_0-0_計極細
  6
CONTINUOUS
 62
    2
 10
971.4337499878917
 20
679.43908616188639
 11
978.43374998789159
 21
679.43908616188639
  0
LINE
  8
_0-0_計極細
  6
CONTINUOUS
 62
    2
 10
971.4337499878917
 20
684.43908616188639
 11
978.43374998789159
 21
684.43908616188639
  0
LINE
  8
_0-0_計極細
  6
CONTINUOUS
 62
    2
 10
961.4337499878917
 20
679.43908616188639
 11
968.43374998789159
 21
679.43908616188639
  0
LINE
  8
_0-0_計極細
  6
CONTINUOUS
 62
    2
 10
961.4337499878917
 20
684.43908616188639
 11
968.43374998789159
 21
684.43908616188639
  0
LINE
  8
_0-0_計極細
  6
CONTINUOUS
 62
    2
 10
951.4337499878917
 20
679.43908616188639
 11
958.43374998789159
 21
679.43908616188639
  0
LINE
  8
_0-0_計極細
  6
CONTINUOUS
 62
    2
 10
951.4337499878917
 20
684.43908616188639
 11
958.43374998789159
 21
684.43908616188639
  0
LINE
  8
_0-0_計極細
  6
CONTINUOUS
 62
    2
 10
941.4337499878917
 20
679.43908616188639
 11
948.43374998789159
 21
679.43908616188639
  0
LINE
  8
_0-0_計極細
  6
CONTINUOUS
 62
    2
 10
941.4337499878917
 20
684.43908616188639
 11
948.43374998789159
 21
684.43908616188639
  0
LINE
  8
_0-0_計極細
  6
CONTINUOUS
 62
    2
 10
931.4337499878917
 20
679.43908616188639
 11
938.43374998789159
 21
679.43908616188639
  0
LINE
  8
_0-0_計極細
  6
CONTINUOUS
 62
    2
 10
931.4337499878917
 20
684.43908616188639
 11
938.43374998789159
 21
684.43908616188639
  0
LINE
  8
_0-0_計極細
  6
CONTINUOUS
 62
    2
 10
921.4337499878917
 20
679.43908616188639
 11
928.43374998789159
 21
679.43908616188639
  0
LINE
  8
_0-0_計極細
  6
CONTINUOUS
 62
    2
 10
921.4337499878917
 20
684.43908616188639
 11
928.43374998789159
 21
684.43908616188639
  0
LINE
  8
_0-0_計極細
  6
CONTINUOUS
 62
    2
 10
911.4337499878917
 20
679.43908616188639
 11
918.43374998789159
 21
679.43908616188639
  0
LINE
  8
_0-0_計極細
  6
CONTINUOUS
 62
    2
 10
911.4337499878917
 20
684.43908616188639
 11
918.43374998789159
 21
684.43908616188639
  0
LINE
  8
_0-0_計極細
  6
CONTINUOUS
 62
    2
 10
901.4337499878917
 20
679.43908616188639
 11
908.43374998789159
 21
679.43908616188639
  0
LINE
  8
_0-0_計極細
  6
CONTINUOUS
 62
    2
 10
901.4337499878917
 20
684.43908616188639
 11
908.43374998789159
 21
684.43908616188639
  0
LINE
  8
_0-0_計極細
  6
CONTINUOUS
 62
    2
 10
891.4337499878917
 20
679.43908616188639
 11
898.43374998789159
 21
679.43908616188639
  0
LINE
  8
_0-0_計極細
  6
CONTINUOUS
 62
    2
 10
891.4337499878917
 20
684.43908616188639
 11
898.43374998789159
 21
684.43908616188639
  0
LINE
  8
_0-0_計極細
  6
CONTINUOUS
 62
    2
 10
881.4337499878917
 20
679.43908616188639
 11
888.43374998789159
 21
679.43908616188639
  0
LINE
  8
_0-0_計極細
  6
CONTINUOUS
 62
    2
 10
881.4337499878917
 20
684.43908616188639
 11
888.43374998789159
 21
684.43908616188639
  0
LINE
  8
_0-0_計極細
  6
CONTINUOUS
 62
    2
 10
871.4337499878917
 20
679.43908616188639
 11
878.43374998789159
 21
679.43908616188639
  0
LINE
  8
_0-0_計極細
  6
CONTINUOUS
 62
    2
 10
871.4337499878917
 20
684.43908616188639
 11
878.43374998789159
 21
684.43908616188639
  0
LINE
  8
_0-0_計極細
  6
CONTINUOUS
 62
    2
 10
861.4337499878917
 20
679.43908616188639
 11
868.43374998789159
 21
679.43908616188639
  0
LINE
  8
_0-0_計極細
  6
CONTINUOUS
 62
    2
 10
861.4337499878917
 20
684.43908616188639
 11
868.43374998789159
 21
684.43908616188639
  0
LINE
  8
_0-0_計極細
  6
CONTINUOUS
 62
    2
 10
851.4337499878917
 20
679.43908616188639
 11
858.43374998789159
 21
679.43908616188639
  0
LINE
  8
_0-0_計極細
  6
CONTINUOUS
 62
    2
 10
851.4337499878917
 20
684.43908616188639
 11
858.43374998789159
 21
684.43908616188639
  0
LINE
  8
_0-0_計極細
  6
CONTINUOUS
 62
    2
 10
841.4337499878917
 20
679.43908616188639
 11
848.43374998789159
 21
679.43908616188639
  0
LINE
  8
_0-0_計極細
  6
CONTINUOUS
 62
    2
 10
841.4337499878917
 20
684.43908616188639
 11
848.43374998789159
 21
684.43908616188639
  0
LINE
  8
_0-0_計極細
  6
CONTINUOUS
 62
    2
 10
831.4337499878917
 20
679.43908616188639
 11
838.43374998789159
 21
679.43908616188639
  0
LINE
  8
_0-0_計極細
  6
CONTINUOUS
 62
    2
 10
831.4337499878917
 20
684.43908616188639
 11
838.43374998789159
 21
684.43908616188639
  0
LINE
  8
_0-0_計極細
  6
CONTINUOUS
 62
    2
 10
821.4337499878917
 20
679.43908616188639
 11
828.43374998789159
 21
679.43908616188639
  0
LINE
  8
_0-0_計極細
  6
CONTINUOUS
 62
    2
 10
821.4337499878917
 20
684.43908616188639
 11
828.43374998789159
 21
684.43908616188639
  0
LINE
  8
_0-0_計極細
  6
CONTINUOUS
 62
    2
 10
811.4337499878917
 20
679.43908616188639
 11
818.43374998789159
 21
679.43908616188639
  0
LINE
  8
_0-0_計極細
  6
CONTINUOUS
 62
    2
 10
811.4337499878917
 20
684.43908616188639
 11
818.43374998789159
 21
684.43908616188639
  0
LINE
  8
_0-0_計極細
  6
CONTINUOUS
 62
    2
 10
801.4337499878917
 20
679.43908616188639
 11
808.43374998789159
 21
679.43908616188639
  0
LINE
  8
_0-0_計極細
  6
CONTINUOUS
 62
    2
 10
801.4337499878917
 20
684.43908616188639
 11
808.43374998789159
 21
684.43908616188639
  0
LINE
  8
_0-0_計極細
  6
CONTINUOUS
 62
    2
 10
791.4337499878917
 20
679.43908616188639
 11
798.43374998789159
 21
679.43908616188639
  0
LINE
  8
_0-0_計極細
  6
CONTINUOUS
 62
    2
 10
791.4337499878917
 20
684.43908616188639
 11
798.43374998789159
 21
684.43908616188639
  0
LINE
  8
_0-0_計極細
  6
CONTINUOUS
 62
    2
 10
781.4337499878917
 20
679.43908616188639
 11
788.43374998789159
 21
679.43908616188639
  0
LINE
  8
_0-0_計極細
  6
CONTINUOUS
 62
    2
 10
781.4337499878917
 20
684.43908616188639
 11
788.43374998789159
 21
684.43908616188639
  0
LINE
  8
_0-0_計極細
  6
CONTINUOUS
 62
    2
 10
771.4337499878917
 20
679.43908616188639
 11
778.43374998789159
 21
679.43908616188639
  0
LINE
  8
_0-0_計極細
  6
CONTINUOUS
 62
    2
 10
771.4337499878917
 20
684.43908616188639
 11
778.43374998789159
 21
684.43908616188639
  0
LINE
  8
_0-0_計極細
  6
CONTINUOUS
 62
    2
 10
761.43374998789159
 20
679.43908616188639
 11
768.43374998789159
 21
679.43908616188639
  0
LINE
  8
_0-0_計極細
  6
CONTINUOUS
 62
    2
 10
761.43374998789159
 20
684.43908616188639
 11
768.43374998789159
 21
684.43908616188639
  0
LINE
  8
_0-0_計極細
  6
CONTINUOUS
 62
    2
 10
751.43374998789159
 20
679.43908616188639
 11
758.43374998789159
 21
679.43908616188639
  0
LINE
  8
_0-0_計極細
  6
CONTINUOUS
 62
    2
 10
751.43374998789159
 20
684.43908616188639
 11
758.43374998789159
 21
684.43908616188639
  0
LINE
  8
_0-0_計極細
  6
CONTINUOUS
 62
    2
 10
741.43374998789159
 20
679.43908616188639
 11
748.43374998789159
 21
679.43908616188639
  0
LINE
  8
_0-0_計極細
  6
CONTINUOUS
 62
    2
 10
741.43374998789159
 20
684.43908616188639
 11
748.43374998789159
 21
684.43908616188639
  0
LINE
  8
_0-0_計極細
  6
CONTINUOUS
 62
    2
 10
731.43374998789159
 20
679.43908616188639
 11
738.43374998789159
 21
679.43908616188639
  0
LINE
  8
_0-0_計極細
  6
CONTINUOUS
 62
    2
 10
731.43374998789159
 20
684.43908616188639
 11
738.43374998789159
 21
684.43908616188639
  0
LINE
  8
_0-0_計極細
  6
CONTINUOUS
 62
    2
 10
721.43374998789159
 20
679.43908616188639
 11
728.43374998789159
 21
679.43908616188639
  0
LINE
  8
_0-0_計極細
  6
CONTINUOUS
 62
    2
 10
721.43374998789159
 20
684.43908616188639
 11
728.43374998789159
 21
684.43908616188639
  0
LINE
  8
_0-0_計極細
  6
CONTINUOUS
 62
    2
 10
711.43374998789159
 20
679.43908616188639
 11
718.43374998789159
 21
679.43908616188639
  0
LINE
  8
_0-0_計極細
  6
CONTINUOUS
 62
    2
 10
711.43374998789159
 20
684.43908616188639
 11
718.43374998789159
 21
684.43908616188639
  0
LINE
  8
_0-0_計極細
  6
CONTINUOUS
 62
    2
 10
701.43374998789159
 20
679.43908616188639
 11
708.43374998789159
 21
679.43908616188639
  0
LINE
  8
_0-0_計極細
  6
CONTINUOUS
 62
    2
 10
701.43374998789159
 20
684.43908616188639
 11
708.43374998789159
 21
684.43908616188639
  0
LINE
  8
_0-0_計極細
  6
CONTINUOUS
 62
    2
 10
691.43374998789159
 20
679.43908616188639
 11
698.43374998789159
 21
679.43908616188639
  0
LINE
  8
_0-0_計極細
  6
CONTINUOUS
 62
    2
 10
691.43374998789159
 20
684.43908616188639
 11
698.43374998789159
 21
684.43908616188639
  0
LINE
  8
_0-0_計極細
  6
CONTINUOUS
 62
    2
 10
681.43374998789159
 20
679.43908616188639
 11
688.43374998789159
 21
679.43908616188639
  0
LINE
  8
_0-0_計極細
  6
CONTINUOUS
 62
    2
 10
681.43374998789159
 20
684.43908616188639
 11
688.43374998789159
 21
684.43908616188639
  0
LINE
  8
_0-0_計極細
  6
CONTINUOUS
 62
    2
 10
671.43374998789159
 20
679.43908616188639
 11
678.43374998789159
 21
679.43908616188639
  0
LINE
  8
_0-0_計極細
  6
CONTINUOUS
 62
    2
 10
671.43374998789159
 20
684.43908616188639
 11
678.43374998789159
 21
684.43908616188639
  0
LINE
  8
_0-0_計極細
  6
CONTINUOUS
 62
    2
 10
661.43374998789159
 20
679.43908616188639
 11
668.43374998789159
 21
679.43908616188639
  0
LINE
  8
_0-0_計極細
  6
CONTINUOUS
 62
    2
 10
661.43374998789159
 20
684.43908616188639
 11
668.43374998789159
 21
684.43908616188639
  0
LINE
  8
_0-0_計極細
  6
CONTINUOUS
 62
    2
 10
651.43374998789159
 20
679.43908616188639
 11
658.43374998789159
 21
679.43908616188639
  0
LINE
  8
_0-0_計極細
  6
CONTINUOUS
 62
    2
 10
651.43374998789159
 20
684.43908616188639
 11
658.43374998789159
 21
684.43908616188639
  0
LINE
  8
_0-0_計極細
  6
CONTINUOUS
 62
    2
 10
641.43374998789159
 20
679.43908616188639
 11
648.43374998789159
 21
679.43908616188639
  0
LINE
  8
_0-0_計極細
  6
CONTINUOUS
 62
    2
 10
641.43374998789159
 20
684.43908616188639
 11
648.43374998789159
 21
684.43908616188639
  0
LINE
  8
_0-0_計極細
  6
CONTINUOUS
 62
    2
 10
631.43374998789159
 20
679.43908616188639
 11
638.43374998789159
 21
679.43908616188639
  0
LINE
  8
_0-0_計極細
  6
CONTINUOUS
 62
    2
 10
631.43374998789159
 20
684.43908616188639
 11
638.43374998789159
 21
684.43908616188639
  0
LINE
  8
_0-0_計極細
  6
CONTINUOUS
 62
    2
 10
621.43374998789159
 20
679.43908616188639
 11
628.43374998789159
 21
679.43908616188639
  0
LINE
  8
_0-0_計極細
  6
CONTINUOUS
 62
    2
 10
621.43374998789159
 20
684.43908616188639
 11
628.43374998789159
 21
684.43908616188639
  0
LINE
  8
_0-0_計極細
  6
CONTINUOUS
 62
    2
 10
611.43374998789159
 20
679.43908616188639
 11
618.43374998789159
 21
679.43908616188639
  0
LINE
  8
_0-0_計極細
  6
CONTINUOUS
 62
    2
 10
611.43374998789159
 20
684.43908616188639
 11
618.43374998789159
 21
684.43908616188639
  0
LINE
  8
_0-0_計極細
  6
CONTINUOUS
 62
    2
 10
601.43374998789159
 20
679.43908616188639
 11
608.43374998789159
 21
679.43908616188639
  0
LINE
  8
_0-0_計極細
  6
CONTINUOUS
 62
    2
 10
601.43374998789159
 20
684.43908616188639
 11
608.43374998789159
 21
684.43908616188639
  0
LINE
  8
_0-0_計極細
  6
CONTINUOUS
 62
    2
 10
591.43374998789159
 20
679.43908616188639
 11
598.43374998789159
 21
679.43908616188639
  0
LINE
  8
_0-0_計極細
  6
CONTINUOUS
 62
    2
 10
591.43374998789159
 20
684.43908616188639
 11
598.43374998789159
 21
684.43908616188639
  0
LINE
  8
_0-0_計極細
  6
CONTINUOUS
 62
    2
 10
581.43374998789159
 20
679.43908616188639
 11
588.43374998789159
 21
679.43908616188639
  0
LINE
  8
_0-0_計極細
  6
CONTINUOUS
 62
    2
 10
581.43374998789159
 20
684.43908616188639
 11
588.43374998789159
 21
684.43908616188639
  0
LINE
  8
_0-0_計極細
  6
CONTINUOUS
 62
    2
 10
571.43374998789159
 20
679.43908616188639
 11
578.43374998789159
 21
679.43908616188639
  0
LINE
  8
_0-0_計極細
  6
CONTINUOUS
 62
    2
 10
571.43374998789159
 20
684.43908616188639
 11
578.43374998789159
 21
684.43908616188639
  0
LINE
  8
_0-0_計極細
  6
CONTINUOUS
 62
    2
 10
561.43374998789159
 20
679.43908616188639
 11
568.43374998789159
 21
679.43908616188639
  0
LINE
  8
_0-0_計極細
  6
CONTINUOUS
 62
    2
 10
561.43374998789159
 20
684.43908616188639
 11
568.43374998789159
 21
684.43908616188639
  0
LINE
  8
_0-0_計極細
  6
CONTINUOUS
 62
    2
 10
551.43374998789159
 20
679.43908616188639
 11
558.43374998789159
 21
679.43908616188639
  0
LINE
  8
_0-0_計極細
  6
CONTINUOUS
 62
    2
 10
551.43374998789159
 20
684.43908616188639
 11
558.43374998789159
 21
684.43908616188639
  0
LINE
  8
_0-0_計極細
  6
CONTINUOUS
 62
    2
 10
541.43374998789159
 20
679.43908616188639
 11
548.43374998789159
 21
679.43908616188639
  0
LINE
  8
_0-0_計極細
  6
CONTINUOUS
 62
    2
 10
541.43374998789159
 20
684.43908616188639
 11
548.43374998789159
 21
684.43908616188639
  0
LINE
  8
_0-0_計極細
  6
CONTINUOUS
 62
    2
 10
531.43374998789159
 20
679.43908616188639
 11
538.43374998789159
 21
679.43908616188639
  0
LINE
  8
_0-0_計極細
  6
CONTINUOUS
 62
    2
 10
531.43374998789159
 20
684.43908616188639
 11
538.43374998789159
 21
684.43908616188639
  0
LINE
  8
_0-0_計極細
  6
CONTINUOUS
 62
    2
 10
521.43374998789159
 20
679.43908616188639
 11
528.43374998789159
 21
679.43908616188639
  0
LINE
  8
_0-0_計極細
  6
CONTINUOUS
 62
    2
 10
521.43374998789159
 20
684.43908616188639
 11
528.43374998789159
 21
684.43908616188639
  0
LINE
  8
_0-0_計極細
  6
CONTINUOUS
 62
    2
 10
511.43374998789164
 20
679.43908616188639
 11
518.43374998789159
 21
679.43908616188639
  0
LINE
  8
_0-0_計極細
  6
CONTINUOUS
 62
    2
 10
511.43374998789164
 20
684.43908616188639
 11
518.43374998789159
 21
684.43908616188639
  0
LINE
  8
_0-0_計極細
  6
CONTINUOUS
 62
    2
 10
501.43374998789164
 20
679.43908616188639
 11
508.43374998789159
 21
679.43908616188639
  0
LINE
  8
_0-0_計極細
  6
CONTINUOUS
 62
    2
 10
501.43374998789164
 20
684.43908616188639
 11
508.43374998789159
 21
684.43908616188639
  0
LINE
  8
_0-0_計極細
  6
CONTINUOUS
 62
    2
 10
491.43374998789164
 20
679.43908616188639
 11
498.43374998789159
 21
679.43908616188639
  0
LINE
  8
_0-0_計極細
  6
CONTINUOUS
 62
    2
 10
491.43374998789164
 20
684.43908616188639
 11
498.43374998789159
 21
684.43908616188639
  0
LINE
  8
_0-0_計極細
  6
CONTINUOUS
 62
    2
 10
481.43374998789164
 20
679.43908616188639
 11
488.43374998789159
 21
679.43908616188639
  0
LINE
  8
_0-0_計極細
  6
CONTINUOUS
 62
    2
 10
481.43374998789164
 20
684.43908616188639
 11
488.43374998789159
 21
684.43908616188639
  0
LINE
  8
_0-0_計極細
  6
CONTINUOUS
 62
    2
 10
471.43374998789164
 20
679.43908616188639
 11
478.43374998789159
 21
679.43908616188639
  0
LINE
  8
_0-0_計極細
  6
CONTINUOUS
 62
    2
 10
471.43374998789164
 20
684.43908616188639
 11
478.43374998789159
 21
684.43908616188639
  0
LINE
  8
_0-0_計極細
  6
CONTINUOUS
 62
    2
 10
461.43374998789164
 20
679.43908616188639
 11
468.43374998789159
 21
679.43908616188639
  0
LINE
  8
_0-0_計極細
  6
CONTINUOUS
 62
    2
 10
461.43374998789164
 20
684.43908616188639
 11
468.43374998789159
 21
684.43908616188639
  0
LINE
  8
_0-0_計極細
  6
CONTINUOUS
 62
    2
 10
451.43374998789164
 20
679.43908616188639
 11
458.43374998789159
 21
679.43908616188639
  0
LINE
  8
_0-0_計極細
  6
CONTINUOUS
 62
    2
 10
451.43374998789164
 20
684.43908616188639
 11
458.43374998789159
 21
684.43908616188639
  0
LINE
  8
_0-0_計極細
  6
CONTINUOUS
 62
    2
 10
441.43374998789164
 20
679.43908616188639
 11
448.43374998789159
 21
679.43908616188639
  0
LINE
  8
_0-0_計極細
  6
CONTINUOUS
 62
    2
 10
441.43374998789164
 20
684.43908616188639
 11
448.43374998789159
 21
684.43908616188639
  0
LINE
  8
_0-0_計極細
  6
CONTINUOUS
 62
    2
 10
431.43374998789164
 20
679.43908616188639
 11
438.43374998789159
 21
679.43908616188639
  0
LINE
  8
_0-0_計極細
  6
CONTINUOUS
 62
    2
 10
431.43374998789164
 20
684.43908616188639
 11
438.43374998789159
 21
684.43908616188639
  0
LINE
  8
_0-0_計極細
  6
CONTINUOUS
 62
    2
 10
421.43374998789164
 20
679.43908616188639
 11
428.43374998789159
 21
679.43908616188639
  0
LINE
  8
_0-0_計極細
  6
CONTINUOUS
 62
    2
 10
421.43374998789164
 20
684.43908616188639
 11
428.43374998789159
 21
684.43908616188639
  0
LINE
  8
_0-0_計極細
  6
CONTINUOUS
 62
    2
 10
411.43374998789164
 20
679.43908616188639
 11
418.43374998789159
 21
679.43908616188639
  0
LINE
  8
_0-0_計極細
  6
CONTINUOUS
 62
    2
 10
411.43374998789164
 20
684.43908616188639
 11
418.43374998789159
 21
684.43908616188639
  0
LINE
  8
_0-0_計極細
  6
CONTINUOUS
 62
    2
 10
401.43374998789164
 20
679.43908616188639
 11
408.43374998789159
 21
679.43908616188639
  0
LINE
  8
_0-0_計極細
  6
CONTINUOUS
 62
    2
 10
401.43374998789164
 20
684.43908616188639
 11
408.43374998789159
 21
684.43908616188639
  0
LINE
  8
_0-0_計極細
  6
CONTINUOUS
 62
    2
 10
391.43374998789164
 20
679.43908616188639
 11
398.43374998789159
 21
679.43908616188639
  0
LINE
  8
_0-0_計極細
  6
CONTINUOUS
 62
    2
 10
391.43374998789164
 20
684.43908616188639
 11
398.43374998789159
 21
684.43908616188639
  0
LINE
  8
_0-0_計極細
  6
CONTINUOUS
 62
    2
 10
381.43374998789164
 20
679.43908616188639
 11
388.43374998789159
 21
679.43908616188639
  0
LINE
  8
_0-0_計極細
  6
CONTINUOUS
 62
    2
 10
381.43374998789164
 20
684.43908616188639
 11
388.43374998789159
 21
684.43908616188639
  0
LINE
  8
_0-0_計極細
  6
CONTINUOUS
 62
    2
 10
371.43374998789164
 20
679.43908616188639
 11
378.43374998789159
 21
679.43908616188639
  0
LINE
  8
_0-0_計極細
  6
CONTINUOUS
 62
    2
 10
371.43374998789164
 20
684.43908616188639
 11
378.43374998789159
 21
684.43908616188639
  0
LINE
  8
_0-0_計極細
  6
CONTINUOUS
 62
    2
 10
361.43374998789164
 20
679.43908616188639
 11
368.43374998789159
 21
679.43908616188639
  0
LINE
  8
_0-0_計極細
  6
CONTINUOUS
 62
    2
 10
361.43374998789164
 20
684.43908616188639
 11
368.43374998789159
 21
684.43908616188639
  0
LINE
  8
_0-0_計極細
  6
CONTINUOUS
 62
    2
 10
351.43374998789164
 20
679.43908616188639
 11
358.43374998789159
 21
679.43908616188639
  0
LINE
  8
_0-0_計極細
  6
CONTINUOUS
 62
    2
 10
351.43374998789164
 20
684.43908616188639
 11
358.43374998789159
 21
684.43908616188639
  0
LINE
  8
_0-0_計極細
  6
CONTINUOUS
 62
    2
 10
341.43374998789164
 20
679.43908616188639
 11
348.43374998789159
 21
679.43908616188639
  0
LINE
  8
_0-0_計極細
  6
CONTINUOUS
 62
    2
 10
341.43374998789164
 20
684.43908616188639
 11
348.43374998789159
 21
684.43908616188639
  0
LINE
  8
_0-0_計極細
  6
CONTINUOUS
 62
    2
 10
331.43374998789164
 20
679.43908616188639
 11
338.43374998789159
 21
679.43908616188639
  0
LINE
  8
_0-0_計極細
  6
CONTINUOUS
 62
    2
 10
331.43374998789164
 20
684.43908616188639
 11
338.43374998789159
 21
684.43908616188639
  0
LINE
  8
_0-0_計極細
  6
CONTINUOUS
 62
    2
 10
321.43374998789164
 20
679.43908616188639
 11
328.43374998789159
 21
679.43908616188639
  0
LINE
  8
_0-0_計極細
  6
CONTINUOUS
 62
    2
 10
321.43374998789164
 20
684.43908616188639
 11
328.43374998789159
 21
684.43908616188639
  0
LINE
  8
_0-0_計極細
  6
CONTINUOUS
 62
    2
 10
311.43374998789159
 20
679.43908616188639
 11
318.43374998789159
 21
679.43908616188639
  0
LINE
  8
_0-0_計極細
  6
CONTINUOUS
 62
    2
 10
311.43374998789159
 20
684.43908616188639
 11
318.43374998789159
 21
684.43908616188639
  0
LINE
  8
_0-0_計極細
  6
CONTINUOUS
 62
    2
 10
301.43374998789159
 20
679.43908616188639
 11
308.43374998789159
 21
679.43908616188639
  0
LINE
  8
_0-0_計極細
  6
CONTINUOUS
 62
    2
 10
301.43374998789159
 20
684.43908616188639
 11
308.43374998789159
 21
684.43908616188639
  0
LINE
  8
_0-0_計極細
  6
CONTINUOUS
 62
    2
 10
291.43374998789159
 20
679.43908616188639
 11
298.43374998789159
 21
679.43908616188639
  0
LINE
  8
_0-0_計極細
  6
CONTINUOUS
 62
    2
 10
291.43374998789159
 20
684.43908616188639
 11
298.43374998789159
 21
684.43908616188639
  0
LINE
  8
_0-0_計極細
  6
CONTINUOUS
 62
    2
 10
281.43374998789159
 20
679.43908616188639
 11
288.43374998789159
 21
679.43908616188639
  0
LINE
  8
_0-0_計極細
  6
CONTINUOUS
 62
    2
 10
281.43374998789159
 20
684.43908616188639
 11
288.43374998789159
 21
684.43908616188639
  0
LINE
  8
_0-0_計極細
  6
CONTINUOUS
 62
    2
 10
271.43374998789159
 20
679.43908616188639
 11
278.43374998789159
 21
679.43908616188639
  0
LINE
  8
_0-0_計極細
  6
CONTINUOUS
 62
    2
 10
271.43374998789159
 20
684.43908616188639
 11
278.43374998789159
 21
684.43908616188639
  0
LINE
  8
_0-0_計極細
  6
CONTINUOUS
 62
    2
 10
261.43374998789159
 20
679.43908616188639
 11
268.43374998789159
 21
679.43908616188639
  0
LINE
  8
_0-0_計極細
  6
CONTINUOUS
 62
    2
 10
261.43374998789159
 20
684.43908616188639
 11
268.43374998789159
 21
684.43908616188639
  0
LINE
  8
_0-0_計極細
  6
CONTINUOUS
 62
    2
 10
251.43374998789156
 20
679.43908616188639
 11
258.43374998789159
 21
679.43908616188639
  0
LINE
  8
_0-0_計極細
  6
CONTINUOUS
 62
    2
 10
251.43374998789156
 20
684.43908616188639
 11
258.43374998789159
 21
684.43908616188639
  0
ARC
  8
_0-0_計極細
  6
CONTINUOUS
 62
    2
 10
1236.4433689311386
 20
624.43908616188969
 40
14.999999999989658
 50
329.99999999996317
 51
30.00000000001284
  0
ARC
  8
_0-0_計極細
  6
CONTINUOUS
 62
    2
 10
1262.4241310446182
 20
609.43908616189458
 40
14.999999999969544
 50
149.99999999994964
 51
210.00000000010303
  0
ARC
  8
_0-0_計極細
  6
CONTINUOUS
 62
    2
 10
187.44336893114863
 20
624.43908616188594
 40
14.999999999979083
 50
329.99999999995606
 51
30.000000000047088
  0
LINE
  8
_0-0_計極細
  6
CONTINUOUS
 62
    2
 10
231.43374998789156
 20
679.43908616188639
 11
238.43374998789159
 21
679.43908616188639
  0
LINE
  8
_0-0_計極細
  6
CONTINUOUS
 62
    2
 10
231.43374998789156
 20
684.43908616188639
 11
238.43374998789159
 21
684.43908616188639
  0
LINE
  8
_0-0_計極細
  6
CONTINUOUS
 62
    2
 10
241.43374998789156
 20
679.43908616188639
 11
248.43374998789159
 21
679.43908616188639
  0
LINE
  8
_0-0_計極細
  6
CONTINUOUS
 62
    2
 10
241.43374998789156
 20
684.43908616188639
 11
248.43374998789159
 21
684.43908616188639
  0
LINE
  8
_0-5_寸法線
  6
CONTINUOUS
 62
    7
 10
621.4671366616144
 20
603.31706851132014
 11
626.46713667273877
 21
594.65681447989846
  0
LINE
  8
_0-5_寸法線
  6
CONTINUOUS
 62
    7
 10
621.4671366616144
 20
603.31706851132014
 11
621.46713667445977
 21
593.31706851132014
  0
LINE
  8
_0-5_寸法線
  6
CONTINUOUS
 62
    7
 10
621.4671366616144
 20
603.31706851132014
 11
633.30850621907985
 21
559.12447591872763
  0
LINE
  8
_0-5_寸法線
  6
CONTINUOUS
 62
    7
 10
633.30850621907985
 20
559.12447591872763
 11
741.30850621907985
 21
559.12447591872763
  0
TEXT
  8
_0-5_寸法線
 62
    7
 10
633.30850621907985
 20
559.72447591872776
 40
15
 41
0.8000000000000001
 50
0
  1
ＳＵＳアングル受枠
  0
LINE
  8
_0-5_寸法線
  6
CONTINUOUS
 62
    7
 10
829.55110943345016
 20
646.29578965970245
 11
834.55110943345016
 21
637.63553562185791
  0
LINE
  8
_0-5_寸法線
  6
CONTINUOUS
 62
    7
 10
829.55110943345016
 20
646.29578965970245
 11
829.55110943345016
 21
636.29578965970245
  0
LINE
  8
_0-5_寸法線
  6
CONTINUOUS
 62
    7
 10
829.55110943345016
 20
646.29578965970245
 11
852.90859255350426
 21
559.12447591872763
  0
LINE
  8
_0-5_寸法線
  6
CONTINUOUS
 62
    7
 10
852.90859255350426
 20
559.12447591872763
 11
987.34760476862391
 21
559.12447591872763
  0
TEXT
  8
_0-5_寸法線
 62
    7
 10
855.34760476862402
 20
559.12447591872763
 40
15
 41
0.8000000000000001
 50
0
  1
ステンレスグレーチング
  0
ARC
  8
_0-0_計極細
  6
CONTINUOUS
 62
    2
 10
213.42413104462963
 20
609.43908616188594
 40
14.999999999974561
 50
149.99999999994213
 51
210.00000000004974
  0
LINE
  8
_0-1_計細線
  6
CONTINUOUS
 62
    3
 10
241.43374998789156
 20
753.93908616188742
 11
238.43374998789159
 21
753.93908616188742
  0
LINE
  8
_0-1_計細線
  6
CONTINUOUS
 62
    3
 10
238.43374998789159
 20
753.93908616188742
 11
238.43374998789159
 21
609.93908616188696
  0
LINE
  8
_0-1_計細線
  6
CONTINUOUS
 62
    3
 10
238.43374998789159
 20
609.93908616188696
 11
241.43374998789156
 21
609.93908616188696
  0
LINE
  8
_0-1_計細線
  6
CONTINUOUS
 62
    3
 10
241.43374998789156
 20
609.93908616188696
 11
241.43374998789156
 21
753.93908616188742
  0
LINE
  8
_0-1_計細線
  6
CONTINUOUS
 62
    3
 10
231.43374998789156
 20
753.93908616188742
 11
228.43374998789159
 21
753.93908616188742
  0
LINE
  8
_0-1_計細線
  6
CONTINUOUS
 62
    3
 10
228.43374998789159
 20
753.93908616188742
 11
228.43374998789159
 21
609.93908616188696
  0
LINE
  8
_0-1_計細線
  6
CONTINUOUS
 62
    3
 10
228.43374998789159
 20
609.93908616188696
 11
231.43374998789156
 21
609.93908616188696
  0
LINE
  8
_0-1_計細線
  6
CONTINUOUS
 62
    3
 10
231.43374998789156
 20
609.93908616188696
 11
231.43374998789156
 21
753.93908616188742
  0
LINE
  8
_0-1_計細線
  6
CONTINUOUS
 62
    3
 10
251.43374998789156
 20
753.93908616188742
 11
248.43374998789159
 21
753.93908616188742
  0
LINE
  8
_0-1_計細線
  6
CONTINUOUS
 62
    3
 10
248.43374998789159
 20
753.93908616188742
 11
248.43374998789159
 21
609.93908616188696
  0
LINE
  8
_0-1_計細線
  6
CONTINUOUS
 62
    3
 10
248.43374998789159
 20
609.93908616188696
 11
251.43374998789156
 21
609.93908616188696
  0
LINE
  8
_0-1_計細線
  6
CONTINUOUS
 62
    3
 10
251.43374998789156
 20
609.93908616188696
 11
251.43374998789156
 21
753.93908616188742
  0
LINE
  8
_0-1_計細線
  6
CONTINUOUS
 62
    3
 10
261.43374998789159
 20
753.93908616188742
 11
258.43374998789159
 21
753.93908616188742
  0
LINE
  8
_0-1_計細線
  6
CONTINUOUS
 62
    3
 10
258.43374998789159
 20
753.93908616188742
 11
258.43374998789159
 21
609.93908616188696
  0
LINE
  8
_0-1_計細線
  6
CONTINUOUS
 62
    3
 10
258.43374998789159
 20
609.93908616188696
 11
261.43374998789159
 21
609.93908616188696
  0
LINE
  8
_0-1_計細線
  6
CONTINUOUS
 62
    3
 10
261.43374998789159
 20
609.93908616188696
 11
261.43374998789159
 21
753.93908616188742
  0
LINE
  8
_0-1_計細線
  6
CONTINUOUS
 62
    3
 10
271.43374998789159
 20
753.93908616188742
 11
268.43374998789159
 21
753.93908616188742
  0
LINE
  8
_0-1_計細線
  6
CONTINUOUS
 62
    3
 10
268.43374998789159
 20
753.93908616188742
 11
268.43374998789159
 21
609.93908616188696
  0
LINE
  8
_0-1_計細線
  6
CONTINUOUS
 62
    3
 10
268.43374998789159
 20
609.93908616188696
 11
271.43374998789159
 21
609.93908616188696
  0
LINE
  8
_0-1_計細線
  6
CONTINUOUS
 62
    3
 10
271.43374998789159
 20
609.93908616188696
 11
271.43374998789159
 21
753.93908616188742
  0
LINE
  8
_0-1_計細線
  6
CONTINUOUS
 62
    3
 10
281.43374998789159
 20
753.93908616188742
 11
278.43374998789159
 21
753.93908616188742
  0
LINE
  8
_0-1_計細線
  6
CONTINUOUS
 62
    3
 10
278.43374998789159
 20
753.93908616188742
 11
278.43374998789159
 21
609.93908616188696
  0
LINE
  8
_0-1_計細線
  6
CONTINUOUS
 62
    3
 10
278.43374998789159
 20
609.93908616188696
 11
281.43374998789159
 21
609.93908616188696
  0
LINE
  8
_0-1_計細線
  6
CONTINUOUS
 62
    3
 10
281.43374998789159
 20
609.93908616188696
 11
281.43374998789159
 21
753.93908616188742
  0
LINE
  8
_0-1_計細線
  6
CONTINUOUS
 62
    3
 10
291.43374998789159
 20
753.93908616188742
 11
288.43374998789159
 21
753.93908616188742
  0
LINE
  8
_0-1_計細線
  6
CONTINUOUS
 62
    3
 10
288.43374998789159
 20
753.93908616188742
 11
288.43374998789159
 21
609.93908616188696
  0
LINE
  8
_0-1_計細線
  6
CONTINUOUS
 62
    3
 10
288.43374998789159
 20
609.93908616188696
 11
291.43374998789159
 21
609.93908616188696
  0
LINE
  8
_0-1_計細線
  6
CONTINUOUS
 62
    3
 10
291.43374998789159
 20
609.93908616188696
 11
291.43374998789159
 21
753.93908616188742
  0
LINE
  8
_0-1_計細線
  6
CONTINUOUS
 62
    3
 10
301.43374998789159
 20
753.93908616188742
 11
298.43374998789159
 21
753.93908616188742
  0
LINE
  8
_0-1_計細線
  6
CONTINUOUS
 62
    3
 10
298.43374998789159
 20
753.93908616188742
 11
298.43374998789159
 21
609.93908616188696
  0
LINE
  8
_0-1_計細線
  6
CONTINUOUS
 62
    3
 10
298.43374998789159
 20
609.93908616188696
 11
301.43374998789159
 21
609.93908616188696
  0
LINE
  8
_0-1_計細線
  6
CONTINUOUS
 62
    3
 10
301.43374998789159
 20
609.93908616188696
 11
301.43374998789159
 21
753.93908616188742
  0
LINE
  8
_0-1_計細線
  6
CONTINUOUS
 62
    3
 10
311.43374998789159
 20
753.93908616188742
 11
308.43374998789159
 21
753.93908616188742
  0
LINE
  8
_0-1_計細線
  6
CONTINUOUS
 62
    3
 10
308.43374998789159
 20
753.93908616188742
 11
308.43374998789159
 21
609.93908616188696
  0
LINE
  8
_0-1_計細線
  6
CONTINUOUS
 62
    3
 10
308.43374998789159
 20
609.93908616188696
 11
311.43374998789159
 21
609.93908616188696
  0
LINE
  8
_0-1_計細線
  6
CONTINUOUS
 62
    3
 10
311.43374998789159
 20
609.93908616188696
 11
311.43374998789159
 21
753.93908616188742
  0
LINE
  8
_0-1_計細線
  6
CONTINUOUS
 62
    3
 10
321.43374998789164
 20
753.93908616188742
 11
318.43374998789159
 21
753.93908616188742
  0
LINE
  8
_0-1_計細線
  6
CONTINUOUS
 62
    3
 10
318.43374998789159
 20
753.93908616188742
 11
318.43374998789159
 21
609.93908616188696
  0
LINE
  8
_0-1_計細線
  6
CONTINUOUS
 62
    3
 10
318.43374998789159
 20
609.93908616188696
 11
321.43374998789164
 21
609.93908616188696
  0
LINE
  8
_0-1_計細線
  6
CONTINUOUS
 62
    3
 10
321.43374998789164
 20
609.93908616188696
 11
321.43374998789164
 21
753.93908616188742
  0
LINE
  8
_0-1_計細線
  6
CONTINUOUS
 62
    3
 10
331.43374998789164
 20
753.93908616188742
 11
328.43374998789159
 21
753.93908616188742
  0
LINE
  8
_0-1_計細線
  6
CONTINUOUS
 62
    3
 10
328.43374998789159
 20
753.93908616188742
 11
328.43374998789159
 21
609.93908616188696
  0
LINE
  8
_0-1_計細線
  6
CONTINUOUS
 62
    3
 10
328.43374998789159
 20
609.93908616188696
 11
331.43374998789164
 21
609.93908616188696
  0
LINE
  8
_0-1_計細線
  6
CONTINUOUS
 62
    3
 10
331.43374998789164
 20
609.93908616188696
 11
331.43374998789164
 21
753.93908616188742
  0
LINE
  8
_0-1_計細線
  6
CONTINUOUS
 62
    3
 10
341.43374998789164
 20
753.93908616188742
 11
338.43374998789159
 21
753.93908616188742
  0
LINE
  8
_0-1_計細線
  6
CONTINUOUS
 62
    3
 10
338.43374998789159
 20
753.93908616188742
 11
338.43374998789159
 21
609.93908616188696
  0
LINE
  8
_0-1_計細線
  6
CONTINUOUS
 62
    3
 10
338.43374998789159
 20
609.93908616188696
 11
341.43374998789164
 21
609.93908616188696
  0
LINE
  8
_0-1_計細線
  6
CONTINUOUS
 62
    3
 10
341.43374998789164
 20
609.93908616188696
 11
341.43374998789164
 21
753.93908616188742
  0
LINE
  8
_0-1_計細線
  6
CONTINUOUS
 62
    3
 10
351.43374998789164
 20
753.93908616188742
 11
348.43374998789159
 21
753.93908616188742
  0
LINE
  8
_0-1_計細線
  6
CONTINUOUS
 62
    3
 10
348.43374998789159
 20
753.93908616188742
 11
348.43374998789159
 21
609.93908616188696
  0
LINE
  8
_0-1_計細線
  6
CONTINUOUS
 62
    3
 10
348.43374998789159
 20
609.93908616188696
 11
351.43374998789164
 21
609.93908616188696
  0
LINE
  8
_0-1_計細線
  6
CONTINUOUS
 62
    3
 10
351.43374998789164
 20
609.93908616188696
 11
351.43374998789164
 21
753.93908616188742
  0
LINE
  8
_0-1_計細線
  6
CONTINUOUS
 62
    3
 10
361.43374998789164
 20
753.93908616188742
 11
358.43374998789159
 21
753.93908616188742
  0
LINE
  8
_0-1_計細線
  6
CONTINUOUS
 62
    3
 10
358.43374998789159
 20
753.93908616188742
 11
358.43374998789159
 21
609.93908616188696
  0
LINE
  8
_0-1_計細線
  6
CONTINUOUS
 62
    3
 10
358.43374998789159
 20
609.93908616188696
 11
361.43374998789164
 21
609.93908616188696
  0
LINE
  8
_0-1_計細線
  6
CONTINUOUS
 62
    3
 10
361.43374998789164
 20
609.93908616188696
 11
361.43374998789164
 21
753.93908616188742
  0
LINE
  8
_0-1_計細線
  6
CONTINUOUS
 62
    3
 10
371.43374998789164
 20
753.93908616188742
 11
368.43374998789159
 21
753.93908616188742
  0
LINE
  8
_0-1_計細線
  6
CONTINUOUS
 62
    3
 10
368.43374998789159
 20
753.93908616188742
 11
368.43374998789159
 21
609.93908616188696
  0
LINE
  8
_0-1_計細線
  6
CONTINUOUS
 62
    3
 10
368.43374998789159
 20
609.93908616188696
 11
371.43374998789164
 21
609.93908616188696
  0
LINE
  8
_0-1_計細線
  6
CONTINUOUS
 62
    3
 10
371.43374998789164
 20
609.93908616188696
 11
371.43374998789164
 21
753.93908616188742
  0
LINE
  8
_0-1_計細線
  6
CONTINUOUS
 62
    3
 10
381.43374998789164
 20
753.93908616188742
 11
378.43374998789159
 21
753.93908616188742
  0
LINE
  8
_0-1_計細線
  6
CONTINUOUS
 62
    3
 10
378.43374998789159
 20
753.93908616188742
 11
378.43374998789159
 21
609.93908616188696
  0
LINE
  8
_0-1_計細線
  6
CONTINUOUS
 62
    3
 10
378.43374998789159
 20
609.93908616188696
 11
381.43374998789164
 21
609.93908616188696
  0
LINE
  8
_0-1_計細線
  6
CONTINUOUS
 62
    3
 10
381.43374998789164
 20
609.93908616188696
 11
381.43374998789164
 21
753.93908616188742
  0
LINE
  8
_0-1_計細線
  6
CONTINUOUS
 62
    3
 10
391.43374998789164
 20
753.93908616188742
 11
388.43374998789159
 21
753.93908616188742
  0
LINE
  8
_0-1_計細線
  6
CONTINUOUS
 62
    3
 10
388.43374998789159
 20
753.93908616188742
 11
388.43374998789159
 21
609.93908616188696
  0
LINE
  8
_0-1_計細線
  6
CONTINUOUS
 62
    3
 10
388.43374998789159
 20
609.93908616188696
 11
391.43374998789164
 21
609.93908616188696
  0
LINE
  8
_0-1_計細線
  6
CONTINUOUS
 62
    3
 10
391.43374998789164
 20
609.93908616188696
 11
391.43374998789164
 21
753.93908616188742
  0
LINE
  8
_0-1_計細線
  6
CONTINUOUS
 62
    3
 10
401.43374998789164
 20
753.93908616188742
 11
398.43374998789159
 21
753.93908616188742
  0
LINE
  8
_0-1_計細線
  6
CONTINUOUS
 62
    3
 10
398.43374998789159
 20
753.93908616188742
 11
398.43374998789159
 21
609.93908616188696
  0
LINE
  8
_0-1_計細線
  6
CONTINUOUS
 62
    3
 10
398.43374998789159
 20
609.93908616188696
 11
401.43374998789164
 21
609.93908616188696
  0
LINE
  8
_0-1_計細線
  6
CONTINUOUS
 62
    3
 10
401.43374998789164
 20
609.93908616188696
 11
401.43374998789164
 21
753.93908616188742
  0
LINE
  8
_0-1_計細線
  6
CONTINUOUS
 62
    3
 10
411.43374998789164
 20
753.93908616188742
 11
408.43374998789159
 21
753.93908616188742
  0
LINE
  8
_0-1_計細線
  6
CONTINUOUS
 62
    3
 10
408.43374998789159
 20
753.93908616188742
 11
408.43374998789159
 21
609.93908616188696
  0
LINE
  8
_0-1_計細線
  6
CONTINUOUS
 62
    3
 10
408.43374998789159
 20
609.93908616188696
 11
411.43374998789164
 21
609.93908616188696
  0
LINE
  8
_0-1_計細線
  6
CONTINUOUS
 62
    3
 10
411.43374998789164
 20
609.93908616188696
 11
411.43374998789164
 21
753.93908616188742
  0
LINE
  8
_0-1_計細線
  6
CONTINUOUS
 62
    3
 10
421.43374998789164
 20
753.93908616188742
 11
418.43374998789159
 21
753.93908616188742
  0
LINE
  8
_0-1_計細線
  6
CONTINUOUS
 62
    3
 10
418.43374998789159
 20
753.93908616188742
 11
418.43374998789159
 21
609.93908616188696
  0
LINE
  8
_0-1_計細線
  6
CONTINUOUS
 62
    3
 10
418.43374998789159
 20
609.93908616188696
 11
421.43374998789164
 21
609.93908616188696
  0
LINE
  8
_0-1_計細線
  6
CONTINUOUS
 62
    3
 10
421.43374998789164
 20
609.93908616188696
 11
421.43374998789164
 21
753.93908616188742
  0
LINE
  8
_0-1_計細線
  6
CONTINUOUS
 62
    3
 10
431.43374998789164
 20
753.93908616188742
 11
428.43374998789159
 21
753.93908616188742
  0
LINE
  8
_0-1_計細線
  6
CONTINUOUS
 62
    3
 10
428.43374998789159
 20
753.93908616188742
 11
428.43374998789159
 21
609.93908616188696
  0
LINE
  8
_0-1_計細線
  6
CONTINUOUS
 62
    3
 10
428.43374998789159
 20
609.93908616188696
 11
431.43374998789164
 21
609.93908616188696
  0
LINE
  8
_0-1_計細線
  6
CONTINUOUS
 62
    3
 10
431.43374998789164
 20
609.93908616188696
 11
431.43374998789164
 21
753.93908616188742
  0
LINE
  8
_0-1_計細線
  6
CONTINUOUS
 62
    3
 10
441.43374998789164
 20
753.93908616188742
 11
438.43374998789159
 21
753.93908616188742
  0
LINE
  8
_0-1_計細線
  6
CONTINUOUS
 62
    3
 10
438.43374998789159
 20
753.93908616188742
 11
438.43374998789159
 21
609.93908616188696
  0
LINE
  8
_0-1_計細線
  6
CONTINUOUS
 62
    3
 10
438.43374998789159
 20
609.93908616188696
 11
441.43374998789164
 21
609.93908616188696
  0
LINE
  8
_0-1_計細線
  6
CONTINUOUS
 62
    3
 10
441.43374998789164
 20
609.93908616188696
 11
441.43374998789164
 21
753.93908616188742
  0
LINE
  8
_0-1_計細線
  6
CONTINUOUS
 62
    3
 10
451.43374998789164
 20
753.93908616188742
 11
448.43374998789159
 21
753.93908616188742
  0
LINE
  8
_0-1_計細線
  6
CONTINUOUS
 62
    3
 10
448.43374998789159
 20
753.93908616188742
 11
448.43374998789159
 21
609.93908616188696
  0
LINE
  8
_0-1_計細線
  6
CONTINUOUS
 62
    3
 10
448.43374998789159
 20
609.93908616188696
 11
451.43374998789164
 21
609.93908616188696
  0
LINE
  8
_0-1_計細線
  6
CONTINUOUS
 62
    3
 10
451.43374998789164
 20
609.93908616188696
 11
451.43374998789164
 21
753.93908616188742
  0
LINE
  8
_0-1_計細線
  6
CONTINUOUS
 62
    3
 10
461.43374998789164
 20
753.93908616188742
 11
458.43374998789159
 21
753.93908616188742
  0
LINE
  8
_0-1_計細線
  6
CONTINUOUS
 62
    3
 10
458.43374998789159
 20
753.93908616188742
 11
458.43374998789159
 21
609.93908616188696
  0
LINE
  8
_0-1_計細線
  6
CONTINUOUS
 62
    3
 10
458.43374998789159
 20
609.93908616188696
 11
461.43374998789164
 21
609.93908616188696
  0
LINE
  8
_0-1_計細線
  6
CONTINUOUS
 62
    3
 10
461.43374998789164
 20
609.93908616188696
 11
461.43374998789164
 21
753.93908616188742
  0
LINE
  8
_0-1_計細線
  6
CONTINUOUS
 62
    3
 10
471.43374998789164
 20
753.93908616188742
 11
468.43374998789159
 21
753.93908616188742
  0
LINE
  8
_0-1_計細線
  6
CONTINUOUS
 62
    3
 10
468.43374998789159
 20
753.93908616188742
 11
468.43374998789159
 21
609.93908616188696
  0
LINE
  8
_0-1_計細線
  6
CONTINUOUS
 62
    3
 10
468.43374998789159
 20
609.93908616188696
 11
471.43374998789164
 21
609.93908616188696
  0
LINE
  8
_0-1_計細線
  6
CONTINUOUS
 62
    3
 10
471.43374998789164
 20
609.93908616188696
 11
471.43374998789164
 21
753.93908616188742
  0
LINE
  8
_0-1_計細線
  6
CONTINUOUS
 62
    3
 10
481.43374998789164
 20
753.93908616188742
 11
478.43374998789159
 21
753.93908616188742
  0
LINE
  8
_0-1_計細線
  6
CONTINUOUS
 62
    3
 10
478.43374998789159
 20
753.93908616188742
 11
478.43374998789159
 21
609.93908616188696
  0
LINE
  8
_0-1_計細線
  6
CONTINUOUS
 62
    3
 10
478.43374998789159
 20
609.93908616188696
 11
481.43374998789164
 21
609.93908616188696
  0
LINE
  8
_0-1_計細線
  6
CONTINUOUS
 62
    3
 10
481.43374998789164
 20
609.93908616188696
 11
481.43374998789164
 21
753.93908616188742
  0
LINE
  8
_0-1_計細線
  6
CONTINUOUS
 62
    3
 10
491.43374998789164
 20
753.93908616188742
 11
488.43374998789159
 21
753.93908616188742
  0
LINE
  8
_0-1_計細線
  6
CONTINUOUS
 62
    3
 10
488.43374998789159
 20
753.93908616188742
 11
488.43374998789159
 21
609.93908616188696
  0
LINE
  8
_0-1_計細線
  6
CONTINUOUS
 62
    3
 10
488.43374998789159
 20
609.93908616188696
 11
491.43374998789164
 21
609.93908616188696
  0
LINE
  8
_0-1_計細線
  6
CONTINUOUS
 62
    3
 10
491.43374998789164
 20
609.93908616188696
 11
491.43374998789164
 21
753.93908616188742
  0
LINE
  8
_0-1_計細線
  6
CONTINUOUS
 62
    3
 10
501.43374998789164
 20
753.93908616188742
 11
498.43374998789159
 21
753.93908616188742
  0
LINE
  8
_0-1_計細線
  6
CONTINUOUS
 62
    3
 10
498.43374998789159
 20
753.93908616188742
 11
498.43374998789159
 21
609.93908616188696
  0
LINE
  8
_0-1_計細線
  6
CONTINUOUS
 62
    3
 10
498.43374998789159
 20
609.93908616188696
 11
501.43374998789164
 21
609.93908616188696
  0
LINE
  8
_0-1_計細線
  6
CONTINUOUS
 62
    3
 10
501.43374998789164
 20
609.93908616188696
 11
501.43374998789164
 21
753.93908616188742
  0
LINE
  8
_0-1_計細線
  6
CONTINUOUS
 62
    3
 10
511.43374998789164
 20
753.93908616188742
 11
508.43374998789159
 21
753.93908616188742
  0
LINE
  8
_0-1_計細線
  6
CONTINUOUS
 62
    3
 10
508.43374998789159
 20
753.93908616188742
 11
508.43374998789159
 21
609.93908616188696
  0
LINE
  8
_0-1_計細線
  6
CONTINUOUS
 62
    3
 10
508.43374998789159
 20
609.93908616188696
 11
511.43374998789164
 21
609.93908616188696
  0
LINE
  8
_0-1_計細線
  6
CONTINUOUS
 62
    3
 10
511.43374998789164
 20
609.93908616188696
 11
511.43374998789164
 21
753.93908616188742
  0
LINE
  8
_0-1_計細線
  6
CONTINUOUS
 62
    3
 10
521.43374998789159
 20
753.93908616188742
 11
518.43374998789159
 21
753.93908616188742
  0
LINE
  8
_0-1_計細線
  6
CONTINUOUS
 62
    3
 10
518.43374998789159
 20
753.93908616188742
 11
518.43374998789159
 21
609.93908616188696
  0
LINE
  8
_0-1_計細線
  6
CONTINUOUS
 62
    3
 10
518.43374998789159
 20
609.93908616188696
 11
521.43374998789159
 21
609.93908616188696
  0
LINE
  8
_0-1_計細線
  6
CONTINUOUS
 62
    3
 10
521.43374998789159
 20
609.93908616188696
 11
521.43374998789159
 21
753.93908616188742
  0
LINE
  8
_0-1_計細線
  6
CONTINUOUS
 62
    3
 10
531.43374998789159
 20
753.93908616188742
 11
528.43374998789159
 21
753.93908616188742
  0
LINE
  8
_0-1_計細線
  6
CONTINUOUS
 62
    3
 10
528.43374998789159
 20
753.93908616188742
 11
528.43374998789159
 21
609.93908616188696
  0
LINE
  8
_0-1_計細線
  6
CONTINUOUS
 62
    3
 10
528.43374998789159
 20
609.93908616188696
 11
531.43374998789159
 21
609.93908616188696
  0
LINE
  8
_0-1_計細線
  6
CONTINUOUS
 62
    3
 10
531.43374998789159
 20
609.93908616188696
 11
531.43374998789159
 21
753.93908616188742
  0
LINE
  8
_0-1_計細線
  6
CONTINUOUS
 62
    3
 10
541.43374998789159
 20
753.93908616188742
 11
538.43374998789159
 21
753.93908616188742
  0
LINE
  8
_0-1_計細線
  6
CONTINUOUS
 62
    3
 10
538.43374998789159
 20
753.93908616188742
 11
538.43374998789159
 21
609.93908616188696
  0
LINE
  8
_0-1_計細線
  6
CONTINUOUS
 62
    3
 10
538.43374998789159
 20
609.93908616188696
 11
541.43374998789159
 21
609.93908616188696
  0
LINE
  8
_0-1_計細線
  6
CONTINUOUS
 62
    3
 10
541.43374998789159
 20
609.93908616188696
 11
541.43374998789159
 21
753.93908616188742
  0
LINE
  8
_0-1_計細線
  6
CONTINUOUS
 62
    3
 10
551.43374998789159
 20
753.93908616188742
 11
548.43374998789159
 21
753.93908616188742
  0
LINE
  8
_0-1_計細線
  6
CONTINUOUS
 62
    3
 10
548.43374998789159
 20
753.93908616188742
 11
548.43374998789159
 21
609.93908616188696
  0
LINE
  8
_0-1_計細線
  6
CONTINUOUS
 62
    3
 10
548.43374998789159
 20
609.93908616188696
 11
551.43374998789159
 21
609.93908616188696
  0
LINE
  8
_0-1_計細線
  6
CONTINUOUS
 62
    3
 10
551.43374998789159
 20
609.93908616188696
 11
551.43374998789159
 21
753.93908616188742
  0
LINE
  8
_0-1_計細線
  6
CONTINUOUS
 62
    3
 10
561.43374998789159
 20
753.93908616188742
 11
558.43374998789159
 21
753.93908616188742
  0
LINE
  8
_0-1_計細線
  6
CONTINUOUS
 62
    3
 10
558.43374998789159
 20
753.93908616188742
 11
558.43374998789159
 21
609.93908616188696
  0
LINE
  8
_0-1_計細線
  6
CONTINUOUS
 62
    3
 10
558.43374998789159
 20
609.93908616188696
 11
561.43374998789159
 21
609.93908616188696
  0
LINE
  8
_0-1_計細線
  6
CONTINUOUS
 62
    3
 10
561.43374998789159
 20
609.93908616188696
 11
561.43374998789159
 21
753.93908616188742
  0
LINE
  8
_0-1_計細線
  6
CONTINUOUS
 62
    3
 10
571.43374998789159
 20
753.93908616188742
 11
568.43374998789159
 21
753.93908616188742
  0
LINE
  8
_0-1_計細線
  6
CONTINUOUS
 62
    3
 10
568.43374998789159
 20
753.93908616188742
 11
568.43374998789159
 21
609.93908616188696
  0
LINE
  8
_0-1_計細線
  6
CONTINUOUS
 62
    3
 10
568.43374998789159
 20
609.93908616188696
 11
571.43374998789159
 21
609.93908616188696
  0
LINE
  8
_0-1_計細線
  6
CONTINUOUS
 62
    3
 10
571.43374998789159
 20
609.93908616188696
 11
571.43374998789159
 21
753.93908616188742
  0
LINE
  8
_0-1_計細線
  6
CONTINUOUS
 62
    3
 10
581.43374998789159
 20
753.93908616188742
 11
578.43374998789159
 21
753.93908616188742
  0
LINE
  8
_0-1_計細線
  6
CONTINUOUS
 62
    3
 10
578.43374998789159
 20
753.93908616188742
 11
578.43374998789159
 21
609.93908616188696
  0
LINE
  8
_0-1_計細線
  6
CONTINUOUS
 62
    3
 10
578.43374998789159
 20
609.93908616188696
 11
581.43374998789159
 21
609.93908616188696
  0
LINE
  8
_0-1_計細線
  6
CONTINUOUS
 62
    3
 10
581.43374998789159
 20
609.93908616188696
 11
581.43374998789159
 21
753.93908616188742
  0
LINE
  8
_0-1_計細線
  6
CONTINUOUS
 62
    3
 10
591.43374998789159
 20
753.93908616188742
 11
588.43374998789159
 21
753.93908616188742
  0
LINE
  8
_0-1_計細線
  6
CONTINUOUS
 62
    3
 10
588.43374998789159
 20
753.93908616188742
 11
588.43374998789159
 21
609.93908616188696
  0
LINE
  8
_0-1_計細線
  6
CONTINUOUS
 62
    3
 10
588.43374998789159
 20
609.93908616188696
 11
591.43374998789159
 21
609.93908616188696
  0
LINE
  8
_0-1_計細線
  6
CONTINUOUS
 62
    3
 10
591.43374998789159
 20
609.93908616188696
 11
591.43374998789159
 21
753.93908616188742
  0
LINE
  8
_0-1_計細線
  6
CONTINUOUS
 62
    3
 10
601.43374998789159
 20
753.93908616188742
 11
598.43374998789159
 21
753.93908616188742
  0
LINE
  8
_0-1_計細線
  6
CONTINUOUS
 62
    3
 10
598.43374998789159
 20
753.93908616188742
 11
598.43374998789159
 21
609.93908616188696
  0
LINE
  8
_0-1_計細線
  6
CONTINUOUS
 62
    3
 10
598.43374998789159
 20
609.93908616188696
 11
601.43374998789159
 21
609.93908616188696
  0
LINE
  8
_0-1_計細線
  6
CONTINUOUS
 62
    3
 10
601.43374998789159
 20
609.93908616188696
 11
601.43374998789159
 21
753.93908616188742
  0
LINE
  8
_0-1_計細線
  6
CONTINUOUS
 62
    3
 10
611.43374998789159
 20
753.93908616188742
 11
608.43374998789159
 21
753.93908616188742
  0
LINE
  8
_0-1_計細線
  6
CONTINUOUS
 62
    3
 10
608.43374998789159
 20
753.93908616188742
 11
608.43374998789159
 21
609.93908616188696
  0
LINE
  8
_0-1_計細線
  6
CONTINUOUS
 62
    3
 10
608.43374998789159
 20
609.93908616188696
 11
611.43374998789159
 21
609.93908616188696
  0
LINE
  8
_0-1_計細線
  6
CONTINUOUS
 62
    3
 10
611.43374998789159
 20
609.93908616188696
 11
611.43374998789159
 21
753.93908616188742
  0
LINE
  8
_0-1_計細線
  6
CONTINUOUS
 62
    3
 10
621.43374998789159
 20
753.93908616188742
 11
618.43374998789159
 21
753.93908616188742
  0
LINE
  8
_0-1_計細線
  6
CONTINUOUS
 62
    3
 10
618.43374998789159
 20
753.93908616188742
 11
618.43374998789159
 21
609.93908616188696
  0
LINE
  8
_0-1_計細線
  6
CONTINUOUS
 62
    3
 10
618.43374998789159
 20
609.93908616188696
 11
621.43374998789159
 21
609.93908616188696
  0
LINE
  8
_0-1_計細線
  6
CONTINUOUS
 62
    3
 10
621.43374998789159
 20
609.93908616188696
 11
621.43374998789159
 21
753.93908616188742
  0
LINE
  8
_0-1_計細線
  6
CONTINUOUS
 62
    3
 10
631.43374998789159
 20
753.93908616188742
 11
628.43374998789159
 21
753.93908616188742
  0
LINE
  8
_0-1_計細線
  6
CONTINUOUS
 62
    3
 10
628.43374998789159
 20
753.93908616188742
 11
628.43374998789159
 21
609.93908616188696
  0
LINE
  8
_0-1_計細線
  6
CONTINUOUS
 62
    3
 10
628.43374998789159
 20
609.93908616188696
 11
631.43374998789159
 21
609.93908616188696
  0
LINE
  8
_0-1_計細線
  6
CONTINUOUS
 62
    3
 10
631.43374998789159
 20
609.93908616188696
 11
631.43374998789159
 21
753.93908616188742
  0
LINE
  8
_0-1_計細線
  6
CONTINUOUS
 62
    3
 10
641.43374998789159
 20
753.93908616188742
 11
638.43374998789159
 21
753.93908616188742
  0
LINE
  8
_0-1_計細線
  6
CONTINUOUS
 62
    3
 10
638.43374998789159
 20
753.93908616188742
 11
638.43374998789159
 21
609.93908616188696
  0
LINE
  8
_0-1_計細線
  6
CONTINUOUS
 62
    3
 10
638.43374998789159
 20
609.93908616188696
 11
641.43374998789159
 21
609.93908616188696
  0
LINE
  8
_0-1_計細線
  6
CONTINUOUS
 62
    3
 10
641.43374998789159
 20
609.93908616188696
 11
641.43374998789159
 21
753.93908616188742
  0
LINE
  8
_0-1_計細線
  6
CONTINUOUS
 62
    3
 10
651.43374998789159
 20
753.93908616188742
 11
648.43374998789159
 21
753.93908616188742
  0
LINE
  8
_0-1_計細線
  6
CONTINUOUS
 62
    3
 10
648.43374998789159
 20
753.93908616188742
 11
648.43374998789159
 21
609.93908616188696
  0
LINE
  8
_0-1_計細線
  6
CONTINUOUS
 62
    3
 10
648.43374998789159
 20
609.93908616188696
 11
651.43374998789159
 21
609.93908616188696
  0
LINE
  8
_0-1_計細線
  6
CONTINUOUS
 62
    3
 10
651.43374998789159
 20
609.93908616188696
 11
651.43374998789159
 21
753.93908616188742
  0
LINE
  8
_0-1_計細線
  6
CONTINUOUS
 62
    3
 10
661.43374998789159
 20
753.93908616188742
 11
658.43374998789159
 21
753.93908616188742
  0
LINE
  8
_0-1_計細線
  6
CONTINUOUS
 62
    3
 10
658.43374998789159
 20
753.93908616188742
 11
658.43374998789159
 21
609.93908616188696
  0
LINE
  8
_0-1_計細線
  6
CONTINUOUS
 62
    3
 10
658.43374998789159
 20
609.93908616188696
 11
661.43374998789159
 21
609.93908616188696
  0
LINE
  8
_0-1_計細線
  6
CONTINUOUS
 62
    3
 10
661.43374998789159
 20
609.93908616188696
 11
661.43374998789159
 21
753.93908616188742
  0
LINE
  8
_0-1_計細線
  6
CONTINUOUS
 62
    3
 10
671.43374998789159
 20
753.93908616188742
 11
668.43374998789159
 21
753.93908616188742
  0
LINE
  8
_0-1_計細線
  6
CONTINUOUS
 62
    3
 10
668.43374998789159
 20
753.93908616188742
 11
668.43374998789159
 21
609.93908616188696
  0
LINE
  8
_0-1_計細線
  6
CONTINUOUS
 62
    3
 10
668.43374998789159
 20
609.93908616188696
 11
671.43374998789159
 21
609.93908616188696
  0
LINE
  8
_0-1_計細線
  6
CONTINUOUS
 62
    3
 10
671.43374998789159
 20
609.93908616188696
 11
671.43374998789159
 21
753.93908616188742
  0
LINE
  8
_0-1_計細線
  6
CONTINUOUS
 62
    3
 10
681.43374998789159
 20
753.93908616188742
 11
678.43374998789159
 21
753.93908616188742
  0
LINE
  8
_0-1_計細線
  6
CONTINUOUS
 62
    3
 10
678.43374998789159
 20
753.93908616188742
 11
678.43374998789159
 21
609.93908616188696
  0
LINE
  8
_0-1_計細線
  6
CONTINUOUS
 62
    3
 10
678.43374998789159
 20
609.93908616188696
 11
681.43374998789159
 21
609.93908616188696
  0
LINE
  8
_0-1_計細線
  6
CONTINUOUS
 62
    3
 10
681.43374998789159
 20
609.93908616188696
 11
681.43374998789159
 21
753.93908616188742
  0
LINE
  8
_0-1_計細線
  6
CONTINUOUS
 62
    3
 10
691.43374998789159
 20
753.93908616188742
 11
688.43374998789159
 21
753.93908616188742
  0
LINE
  8
_0-1_計細線
  6
CONTINUOUS
 62
    3
 10
688.43374998789159
 20
753.93908616188742
 11
688.43374998789159
 21
609.93908616188696
  0
LINE
  8
_0-1_計細線
  6
CONTINUOUS
 62
    3
 10
688.43374998789159
 20
609.93908616188696
 11
691.43374998789159
 21
609.93908616188696
  0
LINE
  8
_0-1_計細線
  6
CONTINUOUS
 62
    3
 10
691.43374998789159
 20
609.93908616188696
 11
691.43374998789159
 21
753.93908616188742
  0
LINE
  8
_0-1_計細線
  6
CONTINUOUS
 62
    3
 10
701.43374998789159
 20
753.93908616188742
 11
698.43374998789159
 21
753.93908616188742
  0
LINE
  8
_0-1_計細線
  6
CONTINUOUS
 62
    3
 10
698.43374998789159
 20
753.93908616188742
 11
698.43374998789159
 21
609.93908616188696
  0
LINE
  8
_0-1_計細線
  6
CONTINUOUS
 62
    3
 10
698.43374998789159
 20
609.93908616188696
 11
701.43374998789159
 21
609.93908616188696
  0
LINE
  8
_0-1_計細線
  6
CONTINUOUS
 62
    3
 10
701.43374998789159
 20
609.93908616188696
 11
701.43374998789159
 21
753.93908616188742
  0
LINE
  8
_0-1_計細線
  6
CONTINUOUS
 62
    3
 10
711.43374998789159
 20
753.93908616188742
 11
708.43374998789159
 21
753.93908616188742
  0
LINE
  8
_0-1_計細線
  6
CONTINUOUS
 62
    3
 10
708.43374998789159
 20
753.93908616188742
 11
708.43374998789159
 21
609.93908616188696
  0
LINE
  8
_0-1_計細線
  6
CONTINUOUS
 62
    3
 10
708.43374998789159
 20
609.93908616188696
 11
711.43374998789159
 21
609.93908616188696
  0
LINE
  8
_0-1_計細線
  6
CONTINUOUS
 62
    3
 10
711.43374998789159
 20
609.93908616188696
 11
711.43374998789159
 21
753.93908616188742
  0
LINE
  8
_0-1_計細線
  6
CONTINUOUS
 62
    3
 10
721.43374998789159
 20
753.93908616188742
 11
718.43374998789159
 21
753.93908616188742
  0
LINE
  8
_0-1_計細線
  6
CONTINUOUS
 62
    3
 10
718.43374998789159
 20
753.93908616188742
 11
718.43374998789159
 21
609.93908616188696
  0
LINE
  8
_0-1_計細線
  6
CONTINUOUS
 62
    3
 10
718.43374998789159
 20
609.93908616188696
 11
721.43374998789159
 21
609.93908616188696
  0
LINE
  8
_0-1_計細線
  6
CONTINUOUS
 62
    3
 10
721.43374998789159
 20
609.93908616188696
 11
721.43374998789159
 21
753.93908616188742
  0
LINE
  8
_0-1_計細線
  6
CONTINUOUS
 62
    3
 10
731.43374998789159
 20
753.93908616188742
 11
728.43374998789159
 21
753.93908616188742
  0
LINE
  8
_0-1_計細線
  6
CONTINUOUS
 62
    3
 10
728.43374998789159
 20
753.93908616188742
 11
728.43374998789159
 21
609.93908616188696
  0
LINE
  8
_0-1_計細線
  6
CONTINUOUS
 62
    3
 10
728.43374998789159
 20
609.93908616188696
 11
731.43374998789159
 21
609.93908616188696
  0
LINE
  8
_0-1_計細線
  6
CONTINUOUS
 62
    3
 10
731.43374998789159
 20
609.93908616188696
 11
731.43374998789159
 21
753.93908616188742
  0
LINE
  8
_0-1_計細線
  6
CONTINUOUS
 62
    3
 10
741.43374998789159
 20
753.93908616188742
 11
738.43374998789159
 21
753.93908616188742
  0
LINE
  8
_0-1_計細線
  6
CONTINUOUS
 62
    3
 10
738.43374998789159
 20
753.93908616188742
 11
738.43374998789159
 21
609.93908616188696
  0
LINE
  8
_0-1_計細線
  6
CONTINUOUS
 62
    3
 10
738.43374998789159
 20
609.93908616188696
 11
741.43374998789159
 21
609.93908616188696
  0
LINE
  8
_0-1_計細線
  6
CONTINUOUS
 62
    3
 10
741.43374998789159
 20
609.93908616188696
 11
741.43374998789159
 21
753.93908616188742
  0
LINE
  8
_0-1_計細線
  6
CONTINUOUS
 62
    3
 10
751.43374998789159
 20
753.93908616188742
 11
748.43374998789159
 21
753.93908616188742
  0
LINE
  8
_0-1_計細線
  6
CONTINUOUS
 62
    3
 10
748.43374998789159
 20
753.93908616188742
 11
748.43374998789159
 21
609.93908616188696
  0
LINE
  8
_0-1_計細線
  6
CONTINUOUS
 62
    3
 10
748.43374998789159
 20
609.93908616188696
 11
751.43374998789159
 21
609.93908616188696
  0
LINE
  8
_0-1_計細線
  6
CONTINUOUS
 62
    3
 10
751.43374998789159
 20
609.93908616188696
 11
751.43374998789159
 21
753.93908616188742
  0
LINE
  8
_0-1_計細線
  6
CONTINUOUS
 62
    3
 10
761.43374998789159
 20
753.93908616188742
 11
758.43374998789159
 21
753.93908616188742
  0
LINE
  8
_0-1_計細線
  6
CONTINUOUS
 62
    3
 10
758.43374998789159
 20
753.93908616188742
 11
758.43374998789159
 21
609.93908616188696
  0
LINE
  8
_0-1_計細線
  6
CONTINUOUS
 62
    3
 10
758.43374998789159
 20
609.93908616188696
 11
761.43374998789159
 21
609.93908616188696
  0
LINE
  8
_0-1_計細線
  6
CONTINUOUS
 62
    3
 10
761.43374998789159
 20
609.93908616188696
 11
761.43374998789159
 21
753.93908616188742
  0
LINE
  8
_0-1_計細線
  6
CONTINUOUS
 62
    3
 10
771.4337499878917
 20
753.93908616188742
 11
768.43374998789159
 21
753.93908616188742
  0
LINE
  8
_0-1_計細線
  6
CONTINUOUS
 62
    3
 10
768.43374998789159
 20
753.93908616188742
 11
768.43374998789159
 21
609.93908616188696
  0
LINE
  8
_0-1_計細線
  6
CONTINUOUS
 62
    3
 10
768.43374998789159
 20
609.93908616188696
 11
771.4337499878917
 21
609.93908616188696
  0
LINE
  8
_0-1_計細線
  6
CONTINUOUS
 62
    3
 10
771.4337499878917
 20
609.93908616188696
 11
771.4337499878917
 21
753.93908616188742
  0
LINE
  8
_0-1_計細線
  6
CONTINUOUS
 62
    3
 10
781.4337499878917
 20
753.93908616188742
 11
778.43374998789159
 21
753.93908616188742
  0
LINE
  8
_0-1_計細線
  6
CONTINUOUS
 62
    3
 10
778.43374998789159
 20
753.93908616188742
 11
778.43374998789159
 21
609.93908616188696
  0
LINE
  8
_0-1_計細線
  6
CONTINUOUS
 62
    3
 10
778.43374998789159
 20
609.93908616188696
 11
781.4337499878917
 21
609.93908616188696
  0
LINE
  8
_0-1_計細線
  6
CONTINUOUS
 62
    3
 10
781.4337499878917
 20
609.93908616188696
 11
781.4337499878917
 21
753.93908616188742
  0
LINE
  8
_0-1_計細線
  6
CONTINUOUS
 62
    3
 10
791.4337499878917
 20
753.93908616188742
 11
788.43374998789159
 21
753.93908616188742
  0
LINE
  8
_0-1_計細線
  6
CONTINUOUS
 62
    3
 10
788.43374998789159
 20
753.93908616188742
 11
788.43374998789159
 21
609.93908616188696
  0
LINE
  8
_0-1_計細線
  6
CONTINUOUS
 62
    3
 10
788.43374998789159
 20
609.93908616188696
 11
791.4337499878917
 21
609.93908616188696
  0
LINE
  8
_0-1_計細線
  6
CONTINUOUS
 62
    3
 10
791.4337499878917
 20
609.93908616188696
 11
791.4337499878917
 21
753.93908616188742
  0
LINE
  8
_0-1_計細線
  6
CONTINUOUS
 62
    3
 10
801.4337499878917
 20
753.93908616188742
 11
798.43374998789159
 21
753.93908616188742
  0
LINE
  8
_0-1_計細線
  6
CONTINUOUS
 62
    3
 10
798.43374998789159
 20
753.93908616188742
 11
798.43374998789159
 21
609.93908616188696
  0
LINE
  8
_0-1_計細線
  6
CONTINUOUS
 62
    3
 10
798.43374998789159
 20
609.93908616188696
 11
801.4337499878917
 21
609.93908616188696
  0
LINE
  8
_0-1_計細線
  6
CONTINUOUS
 62
    3
 10
801.4337499878917
 20
609.93908616188696
 11
801.4337499878917
 21
753.93908616188742
  0
LINE
  8
_0-1_計細線
  6
CONTINUOUS
 62
    3
 10
811.4337499878917
 20
753.93908616188742
 11
808.43374998789159
 21
753.93908616188742
  0
LINE
  8
_0-1_計細線
  6
CONTINUOUS
 62
    3
 10
808.43374998789159
 20
753.93908616188742
 11
808.43374998789159
 21
609.93908616188696
  0
LINE
  8
_0-1_計細線
  6
CONTINUOUS
 62
    3
 10
808.43374998789159
 20
609.93908616188696
 11
811.4337499878917
 21
609.93908616188696
  0
LINE
  8
_0-1_計細線
  6
CONTINUOUS
 62
    3
 10
811.4337499878917
 20
609.93908616188696
 11
811.4337499878917
 21
753.93908616188742
  0
LINE
  8
_0-1_計細線
  6
CONTINUOUS
 62
    3
 10
821.4337499878917
 20
753.93908616188742
 11
818.43374998789159
 21
753.93908616188742
  0
LINE
  8
_0-1_計細線
  6
CONTINUOUS
 62
    3
 10
818.43374998789159
 20
753.93908616188742
 11
818.43374998789159
 21
609.93908616188696
  0
LINE
  8
_0-1_計細線
  6
CONTINUOUS
 62
    3
 10
818.43374998789159
 20
609.93908616188696
 11
821.4337499878917
 21
609.93908616188696
  0
LINE
  8
_0-1_計細線
  6
CONTINUOUS
 62
    3
 10
821.4337499878917
 20
609.93908616188696
 11
821.4337499878917
 21
753.93908616188742
  0
LINE
  8
_0-1_計細線
  6
CONTINUOUS
 62
    3
 10
831.4337499878917
 20
753.93908616188742
 11
828.43374998789159
 21
753.93908616188742
  0
LINE
  8
_0-1_計細線
  6
CONTINUOUS
 62
    3
 10
828.43374998789159
 20
753.93908616188742
 11
828.43374998789159
 21
609.93908616188696
  0
LINE
  8
_0-1_計細線
  6
CONTINUOUS
 62
    3
 10
828.43374998789159
 20
609.93908616188696
 11
831.4337499878917
 21
609.93908616188696
  0
LINE
  8
_0-1_計細線
  6
CONTINUOUS
 62
    3
 10
831.4337499878917
 20
609.93908616188696
 11
831.4337499878917
 21
753.93908616188742
  0
LINE
  8
_0-1_計細線
  6
CONTINUOUS
 62
    3
 10
841.4337499878917
 20
753.93908616188742
 11
838.43374998789159
 21
753.93908616188742
  0
LINE
  8
_0-1_計細線
  6
CONTINUOUS
 62
    3
 10
838.43374998789159
 20
753.93908616188742
 11
838.43374998789159
 21
609.93908616188696
  0
LINE
  8
_0-1_計細線
  6
CONTINUOUS
 62
    3
 10
838.43374998789159
 20
609.93908616188696
 11
841.4337499878917
 21
609.93908616188696
  0
LINE
  8
_0-1_計細線
  6
CONTINUOUS
 62
    3
 10
841.4337499878917
 20
609.93908616188696
 11
841.4337499878917
 21
753.93908616188742
  0
LINE
  8
_0-1_計細線
  6
CONTINUOUS
 62
    3
 10
851.4337499878917
 20
753.93908616188742
 11
848.43374998789159
 21
753.93908616188742
  0
LINE
  8
_0-1_計細線
  6
CONTINUOUS
 62
    3
 10
848.43374998789159
 20
753.93908616188742
 11
848.43374998789159
 21
609.93908616188696
  0
LINE
  8
_0-1_計細線
  6
CONTINUOUS
 62
    3
 10
848.43374998789159
 20
609.93908616188696
 11
851.4337499878917
 21
609.93908616188696
  0
LINE
  8
_0-1_計細線
  6
CONTINUOUS
 62
    3
 10
851.4337499878917
 20
609.93908616188696
 11
851.4337499878917
 21
753.93908616188742
  0
LINE
  8
_0-1_計細線
  6
CONTINUOUS
 62
    3
 10
861.4337499878917
 20
753.93908616188742
 11
858.43374998789159
 21
753.93908616188742
  0
LINE
  8
_0-1_計細線
  6
CONTINUOUS
 62
    3
 10
858.43374998789159
 20
753.93908616188742
 11
858.43374998789159
 21
609.93908616188696
  0
LINE
  8
_0-1_計細線
  6
CONTINUOUS
 62
    3
 10
858.43374998789159
 20
609.93908616188696
 11
861.4337499878917
 21
609.93908616188696
  0
LINE
  8
_0-1_計細線
  6
CONTINUOUS
 62
    3
 10
861.4337499878917
 20
609.93908616188696
 11
861.4337499878917
 21
753.93908616188742
  0
LINE
  8
_0-1_計細線
  6
CONTINUOUS
 62
    3
 10
871.4337499878917
 20
753.93908616188742
 11
868.43374998789159
 21
753.93908616188742
  0
LINE
  8
_0-1_計細線
  6
CONTINUOUS
 62
    3
 10
868.43374998789159
 20
753.93908616188742
 11
868.43374998789159
 21
609.93908616188696
  0
LINE
  8
_0-1_計細線
  6
CONTINUOUS
 62
    3
 10
868.43374998789159
 20
609.93908616188696
 11
871.4337499878917
 21
609.93908616188696
  0
LINE
  8
_0-1_計細線
  6
CONTINUOUS
 62
    3
 10
871.4337499878917
 20
609.93908616188696
 11
871.4337499878917
 21
753.93908616188742
  0
LINE
  8
_0-1_計細線
  6
CONTINUOUS
 62
    3
 10
881.4337499878917
 20
753.93908616188742
 11
878.43374998789159
 21
753.93908616188742
  0
LINE
  8
_0-1_計細線
  6
CONTINUOUS
 62
    3
 10
878.43374998789159
 20
753.93908616188742
 11
878.43374998789159
 21
609.93908616188696
  0
LINE
  8
_0-1_計細線
  6
CONTINUOUS
 62
    3
 10
878.43374998789159
 20
609.93908616188696
 11
881.4337499878917
 21
609.93908616188696
  0
LINE
  8
_0-1_計細線
  6
CONTINUOUS
 62
    3
 10
881.4337499878917
 20
609.93908616188696
 11
881.4337499878917
 21
753.93908616188742
  0
LINE
  8
_0-1_計細線
  6
CONTINUOUS
 62
    3
 10
891.4337499878917
 20
753.93908616188742
 11
888.43374998789159
 21
753.93908616188742
  0
LINE
  8
_0-1_計細線
  6
CONTINUOUS
 62
    3
 10
888.43374998789159
 20
753.93908616188742
 11
888.43374998789159
 21
609.93908616188696
  0
LINE
  8
_0-1_計細線
  6
CONTINUOUS
 62
    3
 10
888.43374998789159
 20
609.93908616188696
 11
891.4337499878917
 21
609.93908616188696
  0
LINE
  8
_0-1_計細線
  6
CONTINUOUS
 62
    3
 10
891.4337499878917
 20
609.93908616188696
 11
891.4337499878917
 21
753.93908616188742
  0
LINE
  8
_0-1_計細線
  6
CONTINUOUS
 62
    3
 10
901.4337499878917
 20
753.93908616188742
 11
898.43374998789159
 21
753.93908616188742
  0
LINE
  8
_0-1_計細線
  6
CONTINUOUS
 62
    3
 10
898.43374998789159
 20
753.93908616188742
 11
898.43374998789159
 21
609.93908616188696
  0
LINE
  8
_0-1_計細線
  6
CONTINUOUS
 62
    3
 10
898.43374998789159
 20
609.93908616188696
 11
901.4337499878917
 21
609.93908616188696
  0
LINE
  8
_0-1_計細線
  6
CONTINUOUS
 62
    3
 10
901.4337499878917
 20
609.93908616188696
 11
901.4337499878917
 21
753.93908616188742
  0
LINE
  8
_0-1_計細線
  6
CONTINUOUS
 62
    3
 10
911.4337499878917
 20
753.93908616188742
 11
908.43374998789159
 21
753.93908616188742
  0
LINE
  8
_0-1_計細線
  6
CONTINUOUS
 62
    3
 10
908.43374998789159
 20
753.93908616188742
 11
908.43374998789159
 21
609.93908616188696
  0
LINE
  8
_0-1_計細線
  6
CONTINUOUS
 62
    3
 10
908.43374998789159
 20
609.93908616188696
 11
911.4337499878917
 21
609.93908616188696
  0
LINE
  8
_0-1_計細線
  6
CONTINUOUS
 62
    3
 10
911.4337499878917
 20
609.93908616188696
 11
911.4337499878917
 21
753.93908616188742
  0
LINE
  8
_0-1_計細線
  6
CONTINUOUS
 62
    3
 10
921.4337499878917
 20
753.93908616188742
 11
918.43374998789159
 21
753.93908616188742
  0
LINE
  8
_0-1_計細線
  6
CONTINUOUS
 62
    3
 10
918.43374998789159
 20
753.93908616188742
 11
918.43374998789159
 21
609.93908616188696
  0
LINE
  8
_0-1_計細線
  6
CONTINUOUS
 62
    3
 10
918.43374998789159
 20
609.93908616188696
 11
921.4337499878917
 21
609.93908616188696
  0
LINE
  8
_0-1_計細線
  6
CONTINUOUS
 62
    3
 10
921.4337499878917
 20
609.93908616188696
 11
921.4337499878917
 21
753.93908616188742
  0
LINE
  8
_0-1_計細線
  6
CONTINUOUS
 62
    3
 10
931.4337499878917
 20
753.93908616188742
 11
928.43374998789159
 21
753.93908616188742
  0
LINE
  8
_0-1_計細線
  6
CONTINUOUS
 62
    3
 10
928.43374998789159
 20
753.93908616188742
 11
928.43374998789159
 21
609.93908616188696
  0
LINE
  8
_0-1_計細線
  6
CONTINUOUS
 62
    3
 10
928.43374998789159
 20
609.93908616188696
 11
931.4337499878917
 21
609.93908616188696
  0
LINE
  8
_0-1_計細線
  6
CONTINUOUS
 62
    3
 10
931.4337499878917
 20
609.93908616188696
 11
931.4337499878917
 21
753.93908616188742
  0
LINE
  8
_0-1_計細線
  6
CONTINUOUS
 62
    3
 10
941.4337499878917
 20
753.93908616188742
 11
938.43374998789159
 21
753.93908616188742
  0
LINE
  8
_0-1_計細線
  6
CONTINUOUS
 62
    3
 10
938.43374998789159
 20
753.93908616188742
 11
938.43374998789159
 21
609.93908616188696
  0
LINE
  8
_0-1_計細線
  6
CONTINUOUS
 62
    3
 10
938.43374998789159
 20
609.93908616188696
 11
941.4337499878917
 21
609.93908616188696
  0
LINE
  8
_0-1_計細線
  6
CONTINUOUS
 62
    3
 10
941.4337499878917
 20
609.93908616188696
 11
941.4337499878917
 21
753.93908616188742
  0
LINE
  8
_0-1_計細線
  6
CONTINUOUS
 62
    3
 10
951.4337499878917
 20
753.93908616188742
 11
948.43374998789159
 21
753.93908616188742
  0
LINE
  8
_0-1_計細線
  6
CONTINUOUS
 62
    3
 10
948.43374998789159
 20
753.93908616188742
 11
948.43374998789159
 21
609.93908616188696
  0
LINE
  8
_0-1_計細線
  6
CONTINUOUS
 62
    3
 10
948.43374998789159
 20
609.93908616188696
 11
951.4337499878917
 21
609.93908616188696
  0
LINE
  8
_0-1_計細線
  6
CONTINUOUS
 62
    3
 10
951.4337499878917
 20
609.93908616188696
 11
951.4337499878917
 21
753.93908616188742
  0
LINE
  8
_0-1_計細線
  6
CONTINUOUS
 62
    3
 10
961.4337499878917
 20
753.93908616188742
 11
958.43374998789159
 21
753.93908616188742
  0
LINE
  8
_0-1_計細線
  6
CONTINUOUS
 62
    3
 10
958.43374998789159
 20
753.93908616188742
 11
958.43374998789159
 21
609.93908616188696
  0
LINE
  8
_0-1_計細線
  6
CONTINUOUS
 62
    3
 10
958.43374998789159
 20
609.93908616188696
 11
961.4337499878917
 21
609.93908616188696
  0
LINE
  8
_0-1_計細線
  6
CONTINUOUS
 62
    3
 10
961.4337499878917
 20
609.93908616188696
 11
961.4337499878917
 21
753.93908616188742
  0
LINE
  8
_0-1_計細線
  6
CONTINUOUS
 62
    3
 10
971.4337499878917
 20
753.93908616188742
 11
968.43374998789159
 21
753.93908616188742
  0
LINE
  8
_0-1_計細線
  6
CONTINUOUS
 62
    3
 10
968.43374998789159
 20
753.93908616188742
 11
968.43374998789159
 21
609.93908616188696
  0
LINE
  8
_0-1_計細線
  6
CONTINUOUS
 62
    3
 10
968.43374998789159
 20
609.93908616188696
 11
971.4337499878917
 21
609.93908616188696
  0
LINE
  8
_0-1_計細線
  6
CONTINUOUS
 62
    3
 10
971.4337499878917
 20
609.93908616188696
 11
971.4337499878917
 21
753.93908616188742
  0
LINE
  8
_0-1_計細線
  6
CONTINUOUS
 62
    3
 10
981.4337499878917
 20
753.93908616188742
 11
978.43374998789159
 21
753.93908616188742
  0
LINE
  8
_0-1_計細線
  6
CONTINUOUS
 62
    3
 10
978.43374998789159
 20
753.93908616188742
 11
978.43374998789159
 21
609.93908616188696
  0
LINE
  8
_0-1_計細線
  6
CONTINUOUS
 62
    3
 10
978.43374998789159
 20
609.93908616188696
 11
981.4337499878917
 21
609.93908616188696
  0
LINE
  8
_0-1_計細線
  6
CONTINUOUS
 62
    3
 10
981.4337499878917
 20
609.93908616188696
 11
981.4337499878917
 21
753.93908616188742
  0
LINE
  8
_0-1_計細線
  6
CONTINUOUS
 62
    3
 10
991.4337499878917
 20
753.93908616188742
 11
988.43374998789159
 21
753.93908616188742
  0
LINE
  8
_0-1_計細線
  6
CONTINUOUS
 62
    3
 10
988.43374998789159
 20
753.93908616188742
 11
988.43374998789159
 21
609.93908616188696
  0
LINE
  8
_0-1_計細線
  6
CONTINUOUS
 62
    3
 10
988.43374998789159
 20
609.93908616188696
 11
991.4337499878917
 21
609.93908616188696
  0
LINE
  8
_0-1_計細線
  6
CONTINUOUS
 62
    3
 10
991.4337499878917
 20
609.93908616188696
 11
991.4337499878917
 21
753.93908616188742
  0
LINE
  8
_0-1_計細線
  6
CONTINUOUS
 62
    3
 10
1001.4337499878917
 20
753.93908616188742
 11
998.43374998789159
 21
753.93908616188742
  0
LINE
  8
_0-1_計細線
  6
CONTINUOUS
 62
    3
 10
998.43374998789159
 20
753.93908616188742
 11
998.43374998789159
 21
609.93908616188696
  0
LINE
  8
_0-1_計細線
  6
CONTINUOUS
 62
    3
 10
998.43374998789159
 20
609.93908616188696
 11
1001.4337499878917
 21
609.93908616188696
  0
LINE
  8
_0-1_計細線
  6
CONTINUOUS
 62
    3
 10
1001.4337499878917
 20
609.93908616188696
 11
1001.4337499878917
 21
753.93908616188742
  0
LINE
  8
_0-1_計細線
  6
CONTINUOUS
 62
    3
 10
1011.4337499878917
 20
753.93908616188742
 11
1008.4337499878916
 21
753.93908616188742
  0
LINE
  8
_0-1_計細線
  6
CONTINUOUS
 62
    3
 10
1008.4337499878916
 20
753.93908616188742
 11
1008.4337499878916
 21
609.93908616188696
  0
LINE
  8
_0-1_計細線
  6
CONTINUOUS
 62
    3
 10
1008.4337499878916
 20
609.93908616188696
 11
1011.4337499878917
 21
609.93908616188696
  0
LINE
  8
_0-1_計細線
  6
CONTINUOUS
 62
    3
 10
1011.4337499878917
 20
609.93908616188696
 11
1011.4337499878917
 21
753.93908616188742
  0
LINE
  8
_0-1_計細線
  6
CONTINUOUS
 62
    3
 10
1021.4337499878917
 20
753.93908616188742
 11
1018.4337499878916
 21
753.93908616188742
  0
LINE
  8
_0-1_計細線
  6
CONTINUOUS
 62
    3
 10
1018.4337499878916
 20
753.93908616188742
 11
1018.4337499878916
 21
609.93908616188696
  0
LINE
  8
_0-1_計細線
  6
CONTINUOUS
 62
    3
 10
1018.4337499878916
 20
609.93908616188696
 11
1021.4337499878917
 21
609.93908616188696
  0
LINE
  8
_0-1_計細線
  6
CONTINUOUS
 62
    3
 10
1021.4337499878917
 20
609.93908616188696
 11
1021.4337499878917
 21
753.93908616188742
  0
LINE
  8
_0-1_計細線
  6
CONTINUOUS
 62
    3
 10
1031.4337499878916
 20
753.93908616188742
 11
1028.4337499878916
 21
753.93908616188742
  0
LINE
  8
_0-1_計細線
  6
CONTINUOUS
 62
    3
 10
1028.4337499878916
 20
753.93908616188742
 11
1028.4337499878916
 21
609.93908616188696
  0
LINE
  8
_0-1_計細線
  6
CONTINUOUS
 62
    3
 10
1028.4337499878916
 20
609.93908616188696
 11
1031.4337499878916
 21
609.93908616188696
  0
LINE
  8
_0-1_計細線
  6
CONTINUOUS
 62
    3
 10
1031.4337499878916
 20
609.93908616188696
 11
1031.4337499878916
 21
753.93908616188742
  0
LINE
  8
_0-1_計細線
  6
CONTINUOUS
 62
    3
 10
1041.4337499878916
 20
753.93908616188742
 11
1038.4337499878916
 21
753.93908616188742
  0
LINE
  8
_0-1_計細線
  6
CONTINUOUS
 62
    3
 10
1038.4337499878916
 20
753.93908616188742
 11
1038.4337499878916
 21
609.93908616188696
  0
LINE
  8
_0-1_計細線
  6
CONTINUOUS
 62
    3
 10
1038.4337499878916
 20
609.93908616188696
 11
1041.4337499878916
 21
609.93908616188696
  0
LINE
  8
_0-1_計細線
  6
CONTINUOUS
 62
    3
 10
1041.4337499878916
 20
609.93908616188696
 11
1041.4337499878916
 21
753.93908616188742
  0
LINE
  8
_0-1_計細線
  6
CONTINUOUS
 62
    3
 10
1051.4337499878916
 20
753.93908616188742
 11
1048.4337499878916
 21
753.93908616188742
  0
LINE
  8
_0-1_計細線
  6
CONTINUOUS
 62
    3
 10
1048.4337499878916
 20
753.93908616188742
 11
1048.4337499878916
 21
609.93908616188696
  0
LINE
  8
_0-1_計細線
  6
CONTINUOUS
 62
    3
 10
1048.4337499878916
 20
609.93908616188696
 11
1051.4337499878916
 21
609.93908616188696
  0
LINE
  8
_0-1_計細線
  6
CONTINUOUS
 62
    3
 10
1051.4337499878916
 20
609.93908616188696
 11
1051.4337499878916
 21
753.93908616188742
  0
LINE
  8
_0-1_計細線
  6
CONTINUOUS
 62
    3
 10
1061.4337499878916
 20
753.93908616188742
 11
1058.4337499878916
 21
753.93908616188742
  0
LINE
  8
_0-1_計細線
  6
CONTINUOUS
 62
    3
 10
1058.4337499878916
 20
753.93908616188742
 11
1058.4337499878916
 21
609.93908616188696
  0
LINE
  8
_0-1_計細線
  6
CONTINUOUS
 62
    3
 10
1058.4337499878916
 20
609.93908616188696
 11
1061.4337499878916
 21
609.93908616188696
  0
LINE
  8
_0-1_計細線
  6
CONTINUOUS
 62
    3
 10
1061.4337499878916
 20
609.93908616188696
 11
1061.4337499878916
 21
753.93908616188742
  0
LINE
  8
_0-1_計細線
  6
CONTINUOUS
 62
    3
 10
1071.4337499878916
 20
753.93908616188742
 11
1068.4337499878916
 21
753.93908616188742
  0
LINE
  8
_0-1_計細線
  6
CONTINUOUS
 62
    3
 10
1068.4337499878916
 20
753.93908616188742
 11
1068.4337499878916
 21
609.93908616188696
  0
LINE
  8
_0-1_計細線
  6
CONTINUOUS
 62
    3
 10
1068.4337499878916
 20
609.93908616188696
 11
1071.4337499878916
 21
609.93908616188696
  0
LINE
  8
_0-1_計細線
  6
CONTINUOUS
 62
    3
 10
1071.4337499878916
 20
609.93908616188696
 11
1071.4337499878916
 21
753.93908616188742
  0
LINE
  8
_0-1_計細線
  6
CONTINUOUS
 62
    3
 10
1081.4337499878916
 20
753.93908616188742
 11
1078.4337499878916
 21
753.93908616188742
  0
LINE
  8
_0-1_計細線
  6
CONTINUOUS
 62
    3
 10
1078.4337499878916
 20
753.93908616188742
 11
1078.4337499878916
 21
609.93908616188696
  0
LINE
  8
_0-1_計細線
  6
CONTINUOUS
 62
    3
 10
1078.4337499878916
 20
609.93908616188696
 11
1081.4337499878916
 21
609.93908616188696
  0
LINE
  8
_0-1_計細線
  6
CONTINUOUS
 62
    3
 10
1081.4337499878916
 20
609.93908616188696
 11
1081.4337499878916
 21
753.93908616188742
  0
LINE
  8
_0-1_計細線
  6
CONTINUOUS
 62
    3
 10
1091.4337499878916
 20
753.93908616188742
 11
1088.4337499878916
 21
753.93908616188742
  0
LINE
  8
_0-1_計細線
  6
CONTINUOUS
 62
    3
 10
1088.4337499878916
 20
753.93908616188742
 11
1088.4337499878916
 21
609.93908616188696
  0
LINE
  8
_0-1_計細線
  6
CONTINUOUS
 62
    3
 10
1088.4337499878916
 20
609.93908616188696
 11
1091.4337499878916
 21
609.93908616188696
  0
LINE
  8
_0-1_計細線
  6
CONTINUOUS
 62
    3
 10
1091.4337499878916
 20
609.93908616188696
 11
1091.4337499878916
 21
753.93908616188742
  0
LINE
  8
_0-1_計細線
  6
CONTINUOUS
 62
    3
 10
1101.4337499878916
 20
753.93908616188742
 11
1098.4337499878916
 21
753.93908616188742
  0
LINE
  8
_0-1_計細線
  6
CONTINUOUS
 62
    3
 10
1098.4337499878916
 20
753.93908616188742
 11
1098.4337499878916
 21
609.93908616188696
  0
LINE
  8
_0-1_計細線
  6
CONTINUOUS
 62
    3
 10
1098.4337499878916
 20
609.93908616188696
 11
1101.4337499878916
 21
609.93908616188696
  0
LINE
  8
_0-1_計細線
  6
CONTINUOUS
 62
    3
 10
1101.4337499878916
 20
609.93908616188696
 11
1101.4337499878916
 21
753.93908616188742
  0
LINE
  8
_0-1_計細線
  6
CONTINUOUS
 62
    3
 10
1111.4337499878916
 20
753.93908616188742
 11
1108.4337499878916
 21
753.93908616188742
  0
LINE
  8
_0-1_計細線
  6
CONTINUOUS
 62
    3
 10
1108.4337499878916
 20
753.93908616188742
 11
1108.4337499878916
 21
609.93908616188696
  0
LINE
  8
_0-1_計細線
  6
CONTINUOUS
 62
    3
 10
1108.4337499878916
 20
609.93908616188696
 11
1111.4337499878916
 21
609.93908616188696
  0
LINE
  8
_0-1_計細線
  6
CONTINUOUS
 62
    3
 10
1111.4337499878916
 20
609.93908616188696
 11
1111.4337499878916
 21
753.93908616188742
  0
LINE
  8
_0-1_計細線
  6
CONTINUOUS
 62
    3
 10
1121.4337499878916
 20
753.93908616188742
 11
1118.4337499878916
 21
753.93908616188742
  0
LINE
  8
_0-1_計細線
  6
CONTINUOUS
 62
    3
 10
1118.4337499878916
 20
753.93908616188742
 11
1118.4337499878916
 21
609.93908616188696
  0
LINE
  8
_0-1_計細線
  6
CONTINUOUS
 62
    3
 10
1118.4337499878916
 20
609.93908616188696
 11
1121.4337499878916
 21
609.93908616188696
  0
LINE
  8
_0-1_計細線
  6
CONTINUOUS
 62
    3
 10
1121.4337499878916
 20
609.93908616188696
 11
1121.4337499878916
 21
753.93908616188742
  0
LINE
  8
_0-1_計細線
  6
CONTINUOUS
 62
    3
 10
1131.4337499878916
 20
753.93908616188742
 11
1128.4337499878916
 21
753.93908616188742
  0
LINE
  8
_0-1_計細線
  6
CONTINUOUS
 62
    3
 10
1128.4337499878916
 20
753.93908616188742
 11
1128.4337499878916
 21
609.93908616188696
  0
LINE
  8
_0-1_計細線
  6
CONTINUOUS
 62
    3
 10
1128.4337499878916
 20
609.93908616188696
 11
1131.4337499878916
 21
609.93908616188696
  0
LINE
  8
_0-1_計細線
  6
CONTINUOUS
 62
    3
 10
1131.4337499878916
 20
609.93908616188696
 11
1131.4337499878916
 21
753.93908616188742
  0
LINE
  8
_0-1_計細線
  6
CONTINUOUS
 62
    3
 10
1141.4337499878916
 20
753.93908616188742
 11
1138.4337499878916
 21
753.93908616188742
  0
LINE
  8
_0-1_計細線
  6
CONTINUOUS
 62
    3
 10
1138.4337499878916
 20
753.93908616188742
 11
1138.4337499878916
 21
609.93908616188696
  0
LINE
  8
_0-1_計細線
  6
CONTINUOUS
 62
    3
 10
1138.4337499878916
 20
609.93908616188696
 11
1141.4337499878916
 21
609.93908616188696
  0
LINE
  8
_0-1_計細線
  6
CONTINUOUS
 62
    3
 10
1141.4337499878916
 20
609.93908616188696
 11
1141.4337499878916
 21
753.93908616188742
  0
LINE
  8
_0-1_計細線
  6
CONTINUOUS
 62
    3
 10
1151.4337499878916
 20
753.93908616188742
 11
1148.4337499878916
 21
753.93908616188742
  0
LINE
  8
_0-1_計細線
  6
CONTINUOUS
 62
    3
 10
1148.4337499878916
 20
753.93908616188742
 11
1148.4337499878916
 21
609.93908616188696
  0
LINE
  8
_0-1_計細線
  6
CONTINUOUS
 62
    3
 10
1148.4337499878916
 20
609.93908616188696
 11
1151.4337499878916
 21
609.93908616188696
  0
LINE
  8
_0-1_計細線
  6
CONTINUOUS
 62
    3
 10
1151.4337499878916
 20
609.93908616188696
 11
1151.4337499878916
 21
753.93908616188742
  0
LINE
  8
_0-1_計細線
  6
CONTINUOUS
 62
    3
 10
1161.4337499878916
 20
753.93908616188742
 11
1158.4337499878916
 21
753.93908616188742
  0
LINE
  8
_0-1_計細線
  6
CONTINUOUS
 62
    3
 10
1158.4337499878916
 20
753.93908616188742
 11
1158.4337499878916
 21
609.93908616188696
  0
LINE
  8
_0-1_計細線
  6
CONTINUOUS
 62
    3
 10
1158.4337499878916
 20
609.93908616188696
 11
1161.4337499878916
 21
609.93908616188696
  0
LINE
  8
_0-1_計細線
  6
CONTINUOUS
 62
    3
 10
1161.4337499878916
 20
609.93908616188696
 11
1161.4337499878916
 21
753.93908616188742
  0
LINE
  8
_0-1_計細線
  6
CONTINUOUS
 62
    3
 10
1171.4337499878916
 20
753.93908616188742
 11
1168.4337499878916
 21
753.93908616188742
  0
LINE
  8
_0-1_計細線
  6
CONTINUOUS
 62
    3
 10
1168.4337499878916
 20
753.93908616188742
 11
1168.4337499878916
 21
609.93908616188696
  0
LINE
  8
_0-1_計細線
  6
CONTINUOUS
 62
    3
 10
1168.4337499878916
 20
609.93908616188696
 11
1171.4337499878916
 21
609.93908616188696
  0
LINE
  8
_0-1_計細線
  6
CONTINUOUS
 62
    3
 10
1171.4337499878916
 20
609.93908616188696
 11
1171.4337499878916
 21
753.93908616188742
  0
LINE
  8
_0-1_計細線
  6
CONTINUOUS
 62
    3
 10
1181.4337499878916
 20
753.93908616188742
 11
1178.4337499878916
 21
753.93908616188742
  0
LINE
  8
_0-1_計細線
  6
CONTINUOUS
 62
    3
 10
1178.4337499878916
 20
753.93908616188742
 11
1178.4337499878916
 21
609.93908616188696
  0
LINE
  8
_0-1_計細線
  6
CONTINUOUS
 62
    3
 10
1178.4337499878916
 20
609.93908616188696
 11
1181.4337499878916
 21
609.93908616188696
  0
LINE
  8
_0-1_計細線
  6
CONTINUOUS
 62
    3
 10
1181.4337499878916
 20
609.93908616188696
 11
1181.4337499878916
 21
753.93908616188742
  0
LINE
  8
_0-1_計細線
  6
CONTINUOUS
 62
    3
 10
1191.4337499878916
 20
753.93908616188742
 11
1188.4337499878916
 21
753.93908616188742
  0
LINE
  8
_0-1_計細線
  6
CONTINUOUS
 62
    3
 10
1188.4337499878916
 20
753.93908616188742
 11
1188.4337499878916
 21
609.93908616188696
  0
LINE
  8
_0-1_計細線
  6
CONTINUOUS
 62
    3
 10
1188.4337499878916
 20
609.93908616188696
 11
1191.4337499878916
 21
609.93908616188696
  0
LINE
  8
_0-1_計細線
  6
CONTINUOUS
 62
    3
 10
1191.4337499878916
 20
609.93908616188696
 11
1191.4337499878916
 21
753.93908616188742
  0
LINE
  8
_0-1_計細線
  6
CONTINUOUS
 62
    3
 10
1201.4337499878916
 20
753.93908616188742
 11
1198.4337499878916
 21
753.93908616188742
  0
LINE
  8
_0-1_計細線
  6
CONTINUOUS
 62
    3
 10
1198.4337499878916
 20
753.93908616188742
 11
1198.4337499878916
 21
609.93908616188696
  0
LINE
  8
_0-1_計細線
  6
CONTINUOUS
 62
    3
 10
1198.4337499878916
 20
609.93908616188696
 11
1201.4337499878916
 21
609.93908616188696
  0
LINE
  8
_0-1_計細線
  6
CONTINUOUS
 62
    3
 10
1201.4337499878916
 20
609.93908616188696
 11
1201.4337499878916
 21
753.93908616188742
  0
LINE
  8
_0-1_計細線
  6
CONTINUOUS
 62
    3
 10
1211.4337499878916
 20
753.93908616188742
 11
1208.4337499878916
 21
753.93908616188742
  0
LINE
  8
_0-1_計細線
  6
CONTINUOUS
 62
    3
 10
1208.4337499878916
 20
753.93908616188742
 11
1208.4337499878916
 21
609.93908616188696
  0
LINE
  8
_0-1_計細線
  6
CONTINUOUS
 62
    3
 10
1208.4337499878916
 20
609.93908616188696
 11
1211.4337499878916
 21
609.93908616188696
  0
LINE
  8
_0-1_計細線
  6
CONTINUOUS
 62
    3
 10
1211.4337499878916
 20
609.93908616188696
 11
1211.4337499878916
 21
753.93908616188742
  0
LINE
  8
_0-1_計細線
  6
CONTINUOUS
 62
    3
 10
1221.4337499878916
 20
753.93908616188742
 11
1218.4337499878916
 21
753.93908616188742
  0
LINE
  8
_0-1_計細線
  6
CONTINUOUS
 62
    3
 10
1218.4337499878916
 20
753.93908616188742
 11
1218.4337499878916
 21
609.93908616188696
  0
LINE
  8
_0-1_計細線
  6
CONTINUOUS
 62
    3
 10
1218.4337499878916
 20
609.93908616188696
 11
1221.4337499878916
 21
609.93908616188696
  0
LINE
  8
_0-1_計細線
  6
CONTINUOUS
 62
    3
 10
1221.4337499878916
 20
609.93908616188696
 11
1221.4337499878916
 21
753.93908616188742
  0
LINE
  8
_0-5_寸法線
  6
CONTINUOUS
 62
    7
 10
1261.4433689311168
 20
601.93908616188685
 11
1341.3456879821169
 21
601.93908616188662
  0
LINE
  8
_0-5_寸法線
  6
CONTINUOUS
 62
    7
 10
1336.3456879821169
 20
601.93908616188662
 11
1333.7574975310918
 21
611.59834442477734
  0
LINE
  8
_0-5_寸法線
  6
CONTINUOUS
 62
    7
 10
1336.3456879821169
 20
601.93908616188662
 11
1338.9338784331424
 21
611.59834442477734
  0
LINE
  8
_0-5_寸法線
  6
CONTINUOUS
 62
    7
 10
1261.4433689311168
 20
761.93908616188696
 11
1341.3456879821169
 21
761.93908616188662
  0
LINE
  8
_0-5_寸法線
  6
CONTINUOUS
 62
    7
 10
1336.3456879821169
 20
761.93908616188662
 11
1338.9338784331424
 21
752.27982789899602
  0
LINE
  8
_0-5_寸法線
  6
CONTINUOUS
 62
    7
 10
1336.3456879821169
 20
761.93908616188662
 11
1333.7574975310918
 21
752.27982789899602
  0
LINE
  8
_0-5_寸法線
  6
CONTINUOUS
 62
    7
 10
1336.3456879821169
 20
601.93908616188662
 11
1336.3456879821169
 21
761.93908616188662
  0
TEXT
  8
_0-5_寸法線
 62
    7
 10
1336.3456879821169
 20
670.68908616188662
 40
15
 41
1
 50
90
  1
160
  0
LINE
  8
_0-5_寸法線
  6
CONTINUOUS
 62
    7
 10
188.42413104465507
 20
601.93908616188685
 11
143.42413104465459
 21
601.93908616188708
  0
LINE
  8
_0-5_寸法線
  6
CONTINUOUS
 62
    7
 10
148.42413104465459
 20
601.93908616188708
 11
145.83594059362937
 21
611.59834442477779
  0
LINE
  8
_0-5_寸法線
  6
CONTINUOUS
 62
    7
 10
148.42413104465459
 20
601.93908616188708
 11
151.01232149567977
 21
611.59834442477779
  0
LINE
  8
_0-5_寸法線
  6
CONTINUOUS
 62
    7
 10
188.42413104465507
 20
631.93908616188776
 11
143.42413104465459
 21
631.93908616188799
  0
LINE
  8
_0-5_寸法線
  6
CONTINUOUS
 62
    7
 10
148.42413104465459
 20
631.93908616188799
 11
151.01232149567977
 21
622.27982789899727
  0
LINE
  8
_0-5_寸法線
  6
CONTINUOUS
 62
    7
 10
148.42413104465459
 20
631.93908616188799
 11
145.83594059362937
 21
622.27982789899727
  0
LINE
  8
_0-5_寸法線
  6
CONTINUOUS
 62
    7
 10
148.42413104465459
 20
601.93908616188708
 11
148.42413104465459
 21
631.93908616188799
  0
TEXT
  8
_0-5_寸法線
 62
    7
 10
148.42413104465459
 20
609.43908616188753
 40
15
 41
1
 50
90
  1
30
  0
LINE
  8
_0-5_寸法線
  6
CONTINUOUS
 62
    7
 10
148.42413104465459
 20
631.93908616188799
 11
145.83594059362937
 21
641.5983444247787
  0
LINE
  8
_0-5_寸法線
  6
CONTINUOUS
 62
    7
 10
148.42413104465459
 20
631.93908616188799
 11
151.01232149567977
 21
641.5983444247787
  0
LINE
  8
_0-5_寸法線
  6
CONTINUOUS
 62
    7
 10
188.42413104465507
 20
731.93908616188742
 11
143.42413104465459
 21
731.93908616188753
  0
LINE
  8
_0-5_寸法線
  6
CONTINUOUS
 62
    7
 10
148.42413104465459
 20
731.93908616188753
 11
151.01232149567977
 21
722.27982789899681
  0
LINE
  8
_0-5_寸法線
  6
CONTINUOUS
 62
    7
 10
148.42413104465459
 20
731.93908616188753
 11
145.83594059362937
 21
722.27982789899681
  0
LINE
  8
_0-5_寸法線
  6
CONTINUOUS
 62
    7
 10
148.42413104465459
 20
631.93908616188799
 11
148.42413104465459
 21
731.93908616188753
  0
TEXT
  8
_0-5_寸法線
 62
    7
 10
148.42413104465459
 20
670.68908616188776
 40
15
 41
1
 50
89.999999999999815
  1
100
  0
LINE
  8
_0-5_寸法線
  6
CONTINUOUS
 62
    7
 10
148.42413104465459
 20
731.93908616188753
 11
145.83594059362937
 21
741.59834442477836
  0
LINE
  8
_0-5_寸法線
  6
CONTINUOUS
 62
    7
 10
148.42413104465459
 20
731.93908616188753
 11
151.01232149567977
 21
741.59834442477836
  0
LINE
  8
_0-5_寸法線
  6
CONTINUOUS
 62
    7
 10
188.42413104465507
 20
761.93908616188742
 11
143.42413104465459
 21
761.93908616188753
  0
LINE
  8
_0-5_寸法線
  6
CONTINUOUS
 62
    7
 10
148.42413104465459
 20
761.93908616188753
 11
151.01232149567977
 21
752.27982789899681
  0
LINE
  8
_0-5_寸法線
  6
CONTINUOUS
 62
    7
 10
148.42413104465459
 20
761.93908616188753
 11
145.83594059362937
 21
752.27982789899681
  0
LINE
  8
_0-5_寸法線
  6
CONTINUOUS
 62
    7
 10
148.42413104465459
 20
731.93908616188753
 11
148.42413104465459
 21
761.93908616188753
  0
TEXT
  8
_0-5_寸法線
 62
    7
 10
148.42413104465459
 20
739.43908616188753
 40
15
 41
1
 50
90
  1
30
  0
LINE
  8
_0-5_寸法線
  6
CONTINUOUS
 62
    7
 10
228.43374998789159
 20
771.93908616188742
 11
228.43374998789159
 21
816.93908616188742
  0
LINE
  8
_0-5_寸法線
  6
CONTINUOUS
 62
    7
 10
228.43374998789159
 20
811.93908616188742
 11
238.09300825078225
 21
814.52727661291249
  0
LINE
  8
_0-5_寸法線
  6
CONTINUOUS
 62
    7
 10
228.43374998789159
 20
811.93908616188742
 11
238.09300825078225
 21
809.35089571086223
  0
LINE
  8
_0-5_寸法線
  6
CONTINUOUS
 62
    7
 10
1221.4337499878916
 20
771.93908616188742
 11
1221.4337499878916
 21
816.93908616188742
  0
LINE
  8
_0-5_寸法線
  6
CONTINUOUS
 62
    7
 10
1221.4337499878916
 20
811.93908616188742
 11
1211.7744917250009
 21
809.35089571086223
  0
LINE
  8
_0-5_寸法線
  6
CONTINUOUS
 62
    7
 10
1221.4337499878916
 20
811.93908616188742
 11
1211.7744917250009
 21
814.52727661291249
  0
LINE
  8
_0-5_寸法線
  6
CONTINUOUS
 62
    7
 10
228.43374998789159
 20
811.93908616188742
 11
1221.4337499878916
 21
811.93908616188742
  0
TEXT
  8
_0-5_寸法線
 62
    7
 10
713.68374998789159
 20
811.93908616188742
 40
15
 41
1
 50
0
  1
993
  0
TEXT
  8
_0-5_寸法線
 62
    7
 10
633.30850621907985
 20
544.12447591872763
 40
15
 41
0.8000000000000001
 50
0
  1
ＧＳＬ－１５
  0
TEXT
  8
_0-5_寸法線
 62
    7
 10
852.90859255350426
 20
544.12447591872763
 40
15
 41
0.8000000000000001
 50
0
  1
ＧＳＦＪ－１５Ｗ１５０
  0
TEXT
  8
_0-7_枠細線
 62
    5
 10
965.50000000000011
 20
110
 40
20
 41
0.6
 50
0
  1
ＧＳＦＪ－１５Ｗ１５０
  0
TEXT
  8
_0-7_枠細線
 62
    5
 10
965.49999999999966
 20
70
 40
20.000000000000004
 41
0.5999999999999997
 50
0
  1
表面形状については記号表参照のこと
  0
LINE
  8
_0-7_枠細線
  6
CONTINUOUS
 62
    5
 10
1409.4018171150183
 20
328.47321710336234
 11
1409.4018171150183
 21
223.47321710336274
  0
TEXT
  8
_0-7_枠細線
 62
    5
 10
1318.4018171150192
 20
308.47321710336234
 40
15.000000000000002
 41
0.8
 50
0
  1
ノンスリップ
  0
TEXT
  8
_0-7_枠細線
 62
    5
 10
1330.4018171150185
 20
283.47321710336234
 40
15.000000000000002
 41
0.8
 50
0
  1
品番－Ｄ
  0
LINE
  8
_0-7_枠細線
  6
CONTINUOUS
 62
    5
 10
1299.4018171150178
 20
328.47321710336234
 11
1299.4018171150178
 21
223.47321710336274
  0
TEXT
  8
_0-7_枠細線
 62
    5
 10
1220.4018171150178
 20
308.4732171033624
 40
15.000000000000002
 41
0.8
 50
0
  1
プレーン
  0
TEXT
  8
_0-7_枠細線
 62
    5
 10
1220.4018171150185
 20
283.47321710336234
 40
15.000000000000002
 41
0.8
 50
0
  1
品番－Ｆ
  0
TEXT
  8
_0-7_枠細線
 62
    5
 10
1140.4018171150183
 20
308.47321710336234
 40
15.000000000000002
 41
0.8
 50
0
  1
タ イ プ
  0
LINE
  8
_0-7_枠細線
  6
CONTINUOUS
 62
    5
 10
1139.4018171150174
 20
278.47321710336234
 11
1409.4018171150183
 21
278.47321710336234
  0
LINE
  8
_0-7_枠細線
  6
CONTINUOUS
 62
    5
 10
1139.4018171150174
 20
303.47321710336234
 11
1409.4018171150183
 21
303.47321710336234
  0
LINE
  8
_0-7_枠細線
  6
CONTINUOUS
 62
    5
 10
1139.4018171150174
 20
328.47321710336234
 11
1409.4018171150183
 21
328.47321710336234
  0
LINE
  8
_0-7_枠細線
  6
CONTINUOUS
 62
    5
 10
1139.4018171150174
 20
223.47321710336274
 11
1409.4018171150183
 21
223.47321710336274
  0
LINE
  8
_0-7_枠細線
  6
CONTINUOUS
 62
    5
 10
1189.4018171150183
 20
328.47321710336234
 11
1189.4018171150183
 21
223.47321710336274
  0
LINE
  8
_0-7_枠細線
  6
CONTINUOUS
 62
    5
 10
1139.4018171150174
 20
328.47321710336234
 11
1139.4018171150174
 21
223.47321710336274
  0
TEXT
  8
_0-7_枠細線
 62
    5
 10
1140.4018171150183
 20
243.47321710336257
 40
15.000000000000002
 41
0.8
 50
0
  1
表面形状
  0
TEXT
  8
_0-7_枠細線
 62
    5
 10
1147.1760284558286
 20
330.9732171033624
 40
17.500000000000004
 41
0.7999999999999996
 50
0
  1
記号表
  0
TEXT
  8
_0-7_枠細線
 62
    5
 10
1140.4018171150183
 20
283.47321710336246
 40
15.000000000000002
 41
0.8
 50
0
  1
記　　号
  0
ARC
  8
_0-7_枠細線
  6
CONTINUOUS
 62
    5
 10
1285.5023462775741
 20
245.17647202943709
 40
8.5903566658075761
 50
317.56162900000447
 51
42.438370999995371
  0
ARC
  8
_0-7_枠細線
  6
CONTINUOUS
 62
    5
 10
1190.621859620396
 20
245.17647202943709
 40
8.5903566658076702
 50
317.56162899999947
 51
42.43837100000087
  0
ARC
  8
_0-7_枠細線
  6
CONTINUOUS
 62
    5
 10
1203.3012879524622
 20
256.76996202827797
 40
8.5903566658076702
 50
137.56162899999987
 51
222.43837100000292
  0
ARC
  8
_0-7_枠細線
  6
CONTINUOUS
 62
    5
 10
1298.1817746096403
 20
256.76996202827797
 40
8.5903566658075761
 50
137.56162899999941
 51
222.4383710000034
  0
LINE
  8
_0-7_枠細線
  6
CONTINUOUS
 62
    5
 10
1194.8814809446508
 20
258.47321702885716
 11
1289.7619676018294
 21
258.47321702885716
  0
LINE
  8
_0-7_枠細線
  6
CONTINUOUS
 62
    5
 10
1293.9221532853853
 20
243.47321702885765
 11
1199.0416666282072
 21
243.47321702885765
  0
ARC
  8
_0-7_枠細線
  6
CONTINUOUS
 62
    5
 10
1301.122215453679
 20
245.17647202943706
 40
8.5903566658075761
 50
317.5616290000001
 51
42.438371000001837
  0
ARC
  8
_0-7_枠細線
  6
CONTINUOUS
 62
    5
 10
1313.8016437857441
 20
256.76996202827786
 40
8.5903566658075761
 50
137.56162900000044
 51
222.43837100000019
  0
ARC
  8
_0-7_枠細線
  6
CONTINUOUS
 62
    5
 10
1396.0027021108588
 20
245.17647202943706
 40
8.5903566658075761
 50
317.56162899999799
 51
42.438371000001837
  0
ARC
  8
_0-7_枠細線
  6
CONTINUOUS
 62
    5
 10
1408.6821304429236
 20
256.76996202827786
 40
8.5903566658075761
 50
137.56162900000146
 51
222.43837100000019
  0
LINE
  8
_0-7_枠細線
  6
CONTINUOUS
 62
    5
 10
1305.3818367779329
 20
258.47321702885711
 11
1400.2623234351113
 21
258.47321702885711
  0
LINE
  8
_0-7_枠細線
  6
CONTINUOUS
 62
    5
 10
1404.4225091186672
 20
243.47321702885762
 11
1309.5420224614893
 21
243.47321702885762
  0
LINE
  8
_0-7_枠細線
  6
CONTINUOUS
 62
    5
 10
1305.319542326198
 20
258.12944077976692
 11
1319.975766077107
 21
243.47321702885773
  0
LINE
  8
_0-7_枠細線
  6
CONTINUOUS
 62
    5
 10
1315.5823677949058
 20
258.47321702885711
 11
1330.5823677949052
 21
243.47321702885773
  0
LINE
  8
_0-7_枠細線
  6
CONTINUOUS
 62
    5
 10
1326.1889695127043
 20
258.47321702885711
 11
1341.1889695127034
 21
243.47321702885773
  0
LINE
  8
_0-7_枠細線
  6
CONTINUOUS
 62
    5
 10
1336.7955712305022
 20
258.47321702885711
 11
1351.7955712305015
 21
243.47321702885773
  0
LINE
  8
_0-7_枠細線
  6
CONTINUOUS
 62
    5
 10
1347.4021729483002
 20
258.47321702885711
 11
1362.4021729482997
 21
243.47321702885762
  0
LINE
  8
_0-7_枠細線
  6
CONTINUOUS
 62
    5
 10
1358.0087746660984
 20
258.47321702885711
 11
1373.0087746660977
 21
243.47321702885762
  0
LINE
  8
_0-7_枠細線
  6
CONTINUOUS
 62
    5
 10
1368.6153763838965
 20
258.47321702885711
 11
1383.6153763838959
 21
243.47321702885762
  0
LINE
  8
_0-7_枠細線
  6
CONTINUOUS
 62
    5
 10
1379.2219781016945
 20
258.47321702885711
 11
1394.2219781016943
 21
243.47321702885762
  0
LINE
  8
_0-7_枠細線
  6
CONTINUOUS
 62
    5
 10
1389.8285798194929
 20
258.47321702885711
 11
1404.4848035704022
 21
243.81699327794757
  0
LINE
  8
_0-7_枠細線
  6
CONTINUOUS
 62
    5
 10
1400.4351815372913
 20
243.47321702885762
 11
1404.3132122249604
 21
247.3512477165265
  0
LINE
  8
_0-7_枠細線
  6
CONTINUOUS
 62
    5
 10
1389.8285798194931
 20
243.47321702885762
 11
1400.502099021217
 21
254.14673623058133
  0
LINE
  8
_0-7_枠細線
  6
CONTINUOUS
 62
    5
 10
1379.2219781016952
 20
243.47321702885762
 11
1394.2219781016945
 21
258.47321702885711
  0
LINE
  8
_0-7_枠細線
  6
CONTINUOUS
 62
    5
 10
1368.6153763838968
 20
243.47321702885762
 11
1383.6153763838965
 21
258.47321702885711
  0
LINE
  8
_0-7_枠細線
  6
CONTINUOUS
 62
    5
 10
1358.0087746660988
 20
243.47321702885773
 11
1373.0087746660979
 21
258.47321702885711
  0
LINE
  8
_0-7_枠細線
  6
CONTINUOUS
 62
    5
 10
1347.4021729483004
 20
243.47321702885773
 11
1362.4021729482999
 21
258.47321702885711
  0
LINE
  8
_0-7_枠細線
  6
CONTINUOUS
 62
    5
 10
1336.7955712305022
 20
243.47321702885773
 11
1351.7955712305015
 21
258.47321702885711
  0
LINE
  8
_0-7_枠細線
  6
CONTINUOUS
 62
    5
 10
1326.1889695127038
 20
243.47321702885773
 11
1341.1889695127034
 21
258.47321702885711
  0
LINE
  8
_0-7_枠細線
  6
CONTINUOUS
 62
    5
 10
1315.5823677949056
 20
243.47321702885773
 11
1330.5823677949052
 21
258.47321702885711
  0
LINE
  8
_0-7_枠細線
  6
CONTINUOUS
 62
    5
 10
1309.3022468753834
 20
247.79969782713346
 11
1319.975766077107
 21
258.47321702885711
  0
LINE
  8
_0-7_枠細線
  6
CONTINUOUS
 62
    5
 10
1305.4911336716398
 20
254.59518634118811
 11
1309.369164359309
 21
258.47321702885711
  0
LINE
  8
_0-a_極細3
  6
CONTINUOUS
 62
    7
 10
333.26399320518652
 20
256.56810602460087
 11
337.09732653851984
 21
256.56810602460087
  0
LINE
  8
_0-a_極細3
  6
CONTINUOUS
 62
    7
 10
333.26399320518652
 20
259.90143935793435
 11
337.09732653851984
 21
259.90143935793435
  0
LINE
  8
_0-a_極細3
  6
CONTINUOUS
 62
    7
 10
333.26399320518652
 20
253.23477269126784
 11
337.09732653851984
 21
253.23477269126784
  0
LINE
  8
_0-a_極細3
  6
CONTINUOUS
 62
    7
 10
333.26399320518652
 20
263.23477269126784
 11
337.09732653851984
 21
263.23477269126784
  0
LINE
  8
_0-a_極細3
  6
CONTINUOUS
 62
    7
 10
337.09732653851984
 20
229.90143935793438
 11
333.26399320518652
 21
229.90143935793438
  0
LINE
  8
_0-a_極細3
  6
CONTINUOUS
 62
    7
 10
333.26399320518652
 20
279.90143935793435
 11
337.09732653851984
 21
279.90143935793435
  0
LINE
  8
_0-d_寸法3
  6
CONTINUOUS
 62
    7
 10
327.09732653851984
 20
293.23477269126789
 11
281.14729545993015
 21
293.23477269126784
  0
LINE
  8
_0-d_寸法3
  6
CONTINUOUS
 62
    7
 10
286.14729545993015
 20
293.23477269126784
 11
288.73548591095528
 21
283.57551442837712
  0
LINE
  8
_0-d_寸法3
  6
CONTINUOUS
 62
    7
 10
286.14729545993015
 20
293.23477269126784
 11
283.55910500890491
 21
283.57551442837718
  0
LINE
  8
_0-d_寸法3
  6
CONTINUOUS
 62
    7
 10
323.26399320518652
 20
263.23477269126789
 11
281.14729545993032
 21
263.23477269126784
  0
LINE
  8
_0-d_寸法3
  6
CONTINUOUS
 62
    7
 10
286.14729545993032
 20
263.23477269126784
 11
283.55910500890508
 21
272.8940309541585
  0
LINE
  8
_0-d_寸法3
  6
CONTINUOUS
 62
    7
 10
286.14729545993032
 20
263.23477269126784
 11
288.73548591095556
 21
272.89403095415855
  0
LINE
  8
_0-d_寸法3
  6
CONTINUOUS
 62
    7
 10
286.14729545993015
 20
293.23477269126784
 11
286.14729545993032
 21
263.23477269126784
  0
TEXT
  8
_0-d_寸法3
 62
    7
 10
286.14729545993055
 20
270.73477269126784
 40
15
 41
1
 50
90
  1
18
  0
LINE
  8
_0-b_細線3
  6
CONTINUOUS
 62
    7
 10
337.09732653851984
 20
283.23477269126784
 11
337.09732653851984
 21
224.90143935793438
  0
LINE
  8
_0-b_細線3
  6
CONTINUOUS
 62
    7
 10
337.09732653851984
 20
224.90143935793438
 11
333.26399320518652
 21
224.90143935793438
  0
LINE
  8
_0-b_細線3
  6
CONTINUOUS
 62
    7
 10
333.26399320518652
 20
224.90143935793438
 11
333.26399320518652
 21
283.23477269126784
  0
LINE
  8
_0-b_細線3
  6
CONTINUOUS
 62
    7
 10
333.26399320518652
 20
283.23477269126784
 11
337.09732653851984
 21
283.23477269126784
  0
LINE
  8
_0-a_極細3
  6
CONTINUOUS
 62
    7
 10
607.59732653851972
 20
256.56810602460087
 11
603.76399320518635
 21
256.56810602460087
  0
LINE
  8
_0-a_極細3
  6
CONTINUOUS
 62
    7
 10
607.59732653851972
 20
259.90143935793435
 11
603.76399320518635
 21
259.90143935793435
  0
LINE
  8
_0-a_極細3
  6
CONTINUOUS
 62
    7
 10
607.59732653851972
 20
253.23477269126784
 11
603.76399320518635
 21
253.23477269126784
  0
LINE
  8
_0-a_極細3
  6
CONTINUOUS
 62
    7
 10
607.59732653851972
 20
263.23477269126784
 11
603.76399320518635
 21
263.23477269126784
  0
LINE
  8
_0-a_極細3
  6
CONTINUOUS
 62
    7
 10
603.76399320518635
 20
229.90143935793438
 11
607.59732653851972
 21
229.90143935793438
  0
LINE
  8
_0-a_極細3
  6
CONTINUOUS
 62
    7
 10
607.59732653851972
 20
279.90143935793435
 11
603.76399320518635
 21
279.90143935793435
  0
LINE
  8
_0-b_細線3
  6
CONTINUOUS
 62
    7
 10
603.76399320518635
 20
283.23477269126784
 11
603.76399320518635
 21
224.90143935793438
  0
LINE
  8
_0-b_細線3
  6
CONTINUOUS
 62
    7
 10
603.76399320518635
 20
224.90143935793438
 11
607.59732653851972
 21
224.90143935793438
  0
LINE
  8
_0-b_細線3
  6
CONTINUOUS
 62
    7
 10
607.59732653851972
 20
224.90143935793438
 11
607.59732653851972
 21
283.23477269126784
  0
LINE
  8
_0-b_細線3
  6
CONTINUOUS
 62
    7
 10
607.59732653851972
 20
283.23477269126784
 11
603.76399320518635
 21
283.23477269126784
  0
LINE
  8
_0-7_枠細線
  6
CONTINUOUS
 62
    5
 10
1425
 20
907.5
 11
890
 21
907.5
  0
LINE
  8
_0-7_枠細線
  6
CONTINUOUS
 62
    5
 10
915
 20
908.94233397174708
 11
907.5
 21
923.94233397174708
  0
LINE
  8
_0-7_枠細線
  6
CONTINUOUS
 62
    5
 10
900
 20
908.94233397174708
 11
915
 21
908.94233397174708
  0
LINE
  8
_0-7_枠細線
  6
CONTINUOUS
 62
    5
 10
907.5
 20
923.94233397174708
 11
900
 21
908.94233397174708
  0
TEXT
  8
_0-7_枠細線
 62
    5
 10
902.36515126814822
 20
908.63533172636653
 40
12.5
 41
0.8
 50
0
  1
１
  0
TEXT
  8
_0-7_枠細線
 62
    5
 10
1180
 20
910
 40
12.5
 41
0.7199999999999999
 50
0
  1
２０１９．０９．０１
  0
TEXT
  8
_0-7_枠細線
 62
    5
 10
938.85037037037023
 20
910
 40
12.500000000000002
 41
1
 50
0
  1
アンカー材質･厚み変更
  0
LINE
  8
_0-7_枠細線
  6
CONTINUOUS
 62
    5
 10
1275
 20
907.5
 11
1275
 21
959.99999999999943
  0
LINE
  8
_0-7_枠細線
  6
CONTINUOUS
 62
    5
 10
1175
 20
907.5
 11
1175
 21
959.99999999999943
  0
LINE
  8
_0-7_枠細線
  6
CONTINUOUS
 62
    5
 10
925
 20
907.5
 11
925
 21
959.99999999999943
  0
LINE
  8
_0-7_枠細線
  6
CONTINUOUS
 62
    5
 10
890
 20
907.5
 11
890
 21
959.99999999999909
  0
LINE
  8
_0-7_枠細線
  6
CONTINUOUS
 62
    5
 10
626.68319463175919
 20
260.96352268742169
 11
619.18319463175919
 21
275.96352268742169
  0
LINE
  8
_0-7_枠細線
  6
CONTINUOUS
 62
    5
 10
611.68319463175919
 20
260.96352268742169
 11
626.68319463175919
 21
260.96352268742169
  0
LINE
  8
_0-7_枠細線
  6
CONTINUOUS
 62
    5
 10
619.18319463175919
 20
275.96352268742169
 11
611.68319463175919
 21
260.96352268742169
  0
TEXT
  8
_0-7_枠細線
 62
    5
 10
614.0483458999073
 20
260.65652044204109
 40
12.5
 41
0.8
 50
0
  1
１
  0
LINE
  8
_0-d_寸法3
  6
CONTINUOUS
 62
    7
 10
323.26399320518652
 20
263.23477269126789
 11
281.14729545993032
 21
263.23477269126784
  0
LINE
  8
_0-d_寸法3
  6
CONTINUOUS
 62
    7
 10
286.14729545993032
 20
263.23477269126784
 11
288.73548591095556
 21
253.57551442837718
  0
LINE
  8
_0-d_寸法3
  6
CONTINUOUS
 62
    7
 10
286.14729545993032
 20
263.23477269126784
 11
283.55910500890508
 21
253.57551442837718
  0
LINE
  8
_0-d_寸法3
  6
CONTINUOUS
 62
    7
 10
323.26399320518652
 20
224.90143935793441
 11
281.14729545993032
 21
224.90143935793441
  0
LINE
  8
_0-d_寸法3
  6
CONTINUOUS
 62
    7
 10
286.14729545993032
 20
224.90143935793438
 11
283.55910500890508
 21
234.56069762082507
  0
LINE
  8
_0-d_寸法3
  6
CONTINUOUS
 62
    7
 10
286.14729545993032
 20
224.90143935793438
 11
288.73548591095556
 21
234.56069762082507
  0
LINE
  8
_0-d_寸法3
  6
CONTINUOUS
 62
    7
 10
286.14729545993032
 20
263.23477269126784
 11
286.14729545993032
 21
224.90143935793438
  0
TEXT
  8
_0-d_寸法3
 62
    7
 10
286.14729545993032
 20
236.56810602460112
 40
15
 41
1
 50
90
  1
23
  0
LINE
  8
_0-9_枠極太
  6
CONTINUOUS
 62
    5
 10
60
 20
60
 11
60
 21
960
  0
LINE
  8
_0-9_枠極太
  6
CONTINUOUS
 62
    5
 10
60
 20
960
 11
1425
 21
960
  0
LINE
  8
_0-9_枠極太
  6
CONTINUOUS
 62
    5
 10
1425
 20
960
 11
1425
 21
60
  0
LINE
  8
_0-9_枠極太
  6
CONTINUOUS
 62
    5
 10
1425
 20
60
 11
60
 21
60
  0
LINE
  8
_0-5_寸法線
  6
CONTINUOUS
 62
    7
 10
1261.4433689311168
 20
601.93908616188685
 11
1306.3456879821169
 21
601.93908616188662
  0
LINE
  8
_0-5_寸法線
  6
CONTINUOUS
 62
    7
 10
1301.3456879821169
 20
601.93908616188662
 11
1303.9338784331424
 21
592.2798278989959
  0
LINE
  8
_0-5_寸法線
  6
CONTINUOUS
 62
    7
 10
1301.3456879821169
 20
601.93908616188662
 11
1298.7574975310918
 21
592.2798278989959
  0
LINE
  8
_0-5_寸法線
  6
CONTINUOUS
 62
    7
 10
1261.4433689311168
 20
604.93908616188696
 11
1306.3456879821169
 21
604.93908616188662
  0
CIRCLE
  8
_0-5_寸法線
  6
CONTINUOUS
 62
    1
 10
1301.3456879821169
 20
604.93908616188662
 40
1.5000000000000002
  0
LINE
  8
_0-5_寸法線
  6
CONTINUOUS
 62
    7
 10
1301.3456879821169
 20
576.93908616188662
 11
1301.3456879821169
 21
604.93908616188662
  0
TEXT
  8
_0-5_寸法線
 62
    7
 10
1301.3456879821169
 20
579.89149752366791
 40
15
 41
1
 50
90
  1
3
  0
LINE
  8
_0-5_寸法線
  6
CONTINUOUS
 62
    7
 10
1261.4433689311168
 20
606.93908616188685
 11
1306.3456879821169
 21
606.93908616188662
  0
LINE
  8
_0-5_寸法線
  6
CONTINUOUS
 62
    7
 10
1301.3456879821169
 20
604.93908616188662
 11
1301.3456879821169
 21
606.93908616188662
  0
TEXT
  8
_0-5_寸法線
 62
    7
 10
1323.4758738127744
 20
604.50668663114163
 40
15
 41
1
 50
90
  1
2
  0
LINE
  8
_0-5_寸法線
  6
CONTINUOUS
 62
    7
 10
1301.3456879821169
 20
606.93908616188662
 11
1298.7574975310918
 21
616.59834442477734
  0
LINE
  8
_0-5_寸法線
  6
CONTINUOUS
 62
    7
 10
1301.3456879821169
 20
606.93908616188662
 11
1303.9338784331424
 21
616.59834442477734
  0
LINE
  8
_0-5_寸法線
  6
CONTINUOUS
 62
    7
 10
1261.4433689311168
 20
756.93908616188696
 11
1306.3456879821169
 21
756.93908616188662
  0
LINE
  8
_0-5_寸法線
  6
CONTINUOUS
 62
    7
 10
1301.3456879821169
 20
756.93908616188662
 11
1303.9338784331424
 21
747.27982789899602
  0
LINE
  8
_0-5_寸法線
  6
CONTINUOUS
 62
    7
 10
1301.3456879821169
 20
756.93908616188662
 11
1298.7574975310918
 21
747.27982789899602
  0
LINE
  8
_0-5_寸法線
  6
CONTINUOUS
 62
    7
 10
1301.3456879821169
 20
606.93908616188662
 11
1301.3456879821169
 21
756.93908616188662
  0
TEXT
  8
_0-5_寸法線
 62
    7
 10
1301.3456879821169
 20
670.68908616188662
 40
15
 41
1
 50
90
  1
150
  0
LINE
  8
_0-5_寸法線
  6
CONTINUOUS
 62
    7
 10
1261.4433689311168
 20
758.93908616188742
 11
1306.3456879821169
 21
758.93908616188708
  0
CIRCLE
  8
_0-5_寸法線
  6
CONTINUOUS
 62
    1
 10
1301.3456879821169
 20
758.93908616188708
 40
1.5000000000000002
  0
LINE
  8
_0-5_寸法線
  6
CONTINUOUS
 62
    7
 10
1301.3456879821169
 20
756.93908616188662
 11
1301.3456879821169
 21
758.93908616188708
  0
TEXT
  8
_0-5_寸法線
 62
    7
 10
1322.0783605642901
 20
751.22638393446982
 40
15
 41
1
 50
90
  1
2
  0
LINE
  8
_0-5_寸法線
  6
CONTINUOUS
 62
    7
 10
1261.4433689311168
 20
761.93908616188696
 11
1306.3456879821169
 21
761.93908616188662
  0
LINE
  8
_0-5_寸法線
  6
CONTINUOUS
 62
    7
 10
1301.3456879821169
 20
761.93908616188662
 11
1298.7574975310918
 21
771.59834442477745
  0
LINE
  8
_0-5_寸法線
  6
CONTINUOUS
 62
    7
 10
1301.3456879821169
 20
761.93908616188662
 11
1303.9338784331424
 21
771.59834442477745
  0
LINE
  8
_0-5_寸法線
  6
CONTINUOUS
 62
    7
 10
1301.3456879821169
 20
758.93908616188708
 11
1301.3456879821169
 21
786.93908616188662
  0
TEXT
  8
_0-5_寸法線
 62
    7
 10
1301.3456879821169
 20
774.06477689209873
 40
15
 41
1
 50
90
  1
3
  0
LINE
  8
_0-d_寸法3
  6
CONTINUOUS
 62
    7
 10
337.09732653851984
 20
378.23477269126784
 11
327.43806827562912
 21
375.64658224024265
  0
LINE
  8
_0-d_寸法3
  6
CONTINUOUS
 62
    7
 10
337.09732653851984
 20
378.23477269126784
 11
327.43806827562923
 21
380.82296314229313
  0
LINE
  8
_0-d_寸法3
  6
CONTINUOUS
 62
    7
 10
342.09732653851984
 20
297.40143935793435
 11
342.09732653851984
 21
383.23477269126784
  0
CIRCLE
  8
_0-d_寸法3
  6
CONTINUOUS
 62
    1
 10
342.09732653851984
 20
378.23477269126784
 40
1.5000000000000002
  0
LINE
  8
_0-d_寸法3
  6
CONTINUOUS
 62
    7
 10
312.09732653851984
 20
378.23477269126784
 11
342.09732653851984
 21
378.23477269126784
  0
TEXT
  8
_0-d_寸法3
 62
    7
 10
315.95265859459664
 20
378.23477269126784
 40
15
 41
1
 50
0
  1
3
  0
LINE
  8
_0-d_寸法3
  6
CONTINUOUS
 62
    7
 10
345.43065987185287
 20
294.90143768959001
 11
345.43065987185287
 21
383.23477269126784
  0
LINE
  8
_0-d_寸法3
  6
CONTINUOUS
 62
    7
 10
342.09732653851984
 20
378.23477269126784
 11
345.43065987185287
 21
378.23477269126784
  0
TEXT
  8
_0-d_寸法3
 62
    7
 10
340.01399320518595
 20
378.23477269126784
 40
15
 41
1
 50
0
  1
2
  0
LINE
  8
_0-d_寸法3
  6
CONTINUOUS
 62
    7
 10
345.43065987185287
 20
378.23477269126784
 11
355.08991813474353
 21
380.82296314229302
  0
LINE
  8
_0-d_寸法3
  6
CONTINUOUS
 62
    7
 10
345.43065987185287
 20
378.23477269126784
 11
355.08991813474353
 21
375.64658224024265
  0
LINE
  8
_0-d_寸法3
  6
CONTINUOUS
 62
    7
 10
595.43065987185287
 20
294.90143768959001
 11
595.43065987185287
 21
383.23477269126784
  0
LINE
  8
_0-d_寸法3
  6
CONTINUOUS
 62
    7
 10
595.43065987185287
 20
378.23477269126784
 11
585.77140160896215
 21
375.64658224024265
  0
LINE
  8
_0-d_寸法3
  6
CONTINUOUS
 62
    7
 10
595.43065987185287
 20
378.23477269126784
 11
585.77140160896215
 21
380.82296314229313
  0
LINE
  8
_0-d_寸法3
  6
CONTINUOUS
 62
    7
 10
345.43065987185287
 20
378.23477269126784
 11
595.43065987185287
 21
378.23477269126784
  0
TEXT
  8
_0-d_寸法3
 62
    7
 10
459.18065987185287
 20
378.23477269126784
 40
15
 41
1
 50
0
  1
150
  0
LINE
  8
_0-d_寸法3
  6
CONTINUOUS
 62
    7
 10
598.7639932051859
 20
297.40143935793435
 11
598.7639932051859
 21
383.23477269126784
  0
CIRCLE
  8
_0-d_寸法3
  6
CONTINUOUS
 62
    1
 10
598.7639932051859
 20
378.23477269126784
 40
1.5000000000000002
  0
LINE
  8
_0-d_寸法3
  6
CONTINUOUS
 62
    7
 10
595.43065987185287
 20
378.23477269126784
 11
598.7639932051859
 21
378.23477269126784
  0
TEXT
  8
_0-d_寸法3
 62
    7
 10
593.34732653851938
 20
378.23477269126784
 40
15
 41
1
 50
0
  1
2
  0
LINE
  8
_0-d_寸法3
  6
CONTINUOUS
 62
    7
 10
603.7639932051859
 20
378.23477269126784
 11
613.42325146807661
 21
380.82296314229296
  0
LINE
  8
_0-d_寸法3
  6
CONTINUOUS
 62
    7
 10
603.7639932051859
 20
378.23477269126784
 11
613.42325146807661
 21
375.64658224024265
  0
LINE
  8
_0-d_寸法3
  6
CONTINUOUS
 62
    7
 10
598.7639932051859
 20
378.23477269126784
 11
628.7639932051859
 21
378.23477269126784
  0
TEXT
  8
_0-d_寸法3
 62
    7
 10
617.91836095575013
 20
378.23477269126784
 40
15
 41
1
 50
0
  1
3
  0
ENDSEC
  0
EOF
