  0
SECTION
  2
HEADER
  9
$ACADVER
  1
AC1009
  9
$INSBASE
 10
0
 20
0
 30
0
  9
$EXTMIN
 10
0
 20
0
  9
$EXTMAX
 10
1485
 20
1050
  9
$LIMMIN
 10
0
 20
0
  9
$LIMMAX
 10
1485
 20
1050
  9
$LTSCALE
 40
5
  0
ENDSEC
  0
SECTION
  2
TABLES
  0
TABLE
  2
LTYPE
 70
     9
  0
LTYPE
  2
CONTINUOUS
 70
    64
  3
実線
 72
    65
 73
     0
 40
0.0
  0
LTYPE
  2
DASHED1
 70
    64
  3
--  --  --  --  --  --  --  --  
 72
    65
 73
     2
 40
2.5
 49
1.25
 49
-1.25
  0
LTYPE
  2
DASHED2
 70
    64
  3
----    ----    ----    ----    
 72
    65
 73
     2
 40
5.0
 49
2.5
 49
-2.5
  0
LTYPE
  2
DASHED3
 70
    64
  3
------  ------  ------  ------  
 72
    65
 73
     2
 40
5.0
 49
3.75
 49
-1.25
  0
LTYPE
  2
CENTER1
 70
    64
  3
----- - ----- - ----- - ----- - 
 72
    65
 73
     4
 40
10.0
 49
6.25
 49
-1.25
 49
1.25
 49
-1.25
  0
LTYPE
  2
CENTER2
 70
    64
  3
----------  --  ----------  --  
 72
    65
 73
     4
 40
20.0
 49
12.5
 49
-2.5
 49
2.5
 49
-2.5
  0
LTYPE
  2
PHANTOM1
 70
    64
  3
--- - - --- - - --- - - --- - - 
 72
    65
 73
     6
 40
10.0
 49
3.25
 49
-1.25
 49
1.25
 49
-1.25
 49
1.25
 49
-1.25
  0
LTYPE
  2
PHANTOM2
 70
    64
  3
--------  -  -  --------  -  -  
 72
    65
 73
     6
 40
20.0
 49
10.0
 49
-2.5
 49
1.25
 49
-2.5
 49
1.25
 49
-2.5
  0
LTYPE
  2
DOT
 70
    64
  3
-   -   -   -   -   -   -   -   
 72
    65
 73
     2
 40
2.5
 49
0.625
 49
-1.875
  0
LTYPE
  2
DUMMY
 70
    64
  3
ダミー
 72
    65
 73
     0
 40
0.0
  0
LTYPE
  2
RAND1
 70
    64
  3
ランダム線1
 72
    65
 73
     4
 40
10.0
 49
1.0
 49
-2.0
 49
3.0
 49
-4.0
  0
LTYPE
  2
RAND2
 70
    64
  3
ランダム線2
 72
    65
 73
     4
 40
14.0
 49
2.0
 49
-3.0
 49
4.0
 49
-5.0
  0
LTYPE
  2
RAND3
 70
    64
  3
ランダム線3
 72
    65
 73
     4
 40
18.0
 49
3.0
 49
-4.0
 49
5.0
 49
-6.0
  0
LTYPE
  2
RAND4
 70
    64
  3
ランダム線4
 72
    65
 73
     4
 40
22.0
 49
4.0
 49
-5.0
 49
6.0
 49
-7.0
  0
LTYPE
  2
RAND5
 70
    64
  3
ランダム線5
 72
    65
 73
     4
 40
26.0
 49
5.0
 49
-6.0
 49
7.0
 49
-8.0
  0
LTYPE
  2
LONG1
 70
    64
  3
----------  --  ----------  --  
 72
    65
 73
     4
 40
40.0
 49
32.5
 49
-2.5
 49
2.5
 49
-2.5
  0
LTYPE
  2
LONG2
 70
    64
  3
--------  -  -  --------  -  -  
 72
    65
 73
     6
 40
40.0
 49
30.0
 49
-2.5
 49
1.25
 49
-2.5
 49
1.25
 49
-2.5
  0
LTYPE
  2
LONG3
 70
    64
  3
+++++++++++++++..+++++++++++++++
 72
    65
 73
     2
 40
40.0
 49
37.5
 49
-2.5
  0
LTYPE
  2
LONG4
 70
    64
  3
+++++++++++++++..+++++++++++++++
 72
    65
 73
     2
 40
80.0
 49
75.0
 49
-5.0
  0
LTYPE
  2
LONG5
 70
    64
  3
----------  --  ----------  --  
 72
    65
 73
     4
 40
60.0
 49
37.5
 49
-7.5
 49
7.5
 49
-7.5
  0
LTYPE
  2
dashed
 70
   64
  3
-------   -------------   ------
 72
   65
 73
    2
 40
7.5
 49
6
 49
-1.5
  0
LTYPE
  2
dashed_spaced
 70
   64
  3
----        --------        ----
 72
   65
 73
    2
 40
12
 49
6
 49
-6
  0
LTYPE
  2
long_dashed_dotted
 70
   64
  3
------------- --- --------------
 72
   65
 73
    4
 40
15.25
 49
12
 49
-1.5
 49
0.25
 49
-1.5
  0
LTYPE
  2
long_dashed_double-dotted
 70
   64
  3
----------- --- --- ------------
 72
   65
 73
    6
 40
17
 49
12
 49
-1.5
 49
0.25
 49
-1.5
 49
0.25
 49
-1.5
  0
LTYPE
  2
long_dashed_triplicate-dotted
 70
   64
  3
--------- --- --- --- ----------
 72
   65
 73
    8
 40
18.75
 49
12
 49
-1.5
 49
0.25
 49
-1.5
 49
0.25
 49
-1.5
 49
0.25
 49
-1.5
  0
LTYPE
  2
dotted
 70
   64
  3
   -       -       -       -    
 72
   65
 73
    2
 40
1.75
 49
0.25
 49
-1.5
  0
LTYPE
  2
chain
 70
   64
  3
-------------- -- --------------
 72
   65
 73
    4
 40
18.5
 49
12
 49
-1.5
 49
3.5
 49
-1.5
  0
LTYPE
  2
chain_double_dash
 70
   64
  3
------------ -- -- -------------
 72
   65
 73
    6
 40
23.5
 49
12
 49
-1.5
 49
3.5
 49
-1.5
 49
3.5
 49
-1.5
  0
LTYPE
  2
dashed_dotted
 70
   64
  3
-----------     -     ----------
 72
   65
 73
    4
 40
9.25
 49
6
 49
-1.5
 49
0.25
 49
-1.5
  0
LTYPE
  2
double-dashed_dotted
 70
   64
  3
------   -----------   -   -----
 72
   65
 73
    6
 40
16.75
 49
6
 49
-1.5
 49
6
 49
-1.5
 49
0.25
 49
-1.5
  0
LTYPE
  2
dashed_double-dotted
 70
   64
  3
---------    -    -    ---------
 72
   65
 73
    6
 40
11
 49
6
 49
-1.5
 49
0.25
 49
-1.5
 49
0.25
 49
-1.5
  0
LTYPE
  2
double-dashed_double-dotted
 70
   64
  3
-----   ---------   -   -   ----
 72
   65
 73
    8
 40
18.5
 49
6
 49
-1.5
 49
6
 49
-1.5
 49
0.25
 49
-1.5
 49
0.25
 49
-1.5
  0
LTYPE
  2
dashed_triplicate-dotted
 70
   64
  3
-------    -    -    -    ------
 72
   65
 73
    8
 40
12.75
 49
6
 49
-1.5
 49
0.25
 49
-1.5
 49
0.25
 49
-1.5
 49
0.25
 49
-1.5
  0
LTYPE
  2
double-dashed_triplicate-dotted
 70
   64
  3
-----  ---------  -  -  -  -----
 72
   65
 73
   10
 40
20.25
 49
6
 49
-1.5
 49
6
 49
-1.5
 49
0.25
 49
-1.5
 49
0.25
 49
-1.5
 49
0.25
 49
-1.5
  0
LTYPE
  2
undefined
 70
   64
  3
--------------------------------
 72
   65
 73
    0
 40
0
  0
ENDTAB
  0
TABLE
  2
STYLE
  5
3
100
AcDbSymbolTable
 70
     1
  0
STYLE
  5
10
100
AcDbSymbolTableRecord
100
AcDbTextStyleTableRecord
  2
STANDARD
 70
     0
 40
0.0
 41
1.0
 50
0.0
 71
     0
 42
0.2
  3
txt
  4
bigfont.shx
  0
STYLE
  5
26
100
AcDbSymbolTableRecord
100
AcDbTextStyleTableRecord
  2
TATEGAKI
 70
    68
 40
0.0
 41
1.0
 50
0.0
 71
     0
 42
1.0
  3
txt
  4
bigfont.shx
  0
ENDTAB
  0
TABLE
  2
LAYER
 70
   10
  0
LAYER
  2
_0-0_計極細
 70
   64
 62
    7
  6
CONTINUOUS
  0
LAYER
  2
_0-1_計細線
 70
   64
 62
    7
  6
CONTINUOUS
  0
LAYER
  2
_0-5_寸法線
 70
   64
 62
    7
  6
CONTINUOUS
  0
LAYER
  2
_0-7_枠細線
 70
   64
 62
    7
  6
CONTINUOUS
  0
LAYER
  2
_0-8_枠中線
 70
   64
 62
    7
  6
CONTINUOUS
  0
LAYER
  2
_0-9_枠極太
 70
   64
 62
    7
  6
CONTINUOUS
  0
LAYER
  2
_0-a_極細3
 70
   64
 62
    7
  6
CONTINUOUS
  0
LAYER
  2
_0-b_細線3
 70
   64
 62
    7
  6
CONTINUOUS
  0
LAYER
  2
_0-d_寸法3
 70
   64
 62
    7
  6
CONTINUOUS
  0
LAYER
  2
ADD_LINE
 70
   64
 62
    7
  6
CONTINUOUS
  0
ENDTAB
  0
ENDSEC
  0
SECTION
  2
BLOCKS
  0
ENDSEC
  0
SECTION
  2
ENTITIES
  0
LINE
  8
_0-7_枠細線
  6
CONTINUOUS
 62
    5
 10
1425
 20
942.5
 11
890
 21
942.5
  0
TEXT
  8
_0-7_枠細線
 62
    5
 10
895
 20
945
 40
12.5
 41
1
 50
0
  1
記号
  0
TEXT
  8
_0-7_枠細線
 62
    5
 10
996.875
 20
945
 40
12.5
 41
1
 50
0
  1
訂　 正　 記　 事
  0
TEXT
  8
_0-7_枠細線
 62
    5
 10
1181.25
 20
945
 40
12.5
 41
1
 50
0
  1
訂 正 年 月 日
  0
TEXT
  8
_0-7_枠細線
 62
    5
 10
1306.25
 20
945
 40
12.5
 41
1
 50
0
  1
備　　　　　考
  0
LINE
  8
_0-7_枠細線
  6
CONTINUOUS
 62
    5
 10
1185
 20
180
 11
1185
 21
100
  0
TEXT
  8
_0-7_枠細線
 62
    5
 10
937.5
 20
97.5
 40
17.5
 41
1
 50
0
  1
備考
  7
TATEGAKI
  0
TEXT
  8
_0-7_枠細線
 62
    5
 10
937.5
 20
137.5
 40
17.5
 41
1
 50
0
  1
品番
  7
TATEGAKI
  0
TEXT
  8
_0-7_枠細線
 62
    5
 10
937.5
 20
177.5
 40
17.5
 41
1
 50
0
  1
品名
  7
TATEGAKI
  0
LINE
  8
_0-7_枠細線
  6
CONTINUOUS
 62
    5
 10
1185
 20
140
 11
925
 21
140
  0
LINE
  8
_0-7_枠細線
  6
CONTINUOUS
 62
    5
 10
950
 20
180
 11
950
 21
60
  0
LINE
  8
_0-8_枠中線
  6
CONTINUOUS
 62
    5
 10
1425
 20
180
 11
925
 21
180
  0
LINE
  8
_0-8_枠中線
  6
CONTINUOUS
 62
    5
 10
925
 20
180
 11
925
 21
60
  0
LINE
  8
_0-7_枠細線
  6
CONTINUOUS
 62
    5
 10
1245
 20
180
 11
1245
 21
60
  0
TEXT
  8
_0-7_枠細線
 62
    5
 10
1192.5
 20
160
 40
15
 41
1
 50
0
  1
縮　尺
  0
TEXT
  8
_0-7_枠細線
 62
    5
 10
1194
 20
117.5
 40
20
 41
0.7000000000000001
 50
0
  1
１：５
  0
LINE
  8
_0-7_枠細線
  6
CONTINUOUS
 62
    5
 10
1185
 20
155
 11
1245
 21
155
  0
LINE
  8
_0-7_枠細線
  6
CONTINUOUS
 62
    5
 10
1245
 20
100
 11
925
 21
100
  0
LINE
  8
_0-7_枠細線
  6
CONTINUOUS
 62
    5
 10
1425
 20
90
 11
1245
 21
90
  0
LINE
  8
_0-7_枠細線
  6
CONTINUOUS
 62
    5
 10
1245
 20
120
 11
1425
 21
120
  0
LINE
  8
_0-7_枠細線
  6
CONTINUOUS
 62
    5
 10
1425
 20
140
 11
1245
 21
140
  0
TEXT
  8
_0-7_枠細線
 62
    5
 10
1255
 20
147.5
 40
25
 41
0.8
 50
0
  1
株式会社シマブン
  0
TEXT
  8
_0-7_枠細線
 62
    5
 10
1252.5
 20
60
 40
15
 41
1
 50
0
  1
年月日
  0
TEXT
  8
_0-7_枠細線
 62
    5
 10
1252.5
 20
75
 40
15
 41
1
 50
0
  1
作　成
  0
TEXT
  8
_0-7_枠細線
 62
    5
 10
1256.25
 20
122.5
 40
15
 41
1
 50
0
  1
承 認
  0
LINE
  8
_0-7_枠細線
  6
CONTINUOUS
 62
    5
 10
1305
 20
140
 11
1305
 21
60
  0
TEXT
  8
_0-7_枠細線
 62
    5
 10
1316.25
 20
122.5
 40
15
 41
1
 50
0
  1
検 図
  0
LINE
  8
_0-7_枠細線
  6
CONTINUOUS
 62
    5
 10
1365
 20
140
 11
1365
 21
90
  0
TEXT
  8
_0-7_枠細線
 62
    5
 10
1375
 20
95
 40
20
 41
1
 50
0
  1
藤戸
  0
TEXT
  8
_0-7_枠細線
 62
    5
 10
1376.25
 20
122.5
 40
15
 41
1
 50
0
  1
設 計
  0
TEXT
  8
_0-7_枠細線
 62
    5
 10
1310
 20
67.5
 40
15
 41
0.6666666666666666
 50
0
  1
２０１１年０７月０４日
  0
TEXT
  8
_0-7_枠細線
 62
    5
 10
1255
 20
95
 40
20
 41
1
 50
0
  1
隠塚
  0
TEXT
  8
_0-7_枠細線
 62
    5
 10
1315
 20
95
 40
20
 41
1
 50
0
  1
渋田
  0
LINE
  8
_0-7_枠細線
  6
CONTINUOUS
 62
    5
 10
1425
 20
925
 11
890
 21
925
  0
TEXT
  8
_0-7_枠細線
 62
    5
 10
938.85037037037023
 20
927.5
 40
12.500000000000002
 41
1
 50
0
  1
品番変更
  0
TEXT
  8
_0-7_枠細線
 62
    5
 10
1180
 20
927.5
 40
12.5
 41
0.7199999999999999
 50
0
  1
２０１５．０４．０１
  0
ARC
  8
_0-b_細線3
  6
CONTINUOUS
 62
    7
 10
1009.0525108742037
 20
284.13755046903907
 40
14.236111111107119
 50
245.81048584600546
 51
294.1895141539955
  0
ARC
  8
_0-b_細線3
  6
CONTINUOUS
 62
    7
 10
1009.0525108742037
 20
275.66532824682463
 40
14.236111111107119
 50
65.810485846004127
 51
114.18951415399421
  0
ARC
  8
_0-b_細線3
  6
CONTINUOUS
 62
    7
 10
992.38584420753727
 20
284.13755046903907
 40
14.236111111107119
 50
245.81048584600546
 51
294.18951415399385
  0
ARC
  8
_0-b_細線3
  6
CONTINUOUS
 62
    7
 10
992.38584420753727
 20
275.66532824682463
 40
14.236111111107119
 50
65.810485846005804
 51
114.18951415399421
  0
ARC
  8
_0-b_細線3
  6
CONTINUOUS
 62
    7
 10
975.71917754087065
 20
284.13755046903907
 40
14.236111111107119
 50
245.81048584600376
 51
294.18951415399385
  0
ARC
  8
_0-b_細線3
  6
CONTINUOUS
 62
    7
 10
975.71917754087065
 20
275.66532824682463
 40
14.236111111107119
 50
65.810485846005804
 51
114.18951415399587
  0
ARC
  8
_0-b_細線3
  6
CONTINUOUS
 62
    7
 10
959.05251087420368
 20
284.13755046903907
 40
14.236111111107119
 50
245.81048584600546
 51
294.1895141539955
  0
ARC
  8
_0-b_細線3
  6
CONTINUOUS
 62
    7
 10
959.05251087420368
 20
275.66532824682463
 40
14.236111111107119
 50
65.810485846004127
 51
114.18951415399421
  0
ARC
  8
_0-b_細線3
  6
CONTINUOUS
 62
    7
 10
942.38584420753727
 20
284.13755046903907
 40
14.236111111107119
 50
245.81048584600546
 51
294.18951415399385
  0
ARC
  8
_0-b_細線3
  6
CONTINUOUS
 62
    7
 10
942.38584420753727
 20
275.66532824682463
 40
14.236111111107119
 50
65.810485846005804
 51
114.18951415399421
  0
ARC
  8
_0-b_細線3
  6
CONTINUOUS
 62
    7
 10
925.71917754087065
 20
284.13755046903907
 40
14.236111111107119
 50
245.81048584600376
 51
294.18951415399385
  0
ARC
  8
_0-b_細線3
  6
CONTINUOUS
 62
    7
 10
925.71917754087065
 20
275.66532824682463
 40
14.236111111107119
 50
65.810485846005804
 51
114.18951415399587
  0
LINE
  8
_0-d_寸法3
  6
CONTINUOUS
 62
    7
 10
967.38584420753955
 20
303.23477269126784
 11
967.38584420753955
 21
350.47204545040768
  0
LINE
  8
_0-d_寸法3
  6
CONTINUOUS
 62
    7
 10
967.38584420753955
 20
345.47204545040768
 11
977.04510247043015
 21
348.06023590143292
  0
LINE
  8
_0-d_寸法3
  6
CONTINUOUS
 62
    7
 10
967.38584420753955
 20
345.47204545040768
 11
977.04510247043015
 21
342.88385499938249
  0
LINE
  8
_0-d_寸法3
  6
CONTINUOUS
 62
    7
 10
984.05251087420595
 20
303.23477269126533
 11
984.05251087420595
 21
350.47204545040768
  0
LINE
  8
_0-d_寸法3
  6
CONTINUOUS
 62
    7
 10
984.05251087420595
 20
345.47204545040768
 11
974.39325261131535
 21
342.88385499938249
  0
LINE
  8
_0-d_寸法3
  6
CONTINUOUS
 62
    7
 10
984.05251087420595
 20
345.47204545040768
 11
974.39325261131535
 21
348.06023590143292
  0
LINE
  8
_0-d_寸法3
  6
CONTINUOUS
 62
    7
 10
967.38584420753955
 20
345.47204545040768
 11
984.05251087420595
 21
345.47204545040768
  0
TEXT
  8
_0-d_寸法3
 62
    7
 10
968.21917754087292
 20
345.47204545040768
 40
15
 41
1
 50
0
  1
10
  0
LINE
  8
_0-d_寸法3
  6
CONTINUOUS
 62
    7
 10
984.05251087420595
 20
345.47204545040768
 11
993.71176913709678
 21
348.06023590143286
  0
LINE
  8
_0-d_寸法3
  6
CONTINUOUS
 62
    7
 10
984.05251087420595
 20
345.47204545040768
 11
993.71176913709678
 21
342.88385499938244
  0
LINE
  8
_0-d_寸法3
  6
CONTINUOUS
 62
    7
 10
1000.7191775408729
 20
303.23477269126533
 11
1000.7191775408729
 21
350.47204545040768
  0
LINE
  8
_0-d_寸法3
  6
CONTINUOUS
 62
    7
 10
1000.7191775408729
 20
345.47204545040768
 11
991.05991927798232
 21
342.88385499938249
  0
LINE
  8
_0-d_寸法3
  6
CONTINUOUS
 62
    7
 10
1000.7191775408729
 20
345.47204545040768
 11
991.05991927798232
 21
348.06023590143292
  0
LINE
  8
_0-d_寸法3
  6
CONTINUOUS
 62
    7
 10
984.05251087420595
 20
345.47204545040768
 11
1000.7191775408729
 21
345.47204545040768
  0
TEXT
  8
_0-d_寸法3
 62
    7
 10
984.88584420754
 20
345.47204545040768
 40
15
 41
1
 50
0
  1
10
  0
LINE
  8
_0-d_寸法3
  6
CONTINUOUS
 62
    7
 10
919.88584420753909
 20
303.23477269126784
 11
919.88584420753909
 21
350.47204545040768
  0
LINE
  8
_0-d_寸法3
  6
CONTINUOUS
 62
    7
 10
919.88584420753909
 20
345.47204545040768
 11
910.22658594464826
 21
342.88385499938249
  0
LINE
  8
_0-d_寸法3
  6
CONTINUOUS
 62
    7
 10
919.88584420753909
 20
345.47204545040768
 11
910.22658594464826
 21
348.06023590143292
  0
LINE
  8
_0-d_寸法3
  6
CONTINUOUS
 62
    7
 10
931.55251087420595
 20
303.23477269126784
 11
931.55251087420595
 21
350.47204545040768
  0
CIRCLE
  8
_0-d_寸法3
  6
CONTINUOUS
 62
    1
 10
931.55251087420595
 20
345.47204545040768
 40
1.5000000000000002
  0
LINE
  8
_0-d_寸法3
  6
CONTINUOUS
 62
    7
 10
894.88584420753909
 20
345.47204545040768
 11
931.55251087420595
 21
345.47204545040768
  0
TEXT
  8
_0-d_寸法3
 62
    7
 10
904.7866905793536
 20
345.47204545040768
 40
15
 41
1
 50
0
  1
7
  0
LINE
  8
_0-d_寸法3
  6
CONTINUOUS
 62
    7
 10
936.55251087420595
 20
303.23477269126533
 11
936.55251087420595
 21
350.47204545040768
  0
LINE
  8
_0-d_寸法3
  6
CONTINUOUS
 62
    7
 10
936.55251087420595
 20
345.47204545040768
 11
946.21176913709678
 21
348.06023590143286
  0
LINE
  8
_0-d_寸法3
  6
CONTINUOUS
 62
    7
 10
936.55251087420595
 20
345.47204545040768
 11
946.21176913709678
 21
342.88385499938244
  0
LINE
  8
_0-d_寸法3
  6
CONTINUOUS
 62
    7
 10
931.55251087420595
 20
345.47204545040768
 11
961.55251087420595
 21
345.47204545040768
  0
TEXT
  8
_0-d_寸法3
 62
    7
 10
938.11936547647224
 20
345.47204545040768
 40
15
 41
1
 50
0
  1
3
  0
ARC
  8
_0-b_細線3
  6
CONTINUOUS
 62
    7
 10
909.05251087420424
 20
284.13755046903907
 40
14.236111111107119
 50
245.81048584600376
 51
294.18951415399385
  0
ARC
  8
_0-b_細線3
  6
CONTINUOUS
 62
    7
 10
909.05251087420424
 20
275.66532824682463
 40
14.236111111107119
 50
65.810485846005804
 51
114.18951415399587
  0
LINE
  8
_0-b_細線3
  6
CONTINUOUS
 62
    7
 10
893.05868383491827
 20
293.23477269126784
 11
1021.7886832916972
 21
293.23477269126784
  0
LINE
  8
_0-a_極細3
  6
CENTER1
 62
    7
 10
1030.1999182816112
 20
279.90143935793162
 11
885.38345737626719
 21
279.90143935793162
  0
LINE
  8
_0-b_細線3
  6
CONTINUOUS
 62
    7
 10
1019.8858442075395
 20
293.23477269126533
 11
1014.8858442075395
 21
293.23477269126533
  0
LINE
  8
_0-b_細線3
  6
CONTINUOUS
 62
    7
 10
1014.8858442075395
 20
293.23477269126533
 11
1014.8858442075395
 21
268.23477269126533
  0
LINE
  8
_0-b_細線3
  6
CONTINUOUS
 62
    7
 10
1014.8858442075395
 20
268.23477269126533
 11
1019.8858442075395
 21
268.23477269126533
  0
LINE
  8
_0-b_細線3
  6
CONTINUOUS
 62
    7
 10
1019.8858442075395
 20
268.23477269126533
 11
1019.8858442075395
 21
293.23477269126533
  0
LINE
  8
_0-b_細線3
  6
CONTINUOUS
 62
    7
 10
1003.2191775408729
 20
293.23477269126533
 11
998.21917754087292
 21
293.23477269126533
  0
LINE
  8
_0-b_細線3
  6
CONTINUOUS
 62
    7
 10
998.21917754087292
 20
293.23477269126533
 11
998.21917754087292
 21
268.23477269126533
  0
LINE
  8
_0-b_細線3
  6
CONTINUOUS
 62
    7
 10
998.21917754087292
 20
268.23477269126533
 11
1003.2191775408729
 21
268.23477269126533
  0
LINE
  8
_0-b_細線3
  6
CONTINUOUS
 62
    7
 10
1003.2191775408729
 20
268.23477269126533
 11
1003.2191775408729
 21
293.23477269126533
  0
LINE
  8
_0-b_細線3
  6
CONTINUOUS
 62
    7
 10
986.55251087420595
 20
293.23477269126533
 11
981.55251087420595
 21
293.23477269126533
  0
LINE
  8
_0-b_細線3
  6
CONTINUOUS
 62
    7
 10
981.55251087420595
 20
293.23477269126533
 11
981.55251087420595
 21
268.23477269126533
  0
LINE
  8
_0-b_細線3
  6
CONTINUOUS
 62
    7
 10
981.55251087420595
 20
268.23477269126533
 11
986.55251087420595
 21
268.23477269126533
  0
LINE
  8
_0-b_細線3
  6
CONTINUOUS
 62
    7
 10
986.55251087420595
 20
268.23477269126533
 11
986.55251087420595
 21
293.23477269126533
  0
LINE
  8
_0-b_細線3
  6
CONTINUOUS
 62
    7
 10
969.88584420753955
 20
293.23477269126533
 11
964.88584420753955
 21
293.23477269126533
  0
LINE
  8
_0-b_細線3
  6
CONTINUOUS
 62
    7
 10
964.88584420753955
 20
293.23477269126533
 11
964.88584420753955
 21
268.23477269126533
  0
LINE
  8
_0-b_細線3
  6
CONTINUOUS
 62
    7
 10
964.88584420753955
 20
268.23477269126533
 11
969.88584420753955
 21
268.23477269126533
  0
LINE
  8
_0-b_細線3
  6
CONTINUOUS
 62
    7
 10
969.88584420753955
 20
268.23477269126533
 11
969.88584420753955
 21
293.23477269126533
  0
LINE
  8
_0-b_細線3
  6
CONTINUOUS
 62
    7
 10
953.21917754087292
 20
293.23477269126533
 11
948.21917754087292
 21
293.23477269126533
  0
LINE
  8
_0-b_細線3
  6
CONTINUOUS
 62
    7
 10
948.21917754087292
 20
293.23477269126533
 11
948.21917754087292
 21
268.23477269126533
  0
LINE
  8
_0-b_細線3
  6
CONTINUOUS
 62
    7
 10
948.21917754087292
 20
268.23477269126533
 11
953.21917754087292
 21
268.23477269126533
  0
LINE
  8
_0-b_細線3
  6
CONTINUOUS
 62
    7
 10
953.21917754087292
 20
268.23477269126533
 11
953.21917754087292
 21
293.23477269126533
  0
LINE
  8
_0-b_細線3
  6
CONTINUOUS
 62
    7
 10
936.55251087420595
 20
293.23477269126533
 11
931.55251087420595
 21
293.23477269126533
  0
LINE
  8
_0-b_細線3
  6
CONTINUOUS
 62
    7
 10
931.55251087420595
 20
293.23477269126533
 11
931.55251087420595
 21
268.23477269126533
  0
LINE
  8
_0-b_細線3
  6
CONTINUOUS
 62
    7
 10
931.55251087420595
 20
268.23477269126533
 11
936.55251087420595
 21
268.23477269126533
  0
LINE
  8
_0-b_細線3
  6
CONTINUOUS
 62
    7
 10
936.55251087420595
 20
268.23477269126533
 11
936.55251087420595
 21
293.23477269126533
  0
LINE
  8
_0-b_細線3
  6
CONTINUOUS
 62
    7
 10
919.88584420753955
 20
293.23477269126533
 11
914.88584420753955
 21
293.23477269126533
  0
LINE
  8
_0-b_細線3
  6
CONTINUOUS
 62
    7
 10
914.88584420753955
 20
293.23477269126533
 11
914.88584420753955
 21
268.23477269126533
  0
LINE
  8
_0-b_細線3
  6
CONTINUOUS
 62
    7
 10
914.88584420753955
 20
268.23477269126533
 11
919.88584420753955
 21
268.23477269126533
  0
LINE
  8
_0-b_細線3
  6
CONTINUOUS
 62
    7
 10
919.88584420753955
 20
268.23477269126533
 11
919.88584420753955
 21
293.23477269126533
  0
LINE
  8
_0-b_細線3
  6
CONTINUOUS
 62
    7
 10
903.21917754087292
 20
293.23477269126533
 11
898.21917754087292
 21
293.23477269126533
  0
LINE
  8
_0-b_細線3
  6
CONTINUOUS
 62
    7
 10
898.21917754087292
 20
293.23477269126533
 11
898.21917754087292
 21
268.23477269126533
  0
LINE
  8
_0-b_細線3
  6
CONTINUOUS
 62
    7
 10
898.21917754087292
 20
268.23477269126533
 11
903.21917754087292
 21
268.23477269126533
  0
LINE
  8
_0-b_細線3
  6
CONTINUOUS
 62
    7
 10
903.21917754087292
 20
268.23477269126533
 11
903.21917754087292
 21
293.23477269126533
  0
LINE
  8
_0-b_細線3
  6
CONTINUOUS
 62
    7
 10
896.64232283795639
 20
268.23477269126533
 11
1025.372322294736
 21
268.23477269126533
  0
LINE
  8
_0-d_寸法3
  6
CONTINUOUS
 62
    7
 10
1035.3723222947356
 20
268.23477269126522
 11
1072.4585240897909
 21
268.23477269126488
  0
LINE
  8
_0-d_寸法3
  6
CONTINUOUS
 62
    7
 10
1067.4585240897909
 20
268.23477269126488
 11
1064.8703336387657
 21
277.89403095415554
  0
LINE
  8
_0-d_寸法3
  6
CONTINUOUS
 62
    7
 10
1067.4585240897909
 20
268.23477269126488
 11
1070.0467145408161
 21
277.89403095415554
  0
LINE
  8
_0-d_寸法3
  6
CONTINUOUS
 62
    7
 10
1031.7886832916975
 20
293.23477269126772
 11
1072.4585240897909
 21
293.23477269126732
  0
LINE
  8
_0-d_寸法3
  6
CONTINUOUS
 62
    7
 10
1067.4585240897909
 20
293.23477269126738
 11
1070.0467145408161
 21
283.57551442837678
  0
LINE
  8
_0-d_寸法3
  6
CONTINUOUS
 62
    7
 10
1067.4585240897909
 20
293.23477269126738
 11
1064.8703336387657
 21
283.57551442837678
  0
LINE
  8
_0-d_寸法3
  6
CONTINUOUS
 62
    7
 10
1067.4585240897909
 20
268.23477269126488
 11
1067.4585240897909
 21
293.23477269126738
  0
TEXT
  8
_0-d_寸法3
 62
    7
 10
1067.4585240897909
 20
273.23477269126624
 40
15
 41
1
 50
90
  1
15
  0
ARC
  8
_0-a_極細3
  6
CONTINUOUS
 62
    7
 10
915.67155211264264
 20
290.11918262666268
 40
22.826491478025751
 50
150.03871396148165
 51
205.23810402387943
  0
ARC
  8
_0-a_極細3
  6
CONTINUOUS
 62
    7
 10
874.37643436577503
 20
270.65362065024283
 40
22.826491478025751
 50
330.03871396148242
 51
25.238104023877408
  0
ARC
  8
_0-a_極細3
  6
CONTINUOUS
 62
    7
 10
1044.1624459785362
 20
289.24615131916562
 40
22.826491478025751
 50
150.0387139614823
 51
205.23810402387804
  0
ARC
  8
_0-a_極細3
  6
CONTINUOUS
 62
    7
 10
1002.8673282316687
 20
269.78058934274577
 40
22.826491478025751
 50
330.03871396148179
 51
25.238104023878375
  0
TEXT
  8
_0-7_枠細線
 62
    5
 10
908.61220398644207
 20
221.73388393903582
 40
25
 41
0.8
 50
0
  1
側面詳細図
  0
TEXT
  8
_0-7_枠細線
 62
    5
 10
974.01084011216926
 20
196.14641657611145
 40
20
 41
0.6
 50
0
  1
Ｓ＝１：３
  0
TEXT
  8
_0-7_枠細線
 62
    5
 10
965.50000000000011
 20
150
 40
20
 41
0.5
 50
0
  1
Ｆバー ステンレスグレーチング Ｈ１５タイプ
  0
ARC
  8
_0-b_細線3
  6
CONTINUOUS
 62
    7
 10
470.43065976981205
 20
279.9014393579339
 40
8.75
 50
294.03943363457506
 51
65.960566365424228
  0
ARC
  8
_0-b_細線3
  6
CONTINUOUS
 62
    7
 10
470.43065976981205
 20
279.9014393579339
 40
8.75
 50
114.03943363457542
 51
245.96056636541877
  0
ARC
  8
_0-b_細線3
  6
CONTINUOUS
 62
    7
 10
470.43065976980472
 20
274.06810602454311
 40
2.4999999999928004
 50
179.99999999999983
 51
359.99999999999966
  0
LINE
  8
_0-b_細線3
  6
CONTINUOUS
 62
    7
 10
467.93065976981205
 20
285.73477269126738
 11
467.93065976981205
 21
274.06810602460064
  0
ARC
  8
_0-b_細線3
  6
CONTINUOUS
 62
    7
 10
470.43065976980472
 20
285.73477269133923
 40
2.5000000000072005
 50
0
 51
179.99999999999983
  0
LINE
  8
_0-b_細線3
  6
CONTINUOUS
 62
    7
 10
472.93065976981205
 20
274.06810602460064
 11
472.93065976981205
 21
285.73477269126738
  0
ARC
  8
_0-b_細線3
  6
CONTINUOUS
 62
    7
 10
470.43065976981751
 20
274.06810602458177
 40
4.1666666666723522
 50
179.99999999999983
 51
359.99999999999966
  0
LINE
  8
_0-b_細線3
  6
CONTINUOUS
 62
    7
 10
466.26399310314594
 20
285.73477269126738
 11
466.26399310314594
 21
274.06810602460064
  0
ARC
  8
_0-b_細線3
  6
CONTINUOUS
 62
    7
 10
470.43065976977925
 20
285.73477269136515
 40
4.1666666667000154
 50
0
 51
179.99999999999983
  0
LINE
  8
_0-b_細線3
  6
CONTINUOUS
 62
    7
 10
474.59732643647897
 20
274.06810602460064
 11
474.59732643647897
 21
285.73477269126738
  0
CIRCLE
  8
_0-a_極細3
  6
CONTINUOUS
 62
    7
 10
282.04756589996322
 20
278.19373866348315
 40
0.5530864197530718
  0
LINE
  8
_0-a_極細3
  6
CONTINUOUS
 62
    7
 10
287.09732643647897
 20
293.23477269126784
 11
287.09732643647897
 21
281.56810602460087
  0
LINE
  8
_0-a_極細3
  6
CONTINUOUS
 62
    7
 10
287.09732643647897
 20
293.23477269126784
 11
197.91957929136436
 21
293.23477269126784
  0
LINE
  8
_0-a_極細3
  6
CONTINUOUS
 62
    7
 10
295.43065976981245
 20
281.56810602460087
 11
197.91957929136436
 21
281.56810602460087
  0
LINE
  8
_0-a_極細3
  6
CONTINUOUS
 62
    7
 10
295.43065976981245
 20
293.23477269126784
 11
287.09732643647897
 21
293.23477269126784
  0
LINE
  8
_0-a_極細3
  6
CONTINUOUS
 62
    7
 10
295.43065976981245
 20
292.40143935793435
 11
295.43065976981245
 21
293.23477269126784
  0
LINE
  8
_0-a_極細3
  6
CONTINUOUS
 62
    7
 10
295.23256951345286
 20
281.56810602460087
 11
295.430659769812
 21
281.76619628096046
  0
LINE
  8
_0-a_極細3
  6
CONTINUOUS
 62
    7
 10
290.98992882633382
 20
281.56810602460087
 11
295.43065976981245
 21
286.00883696807955
  0
LINE
  8
_0-a_極細3
  6
CONTINUOUS
 62
    7
 10
287.09732643647897
 20
281.91814432186561
 11
295.43065976981245
 21
290.25147765519887
  0
LINE
  8
_0-a_極細3
  6
CONTINUOUS
 62
    7
 10
287.09732643647897
 20
286.1607850089847
 11
294.1713141187617
 21
293.23477269126784
  0
LINE
  8
_0-a_極細3
  6
CONTINUOUS
 62
    7
 10
287.09732643647897
 20
290.40342569610425
 11
289.92867343164255
 21
293.23477269126784
  0
LINE
  8
_0-a_極細3
  6
CONTINUOUS
 62
    7
 10
295.43065976981245
 20
290.95380581900918
 11
293.14969289755402
 21
293.23477269126784
  0
LINE
  8
_0-a_極細3
  6
CONTINUOUS
 62
    7
 10
295.43065976981245
 20
286.71116513188986
 11
288.90705221043447
 21
293.23477269126784
  0
LINE
  8
_0-a_極細3
  6
CONTINUOUS
 62
    7
 10
287.09732643647897
 20
290.80185777810402
 11
295.43065976981245
 21
282.46852444477076
  0
LINE
  8
_0-a_極細3
  6
CONTINUOUS
 62
    7
 10
287.09732643647897
 20
286.5592170909847
 11
292.08843750286235
 21
281.56810602460087
  0
LINE
  8
_0-a_極細3
  6
CONTINUOUS
 62
    7
 10
287.09732643647897
 20
282.31657640386538
 11
287.84579681574326
 21
281.56810602460087
  0
LINE
  8
_0-a_極細3
  6
CONTINUOUS
 62
    7
 10
278.26200675884832
 20
281.5681060184736
 11
287.09732643647897
 21
290.40342569610425
  0
LINE
  8
_0-a_極細3
  6
CONTINUOUS
 62
    7
 10
257.04880330854087
 20
281.56810600376252
 11
268.71546999604618
 21
293.23477269126761
  0
LINE
  8
_0-a_極細3
  6
CONTINUOUS
 62
    7
 10
235.835599858233
 20
281.56810598905099
 11
247.50226656044936
 21
293.23477269126784
  0
LINE
  8
_0-a_極細3
  6
CONTINUOUS
 62
    7
 10
214.62239640792504
 20
281.56810597433991
 11
226.28906312485299
 21
293.23477269126784
  0
LINE
  8
_0-a_極細3
  6
CONTINUOUS
 62
    7
 10
197.91957929136436
 20
286.07849229337512
 11
205.07585968925667
 21
293.23477269126761
  0
LINE
  8
_0-a_極細3
  6
DASHED2
 62
    7
 10
267.65540503369465
 20
281.56810601111806
 11
279.32207171384437
 21
293.23477269126784
  0
LINE
  8
_0-a_極細3
  6
DASHED2
 62
    7
 10
246.44220158338669
 20
281.56810599640676
 11
258.108868278248
 21
293.23477269126784
  0
LINE
  8
_0-a_極細3
  6
DASHED2
 62
    7
 10
225.2289981330793
 20
281.56810598169545
 11
236.89566484265114
 21
293.23477269126784
  0
LINE
  8
_0-a_極細3
  6
DASHED2
 62
    7
 10
204.01579468277134
 20
281.56810596698438
 11
215.68246140705483
 21
293.23477269126784
  0
CIRCLE
  8
_0-a_極細3
  6
CONTINUOUS
 62
    7
 10
717.42534367773726
 20
278.50022014496449
 40
0.5530864197530718
  0
CIRCLE
  8
_0-a_極細3
  6
CONTINUOUS
 62
    7
 10
665.42534367773771
 20
279.43355347829788
 40
0.5530864197530718
  0
LINE
  8
_0-a_極細3
  6
CONTINUOUS
 62
    7
 10
653.76399310314559
 20
293.23477269126784
 11
653.76399310314559
 21
281.56810602460087
  0
LINE
  8
_0-a_極細3
  6
CONTINUOUS
 62
    7
 10
653.76399310314559
 20
293.23477269126784
 11
742.94174024826009
 21
293.23477269126784
  0
LINE
  8
_0-a_極細3
  6
CONTINUOUS
 62
    7
 10
645.430659769812
 20
281.56810602460087
 11
742.94174024826009
 21
281.56810602460087
  0
LINE
  8
_0-a_極細3
  6
CONTINUOUS
 62
    7
 10
645.430659769812
 20
293.23477269126784
 11
653.76399310314559
 21
293.23477269126784
  0
LINE
  8
_0-a_極細3
  6
CONTINUOUS
 62
    7
 10
645.430659769812
 20
292.40143935793435
 11
645.430659769812
 21
293.23477269126784
  0
LINE
  8
_0-a_極細3
  6
CONTINUOUS
 62
    7
 10
653.76399310314559
 20
285.23719230532583
 11
650.09490682242063
 21
281.56810602460087
  0
LINE
  8
_0-a_極細3
  6
CONTINUOUS
 62
    7
 10
653.76399310314559
 20
289.47983299244493
 11
645.85226613530142
 21
281.56810602460087
  0
LINE
  8
_0-a_極細3
  6
CONTINUOUS
 62
    7
 10
645.430659769812
 20
285.38914034623099
 11
653.27629211484896
 21
293.23477269126784
  0
LINE
  8
_0-a_極細3
  6
CONTINUOUS
 62
    7
 10
645.430659769812
 20
289.63178103335031
 11
649.0336514277293
 21
293.23477269126761
  0
LINE
  8
_0-a_極細3
  6
CONTINUOUS
 62
    7
 10
653.76399310314559
 20
291.72545048176221
 11
652.25467089363985
 21
293.23477269126784
  0
LINE
  8
_0-a_極細3
  6
CONTINUOUS
 62
    7
 10
653.76399310314559
 20
287.48280979464289
 11
648.01203020652088
 21
293.23477269126784
  0
LINE
  8
_0-a_極細3
  6
CONTINUOUS
 62
    7
 10
653.76399310314559
 20
283.24016910752357
 11
645.430659769812
 21
291.57350244085706
  0
LINE
  8
_0-a_極細3
  6
CONTINUOUS
 62
    7
 10
651.19341549894875
 20
281.56810602460087
 11
645.430659769812
 21
287.33086175373774
  0
LINE
  8
_0-a_極細3
  6
CONTINUOUS
 62
    7
 10
646.95077481182966
 20
281.56810602460087
 11
645.430659769812
 21
283.08822106661842
  0
LINE
  8
_0-a_極細3
  6
CONTINUOUS
 62
    7
 10
722.21979850344826
 20
281.56810602460087
 11
733.88646454332604
 21
293.23477206447865
  0
LINE
  8
_0-a_極細3
  6
CONTINUOUS
 62
    7
 10
701.00659506785189
 20
281.56810602460109
 11
712.67326127367835
 21
293.23477223042732
  0
LINE
  8
_0-a_極細3
  6
CONTINUOUS
 62
    7
 10
679.79339163225563
 20
281.56810602460087
 11
691.4600580040302
 21
293.23477239637555
  0
LINE
  8
_0-a_極細3
  6
CONTINUOUS
 62
    7
 10
658.58018819665915
 20
281.56810602460087
 11
670.24685473438251
 21
293.23477256232422
  0
LINE
  8
_0-a_極細3
  6
DASHED2
 62
    7
 10
732.82640022124701
 20
281.56810602460109
 11
742.94174024826009
 21
291.68344605161451
  0
LINE
  8
_0-a_極細3
  6
DASHED2
 62
    7
 10
711.61319678565008
 20
281.56810602460087
 11
723.27986290850208
 21
293.23477214745276
  0
LINE
  8
_0-a_極細3
  6
DASHED2
 62
    7
 10
690.39999335005382
 20
281.56810602460087
 11
702.06665963885428
 21
293.23477231340144
  0
LINE
  8
_0-a_極細3
  6
DASHED2
 62
    7
 10
669.18678991445734
 20
281.56810602460087
 11
680.85345636920624
 21
293.23477247934989
  0
LINE
  8
_0-a_極細3
  6
DASHED2
 62
    7
 10
653.76399310314559
 20
287.35851264888538
 11
659.64025309955844
 21
293.23477264529834
  0
LINE
  8
_0-b_細線3
  6
CONTINUOUS
 62
    7
 10
632.09732643647897
 20
293.23477269126784
 11
308.76399310314554
 21
293.23477269126715
  0
LINE
  8
_0-a_極細3
  6
CENTER1
 62
    7
 10
648.09741483763423
 20
279.9014393579339
 11
293.77666732527189
 21
279.9014393579339
  0
LINE
  8
_0-a_極細3
  6
CENTER1
 62
    7
 10
470.43065976981245
 20
252.04894320581801
 11
470.43065976981245
 21
307.1656098724909
  0
LINE
  8
_0-d_寸法3
  6
CONTINUOUS
 62
    7
 10
462.23913932692255
 20
273.97053705477833
 11
426.88679760123705
 21
298.72451322446909
  0
LINE
  8
_0-d_寸法3
  6
CONTINUOUS
 62
    7
 10
430.98255782268205
 20
295.85663104271384
 11
428.39436737165681
 21
305.5158893056045
  0
LINE
  8
_0-d_寸法3
  6
CONTINUOUS
 62
    7
 10
430.98255782268205
 20
295.85663104271384
 11
433.57074827370724
 21
305.5158893056045
  0
LINE
  8
_0-d_寸法3
  6
CONTINUOUS
 62
    7
 10
462.23913932692255
 20
298.97053705477833
 11
426.88679760123705
 21
323.72451322446915
  0
LINE
  8
_0-d_寸法3
  6
CONTINUOUS
 62
    7
 10
430.98255782268205
 20
320.85663104271384
 11
433.57074827370724
 21
311.19737277982313
  0
LINE
  8
_0-d_寸法3
  6
CONTINUOUS
 62
    7
 10
430.98255782268205
 20
320.85663104271384
 11
428.39436737165676
 21
311.19737277982318
  0
LINE
  8
_0-d_寸法3
  6
CONTINUOUS
 62
    7
 10
430.98255782268205
 20
295.85663104271384
 11
430.98255782268205
 21
320.85663104271384
  0
TEXT
  8
_0-d_寸法3
 62
    7
 10
430.98255782268205
 20
300.85663104271362
 40
15
 41
1
 50
90
  1
15
  0
TEXT
  8
_0-7_枠細線
 62
    5
 10
420.50861213057863
 20
118.23440768958974
 40
25
 41
0.8
 50
0
  1
断面詳細図
  0
TEXT
  8
_0-7_枠細線
 62
    5
 10
535.45758187974627
 20
118.23440768958974
 40
20
 41
0.6
 50
0
  1
Ｓ＝１：３
  0
LINE
  8
_0-a_極細3
  6
CONTINUOUS
 62
    7
 10
228.76399310314554
 20
256.56810602460109
 11
228.76399310314554
 21
188.23477269126784
  0
LINE
  8
_0-a_極細3
  6
CONTINUOUS
 62
    7
 10
312.09732643647897
 20
188.23477269126784
 11
228.76399310314554
 21
188.23477269126784
  0
LINE
  8
_0-a_極細3
  6
CONTINUOUS
 62
    7
 10
228.76399310314554
 20
256.56810602460109
 11
197.91957929136436
 21
256.56810602460109
  0
LINE
  8
_0-a_極細3
  6
CONTINUOUS
 62
    7
 10
312.09732643647897
 20
188.23477269126784
 11
312.09732643647897
 21
161.99317239648877
  0
LINE
  8
_0-a_極細3
  6
CONTINUOUS
 62
    7
 10
274.67535187148917
 20
161.9931725129257
 11
300.91695204983182
 21
188.23477269126784
  0
LINE
  8
_0-a_極細3
  6
CONTINUOUS
 62
    7
 10
203.96467397284795
 20
161.99317273293877
 11
230.20627393117692
 21
188.23477269126784
  0
LINE
  8
_0-a_極細3
  6
CONTINUOUS
 62
    7
 10
197.91957929136436
 20
226.65875617011011
 11
227.8289291458556
 21
256.56810602460109
  0
LINE
  8
_0-a_極細3
  6
CONTINUOUS
 62
    7
 10
267.604284081625
 20
161.993172534927
 11
293.84588423796606
 21
188.23477269126784
  0
LINE
  8
_0-a_極細3
  6
CONTINUOUS
 62
    7
 10
197.91957929136436
 20
163.01914586332074
 11
228.76399310314554
 21
193.86355967510212
  0
LINE
  8
_0-a_極細3
  6
CONTINUOUS
 62
    7
 10
197.91957929136436
 20
233.72982398197564
 11
220.75786133398978
 21
256.56810602460109
  0
LINE
  8
_0-a_極細3
  6
CONTINUOUS
 62
    7
 10
260.53321629176128
 20
161.99317255692833
 11
286.77481642610076
 21
188.23477269126784
  0
LINE
  8
_0-a_極細3
  6
CONTINUOUS
 62
    7
 10
197.91957929136436
 20
170.09021367518628
 11
228.76399310314554
 21
200.93462748696766
  0
LINE
  8
_0-a_極細3
  6
CONTINUOUS
 62
    7
 10
197.91957929136436
 20
240.80089179384095
 11
213.68679352212453
 21
256.56810602460109
  0
CIRCLE
  8
_0-a_極細3
  6
CONTINUOUS
 62
    7
 10
215.81546713453156
 20
271.77151644126116
 40
0.5530864197530718
  0
CIRCLE
  8
_0-a_極細3
  6
CONTINUOUS
 62
    7
 10
205.48460293700117
 20
261.81596088570564
 40
0.5530864197530718
  0
CIRCLE
  8
_0-a_極細3
  6
CONTINUOUS
 62
    7
 10
216.09201034440829
 20
262.88262755237224
 40
0.5530864197530718
  0
CIRCLE
  8
_0-a_極細3
  6
CONTINUOUS
 62
    7
 10
228.71423256663064
 20
264.83818310792776
 40
0.5530864197530718
  0
CIRCLE
  8
_0-a_極細3
  6
CONTINUOUS
 62
    7
 10
257.15867701107447
 20
276.57151644126111
 40
0.5530864197530718
  0
CIRCLE
  8
_0-a_極細3
  6
CONTINUOUS
 62
    7
 10
287.73645478885203
 20
270.34929421903894
 40
0.5530864197530718
  0
CIRCLE
  8
_0-a_極細3
  6
CONTINUOUS
 62
    7
 10
262.84756589996334
 20
269.81596088570564
 40
0.5530864197530718
  0
CIRCLE
  8
_0-a_極細3
  6
CONTINUOUS
 62
    7
 10
235.65867701107493
 20
257.58262755237229
 40
0.5530864197530718
  0
CIRCLE
  8
_0-a_極細3
  6
CONTINUOUS
 62
    7
 10
256.10312145551887
 20
256.33818310792776
 40
0.5530864197530718
  0
CIRCLE
  8
_0-a_極細3
  6
CONTINUOUS
 62
    7
 10
281.16978812218548
 20
252.60484977459467
 40
0.5530864197530718
  0
CIRCLE
  8
_0-a_極細3
  6
CONTINUOUS
 62
    7
 10
268.54756589996316
 20
246.91596088570577
 40
0.5530864197530718
  0
CIRCLE
  8
_0-a_極細3
  6
CONTINUOUS
 62
    7
 10
253.79201034440811
 20
233.4048497745946
 40
0.5530864197530718
  0
CIRCLE
  8
_0-a_極細3
  6
CONTINUOUS
 62
    7
 10
281.16978812218548
 20
240.6937386634836
 40
0.5530864197530718
  0
CIRCLE
  8
_0-a_極細3
  6
CONTINUOUS
 62
    7
 10
240.05867701107462
 20
213.58262755237277
 40
0.5530864197530718
  0
CIRCLE
  8
_0-a_極細3
  6
CONTINUOUS
 62
    7
 10
234.3697881221857
 20
195.62707199681725
 40
0.5530864197530718
  0
CIRCLE
  8
_0-a_極細3
  6
CONTINUOUS
 62
    7
 10
243.08089923329689
 20
202.38262755237272
 40
0.5530864197530718
  0
CIRCLE
  8
_0-a_極細3
  6
CONTINUOUS
 62
    7
 10
249.30312145551909
 20
193.84929421903939
 40
0.5530864197530718
  0
CIRCLE
  8
_0-a_極細3
  6
CONTINUOUS
 62
    7
 10
288.60312145551887
 20
211.73818310792831
 40
0.5530864197530718
  0
CIRCLE
  8
_0-a_極細3
  6
CONTINUOUS
 62
    7
 10
277.403121455519
 20
206.22707199681713
 40
0.5530864197530718
  0
CIRCLE
  8
_0-a_極細3
  6
CONTINUOUS
 62
    7
 10
283.62534367774117
 20
203.73818310792828
 40
0.5530864197530718
  0
CIRCLE
  8
_0-a_極細3
  6
CONTINUOUS
 62
    7
 10
280.06978812218551
 20
194.49373866348401
 40
0.5530864197530718
  0
CIRCLE
  8
_0-a_極細3
  6
CONTINUOUS
 62
    7
 10
299.98089923329655
 20
195.56040533015064
 40
0.5530864197530718
  0
CIRCLE
  8
_0-a_極細3
  6
CONTINUOUS
 62
    7
 10
312.95867701107426
 20
198.76040533015072
 40
0.5530864197530718
  0
CIRCLE
  8
_0-a_極細3
  6
CONTINUOUS
 62
    7
 10
326.64756589996307
 20
183.82707199681747
 40
0.5530864197530718
  0
CIRCLE
  8
_0-a_極細3
  6
CONTINUOUS
 62
    7
 10
319.71423256662973
 20
168.89373866348407
 40
0.5530864197530718
  0
CIRCLE
  8
_0-a_極細3
  6
CONTINUOUS
 62
    7
 10
303.04756589996316
 20
212.50855347829861
 40
0.5530864197530718
  0
CIRCLE
  8
_0-a_極細3
  6
CONTINUOUS
 62
    7
 10
317.80312145551864
 20
246.64188681163182
 40
0.5530864197530718
  0
CIRCLE
  8
_0-a_極細3
  6
CONTINUOUS
 62
    7
 10
332.91423256662949
 20
236.6863312560763
 40
0.5530864197530718
  0
CIRCLE
  8
_0-a_極細3
  6
CONTINUOUS
 62
    7
 10
333.4475658999628
 20
218.73077570052078
 40
0.5530864197530718
  0
CIRCLE
  8
_0-a_極細3
  6
CONTINUOUS
 62
    7
 10
298.20312145551873
 20
248.4641090338539
 40
0.5530864197530718
  0
CIRCLE
  8
_0-a_極細3
  6
CONTINUOUS
 62
    7
 10
277.91423256662995
 20
270.44805965113778
 40
1.825531472681392
  0
CIRCLE
  8
_0-a_極細3
  6
CONTINUOUS
 62
    7
 10
226.15211286519497
 20
277.37767392583555
 40
1.825531472681392
  0
CIRCLE
  8
_0-a_極細3
  6
CONTINUOUS
 62
    7
 10
252.69201034440783
 20
247.64805965113783
 40
1.825531472681392
  0
CIRCLE
  8
_0-a_極細3
  6
CONTINUOUS
 62
    7
 10
233.0920103444079
 20
209.64805965113828
 40
1.825531472681392
  0
CIRCLE
  8
_0-a_極細3
  6
CONTINUOUS
 62
    7
 10
286.29201034440723
 20
196.84805965113853
 40
1.825531472681392
  0
CIRCLE
  8
_0-a_極細3
  6
CONTINUOUS
 62
    7
 10
322.26978812218488
 20
193.24805965113868
 40
1.825531472681392
  0
CIRCLE
  8
_0-a_極細3
  6
CONTINUOUS
 62
    7
 10
327.0697881221846
 20
174.58139298447213
 40
1.825531472681392
  0
CIRCLE
  8
_0-a_極細3
  6
CONTINUOUS
 62
    7
 10
205.95503332411553
 20
278.27028187335986
 40
1.825531472681392
  0
LINE
  8
_0-a_極細3
  6
CONTINUOUS
 62
    7
 10
344.59732643647897
 20
263.23477269126784
 11
345.43065976981245
 21
263.23477269126784
  0
LINE
  8
_0-a_極細3
  6
CONTINUOUS
 62
    7
 10
345.43065976981245
 20
263.23477269126784
 11
345.43065976981245
 21
161.99317239648877
  0
CIRCLE
  8
_0-a_極細3
  6
CONTINUOUS
 62
    7
 10
338.54322562218351
 20
247.24805965113845
 40
1.825531472681392
  0
CIRCLE
  8
_0-a_極細3
  6
CONTINUOUS
 62
    7
 10
337.55126960366636
 20
192.53818310792852
 40
0.5530864197530718
  0
CIRCLE
  8
_0-a_極細3
  6
CONTINUOUS
 62
    7
 10
338.8846029370003
 20
169.88211207475871
 40
0.5530864197530718
  0
CIRCLE
  8
_0-a_極細3
  6
CONTINUOUS
 62
    7
 10
326.51423256662531
 20
228.13694854002759
 40
1.825531472681392
  0
LINE
  8
_0-a_極細3
  6
CONTINUOUS
 62
    7
 10
251.79059154932716
 20
213.1164738537714
 11
246.66028939944198
 21
227.21186316555986
  0
LINE
  8
_0-a_極細3
  6
CONTINUOUS
 62
    7
 10
301.78463422312359
 20
247.27548386480612
 11
306.91493637300835
 21
233.18009455301763
  0
LINE
  8
_0-a_極細3
  6
CONTINUOUS
 62
    7
 10
246.66028939944198
 20
227.21186316555986
 11
301.78463422312359
 21
247.27548386480612
  0
LINE
  8
_0-a_極細3
  6
CONTINUOUS
 62
    7
 10
251.79059154932716
 20
213.1164738537714
 11
306.91493637300835
 21
233.18009455301763
  0
LINE
  8
_0-a_極細3
  6
CENTER1
 62
    7
 10
244.27000708239177
 20
218.36053846963569
 11
308.30102756495751
 21
241.66592395467117
  0
LINE
  8
_0-a_極細3
  6
CONTINUOUS
 62
    7
 10
270.43065976981245
 20
188.23477269126784
 11
270.43065976981245
 21
232.32033403958397
  0
LINE
  8
_0-a_極細3
  6
CONTINUOUS
 62
    7
 10
270.43065976981245
 20
232.32033403958397
 11
255.43065976981245
 21
232.32033403958397
  0
LINE
  8
_0-a_極細3
  6
CONTINUOUS
 62
    7
 10
255.43065976981245
 20
232.32033403958397
 11
255.43065976981245
 21
188.23477269126784
  0
CIRCLE
  8
_0-a_極細3
  6
CONTINUOUS
 62
    7
 10
284.81052886292645
 20
218.15670162644665
 40
1.825531472681392
  0
CIRCLE
  8
_0-a_極細3
  6
CONTINUOUS
 62
    7
 10
306.51917083823503
 20
224.37892384866905
 40
1.825531472681392
  0
LINE
  8
_0-a_極細3
  6
CENTER1
 62
    7
 10
262.93065976981245
 20
179.95803240681497
 11
262.93065976981245
 21
236.59605420419351
  0
LINE
  8
_0-d_寸法3
  6
CONTINUOUS
 62
    7
 10
295.43065976981245
 20
214.90143935793458
 11
295.43065976981245
 21
197.75674745702915
  0
LINE
  8
_0-d_寸法3
  6
CONTINUOUS
 62
    7
 10
295.43065976981245
 20
202.75674745702915
 11
305.08991803270311
 21
205.34493790805442
  0
LINE
  8
_0-d_寸法3
  6
CONTINUOUS
 62
    7
 10
295.43065976981245
 20
202.75674745702915
 11
305.08991803270311
 21
200.16855700600402
  0
LINE
  8
_0-d_寸法3
  6
CONTINUOUS
 62
    7
 10
345.43065976981234
 20
253.23477269126784
 11
345.43065976981177
 21
197.75674745702915
  0
LINE
  8
_0-d_寸法3
  6
CONTINUOUS
 62
    7
 10
345.43065976981177
 20
202.75674745702915
 11
335.77140150692111
 21
200.16855700600402
  0
LINE
  8
_0-d_寸法3
  6
CONTINUOUS
 62
    7
 10
345.43065976981177
 20
202.75674745702915
 11
335.77140150692111
 21
205.34493790805442
  0
LINE
  8
_0-d_寸法3
  6
CONTINUOUS
 62
    7
 10
295.43065976981245
 20
202.75674745702915
 11
345.43065976981177
 21
202.75674745702915
  0
TEXT
  8
_0-d_寸法3
 62
    7
 10
312.930659769812
 20
202.75674745702915
 40
15
 41
1
 50
0
  1
30
  0
ARC
  8
_0-b_細線3
  6
CONTINUOUS
 62
    7
 10
300.43065976981245
 20
268.23477269126784
 40
5
 50
179.99999999999983
 51
269.99999999999977
  0
LINE
  8
_0-b_細線3
  6
CONTINUOUS
 62
    7
 10
295.43065976981245
 20
268.23477269126784
 11
295.43065976981245
 21
292.40143935793435
  0
LINE
  8
_0-b_細線3
  6
CONTINUOUS
 62
    7
 10
300.43065976981245
 20
263.23477269126784
 11
344.59732643647897
 21
263.23477269126784
  0
LINE
  8
_0-b_細線3
  6
CONTINUOUS
 62
    7
 10
345.43065976981245
 20
264.06810602460109
 11
344.59732643647897
 21
263.23477269126784
  0
LINE
  8
_0-b_細線3
  6
CONTINUOUS
 62
    7
 10
345.43065976981245
 20
267.40143935793458
 11
345.43065976981245
 21
264.06810602460109
  0
LINE
  8
_0-b_細線3
  6
CONTINUOUS
 62
    7
 10
344.59732643647897
 20
268.23477269126784
 11
345.43065976981245
 21
267.40143935793458
  0
LINE
  8
_0-b_細線3
  6
CONTINUOUS
 62
    7
 10
300.43065976981245
 20
268.23477269126784
 11
344.59732643647897
 21
268.23477269126784
  0
LINE
  8
_0-b_細線3
  6
CONTINUOUS
 62
    7
 10
296.26399310314554
 20
293.23477269126784
 11
295.43065976981245
 21
292.40143935793435
  0
LINE
  8
_0-b_細線3
  6
CONTINUOUS
 62
    7
 10
299.59732643647897
 20
293.23477269126784
 11
296.26399310314554
 21
293.23477269126784
  0
LINE
  8
_0-b_細線3
  6
CONTINUOUS
 62
    7
 10
300.43065976981245
 20
292.40143935793435
 11
299.59732643647897
 21
293.23477269126784
  0
LINE
  8
_0-b_細線3
  6
CONTINUOUS
 62
    7
 10
300.43065976981245
 20
268.23477269126784
 11
300.43065976981245
 21
292.40143935793435
  0
LINE
  8
_0-b_細線3
  6
CONTINUOUS
 62
    7
 10
308.76399310314554
 20
268.23477269126738
 11
308.76399310314554
 21
293.23477269126715
  0
LINE
  8
_0-b_細線3
  6
CONTINUOUS
 62
    7
 10
308.76399310314554
 20
293.23477269126715
 11
303.76399310314554
 21
293.23477269126715
  0
LINE
  8
_0-b_細線3
  6
CONTINUOUS
 62
    7
 10
303.76399310314554
 20
293.23477269126715
 11
303.76399310314554
 21
268.23477269126738
  0
LINE
  8
_0-b_細線3
  6
CONTINUOUS
 62
    7
 10
303.76399310314554
 20
268.23477269126738
 11
308.76399310314554
 21
268.23477269126738
  0
LINE
  8
_0-a_極細3
  6
CONTINUOUS
 62
    7
 10
712.09732643647851
 20
256.56810602460109
 11
712.09732643647851
 21
188.23477269126784
  0
LINE
  8
_0-a_極細3
  6
CONTINUOUS
 62
    7
 10
628.76399310314559
 20
188.23477269126784
 11
712.09732643647851
 21
188.23477269126784
  0
LINE
  8
_0-a_極細3
  6
CONTINUOUS
 62
    7
 10
712.09732643647851
 20
256.56810602460109
 11
742.94174024826009
 21
256.56810602460109
  0
LINE
  8
_0-a_極細3
  6
CONTINUOUS
 62
    7
 10
628.76399310314559
 20
188.23477269126784
 11
628.76399310314559
 21
161.99317239648877
  0
LINE
  8
_0-a_極細3
  6
CONTINUOUS
 62
    7
 10
720.38732885107197
 20
161.99317239648877
 11
742.9417402898008
 21
184.54758383521764
  0
LINE
  8
_0-a_極細3
  6
CONTINUOUS
 62
    7
 10
649.6766507324171
 20
161.99317239648877
 11
675.91825102719599
 21
188.23477269126784
  0
LINE
  8
_0-a_極細3
  6
CONTINUOUS
 62
    7
 10
712.09732643647851
 20
224.41384810055047
 11
742.94174024901554
 21
255.25826191308738
  0
LINE
  8
_0-a_極細3
  6
CONTINUOUS
 62
    7
 10
713.3162610392061
 20
161.99317239648877
 11
742.94174028572218
 21
191.6186516430048
  0
LINE
  8
_0-a_極細3
  6
CONTINUOUS
 62
    7
 10
642.60558292055123
 20
161.99317239648877
 11
668.84718321533057
 21
188.23477269126784
  0
LINE
  8
_0-a_極細3
  6
CONTINUOUS
 62
    7
 10
712.09732643647851
 20
231.484915912416
 11
737.18051636911343
 21
256.5681058450507
  0
LINE
  8
_0-a_極細3
  6
CONTINUOUS
 62
    7
 10
706.24519322734091
 20
161.99317239648877
 11
742.94174028164366
 21
198.68971945079167
  0
LINE
  8
_0-a_極細3
  6
CONTINUOUS
 62
    7
 10
635.53451510868604
 20
161.99317239648877
 11
661.77611540346538
 21
188.23477269126784
  0
LINE
  8
_0-a_極細3
  6
CONTINUOUS
 62
    7
 10
712.09732643647851
 20
238.55598372428153
 11
730.10944860786424
 21
256.5681058956668
  0
CIRCLE
  8
_0-a_極細3
  6
CONTINUOUS
 62
    7
 10
615.16978812218269
 20
247.0891090338539
 40
0.5530864197530718
  0
CIRCLE
  8
_0-a_極細3
  6
CONTINUOUS
 62
    7
 10
625.12534367773799
 20
251.88910903385388
 40
0.5530864197530718
  0
CIRCLE
  8
_0-a_極細3
  6
CONTINUOUS
 62
    7
 10
621.03645478884948
 20
226.91133125607647
 40
0.5530864197530718
  0
CIRCLE
  8
_0-a_極細3
  6
CONTINUOUS
 62
    7
 10
638.56978812218279
 20
209.88910903385431
 40
0.5530864197530718
  0
CIRCLE
  8
_0-a_極細3
  6
CONTINUOUS
 62
    7
 10
620.7364547888493
 20
186.58910903385461
 40
0.5530864197530718
  0
CIRCLE
  8
_0-a_極細3
  6
CONTINUOUS
 62
    7
 10
611.40312145551638
 20
168.72244236718799
 40
0.5530864197530718
  0
CIRCLE
  8
_0-a_極細3
  6
CONTINUOUS
 62
    7
 10
622.86978812218251
 20
198.58910903385436
 40
0.5530864197530718
  0
CIRCLE
  8
_0-a_極細3
  6
CONTINUOUS
 62
    7
 10
636.73645478884941
 20
193.78910903385446
 40
0.5530864197530718
  0
CIRCLE
  8
_0-a_極細3
  6
CONTINUOUS
 62
    7
 10
663.66978812218281
 20
194.05577570052102
 40
0.5530864197530718
  0
CIRCLE
  8
_0-a_極細3
  6
CONTINUOUS
 62
    7
 10
651.66978812218281
 20
203.12244236718769
 40
0.5530864197530718
  0
CIRCLE
  8
_0-a_極細3
  6
CONTINUOUS
 62
    7
 10
662.86978812218251
 20
208.72244236718757
 40
0.5530864197530718
  0
CIRCLE
  8
_0-a_極細3
  6
CONTINUOUS
 62
    7
 10
671.42534367773783
 20
262.3002201449649
 40
0.5530864197530718
  0
CIRCLE
  8
_0-a_極細3
  6
CONTINUOUS
 62
    7
 10
659.82534367773781
 20
248.30022014496492
 40
0.5530864197530718
  0
CIRCLE
  8
_0-a_極細3
  6
CONTINUOUS
 62
    7
 10
699.02534367773774
 20
195.10022014496556
 40
0.5530864197530718
  0
CIRCLE
  8
_0-a_極細3
  6
CONTINUOUS
 62
    7
 10
706.22534367773756
 20
209.10022014496553
 40
0.5530864197530718
  0
CIRCLE
  8
_0-a_極細3
  6
CONTINUOUS
 62
    7
 10
704.62534367773719
 20
229.90022014496529
 40
0.5530864197530718
  0
CIRCLE
  8
_0-a_極細3
  6
CONTINUOUS
 62
    7
 10
686.62534367773765
 20
251.10022014496508
 40
0.5530864197530718
  0
CIRCLE
  8
_0-a_極細3
  6
CONTINUOUS
 62
    7
 10
703.42534367773726
 20
270.70022014496476
 40
0.5530864197530718
  0
CIRCLE
  8
_0-a_極細3
  6
CONTINUOUS
 62
    7
 10
700.62534367773708
 20
243.90022014496506
 40
0.5530864197530718
  0
CIRCLE
  8
_0-a_極細3
  6
CONTINUOUS
 62
    7
 10
730.22534367773699
 20
265.10022014496485
 40
0.5530864197530718
  0
CIRCLE
  8
_0-a_極細3
  6
CONTINUOUS
 62
    7
 10
725.42534367773681
 20
278.87028187335977
 40
1.825531472681392
  0
CIRCLE
  8
_0-a_極細3
  6
CONTINUOUS
 62
    7
 10
709.78089923329264
 20
263.4036152066933
 40
1.825531472681392
  0
CIRCLE
  8
_0-a_極細3
  6
CONTINUOUS
 62
    7
 10
654.35867701107111
 20
269.98139298447109
 40
1.825531472681392
  0
CIRCLE
  8
_0-a_極細3
  6
CONTINUOUS
 62
    7
 10
686.35867701107077
 20
237.98139298447131
 40
1.825531472681392
  0
CIRCLE
  8
_0-a_極細3
  6
CONTINUOUS
 62
    7
 10
615.96423256662752
 20
193.43139298447184
 40
1.825531472681392
  0
CIRCLE
  8
_0-a_極細3
  6
CONTINUOUS
 62
    7
 10
626.18645478884912
 20
223.29805965113837
 40
1.825531472681392
  0
CIRCLE
  8
_0-a_極細3
  6
CONTINUOUS
 62
    7
 10
661.38645478884894
 20
200.89805965113854
 40
1.825531472681392
  0
CIRCLE
  8
_0-a_極細3
  6
CONTINUOUS
 62
    7
 10
707.65164742413265
 20
190.71100725916907
 40
1.825531472681392
  0
CIRCLE
  8
_0-a_極細3
  6
CONTINUOUS
 62
    7
 10
656.98645478884885
 20
244.0980596511381
 40
1.825531472681392
  0
CIRCLE
  8
_0-a_極細3
  6
CONTINUOUS
 62
    7
 10
609.52040540613336
 20
238.67485424410165
 40
0.5530864197530718
  0
CIRCLE
  8
_0-a_極細3
  6
CONTINUOUS
 62
    7
 10
609.72040540613409
 20
214.71929868854636
 40
0.5530864197530718
  0
CIRCLE
  8
_0-a_極細3
  6
CONTINUOUS
 62
    7
 10
686.75867701107086
 20
275.44805965113778
 40
1.825531472681392
  0
LINE
  8
_0-a_極細3
  6
CONTINUOUS
 62
    7
 10
596.26399310314457
 20
263.23477269126784
 11
595.43065976981154
 21
263.23477269126784
  0
LINE
  8
_0-a_極細3
  6
CONTINUOUS
 62
    7
 10
595.43065976981154
 20
263.23477269126784
 11
595.43065976981154
 21
161.99317239648877
  0
CIRCLE
  8
_0-a_極細3
  6
CONTINUOUS
 62
    7
 10
601.4150556118949
 20
223.17799792274312
 40
0.5530864197530718
  0
CIRCLE
  8
_0-a_極細3
  6
CONTINUOUS
 62
    7
 10
602.7216399740347
 20
183.92244236718781
 40
0.5530864197530718
  0
CIRCLE
  8
_0-a_極細3
  6
CONTINUOUS
 62
    7
 10
602.08275108514511
 20
249.87583742891641
 40
1.825531472681392
  0
CIRCLE
  8
_0-a_極細3
  6
CONTINUOUS
 62
    7
 10
605.0308992332931
 20
177.25361520669395
 40
1.825531472681392
  0
LINE
  8
_0-a_極細3
  6
CONTINUOUS
 62
    7
 10
689.07072799029731
 20
213.1164738537714
 11
694.20103014018252
 21
227.21186316555986
  0
LINE
  8
_0-a_極細3
  6
CONTINUOUS
 62
    7
 10
639.07668531650108
 20
247.27548386480612
 11
633.94638316661633
 21
233.18009455301763
  0
LINE
  8
_0-a_極細3
  6
CONTINUOUS
 62
    7
 10
694.20103014018252
 20
227.21186316555986
 11
639.07668531650108
 21
247.27548386480612
  0
LINE
  8
_0-a_極細3
  6
CONTINUOUS
 62
    7
 10
689.07072799029731
 20
213.1164738537714
 11
633.94638316661633
 21
233.18009455301763
  0
LINE
  8
_0-a_極細3
  6
CENTER1
 62
    7
 10
696.59131245723279
 20
218.36053846963569
 11
632.56029197466717
 21
241.66592395467117
  0
LINE
  8
_0-a_極細3
  6
CONTINUOUS
 62
    7
 10
670.430659769812
 20
188.23477269126784
 11
670.430659769812
 21
232.32033403958397
  0
LINE
  8
_0-a_極細3
  6
CONTINUOUS
 62
    7
 10
670.430659769812
 20
232.32033403958397
 11
685.430659769812
 21
232.32033403958397
  0
LINE
  8
_0-a_極細3
  6
CONTINUOUS
 62
    7
 10
685.430659769812
 20
232.32033403958397
 11
685.430659769812
 21
188.23477269126784
  0
LINE
  8
_0-a_極細3
  6
CENTER1
 62
    7
 10
677.930659769812
 20
179.95803240681497
 11
677.930659769812
 21
236.59605420419351
  0
CIRCLE
  8
_0-a_極細3
  6
CONTINUOUS
 62
    7
 10
672.04756589996055
 20
245.39651644126138
 40
0.5530864197530718
  0
CIRCLE
  8
_0-a_極細3
  6
CONTINUOUS
 62
    7
 10
694.26375245688735
 20
232.05330656471847
 40
0.5530864197530718
  0
LINE
  8
_0-d_寸法3
  6
CONTINUOUS
 62
    7
 10
645.43065976981256
 20
214.90143935793458
 11
645.43065976981256
 21
197.75674745702915
  0
LINE
  8
_0-d_寸法3
  6
CONTINUOUS
 62
    7
 10
645.43065976981256
 20
202.75674745702915
 11
635.77140150692173
 21
200.16855700600402
  0
LINE
  8
_0-d_寸法3
  6
CONTINUOUS
 62
    7
 10
645.43065976981256
 20
202.75674745702915
 11
635.77140150692173
 21
205.34493790805442
  0
LINE
  8
_0-d_寸法3
  6
CONTINUOUS
 62
    7
 10
595.43065976981245
 20
253.23477269126784
 11
595.43065976981245
 21
197.75674745702915
  0
LINE
  8
_0-d_寸法3
  6
CONTINUOUS
 62
    7
 10
595.43065976981245
 20
202.75674745702915
 11
605.08991803270317
 21
205.34493790805442
  0
LINE
  8
_0-d_寸法3
  6
CONTINUOUS
 62
    7
 10
595.43065976981245
 20
202.75674745702915
 11
605.08991803270317
 21
200.16855700600402
  0
LINE
  8
_0-d_寸法3
  6
CONTINUOUS
 62
    7
 10
645.43065976981256
 20
202.75674745702915
 11
595.43065976981245
 21
202.75674745702915
  0
TEXT
  8
_0-d_寸法3
 62
    7
 10
612.93065976981245
 20
202.75674745702915
 40
15
 41
1
 50
0.0000000000002714
  1
30
  0
ARC
  8
_0-b_細線3
  6
CONTINUOUS
 62
    7
 10
640.430659769812
 20
268.23477269126784
 40
5
 50
269.99999999999977
 51
359.99999999999966
  0
LINE
  8
_0-b_細線3
  6
CONTINUOUS
 62
    7
 10
645.430659769812
 20
268.23477269126784
 11
645.430659769812
 21
292.40143935793435
  0
LINE
  8
_0-b_細線3
  6
CONTINUOUS
 62
    7
 10
640.430659769812
 20
263.23477269126784
 11
596.26399310314457
 21
263.23477269126784
  0
LINE
  8
_0-b_細線3
  6
CONTINUOUS
 62
    7
 10
595.43065976981154
 20
264.06810602460109
 11
596.26399310314457
 21
263.23477269126784
  0
LINE
  8
_0-b_細線3
  6
CONTINUOUS
 62
    7
 10
595.43065976981154
 20
267.40143935793458
 11
595.43065976981154
 21
264.06810602460109
  0
LINE
  8
_0-b_細線3
  6
CONTINUOUS
 62
    7
 10
596.26399310314457
 20
268.23477269126784
 11
595.43065976981154
 21
267.40143935793458
  0
LINE
  8
_0-b_細線3
  6
CONTINUOUS
 62
    7
 10
640.430659769812
 20
268.23477269126784
 11
596.26399310314457
 21
268.23477269126784
  0
LINE
  8
_0-b_細線3
  6
CONTINUOUS
 62
    7
 10
644.59732643647897
 20
293.23477269126784
 11
645.430659769812
 21
292.40143935793435
  0
LINE
  8
_0-b_細線3
  6
CONTINUOUS
 62
    7
 10
641.26399310314559
 20
293.23477269126784
 11
644.59732643647897
 21
293.23477269126784
  0
LINE
  8
_0-b_細線3
  6
CONTINUOUS
 62
    7
 10
640.430659769812
 20
292.40143935793435
 11
641.26399310314559
 21
293.23477269126784
  0
LINE
  8
_0-b_細線3
  6
CONTINUOUS
 62
    7
 10
640.430659769812
 20
268.23477269126784
 11
640.430659769812
 21
292.40143935793435
  0
LINE
  8
_0-b_細線3
  6
CONTINUOUS
 62
    7
 10
632.09732643647897
 20
268.23477269126806
 11
632.09732643647897
 21
293.23477269126784
  0
LINE
  8
_0-b_細線3
  6
CONTINUOUS
 62
    7
 10
632.09732643647897
 20
293.23477269126784
 11
637.09732643647897
 21
293.23477269126784
  0
LINE
  8
_0-b_細線3
  6
CONTINUOUS
 62
    7
 10
637.09732643647897
 20
293.23477269126784
 11
637.09732643647897
 21
268.23477269126806
  0
LINE
  8
_0-b_細線3
  6
CONTINUOUS
 62
    7
 10
637.09732643647897
 20
268.23477269126806
 11
632.09732643647897
 21
268.23477269126806
  0
LINE
  8
_0-d_寸法3
  6
CONTINUOUS
 62
    7
 10
345.43065976981245
 20
258.23477269126784
 11
345.43065976981245
 21
197.75674745702915
  0
LINE
  8
_0-d_寸法3
  6
CONTINUOUS
 62
    7
 10
345.43065976981245
 20
202.75674745702915
 11
355.08991803270311
 21
205.34493790805442
  0
LINE
  8
_0-d_寸法3
  6
CONTINUOUS
 62
    7
 10
345.43065976981245
 20
202.75674745702915
 11
355.08991803270311
 21
200.16855700600402
  0
LINE
  8
_0-d_寸法3
  6
CONTINUOUS
 62
    7
 10
595.43065976981154
 20
258.23477269126784
 11
595.43065976981154
 21
197.75674745702915
  0
LINE
  8
_0-d_寸法3
  6
CONTINUOUS
 62
    7
 10
595.43065976981154
 20
202.75674745702915
 11
585.77140150692094
 21
200.16855700600402
  0
LINE
  8
_0-d_寸法3
  6
CONTINUOUS
 62
    7
 10
595.43065976981154
 20
202.75674745702915
 11
585.77140150692094
 21
205.34493790805442
  0
LINE
  8
_0-d_寸法3
  6
CONTINUOUS
 62
    7
 10
345.43065976981245
 20
202.75674745702915
 11
595.43065976981154
 21
202.75674745702915
  0
TEXT
  8
_0-d_寸法3
 62
    7
 10
459.18065976981205
 20
202.75674745702915
 40
15
 41
1
 50
0
  1
150
  0
LINE
  8
_0-b_細線3
  6
CONTINUOUS
 62
    7
 10
632.09732643647897
 20
268.23477269126806
 11
308.76399310314554
 21
268.23477269126738
  0
LINE
  8
_0-d_寸法3
  6
CONTINUOUS
 62
    7
 10
295.43065976981245
 20
298.23477269126784
 11
295.43065976981296
 21
418.23477269126784
  0
LINE
  8
_0-d_寸法3
  6
CONTINUOUS
 62
    7
 10
295.43065976981296
 20
413.23477269126784
 11
305.08991803270362
 21
415.82296314229302
  0
LINE
  8
_0-d_寸法3
  6
CONTINUOUS
 62
    7
 10
295.43065976981296
 20
413.23477269126784
 11
305.08991803270362
 21
410.64658224024271
  0
LINE
  8
_0-d_寸法3
  6
CONTINUOUS
 62
    7
 10
645.430659769812
 20
298.23477269126784
 11
645.43065976981256
 21
418.23477269126784
  0
LINE
  8
_0-d_寸法3
  6
CONTINUOUS
 62
    7
 10
645.43065976981256
 20
413.23477269126784
 11
635.77140150692173
 21
410.64658224024271
  0
LINE
  8
_0-d_寸法3
  6
CONTINUOUS
 62
    7
 10
645.43065976981256
 20
413.23477269126784
 11
635.77140150692173
 21
415.82296314229313
  0
LINE
  8
_0-d_寸法3
  6
CONTINUOUS
 62
    7
 10
295.43065976981296
 20
413.23477269126784
 11
645.43065976981256
 21
413.23477269126784
  0
TEXT
  8
_0-d_寸法3
 62
    7
 10
459.18065976981245
 20
413.23477269126784
 40
15
 41
1
 50
0
  1
210
  0
LINE
  8
_0-d_寸法3
  6
CONTINUOUS
 62
    7
 10
303.76399310314554
 20
303.23477269126784
 11
303.76399310314571
 21
348.23477269126784
  0
LINE
  8
_0-d_寸法3
  6
CONTINUOUS
 62
    7
 10
303.76399310314571
 20
343.23477269126784
 11
313.42325136603631
 21
345.82296314229302
  0
LINE
  8
_0-d_寸法3
  6
CONTINUOUS
 62
    7
 10
303.76399310314571
 20
343.23477269126784
 11
313.42325136603631
 21
340.64658224024265
  0
LINE
  8
_0-d_寸法3
  6
CONTINUOUS
 62
    7
 10
470.43065976981245
 20
303.23477269126784
 11
470.43065976981245
 21
348.23477269126784
  0
LINE
  8
_0-d_寸法3
  6
CONTINUOUS
 62
    7
 10
470.43065976981245
 20
343.23477269126784
 11
460.77140150692173
 21
340.64658224024265
  0
LINE
  8
_0-d_寸法3
  6
CONTINUOUS
 62
    7
 10
470.43065976981245
 20
343.23477269126784
 11
460.77140150692179
 21
345.82296314229313
  0
LINE
  8
_0-d_寸法3
  6
CONTINUOUS
 62
    7
 10
303.76399310314571
 20
343.23477269126784
 11
470.43065976981245
 21
343.23477269126784
  0
TEXT
  8
_0-d_寸法3
 62
    7
 10
375.84732643647897
 20
343.23477269126784
 40
15
 41
1
 50
0
  1
100
  0
LINE
  8
_0-d_寸法3
  6
CONTINUOUS
 62
    7
 10
470.43065976981245
 20
343.23477269126784
 11
480.08991803270317
 21
345.82296314229296
  0
LINE
  8
_0-d_寸法3
  6
CONTINUOUS
 62
    7
 10
470.43065976981245
 20
343.23477269126784
 11
480.08991803270311
 21
340.64658224024265
  0
LINE
  8
_0-d_寸法3
  6
CONTINUOUS
 62
    7
 10
637.09732643647897
 20
303.23477269126784
 11
637.09732643647897
 21
348.23477269126784
  0
LINE
  8
_0-d_寸法3
  6
CONTINUOUS
 62
    7
 10
637.09732643647897
 20
343.23477269126784
 11
627.43806817358836
 21
340.64658224024265
  0
LINE
  8
_0-d_寸法3
  6
CONTINUOUS
 62
    7
 10
637.09732643647897
 20
343.23477269126784
 11
627.43806817358836
 21
345.82296314229313
  0
LINE
  8
_0-d_寸法3
  6
CONTINUOUS
 62
    7
 10
470.43065976981245
 20
343.23477269126784
 11
637.09732643647897
 21
343.23477269126784
  0
TEXT
  8
_0-d_寸法3
 62
    7
 10
542.51399310314594
 20
343.23477269126784
 40
15
 41
1
 50
0
  1
100
  0
LINE
  8
_0-7_枠細線
  6
CONTINUOUS
 62
    5
 10
1139.4018171150183
 20
373.42884000293418
 11
1139.4018171150183
 21
453.42884000293418
  0
LINE
  8
_0-7_枠細線
  6
CONTINUOUS
 62
    5
 10
1229.4018171150183
 20
373.42884000293418
 11
1229.4018171150183
 21
453.42884000293418
  0
TEXT
  8
_0-7_枠細線
 62
    5
 10
1251.9018171150183
 20
430.92884000293418
 40
15
 41
1
 50
0
  1
蓋重量
  0
LINE
  8
_0-7_枠細線
  6
CONTINUOUS
 62
    5
 10
1319.4018171150183
 20
373.42884000293418
 11
1319.4018171150183
 21
453.42884000293418
  0
TEXT
  8
_0-7_枠細線
 62
    5
 10
1341.9018171150183
 20
430.92884000293418
 40
15
 41
1
 50
0
  1
枠重量
  0
LINE
  8
_0-7_枠細線
  6
CONTINUOUS
 62
    5
 10
1139.4018171150183
 20
423.42884000293418
 11
1409.4018171150183
 21
423.42884000293418
  0
LINE
  8
_0-7_枠細線
  6
CONTINUOUS
 62
    5
 10
1139.4018171150183
 20
453.42884000293418
 11
1409.4018171150183
 21
453.42884000293418
  0
LINE
  8
_0-7_枠細線
  6
CONTINUOUS
 62
    5
 10
1139.4018171150183
 20
373.42884000293418
 11
1409.4018171150183
 21
373.42884000293418
  0
LINE
  8
_0-7_枠細線
  6
CONTINUOUS
 62
    5
 10
1409.4018171150183
 20
373.42884000293418
 11
1409.4018171150183
 21
453.42884000293418
  0
TEXT
  8
_0-7_枠細線
 62
    5
 10
1334.4018171150183
 20
392.17884000293418
 40
15
 41
0.8000000000000001
 50
0
  1
2.2kg/ｍ組
  0
TEXT
  8
_0-7_枠細線
 62
    5
 10
1154.4018171150183
 20
430.92884000293418
 40
15
 41
1
 50
0
  1
適用荷重
  0
TEXT
  8
_0-7_枠細線
 62
    5
 10
1161.9018171150183
 20
400.92884000293418
 40
15
 41
1
 50
0
  1
歩道用
  0
TEXT
  8
_0-7_枠細線
 62
    5
 10
1139.4018171150183
 20
380.92884000293418
 40
15
 41
1
 50
0
  1
（5.0kN/㎡）
  0
TEXT
  8
_0-7_枠細線
 62
    5
 10
1250.4018171150183
 20
392.17884000293418
 40
15
 41
0.8000000000000001
 50
0
  1
7.8kg/枚
  0
LINE
  8
_0-0_計極細
  6
CENTER2
 62
    2
 10
212.54515021118016
 20
681.93908616188662
 11
1239.2513384617855
 21
681.93908616188662
  0
LINE
  8
_0-0_計極細
  6
CONTINUOUS
 62
    2
 10
1211.4337497481988
 20
679.43908616188662
 11
1218.4337497481988
 21
679.43908616188662
  0
LINE
  8
_0-0_計極細
  6
CONTINUOUS
 62
    2
 10
1211.4337497481988
 20
684.43908616188662
 11
1218.4337497481988
 21
684.43908616188662
  0
LINE
  8
_0-0_計極細
  6
CONTINUOUS
 62
    2
 10
1201.4337497481988
 20
679.43908616188662
 11
1208.4337497481988
 21
679.43908616188662
  0
LINE
  8
_0-0_計極細
  6
CONTINUOUS
 62
    2
 10
1201.4337497481988
 20
684.43908616188662
 11
1208.4337497481988
 21
684.43908616188662
  0
LINE
  8
_0-0_計極細
  6
CONTINUOUS
 62
    2
 10
1191.4337497481988
 20
679.43908616188662
 11
1198.4337497481988
 21
679.43908616188662
  0
LINE
  8
_0-0_計極細
  6
CONTINUOUS
 62
    2
 10
1191.4337497481988
 20
684.43908616188662
 11
1198.4337497481988
 21
684.43908616188662
  0
LINE
  8
_0-0_計極細
  6
CONTINUOUS
 62
    2
 10
1181.4337497481988
 20
679.43908616188662
 11
1188.4337497481988
 21
679.43908616188662
  0
LINE
  8
_0-0_計極細
  6
CONTINUOUS
 62
    2
 10
1181.4337497481988
 20
684.43908616188662
 11
1188.4337497481988
 21
684.43908616188662
  0
LINE
  8
_0-0_計極細
  6
CONTINUOUS
 62
    2
 10
1171.4337497481988
 20
679.43908616188662
 11
1178.4337497481988
 21
679.43908616188662
  0
LINE
  8
_0-0_計極細
  6
CONTINUOUS
 62
    2
 10
1171.4337497481988
 20
684.43908616188662
 11
1178.4337497481988
 21
684.43908616188662
  0
LINE
  8
_0-0_計極細
  6
CONTINUOUS
 62
    2
 10
1161.4337497481988
 20
679.43908616188662
 11
1168.4337497481988
 21
679.43908616188662
  0
LINE
  8
_0-0_計極細
  6
CONTINUOUS
 62
    2
 10
1161.4337497481988
 20
684.43908616188662
 11
1168.4337497481988
 21
684.43908616188662
  0
LINE
  8
_0-0_計極細
  6
CONTINUOUS
 62
    2
 10
1151.4337497481988
 20
679.43908616188662
 11
1158.4337497481988
 21
679.43908616188662
  0
LINE
  8
_0-0_計極細
  6
CONTINUOUS
 62
    2
 10
1151.4337497481988
 20
684.43908616188662
 11
1158.4337497481988
 21
684.43908616188662
  0
LINE
  8
_0-0_計極細
  6
CONTINUOUS
 62
    2
 10
1141.4337497481988
 20
679.43908616188662
 11
1148.4337497481988
 21
679.43908616188662
  0
LINE
  8
_0-0_計極細
  6
CONTINUOUS
 62
    2
 10
1141.4337497481988
 20
684.43908616188662
 11
1148.4337497481988
 21
684.43908616188662
  0
LINE
  8
_0-0_計極細
  6
CONTINUOUS
 62
    2
 10
1131.4337497481988
 20
679.43908616188662
 11
1138.4337497481988
 21
679.43908616188662
  0
LINE
  8
_0-0_計極細
  6
CONTINUOUS
 62
    2
 10
1131.4337497481988
 20
684.43908616188662
 11
1138.4337497481988
 21
684.43908616188662
  0
LINE
  8
_0-0_計極細
  6
CONTINUOUS
 62
    2
 10
1121.4337497481988
 20
679.43908616188662
 11
1128.4337497481988
 21
679.43908616188662
  0
LINE
  8
_0-0_計極細
  6
CONTINUOUS
 62
    2
 10
1121.4337497481988
 20
684.43908616188662
 11
1128.4337497481988
 21
684.43908616188662
  0
LINE
  8
_0-0_計極細
  6
CONTINUOUS
 62
    2
 10
1111.4337497481988
 20
679.43908616188662
 11
1118.4337497481988
 21
679.43908616188662
  0
LINE
  8
_0-0_計極細
  6
CONTINUOUS
 62
    2
 10
1111.4337497481988
 20
684.43908616188662
 11
1118.4337497481988
 21
684.43908616188662
  0
LINE
  8
_0-0_計極細
  6
CONTINUOUS
 62
    2
 10
1101.4337497481988
 20
679.43908616188662
 11
1108.4337497481988
 21
679.43908616188662
  0
LINE
  8
_0-0_計極細
  6
CONTINUOUS
 62
    2
 10
1101.4337497481988
 20
684.43908616188662
 11
1108.4337497481988
 21
684.43908616188662
  0
LINE
  8
_0-0_計極細
  6
CONTINUOUS
 62
    2
 10
1091.4337497481988
 20
679.43908616188662
 11
1098.4337497481988
 21
679.43908616188662
  0
LINE
  8
_0-0_計極細
  6
CONTINUOUS
 62
    2
 10
1091.4337497481988
 20
684.43908616188662
 11
1098.4337497481988
 21
684.43908616188662
  0
LINE
  8
_0-0_計極細
  6
CONTINUOUS
 62
    2
 10
1081.4337497481988
 20
679.43908616188662
 11
1088.4337497481988
 21
679.43908616188662
  0
LINE
  8
_0-0_計極細
  6
CONTINUOUS
 62
    2
 10
1081.4337497481988
 20
684.43908616188662
 11
1088.4337497481988
 21
684.43908616188662
  0
LINE
  8
_0-0_計極細
  6
CONTINUOUS
 62
    2
 10
1071.4337497481988
 20
679.43908616188662
 11
1078.4337497481988
 21
679.43908616188662
  0
LINE
  8
_0-0_計極細
  6
CONTINUOUS
 62
    2
 10
1071.4337497481988
 20
684.43908616188662
 11
1078.4337497481988
 21
684.43908616188662
  0
LINE
  8
_0-0_計極細
  6
CONTINUOUS
 62
    2
 10
1061.4337497481988
 20
679.43908616188662
 11
1068.4337497481988
 21
679.43908616188662
  0
LINE
  8
_0-0_計極細
  6
CONTINUOUS
 62
    2
 10
1061.4337497481988
 20
684.43908616188662
 11
1068.4337497481988
 21
684.43908616188662
  0
LINE
  8
_0-0_計極細
  6
CONTINUOUS
 62
    2
 10
1051.4337497481988
 20
679.43908616188662
 11
1058.4337497481988
 21
679.43908616188662
  0
LINE
  8
_0-0_計極細
  6
CONTINUOUS
 62
    2
 10
1051.4337497481988
 20
684.43908616188662
 11
1058.4337497481988
 21
684.43908616188662
  0
LINE
  8
_0-0_計極細
  6
CONTINUOUS
 62
    2
 10
1041.4337497481988
 20
679.43908616188662
 11
1048.4337497481988
 21
679.43908616188662
  0
LINE
  8
_0-0_計極細
  6
CONTINUOUS
 62
    2
 10
1041.4337497481988
 20
684.43908616188662
 11
1048.4337497481988
 21
684.43908616188662
  0
LINE
  8
_0-0_計極細
  6
CONTINUOUS
 62
    2
 10
1031.4337497481988
 20
679.43908616188662
 11
1038.4337497481988
 21
679.43908616188662
  0
LINE
  8
_0-0_計極細
  6
CONTINUOUS
 62
    2
 10
1031.4337497481988
 20
684.43908616188662
 11
1038.4337497481988
 21
684.43908616188662
  0
LINE
  8
_0-0_計極細
  6
CONTINUOUS
 62
    2
 10
1021.4337497481989
 20
679.43908616188662
 11
1028.4337497481988
 21
679.43908616188662
  0
LINE
  8
_0-0_計極細
  6
CONTINUOUS
 62
    2
 10
1021.4337497481989
 20
684.43908616188662
 11
1028.4337497481988
 21
684.43908616188662
  0
LINE
  8
_0-0_計極細
  6
CONTINUOUS
 62
    2
 10
1011.4337497481989
 20
679.43908616188662
 11
1018.4337497481989
 21
679.43908616188662
  0
LINE
  8
_0-0_計極細
  6
CONTINUOUS
 62
    2
 10
1011.4337497481989
 20
684.43908616188662
 11
1018.4337497481989
 21
684.43908616188662
  0
LINE
  8
_0-0_計極細
  6
CONTINUOUS
 62
    2
 10
1001.4337497481989
 20
679.43908616188662
 11
1008.4337497481989
 21
679.43908616188662
  0
LINE
  8
_0-0_計極細
  6
CONTINUOUS
 62
    2
 10
1001.4337497481989
 20
684.43908616188662
 11
1008.4337497481989
 21
684.43908616188662
  0
LINE
  8
_0-0_計極細
  6
CONTINUOUS
 62
    2
 10
991.43374974819892
 20
679.43908616188662
 11
998.43374974819892
 21
679.43908616188662
  0
LINE
  8
_0-0_計極細
  6
CONTINUOUS
 62
    2
 10
991.43374974819892
 20
684.43908616188662
 11
998.43374974819892
 21
684.43908616188662
  0
LINE
  8
_0-0_計極細
  6
CONTINUOUS
 62
    2
 10
981.43374974819892
 20
679.43908616188662
 11
988.43374974819892
 21
679.43908616188662
  0
LINE
  8
_0-0_計極細
  6
CONTINUOUS
 62
    2
 10
981.43374974819892
 20
684.43908616188662
 11
988.43374974819892
 21
684.43908616188662
  0
LINE
  8
_0-0_計極細
  6
CONTINUOUS
 62
    2
 10
971.43374974819892
 20
679.43908616188662
 11
978.43374974819892
 21
679.43908616188662
  0
LINE
  8
_0-0_計極細
  6
CONTINUOUS
 62
    2
 10
971.43374974819892
 20
684.43908616188662
 11
978.43374974819892
 21
684.43908616188662
  0
LINE
  8
_0-0_計極細
  6
CONTINUOUS
 62
    2
 10
961.43374974819892
 20
679.43908616188662
 11
968.43374974819892
 21
679.43908616188662
  0
LINE
  8
_0-0_計極細
  6
CONTINUOUS
 62
    2
 10
961.43374974819892
 20
684.43908616188662
 11
968.43374974819892
 21
684.43908616188662
  0
LINE
  8
_0-0_計極細
  6
CONTINUOUS
 62
    2
 10
951.43374974819892
 20
679.43908616188662
 11
958.43374974819892
 21
679.43908616188662
  0
LINE
  8
_0-0_計極細
  6
CONTINUOUS
 62
    2
 10
951.43374974819892
 20
684.43908616188662
 11
958.43374974819892
 21
684.43908616188662
  0
LINE
  8
_0-0_計極細
  6
CONTINUOUS
 62
    2
 10
941.43374974819892
 20
679.43908616188662
 11
948.43374974819892
 21
679.43908616188662
  0
LINE
  8
_0-0_計極細
  6
CONTINUOUS
 62
    2
 10
941.43374974819892
 20
684.43908616188662
 11
948.43374974819892
 21
684.43908616188662
  0
LINE
  8
_0-0_計極細
  6
CONTINUOUS
 62
    2
 10
931.43374974819892
 20
679.43908616188662
 11
938.43374974819892
 21
679.43908616188662
  0
LINE
  8
_0-0_計極細
  6
CONTINUOUS
 62
    2
 10
931.43374974819892
 20
684.43908616188662
 11
938.43374974819892
 21
684.43908616188662
  0
LINE
  8
_0-0_計極細
  6
CONTINUOUS
 62
    2
 10
921.43374974819892
 20
679.43908616188662
 11
928.43374974819892
 21
679.43908616188662
  0
LINE
  8
_0-0_計極細
  6
CONTINUOUS
 62
    2
 10
921.43374974819892
 20
684.43908616188662
 11
928.43374974819892
 21
684.43908616188662
  0
LINE
  8
_0-0_計極細
  6
CONTINUOUS
 62
    2
 10
911.43374974819892
 20
679.43908616188662
 11
918.43374974819892
 21
679.43908616188662
  0
LINE
  8
_0-0_計極細
  6
CONTINUOUS
 62
    2
 10
911.43374974819892
 20
684.43908616188662
 11
918.43374974819892
 21
684.43908616188662
  0
LINE
  8
_0-0_計極細
  6
CONTINUOUS
 62
    2
 10
901.43374974819892
 20
679.43908616188662
 11
908.43374974819892
 21
679.43908616188662
  0
LINE
  8
_0-0_計極細
  6
CONTINUOUS
 62
    2
 10
901.43374974819892
 20
684.43908616188662
 11
908.43374974819892
 21
684.43908616188662
  0
LINE
  8
_0-0_計極細
  6
CONTINUOUS
 62
    2
 10
891.43374974819892
 20
679.43908616188662
 11
898.43374974819892
 21
679.43908616188662
  0
LINE
  8
_0-0_計極細
  6
CONTINUOUS
 62
    2
 10
891.43374974819892
 20
684.43908616188662
 11
898.43374974819892
 21
684.43908616188662
  0
LINE
  8
_0-0_計極細
  6
CONTINUOUS
 62
    2
 10
881.43374974819892
 20
679.43908616188662
 11
888.43374974819892
 21
679.43908616188662
  0
LINE
  8
_0-0_計極細
  6
CONTINUOUS
 62
    2
 10
881.43374974819892
 20
684.43908616188662
 11
888.43374974819892
 21
684.43908616188662
  0
LINE
  8
_0-0_計極細
  6
CONTINUOUS
 62
    2
 10
871.43374974819892
 20
679.43908616188662
 11
878.43374974819892
 21
679.43908616188662
  0
LINE
  8
_0-0_計極細
  6
CONTINUOUS
 62
    2
 10
871.43374974819892
 20
684.43908616188662
 11
878.43374974819892
 21
684.43908616188662
  0
LINE
  8
_0-0_計極細
  6
CONTINUOUS
 62
    2
 10
861.43374974819892
 20
679.43908616188662
 11
868.43374974819892
 21
679.43908616188662
  0
LINE
  8
_0-0_計極細
  6
CONTINUOUS
 62
    2
 10
861.43374974819892
 20
684.43908616188662
 11
868.43374974819892
 21
684.43908616188662
  0
LINE
  8
_0-0_計極細
  6
CONTINUOUS
 62
    2
 10
851.43374974819892
 20
679.43908616188662
 11
858.43374974819892
 21
679.43908616188662
  0
LINE
  8
_0-0_計極細
  6
CONTINUOUS
 62
    2
 10
851.43374974819892
 20
684.43908616188662
 11
858.43374974819892
 21
684.43908616188662
  0
LINE
  8
_0-0_計極細
  6
CONTINUOUS
 62
    2
 10
841.43374974819892
 20
679.43908616188662
 11
848.43374974819892
 21
679.43908616188662
  0
LINE
  8
_0-0_計極細
  6
CONTINUOUS
 62
    2
 10
841.43374974819892
 20
684.43908616188662
 11
848.43374974819892
 21
684.43908616188662
  0
LINE
  8
_0-0_計極細
  6
CONTINUOUS
 62
    2
 10
831.43374974819892
 20
679.43908616188662
 11
838.43374974819892
 21
679.43908616188662
  0
LINE
  8
_0-0_計極細
  6
CONTINUOUS
 62
    2
 10
831.43374974819892
 20
684.43908616188662
 11
838.43374974819892
 21
684.43908616188662
  0
LINE
  8
_0-0_計極細
  6
CONTINUOUS
 62
    2
 10
821.43374974819892
 20
679.43908616188662
 11
828.43374974819892
 21
679.43908616188662
  0
LINE
  8
_0-0_計極細
  6
CONTINUOUS
 62
    2
 10
821.43374974819892
 20
684.43908616188662
 11
828.43374974819892
 21
684.43908616188662
  0
LINE
  8
_0-0_計極細
  6
CONTINUOUS
 62
    2
 10
811.43374974819892
 20
679.43908616188662
 11
818.43374974819892
 21
679.43908616188662
  0
LINE
  8
_0-0_計極細
  6
CONTINUOUS
 62
    2
 10
811.43374974819892
 20
684.43908616188662
 11
818.43374974819892
 21
684.43908616188662
  0
LINE
  8
_0-0_計極細
  6
CONTINUOUS
 62
    2
 10
801.43374974819892
 20
679.43908616188662
 11
808.43374974819892
 21
679.43908616188662
  0
LINE
  8
_0-0_計極細
  6
CONTINUOUS
 62
    2
 10
801.43374974819892
 20
684.43908616188662
 11
808.43374974819892
 21
684.43908616188662
  0
LINE
  8
_0-0_計極細
  6
CONTINUOUS
 62
    2
 10
791.43374974819892
 20
679.43908616188662
 11
798.43374974819892
 21
679.43908616188662
  0
LINE
  8
_0-0_計極細
  6
CONTINUOUS
 62
    2
 10
791.43374974819892
 20
684.43908616188662
 11
798.43374974819892
 21
684.43908616188662
  0
LINE
  8
_0-0_計極細
  6
CONTINUOUS
 62
    2
 10
781.43374974819892
 20
679.43908616188662
 11
788.43374974819892
 21
679.43908616188662
  0
LINE
  8
_0-0_計極細
  6
CONTINUOUS
 62
    2
 10
781.43374974819892
 20
684.43908616188662
 11
788.43374974819892
 21
684.43908616188662
  0
LINE
  8
_0-0_計極細
  6
CONTINUOUS
 62
    2
 10
771.43374974819892
 20
679.43908616188662
 11
778.43374974819892
 21
679.43908616188662
  0
LINE
  8
_0-0_計極細
  6
CONTINUOUS
 62
    2
 10
771.43374974819892
 20
684.43908616188662
 11
778.43374974819892
 21
684.43908616188662
  0
LINE
  8
_0-0_計極細
  6
CONTINUOUS
 62
    2
 10
761.43374974819892
 20
679.43908616188662
 11
768.43374974819892
 21
679.43908616188662
  0
LINE
  8
_0-0_計極細
  6
CONTINUOUS
 62
    2
 10
761.43374974819892
 20
684.43908616188662
 11
768.43374974819892
 21
684.43908616188662
  0
LINE
  8
_0-0_計極細
  6
CONTINUOUS
 62
    2
 10
751.43374974819892
 20
679.43908616188662
 11
758.43374974819892
 21
679.43908616188662
  0
LINE
  8
_0-0_計極細
  6
CONTINUOUS
 62
    2
 10
751.43374974819892
 20
684.43908616188662
 11
758.43374974819892
 21
684.43908616188662
  0
LINE
  8
_0-0_計極細
  6
CONTINUOUS
 62
    2
 10
741.43374974819892
 20
679.43908616188662
 11
748.43374974819892
 21
679.43908616188662
  0
LINE
  8
_0-0_計極細
  6
CONTINUOUS
 62
    2
 10
741.43374974819892
 20
684.43908616188662
 11
748.43374974819892
 21
684.43908616188662
  0
LINE
  8
_0-0_計極細
  6
CONTINUOUS
 62
    2
 10
731.43374974819892
 20
679.43908616188662
 11
738.43374974819892
 21
679.43908616188662
  0
LINE
  8
_0-0_計極細
  6
CONTINUOUS
 62
    2
 10
731.43374974819892
 20
684.43908616188662
 11
738.43374974819892
 21
684.43908616188662
  0
LINE
  8
_0-0_計極細
  6
CONTINUOUS
 62
    2
 10
721.43374974819892
 20
679.43908616188662
 11
728.43374974819892
 21
679.43908616188662
  0
LINE
  8
_0-0_計極細
  6
CONTINUOUS
 62
    2
 10
721.43374974819892
 20
684.43908616188662
 11
728.43374974819892
 21
684.43908616188662
  0
LINE
  8
_0-0_計極細
  6
CONTINUOUS
 62
    2
 10
711.43374974819892
 20
679.43908616188662
 11
718.43374974819892
 21
679.43908616188662
  0
LINE
  8
_0-0_計極細
  6
CONTINUOUS
 62
    2
 10
711.43374974819892
 20
684.43908616188662
 11
718.43374974819892
 21
684.43908616188662
  0
LINE
  8
_0-0_計極細
  6
CONTINUOUS
 62
    2
 10
701.43374974819892
 20
679.43908616188662
 11
708.43374974819892
 21
679.43908616188662
  0
LINE
  8
_0-0_計極細
  6
CONTINUOUS
 62
    2
 10
701.43374974819892
 20
684.43908616188662
 11
708.43374974819892
 21
684.43908616188662
  0
LINE
  8
_0-0_計極細
  6
CONTINUOUS
 62
    2
 10
691.43374974819892
 20
679.43908616188662
 11
698.43374974819892
 21
679.43908616188662
  0
LINE
  8
_0-0_計極細
  6
CONTINUOUS
 62
    2
 10
691.43374974819892
 20
684.43908616188662
 11
698.43374974819892
 21
684.43908616188662
  0
LINE
  8
_0-0_計極細
  6
CONTINUOUS
 62
    2
 10
681.43374974819892
 20
679.43908616188662
 11
688.43374974819892
 21
679.43908616188662
  0
LINE
  8
_0-0_計極細
  6
CONTINUOUS
 62
    2
 10
681.43374974819892
 20
684.43908616188662
 11
688.43374974819892
 21
684.43908616188662
  0
LINE
  8
_0-0_計極細
  6
CONTINUOUS
 62
    2
 10
671.43374974819892
 20
679.43908616188662
 11
678.43374974819892
 21
679.43908616188662
  0
LINE
  8
_0-0_計極細
  6
CONTINUOUS
 62
    2
 10
671.43374974819892
 20
684.43908616188662
 11
678.43374974819892
 21
684.43908616188662
  0
LINE
  8
_0-0_計極細
  6
CONTINUOUS
 62
    2
 10
661.43374974819892
 20
679.43908616188662
 11
668.43374974819892
 21
679.43908616188662
  0
LINE
  8
_0-0_計極細
  6
CONTINUOUS
 62
    2
 10
661.43374974819892
 20
684.43908616188662
 11
668.43374974819892
 21
684.43908616188662
  0
LINE
  8
_0-0_計極細
  6
CONTINUOUS
 62
    2
 10
651.43374974819892
 20
679.43908616188662
 11
658.43374974819892
 21
679.43908616188662
  0
LINE
  8
_0-0_計極細
  6
CONTINUOUS
 62
    2
 10
651.43374974819892
 20
684.43908616188662
 11
658.43374974819892
 21
684.43908616188662
  0
LINE
  8
_0-0_計極細
  6
CONTINUOUS
 62
    2
 10
641.43374974819892
 20
679.43908616188662
 11
648.43374974819892
 21
679.43908616188662
  0
LINE
  8
_0-0_計極細
  6
CONTINUOUS
 62
    2
 10
641.43374974819892
 20
684.43908616188662
 11
648.43374974819892
 21
684.43908616188662
  0
LINE
  8
_0-0_計極細
  6
CONTINUOUS
 62
    2
 10
631.43374974819892
 20
679.43908616188662
 11
638.43374974819892
 21
679.43908616188662
  0
LINE
  8
_0-0_計極細
  6
CONTINUOUS
 62
    2
 10
631.43374974819892
 20
684.43908616188662
 11
638.43374974819892
 21
684.43908616188662
  0
LINE
  8
_0-0_計極細
  6
CONTINUOUS
 62
    2
 10
621.43374974819892
 20
679.43908616188662
 11
628.43374974819892
 21
679.43908616188662
  0
LINE
  8
_0-0_計極細
  6
CONTINUOUS
 62
    2
 10
621.43374974819892
 20
684.43908616188662
 11
628.43374974819892
 21
684.43908616188662
  0
LINE
  8
_0-0_計極細
  6
CONTINUOUS
 62
    2
 10
611.43374974819892
 20
679.43908616188662
 11
618.43374974819892
 21
679.43908616188662
  0
LINE
  8
_0-0_計極細
  6
CONTINUOUS
 62
    2
 10
611.43374974819892
 20
684.43908616188662
 11
618.43374974819892
 21
684.43908616188662
  0
LINE
  8
_0-0_計極細
  6
CONTINUOUS
 62
    2
 10
601.43374974819892
 20
679.43908616188662
 11
608.43374974819892
 21
679.43908616188662
  0
LINE
  8
_0-0_計極細
  6
CONTINUOUS
 62
    2
 10
601.43374974819892
 20
684.43908616188662
 11
608.43374974819892
 21
684.43908616188662
  0
LINE
  8
_0-0_計極細
  6
CONTINUOUS
 62
    2
 10
591.43374974819892
 20
679.43908616188662
 11
598.43374974819892
 21
679.43908616188662
  0
LINE
  8
_0-0_計極細
  6
CONTINUOUS
 62
    2
 10
591.43374974819892
 20
684.43908616188662
 11
598.43374974819892
 21
684.43908616188662
  0
LINE
  8
_0-0_計極細
  6
CONTINUOUS
 62
    2
 10
581.43374974819892
 20
679.43908616188662
 11
588.43374974819892
 21
679.43908616188662
  0
LINE
  8
_0-0_計極細
  6
CONTINUOUS
 62
    2
 10
581.43374974819892
 20
684.43908616188662
 11
588.43374974819892
 21
684.43908616188662
  0
LINE
  8
_0-0_計極細
  6
CONTINUOUS
 62
    2
 10
571.43374974819892
 20
679.43908616188662
 11
578.43374974819892
 21
679.43908616188662
  0
LINE
  8
_0-0_計極細
  6
CONTINUOUS
 62
    2
 10
571.43374974819892
 20
684.43908616188662
 11
578.43374974819892
 21
684.43908616188662
  0
LINE
  8
_0-0_計極細
  6
CONTINUOUS
 62
    2
 10
561.43374974819892
 20
679.43908616188662
 11
568.43374974819892
 21
679.43908616188662
  0
LINE
  8
_0-0_計極細
  6
CONTINUOUS
 62
    2
 10
561.43374974819892
 20
684.43908616188662
 11
568.43374974819892
 21
684.43908616188662
  0
LINE
  8
_0-0_計極細
  6
CONTINUOUS
 62
    2
 10
551.43374974819892
 20
679.43908616188662
 11
558.43374974819892
 21
679.43908616188662
  0
LINE
  8
_0-0_計極細
  6
CONTINUOUS
 62
    2
 10
551.43374974819892
 20
684.43908616188662
 11
558.43374974819892
 21
684.43908616188662
  0
LINE
  8
_0-0_計極細
  6
CONTINUOUS
 62
    2
 10
541.43374974819892
 20
679.43908616188662
 11
548.43374974819892
 21
679.43908616188662
  0
LINE
  8
_0-0_計極細
  6
CONTINUOUS
 62
    2
 10
541.43374974819892
 20
684.43908616188662
 11
548.43374974819892
 21
684.43908616188662
  0
LINE
  8
_0-0_計極細
  6
CONTINUOUS
 62
    2
 10
531.43374974819892
 20
679.43908616188662
 11
538.43374974819892
 21
679.43908616188662
  0
LINE
  8
_0-0_計極細
  6
CONTINUOUS
 62
    2
 10
531.43374974819892
 20
684.43908616188662
 11
538.43374974819892
 21
684.43908616188662
  0
LINE
  8
_0-0_計極細
  6
CONTINUOUS
 62
    2
 10
521.43374974819892
 20
679.43908616188662
 11
528.43374974819892
 21
679.43908616188662
  0
LINE
  8
_0-0_計極細
  6
CONTINUOUS
 62
    2
 10
521.43374974819892
 20
684.43908616188662
 11
528.43374974819892
 21
684.43908616188662
  0
LINE
  8
_0-0_計極細
  6
CONTINUOUS
 62
    2
 10
511.43374974819892
 20
679.43908616188662
 11
518.43374974819892
 21
679.43908616188662
  0
LINE
  8
_0-0_計極細
  6
CONTINUOUS
 62
    2
 10
511.43374974819892
 20
684.43908616188662
 11
518.43374974819892
 21
684.43908616188662
  0
LINE
  8
_0-0_計極細
  6
CONTINUOUS
 62
    2
 10
501.43374974819892
 20
679.43908616188662
 11
508.43374974819892
 21
679.43908616188662
  0
LINE
  8
_0-0_計極細
  6
CONTINUOUS
 62
    2
 10
501.43374974819892
 20
684.43908616188662
 11
508.43374974819892
 21
684.43908616188662
  0
LINE
  8
_0-0_計極細
  6
CONTINUOUS
 62
    2
 10
491.43374974819892
 20
679.43908616188662
 11
498.43374974819892
 21
679.43908616188662
  0
LINE
  8
_0-0_計極細
  6
CONTINUOUS
 62
    2
 10
491.43374974819892
 20
684.43908616188662
 11
498.43374974819892
 21
684.43908616188662
  0
LINE
  8
_0-0_計極細
  6
CONTINUOUS
 62
    2
 10
481.43374974819892
 20
679.43908616188662
 11
488.43374974819892
 21
679.43908616188662
  0
LINE
  8
_0-0_計極細
  6
CONTINUOUS
 62
    2
 10
481.43374974819892
 20
684.43908616188662
 11
488.43374974819892
 21
684.43908616188662
  0
LINE
  8
_0-0_計極細
  6
CONTINUOUS
 62
    2
 10
471.43374974819892
 20
679.43908616188662
 11
478.43374974819892
 21
679.43908616188662
  0
LINE
  8
_0-0_計極細
  6
CONTINUOUS
 62
    2
 10
471.43374974819892
 20
684.43908616188662
 11
478.43374974819892
 21
684.43908616188662
  0
LINE
  8
_0-0_計極細
  6
CONTINUOUS
 62
    2
 10
461.43374974819892
 20
679.43908616188662
 11
468.43374974819892
 21
679.43908616188662
  0
LINE
  8
_0-0_計極細
  6
CONTINUOUS
 62
    2
 10
461.43374974819892
 20
684.43908616188662
 11
468.43374974819892
 21
684.43908616188662
  0
LINE
  8
_0-0_計極細
  6
CONTINUOUS
 62
    2
 10
451.43374974819892
 20
679.43908616188662
 11
458.43374974819892
 21
679.43908616188662
  0
LINE
  8
_0-0_計極細
  6
CONTINUOUS
 62
    2
 10
451.43374974819892
 20
684.43908616188662
 11
458.43374974819892
 21
684.43908616188662
  0
LINE
  8
_0-0_計極細
  6
CONTINUOUS
 62
    2
 10
441.43374974819892
 20
679.43908616188662
 11
448.43374974819892
 21
679.43908616188662
  0
LINE
  8
_0-0_計極細
  6
CONTINUOUS
 62
    2
 10
441.43374974819892
 20
684.43908616188662
 11
448.43374974819892
 21
684.43908616188662
  0
LINE
  8
_0-0_計極細
  6
CONTINUOUS
 62
    2
 10
431.43374974819892
 20
679.43908616188662
 11
438.43374974819892
 21
679.43908616188662
  0
LINE
  8
_0-0_計極細
  6
CONTINUOUS
 62
    2
 10
431.43374974819892
 20
684.43908616188662
 11
438.43374974819892
 21
684.43908616188662
  0
LINE
  8
_0-0_計極細
  6
CONTINUOUS
 62
    2
 10
421.43374974819892
 20
679.43908616188662
 11
428.43374974819892
 21
679.43908616188662
  0
LINE
  8
_0-0_計極細
  6
CONTINUOUS
 62
    2
 10
421.43374974819892
 20
684.43908616188662
 11
428.43374974819892
 21
684.43908616188662
  0
LINE
  8
_0-0_計極細
  6
CONTINUOUS
 62
    2
 10
411.43374974819892
 20
679.43908616188662
 11
418.43374974819892
 21
679.43908616188662
  0
LINE
  8
_0-0_計極細
  6
CONTINUOUS
 62
    2
 10
411.43374974819892
 20
684.43908616188662
 11
418.43374974819892
 21
684.43908616188662
  0
LINE
  8
_0-0_計極細
  6
CONTINUOUS
 62
    2
 10
401.43374974819892
 20
679.43908616188662
 11
408.43374974819892
 21
679.43908616188662
  0
LINE
  8
_0-0_計極細
  6
CONTINUOUS
 62
    2
 10
401.43374974819892
 20
684.43908616188662
 11
408.43374974819892
 21
684.43908616188662
  0
LINE
  8
_0-0_計極細
  6
CONTINUOUS
 62
    2
 10
391.43374974819892
 20
679.43908616188662
 11
398.43374974819892
 21
679.43908616188662
  0
LINE
  8
_0-0_計極細
  6
CONTINUOUS
 62
    2
 10
391.43374974819892
 20
684.43908616188662
 11
398.43374974819892
 21
684.43908616188662
  0
LINE
  8
_0-0_計極細
  6
CONTINUOUS
 62
    2
 10
381.43374974819892
 20
679.43908616188662
 11
388.43374974819892
 21
679.43908616188662
  0
LINE
  8
_0-0_計極細
  6
CONTINUOUS
 62
    2
 10
381.43374974819892
 20
684.43908616188662
 11
388.43374974819892
 21
684.43908616188662
  0
LINE
  8
_0-0_計極細
  6
CONTINUOUS
 62
    2
 10
371.43374974819892
 20
679.43908616188662
 11
378.43374974819892
 21
679.43908616188662
  0
LINE
  8
_0-0_計極細
  6
CONTINUOUS
 62
    2
 10
371.43374974819892
 20
684.43908616188662
 11
378.43374974819892
 21
684.43908616188662
  0
LINE
  8
_0-0_計極細
  6
CONTINUOUS
 62
    2
 10
361.43374974819892
 20
679.43908616188662
 11
368.43374974819892
 21
679.43908616188662
  0
LINE
  8
_0-0_計極細
  6
CONTINUOUS
 62
    2
 10
361.43374974819892
 20
684.43908616188662
 11
368.43374974819892
 21
684.43908616188662
  0
LINE
  8
_0-0_計極細
  6
CONTINUOUS
 62
    2
 10
351.43374974819892
 20
679.43908616188662
 11
358.43374974819892
 21
679.43908616188662
  0
LINE
  8
_0-0_計極細
  6
CONTINUOUS
 62
    2
 10
351.43374974819892
 20
684.43908616188662
 11
358.43374974819892
 21
684.43908616188662
  0
LINE
  8
_0-0_計極細
  6
CONTINUOUS
 62
    2
 10
341.43374974819892
 20
679.43908616188662
 11
348.43374974819892
 21
679.43908616188662
  0
LINE
  8
_0-0_計極細
  6
CONTINUOUS
 62
    2
 10
341.43374974819892
 20
684.43908616188662
 11
348.43374974819892
 21
684.43908616188662
  0
LINE
  8
_0-0_計極細
  6
CONTINUOUS
 62
    2
 10
331.43374974819892
 20
679.43908616188662
 11
338.43374974819892
 21
679.43908616188662
  0
LINE
  8
_0-0_計極細
  6
CONTINUOUS
 62
    2
 10
331.43374974819892
 20
684.43908616188662
 11
338.43374974819892
 21
684.43908616188662
  0
LINE
  8
_0-0_計極細
  6
CONTINUOUS
 62
    2
 10
321.43374974819892
 20
679.43908616188662
 11
328.43374974819892
 21
679.43908616188662
  0
LINE
  8
_0-0_計極細
  6
CONTINUOUS
 62
    2
 10
321.43374974819892
 20
684.43908616188662
 11
328.43374974819892
 21
684.43908616188662
  0
LINE
  8
_0-0_計極細
  6
CONTINUOUS
 62
    2
 10
311.43374974819892
 20
679.43908616188662
 11
318.43374974819892
 21
679.43908616188662
  0
LINE
  8
_0-0_計極細
  6
CONTINUOUS
 62
    2
 10
311.43374974819892
 20
684.43908616188662
 11
318.43374974819892
 21
684.43908616188662
  0
LINE
  8
_0-0_計極細
  6
CONTINUOUS
 62
    2
 10
301.43374974819892
 20
679.43908616188662
 11
308.43374974819892
 21
679.43908616188662
  0
LINE
  8
_0-0_計極細
  6
CONTINUOUS
 62
    2
 10
301.43374974819892
 20
684.43908616188662
 11
308.43374974819892
 21
684.43908616188662
  0
LINE
  8
_0-0_計極細
  6
CONTINUOUS
 62
    2
 10
291.43374974819892
 20
679.43908616188662
 11
298.43374974819892
 21
679.43908616188662
  0
LINE
  8
_0-0_計極細
  6
CONTINUOUS
 62
    2
 10
291.43374974819892
 20
684.43908616188662
 11
298.43374974819892
 21
684.43908616188662
  0
LINE
  8
_0-0_計極細
  6
CONTINUOUS
 62
    2
 10
281.43374974819892
 20
679.43908616188662
 11
288.43374974819892
 21
679.43908616188662
  0
LINE
  8
_0-0_計極細
  6
CONTINUOUS
 62
    2
 10
281.43374974819892
 20
684.43908616188662
 11
288.43374974819892
 21
684.43908616188662
  0
LINE
  8
_0-0_計極細
  6
CONTINUOUS
 62
    2
 10
271.43374974819892
 20
679.43908616188662
 11
278.43374974819892
 21
679.43908616188662
  0
LINE
  8
_0-0_計極細
  6
CONTINUOUS
 62
    2
 10
271.43374974819892
 20
684.43908616188662
 11
278.43374974819892
 21
684.43908616188662
  0
LINE
  8
_0-0_計極細
  6
CONTINUOUS
 62
    2
 10
261.43374974819892
 20
679.43908616188662
 11
268.43374974819892
 21
679.43908616188662
  0
LINE
  8
_0-0_計極細
  6
CONTINUOUS
 62
    2
 10
261.43374974819892
 20
684.43908616188662
 11
268.43374974819892
 21
684.43908616188662
  0
LINE
  8
_0-0_計極細
  6
CONTINUOUS
 62
    2
 10
251.43374974819892
 20
679.43908616188662
 11
258.43374974819892
 21
679.43908616188662
  0
LINE
  8
_0-0_計極細
  6
CONTINUOUS
 62
    2
 10
251.43374974819892
 20
684.43908616188662
 11
258.43374974819892
 21
684.43908616188662
  0
LINE
  8
_0-0_計極細
  6
CONTINUOUS
 62
    2
 10
231.43374974819892
 20
679.43908616188662
 11
238.43374974819895
 21
679.43908616188662
  0
LINE
  8
_0-0_計極細
  6
CONTINUOUS
 62
    2
 10
231.43374974819892
 20
684.43908616188662
 11
238.43374974819895
 21
684.43908616188662
  0
LINE
  8
_0-0_計極細
  6
CONTINUOUS
 62
    2
 10
241.43374974819892
 20
679.43908616188662
 11
248.43374974819895
 21
679.43908616188662
  0
LINE
  8
_0-0_計極細
  6
CONTINUOUS
 62
    2
 10
241.43374974819892
 20
684.43908616188662
 11
248.43374974819895
 21
684.43908616188662
  0
LINE
  8
_0-1_計細線
  6
CONTINUOUS
 62
    3
 10
1221.4337497481988
 20
778.93908616188753
 11
228.43374974819895
 21
778.93908616188753
  0
LINE
  8
_0-1_計細線
  6
CONTINUOUS
 62
    3
 10
228.43374974819895
 20
778.93908616188753
 11
228.43374974819895
 21
781.93908616188764
  0
LINE
  8
_0-1_計細線
  6
CONTINUOUS
 62
    3
 10
228.43374974819895
 20
781.93908616188764
 11
1221.4337497481988
 21
781.93908616188764
  0
LINE
  8
_0-1_計細線
  6
CONTINUOUS
 62
    3
 10
1221.4337497481988
 20
781.93908616188764
 11
1221.4337497481988
 21
778.93908616188753
  0
LINE
  8
_0-1_計細線
  6
CONTINUOUS
 62
    3
 10
1218.4337497481988
 20
756.93908616188753
 11
1211.4337497481988
 21
756.93908616188753
  0
LINE
  8
_0-1_計細線
  6
CONTINUOUS
 62
    3
 10
1208.4337497481988
 20
756.93908616188753
 11
1201.4337497481988
 21
756.93908616188753
  0
LINE
  8
_0-1_計細線
  6
CONTINUOUS
 62
    3
 10
1198.4337497481988
 20
756.93908616188753
 11
1191.4337497481988
 21
756.93908616188753
  0
LINE
  8
_0-1_計細線
  6
CONTINUOUS
 62
    3
 10
1188.4337497481988
 20
756.93908616188753
 11
1181.4337497481988
 21
756.93908616188753
  0
LINE
  8
_0-1_計細線
  6
CONTINUOUS
 62
    3
 10
1178.4337497481988
 20
756.93908616188753
 11
1171.4337497481988
 21
756.93908616188753
  0
LINE
  8
_0-1_計細線
  6
CONTINUOUS
 62
    3
 10
1168.4337497481988
 20
756.93908616188753
 11
1161.4337497481988
 21
756.93908616188753
  0
LINE
  8
_0-1_計細線
  6
CONTINUOUS
 62
    3
 10
1158.4337497481988
 20
756.93908616188753
 11
1151.4337497481988
 21
756.93908616188753
  0
LINE
  8
_0-1_計細線
  6
CONTINUOUS
 62
    3
 10
1148.4337497481988
 20
756.93908616188753
 11
1141.4337497481988
 21
756.93908616188753
  0
LINE
  8
_0-1_計細線
  6
CONTINUOUS
 62
    3
 10
1138.4337497481988
 20
756.93908616188753
 11
1131.4337497481988
 21
756.93908616188753
  0
LINE
  8
_0-1_計細線
  6
CONTINUOUS
 62
    3
 10
1128.4337497481988
 20
756.93908616188753
 11
1121.4337497481988
 21
756.93908616188753
  0
LINE
  8
_0-1_計細線
  6
CONTINUOUS
 62
    3
 10
1118.4337497481988
 20
756.93908616188753
 11
1111.4337497481988
 21
756.93908616188753
  0
LINE
  8
_0-1_計細線
  6
CONTINUOUS
 62
    3
 10
1108.4337497481988
 20
756.93908616188753
 11
1101.4337497481988
 21
756.93908616188753
  0
LINE
  8
_0-1_計細線
  6
CONTINUOUS
 62
    3
 10
1098.4337497481988
 20
756.93908616188753
 11
1091.4337497481988
 21
756.93908616188753
  0
LINE
  8
_0-1_計細線
  6
CONTINUOUS
 62
    3
 10
1088.4337497481988
 20
756.93908616188753
 11
1081.4337497481988
 21
756.93908616188753
  0
LINE
  8
_0-1_計細線
  6
CONTINUOUS
 62
    3
 10
1078.4337497481988
 20
756.93908616188753
 11
1071.4337497481988
 21
756.93908616188753
  0
LINE
  8
_0-1_計細線
  6
CONTINUOUS
 62
    3
 10
1068.4337497481988
 20
756.93908616188753
 11
1061.4337497481988
 21
756.93908616188753
  0
LINE
  8
_0-1_計細線
  6
CONTINUOUS
 62
    3
 10
1058.4337497481988
 20
756.93908616188753
 11
1051.4337497481988
 21
756.93908616188753
  0
LINE
  8
_0-1_計細線
  6
CONTINUOUS
 62
    3
 10
1048.4337497481988
 20
756.93908616188753
 11
1041.4337497481988
 21
756.93908616188753
  0
LINE
  8
_0-1_計細線
  6
CONTINUOUS
 62
    3
 10
1038.4337497481988
 20
756.93908616188753
 11
1031.4337497481988
 21
756.93908616188753
  0
LINE
  8
_0-1_計細線
  6
CONTINUOUS
 62
    3
 10
1028.4337497481988
 20
756.93908616188753
 11
1021.4337497481989
 21
756.93908616188753
  0
LINE
  8
_0-1_計細線
  6
CONTINUOUS
 62
    3
 10
1018.4337497481989
 20
756.93908616188753
 11
1011.4337497481989
 21
756.93908616188753
  0
LINE
  8
_0-1_計細線
  6
CONTINUOUS
 62
    3
 10
1008.4337497481989
 20
756.93908616188753
 11
1001.4337497481989
 21
756.93908616188753
  0
LINE
  8
_0-1_計細線
  6
CONTINUOUS
 62
    3
 10
998.43374974819892
 20
756.93908616188753
 11
991.43374974819892
 21
756.93908616188753
  0
LINE
  8
_0-1_計細線
  6
CONTINUOUS
 62
    3
 10
988.43374974819892
 20
756.93908616188753
 11
981.43374974819892
 21
756.93908616188753
  0
LINE
  8
_0-1_計細線
  6
CONTINUOUS
 62
    3
 10
978.43374974819892
 20
756.93908616188753
 11
971.43374974819892
 21
756.93908616188753
  0
LINE
  8
_0-1_計細線
  6
CONTINUOUS
 62
    3
 10
968.43374974819892
 20
756.93908616188753
 11
961.43374974819892
 21
756.93908616188753
  0
LINE
  8
_0-1_計細線
  6
CONTINUOUS
 62
    3
 10
958.43374974819892
 20
756.93908616188753
 11
951.43374974819892
 21
756.93908616188753
  0
LINE
  8
_0-1_計細線
  6
CONTINUOUS
 62
    3
 10
948.43374974819892
 20
756.93908616188753
 11
941.43374974819892
 21
756.93908616188753
  0
LINE
  8
_0-1_計細線
  6
CONTINUOUS
 62
    3
 10
938.43374974819892
 20
756.93908616188753
 11
931.43374974819892
 21
756.93908616188753
  0
LINE
  8
_0-1_計細線
  6
CONTINUOUS
 62
    3
 10
928.43374974819892
 20
756.93908616188753
 11
921.43374974819892
 21
756.93908616188753
  0
LINE
  8
_0-1_計細線
  6
CONTINUOUS
 62
    3
 10
918.43374974819892
 20
756.93908616188753
 11
911.43374974819892
 21
756.93908616188753
  0
LINE
  8
_0-1_計細線
  6
CONTINUOUS
 62
    3
 10
908.43374974819892
 20
756.93908616188753
 11
901.43374974819892
 21
756.93908616188753
  0
LINE
  8
_0-1_計細線
  6
CONTINUOUS
 62
    3
 10
898.43374974819892
 20
756.93908616188753
 11
891.43374974819892
 21
756.93908616188753
  0
LINE
  8
_0-1_計細線
  6
CONTINUOUS
 62
    3
 10
888.43374974819892
 20
756.93908616188753
 11
881.43374974819892
 21
756.93908616188753
  0
LINE
  8
_0-1_計細線
  6
CONTINUOUS
 62
    3
 10
878.43374974819892
 20
756.93908616188753
 11
871.43374974819892
 21
756.93908616188753
  0
LINE
  8
_0-1_計細線
  6
CONTINUOUS
 62
    3
 10
868.43374974819892
 20
756.93908616188753
 11
861.43374974819892
 21
756.93908616188753
  0
LINE
  8
_0-1_計細線
  6
CONTINUOUS
 62
    3
 10
858.43374974819892
 20
756.93908616188753
 11
851.43374974819892
 21
756.93908616188753
  0
LINE
  8
_0-1_計細線
  6
CONTINUOUS
 62
    3
 10
848.43374974819892
 20
756.93908616188753
 11
841.43374974819892
 21
756.93908616188753
  0
LINE
  8
_0-1_計細線
  6
CONTINUOUS
 62
    3
 10
838.43374974819892
 20
756.93908616188753
 11
831.43374974819892
 21
756.93908616188753
  0
LINE
  8
_0-1_計細線
  6
CONTINUOUS
 62
    3
 10
828.43374974819892
 20
756.93908616188753
 11
821.43374974819892
 21
756.93908616188753
  0
LINE
  8
_0-1_計細線
  6
CONTINUOUS
 62
    3
 10
818.43374974819892
 20
756.93908616188753
 11
811.43374974819892
 21
756.93908616188753
  0
LINE
  8
_0-1_計細線
  6
CONTINUOUS
 62
    3
 10
808.43374974819892
 20
756.93908616188753
 11
801.43374974819892
 21
756.93908616188753
  0
LINE
  8
_0-1_計細線
  6
CONTINUOUS
 62
    3
 10
798.43374974819892
 20
756.93908616188753
 11
791.43374974819892
 21
756.93908616188753
  0
LINE
  8
_0-1_計細線
  6
CONTINUOUS
 62
    3
 10
788.43374974819892
 20
756.93908616188753
 11
781.43374974819892
 21
756.93908616188753
  0
LINE
  8
_0-1_計細線
  6
CONTINUOUS
 62
    3
 10
778.43374974819892
 20
756.93908616188753
 11
771.43374974819892
 21
756.93908616188753
  0
LINE
  8
_0-1_計細線
  6
CONTINUOUS
 62
    3
 10
768.43374974819892
 20
756.93908616188753
 11
761.43374974819892
 21
756.93908616188753
  0
LINE
  8
_0-1_計細線
  6
CONTINUOUS
 62
    3
 10
758.43374974819892
 20
756.93908616188753
 11
751.43374974819892
 21
756.93908616188753
  0
LINE
  8
_0-1_計細線
  6
CONTINUOUS
 62
    3
 10
748.43374974819892
 20
756.93908616188753
 11
741.43374974819892
 21
756.93908616188753
  0
LINE
  8
_0-1_計細線
  6
CONTINUOUS
 62
    3
 10
738.43374974819892
 20
756.93908616188753
 11
731.43374974819892
 21
756.93908616188753
  0
LINE
  8
_0-1_計細線
  6
CONTINUOUS
 62
    3
 10
728.43374974819892
 20
756.93908616188753
 11
721.43374974819892
 21
756.93908616188753
  0
LINE
  8
_0-1_計細線
  6
CONTINUOUS
 62
    3
 10
718.43374974819892
 20
756.93908616188753
 11
711.43374974819892
 21
756.93908616188753
  0
LINE
  8
_0-1_計細線
  6
CONTINUOUS
 62
    3
 10
708.43374974819892
 20
756.93908616188753
 11
701.43374974819892
 21
756.93908616188753
  0
LINE
  8
_0-1_計細線
  6
CONTINUOUS
 62
    3
 10
698.43374974819892
 20
756.93908616188753
 11
691.43374974819892
 21
756.93908616188753
  0
LINE
  8
_0-1_計細線
  6
CONTINUOUS
 62
    3
 10
688.43374974819892
 20
756.93908616188753
 11
681.43374974819892
 21
756.93908616188753
  0
LINE
  8
_0-1_計細線
  6
CONTINUOUS
 62
    3
 10
678.43374974819892
 20
756.93908616188753
 11
671.43374974819892
 21
756.93908616188753
  0
LINE
  8
_0-1_計細線
  6
CONTINUOUS
 62
    3
 10
668.43374974819892
 20
756.93908616188753
 11
661.43374974819892
 21
756.93908616188753
  0
LINE
  8
_0-1_計細線
  6
CONTINUOUS
 62
    3
 10
658.43374974819892
 20
756.93908616188753
 11
651.43374974819892
 21
756.93908616188753
  0
LINE
  8
_0-1_計細線
  6
CONTINUOUS
 62
    3
 10
648.43374974819892
 20
756.93908616188753
 11
641.43374974819892
 21
756.93908616188753
  0
LINE
  8
_0-1_計細線
  6
CONTINUOUS
 62
    3
 10
638.43374974819892
 20
756.93908616188753
 11
631.43374974819892
 21
756.93908616188753
  0
LINE
  8
_0-1_計細線
  6
CONTINUOUS
 62
    3
 10
628.43374974819892
 20
756.93908616188753
 11
621.43374974819892
 21
756.93908616188753
  0
LINE
  8
_0-1_計細線
  6
CONTINUOUS
 62
    3
 10
618.43374974819892
 20
756.93908616188753
 11
611.43374974819892
 21
756.93908616188753
  0
LINE
  8
_0-1_計細線
  6
CONTINUOUS
 62
    3
 10
608.43374974819892
 20
756.93908616188753
 11
601.43374974819892
 21
756.93908616188753
  0
LINE
  8
_0-1_計細線
  6
CONTINUOUS
 62
    3
 10
598.43374974819892
 20
756.93908616188753
 11
591.43374974819892
 21
756.93908616188753
  0
LINE
  8
_0-1_計細線
  6
CONTINUOUS
 62
    3
 10
588.43374974819892
 20
756.93908616188753
 11
581.43374974819892
 21
756.93908616188753
  0
LINE
  8
_0-1_計細線
  6
CONTINUOUS
 62
    3
 10
578.43374974819892
 20
756.93908616188753
 11
571.43374974819892
 21
756.93908616188753
  0
LINE
  8
_0-1_計細線
  6
CONTINUOUS
 62
    3
 10
568.43374974819892
 20
756.93908616188753
 11
561.43374974819892
 21
756.93908616188753
  0
LINE
  8
_0-1_計細線
  6
CONTINUOUS
 62
    3
 10
558.43374974819892
 20
756.93908616188753
 11
551.43374974819892
 21
756.93908616188753
  0
LINE
  8
_0-1_計細線
  6
CONTINUOUS
 62
    3
 10
548.43374974819892
 20
756.93908616188753
 11
541.43374974819892
 21
756.93908616188753
  0
LINE
  8
_0-1_計細線
  6
CONTINUOUS
 62
    3
 10
538.43374974819892
 20
756.93908616188753
 11
531.43374974819892
 21
756.93908616188753
  0
LINE
  8
_0-1_計細線
  6
CONTINUOUS
 62
    3
 10
528.43374974819892
 20
756.93908616188753
 11
521.43374974819892
 21
756.93908616188753
  0
LINE
  8
_0-1_計細線
  6
CONTINUOUS
 62
    3
 10
518.43374974819892
 20
756.93908616188753
 11
511.43374974819892
 21
756.93908616188753
  0
LINE
  8
_0-1_計細線
  6
CONTINUOUS
 62
    3
 10
508.43374974819892
 20
756.93908616188753
 11
501.43374974819892
 21
756.93908616188753
  0
LINE
  8
_0-1_計細線
  6
CONTINUOUS
 62
    3
 10
498.43374974819892
 20
756.93908616188753
 11
491.43374974819892
 21
756.93908616188753
  0
LINE
  8
_0-1_計細線
  6
CONTINUOUS
 62
    3
 10
488.43374974819892
 20
756.93908616188753
 11
481.43374974819892
 21
756.93908616188753
  0
LINE
  8
_0-1_計細線
  6
CONTINUOUS
 62
    3
 10
478.43374974819892
 20
756.93908616188753
 11
471.43374974819892
 21
756.93908616188753
  0
LINE
  8
_0-1_計細線
  6
CONTINUOUS
 62
    3
 10
468.43374974819892
 20
756.93908616188753
 11
461.43374974819892
 21
756.93908616188753
  0
LINE
  8
_0-1_計細線
  6
CONTINUOUS
 62
    3
 10
458.43374974819892
 20
756.93908616188753
 11
451.43374974819892
 21
756.93908616188753
  0
LINE
  8
_0-1_計細線
  6
CONTINUOUS
 62
    3
 10
448.43374974819892
 20
756.93908616188753
 11
441.43374974819892
 21
756.93908616188753
  0
LINE
  8
_0-1_計細線
  6
CONTINUOUS
 62
    3
 10
438.43374974819892
 20
756.93908616188753
 11
431.43374974819892
 21
756.93908616188753
  0
LINE
  8
_0-1_計細線
  6
CONTINUOUS
 62
    3
 10
428.43374974819892
 20
756.93908616188753
 11
421.43374974819892
 21
756.93908616188753
  0
LINE
  8
_0-1_計細線
  6
CONTINUOUS
 62
    3
 10
418.43374974819892
 20
756.93908616188753
 11
411.43374974819892
 21
756.93908616188753
  0
LINE
  8
_0-1_計細線
  6
CONTINUOUS
 62
    3
 10
408.43374974819892
 20
756.93908616188753
 11
401.43374974819892
 21
756.93908616188753
  0
LINE
  8
_0-1_計細線
  6
CONTINUOUS
 62
    3
 10
398.43374974819892
 20
756.93908616188753
 11
391.43374974819892
 21
756.93908616188753
  0
LINE
  8
_0-1_計細線
  6
CONTINUOUS
 62
    3
 10
388.43374974819892
 20
756.93908616188753
 11
381.43374974819892
 21
756.93908616188753
  0
LINE
  8
_0-1_計細線
  6
CONTINUOUS
 62
    3
 10
378.43374974819892
 20
756.93908616188753
 11
371.43374974819892
 21
756.93908616188753
  0
LINE
  8
_0-1_計細線
  6
CONTINUOUS
 62
    3
 10
368.43374974819892
 20
756.93908616188753
 11
361.43374974819892
 21
756.93908616188753
  0
LINE
  8
_0-1_計細線
  6
CONTINUOUS
 62
    3
 10
358.43374974819892
 20
756.93908616188753
 11
351.43374974819892
 21
756.93908616188753
  0
LINE
  8
_0-1_計細線
  6
CONTINUOUS
 62
    3
 10
348.43374974819892
 20
756.93908616188753
 11
341.43374974819892
 21
756.93908616188753
  0
LINE
  8
_0-1_計細線
  6
CONTINUOUS
 62
    3
 10
338.43374974819892
 20
756.93908616188753
 11
331.43374974819892
 21
756.93908616188753
  0
LINE
  8
_0-1_計細線
  6
CONTINUOUS
 62
    3
 10
328.43374974819892
 20
756.93908616188753
 11
321.43374974819892
 21
756.93908616188753
  0
LINE
  8
_0-1_計細線
  6
CONTINUOUS
 62
    3
 10
318.43374974819892
 20
756.93908616188753
 11
311.43374974819892
 21
756.93908616188753
  0
LINE
  8
_0-1_計細線
  6
CONTINUOUS
 62
    3
 10
308.43374974819892
 20
756.93908616188753
 11
301.43374974819892
 21
756.93908616188753
  0
LINE
  8
_0-1_計細線
  6
CONTINUOUS
 62
    3
 10
298.43374974819892
 20
756.93908616188753
 11
291.43374974819892
 21
756.93908616188753
  0
LINE
  8
_0-1_計細線
  6
CONTINUOUS
 62
    3
 10
288.43374974819892
 20
756.93908616188753
 11
281.43374974819892
 21
756.93908616188753
  0
LINE
  8
_0-1_計細線
  6
CONTINUOUS
 62
    3
 10
278.43374974819892
 20
756.93908616188753
 11
271.43374974819892
 21
756.93908616188753
  0
LINE
  8
_0-1_計細線
  6
CONTINUOUS
 62
    3
 10
268.43374974819892
 20
756.93908616188753
 11
261.43374974819892
 21
756.93908616188753
  0
LINE
  8
_0-1_計細線
  6
CONTINUOUS
 62
    3
 10
258.43374974819892
 20
756.93908616188753
 11
251.43374974819892
 21
756.93908616188753
  0
LINE
  8
_0-1_計細線
  6
CONTINUOUS
 62
    3
 10
248.43374974819895
 20
756.93908616188753
 11
241.43374974819892
 21
756.93908616188753
  0
LINE
  8
_0-1_計細線
  6
CONTINUOUS
 62
    3
 10
238.43374974819895
 20
756.93908616188753
 11
231.43374974819892
 21
756.93908616188753
  0
LINE
  8
_0-1_計細線
  6
CONTINUOUS
 62
    3
 10
228.43374974819895
 20
756.93908616188753
 11
200.43374974819898
 21
756.93908616188753
  0
LINE
  8
_0-1_計細線
  6
CONTINUOUS
 62
    3
 10
1221.4337497481988
 20
756.93908616188753
 11
1249.4337497481988
 21
756.93908616188753
  0
LINE
  8
_0-1_計細線
  6
CONTINUOUS
 62
    3
 10
201.74584213372384
 20
783.93908616188753
 11
1250.7458421337237
 21
783.93908616188753
  0
LINE
  8
_0-1_計細線
  6
CONTINUOUS
 62
    3
 10
200.43374974819898
 20
786.93908616188764
 11
1249.4337497481988
 21
786.93908616188764
  0
ARC
  8
_0-0_計極細
  6
CONTINUOUS
 62
    2
 10
1236.4433686913876
 20
779.4390861618831
 40
15.000000000036371
 50
330.00000000009993
 51
29.999999999930402
  0
ARC
  8
_0-0_計極細
  6
CONTINUOUS
 62
    2
 10
1262.4241308049545
 20
764.4390861618989
 40
14.999999999996563
 50
150.00000000001793
 51
210.00000000005798
  0
ARC
  8
_0-0_計極細
  6
CONTINUOUS
 62
    2
 10
187.44336869144135
 20
779.43908616189117
 40
14.999999999993854
 50
329.99999999997038
 51
30.000000000005667
  0
ARC
  8
_0-0_計極細
  6
CONTINUOUS
 62
    2
 10
213.42413080495007
 20
764.43908616189117
 40
14.999999999988354
 50
149.99999999998181
 51
210.00000000004107
  0
LINE
  8
_0-1_計細線
  6
CONTINUOUS
 62
    3
 10
1221.4337497481988
 20
584.93908616188708
 11
228.43374974819895
 21
584.93908616188708
  0
LINE
  8
_0-1_計細線
  6
CONTINUOUS
 62
    3
 10
228.43374974819895
 20
584.93908616188708
 11
228.43374974819895
 21
581.93908616188708
  0
LINE
  8
_0-1_計細線
  6
CONTINUOUS
 62
    3
 10
228.43374974819895
 20
581.93908616188708
 11
1221.4337497481988
 21
581.93908616188708
  0
LINE
  8
_0-1_計細線
  6
CONTINUOUS
 62
    3
 10
1221.4337497481988
 20
581.93908616188708
 11
1221.4337497481988
 21
584.93908616188708
  0
LINE
  8
_0-1_計細線
  6
CONTINUOUS
 62
    3
 10
1218.4337497481988
 20
606.93908616188662
 11
1211.4337497481988
 21
606.93908616188662
  0
LINE
  8
_0-1_計細線
  6
CONTINUOUS
 62
    3
 10
1208.4337497481988
 20
606.93908616188662
 11
1201.4337497481988
 21
606.93908616188662
  0
LINE
  8
_0-1_計細線
  6
CONTINUOUS
 62
    3
 10
1198.4337497481988
 20
606.93908616188662
 11
1191.4337497481988
 21
606.93908616188662
  0
LINE
  8
_0-1_計細線
  6
CONTINUOUS
 62
    3
 10
1188.4337497481988
 20
606.93908616188662
 11
1181.4337497481988
 21
606.93908616188662
  0
LINE
  8
_0-1_計細線
  6
CONTINUOUS
 62
    3
 10
1178.4337497481988
 20
606.93908616188662
 11
1171.4337497481988
 21
606.93908616188662
  0
LINE
  8
_0-1_計細線
  6
CONTINUOUS
 62
    3
 10
1168.4337497481988
 20
606.93908616188662
 11
1161.4337497481988
 21
606.93908616188662
  0
LINE
  8
_0-1_計細線
  6
CONTINUOUS
 62
    3
 10
1158.4337497481988
 20
606.93908616188662
 11
1151.4337497481988
 21
606.93908616188662
  0
LINE
  8
_0-1_計細線
  6
CONTINUOUS
 62
    3
 10
1148.4337497481988
 20
606.93908616188662
 11
1141.4337497481988
 21
606.93908616188662
  0
LINE
  8
_0-1_計細線
  6
CONTINUOUS
 62
    3
 10
1138.4337497481988
 20
606.93908616188662
 11
1131.4337497481988
 21
606.93908616188662
  0
LINE
  8
_0-1_計細線
  6
CONTINUOUS
 62
    3
 10
1128.4337497481988
 20
606.93908616188662
 11
1121.4337497481988
 21
606.93908616188662
  0
LINE
  8
_0-1_計細線
  6
CONTINUOUS
 62
    3
 10
1118.4337497481988
 20
606.93908616188662
 11
1111.4337497481988
 21
606.93908616188662
  0
LINE
  8
_0-1_計細線
  6
CONTINUOUS
 62
    3
 10
1108.4337497481988
 20
606.93908616188662
 11
1101.4337497481988
 21
606.93908616188662
  0
LINE
  8
_0-1_計細線
  6
CONTINUOUS
 62
    3
 10
1098.4337497481988
 20
606.93908616188662
 11
1091.4337497481988
 21
606.93908616188662
  0
LINE
  8
_0-1_計細線
  6
CONTINUOUS
 62
    3
 10
1088.4337497481988
 20
606.93908616188662
 11
1081.4337497481988
 21
606.93908616188662
  0
LINE
  8
_0-1_計細線
  6
CONTINUOUS
 62
    3
 10
1078.4337497481988
 20
606.93908616188662
 11
1071.4337497481988
 21
606.93908616188662
  0
LINE
  8
_0-1_計細線
  6
CONTINUOUS
 62
    3
 10
1068.4337497481988
 20
606.93908616188662
 11
1061.4337497481988
 21
606.93908616188662
  0
LINE
  8
_0-1_計細線
  6
CONTINUOUS
 62
    3
 10
1058.4337497481988
 20
606.93908616188662
 11
1051.4337497481988
 21
606.93908616188662
  0
LINE
  8
_0-1_計細線
  6
CONTINUOUS
 62
    3
 10
1048.4337497481988
 20
606.93908616188662
 11
1041.4337497481988
 21
606.93908616188662
  0
LINE
  8
_0-1_計細線
  6
CONTINUOUS
 62
    3
 10
1038.4337497481988
 20
606.93908616188662
 11
1031.4337497481988
 21
606.93908616188662
  0
LINE
  8
_0-1_計細線
  6
CONTINUOUS
 62
    3
 10
1028.4337497481988
 20
606.93908616188662
 11
1021.4337497481989
 21
606.93908616188662
  0
LINE
  8
_0-1_計細線
  6
CONTINUOUS
 62
    3
 10
1018.4337497481989
 20
606.93908616188662
 11
1011.4337497481989
 21
606.93908616188662
  0
LINE
  8
_0-1_計細線
  6
CONTINUOUS
 62
    3
 10
1008.4337497481989
 20
606.93908616188662
 11
1001.4337497481989
 21
606.93908616188662
  0
LINE
  8
_0-1_計細線
  6
CONTINUOUS
 62
    3
 10
998.43374974819892
 20
606.93908616188662
 11
991.43374974819892
 21
606.93908616188662
  0
LINE
  8
_0-1_計細線
  6
CONTINUOUS
 62
    3
 10
988.43374974819892
 20
606.93908616188662
 11
981.43374974819892
 21
606.93908616188662
  0
LINE
  8
_0-1_計細線
  6
CONTINUOUS
 62
    3
 10
978.43374974819892
 20
606.93908616188662
 11
971.43374974819892
 21
606.93908616188662
  0
LINE
  8
_0-1_計細線
  6
CONTINUOUS
 62
    3
 10
968.43374974819892
 20
606.93908616188662
 11
961.43374974819892
 21
606.93908616188662
  0
LINE
  8
_0-1_計細線
  6
CONTINUOUS
 62
    3
 10
958.43374974819892
 20
606.93908616188662
 11
951.43374974819892
 21
606.93908616188662
  0
LINE
  8
_0-1_計細線
  6
CONTINUOUS
 62
    3
 10
948.43374974819892
 20
606.93908616188662
 11
941.43374974819892
 21
606.93908616188662
  0
LINE
  8
_0-1_計細線
  6
CONTINUOUS
 62
    3
 10
938.43374974819892
 20
606.93908616188662
 11
931.43374974819892
 21
606.93908616188662
  0
LINE
  8
_0-1_計細線
  6
CONTINUOUS
 62
    3
 10
928.43374974819892
 20
606.93908616188662
 11
921.43374974819892
 21
606.93908616188662
  0
LINE
  8
_0-1_計細線
  6
CONTINUOUS
 62
    3
 10
918.43374974819892
 20
606.93908616188662
 11
911.43374974819892
 21
606.93908616188662
  0
LINE
  8
_0-1_計細線
  6
CONTINUOUS
 62
    3
 10
908.43374974819892
 20
606.93908616188662
 11
901.43374974819892
 21
606.93908616188662
  0
LINE
  8
_0-1_計細線
  6
CONTINUOUS
 62
    3
 10
898.43374974819892
 20
606.93908616188662
 11
891.43374974819892
 21
606.93908616188662
  0
LINE
  8
_0-1_計細線
  6
CONTINUOUS
 62
    3
 10
888.43374974819892
 20
606.93908616188662
 11
881.43374974819892
 21
606.93908616188662
  0
LINE
  8
_0-1_計細線
  6
CONTINUOUS
 62
    3
 10
878.43374974819892
 20
606.93908616188662
 11
871.43374974819892
 21
606.93908616188662
  0
LINE
  8
_0-1_計細線
  6
CONTINUOUS
 62
    3
 10
868.43374974819892
 20
606.93908616188662
 11
861.43374974819892
 21
606.93908616188662
  0
LINE
  8
_0-1_計細線
  6
CONTINUOUS
 62
    3
 10
858.43374974819892
 20
606.93908616188662
 11
851.43374974819892
 21
606.93908616188662
  0
LINE
  8
_0-1_計細線
  6
CONTINUOUS
 62
    3
 10
848.43374974819892
 20
606.93908616188662
 11
841.43374974819892
 21
606.93908616188662
  0
LINE
  8
_0-1_計細線
  6
CONTINUOUS
 62
    3
 10
838.43374974819892
 20
606.93908616188662
 11
831.43374974819892
 21
606.93908616188662
  0
LINE
  8
_0-1_計細線
  6
CONTINUOUS
 62
    3
 10
828.43374974819892
 20
606.93908616188662
 11
821.43374974819892
 21
606.93908616188662
  0
LINE
  8
_0-1_計細線
  6
CONTINUOUS
 62
    3
 10
818.43374974819892
 20
606.93908616188662
 11
811.43374974819892
 21
606.93908616188662
  0
LINE
  8
_0-1_計細線
  6
CONTINUOUS
 62
    3
 10
808.43374974819892
 20
606.93908616188662
 11
801.43374974819892
 21
606.93908616188662
  0
LINE
  8
_0-1_計細線
  6
CONTINUOUS
 62
    3
 10
798.43374974819892
 20
606.93908616188662
 11
791.43374974819892
 21
606.93908616188662
  0
LINE
  8
_0-1_計細線
  6
CONTINUOUS
 62
    3
 10
788.43374974819892
 20
606.93908616188662
 11
781.43374974819892
 21
606.93908616188662
  0
LINE
  8
_0-1_計細線
  6
CONTINUOUS
 62
    3
 10
778.43374974819892
 20
606.93908616188662
 11
771.43374974819892
 21
606.93908616188662
  0
LINE
  8
_0-1_計細線
  6
CONTINUOUS
 62
    3
 10
768.43374974819892
 20
606.93908616188662
 11
761.43374974819892
 21
606.93908616188662
  0
LINE
  8
_0-1_計細線
  6
CONTINUOUS
 62
    3
 10
758.43374974819892
 20
606.93908616188662
 11
751.43374974819892
 21
606.93908616188662
  0
LINE
  8
_0-1_計細線
  6
CONTINUOUS
 62
    3
 10
748.43374974819892
 20
606.93908616188662
 11
741.43374974819892
 21
606.93908616188662
  0
LINE
  8
_0-1_計細線
  6
CONTINUOUS
 62
    3
 10
738.43374974819892
 20
606.93908616188662
 11
731.43374974819892
 21
606.93908616188662
  0
LINE
  8
_0-1_計細線
  6
CONTINUOUS
 62
    3
 10
728.43374974819892
 20
606.93908616188662
 11
721.43374974819892
 21
606.93908616188662
  0
LINE
  8
_0-1_計細線
  6
CONTINUOUS
 62
    3
 10
718.43374974819892
 20
606.93908616188662
 11
711.43374974819892
 21
606.93908616188662
  0
LINE
  8
_0-1_計細線
  6
CONTINUOUS
 62
    3
 10
708.43374974819892
 20
606.93908616188662
 11
701.43374974819892
 21
606.93908616188662
  0
LINE
  8
_0-1_計細線
  6
CONTINUOUS
 62
    3
 10
698.43374974819892
 20
606.93908616188662
 11
691.43374974819892
 21
606.93908616188662
  0
LINE
  8
_0-1_計細線
  6
CONTINUOUS
 62
    3
 10
688.43374974819892
 20
606.93908616188662
 11
681.43374974819892
 21
606.93908616188662
  0
LINE
  8
_0-1_計細線
  6
CONTINUOUS
 62
    3
 10
678.43374974819892
 20
606.93908616188662
 11
671.43374974819892
 21
606.93908616188662
  0
LINE
  8
_0-1_計細線
  6
CONTINUOUS
 62
    3
 10
668.43374974819892
 20
606.93908616188662
 11
661.43374974819892
 21
606.93908616188662
  0
LINE
  8
_0-1_計細線
  6
CONTINUOUS
 62
    3
 10
658.43374974819892
 20
606.93908616188662
 11
651.43374974819892
 21
606.93908616188662
  0
LINE
  8
_0-1_計細線
  6
CONTINUOUS
 62
    3
 10
648.43374974819892
 20
606.93908616188662
 11
641.43374974819892
 21
606.93908616188662
  0
LINE
  8
_0-1_計細線
  6
CONTINUOUS
 62
    3
 10
638.43374974819892
 20
606.93908616188662
 11
631.43374974819892
 21
606.93908616188662
  0
LINE
  8
_0-1_計細線
  6
CONTINUOUS
 62
    3
 10
628.43374974819892
 20
606.93908616188662
 11
621.43374974819892
 21
606.93908616188662
  0
LINE
  8
_0-1_計細線
  6
CONTINUOUS
 62
    3
 10
618.43374974819892
 20
606.93908616188662
 11
611.43374974819892
 21
606.93908616188662
  0
LINE
  8
_0-1_計細線
  6
CONTINUOUS
 62
    3
 10
608.43374974819892
 20
606.93908616188662
 11
601.43374974819892
 21
606.93908616188662
  0
LINE
  8
_0-1_計細線
  6
CONTINUOUS
 62
    3
 10
598.43374974819892
 20
606.93908616188662
 11
591.43374974819892
 21
606.93908616188662
  0
LINE
  8
_0-1_計細線
  6
CONTINUOUS
 62
    3
 10
588.43374974819892
 20
606.93908616188662
 11
581.43374974819892
 21
606.93908616188662
  0
LINE
  8
_0-1_計細線
  6
CONTINUOUS
 62
    3
 10
578.43374974819892
 20
606.93908616188662
 11
571.43374974819892
 21
606.93908616188662
  0
LINE
  8
_0-1_計細線
  6
CONTINUOUS
 62
    3
 10
568.43374974819892
 20
606.93908616188662
 11
561.43374974819892
 21
606.93908616188662
  0
LINE
  8
_0-1_計細線
  6
CONTINUOUS
 62
    3
 10
558.43374974819892
 20
606.93908616188662
 11
551.43374974819892
 21
606.93908616188662
  0
LINE
  8
_0-1_計細線
  6
CONTINUOUS
 62
    3
 10
548.43374974819892
 20
606.93908616188662
 11
541.43374974819892
 21
606.93908616188662
  0
LINE
  8
_0-1_計細線
  6
CONTINUOUS
 62
    3
 10
538.43374974819892
 20
606.93908616188662
 11
531.43374974819892
 21
606.93908616188662
  0
LINE
  8
_0-1_計細線
  6
CONTINUOUS
 62
    3
 10
528.43374974819892
 20
606.93908616188662
 11
521.43374974819892
 21
606.93908616188662
  0
LINE
  8
_0-1_計細線
  6
CONTINUOUS
 62
    3
 10
518.43374974819892
 20
606.93908616188662
 11
511.43374974819892
 21
606.93908616188662
  0
LINE
  8
_0-1_計細線
  6
CONTINUOUS
 62
    3
 10
508.43374974819892
 20
606.93908616188662
 11
501.43374974819892
 21
606.93908616188662
  0
LINE
  8
_0-1_計細線
  6
CONTINUOUS
 62
    3
 10
498.43374974819892
 20
606.93908616188662
 11
491.43374974819892
 21
606.93908616188662
  0
LINE
  8
_0-1_計細線
  6
CONTINUOUS
 62
    3
 10
488.43374974819892
 20
606.93908616188662
 11
481.43374974819892
 21
606.93908616188662
  0
LINE
  8
_0-1_計細線
  6
CONTINUOUS
 62
    3
 10
478.43374974819892
 20
606.93908616188662
 11
471.43374974819892
 21
606.93908616188662
  0
LINE
  8
_0-1_計細線
  6
CONTINUOUS
 62
    3
 10
468.43374974819892
 20
606.93908616188662
 11
461.43374974819892
 21
606.93908616188662
  0
LINE
  8
_0-1_計細線
  6
CONTINUOUS
 62
    3
 10
458.43374974819892
 20
606.93908616188662
 11
451.43374974819892
 21
606.93908616188662
  0
LINE
  8
_0-1_計細線
  6
CONTINUOUS
 62
    3
 10
448.43374974819892
 20
606.93908616188662
 11
441.43374974819892
 21
606.93908616188662
  0
LINE
  8
_0-1_計細線
  6
CONTINUOUS
 62
    3
 10
438.43374974819892
 20
606.93908616188662
 11
431.43374974819892
 21
606.93908616188662
  0
LINE
  8
_0-1_計細線
  6
CONTINUOUS
 62
    3
 10
428.43374974819892
 20
606.93908616188662
 11
421.43374974819892
 21
606.93908616188662
  0
LINE
  8
_0-1_計細線
  6
CONTINUOUS
 62
    3
 10
418.43374974819892
 20
606.93908616188662
 11
411.43374974819892
 21
606.93908616188662
  0
LINE
  8
_0-1_計細線
  6
CONTINUOUS
 62
    3
 10
408.43374974819892
 20
606.93908616188662
 11
401.43374974819892
 21
606.93908616188662
  0
LINE
  8
_0-1_計細線
  6
CONTINUOUS
 62
    3
 10
398.43374974819892
 20
606.93908616188662
 11
391.43374974819892
 21
606.93908616188662
  0
LINE
  8
_0-1_計細線
  6
CONTINUOUS
 62
    3
 10
388.43374974819892
 20
606.93908616188662
 11
381.43374974819892
 21
606.93908616188662
  0
LINE
  8
_0-1_計細線
  6
CONTINUOUS
 62
    3
 10
378.43374974819892
 20
606.93908616188662
 11
371.43374974819892
 21
606.93908616188662
  0
LINE
  8
_0-1_計細線
  6
CONTINUOUS
 62
    3
 10
368.43374974819892
 20
606.93908616188662
 11
361.43374974819892
 21
606.93908616188662
  0
LINE
  8
_0-1_計細線
  6
CONTINUOUS
 62
    3
 10
358.43374974819892
 20
606.93908616188662
 11
351.43374974819892
 21
606.93908616188662
  0
LINE
  8
_0-1_計細線
  6
CONTINUOUS
 62
    3
 10
348.43374974819892
 20
606.93908616188662
 11
341.43374974819892
 21
606.93908616188662
  0
LINE
  8
_0-1_計細線
  6
CONTINUOUS
 62
    3
 10
338.43374974819892
 20
606.93908616188662
 11
331.43374974819892
 21
606.93908616188662
  0
LINE
  8
_0-1_計細線
  6
CONTINUOUS
 62
    3
 10
328.43374974819892
 20
606.93908616188662
 11
321.43374974819892
 21
606.93908616188662
  0
LINE
  8
_0-1_計細線
  6
CONTINUOUS
 62
    3
 10
318.43374974819892
 20
606.93908616188662
 11
311.43374974819892
 21
606.93908616188662
  0
LINE
  8
_0-1_計細線
  6
CONTINUOUS
 62
    3
 10
308.43374974819892
 20
606.93908616188662
 11
301.43374974819892
 21
606.93908616188662
  0
LINE
  8
_0-1_計細線
  6
CONTINUOUS
 62
    3
 10
298.43374974819892
 20
606.93908616188662
 11
291.43374974819892
 21
606.93908616188662
  0
LINE
  8
_0-1_計細線
  6
CONTINUOUS
 62
    3
 10
288.43374974819892
 20
606.93908616188662
 11
281.43374974819892
 21
606.93908616188662
  0
LINE
  8
_0-1_計細線
  6
CONTINUOUS
 62
    3
 10
278.43374974819892
 20
606.93908616188662
 11
271.43374974819892
 21
606.93908616188662
  0
LINE
  8
_0-1_計細線
  6
CONTINUOUS
 62
    3
 10
268.43374974819892
 20
606.93908616188662
 11
261.43374974819892
 21
606.93908616188662
  0
LINE
  8
_0-1_計細線
  6
CONTINUOUS
 62
    3
 10
258.43374974819892
 20
606.93908616188662
 11
251.43374974819892
 21
606.93908616188662
  0
LINE
  8
_0-1_計細線
  6
CONTINUOUS
 62
    3
 10
248.43374974819895
 20
606.93908616188662
 11
241.43374974819892
 21
606.93908616188662
  0
LINE
  8
_0-1_計細線
  6
CONTINUOUS
 62
    3
 10
238.43374974819895
 20
606.93908616188662
 11
231.43374974819892
 21
606.93908616188662
  0
LINE
  8
_0-1_計細線
  6
CONTINUOUS
 62
    3
 10
199.12165736267355
 20
579.93908616188708
 11
1248.121657362673
 21
579.93908616188708
  0
LINE
  8
_0-1_計細線
  6
CONTINUOUS
 62
    3
 10
200.43374974819898
 20
576.93908616188708
 11
1249.4337497481988
 21
576.93908616188708
  0
LINE
  8
_0-1_計細線
  6
CONTINUOUS
 62
    3
 10
1221.4337497481988
 20
606.93908616188799
 11
1249.4337497481988
 21
606.93908616188662
  0
LINE
  8
_0-1_計細線
  6
CONTINUOUS
 62
    3
 10
228.43374974819895
 20
606.93908616188799
 11
200.43374974819898
 21
606.93908616188799
  0
ARC
  8
_0-0_計極細
  6
CONTINUOUS
 62
    2
 10
1236.4433686914458
 20
599.4390861618898
 40
14.999999999989658
 50
329.99999999996317
 51
30.00000000001284
  0
ARC
  8
_0-0_計極細
  6
CONTINUOUS
 62
    2
 10
1262.4241308049254
 20
584.43908616189481
 40
14.999999999969544
 50
149.99999999994964
 51
210.00000000010303
  0
ARC
  8
_0-0_計極細
  6
CONTINUOUS
 62
    2
 10
187.44336869145599
 20
599.43908616188628
 40
14.999999999979083
 50
329.99999999995606
 51
30.000000000047088
  0
LINE
  8
_0-5_寸法線
  6
CONTINUOUS
 62
    7
 10
621.46713642192174
 20
578.31706851132037
 11
626.46713643304611
 21
569.65681447989869
  0
LINE
  8
_0-5_寸法線
  6
CONTINUOUS
 62
    7
 10
621.46713642192174
 20
578.31706851132037
 11
621.4671364347671
 21
568.31706851132037
  0
LINE
  8
_0-5_寸法線
  6
CONTINUOUS
 62
    7
 10
621.46713642192174
 20
578.31706851132037
 11
633.30850597938718
 21
534.12447591872797
  0
LINE
  8
_0-5_寸法線
  6
CONTINUOUS
 62
    7
 10
633.30850597938718
 20
534.12447591872797
 11
741.30850597938718
 21
534.12447591872797
  0
TEXT
  8
_0-5_寸法線
 62
    7
 10
633.30850597938718
 20
534.72447591872776
 40
15
 41
0.8000000000000001
 50
0
  1
ＳＵＳアングル受枠
  0
LINE
  8
_0-5_寸法線
  6
CONTINUOUS
 62
    7
 10
829.55110919375761
 20
621.29578965970256
 11
834.55110919375761
 21
612.63553562185825
  0
LINE
  8
_0-5_寸法線
  6
CONTINUOUS
 62
    7
 10
829.55110919375761
 20
621.29578965970256
 11
829.55110919375761
 21
611.29578965970256
  0
LINE
  8
_0-5_寸法線
  6
CONTINUOUS
 62
    7
 10
829.55110919375761
 20
621.29578965970256
 11
852.90859231381148
 21
534.12447591872797
  0
LINE
  8
_0-5_寸法線
  6
CONTINUOUS
 62
    7
 10
852.90859231381148
 20
534.12447591872797
 11
987.34760452893147
 21
534.12447591872797
  0
TEXT
  8
_0-5_寸法線
 62
    7
 10
855.34760452893136
 20
534.12447591872797
 40
15
 41
0.8000000000000001
 50
0
  1
ステンレスグレーチング
  0
ARC
  8
_0-0_計極細
  6
CONTINUOUS
 62
    2
 10
213.42413080493691
 20
584.43908616188628
 40
14.999999999974561
 50
149.99999999994213
 51
210.00000000004974
  0
LINE
  8
_0-1_計細線
  6
CONTINUOUS
 62
    3
 10
241.43374974819892
 20
778.93908616188753
 11
238.43374974819895
 21
778.93908616188753
  0
LINE
  8
_0-1_計細線
  6
CONTINUOUS
 62
    3
 10
238.43374974819895
 20
778.93908616188753
 11
238.43374974819895
 21
584.93908616188708
  0
LINE
  8
_0-1_計細線
  6
CONTINUOUS
 62
    3
 10
238.43374974819895
 20
584.93908616188708
 11
241.43374974819892
 21
584.93908616188708
  0
LINE
  8
_0-1_計細線
  6
CONTINUOUS
 62
    3
 10
241.43374974819892
 20
584.93908616188708
 11
241.43374974819892
 21
778.93908616188753
  0
LINE
  8
_0-1_計細線
  6
CONTINUOUS
 62
    3
 10
231.43374974819892
 20
778.93908616188753
 11
228.43374974819895
 21
778.93908616188753
  0
LINE
  8
_0-1_計細線
  6
CONTINUOUS
 62
    3
 10
228.43374974819895
 20
778.93908616188753
 11
228.43374974819895
 21
584.93908616188708
  0
LINE
  8
_0-1_計細線
  6
CONTINUOUS
 62
    3
 10
228.43374974819895
 20
584.93908616188708
 11
231.43374974819892
 21
584.93908616188708
  0
LINE
  8
_0-1_計細線
  6
CONTINUOUS
 62
    3
 10
231.43374974819892
 20
584.93908616188708
 11
231.43374974819892
 21
778.93908616188753
  0
LINE
  8
_0-1_計細線
  6
CONTINUOUS
 62
    3
 10
251.43374974819892
 20
778.93908616188753
 11
248.43374974819895
 21
778.93908616188753
  0
LINE
  8
_0-1_計細線
  6
CONTINUOUS
 62
    3
 10
248.43374974819895
 20
778.93908616188753
 11
248.43374974819895
 21
584.93908616188708
  0
LINE
  8
_0-1_計細線
  6
CONTINUOUS
 62
    3
 10
248.43374974819895
 20
584.93908616188708
 11
251.43374974819892
 21
584.93908616188708
  0
LINE
  8
_0-1_計細線
  6
CONTINUOUS
 62
    3
 10
251.43374974819892
 20
584.93908616188708
 11
251.43374974819892
 21
778.93908616188753
  0
LINE
  8
_0-1_計細線
  6
CONTINUOUS
 62
    3
 10
261.43374974819892
 20
778.93908616188753
 11
258.43374974819892
 21
778.93908616188753
  0
LINE
  8
_0-1_計細線
  6
CONTINUOUS
 62
    3
 10
258.43374974819892
 20
778.93908616188753
 11
258.43374974819892
 21
584.93908616188708
  0
LINE
  8
_0-1_計細線
  6
CONTINUOUS
 62
    3
 10
258.43374974819892
 20
584.93908616188708
 11
261.43374974819892
 21
584.93908616188708
  0
LINE
  8
_0-1_計細線
  6
CONTINUOUS
 62
    3
 10
261.43374974819892
 20
584.93908616188708
 11
261.43374974819892
 21
778.93908616188753
  0
LINE
  8
_0-1_計細線
  6
CONTINUOUS
 62
    3
 10
271.43374974819892
 20
778.93908616188753
 11
268.43374974819892
 21
778.93908616188753
  0
LINE
  8
_0-1_計細線
  6
CONTINUOUS
 62
    3
 10
268.43374974819892
 20
778.93908616188753
 11
268.43374974819892
 21
584.93908616188708
  0
LINE
  8
_0-1_計細線
  6
CONTINUOUS
 62
    3
 10
268.43374974819892
 20
584.93908616188708
 11
271.43374974819892
 21
584.93908616188708
  0
LINE
  8
_0-1_計細線
  6
CONTINUOUS
 62
    3
 10
271.43374974819892
 20
584.93908616188708
 11
271.43374974819892
 21
778.93908616188753
  0
LINE
  8
_0-1_計細線
  6
CONTINUOUS
 62
    3
 10
281.43374974819892
 20
778.93908616188753
 11
278.43374974819892
 21
778.93908616188753
  0
LINE
  8
_0-1_計細線
  6
CONTINUOUS
 62
    3
 10
278.43374974819892
 20
778.93908616188753
 11
278.43374974819892
 21
584.93908616188708
  0
LINE
  8
_0-1_計細線
  6
CONTINUOUS
 62
    3
 10
278.43374974819892
 20
584.93908616188708
 11
281.43374974819892
 21
584.93908616188708
  0
LINE
  8
_0-1_計細線
  6
CONTINUOUS
 62
    3
 10
281.43374974819892
 20
584.93908616188708
 11
281.43374974819892
 21
778.93908616188753
  0
LINE
  8
_0-1_計細線
  6
CONTINUOUS
 62
    3
 10
291.43374974819892
 20
778.93908616188753
 11
288.43374974819892
 21
778.93908616188753
  0
LINE
  8
_0-1_計細線
  6
CONTINUOUS
 62
    3
 10
288.43374974819892
 20
778.93908616188753
 11
288.43374974819892
 21
584.93908616188708
  0
LINE
  8
_0-1_計細線
  6
CONTINUOUS
 62
    3
 10
288.43374974819892
 20
584.93908616188708
 11
291.43374974819892
 21
584.93908616188708
  0
LINE
  8
_0-1_計細線
  6
CONTINUOUS
 62
    3
 10
291.43374974819892
 20
584.93908616188708
 11
291.43374974819892
 21
778.93908616188753
  0
LINE
  8
_0-1_計細線
  6
CONTINUOUS
 62
    3
 10
301.43374974819892
 20
778.93908616188753
 11
298.43374974819892
 21
778.93908616188753
  0
LINE
  8
_0-1_計細線
  6
CONTINUOUS
 62
    3
 10
298.43374974819892
 20
778.93908616188753
 11
298.43374974819892
 21
584.93908616188708
  0
LINE
  8
_0-1_計細線
  6
CONTINUOUS
 62
    3
 10
298.43374974819892
 20
584.93908616188708
 11
301.43374974819892
 21
584.93908616188708
  0
LINE
  8
_0-1_計細線
  6
CONTINUOUS
 62
    3
 10
301.43374974819892
 20
584.93908616188708
 11
301.43374974819892
 21
778.93908616188753
  0
LINE
  8
_0-1_計細線
  6
CONTINUOUS
 62
    3
 10
311.43374974819892
 20
778.93908616188753
 11
308.43374974819892
 21
778.93908616188753
  0
LINE
  8
_0-1_計細線
  6
CONTINUOUS
 62
    3
 10
308.43374974819892
 20
778.93908616188753
 11
308.43374974819892
 21
584.93908616188708
  0
LINE
  8
_0-1_計細線
  6
CONTINUOUS
 62
    3
 10
308.43374974819892
 20
584.93908616188708
 11
311.43374974819892
 21
584.93908616188708
  0
LINE
  8
_0-1_計細線
  6
CONTINUOUS
 62
    3
 10
311.43374974819892
 20
584.93908616188708
 11
311.43374974819892
 21
778.93908616188753
  0
LINE
  8
_0-1_計細線
  6
CONTINUOUS
 62
    3
 10
321.43374974819892
 20
778.93908616188753
 11
318.43374974819892
 21
778.93908616188753
  0
LINE
  8
_0-1_計細線
  6
CONTINUOUS
 62
    3
 10
318.43374974819892
 20
778.93908616188753
 11
318.43374974819892
 21
584.93908616188708
  0
LINE
  8
_0-1_計細線
  6
CONTINUOUS
 62
    3
 10
318.43374974819892
 20
584.93908616188708
 11
321.43374974819892
 21
584.93908616188708
  0
LINE
  8
_0-1_計細線
  6
CONTINUOUS
 62
    3
 10
321.43374974819892
 20
584.93908616188708
 11
321.43374974819892
 21
778.93908616188753
  0
LINE
  8
_0-1_計細線
  6
CONTINUOUS
 62
    3
 10
331.43374974819892
 20
778.93908616188753
 11
328.43374974819892
 21
778.93908616188753
  0
LINE
  8
_0-1_計細線
  6
CONTINUOUS
 62
    3
 10
328.43374974819892
 20
778.93908616188753
 11
328.43374974819892
 21
584.93908616188708
  0
LINE
  8
_0-1_計細線
  6
CONTINUOUS
 62
    3
 10
328.43374974819892
 20
584.93908616188708
 11
331.43374974819892
 21
584.93908616188708
  0
LINE
  8
_0-1_計細線
  6
CONTINUOUS
 62
    3
 10
331.43374974819892
 20
584.93908616188708
 11
331.43374974819892
 21
778.93908616188753
  0
LINE
  8
_0-1_計細線
  6
CONTINUOUS
 62
    3
 10
341.43374974819892
 20
778.93908616188753
 11
338.43374974819892
 21
778.93908616188753
  0
LINE
  8
_0-1_計細線
  6
CONTINUOUS
 62
    3
 10
338.43374974819892
 20
778.93908616188753
 11
338.43374974819892
 21
584.93908616188708
  0
LINE
  8
_0-1_計細線
  6
CONTINUOUS
 62
    3
 10
338.43374974819892
 20
584.93908616188708
 11
341.43374974819892
 21
584.93908616188708
  0
LINE
  8
_0-1_計細線
  6
CONTINUOUS
 62
    3
 10
341.43374974819892
 20
584.93908616188708
 11
341.43374974819892
 21
778.93908616188753
  0
LINE
  8
_0-1_計細線
  6
CONTINUOUS
 62
    3
 10
351.43374974819892
 20
778.93908616188753
 11
348.43374974819892
 21
778.93908616188753
  0
LINE
  8
_0-1_計細線
  6
CONTINUOUS
 62
    3
 10
348.43374974819892
 20
778.93908616188753
 11
348.43374974819892
 21
584.93908616188708
  0
LINE
  8
_0-1_計細線
  6
CONTINUOUS
 62
    3
 10
348.43374974819892
 20
584.93908616188708
 11
351.43374974819892
 21
584.93908616188708
  0
LINE
  8
_0-1_計細線
  6
CONTINUOUS
 62
    3
 10
351.43374974819892
 20
584.93908616188708
 11
351.43374974819892
 21
778.93908616188753
  0
LINE
  8
_0-1_計細線
  6
CONTINUOUS
 62
    3
 10
361.43374974819892
 20
778.93908616188753
 11
358.43374974819892
 21
778.93908616188753
  0
LINE
  8
_0-1_計細線
  6
CONTINUOUS
 62
    3
 10
358.43374974819892
 20
778.93908616188753
 11
358.43374974819892
 21
584.93908616188708
  0
LINE
  8
_0-1_計細線
  6
CONTINUOUS
 62
    3
 10
358.43374974819892
 20
584.93908616188708
 11
361.43374974819892
 21
584.93908616188708
  0
LINE
  8
_0-1_計細線
  6
CONTINUOUS
 62
    3
 10
361.43374974819892
 20
584.93908616188708
 11
361.43374974819892
 21
778.93908616188753
  0
LINE
  8
_0-1_計細線
  6
CONTINUOUS
 62
    3
 10
371.43374974819892
 20
778.93908616188753
 11
368.43374974819892
 21
778.93908616188753
  0
LINE
  8
_0-1_計細線
  6
CONTINUOUS
 62
    3
 10
368.43374974819892
 20
778.93908616188753
 11
368.43374974819892
 21
584.93908616188708
  0
LINE
  8
_0-1_計細線
  6
CONTINUOUS
 62
    3
 10
368.43374974819892
 20
584.93908616188708
 11
371.43374974819892
 21
584.93908616188708
  0
LINE
  8
_0-1_計細線
  6
CONTINUOUS
 62
    3
 10
371.43374974819892
 20
584.93908616188708
 11
371.43374974819892
 21
778.93908616188753
  0
LINE
  8
_0-1_計細線
  6
CONTINUOUS
 62
    3
 10
381.43374974819892
 20
778.93908616188753
 11
378.43374974819892
 21
778.93908616188753
  0
LINE
  8
_0-1_計細線
  6
CONTINUOUS
 62
    3
 10
378.43374974819892
 20
778.93908616188753
 11
378.43374974819892
 21
584.93908616188708
  0
LINE
  8
_0-1_計細線
  6
CONTINUOUS
 62
    3
 10
378.43374974819892
 20
584.93908616188708
 11
381.43374974819892
 21
584.93908616188708
  0
LINE
  8
_0-1_計細線
  6
CONTINUOUS
 62
    3
 10
381.43374974819892
 20
584.93908616188708
 11
381.43374974819892
 21
778.93908616188753
  0
LINE
  8
_0-1_計細線
  6
CONTINUOUS
 62
    3
 10
391.43374974819892
 20
778.93908616188753
 11
388.43374974819892
 21
778.93908616188753
  0
LINE
  8
_0-1_計細線
  6
CONTINUOUS
 62
    3
 10
388.43374974819892
 20
778.93908616188753
 11
388.43374974819892
 21
584.93908616188708
  0
LINE
  8
_0-1_計細線
  6
CONTINUOUS
 62
    3
 10
388.43374974819892
 20
584.93908616188708
 11
391.43374974819892
 21
584.93908616188708
  0
LINE
  8
_0-1_計細線
  6
CONTINUOUS
 62
    3
 10
391.43374974819892
 20
584.93908616188708
 11
391.43374974819892
 21
778.93908616188753
  0
LINE
  8
_0-1_計細線
  6
CONTINUOUS
 62
    3
 10
401.43374974819892
 20
778.93908616188753
 11
398.43374974819892
 21
778.93908616188753
  0
LINE
  8
_0-1_計細線
  6
CONTINUOUS
 62
    3
 10
398.43374974819892
 20
778.93908616188753
 11
398.43374974819892
 21
584.93908616188708
  0
LINE
  8
_0-1_計細線
  6
CONTINUOUS
 62
    3
 10
398.43374974819892
 20
584.93908616188708
 11
401.43374974819892
 21
584.93908616188708
  0
LINE
  8
_0-1_計細線
  6
CONTINUOUS
 62
    3
 10
401.43374974819892
 20
584.93908616188708
 11
401.43374974819892
 21
778.93908616188753
  0
LINE
  8
_0-1_計細線
  6
CONTINUOUS
 62
    3
 10
411.43374974819892
 20
778.93908616188753
 11
408.43374974819892
 21
778.93908616188753
  0
LINE
  8
_0-1_計細線
  6
CONTINUOUS
 62
    3
 10
408.43374974819892
 20
778.93908616188753
 11
408.43374974819892
 21
584.93908616188708
  0
LINE
  8
_0-1_計細線
  6
CONTINUOUS
 62
    3
 10
408.43374974819892
 20
584.93908616188708
 11
411.43374974819892
 21
584.93908616188708
  0
LINE
  8
_0-1_計細線
  6
CONTINUOUS
 62
    3
 10
411.43374974819892
 20
584.93908616188708
 11
411.43374974819892
 21
778.93908616188753
  0
LINE
  8
_0-1_計細線
  6
CONTINUOUS
 62
    3
 10
421.43374974819892
 20
778.93908616188753
 11
418.43374974819892
 21
778.93908616188753
  0
LINE
  8
_0-1_計細線
  6
CONTINUOUS
 62
    3
 10
418.43374974819892
 20
778.93908616188753
 11
418.43374974819892
 21
584.93908616188708
  0
LINE
  8
_0-1_計細線
  6
CONTINUOUS
 62
    3
 10
418.43374974819892
 20
584.93908616188708
 11
421.43374974819892
 21
584.93908616188708
  0
LINE
  8
_0-1_計細線
  6
CONTINUOUS
 62
    3
 10
421.43374974819892
 20
584.93908616188708
 11
421.43374974819892
 21
778.93908616188753
  0
LINE
  8
_0-1_計細線
  6
CONTINUOUS
 62
    3
 10
431.43374974819892
 20
778.93908616188753
 11
428.43374974819892
 21
778.93908616188753
  0
LINE
  8
_0-1_計細線
  6
CONTINUOUS
 62
    3
 10
428.43374974819892
 20
778.93908616188753
 11
428.43374974819892
 21
584.93908616188708
  0
LINE
  8
_0-1_計細線
  6
CONTINUOUS
 62
    3
 10
428.43374974819892
 20
584.93908616188708
 11
431.43374974819892
 21
584.93908616188708
  0
LINE
  8
_0-1_計細線
  6
CONTINUOUS
 62
    3
 10
431.43374974819892
 20
584.93908616188708
 11
431.43374974819892
 21
778.93908616188753
  0
LINE
  8
_0-1_計細線
  6
CONTINUOUS
 62
    3
 10
441.43374974819892
 20
778.93908616188753
 11
438.43374974819892
 21
778.93908616188753
  0
LINE
  8
_0-1_計細線
  6
CONTINUOUS
 62
    3
 10
438.43374974819892
 20
778.93908616188753
 11
438.43374974819892
 21
584.93908616188708
  0
LINE
  8
_0-1_計細線
  6
CONTINUOUS
 62
    3
 10
438.43374974819892
 20
584.93908616188708
 11
441.43374974819892
 21
584.93908616188708
  0
LINE
  8
_0-1_計細線
  6
CONTINUOUS
 62
    3
 10
441.43374974819892
 20
584.93908616188708
 11
441.43374974819892
 21
778.93908616188753
  0
LINE
  8
_0-1_計細線
  6
CONTINUOUS
 62
    3
 10
451.43374974819892
 20
778.93908616188753
 11
448.43374974819892
 21
778.93908616188753
  0
LINE
  8
_0-1_計細線
  6
CONTINUOUS
 62
    3
 10
448.43374974819892
 20
778.93908616188753
 11
448.43374974819892
 21
584.93908616188708
  0
LINE
  8
_0-1_計細線
  6
CONTINUOUS
 62
    3
 10
448.43374974819892
 20
584.93908616188708
 11
451.43374974819892
 21
584.93908616188708
  0
LINE
  8
_0-1_計細線
  6
CONTINUOUS
 62
    3
 10
451.43374974819892
 20
584.93908616188708
 11
451.43374974819892
 21
778.93908616188753
  0
LINE
  8
_0-1_計細線
  6
CONTINUOUS
 62
    3
 10
461.43374974819892
 20
778.93908616188753
 11
458.43374974819892
 21
778.93908616188753
  0
LINE
  8
_0-1_計細線
  6
CONTINUOUS
 62
    3
 10
458.43374974819892
 20
778.93908616188753
 11
458.43374974819892
 21
584.93908616188708
  0
LINE
  8
_0-1_計細線
  6
CONTINUOUS
 62
    3
 10
458.43374974819892
 20
584.93908616188708
 11
461.43374974819892
 21
584.93908616188708
  0
LINE
  8
_0-1_計細線
  6
CONTINUOUS
 62
    3
 10
461.43374974819892
 20
584.93908616188708
 11
461.43374974819892
 21
778.93908616188753
  0
LINE
  8
_0-1_計細線
  6
CONTINUOUS
 62
    3
 10
471.43374974819892
 20
778.93908616188753
 11
468.43374974819892
 21
778.93908616188753
  0
LINE
  8
_0-1_計細線
  6
CONTINUOUS
 62
    3
 10
468.43374974819892
 20
778.93908616188753
 11
468.43374974819892
 21
584.93908616188708
  0
LINE
  8
_0-1_計細線
  6
CONTINUOUS
 62
    3
 10
468.43374974819892
 20
584.93908616188708
 11
471.43374974819892
 21
584.93908616188708
  0
LINE
  8
_0-1_計細線
  6
CONTINUOUS
 62
    3
 10
471.43374974819892
 20
584.93908616188708
 11
471.43374974819892
 21
778.93908616188753
  0
LINE
  8
_0-1_計細線
  6
CONTINUOUS
 62
    3
 10
481.43374974819892
 20
778.93908616188753
 11
478.43374974819892
 21
778.93908616188753
  0
LINE
  8
_0-1_計細線
  6
CONTINUOUS
 62
    3
 10
478.43374974819892
 20
778.93908616188753
 11
478.43374974819892
 21
584.93908616188708
  0
LINE
  8
_0-1_計細線
  6
CONTINUOUS
 62
    3
 10
478.43374974819892
 20
584.93908616188708
 11
481.43374974819892
 21
584.93908616188708
  0
LINE
  8
_0-1_計細線
  6
CONTINUOUS
 62
    3
 10
481.43374974819892
 20
584.93908616188708
 11
481.43374974819892
 21
778.93908616188753
  0
LINE
  8
_0-1_計細線
  6
CONTINUOUS
 62
    3
 10
491.43374974819892
 20
778.93908616188753
 11
488.43374974819892
 21
778.93908616188753
  0
LINE
  8
_0-1_計細線
  6
CONTINUOUS
 62
    3
 10
488.43374974819892
 20
778.93908616188753
 11
488.43374974819892
 21
584.93908616188708
  0
LINE
  8
_0-1_計細線
  6
CONTINUOUS
 62
    3
 10
488.43374974819892
 20
584.93908616188708
 11
491.43374974819892
 21
584.93908616188708
  0
LINE
  8
_0-1_計細線
  6
CONTINUOUS
 62
    3
 10
491.43374974819892
 20
584.93908616188708
 11
491.43374974819892
 21
778.93908616188753
  0
LINE
  8
_0-1_計細線
  6
CONTINUOUS
 62
    3
 10
501.43374974819892
 20
778.93908616188753
 11
498.43374974819892
 21
778.93908616188753
  0
LINE
  8
_0-1_計細線
  6
CONTINUOUS
 62
    3
 10
498.43374974819892
 20
778.93908616188753
 11
498.43374974819892
 21
584.93908616188708
  0
LINE
  8
_0-1_計細線
  6
CONTINUOUS
 62
    3
 10
498.43374974819892
 20
584.93908616188708
 11
501.43374974819892
 21
584.93908616188708
  0
LINE
  8
_0-1_計細線
  6
CONTINUOUS
 62
    3
 10
501.43374974819892
 20
584.93908616188708
 11
501.43374974819892
 21
778.93908616188753
  0
LINE
  8
_0-1_計細線
  6
CONTINUOUS
 62
    3
 10
511.43374974819892
 20
778.93908616188753
 11
508.43374974819892
 21
778.93908616188753
  0
LINE
  8
_0-1_計細線
  6
CONTINUOUS
 62
    3
 10
508.43374974819892
 20
778.93908616188753
 11
508.43374974819892
 21
584.93908616188708
  0
LINE
  8
_0-1_計細線
  6
CONTINUOUS
 62
    3
 10
508.43374974819892
 20
584.93908616188708
 11
511.43374974819892
 21
584.93908616188708
  0
LINE
  8
_0-1_計細線
  6
CONTINUOUS
 62
    3
 10
511.43374974819892
 20
584.93908616188708
 11
511.43374974819892
 21
778.93908616188753
  0
LINE
  8
_0-1_計細線
  6
CONTINUOUS
 62
    3
 10
521.43374974819892
 20
778.93908616188753
 11
518.43374974819892
 21
778.93908616188753
  0
LINE
  8
_0-1_計細線
  6
CONTINUOUS
 62
    3
 10
518.43374974819892
 20
778.93908616188753
 11
518.43374974819892
 21
584.93908616188708
  0
LINE
  8
_0-1_計細線
  6
CONTINUOUS
 62
    3
 10
518.43374974819892
 20
584.93908616188708
 11
521.43374974819892
 21
584.93908616188708
  0
LINE
  8
_0-1_計細線
  6
CONTINUOUS
 62
    3
 10
521.43374974819892
 20
584.93908616188708
 11
521.43374974819892
 21
778.93908616188753
  0
LINE
  8
_0-1_計細線
  6
CONTINUOUS
 62
    3
 10
531.43374974819892
 20
778.93908616188753
 11
528.43374974819892
 21
778.93908616188753
  0
LINE
  8
_0-1_計細線
  6
CONTINUOUS
 62
    3
 10
528.43374974819892
 20
778.93908616188753
 11
528.43374974819892
 21
584.93908616188708
  0
LINE
  8
_0-1_計細線
  6
CONTINUOUS
 62
    3
 10
528.43374974819892
 20
584.93908616188708
 11
531.43374974819892
 21
584.93908616188708
  0
LINE
  8
_0-1_計細線
  6
CONTINUOUS
 62
    3
 10
531.43374974819892
 20
584.93908616188708
 11
531.43374974819892
 21
778.93908616188753
  0
LINE
  8
_0-1_計細線
  6
CONTINUOUS
 62
    3
 10
541.43374974819892
 20
778.93908616188753
 11
538.43374974819892
 21
778.93908616188753
  0
LINE
  8
_0-1_計細線
  6
CONTINUOUS
 62
    3
 10
538.43374974819892
 20
778.93908616188753
 11
538.43374974819892
 21
584.93908616188708
  0
LINE
  8
_0-1_計細線
  6
CONTINUOUS
 62
    3
 10
538.43374974819892
 20
584.93908616188708
 11
541.43374974819892
 21
584.93908616188708
  0
LINE
  8
_0-1_計細線
  6
CONTINUOUS
 62
    3
 10
541.43374974819892
 20
584.93908616188708
 11
541.43374974819892
 21
778.93908616188753
  0
LINE
  8
_0-1_計細線
  6
CONTINUOUS
 62
    3
 10
551.43374974819892
 20
778.93908616188753
 11
548.43374974819892
 21
778.93908616188753
  0
LINE
  8
_0-1_計細線
  6
CONTINUOUS
 62
    3
 10
548.43374974819892
 20
778.93908616188753
 11
548.43374974819892
 21
584.93908616188708
  0
LINE
  8
_0-1_計細線
  6
CONTINUOUS
 62
    3
 10
548.43374974819892
 20
584.93908616188708
 11
551.43374974819892
 21
584.93908616188708
  0
LINE
  8
_0-1_計細線
  6
CONTINUOUS
 62
    3
 10
551.43374974819892
 20
584.93908616188708
 11
551.43374974819892
 21
778.93908616188753
  0
LINE
  8
_0-1_計細線
  6
CONTINUOUS
 62
    3
 10
561.43374974819892
 20
778.93908616188753
 11
558.43374974819892
 21
778.93908616188753
  0
LINE
  8
_0-1_計細線
  6
CONTINUOUS
 62
    3
 10
558.43374974819892
 20
778.93908616188753
 11
558.43374974819892
 21
584.93908616188708
  0
LINE
  8
_0-1_計細線
  6
CONTINUOUS
 62
    3
 10
558.43374974819892
 20
584.93908616188708
 11
561.43374974819892
 21
584.93908616188708
  0
LINE
  8
_0-1_計細線
  6
CONTINUOUS
 62
    3
 10
561.43374974819892
 20
584.93908616188708
 11
561.43374974819892
 21
778.93908616188753
  0
LINE
  8
_0-1_計細線
  6
CONTINUOUS
 62
    3
 10
571.43374974819892
 20
778.93908616188753
 11
568.43374974819892
 21
778.93908616188753
  0
LINE
  8
_0-1_計細線
  6
CONTINUOUS
 62
    3
 10
568.43374974819892
 20
778.93908616188753
 11
568.43374974819892
 21
584.93908616188708
  0
LINE
  8
_0-1_計細線
  6
CONTINUOUS
 62
    3
 10
568.43374974819892
 20
584.93908616188708
 11
571.43374974819892
 21
584.93908616188708
  0
LINE
  8
_0-1_計細線
  6
CONTINUOUS
 62
    3
 10
571.43374974819892
 20
584.93908616188708
 11
571.43374974819892
 21
778.93908616188753
  0
LINE
  8
_0-1_計細線
  6
CONTINUOUS
 62
    3
 10
581.43374974819892
 20
778.93908616188753
 11
578.43374974819892
 21
778.93908616188753
  0
LINE
  8
_0-1_計細線
  6
CONTINUOUS
 62
    3
 10
578.43374974819892
 20
778.93908616188753
 11
578.43374974819892
 21
584.93908616188708
  0
LINE
  8
_0-1_計細線
  6
CONTINUOUS
 62
    3
 10
578.43374974819892
 20
584.93908616188708
 11
581.43374974819892
 21
584.93908616188708
  0
LINE
  8
_0-1_計細線
  6
CONTINUOUS
 62
    3
 10
581.43374974819892
 20
584.93908616188708
 11
581.43374974819892
 21
778.93908616188753
  0
LINE
  8
_0-1_計細線
  6
CONTINUOUS
 62
    3
 10
591.43374974819892
 20
778.93908616188753
 11
588.43374974819892
 21
778.93908616188753
  0
LINE
  8
_0-1_計細線
  6
CONTINUOUS
 62
    3
 10
588.43374974819892
 20
778.93908616188753
 11
588.43374974819892
 21
584.93908616188708
  0
LINE
  8
_0-1_計細線
  6
CONTINUOUS
 62
    3
 10
588.43374974819892
 20
584.93908616188708
 11
591.43374974819892
 21
584.93908616188708
  0
LINE
  8
_0-1_計細線
  6
CONTINUOUS
 62
    3
 10
591.43374974819892
 20
584.93908616188708
 11
591.43374974819892
 21
778.93908616188753
  0
LINE
  8
_0-1_計細線
  6
CONTINUOUS
 62
    3
 10
601.43374974819892
 20
778.93908616188753
 11
598.43374974819892
 21
778.93908616188753
  0
LINE
  8
_0-1_計細線
  6
CONTINUOUS
 62
    3
 10
598.43374974819892
 20
778.93908616188753
 11
598.43374974819892
 21
584.93908616188708
  0
LINE
  8
_0-1_計細線
  6
CONTINUOUS
 62
    3
 10
598.43374974819892
 20
584.93908616188708
 11
601.43374974819892
 21
584.93908616188708
  0
LINE
  8
_0-1_計細線
  6
CONTINUOUS
 62
    3
 10
601.43374974819892
 20
584.93908616188708
 11
601.43374974819892
 21
778.93908616188753
  0
LINE
  8
_0-1_計細線
  6
CONTINUOUS
 62
    3
 10
611.43374974819892
 20
778.93908616188753
 11
608.43374974819892
 21
778.93908616188753
  0
LINE
  8
_0-1_計細線
  6
CONTINUOUS
 62
    3
 10
608.43374974819892
 20
778.93908616188753
 11
608.43374974819892
 21
584.93908616188708
  0
LINE
  8
_0-1_計細線
  6
CONTINUOUS
 62
    3
 10
608.43374974819892
 20
584.93908616188708
 11
611.43374974819892
 21
584.93908616188708
  0
LINE
  8
_0-1_計細線
  6
CONTINUOUS
 62
    3
 10
611.43374974819892
 20
584.93908616188708
 11
611.43374974819892
 21
778.93908616188753
  0
LINE
  8
_0-1_計細線
  6
CONTINUOUS
 62
    3
 10
621.43374974819892
 20
778.93908616188753
 11
618.43374974819892
 21
778.93908616188753
  0
LINE
  8
_0-1_計細線
  6
CONTINUOUS
 62
    3
 10
618.43374974819892
 20
778.93908616188753
 11
618.43374974819892
 21
584.93908616188708
  0
LINE
  8
_0-1_計細線
  6
CONTINUOUS
 62
    3
 10
618.43374974819892
 20
584.93908616188708
 11
621.43374974819892
 21
584.93908616188708
  0
LINE
  8
_0-1_計細線
  6
CONTINUOUS
 62
    3
 10
621.43374974819892
 20
584.93908616188708
 11
621.43374974819892
 21
778.93908616188753
  0
LINE
  8
_0-1_計細線
  6
CONTINUOUS
 62
    3
 10
631.43374974819892
 20
778.93908616188753
 11
628.43374974819892
 21
778.93908616188753
  0
LINE
  8
_0-1_計細線
  6
CONTINUOUS
 62
    3
 10
628.43374974819892
 20
778.93908616188753
 11
628.43374974819892
 21
584.93908616188708
  0
LINE
  8
_0-1_計細線
  6
CONTINUOUS
 62
    3
 10
628.43374974819892
 20
584.93908616188708
 11
631.43374974819892
 21
584.93908616188708
  0
LINE
  8
_0-1_計細線
  6
CONTINUOUS
 62
    3
 10
631.43374974819892
 20
584.93908616188708
 11
631.43374974819892
 21
778.93908616188753
  0
LINE
  8
_0-1_計細線
  6
CONTINUOUS
 62
    3
 10
641.43374974819892
 20
778.93908616188753
 11
638.43374974819892
 21
778.93908616188753
  0
LINE
  8
_0-1_計細線
  6
CONTINUOUS
 62
    3
 10
638.43374974819892
 20
778.93908616188753
 11
638.43374974819892
 21
584.93908616188708
  0
LINE
  8
_0-1_計細線
  6
CONTINUOUS
 62
    3
 10
638.43374974819892
 20
584.93908616188708
 11
641.43374974819892
 21
584.93908616188708
  0
LINE
  8
_0-1_計細線
  6
CONTINUOUS
 62
    3
 10
641.43374974819892
 20
584.93908616188708
 11
641.43374974819892
 21
778.93908616188753
  0
LINE
  8
_0-1_計細線
  6
CONTINUOUS
 62
    3
 10
651.43374974819892
 20
778.93908616188753
 11
648.43374974819892
 21
778.93908616188753
  0
LINE
  8
_0-1_計細線
  6
CONTINUOUS
 62
    3
 10
648.43374974819892
 20
778.93908616188753
 11
648.43374974819892
 21
584.93908616188708
  0
LINE
  8
_0-1_計細線
  6
CONTINUOUS
 62
    3
 10
648.43374974819892
 20
584.93908616188708
 11
651.43374974819892
 21
584.93908616188708
  0
LINE
  8
_0-1_計細線
  6
CONTINUOUS
 62
    3
 10
651.43374974819892
 20
584.93908616188708
 11
651.43374974819892
 21
778.93908616188753
  0
LINE
  8
_0-1_計細線
  6
CONTINUOUS
 62
    3
 10
661.43374974819892
 20
778.93908616188753
 11
658.43374974819892
 21
778.93908616188753
  0
LINE
  8
_0-1_計細線
  6
CONTINUOUS
 62
    3
 10
658.43374974819892
 20
778.93908616188753
 11
658.43374974819892
 21
584.93908616188708
  0
LINE
  8
_0-1_計細線
  6
CONTINUOUS
 62
    3
 10
658.43374974819892
 20
584.93908616188708
 11
661.43374974819892
 21
584.93908616188708
  0
LINE
  8
_0-1_計細線
  6
CONTINUOUS
 62
    3
 10
661.43374974819892
 20
584.93908616188708
 11
661.43374974819892
 21
778.93908616188753
  0
LINE
  8
_0-1_計細線
  6
CONTINUOUS
 62
    3
 10
671.43374974819892
 20
778.93908616188753
 11
668.43374974819892
 21
778.93908616188753
  0
LINE
  8
_0-1_計細線
  6
CONTINUOUS
 62
    3
 10
668.43374974819892
 20
778.93908616188753
 11
668.43374974819892
 21
584.93908616188708
  0
LINE
  8
_0-1_計細線
  6
CONTINUOUS
 62
    3
 10
668.43374974819892
 20
584.93908616188708
 11
671.43374974819892
 21
584.93908616188708
  0
LINE
  8
_0-1_計細線
  6
CONTINUOUS
 62
    3
 10
671.43374974819892
 20
584.93908616188708
 11
671.43374974819892
 21
778.93908616188753
  0
LINE
  8
_0-1_計細線
  6
CONTINUOUS
 62
    3
 10
681.43374974819892
 20
778.93908616188753
 11
678.43374974819892
 21
778.93908616188753
  0
LINE
  8
_0-1_計細線
  6
CONTINUOUS
 62
    3
 10
678.43374974819892
 20
778.93908616188753
 11
678.43374974819892
 21
584.93908616188708
  0
LINE
  8
_0-1_計細線
  6
CONTINUOUS
 62
    3
 10
678.43374974819892
 20
584.93908616188708
 11
681.43374974819892
 21
584.93908616188708
  0
LINE
  8
_0-1_計細線
  6
CONTINUOUS
 62
    3
 10
681.43374974819892
 20
584.93908616188708
 11
681.43374974819892
 21
778.93908616188753
  0
LINE
  8
_0-1_計細線
  6
CONTINUOUS
 62
    3
 10
691.43374974819892
 20
778.93908616188753
 11
688.43374974819892
 21
778.93908616188753
  0
LINE
  8
_0-1_計細線
  6
CONTINUOUS
 62
    3
 10
688.43374974819892
 20
778.93908616188753
 11
688.43374974819892
 21
584.93908616188708
  0
LINE
  8
_0-1_計細線
  6
CONTINUOUS
 62
    3
 10
688.43374974819892
 20
584.93908616188708
 11
691.43374974819892
 21
584.93908616188708
  0
LINE
  8
_0-1_計細線
  6
CONTINUOUS
 62
    3
 10
691.43374974819892
 20
584.93908616188708
 11
691.43374974819892
 21
778.93908616188753
  0
LINE
  8
_0-1_計細線
  6
CONTINUOUS
 62
    3
 10
701.43374974819892
 20
778.93908616188753
 11
698.43374974819892
 21
778.93908616188753
  0
LINE
  8
_0-1_計細線
  6
CONTINUOUS
 62
    3
 10
698.43374974819892
 20
778.93908616188753
 11
698.43374974819892
 21
584.93908616188708
  0
LINE
  8
_0-1_計細線
  6
CONTINUOUS
 62
    3
 10
698.43374974819892
 20
584.93908616188708
 11
701.43374974819892
 21
584.93908616188708
  0
LINE
  8
_0-1_計細線
  6
CONTINUOUS
 62
    3
 10
701.43374974819892
 20
584.93908616188708
 11
701.43374974819892
 21
778.93908616188753
  0
LINE
  8
_0-1_計細線
  6
CONTINUOUS
 62
    3
 10
711.43374974819892
 20
778.93908616188753
 11
708.43374974819892
 21
778.93908616188753
  0
LINE
  8
_0-1_計細線
  6
CONTINUOUS
 62
    3
 10
708.43374974819892
 20
778.93908616188753
 11
708.43374974819892
 21
584.93908616188708
  0
LINE
  8
_0-1_計細線
  6
CONTINUOUS
 62
    3
 10
708.43374974819892
 20
584.93908616188708
 11
711.43374974819892
 21
584.93908616188708
  0
LINE
  8
_0-1_計細線
  6
CONTINUOUS
 62
    3
 10
711.43374974819892
 20
584.93908616188708
 11
711.43374974819892
 21
778.93908616188753
  0
LINE
  8
_0-1_計細線
  6
CONTINUOUS
 62
    3
 10
721.43374974819892
 20
778.93908616188753
 11
718.43374974819892
 21
778.93908616188753
  0
LINE
  8
_0-1_計細線
  6
CONTINUOUS
 62
    3
 10
718.43374974819892
 20
778.93908616188753
 11
718.43374974819892
 21
584.93908616188708
  0
LINE
  8
_0-1_計細線
  6
CONTINUOUS
 62
    3
 10
718.43374974819892
 20
584.93908616188708
 11
721.43374974819892
 21
584.93908616188708
  0
LINE
  8
_0-1_計細線
  6
CONTINUOUS
 62
    3
 10
721.43374974819892
 20
584.93908616188708
 11
721.43374974819892
 21
778.93908616188753
  0
LINE
  8
_0-1_計細線
  6
CONTINUOUS
 62
    3
 10
731.43374974819892
 20
778.93908616188753
 11
728.43374974819892
 21
778.93908616188753
  0
LINE
  8
_0-1_計細線
  6
CONTINUOUS
 62
    3
 10
728.43374974819892
 20
778.93908616188753
 11
728.43374974819892
 21
584.93908616188708
  0
LINE
  8
_0-1_計細線
  6
CONTINUOUS
 62
    3
 10
728.43374974819892
 20
584.93908616188708
 11
731.43374974819892
 21
584.93908616188708
  0
LINE
  8
_0-1_計細線
  6
CONTINUOUS
 62
    3
 10
731.43374974819892
 20
584.93908616188708
 11
731.43374974819892
 21
778.93908616188753
  0
LINE
  8
_0-1_計細線
  6
CONTINUOUS
 62
    3
 10
741.43374974819892
 20
778.93908616188753
 11
738.43374974819892
 21
778.93908616188753
  0
LINE
  8
_0-1_計細線
  6
CONTINUOUS
 62
    3
 10
738.43374974819892
 20
778.93908616188753
 11
738.43374974819892
 21
584.93908616188708
  0
LINE
  8
_0-1_計細線
  6
CONTINUOUS
 62
    3
 10
738.43374974819892
 20
584.93908616188708
 11
741.43374974819892
 21
584.93908616188708
  0
LINE
  8
_0-1_計細線
  6
CONTINUOUS
 62
    3
 10
741.43374974819892
 20
584.93908616188708
 11
741.43374974819892
 21
778.93908616188753
  0
LINE
  8
_0-1_計細線
  6
CONTINUOUS
 62
    3
 10
751.43374974819892
 20
778.93908616188753
 11
748.43374974819892
 21
778.93908616188753
  0
LINE
  8
_0-1_計細線
  6
CONTINUOUS
 62
    3
 10
748.43374974819892
 20
778.93908616188753
 11
748.43374974819892
 21
584.93908616188708
  0
LINE
  8
_0-1_計細線
  6
CONTINUOUS
 62
    3
 10
748.43374974819892
 20
584.93908616188708
 11
751.43374974819892
 21
584.93908616188708
  0
LINE
  8
_0-1_計細線
  6
CONTINUOUS
 62
    3
 10
751.43374974819892
 20
584.93908616188708
 11
751.43374974819892
 21
778.93908616188753
  0
LINE
  8
_0-1_計細線
  6
CONTINUOUS
 62
    3
 10
761.43374974819892
 20
778.93908616188753
 11
758.43374974819892
 21
778.93908616188753
  0
LINE
  8
_0-1_計細線
  6
CONTINUOUS
 62
    3
 10
758.43374974819892
 20
778.93908616188753
 11
758.43374974819892
 21
584.93908616188708
  0
LINE
  8
_0-1_計細線
  6
CONTINUOUS
 62
    3
 10
758.43374974819892
 20
584.93908616188708
 11
761.43374974819892
 21
584.93908616188708
  0
LINE
  8
_0-1_計細線
  6
CONTINUOUS
 62
    3
 10
761.43374974819892
 20
584.93908616188708
 11
761.43374974819892
 21
778.93908616188753
  0
LINE
  8
_0-1_計細線
  6
CONTINUOUS
 62
    3
 10
771.43374974819892
 20
778.93908616188753
 11
768.43374974819892
 21
778.93908616188753
  0
LINE
  8
_0-1_計細線
  6
CONTINUOUS
 62
    3
 10
768.43374974819892
 20
778.93908616188753
 11
768.43374974819892
 21
584.93908616188708
  0
LINE
  8
_0-1_計細線
  6
CONTINUOUS
 62
    3
 10
768.43374974819892
 20
584.93908616188708
 11
771.43374974819892
 21
584.93908616188708
  0
LINE
  8
_0-1_計細線
  6
CONTINUOUS
 62
    3
 10
771.43374974819892
 20
584.93908616188708
 11
771.43374974819892
 21
778.93908616188753
  0
LINE
  8
_0-1_計細線
  6
CONTINUOUS
 62
    3
 10
781.43374974819892
 20
778.93908616188753
 11
778.43374974819892
 21
778.93908616188753
  0
LINE
  8
_0-1_計細線
  6
CONTINUOUS
 62
    3
 10
778.43374974819892
 20
778.93908616188753
 11
778.43374974819892
 21
584.93908616188708
  0
LINE
  8
_0-1_計細線
  6
CONTINUOUS
 62
    3
 10
778.43374974819892
 20
584.93908616188708
 11
781.43374974819892
 21
584.93908616188708
  0
LINE
  8
_0-1_計細線
  6
CONTINUOUS
 62
    3
 10
781.43374974819892
 20
584.93908616188708
 11
781.43374974819892
 21
778.93908616188753
  0
LINE
  8
_0-1_計細線
  6
CONTINUOUS
 62
    3
 10
791.43374974819892
 20
778.93908616188753
 11
788.43374974819892
 21
778.93908616188753
  0
LINE
  8
_0-1_計細線
  6
CONTINUOUS
 62
    3
 10
788.43374974819892
 20
778.93908616188753
 11
788.43374974819892
 21
584.93908616188708
  0
LINE
  8
_0-1_計細線
  6
CONTINUOUS
 62
    3
 10
788.43374974819892
 20
584.93908616188708
 11
791.43374974819892
 21
584.93908616188708
  0
LINE
  8
_0-1_計細線
  6
CONTINUOUS
 62
    3
 10
791.43374974819892
 20
584.93908616188708
 11
791.43374974819892
 21
778.93908616188753
  0
LINE
  8
_0-1_計細線
  6
CONTINUOUS
 62
    3
 10
801.43374974819892
 20
778.93908616188753
 11
798.43374974819892
 21
778.93908616188753
  0
LINE
  8
_0-1_計細線
  6
CONTINUOUS
 62
    3
 10
798.43374974819892
 20
778.93908616188753
 11
798.43374974819892
 21
584.93908616188708
  0
LINE
  8
_0-1_計細線
  6
CONTINUOUS
 62
    3
 10
798.43374974819892
 20
584.93908616188708
 11
801.43374974819892
 21
584.93908616188708
  0
LINE
  8
_0-1_計細線
  6
CONTINUOUS
 62
    3
 10
801.43374974819892
 20
584.93908616188708
 11
801.43374974819892
 21
778.93908616188753
  0
LINE
  8
_0-1_計細線
  6
CONTINUOUS
 62
    3
 10
811.43374974819892
 20
778.93908616188753
 11
808.43374974819892
 21
778.93908616188753
  0
LINE
  8
_0-1_計細線
  6
CONTINUOUS
 62
    3
 10
808.43374974819892
 20
778.93908616188753
 11
808.43374974819892
 21
584.93908616188708
  0
LINE
  8
_0-1_計細線
  6
CONTINUOUS
 62
    3
 10
808.43374974819892
 20
584.93908616188708
 11
811.43374974819892
 21
584.93908616188708
  0
LINE
  8
_0-1_計細線
  6
CONTINUOUS
 62
    3
 10
811.43374974819892
 20
584.93908616188708
 11
811.43374974819892
 21
778.93908616188753
  0
LINE
  8
_0-1_計細線
  6
CONTINUOUS
 62
    3
 10
821.43374974819892
 20
778.93908616188753
 11
818.43374974819892
 21
778.93908616188753
  0
LINE
  8
_0-1_計細線
  6
CONTINUOUS
 62
    3
 10
818.43374974819892
 20
778.93908616188753
 11
818.43374974819892
 21
584.93908616188708
  0
LINE
  8
_0-1_計細線
  6
CONTINUOUS
 62
    3
 10
818.43374974819892
 20
584.93908616188708
 11
821.43374974819892
 21
584.93908616188708
  0
LINE
  8
_0-1_計細線
  6
CONTINUOUS
 62
    3
 10
821.43374974819892
 20
584.93908616188708
 11
821.43374974819892
 21
778.93908616188753
  0
LINE
  8
_0-1_計細線
  6
CONTINUOUS
 62
    3
 10
831.43374974819892
 20
778.93908616188753
 11
828.43374974819892
 21
778.93908616188753
  0
LINE
  8
_0-1_計細線
  6
CONTINUOUS
 62
    3
 10
828.43374974819892
 20
778.93908616188753
 11
828.43374974819892
 21
584.93908616188708
  0
LINE
  8
_0-1_計細線
  6
CONTINUOUS
 62
    3
 10
828.43374974819892
 20
584.93908616188708
 11
831.43374974819892
 21
584.93908616188708
  0
LINE
  8
_0-1_計細線
  6
CONTINUOUS
 62
    3
 10
831.43374974819892
 20
584.93908616188708
 11
831.43374974819892
 21
778.93908616188753
  0
LINE
  8
_0-1_計細線
  6
CONTINUOUS
 62
    3
 10
841.43374974819892
 20
778.93908616188753
 11
838.43374974819892
 21
778.93908616188753
  0
LINE
  8
_0-1_計細線
  6
CONTINUOUS
 62
    3
 10
838.43374974819892
 20
778.93908616188753
 11
838.43374974819892
 21
584.93908616188708
  0
LINE
  8
_0-1_計細線
  6
CONTINUOUS
 62
    3
 10
838.43374974819892
 20
584.93908616188708
 11
841.43374974819892
 21
584.93908616188708
  0
LINE
  8
_0-1_計細線
  6
CONTINUOUS
 62
    3
 10
841.43374974819892
 20
584.93908616188708
 11
841.43374974819892
 21
778.93908616188753
  0
LINE
  8
_0-1_計細線
  6
CONTINUOUS
 62
    3
 10
851.43374974819892
 20
778.93908616188753
 11
848.43374974819892
 21
778.93908616188753
  0
LINE
  8
_0-1_計細線
  6
CONTINUOUS
 62
    3
 10
848.43374974819892
 20
778.93908616188753
 11
848.43374974819892
 21
584.93908616188708
  0
LINE
  8
_0-1_計細線
  6
CONTINUOUS
 62
    3
 10
848.43374974819892
 20
584.93908616188708
 11
851.43374974819892
 21
584.93908616188708
  0
LINE
  8
_0-1_計細線
  6
CONTINUOUS
 62
    3
 10
851.43374974819892
 20
584.93908616188708
 11
851.43374974819892
 21
778.93908616188753
  0
LINE
  8
_0-1_計細線
  6
CONTINUOUS
 62
    3
 10
861.43374974819892
 20
778.93908616188753
 11
858.43374974819892
 21
778.93908616188753
  0
LINE
  8
_0-1_計細線
  6
CONTINUOUS
 62
    3
 10
858.43374974819892
 20
778.93908616188753
 11
858.43374974819892
 21
584.93908616188708
  0
LINE
  8
_0-1_計細線
  6
CONTINUOUS
 62
    3
 10
858.43374974819892
 20
584.93908616188708
 11
861.43374974819892
 21
584.93908616188708
  0
LINE
  8
_0-1_計細線
  6
CONTINUOUS
 62
    3
 10
861.43374974819892
 20
584.93908616188708
 11
861.43374974819892
 21
778.93908616188753
  0
LINE
  8
_0-1_計細線
  6
CONTINUOUS
 62
    3
 10
871.43374974819892
 20
778.93908616188753
 11
868.43374974819892
 21
778.93908616188753
  0
LINE
  8
_0-1_計細線
  6
CONTINUOUS
 62
    3
 10
868.43374974819892
 20
778.93908616188753
 11
868.43374974819892
 21
584.93908616188708
  0
LINE
  8
_0-1_計細線
  6
CONTINUOUS
 62
    3
 10
868.43374974819892
 20
584.93908616188708
 11
871.43374974819892
 21
584.93908616188708
  0
LINE
  8
_0-1_計細線
  6
CONTINUOUS
 62
    3
 10
871.43374974819892
 20
584.93908616188708
 11
871.43374974819892
 21
778.93908616188753
  0
LINE
  8
_0-1_計細線
  6
CONTINUOUS
 62
    3
 10
881.43374974819892
 20
778.93908616188753
 11
878.43374974819892
 21
778.93908616188753
  0
LINE
  8
_0-1_計細線
  6
CONTINUOUS
 62
    3
 10
878.43374974819892
 20
778.93908616188753
 11
878.43374974819892
 21
584.93908616188708
  0
LINE
  8
_0-1_計細線
  6
CONTINUOUS
 62
    3
 10
878.43374974819892
 20
584.93908616188708
 11
881.43374974819892
 21
584.93908616188708
  0
LINE
  8
_0-1_計細線
  6
CONTINUOUS
 62
    3
 10
881.43374974819892
 20
584.93908616188708
 11
881.43374974819892
 21
778.93908616188753
  0
LINE
  8
_0-1_計細線
  6
CONTINUOUS
 62
    3
 10
891.43374974819892
 20
778.93908616188753
 11
888.43374974819892
 21
778.93908616188753
  0
LINE
  8
_0-1_計細線
  6
CONTINUOUS
 62
    3
 10
888.43374974819892
 20
778.93908616188753
 11
888.43374974819892
 21
584.93908616188708
  0
LINE
  8
_0-1_計細線
  6
CONTINUOUS
 62
    3
 10
888.43374974819892
 20
584.93908616188708
 11
891.43374974819892
 21
584.93908616188708
  0
LINE
  8
_0-1_計細線
  6
CONTINUOUS
 62
    3
 10
891.43374974819892
 20
584.93908616188708
 11
891.43374974819892
 21
778.93908616188753
  0
LINE
  8
_0-1_計細線
  6
CONTINUOUS
 62
    3
 10
901.43374974819892
 20
778.93908616188753
 11
898.43374974819892
 21
778.93908616188753
  0
LINE
  8
_0-1_計細線
  6
CONTINUOUS
 62
    3
 10
898.43374974819892
 20
778.93908616188753
 11
898.43374974819892
 21
584.93908616188708
  0
LINE
  8
_0-1_計細線
  6
CONTINUOUS
 62
    3
 10
898.43374974819892
 20
584.93908616188708
 11
901.43374974819892
 21
584.93908616188708
  0
LINE
  8
_0-1_計細線
  6
CONTINUOUS
 62
    3
 10
901.43374974819892
 20
584.93908616188708
 11
901.43374974819892
 21
778.93908616188753
  0
LINE
  8
_0-1_計細線
  6
CONTINUOUS
 62
    3
 10
911.43374974819892
 20
778.93908616188753
 11
908.43374974819892
 21
778.93908616188753
  0
LINE
  8
_0-1_計細線
  6
CONTINUOUS
 62
    3
 10
908.43374974819892
 20
778.93908616188753
 11
908.43374974819892
 21
584.93908616188708
  0
LINE
  8
_0-1_計細線
  6
CONTINUOUS
 62
    3
 10
908.43374974819892
 20
584.93908616188708
 11
911.43374974819892
 21
584.93908616188708
  0
LINE
  8
_0-1_計細線
  6
CONTINUOUS
 62
    3
 10
911.43374974819892
 20
584.93908616188708
 11
911.43374974819892
 21
778.93908616188753
  0
LINE
  8
_0-1_計細線
  6
CONTINUOUS
 62
    3
 10
921.43374974819892
 20
778.93908616188753
 11
918.43374974819892
 21
778.93908616188753
  0
LINE
  8
_0-1_計細線
  6
CONTINUOUS
 62
    3
 10
918.43374974819892
 20
778.93908616188753
 11
918.43374974819892
 21
584.93908616188708
  0
LINE
  8
_0-1_計細線
  6
CONTINUOUS
 62
    3
 10
918.43374974819892
 20
584.93908616188708
 11
921.43374974819892
 21
584.93908616188708
  0
LINE
  8
_0-1_計細線
  6
CONTINUOUS
 62
    3
 10
921.43374974819892
 20
584.93908616188708
 11
921.43374974819892
 21
778.93908616188753
  0
LINE
  8
_0-1_計細線
  6
CONTINUOUS
 62
    3
 10
931.43374974819892
 20
778.93908616188753
 11
928.43374974819892
 21
778.93908616188753
  0
LINE
  8
_0-1_計細線
  6
CONTINUOUS
 62
    3
 10
928.43374974819892
 20
778.93908616188753
 11
928.43374974819892
 21
584.93908616188708
  0
LINE
  8
_0-1_計細線
  6
CONTINUOUS
 62
    3
 10
928.43374974819892
 20
584.93908616188708
 11
931.43374974819892
 21
584.93908616188708
  0
LINE
  8
_0-1_計細線
  6
CONTINUOUS
 62
    3
 10
931.43374974819892
 20
584.93908616188708
 11
931.43374974819892
 21
778.93908616188753
  0
LINE
  8
_0-1_計細線
  6
CONTINUOUS
 62
    3
 10
941.43374974819892
 20
778.93908616188753
 11
938.43374974819892
 21
778.93908616188753
  0
LINE
  8
_0-1_計細線
  6
CONTINUOUS
 62
    3
 10
938.43374974819892
 20
778.93908616188753
 11
938.43374974819892
 21
584.93908616188708
  0
LINE
  8
_0-1_計細線
  6
CONTINUOUS
 62
    3
 10
938.43374974819892
 20
584.93908616188708
 11
941.43374974819892
 21
584.93908616188708
  0
LINE
  8
_0-1_計細線
  6
CONTINUOUS
 62
    3
 10
941.43374974819892
 20
584.93908616188708
 11
941.43374974819892
 21
778.93908616188753
  0
LINE
  8
_0-1_計細線
  6
CONTINUOUS
 62
    3
 10
951.43374974819892
 20
778.93908616188753
 11
948.43374974819892
 21
778.93908616188753
  0
LINE
  8
_0-1_計細線
  6
CONTINUOUS
 62
    3
 10
948.43374974819892
 20
778.93908616188753
 11
948.43374974819892
 21
584.93908616188708
  0
LINE
  8
_0-1_計細線
  6
CONTINUOUS
 62
    3
 10
948.43374974819892
 20
584.93908616188708
 11
951.43374974819892
 21
584.93908616188708
  0
LINE
  8
_0-1_計細線
  6
CONTINUOUS
 62
    3
 10
951.43374974819892
 20
584.93908616188708
 11
951.43374974819892
 21
778.93908616188753
  0
LINE
  8
_0-1_計細線
  6
CONTINUOUS
 62
    3
 10
961.43374974819892
 20
778.93908616188753
 11
958.43374974819892
 21
778.93908616188753
  0
LINE
  8
_0-1_計細線
  6
CONTINUOUS
 62
    3
 10
958.43374974819892
 20
778.93908616188753
 11
958.43374974819892
 21
584.93908616188708
  0
LINE
  8
_0-1_計細線
  6
CONTINUOUS
 62
    3
 10
958.43374974819892
 20
584.93908616188708
 11
961.43374974819892
 21
584.93908616188708
  0
LINE
  8
_0-1_計細線
  6
CONTINUOUS
 62
    3
 10
961.43374974819892
 20
584.93908616188708
 11
961.43374974819892
 21
778.93908616188753
  0
LINE
  8
_0-1_計細線
  6
CONTINUOUS
 62
    3
 10
971.43374974819892
 20
778.93908616188753
 11
968.43374974819892
 21
778.93908616188753
  0
LINE
  8
_0-1_計細線
  6
CONTINUOUS
 62
    3
 10
968.43374974819892
 20
778.93908616188753
 11
968.43374974819892
 21
584.93908616188708
  0
LINE
  8
_0-1_計細線
  6
CONTINUOUS
 62
    3
 10
968.43374974819892
 20
584.93908616188708
 11
971.43374974819892
 21
584.93908616188708
  0
LINE
  8
_0-1_計細線
  6
CONTINUOUS
 62
    3
 10
971.43374974819892
 20
584.93908616188708
 11
971.43374974819892
 21
778.93908616188753
  0
LINE
  8
_0-1_計細線
  6
CONTINUOUS
 62
    3
 10
981.43374974819892
 20
778.93908616188753
 11
978.43374974819892
 21
778.93908616188753
  0
LINE
  8
_0-1_計細線
  6
CONTINUOUS
 62
    3
 10
978.43374974819892
 20
778.93908616188753
 11
978.43374974819892
 21
584.93908616188708
  0
LINE
  8
_0-1_計細線
  6
CONTINUOUS
 62
    3
 10
978.43374974819892
 20
584.93908616188708
 11
981.43374974819892
 21
584.93908616188708
  0
LINE
  8
_0-1_計細線
  6
CONTINUOUS
 62
    3
 10
981.43374974819892
 20
584.93908616188708
 11
981.43374974819892
 21
778.93908616188753
  0
LINE
  8
_0-1_計細線
  6
CONTINUOUS
 62
    3
 10
991.43374974819892
 20
778.93908616188753
 11
988.43374974819892
 21
778.93908616188753
  0
LINE
  8
_0-1_計細線
  6
CONTINUOUS
 62
    3
 10
988.43374974819892
 20
778.93908616188753
 11
988.43374974819892
 21
584.93908616188708
  0
LINE
  8
_0-1_計細線
  6
CONTINUOUS
 62
    3
 10
988.43374974819892
 20
584.93908616188708
 11
991.43374974819892
 21
584.93908616188708
  0
LINE
  8
_0-1_計細線
  6
CONTINUOUS
 62
    3
 10
991.43374974819892
 20
584.93908616188708
 11
991.43374974819892
 21
778.93908616188753
  0
LINE
  8
_0-1_計細線
  6
CONTINUOUS
 62
    3
 10
1001.4337497481989
 20
778.93908616188753
 11
998.43374974819892
 21
778.93908616188753
  0
LINE
  8
_0-1_計細線
  6
CONTINUOUS
 62
    3
 10
998.43374974819892
 20
778.93908616188753
 11
998.43374974819892
 21
584.93908616188708
  0
LINE
  8
_0-1_計細線
  6
CONTINUOUS
 62
    3
 10
998.43374974819892
 20
584.93908616188708
 11
1001.4337497481989
 21
584.93908616188708
  0
LINE
  8
_0-1_計細線
  6
CONTINUOUS
 62
    3
 10
1001.4337497481989
 20
584.93908616188708
 11
1001.4337497481989
 21
778.93908616188753
  0
LINE
  8
_0-1_計細線
  6
CONTINUOUS
 62
    3
 10
1011.4337497481989
 20
778.93908616188753
 11
1008.4337497481989
 21
778.93908616188753
  0
LINE
  8
_0-1_計細線
  6
CONTINUOUS
 62
    3
 10
1008.4337497481989
 20
778.93908616188753
 11
1008.4337497481989
 21
584.93908616188708
  0
LINE
  8
_0-1_計細線
  6
CONTINUOUS
 62
    3
 10
1008.4337497481989
 20
584.93908616188708
 11
1011.4337497481989
 21
584.93908616188708
  0
LINE
  8
_0-1_計細線
  6
CONTINUOUS
 62
    3
 10
1011.4337497481989
 20
584.93908616188708
 11
1011.4337497481989
 21
778.93908616188753
  0
LINE
  8
_0-1_計細線
  6
CONTINUOUS
 62
    3
 10
1021.4337497481989
 20
778.93908616188753
 11
1018.4337497481989
 21
778.93908616188753
  0
LINE
  8
_0-1_計細線
  6
CONTINUOUS
 62
    3
 10
1018.4337497481989
 20
778.93908616188753
 11
1018.4337497481989
 21
584.93908616188708
  0
LINE
  8
_0-1_計細線
  6
CONTINUOUS
 62
    3
 10
1018.4337497481989
 20
584.93908616188708
 11
1021.4337497481989
 21
584.93908616188708
  0
LINE
  8
_0-1_計細線
  6
CONTINUOUS
 62
    3
 10
1021.4337497481989
 20
584.93908616188708
 11
1021.4337497481989
 21
778.93908616188753
  0
LINE
  8
_0-1_計細線
  6
CONTINUOUS
 62
    3
 10
1031.4337497481988
 20
778.93908616188753
 11
1028.4337497481988
 21
778.93908616188753
  0
LINE
  8
_0-1_計細線
  6
CONTINUOUS
 62
    3
 10
1028.4337497481988
 20
778.93908616188753
 11
1028.4337497481988
 21
584.93908616188708
  0
LINE
  8
_0-1_計細線
  6
CONTINUOUS
 62
    3
 10
1028.4337497481988
 20
584.93908616188708
 11
1031.4337497481988
 21
584.93908616188708
  0
LINE
  8
_0-1_計細線
  6
CONTINUOUS
 62
    3
 10
1031.4337497481988
 20
584.93908616188708
 11
1031.4337497481988
 21
778.93908616188753
  0
LINE
  8
_0-1_計細線
  6
CONTINUOUS
 62
    3
 10
1041.4337497481988
 20
778.93908616188753
 11
1038.4337497481988
 21
778.93908616188753
  0
LINE
  8
_0-1_計細線
  6
CONTINUOUS
 62
    3
 10
1038.4337497481988
 20
778.93908616188753
 11
1038.4337497481988
 21
584.93908616188708
  0
LINE
  8
_0-1_計細線
  6
CONTINUOUS
 62
    3
 10
1038.4337497481988
 20
584.93908616188708
 11
1041.4337497481988
 21
584.93908616188708
  0
LINE
  8
_0-1_計細線
  6
CONTINUOUS
 62
    3
 10
1041.4337497481988
 20
584.93908616188708
 11
1041.4337497481988
 21
778.93908616188753
  0
LINE
  8
_0-1_計細線
  6
CONTINUOUS
 62
    3
 10
1051.4337497481988
 20
778.93908616188753
 11
1048.4337497481988
 21
778.93908616188753
  0
LINE
  8
_0-1_計細線
  6
CONTINUOUS
 62
    3
 10
1048.4337497481988
 20
778.93908616188753
 11
1048.4337497481988
 21
584.93908616188708
  0
LINE
  8
_0-1_計細線
  6
CONTINUOUS
 62
    3
 10
1048.4337497481988
 20
584.93908616188708
 11
1051.4337497481988
 21
584.93908616188708
  0
LINE
  8
_0-1_計細線
  6
CONTINUOUS
 62
    3
 10
1051.4337497481988
 20
584.93908616188708
 11
1051.4337497481988
 21
778.93908616188753
  0
LINE
  8
_0-1_計細線
  6
CONTINUOUS
 62
    3
 10
1061.4337497481988
 20
778.93908616188753
 11
1058.4337497481988
 21
778.93908616188753
  0
LINE
  8
_0-1_計細線
  6
CONTINUOUS
 62
    3
 10
1058.4337497481988
 20
778.93908616188753
 11
1058.4337497481988
 21
584.93908616188708
  0
LINE
  8
_0-1_計細線
  6
CONTINUOUS
 62
    3
 10
1058.4337497481988
 20
584.93908616188708
 11
1061.4337497481988
 21
584.93908616188708
  0
LINE
  8
_0-1_計細線
  6
CONTINUOUS
 62
    3
 10
1061.4337497481988
 20
584.93908616188708
 11
1061.4337497481988
 21
778.93908616188753
  0
LINE
  8
_0-1_計細線
  6
CONTINUOUS
 62
    3
 10
1071.4337497481988
 20
778.93908616188753
 11
1068.4337497481988
 21
778.93908616188753
  0
LINE
  8
_0-1_計細線
  6
CONTINUOUS
 62
    3
 10
1068.4337497481988
 20
778.93908616188753
 11
1068.4337497481988
 21
584.93908616188708
  0
LINE
  8
_0-1_計細線
  6
CONTINUOUS
 62
    3
 10
1068.4337497481988
 20
584.93908616188708
 11
1071.4337497481988
 21
584.93908616188708
  0
LINE
  8
_0-1_計細線
  6
CONTINUOUS
 62
    3
 10
1071.4337497481988
 20
584.93908616188708
 11
1071.4337497481988
 21
778.93908616188753
  0
LINE
  8
_0-1_計細線
  6
CONTINUOUS
 62
    3
 10
1081.4337497481988
 20
778.93908616188753
 11
1078.4337497481988
 21
778.93908616188753
  0
LINE
  8
_0-1_計細線
  6
CONTINUOUS
 62
    3
 10
1078.4337497481988
 20
778.93908616188753
 11
1078.4337497481988
 21
584.93908616188708
  0
LINE
  8
_0-1_計細線
  6
CONTINUOUS
 62
    3
 10
1078.4337497481988
 20
584.93908616188708
 11
1081.4337497481988
 21
584.93908616188708
  0
LINE
  8
_0-1_計細線
  6
CONTINUOUS
 62
    3
 10
1081.4337497481988
 20
584.93908616188708
 11
1081.4337497481988
 21
778.93908616188753
  0
LINE
  8
_0-1_計細線
  6
CONTINUOUS
 62
    3
 10
1091.4337497481988
 20
778.93908616188753
 11
1088.4337497481988
 21
778.93908616188753
  0
LINE
  8
_0-1_計細線
  6
CONTINUOUS
 62
    3
 10
1088.4337497481988
 20
778.93908616188753
 11
1088.4337497481988
 21
584.93908616188708
  0
LINE
  8
_0-1_計細線
  6
CONTINUOUS
 62
    3
 10
1088.4337497481988
 20
584.93908616188708
 11
1091.4337497481988
 21
584.93908616188708
  0
LINE
  8
_0-1_計細線
  6
CONTINUOUS
 62
    3
 10
1091.4337497481988
 20
584.93908616188708
 11
1091.4337497481988
 21
778.93908616188753
  0
LINE
  8
_0-1_計細線
  6
CONTINUOUS
 62
    3
 10
1101.4337497481988
 20
778.93908616188753
 11
1098.4337497481988
 21
778.93908616188753
  0
LINE
  8
_0-1_計細線
  6
CONTINUOUS
 62
    3
 10
1098.4337497481988
 20
778.93908616188753
 11
1098.4337497481988
 21
584.93908616188708
  0
LINE
  8
_0-1_計細線
  6
CONTINUOUS
 62
    3
 10
1098.4337497481988
 20
584.93908616188708
 11
1101.4337497481988
 21
584.93908616188708
  0
LINE
  8
_0-1_計細線
  6
CONTINUOUS
 62
    3
 10
1101.4337497481988
 20
584.93908616188708
 11
1101.4337497481988
 21
778.93908616188753
  0
LINE
  8
_0-1_計細線
  6
CONTINUOUS
 62
    3
 10
1111.4337497481988
 20
778.93908616188753
 11
1108.4337497481988
 21
778.93908616188753
  0
LINE
  8
_0-1_計細線
  6
CONTINUOUS
 62
    3
 10
1108.4337497481988
 20
778.93908616188753
 11
1108.4337497481988
 21
584.93908616188708
  0
LINE
  8
_0-1_計細線
  6
CONTINUOUS
 62
    3
 10
1108.4337497481988
 20
584.93908616188708
 11
1111.4337497481988
 21
584.93908616188708
  0
LINE
  8
_0-1_計細線
  6
CONTINUOUS
 62
    3
 10
1111.4337497481988
 20
584.93908616188708
 11
1111.4337497481988
 21
778.93908616188753
  0
LINE
  8
_0-1_計細線
  6
CONTINUOUS
 62
    3
 10
1121.4337497481988
 20
778.93908616188753
 11
1118.4337497481988
 21
778.93908616188753
  0
LINE
  8
_0-1_計細線
  6
CONTINUOUS
 62
    3
 10
1118.4337497481988
 20
778.93908616188753
 11
1118.4337497481988
 21
584.93908616188708
  0
LINE
  8
_0-1_計細線
  6
CONTINUOUS
 62
    3
 10
1118.4337497481988
 20
584.93908616188708
 11
1121.4337497481988
 21
584.93908616188708
  0
LINE
  8
_0-1_計細線
  6
CONTINUOUS
 62
    3
 10
1121.4337497481988
 20
584.93908616188708
 11
1121.4337497481988
 21
778.93908616188753
  0
LINE
  8
_0-1_計細線
  6
CONTINUOUS
 62
    3
 10
1131.4337497481988
 20
778.93908616188753
 11
1128.4337497481988
 21
778.93908616188753
  0
LINE
  8
_0-1_計細線
  6
CONTINUOUS
 62
    3
 10
1128.4337497481988
 20
778.93908616188753
 11
1128.4337497481988
 21
584.93908616188708
  0
LINE
  8
_0-1_計細線
  6
CONTINUOUS
 62
    3
 10
1128.4337497481988
 20
584.93908616188708
 11
1131.4337497481988
 21
584.93908616188708
  0
LINE
  8
_0-1_計細線
  6
CONTINUOUS
 62
    3
 10
1131.4337497481988
 20
584.93908616188708
 11
1131.4337497481988
 21
778.93908616188753
  0
LINE
  8
_0-1_計細線
  6
CONTINUOUS
 62
    3
 10
1141.4337497481988
 20
778.93908616188753
 11
1138.4337497481988
 21
778.93908616188753
  0
LINE
  8
_0-1_計細線
  6
CONTINUOUS
 62
    3
 10
1138.4337497481988
 20
778.93908616188753
 11
1138.4337497481988
 21
584.93908616188708
  0
LINE
  8
_0-1_計細線
  6
CONTINUOUS
 62
    3
 10
1138.4337497481988
 20
584.93908616188708
 11
1141.4337497481988
 21
584.93908616188708
  0
LINE
  8
_0-1_計細線
  6
CONTINUOUS
 62
    3
 10
1141.4337497481988
 20
584.93908616188708
 11
1141.4337497481988
 21
778.93908616188753
  0
LINE
  8
_0-1_計細線
  6
CONTINUOUS
 62
    3
 10
1151.4337497481988
 20
778.93908616188753
 11
1148.4337497481988
 21
778.93908616188753
  0
LINE
  8
_0-1_計細線
  6
CONTINUOUS
 62
    3
 10
1148.4337497481988
 20
778.93908616188753
 11
1148.4337497481988
 21
584.93908616188708
  0
LINE
  8
_0-1_計細線
  6
CONTINUOUS
 62
    3
 10
1148.4337497481988
 20
584.93908616188708
 11
1151.4337497481988
 21
584.93908616188708
  0
LINE
  8
_0-1_計細線
  6
CONTINUOUS
 62
    3
 10
1151.4337497481988
 20
584.93908616188708
 11
1151.4337497481988
 21
778.93908616188753
  0
LINE
  8
_0-1_計細線
  6
CONTINUOUS
 62
    3
 10
1161.4337497481988
 20
778.93908616188753
 11
1158.4337497481988
 21
778.93908616188753
  0
LINE
  8
_0-1_計細線
  6
CONTINUOUS
 62
    3
 10
1158.4337497481988
 20
778.93908616188753
 11
1158.4337497481988
 21
584.93908616188708
  0
LINE
  8
_0-1_計細線
  6
CONTINUOUS
 62
    3
 10
1158.4337497481988
 20
584.93908616188708
 11
1161.4337497481988
 21
584.93908616188708
  0
LINE
  8
_0-1_計細線
  6
CONTINUOUS
 62
    3
 10
1161.4337497481988
 20
584.93908616188708
 11
1161.4337497481988
 21
778.93908616188753
  0
LINE
  8
_0-1_計細線
  6
CONTINUOUS
 62
    3
 10
1171.4337497481988
 20
778.93908616188753
 11
1168.4337497481988
 21
778.93908616188753
  0
LINE
  8
_0-1_計細線
  6
CONTINUOUS
 62
    3
 10
1168.4337497481988
 20
778.93908616188753
 11
1168.4337497481988
 21
584.93908616188708
  0
LINE
  8
_0-1_計細線
  6
CONTINUOUS
 62
    3
 10
1168.4337497481988
 20
584.93908616188708
 11
1171.4337497481988
 21
584.93908616188708
  0
LINE
  8
_0-1_計細線
  6
CONTINUOUS
 62
    3
 10
1171.4337497481988
 20
584.93908616188708
 11
1171.4337497481988
 21
778.93908616188753
  0
LINE
  8
_0-1_計細線
  6
CONTINUOUS
 62
    3
 10
1181.4337497481988
 20
778.93908616188753
 11
1178.4337497481988
 21
778.93908616188753
  0
LINE
  8
_0-1_計細線
  6
CONTINUOUS
 62
    3
 10
1178.4337497481988
 20
778.93908616188753
 11
1178.4337497481988
 21
584.93908616188708
  0
LINE
  8
_0-1_計細線
  6
CONTINUOUS
 62
    3
 10
1178.4337497481988
 20
584.93908616188708
 11
1181.4337497481988
 21
584.93908616188708
  0
LINE
  8
_0-1_計細線
  6
CONTINUOUS
 62
    3
 10
1181.4337497481988
 20
584.93908616188708
 11
1181.4337497481988
 21
778.93908616188753
  0
LINE
  8
_0-1_計細線
  6
CONTINUOUS
 62
    3
 10
1191.4337497481988
 20
778.93908616188753
 11
1188.4337497481988
 21
778.93908616188753
  0
LINE
  8
_0-1_計細線
  6
CONTINUOUS
 62
    3
 10
1188.4337497481988
 20
778.93908616188753
 11
1188.4337497481988
 21
584.93908616188708
  0
LINE
  8
_0-1_計細線
  6
CONTINUOUS
 62
    3
 10
1188.4337497481988
 20
584.93908616188708
 11
1191.4337497481988
 21
584.93908616188708
  0
LINE
  8
_0-1_計細線
  6
CONTINUOUS
 62
    3
 10
1191.4337497481988
 20
584.93908616188708
 11
1191.4337497481988
 21
778.93908616188753
  0
LINE
  8
_0-1_計細線
  6
CONTINUOUS
 62
    3
 10
1201.4337497481988
 20
778.93908616188753
 11
1198.4337497481988
 21
778.93908616188753
  0
LINE
  8
_0-1_計細線
  6
CONTINUOUS
 62
    3
 10
1198.4337497481988
 20
778.93908616188753
 11
1198.4337497481988
 21
584.93908616188708
  0
LINE
  8
_0-1_計細線
  6
CONTINUOUS
 62
    3
 10
1198.4337497481988
 20
584.93908616188708
 11
1201.4337497481988
 21
584.93908616188708
  0
LINE
  8
_0-1_計細線
  6
CONTINUOUS
 62
    3
 10
1201.4337497481988
 20
584.93908616188708
 11
1201.4337497481988
 21
778.93908616188753
  0
LINE
  8
_0-1_計細線
  6
CONTINUOUS
 62
    3
 10
1211.4337497481988
 20
778.93908616188753
 11
1208.4337497481988
 21
778.93908616188753
  0
LINE
  8
_0-1_計細線
  6
CONTINUOUS
 62
    3
 10
1208.4337497481988
 20
778.93908616188753
 11
1208.4337497481988
 21
584.93908616188708
  0
LINE
  8
_0-1_計細線
  6
CONTINUOUS
 62
    3
 10
1208.4337497481988
 20
584.93908616188708
 11
1211.4337497481988
 21
584.93908616188708
  0
LINE
  8
_0-1_計細線
  6
CONTINUOUS
 62
    3
 10
1211.4337497481988
 20
584.93908616188708
 11
1211.4337497481988
 21
778.93908616188753
  0
LINE
  8
_0-1_計細線
  6
CONTINUOUS
 62
    3
 10
1221.4337497481988
 20
778.93908616188753
 11
1218.4337497481988
 21
778.93908616188753
  0
LINE
  8
_0-1_計細線
  6
CONTINUOUS
 62
    3
 10
1218.4337497481988
 20
778.93908616188753
 11
1218.4337497481988
 21
584.93908616188708
  0
LINE
  8
_0-1_計細線
  6
CONTINUOUS
 62
    3
 10
1218.4337497481988
 20
584.93908616188708
 11
1221.4337497481988
 21
584.93908616188708
  0
LINE
  8
_0-1_計細線
  6
CONTINUOUS
 62
    3
 10
1221.4337497481988
 20
584.93908616188708
 11
1221.4337497481988
 21
778.93908616188753
  0
LINE
  8
_0-5_寸法線
  6
CONTINUOUS
 62
    7
 10
1261.443368691424
 20
576.93908616188708
 11
1341.3456877424242
 21
576.93908616188662
  0
LINE
  8
_0-5_寸法線
  6
CONTINUOUS
 62
    7
 10
1336.3456877424242
 20
576.93908616188662
 11
1333.757497291399
 21
586.59834442477734
  0
LINE
  8
_0-5_寸法線
  6
CONTINUOUS
 62
    7
 10
1336.3456877424242
 20
576.93908616188662
 11
1338.9338781934496
 21
586.59834442477734
  0
LINE
  8
_0-5_寸法線
  6
CONTINUOUS
 62
    7
 10
1261.443368691424
 20
786.93908616188708
 11
1341.3456877424242
 21
786.93908616188662
  0
LINE
  8
_0-5_寸法線
  6
CONTINUOUS
 62
    7
 10
1336.3456877424242
 20
786.93908616188662
 11
1338.9338781934496
 21
777.27982789899602
  0
LINE
  8
_0-5_寸法線
  6
CONTINUOUS
 62
    7
 10
1336.3456877424242
 20
786.93908616188662
 11
1333.757497291399
 21
777.27982789899602
  0
LINE
  8
_0-5_寸法線
  6
CONTINUOUS
 62
    7
 10
1336.3456877424242
 20
576.93908616188662
 11
1336.3456877424242
 21
786.93908616188662
  0
TEXT
  8
_0-5_寸法線
 62
    7
 10
1336.3456877424242
 20
670.68908616188662
 40
15
 41
1
 50
90
  1
210
  0
LINE
  8
_0-5_寸法線
  6
CONTINUOUS
 62
    7
 10
188.42413080496243
 20
576.93908616188708
 11
143.42413080496192
 21
576.93908616188708
  0
LINE
  8
_0-5_寸法線
  6
CONTINUOUS
 62
    7
 10
148.42413080496192
 20
576.93908616188708
 11
145.83594035393673
 21
586.59834442477779
  0
LINE
  8
_0-5_寸法線
  6
CONTINUOUS
 62
    7
 10
148.42413080496192
 20
576.93908616188708
 11
151.01232125598713
 21
586.59834442477779
  0
LINE
  8
_0-5_寸法線
  6
CONTINUOUS
 62
    7
 10
188.42413080496243
 20
606.93908616188799
 11
143.42413080496192
 21
606.93908616188799
  0
LINE
  8
_0-5_寸法線
  6
CONTINUOUS
 62
    7
 10
148.42413080496192
 20
606.93908616188799
 11
151.01232125598705
 21
597.27982789899727
  0
LINE
  8
_0-5_寸法線
  6
CONTINUOUS
 62
    7
 10
148.42413080496192
 20
606.93908616188799
 11
145.83594035393668
 21
597.27982789899727
  0
LINE
  8
_0-5_寸法線
  6
CONTINUOUS
 62
    7
 10
148.42413080496192
 20
576.93908616188708
 11
148.42413080496192
 21
606.93908616188799
  0
TEXT
  8
_0-5_寸法線
 62
    7
 10
148.42413080496192
 20
584.43908616188753
 40
15
 41
1
 50
90
  1
30
  0
LINE
  8
_0-5_寸法線
  6
CONTINUOUS
 62
    7
 10
148.42413080496192
 20
606.93908616188799
 11
145.83594035393673
 21
616.5983444247787
  0
LINE
  8
_0-5_寸法線
  6
CONTINUOUS
 62
    7
 10
148.42413080496192
 20
606.93908616188799
 11
151.01232125598713
 21
616.5983444247787
  0
LINE
  8
_0-5_寸法線
  6
CONTINUOUS
 62
    7
 10
188.42413080496243
 20
756.93908616188753
 11
143.42413080496192
 21
756.93908616188753
  0
LINE
  8
_0-5_寸法線
  6
CONTINUOUS
 62
    7
 10
148.42413080496192
 20
756.93908616188753
 11
151.01232125598705
 21
747.27982789899681
  0
LINE
  8
_0-5_寸法線
  6
CONTINUOUS
 62
    7
 10
148.42413080496192
 20
756.93908616188753
 11
145.83594035393668
 21
747.27982789899681
  0
LINE
  8
_0-5_寸法線
  6
CONTINUOUS
 62
    7
 10
148.42413080496192
 20
606.93908616188799
 11
148.42413080496192
 21
756.93908616188753
  0
TEXT
  8
_0-5_寸法線
 62
    7
 10
148.42413080496186
 20
670.6890861618881
 40
15
 41
1
 50
89.999999999999815
  1
150
  0
LINE
  8
_0-5_寸法線
  6
CONTINUOUS
 62
    7
 10
148.42413080496192
 20
756.93908616188753
 11
145.83594035393673
 21
766.59834442477836
  0
LINE
  8
_0-5_寸法線
  6
CONTINUOUS
 62
    7
 10
148.42413080496192
 20
756.93908616188753
 11
151.01232125598713
 21
766.59834442477836
  0
LINE
  8
_0-5_寸法線
  6
CONTINUOUS
 62
    7
 10
188.42413080496243
 20
786.93908616188764
 11
143.42413080496192
 21
786.93908616188764
  0
LINE
  8
_0-5_寸法線
  6
CONTINUOUS
 62
    7
 10
148.42413080496192
 20
786.93908616188764
 11
151.01232125598705
 21
777.27982789899681
  0
LINE
  8
_0-5_寸法線
  6
CONTINUOUS
 62
    7
 10
148.42413080496192
 20
786.93908616188764
 11
145.83594035393668
 21
777.27982789899681
  0
LINE
  8
_0-5_寸法線
  6
CONTINUOUS
 62
    7
 10
148.42413080496192
 20
756.93908616188753
 11
148.42413080496192
 21
786.93908616188764
  0
TEXT
  8
_0-5_寸法線
 62
    7
 10
148.42413080496192
 20
764.43908616188753
 40
15
 41
1
 50
90
  1
30
  0
LINE
  8
_0-5_寸法線
  6
CONTINUOUS
 62
    7
 10
228.43374974819895
 20
796.93908616188764
 11
228.43374974819895
 21
841.93908616188764
  0
LINE
  8
_0-5_寸法線
  6
CONTINUOUS
 62
    7
 10
228.43374974819895
 20
836.93908616188764
 11
238.09300801108961
 21
839.52727661291283
  0
LINE
  8
_0-5_寸法線
  6
CONTINUOUS
 62
    7
 10
228.43374974819895
 20
836.93908616188764
 11
238.09300801108961
 21
834.35089571086235
  0
LINE
  8
_0-5_寸法線
  6
CONTINUOUS
 62
    7
 10
1221.4337497481988
 20
796.93908616188764
 11
1221.4337497481988
 21
841.93908616188764
  0
LINE
  8
_0-5_寸法線
  6
CONTINUOUS
 62
    7
 10
1221.4337497481988
 20
836.93908616188764
 11
1211.7744914853081
 21
834.35089571086235
  0
LINE
  8
_0-5_寸法線
  6
CONTINUOUS
 62
    7
 10
1221.4337497481988
 20
836.93908616188764
 11
1211.7744914853081
 21
839.52727661291283
  0
LINE
  8
_0-5_寸法線
  6
CONTINUOUS
 62
    7
 10
228.43374974819895
 20
836.93908616188764
 11
1221.4337497481988
 21
836.93908616188764
  0
TEXT
  8
_0-5_寸法線
 62
    7
 10
713.68374974819903
 20
836.93908616188764
 40
15
 41
1
 50
0
  1
993
  0
TEXT
  8
_0-5_寸法線
 62
    7
 10
633.30850597938718
 20
519.12447591872797
 40
15
 41
0.8000000000000001
 50
0
  1
ＧＳＬ－１５
  0
TEXT
  8
_0-5_寸法線
 62
    7
 10
852.90859231381148
 20
519.12447591872797
 40
15
 41
0.8000000000000001
 50
0
  1
ＧＳＦＪ－１５Ｗ２００
  0
TEXT
  8
_0-7_枠細線
 62
    5
 10
965.50000000000011
 20
110
 40
20
 41
0.6
 50
0
  1
ＧＳＦＪ－１５Ｗ２００
  0
TEXT
  8
_0-7_枠細線
 62
    5
 10
965.49999999999966
 20
70
 40
20.000000000000004
 41
0.5999999999999997
 50
0
  1
表面形状については記号表参照のこと
  0
LINE
  8
_0-7_枠細線
  6
CONTINUOUS
 62
    5
 10
1409.4018171150183
 20
328.47321710336234
 11
1409.4018171150183
 21
223.47321710336274
  0
TEXT
  8
_0-7_枠細線
 62
    5
 10
1318.4018171150192
 20
308.47321710336234
 40
15.000000000000002
 41
0.8
 50
0
  1
ノンスリップ
  0
TEXT
  8
_0-7_枠細線
 62
    5
 10
1330.4018171150185
 20
283.47321710336234
 40
15.000000000000002
 41
0.8
 50
0
  1
品番－Ｄ
  0
LINE
  8
_0-7_枠細線
  6
CONTINUOUS
 62
    5
 10
1299.4018171150178
 20
328.47321710336234
 11
1299.4018171150178
 21
223.47321710336274
  0
TEXT
  8
_0-7_枠細線
 62
    5
 10
1220.4018171150178
 20
308.4732171033624
 40
15.000000000000002
 41
0.8
 50
0
  1
プレーン
  0
TEXT
  8
_0-7_枠細線
 62
    5
 10
1220.4018171150185
 20
283.47321710336234
 40
15.000000000000002
 41
0.8
 50
0
  1
品番－Ｆ
  0
TEXT
  8
_0-7_枠細線
 62
    5
 10
1140.4018171150183
 20
308.47321710336234
 40
15.000000000000002
 41
0.8
 50
0
  1
タ イ プ
  0
LINE
  8
_0-7_枠細線
  6
CONTINUOUS
 62
    5
 10
1139.4018171150174
 20
278.47321710336234
 11
1409.4018171150183
 21
278.47321710336234
  0
LINE
  8
_0-7_枠細線
  6
CONTINUOUS
 62
    5
 10
1139.4018171150174
 20
303.47321710336234
 11
1409.4018171150183
 21
303.47321710336234
  0
LINE
  8
_0-7_枠細線
  6
CONTINUOUS
 62
    5
 10
1139.4018171150174
 20
328.47321710336234
 11
1409.4018171150183
 21
328.47321710336234
  0
LINE
  8
_0-7_枠細線
  6
CONTINUOUS
 62
    5
 10
1139.4018171150174
 20
223.47321710336274
 11
1409.4018171150183
 21
223.47321710336274
  0
LINE
  8
_0-7_枠細線
  6
CONTINUOUS
 62
    5
 10
1189.4018171150183
 20
328.47321710336234
 11
1189.4018171150183
 21
223.47321710336274
  0
LINE
  8
_0-7_枠細線
  6
CONTINUOUS
 62
    5
 10
1139.4018171150174
 20
328.47321710336234
 11
1139.4018171150174
 21
223.47321710336274
  0
TEXT
  8
_0-7_枠細線
 62
    5
 10
1140.4018171150183
 20
243.47321710336257
 40
15.000000000000002
 41
0.8
 50
0
  1
表面形状
  0
TEXT
  8
_0-7_枠細線
 62
    5
 10
1147.1760284558286
 20
330.9732171033624
 40
17.500000000000004
 41
0.7999999999999996
 50
0
  1
記号表
  0
TEXT
  8
_0-7_枠細線
 62
    5
 10
1140.4018171150183
 20
283.47321710336246
 40
15.000000000000002
 41
0.8
 50
0
  1
記　　号
  0
ARC
  8
_0-7_枠細線
  6
CONTINUOUS
 62
    5
 10
1285.5023462775741
 20
245.17647202943709
 40
8.5903566658075761
 50
317.56162900000447
 51
42.438370999995371
  0
ARC
  8
_0-7_枠細線
  6
CONTINUOUS
 62
    5
 10
1190.621859620396
 20
245.17647202943709
 40
8.5903566658076702
 50
317.56162899999947
 51
42.43837100000087
  0
ARC
  8
_0-7_枠細線
  6
CONTINUOUS
 62
    5
 10
1203.3012879524622
 20
256.76996202827797
 40
8.5903566658076702
 50
137.56162899999987
 51
222.43837100000292
  0
ARC
  8
_0-7_枠細線
  6
CONTINUOUS
 62
    5
 10
1298.1817746096403
 20
256.76996202827797
 40
8.5903566658075761
 50
137.56162899999941
 51
222.4383710000034
  0
LINE
  8
_0-7_枠細線
  6
CONTINUOUS
 62
    5
 10
1194.8814809446508
 20
258.47321702885716
 11
1289.7619676018294
 21
258.47321702885716
  0
LINE
  8
_0-7_枠細線
  6
CONTINUOUS
 62
    5
 10
1293.9221532853853
 20
243.47321702885765
 11
1199.0416666282072
 21
243.47321702885765
  0
ARC
  8
_0-7_枠細線
  6
CONTINUOUS
 62
    5
 10
1301.122215453679
 20
245.17647202943706
 40
8.5903566658075761
 50
317.5616290000001
 51
42.438371000001837
  0
ARC
  8
_0-7_枠細線
  6
CONTINUOUS
 62
    5
 10
1313.8016437857441
 20
256.76996202827786
 40
8.5903566658075761
 50
137.56162900000044
 51
222.43837100000019
  0
ARC
  8
_0-7_枠細線
  6
CONTINUOUS
 62
    5
 10
1396.0027021108588
 20
245.17647202943706
 40
8.5903566658075761
 50
317.56162899999799
 51
42.438371000001837
  0
ARC
  8
_0-7_枠細線
  6
CONTINUOUS
 62
    5
 10
1408.6821304429236
 20
256.76996202827786
 40
8.5903566658075761
 50
137.56162900000146
 51
222.43837100000019
  0
LINE
  8
_0-7_枠細線
  6
CONTINUOUS
 62
    5
 10
1305.3818367779329
 20
258.47321702885711
 11
1400.2623234351113
 21
258.47321702885711
  0
LINE
  8
_0-7_枠細線
  6
CONTINUOUS
 62
    5
 10
1404.4225091186672
 20
243.47321702885762
 11
1309.5420224614893
 21
243.47321702885762
  0
LINE
  8
_0-7_枠細線
  6
CONTINUOUS
 62
    5
 10
1305.319542326198
 20
258.12944077976692
 11
1319.975766077107
 21
243.47321702885773
  0
LINE
  8
_0-7_枠細線
  6
CONTINUOUS
 62
    5
 10
1315.5823677949058
 20
258.47321702885711
 11
1330.5823677949052
 21
243.47321702885773
  0
LINE
  8
_0-7_枠細線
  6
CONTINUOUS
 62
    5
 10
1326.1889695127043
 20
258.47321702885711
 11
1341.1889695127034
 21
243.47321702885773
  0
LINE
  8
_0-7_枠細線
  6
CONTINUOUS
 62
    5
 10
1336.7955712305022
 20
258.47321702885711
 11
1351.7955712305015
 21
243.47321702885773
  0
LINE
  8
_0-7_枠細線
  6
CONTINUOUS
 62
    5
 10
1347.4021729483002
 20
258.47321702885711
 11
1362.4021729482997
 21
243.47321702885762
  0
LINE
  8
_0-7_枠細線
  6
CONTINUOUS
 62
    5
 10
1358.0087746660984
 20
258.47321702885711
 11
1373.0087746660977
 21
243.47321702885762
  0
LINE
  8
_0-7_枠細線
  6
CONTINUOUS
 62
    5
 10
1368.6153763838965
 20
258.47321702885711
 11
1383.6153763838959
 21
243.47321702885762
  0
LINE
  8
_0-7_枠細線
  6
CONTINUOUS
 62
    5
 10
1379.2219781016945
 20
258.47321702885711
 11
1394.2219781016943
 21
243.47321702885762
  0
LINE
  8
_0-7_枠細線
  6
CONTINUOUS
 62
    5
 10
1389.8285798194929
 20
258.47321702885711
 11
1404.4848035704022
 21
243.81699327794757
  0
LINE
  8
_0-7_枠細線
  6
CONTINUOUS
 62
    5
 10
1400.4351815372913
 20
243.47321702885762
 11
1404.3132122249604
 21
247.3512477165265
  0
LINE
  8
_0-7_枠細線
  6
CONTINUOUS
 62
    5
 10
1389.8285798194931
 20
243.47321702885762
 11
1400.502099021217
 21
254.14673623058133
  0
LINE
  8
_0-7_枠細線
  6
CONTINUOUS
 62
    5
 10
1379.2219781016952
 20
243.47321702885762
 11
1394.2219781016945
 21
258.47321702885711
  0
LINE
  8
_0-7_枠細線
  6
CONTINUOUS
 62
    5
 10
1368.6153763838968
 20
243.47321702885762
 11
1383.6153763838965
 21
258.47321702885711
  0
LINE
  8
_0-7_枠細線
  6
CONTINUOUS
 62
    5
 10
1358.0087746660988
 20
243.47321702885773
 11
1373.0087746660979
 21
258.47321702885711
  0
LINE
  8
_0-7_枠細線
  6
CONTINUOUS
 62
    5
 10
1347.4021729483004
 20
243.47321702885773
 11
1362.4021729482999
 21
258.47321702885711
  0
LINE
  8
_0-7_枠細線
  6
CONTINUOUS
 62
    5
 10
1336.7955712305022
 20
243.47321702885773
 11
1351.7955712305015
 21
258.47321702885711
  0
LINE
  8
_0-7_枠細線
  6
CONTINUOUS
 62
    5
 10
1326.1889695127038
 20
243.47321702885773
 11
1341.1889695127034
 21
258.47321702885711
  0
LINE
  8
_0-7_枠細線
  6
CONTINUOUS
 62
    5
 10
1315.5823677949056
 20
243.47321702885773
 11
1330.5823677949052
 21
258.47321702885711
  0
LINE
  8
_0-7_枠細線
  6
CONTINUOUS
 62
    5
 10
1309.3022468753834
 20
247.79969782713346
 11
1319.975766077107
 21
258.47321702885711
  0
LINE
  8
_0-7_枠細線
  6
CONTINUOUS
 62
    5
 10
1305.4911336716398
 20
254.59518634118811
 11
1309.369164359309
 21
258.47321702885711
  0
LINE
  8
_0-9_枠極太
  6
CONTINUOUS
 62
    5
 10
60
 20
60
 11
60
 21
960
  0
LINE
  8
_0-9_枠極太
  6
CONTINUOUS
 62
    5
 10
60
 20
960
 11
1425
 21
960
  0
LINE
  8
_0-9_枠極太
  6
CONTINUOUS
 62
    5
 10
1425
 20
960
 11
1425
 21
60
  0
LINE
  8
_0-9_枠極太
  6
CONTINUOUS
 62
    5
 10
1425
 20
60
 11
60
 21
60
  0
LINE
  8
_0-7_枠細線
  6
CONTINUOUS
 62
    5
 10
1425
 20
907.5
 11
890
 21
907.5
  0
LINE
  8
_0-7_枠細線
  6
CONTINUOUS
 62
    5
 10
915
 20
908.94233397174708
 11
907.5
 21
923.94233397174708
  0
LINE
  8
_0-7_枠細線
  6
CONTINUOUS
 62
    5
 10
900
 20
908.94233397174708
 11
915
 21
908.94233397174708
  0
LINE
  8
_0-7_枠細線
  6
CONTINUOUS
 62
    5
 10
907.5
 20
923.94233397174708
 11
900
 21
908.94233397174708
  0
TEXT
  8
_0-7_枠細線
 62
    5
 10
902.36515126814822
 20
908.63533172636653
 40
12.5
 41
0.8
 50
0
  1
１
  0
TEXT
  8
_0-7_枠細線
 62
    5
 10
1180
 20
910
 40
12.5
 41
0.7199999999999999
 50
0
  1
２０１９．０９．０１
  0
TEXT
  8
_0-7_枠細線
 62
    5
 10
938.85037037037023
 20
910
 40
12.500000000000002
 41
1
 50
0
  1
アンカー材質･厚み変更
  0
LINE
  8
_0-7_枠細線
  6
CONTINUOUS
 62
    5
 10
890
 20
907.5
 11
890
 21
959.99999999999909
  0
LINE
  8
_0-7_枠細線
  6
CONTINUOUS
 62
    5
 10
925
 20
907.5
 11
925
 21
959.99999999999943
  0
LINE
  8
_0-7_枠細線
  6
CONTINUOUS
 62
    5
 10
1175
 20
907.5
 11
1175
 21
959.99999999999943
  0
LINE
  8
_0-7_枠細線
  6
CONTINUOUS
 62
    5
 10
1275
 20
907.5
 11
1275
 21
959.99999999999943
  0
LINE
  8
_0-a_極細3
  6
CONTINUOUS
 62
    7
 10
649.26399310314582
 20
256.56810626811466
 11
645.43065976981256
 21
256.56810626811466
  0
LINE
  8
_0-a_極細3
  6
CONTINUOUS
 62
    7
 10
649.26399310314582
 20
259.90143960144815
 11
645.43065976981256
 21
259.90143960144815
  0
LINE
  8
_0-a_極細3
  6
CONTINUOUS
 62
    7
 10
649.26399310314582
 20
253.23477293478163
 11
645.43065976981256
 21
253.23477293478163
  0
LINE
  8
_0-a_極細3
  6
CONTINUOUS
 62
    7
 10
649.26399310314582
 20
263.23477293478163
 11
645.43065976981256
 21
263.23477293478163
  0
LINE
  8
_0-a_極細3
  6
CONTINUOUS
 62
    7
 10
645.43065976981256
 20
229.90143960144817
 11
649.26399310314582
 21
229.90143960144817
  0
LINE
  8
_0-a_極細3
  6
CONTINUOUS
 62
    7
 10
649.26399310314582
 20
279.90143960144815
 11
645.43065976981256
 21
279.90143960144815
  0
LINE
  8
_0-b_細線3
  6
CONTINUOUS
 62
    7
 10
645.43065976981256
 20
283.23477293478163
 11
645.43065976981256
 21
224.90143960144817
  0
LINE
  8
_0-b_細線3
  6
CONTINUOUS
 62
    7
 10
645.43065976981256
 20
224.90143960144817
 11
649.26399310314582
 21
224.90143960144817
  0
LINE
  8
_0-b_細線3
  6
CONTINUOUS
 62
    7
 10
649.26399310314582
 20
224.90143960144817
 11
649.26399310314582
 21
283.23477293478163
  0
LINE
  8
_0-b_細線3
  6
CONTINUOUS
 62
    7
 10
649.26399310314582
 20
283.23477293478163
 11
645.43065976981256
 21
283.23477293478163
  0
LINE
  8
_0-7_枠細線
  6
CONTINUOUS
 62
    5
 10
668.34986119638529
 20
260.96352293093548
 11
660.84986119638529
 21
275.96352293093548
  0
LINE
  8
_0-7_枠細線
  6
CONTINUOUS
 62
    5
 10
653.34986119638529
 20
260.96352293093548
 11
668.34986119638529
 21
260.96352293093548
  0
LINE
  8
_0-7_枠細線
  6
CONTINUOUS
 62
    5
 10
660.84986119638529
 20
275.96352293093548
 11
653.34986119638529
 21
260.96352293093548
  0
TEXT
  8
_0-7_枠細線
 62
    5
 10
655.7150124645334
 20
260.65652068555488
 40
12.5
 41
0.8
 50
0
  1
１
  0
LINE
  8
_0-a_極細3
  6
CONTINUOUS
 62
    7
 10
291.59732643647914
 20
256.56810575052759
 11
295.43065976981245
 21
256.56810575052759
  0
LINE
  8
_0-a_極細3
  6
CONTINUOUS
 62
    7
 10
291.59732643647914
 20
259.90143908386108
 11
295.43065976981245
 21
259.90143908386108
  0
LINE
  8
_0-a_極細3
  6
CONTINUOUS
 62
    7
 10
291.59732643647914
 20
253.23477241719459
 11
295.43065976981245
 21
253.23477241719459
  0
LINE
  8
_0-a_極細3
  6
CONTINUOUS
 62
    7
 10
291.59732643647914
 20
263.23477241719456
 11
295.43065976981245
 21
263.23477241719456
  0
LINE
  8
_0-a_極細3
  6
CONTINUOUS
 62
    7
 10
295.43065976981245
 20
229.90143908386108
 11
291.59732643647914
 21
229.90143908386108
  0
LINE
  8
_0-a_極細3
  6
CONTINUOUS
 62
    7
 10
291.59732643647914
 20
279.90143908386108
 11
295.43065976981245
 21
279.90143908386108
  0
LINE
  8
_0-b_細線3
  6
CONTINUOUS
 62
    7
 10
295.43065976981245
 20
283.23477241719456
 11
295.43065976981245
 21
224.90143908386108
  0
LINE
  8
_0-b_細線3
  6
CONTINUOUS
 62
    7
 10
295.43065976981245
 20
224.90143908386108
 11
291.59732643647914
 21
224.90143908386108
  0
LINE
  8
_0-b_細線3
  6
CONTINUOUS
 62
    7
 10
291.59732643647914
 20
224.90143908386108
 11
291.59732643647914
 21
283.23477241719456
  0
LINE
  8
_0-b_細線3
  6
CONTINUOUS
 62
    7
 10
291.59732643647914
 20
283.23477241719456
 11
295.43065976981245
 21
283.23477241719456
  0
LINE
  8
_0-d_寸法3
  6
CONTINUOUS
 62
    7
 10
281.59732643647914
 20
263.23477241719462
 11
239.48062869122316
 21
263.23477241719456
  0
LINE
  8
_0-d_寸法3
  6
CONTINUOUS
 62
    7
 10
244.48062869122316
 20
263.23477241719456
 11
247.06881914224837
 21
253.5755141543039
  0
LINE
  8
_0-d_寸法3
  6
CONTINUOUS
 62
    7
 10
244.48062869122316
 20
263.23477241719456
 11
241.89243824019798
 21
253.57551415430393
  0
LINE
  8
_0-d_寸法3
  6
CONTINUOUS
 62
    7
 10
281.59732643647914
 20
224.90143908386113
 11
239.48062869122316
 21
224.90143908386113
  0
LINE
  8
_0-d_寸法3
  6
CONTINUOUS
 62
    7
 10
244.48062869122316
 20
224.90143908386108
 11
241.89243824019798
 21
234.56069734675179
  0
LINE
  8
_0-d_寸法3
  6
CONTINUOUS
 62
    7
 10
244.48062869122316
 20
224.90143908386108
 11
247.06881914224837
 21
234.56069734675179
  0
LINE
  8
_0-d_寸法3
  6
CONTINUOUS
 62
    7
 10
244.48062869122316
 20
263.23477241719456
 11
244.48062869122316
 21
224.90143908386108
  0
TEXT
  8
_0-d_寸法3
 62
    7
 10
244.48062869122316
 20
236.56810575052793
 40
15
 41
1
 50
90
  1
23
  0
LINE
  8
_0-d_寸法3
  6
CONTINUOUS
 62
    7
 10
285.43065976981245
 20
293.23477269126789
 11
239.48062869122316
 21
293.23477269126784
  0
LINE
  8
_0-d_寸法3
  6
CONTINUOUS
 62
    7
 10
244.48062869122316
 20
293.23477269126784
 11
247.06881914224837
 21
283.57551442837712
  0
LINE
  8
_0-d_寸法3
  6
CONTINUOUS
 62
    7
 10
244.48062869122316
 20
293.23477269126784
 11
241.89243824019798
 21
283.57551442837718
  0
LINE
  8
_0-d_寸法3
  6
CONTINUOUS
 62
    7
 10
281.59732643647914
 20
263.23477241719462
 11
239.48062869122316
 21
263.23477241719456
  0
LINE
  8
_0-d_寸法3
  6
CONTINUOUS
 62
    7
 10
244.48062869122316
 20
263.23477241719456
 11
241.89243824019798
 21
272.89403068008528
  0
LINE
  8
_0-d_寸法3
  6
CONTINUOUS
 62
    7
 10
244.48062869122316
 20
263.23477241719456
 11
247.06881914224837
 21
272.89403068008528
  0
LINE
  8
_0-d_寸法3
  6
CONTINUOUS
 62
    7
 10
244.48062869122316
 20
293.23477269126784
 11
244.48062869122316
 21
263.23477241719456
  0
TEXT
  8
_0-d_寸法3
 62
    7
 10
244.48062869122316
 20
270.7347725542312
 40
15
 41
1
 50
90
  1
18
  0
LINE
  8
_0-5_寸法線
  6
CONTINUOUS
 62
    7
 10
1261.443368691424
 20
576.93908616188696
 11
1306.3456877424242
 21
576.93908616188662
  0
LINE
  8
_0-5_寸法線
  6
CONTINUOUS
 62
    7
 10
1301.3456877424242
 20
576.93908616188662
 11
1303.9338781934496
 21
567.2798278989959
  0
LINE
  8
_0-5_寸法線
  6
CONTINUOUS
 62
    7
 10
1301.3456877424242
 20
576.93908616188662
 11
1298.757497291399
 21
567.2798278989959
  0
LINE
  8
_0-5_寸法線
  6
CONTINUOUS
 62
    7
 10
1261.443368691424
 20
579.93908616188696
 11
1306.3456877424242
 21
579.93908616188662
  0
CIRCLE
  8
_0-5_寸法線
  6
CONTINUOUS
 62
    1
 10
1301.3456877424242
 20
579.93908616188662
 40
1.5000000000000002
  0
LINE
  8
_0-5_寸法線
  6
CONTINUOUS
 62
    7
 10
1301.3456877424242
 20
551.93908616188662
 11
1301.3456877424242
 21
579.93908616188662
  0
TEXT
  8
_0-5_寸法線
 62
    7
 10
1301.3456877424242
 20
557.11247877551284
 40
15
 41
1
 50
90
  1
3
  0
LINE
  8
_0-5_寸法線
  6
CONTINUOUS
 62
    7
 10
1261.443368691424
 20
581.93908616188696
 11
1306.3456877424242
 21
581.93908616188662
  0
LINE
  8
_0-5_寸法線
  6
CONTINUOUS
 62
    7
 10
1301.3456877424242
 20
579.93908616188662
 11
1301.3456877424242
 21
581.93908616188662
  0
TEXT
  8
_0-5_寸法線
 62
    7
 10
1323.3405753487671
 20
580.28312365741363
 40
15
 41
1
 50
90
  1
2
  0
LINE
  8
_0-5_寸法線
  6
CONTINUOUS
 62
    7
 10
1301.3456877424242
 20
581.93908616188662
 11
1298.757497291399
 21
591.59834442477734
  0
LINE
  8
_0-5_寸法線
  6
CONTINUOUS
 62
    7
 10
1301.3456877424242
 20
581.93908616188662
 11
1303.9338781934496
 21
591.59834442477734
  0
LINE
  8
_0-5_寸法線
  6
CONTINUOUS
 62
    7
 10
1261.443368691424
 20
781.93908616188708
 11
1306.3456877424242
 21
781.93908616188662
  0
LINE
  8
_0-5_寸法線
  6
CONTINUOUS
 62
    7
 10
1301.3456877424242
 20
781.93908616188662
 11
1303.9338781934496
 21
772.27982789899602
  0
LINE
  8
_0-5_寸法線
  6
CONTINUOUS
 62
    7
 10
1301.3456877424242
 20
781.93908616188662
 11
1298.757497291399
 21
772.27982789899602
  0
LINE
  8
_0-5_寸法線
  6
CONTINUOUS
 62
    7
 10
1301.3456877424242
 20
581.93908616188662
 11
1301.3456877424242
 21
781.93908616188662
  0
TEXT
  8
_0-5_寸法線
 62
    7
 10
1301.3456877424242
 20
670.68908616188662
 40
15
 41
1
 50
90
  1
200
  0
LINE
  8
_0-5_寸法線
  6
CONTINUOUS
 62
    7
 10
1261.443368691424
 20
783.93908616188753
 11
1306.3456877424242
 21
783.93908616188708
  0
CIRCLE
  8
_0-5_寸法線
  6
CONTINUOUS
 62
    1
 10
1301.3456877424242
 20
783.93908616188708
 40
1.5000000000000002
  0
LINE
  8
_0-5_寸法線
  6
CONTINUOUS
 62
    7
 10
1301.3456877424242
 20
781.93908616188662
 11
1301.3456877424242
 21
783.93908616188708
  0
TEXT
  8
_0-5_寸法線
 62
    7
 10
1322.0595215376561
 20
775.5458546801525
 40
15
 41
1
 50
90
  1
2
  0
LINE
  8
_0-5_寸法線
  6
CONTINUOUS
 62
    7
 10
1261.443368691424
 20
786.93908616188708
 11
1306.3456877424242
 21
786.93908616188662
  0
LINE
  8
_0-5_寸法線
  6
CONTINUOUS
 62
    7
 10
1301.3456877424242
 20
786.93908616188662
 11
1298.757497291399
 21
796.59834442477745
  0
LINE
  8
_0-5_寸法線
  6
CONTINUOUS
 62
    7
 10
1301.3456877424242
 20
786.93908616188662
 11
1303.9338781934496
 21
796.59834442477745
  0
LINE
  8
_0-5_寸法線
  6
CONTINUOUS
 62
    7
 10
1301.3456877424242
 20
783.93908616188708
 11
1301.3456877424242
 21
811.93908616188662
  0
TEXT
  8
_0-5_寸法線
 62
    7
 10
1301.3456877424242
 20
798.94770579801707
 40
15
 41
1
 50
90
  1
3
  0
LINE
  8
_0-d_寸法3
  6
CONTINUOUS
 62
    7
 10
295.43065976981268
 20
378.23477269126784
 11
285.77140150692202
 21
375.64658224024265
  0
LINE
  8
_0-d_寸法3
  6
CONTINUOUS
 62
    7
 10
295.43065976981268
 20
378.23477269126784
 11
285.77140150692202
 21
380.82296314229313
  0
LINE
  8
_0-d_寸法3
  6
CONTINUOUS
 62
    7
 10
300.43065976981245
 20
297.40143935793435
 11
300.43065976981268
 21
383.23477269126784
  0
CIRCLE
  8
_0-d_寸法3
  6
CONTINUOUS
 62
    1
 10
300.43065976981268
 20
378.23477269126784
 40
1.5000000000000002
  0
LINE
  8
_0-d_寸法3
  6
CONTINUOUS
 62
    7
 10
270.43065976981268
 20
378.23477269126784
 11
300.43065976981268
 21
378.23477269126784
  0
TEXT
  8
_0-d_寸法3
 62
    7
 10
274.28599182588954
 20
378.23477269126784
 40
15
 41
1
 50
0
  1
3
  0
LINE
  8
_0-d_寸法3
  6
CONTINUOUS
 62
    7
 10
303.76399310314554
 20
294.90143768959001
 11
303.76399310314571
 21
383.23477269126784
  0
LINE
  8
_0-d_寸法3
  6
CONTINUOUS
 62
    7
 10
300.43065976981268
 20
378.23477269126784
 11
303.76399310314571
 21
378.23477269126784
  0
TEXT
  8
_0-d_寸法3
 62
    7
 10
298.34732643647897
 20
378.23477269126784
 40
15
 41
1
 50
0
  1
2
  0
LINE
  8
_0-d_寸法3
  6
CONTINUOUS
 62
    7
 10
303.76399310314571
 20
378.23477269126784
 11
313.42325136603631
 21
380.82296314229302
  0
LINE
  8
_0-d_寸法3
  6
CONTINUOUS
 62
    7
 10
303.76399310314571
 20
378.23477269126784
 11
313.42325136603631
 21
375.64658224024265
  0
LINE
  8
_0-d_寸法3
  6
CONTINUOUS
 62
    7
 10
637.09732643647897
 20
294.90143768959001
 11
637.09732643647897
 21
383.23477269126784
  0
LINE
  8
_0-d_寸法3
  6
CONTINUOUS
 62
    7
 10
637.09732643647897
 20
378.23477269126784
 11
627.43806817358836
 21
375.64658224024265
  0
LINE
  8
_0-d_寸法3
  6
CONTINUOUS
 62
    7
 10
637.09732643647897
 20
378.23477269126784
 11
627.43806817358836
 21
380.82296314229313
  0
LINE
  8
_0-d_寸法3
  6
CONTINUOUS
 62
    7
 10
303.76399310314571
 20
378.23477269126784
 11
637.09732643647897
 21
378.23477269126784
  0
TEXT
  8
_0-d_寸法3
 62
    7
 10
459.18065976981245
 20
378.23477269126784
 40
15
 41
1
 50
0
  1
200
  0
LINE
  8
_0-d_寸法3
  6
CONTINUOUS
 62
    7
 10
640.430659769812
 20
297.40143935793435
 11
640.430659769812
 21
383.23477269126784
  0
CIRCLE
  8
_0-d_寸法3
  6
CONTINUOUS
 62
    1
 10
640.430659769812
 20
378.23477269126784
 40
1.5000000000000002
  0
LINE
  8
_0-d_寸法3
  6
CONTINUOUS
 62
    7
 10
637.09732643647897
 20
378.23477269126784
 11
640.430659769812
 21
378.23477269126784
  0
TEXT
  8
_0-d_寸法3
 62
    7
 10
635.01399310314559
 20
378.23477269126784
 40
15
 41
1
 50
0
  1
2
  0
LINE
  8
_0-d_寸法3
  6
CONTINUOUS
 62
    7
 10
645.430659769812
 20
378.23477269126784
 11
655.08991803270283
 21
380.82296314229296
  0
LINE
  8
_0-d_寸法3
  6
CONTINUOUS
 62
    7
 10
645.430659769812
 20
378.23477269126784
 11
655.08991803270283
 21
375.64658224024265
  0
LINE
  8
_0-d_寸法3
  6
CONTINUOUS
 62
    7
 10
640.430659769812
 20
378.23477269126784
 11
670.430659769812
 21
378.23477269126784
  0
TEXT
  8
_0-d_寸法3
 62
    7
 10
658.49355680823123
 20
378.23477269126784
 40
15
 41
1
 50
0
  1
3
  0
ENDSEC
  0
EOF
