  0
SECTION
  2
HEADER
  9
$ACADVER
  1
AC1009
  9
$INSBASE
 10
0
 20
0
 30
0
  9
$EXTMIN
 10
0
 20
0
  9
$EXTMAX
 10
1485
 20
1050
  9
$LIMMIN
 10
0
 20
0
  9
$LIMMAX
 10
1485
 20
1050
  9
$LTSCALE
 40
5
  0
ENDSEC
  0
SECTION
  2
TABLES
  0
TABLE
  2
LTYPE
 70
     9
  0
LTYPE
  2
CONTINUOUS
 70
    64
  3
実線
 72
    65
 73
     0
 40
0.0
  0
LTYPE
  2
DASHED1
 70
    64
  3
--  --  --  --  --  --  --  --  
 72
    65
 73
     2
 40
2.5
 49
1.25
 49
-1.25
  0
LTYPE
  2
DASHED2
 70
    64
  3
----    ----    ----    ----    
 72
    65
 73
     2
 40
5.0
 49
2.5
 49
-2.5
  0
LTYPE
  2
DASHED3
 70
    64
  3
------  ------  ------  ------  
 72
    65
 73
     2
 40
5.0
 49
3.75
 49
-1.25
  0
LTYPE
  2
CENTER1
 70
    64
  3
----- - ----- - ----- - ----- - 
 72
    65
 73
     4
 40
10.0
 49
6.25
 49
-1.25
 49
1.25
 49
-1.25
  0
LTYPE
  2
CENTER2
 70
    64
  3
----------  --  ----------  --  
 72
    65
 73
     4
 40
20.0
 49
12.5
 49
-2.5
 49
2.5
 49
-2.5
  0
LTYPE
  2
PHANTOM1
 70
    64
  3
--- - - --- - - --- - - --- - - 
 72
    65
 73
     6
 40
10.0
 49
3.25
 49
-1.25
 49
1.25
 49
-1.25
 49
1.25
 49
-1.25
  0
LTYPE
  2
PHANTOM2
 70
    64
  3
--------  -  -  --------  -  -  
 72
    65
 73
     6
 40
20.0
 49
10.0
 49
-2.5
 49
1.25
 49
-2.5
 49
1.25
 49
-2.5
  0
LTYPE
  2
DOT
 70
    64
  3
-   -   -   -   -   -   -   -   
 72
    65
 73
     2
 40
2.5
 49
0.625
 49
-1.875
  0
LTYPE
  2
DUMMY
 70
    64
  3
ダミー
 72
    65
 73
     0
 40
0.0
  0
LTYPE
  2
RAND1
 70
    64
  3
ランダム線1
 72
    65
 73
     4
 40
10.0
 49
1.0
 49
-2.0
 49
3.0
 49
-4.0
  0
LTYPE
  2
RAND2
 70
    64
  3
ランダム線2
 72
    65
 73
     4
 40
14.0
 49
2.0
 49
-3.0
 49
4.0
 49
-5.0
  0
LTYPE
  2
RAND3
 70
    64
  3
ランダム線3
 72
    65
 73
     4
 40
18.0
 49
3.0
 49
-4.0
 49
5.0
 49
-6.0
  0
LTYPE
  2
RAND4
 70
    64
  3
ランダム線4
 72
    65
 73
     4
 40
22.0
 49
4.0
 49
-5.0
 49
6.0
 49
-7.0
  0
LTYPE
  2
RAND5
 70
    64
  3
ランダム線5
 72
    65
 73
     4
 40
26.0
 49
5.0
 49
-6.0
 49
7.0
 49
-8.0
  0
LTYPE
  2
LONG1
 70
    64
  3
----------  --  ----------  --  
 72
    65
 73
     4
 40
40.0
 49
32.5
 49
-2.5
 49
2.5
 49
-2.5
  0
LTYPE
  2
LONG2
 70
    64
  3
--------  -  -  --------  -  -  
 72
    65
 73
     6
 40
40.0
 49
30.0
 49
-2.5
 49
1.25
 49
-2.5
 49
1.25
 49
-2.5
  0
LTYPE
  2
LONG3
 70
    64
  3
+++++++++++++++..+++++++++++++++
 72
    65
 73
     2
 40
40.0
 49
37.5
 49
-2.5
  0
LTYPE
  2
LONG4
 70
    64
  3
+++++++++++++++..+++++++++++++++
 72
    65
 73
     2
 40
80.0
 49
75.0
 49
-5.0
  0
LTYPE
  2
LONG5
 70
    64
  3
----------  --  ----------  --  
 72
    65
 73
     4
 40
60.0
 49
37.5
 49
-7.5
 49
7.5
 49
-7.5
  0
LTYPE
  2
dashed
 70
   64
  3
-------   -------------   ------
 72
   65
 73
    2
 40
7.5
 49
6
 49
-1.5
  0
LTYPE
  2
dashed_spaced
 70
   64
  3
----        --------        ----
 72
   65
 73
    2
 40
12
 49
6
 49
-6
  0
LTYPE
  2
long_dashed_dotted
 70
   64
  3
------------- --- --------------
 72
   65
 73
    4
 40
15.25
 49
12
 49
-1.5
 49
0.25
 49
-1.5
  0
LTYPE
  2
long_dashed_double-dotted
 70
   64
  3
----------- --- --- ------------
 72
   65
 73
    6
 40
17
 49
12
 49
-1.5
 49
0.25
 49
-1.5
 49
0.25
 49
-1.5
  0
LTYPE
  2
long_dashed_triplicate-dotted
 70
   64
  3
--------- --- --- --- ----------
 72
   65
 73
    8
 40
18.75
 49
12
 49
-1.5
 49
0.25
 49
-1.5
 49
0.25
 49
-1.5
 49
0.25
 49
-1.5
  0
LTYPE
  2
dotted
 70
   64
  3
   -       -       -       -    
 72
   65
 73
    2
 40
1.75
 49
0.25
 49
-1.5
  0
LTYPE
  2
chain
 70
   64
  3
-------------- -- --------------
 72
   65
 73
    4
 40
18.5
 49
12
 49
-1.5
 49
3.5
 49
-1.5
  0
LTYPE
  2
chain_double_dash
 70
   64
  3
------------ -- -- -------------
 72
   65
 73
    6
 40
23.5
 49
12
 49
-1.5
 49
3.5
 49
-1.5
 49
3.5
 49
-1.5
  0
LTYPE
  2
dashed_dotted
 70
   64
  3
-----------     -     ----------
 72
   65
 73
    4
 40
9.25
 49
6
 49
-1.5
 49
0.25
 49
-1.5
  0
LTYPE
  2
double-dashed_dotted
 70
   64
  3
------   -----------   -   -----
 72
   65
 73
    6
 40
16.75
 49
6
 49
-1.5
 49
6
 49
-1.5
 49
0.25
 49
-1.5
  0
LTYPE
  2
dashed_double-dotted
 70
   64
  3
---------    -    -    ---------
 72
   65
 73
    6
 40
11
 49
6
 49
-1.5
 49
0.25
 49
-1.5
 49
0.25
 49
-1.5
  0
LTYPE
  2
double-dashed_double-dotted
 70
   64
  3
-----   ---------   -   -   ----
 72
   65
 73
    8
 40
18.5
 49
6
 49
-1.5
 49
6
 49
-1.5
 49
0.25
 49
-1.5
 49
0.25
 49
-1.5
  0
LTYPE
  2
dashed_triplicate-dotted
 70
   64
  3
-------    -    -    -    ------
 72
   65
 73
    8
 40
12.75
 49
6
 49
-1.5
 49
0.25
 49
-1.5
 49
0.25
 49
-1.5
 49
0.25
 49
-1.5
  0
LTYPE
  2
double-dashed_triplicate-dotted
 70
   64
  3
-----  ---------  -  -  -  -----
 72
   65
 73
   10
 40
20.25
 49
6
 49
-1.5
 49
6
 49
-1.5
 49
0.25
 49
-1.5
 49
0.25
 49
-1.5
 49
0.25
 49
-1.5
  0
LTYPE
  2
undefined
 70
   64
  3
--------------------------------
 72
   65
 73
    0
 40
0
  0
ENDTAB
  0
TABLE
  2
STYLE
  5
3
100
AcDbSymbolTable
 70
     1
  0
STYLE
  5
10
100
AcDbSymbolTableRecord
100
AcDbTextStyleTableRecord
  2
STANDARD
 70
     0
 40
0.0
 41
1.0
 50
0.0
 71
     0
 42
0.2
  3
txt
  4
bigfont.shx
  0
STYLE
  5
26
100
AcDbSymbolTableRecord
100
AcDbTextStyleTableRecord
  2
TATEGAKI
 70
    68
 40
0.0
 41
1.0
 50
0.0
 71
     0
 42
1.0
  3
txt
  4
bigfont.shx
  0
ENDTAB
  0
TABLE
  2
LAYER
 70
   10
  0
LAYER
  2
_0-0_計極細
 70
   64
 62
    7
  6
CONTINUOUS
  0
LAYER
  2
_0-1_計細線
 70
   64
 62
    7
  6
CONTINUOUS
  0
LAYER
  2
_0-5_寸法線
 70
   64
 62
    7
  6
CONTINUOUS
  0
LAYER
  2
_0-7_枠細線
 70
   64
 62
    7
  6
CONTINUOUS
  0
LAYER
  2
_0-8_枠中線
 70
   64
 62
    7
  6
CONTINUOUS
  0
LAYER
  2
_0-9_枠極太
 70
   64
 62
    7
  6
CONTINUOUS
  0
LAYER
  2
_0-a_極細3
 70
   64
 62
    7
  6
CONTINUOUS
  0
LAYER
  2
_0-b_細線3
 70
   64
 62
    7
  6
CONTINUOUS
  0
LAYER
  2
_0-d_寸法3
 70
   64
 62
    7
  6
CONTINUOUS
  0
LAYER
  2
ADD_LINE
 70
   64
 62
    7
  6
CONTINUOUS
  0
ENDTAB
  0
ENDSEC
  0
SECTION
  2
BLOCKS
  0
ENDSEC
  0
SECTION
  2
ENTITIES
  0
LINE
  8
_0-7_枠細線
  6
CONTINUOUS
 62
    5
 10
1425
 20
942.5
 11
890
 21
942.5
  0
TEXT
  8
_0-7_枠細線
 62
    5
 10
895
 20
945
 40
12.5
 41
1
 50
0
  1
記号
  0
TEXT
  8
_0-7_枠細線
 62
    5
 10
996.875
 20
945
 40
12.5
 41
1
 50
0
  1
訂　 正　 記　 事
  0
TEXT
  8
_0-7_枠細線
 62
    5
 10
1181.25
 20
945
 40
12.5
 41
1
 50
0
  1
訂 正 年 月 日
  0
TEXT
  8
_0-7_枠細線
 62
    5
 10
1306.25
 20
945
 40
12.5
 41
1
 50
0
  1
備　　　　　考
  0
LINE
  8
_0-7_枠細線
  6
CONTINUOUS
 62
    5
 10
1185
 20
180
 11
1185
 21
100
  0
TEXT
  8
_0-7_枠細線
 62
    5
 10
937.5
 20
97.5
 40
17.5
 41
1
 50
0
  1
備考
  7
TATEGAKI
  0
TEXT
  8
_0-7_枠細線
 62
    5
 10
937.5
 20
137.5
 40
17.5
 41
1
 50
0
  1
品番
  7
TATEGAKI
  0
TEXT
  8
_0-7_枠細線
 62
    5
 10
937.5
 20
177.5
 40
17.5
 41
1
 50
0
  1
品名
  7
TATEGAKI
  0
LINE
  8
_0-7_枠細線
  6
CONTINUOUS
 62
    5
 10
1185
 20
140
 11
925
 21
140
  0
LINE
  8
_0-7_枠細線
  6
CONTINUOUS
 62
    5
 10
950
 20
180
 11
950
 21
60
  0
LINE
  8
_0-8_枠中線
  6
CONTINUOUS
 62
    5
 10
1425
 20
180
 11
925
 21
180
  0
LINE
  8
_0-8_枠中線
  6
CONTINUOUS
 62
    5
 10
925
 20
180
 11
925
 21
60
  0
LINE
  8
_0-7_枠細線
  6
CONTINUOUS
 62
    5
 10
1245
 20
180
 11
1245
 21
60
  0
TEXT
  8
_0-7_枠細線
 62
    5
 10
1192.5
 20
160
 40
15
 41
1
 50
0
  1
縮　尺
  0
TEXT
  8
_0-7_枠細線
 62
    5
 10
1194
 20
117.5
 40
20
 41
0.7000000000000001
 50
0
  1
１：５
  0
LINE
  8
_0-7_枠細線
  6
CONTINUOUS
 62
    5
 10
1185
 20
155
 11
1245
 21
155
  0
LINE
  8
_0-7_枠細線
  6
CONTINUOUS
 62
    5
 10
1245
 20
100
 11
925
 21
100
  0
LINE
  8
_0-7_枠細線
  6
CONTINUOUS
 62
    5
 10
1425
 20
90
 11
1245
 21
90
  0
LINE
  8
_0-7_枠細線
  6
CONTINUOUS
 62
    5
 10
1245
 20
120
 11
1425
 21
120
  0
LINE
  8
_0-7_枠細線
  6
CONTINUOUS
 62
    5
 10
1425
 20
140
 11
1245
 21
140
  0
TEXT
  8
_0-7_枠細線
 62
    5
 10
1255
 20
147.5
 40
25
 41
0.8
 50
0
  1
株式会社シマブン
  0
TEXT
  8
_0-7_枠細線
 62
    5
 10
1252.5
 20
60
 40
15
 41
1
 50
0
  1
年月日
  0
TEXT
  8
_0-7_枠細線
 62
    5
 10
1252.5
 20
75
 40
15
 41
1
 50
0
  1
作　成
  0
TEXT
  8
_0-7_枠細線
 62
    5
 10
1256.25
 20
122.5
 40
15
 41
1
 50
0
  1
承 認
  0
LINE
  8
_0-7_枠細線
  6
CONTINUOUS
 62
    5
 10
1305
 20
140
 11
1305
 21
60
  0
TEXT
  8
_0-7_枠細線
 62
    5
 10
1316.25
 20
122.5
 40
15
 41
1
 50
0
  1
検 図
  0
LINE
  8
_0-7_枠細線
  6
CONTINUOUS
 62
    5
 10
1365
 20
140
 11
1365
 21
90
  0
TEXT
  8
_0-7_枠細線
 62
    5
 10
1375
 20
95
 40
20
 41
1
 50
0
  1
藤戸
  0
TEXT
  8
_0-7_枠細線
 62
    5
 10
1376.25
 20
122.5
 40
15
 41
1
 50
0
  1
設 計
  0
TEXT
  8
_0-7_枠細線
 62
    5
 10
1310
 20
67.5
 40
15
 41
0.6666666666666666
 50
0
  1
２０１１年０７月０４日
  0
TEXT
  8
_0-7_枠細線
 62
    5
 10
1255
 20
95
 40
20
 41
1
 50
0
  1
隠塚
  0
TEXT
  8
_0-7_枠細線
 62
    5
 10
1315
 20
95
 40
20
 41
1
 50
0
  1
渋田
  0
TEXT
  8
_0-7_枠細線
 62
    5
 10
965.50000000000011
 20
150
 40
20
 41
0.5
 50
0
  1
Ｆバー ステンレスグレーチング Ｈ２０タイプ
  0
LINE
  8
_0-7_枠細線
  6
CONTINUOUS
 62
    5
 10
1425
 20
925
 11
890
 21
925
  0
TEXT
  8
_0-7_枠細線
 62
    5
 10
938.85037037037023
 20
927.5
 40
12.500000000000002
 41
1
 50
0
  1
品番変更
  0
TEXT
  8
_0-7_枠細線
 62
    5
 10
1180
 20
927.5
 40
12.5
 41
0.7199999999999999
 50
0
  1
２０１５．０４．０１
  0
LINE
  8
_0-b_細線3
  6
CONTINUOUS
 62
    7
 10
1023.0924657623791
 20
293.23477256232161
 11
1018.0924657623791
 21
293.23477256232161
  0
LINE
  8
_0-b_細線3
  6
CONTINUOUS
 62
    7
 10
1018.0924657623791
 20
293.23477256232161
 11
1018.0924657623791
 21
259.90143922898824
  0
LINE
  8
_0-b_細線3
  6
CONTINUOUS
 62
    7
 10
1018.0924657623791
 20
259.90143922898824
 11
1023.0924657623791
 21
259.90143922898824
  0
LINE
  8
_0-b_細線3
  6
CONTINUOUS
 62
    7
 10
1023.0924657623791
 20
259.90143922898824
 11
1023.0924657623791
 21
293.23477256232161
  0
ARC
  8
_0-b_細線3
  6
CONTINUOUS
 62
    7
 10
1012.2591324290433
 20
284.13755034009534
 40
14.236111111107119
 50
245.81048584600504
 51
294.1895141539959
  0
ARC
  8
_0-b_細線3
  6
CONTINUOUS
 62
    7
 10
1012.2591324290433
 20
275.66532811788113
 40
14.236111111107119
 50
65.810485846003758
 51
114.18951415399458
  0
LINE
  8
_0-b_細線3
  6
CONTINUOUS
 62
    7
 10
1006.4257990957127
 20
293.23477256232161
 11
1001.4257990957127
 21
293.23477256232161
  0
LINE
  8
_0-b_細線3
  6
CONTINUOUS
 62
    7
 10
1001.4257990957127
 20
293.23477256232161
 11
1001.4257990957127
 21
259.90143922898824
  0
LINE
  8
_0-b_細線3
  6
CONTINUOUS
 62
    7
 10
1001.4257990957127
 20
259.90143922898824
 11
1006.4257990957127
 21
259.90143922898824
  0
LINE
  8
_0-b_細線3
  6
CONTINUOUS
 62
    7
 10
1006.4257990957127
 20
259.90143922898824
 11
1006.4257990957127
 21
293.23477256232161
  0
ARC
  8
_0-b_細線3
  6
CONTINUOUS
 62
    7
 10
995.59246576237683
 20
284.13755034009534
 40
14.236111111107119
 50
245.81048584600504
 51
294.18951415399425
  0
ARC
  8
_0-b_細線3
  6
CONTINUOUS
 62
    7
 10
995.59246576237683
 20
275.66532811788113
 40
14.236111111107119
 50
65.81048584600542
 51
114.18951415399458
  0
LINE
  8
_0-b_細線3
  6
CONTINUOUS
 62
    7
 10
989.75913242904562
 20
293.23477256232161
 11
984.75913242904562
 21
293.23477256232161
  0
LINE
  8
_0-b_細線3
  6
CONTINUOUS
 62
    7
 10
984.75913242904562
 20
293.23477256232161
 11
984.75913242904562
 21
259.90143922898824
  0
LINE
  8
_0-b_細線3
  6
CONTINUOUS
 62
    7
 10
984.75913242904562
 20
259.90143922898824
 11
989.75913242904562
 21
259.90143922898824
  0
LINE
  8
_0-b_細線3
  6
CONTINUOUS
 62
    7
 10
989.75913242904562
 20
259.90143922898824
 11
989.75913242904562
 21
293.23477256232161
  0
ARC
  8
_0-b_細線3
  6
CONTINUOUS
 62
    7
 10
978.92579909571043
 20
284.13755034009534
 40
14.236111111107119
 50
245.81048584600342
 51
294.18951415399425
  0
ARC
  8
_0-b_細線3
  6
CONTINUOUS
 62
    7
 10
978.92579909571043
 20
275.66532811788113
 40
14.236111111107119
 50
65.81048584600542
 51
114.18951415399626
  0
LINE
  8
_0-b_細線3
  6
CONTINUOUS
 62
    7
 10
973.09246576237911
 20
293.23477256232161
 11
968.09246576237911
 21
293.23477256232161
  0
LINE
  8
_0-b_細線3
  6
CONTINUOUS
 62
    7
 10
968.09246576237911
 20
293.23477256232161
 11
968.09246576237911
 21
259.90143922898824
  0
LINE
  8
_0-b_細線3
  6
CONTINUOUS
 62
    7
 10
968.09246576237911
 20
259.90143922898824
 11
973.09246576237911
 21
259.90143922898824
  0
LINE
  8
_0-b_細線3
  6
CONTINUOUS
 62
    7
 10
973.09246576237911
 20
259.90143922898824
 11
973.09246576237911
 21
293.23477256232161
  0
ARC
  8
_0-b_細線3
  6
CONTINUOUS
 62
    7
 10
962.25913242904335
 20
284.13755034009534
 40
14.236111111107119
 50
245.81048584600504
 51
294.1895141539959
  0
ARC
  8
_0-b_細線3
  6
CONTINUOUS
 62
    7
 10
962.25913242904335
 20
275.66532811788113
 40
14.236111111107119
 50
65.810485846003758
 51
114.18951415399458
  0
LINE
  8
_0-b_細線3
  6
CONTINUOUS
 62
    7
 10
956.4257990957127
 20
293.23477256232161
 11
951.4257990957127
 21
293.23477256232161
  0
LINE
  8
_0-b_細線3
  6
CONTINUOUS
 62
    7
 10
951.4257990957127
 20
293.23477256232161
 11
951.4257990957127
 21
259.90143922898824
  0
LINE
  8
_0-b_細線3
  6
CONTINUOUS
 62
    7
 10
951.4257990957127
 20
259.90143922898824
 11
956.4257990957127
 21
259.90143922898824
  0
LINE
  8
_0-b_細線3
  6
CONTINUOUS
 62
    7
 10
956.4257990957127
 20
259.90143922898824
 11
956.4257990957127
 21
293.23477256232161
  0
ARC
  8
_0-b_細線3
  6
CONTINUOUS
 62
    7
 10
945.59246576237683
 20
284.13755034009534
 40
14.236111111107119
 50
245.81048584600504
 51
294.18951415399425
  0
ARC
  8
_0-b_細線3
  6
CONTINUOUS
 62
    7
 10
945.59246576237683
 20
275.66532811788113
 40
14.236111111107119
 50
65.81048584600542
 51
114.18951415399458
  0
LINE
  8
_0-b_細線3
  6
CONTINUOUS
 62
    7
 10
939.75913242904562
 20
293.23477256232161
 11
934.75913242904562
 21
293.23477256232161
  0
LINE
  8
_0-b_細線3
  6
CONTINUOUS
 62
    7
 10
934.75913242904562
 20
293.23477256232161
 11
934.75913242904562
 21
259.90143922898824
  0
LINE
  8
_0-b_細線3
  6
CONTINUOUS
 62
    7
 10
934.75913242904562
 20
259.90143922898824
 11
939.75913242904562
 21
259.90143922898824
  0
LINE
  8
_0-b_細線3
  6
CONTINUOUS
 62
    7
 10
939.75913242904562
 20
259.90143922898824
 11
939.75913242904562
 21
293.23477256232161
  0
ARC
  8
_0-b_細線3
  6
CONTINUOUS
 62
    7
 10
928.92579909571043
 20
284.13755034009534
 40
14.236111111107119
 50
245.81048584600342
 51
294.18951415399425
  0
ARC
  8
_0-b_細線3
  6
CONTINUOUS
 62
    7
 10
928.92579909571043
 20
275.66532811788113
 40
14.236111111107119
 50
65.81048584600542
 51
114.18951415399626
  0
LINE
  8
_0-b_細線3
  6
CONTINUOUS
 62
    7
 10
923.09246576237911
 20
293.23477256232161
 11
918.09246576237911
 21
293.23477256232161
  0
LINE
  8
_0-b_細線3
  6
CONTINUOUS
 62
    7
 10
918.09246576237911
 20
293.23477256232161
 11
918.09246576237911
 21
259.90143922898824
  0
LINE
  8
_0-b_細線3
  6
CONTINUOUS
 62
    7
 10
918.09246576237911
 20
259.90143922898824
 11
923.09246576237911
 21
259.90143922898824
  0
LINE
  8
_0-b_細線3
  6
CONTINUOUS
 62
    7
 10
923.09246576237911
 20
259.90143922898824
 11
923.09246576237911
 21
293.23477256232161
  0
ARC
  8
_0-a_極細3
  6
CONTINUOUS
 62
    7
 10
1047.0502552126668
 20
287.35022690917992
 40
22.826491478025751
 50
150.03871396148196
 51
205.23810402387866
  0
ARC
  8
_0-a_極細3
  6
CONTINUOUS
 62
    7
 10
1005.7551374657993
 20
267.88466493276007
 40
22.826491478025751
 50
330.03871396148207
 51
25.238104023877916
  0
LINE
  8
_0-d_寸法3
  6
CONTINUOUS
 62
    7
 10
970.59246576237911
 20
303.23477256232422
 11
970.59246576237911
 21
350.47204532146418
  0
LINE
  8
_0-d_寸法3
  6
CONTINUOUS
 62
    7
 10
970.59246576237911
 20
345.47204532146418
 11
980.25172402526994
 21
348.06023577248936
  0
LINE
  8
_0-d_寸法3
  6
CONTINUOUS
 62
    7
 10
970.59246576237911
 20
345.47204532146418
 11
980.25172402526994
 21
342.88385487043905
  0
LINE
  8
_0-d_寸法3
  6
CONTINUOUS
 62
    7
 10
987.25913242904562
 20
303.23477256232161
 11
987.25913242904562
 21
350.47204532146418
  0
LINE
  8
_0-d_寸法3
  6
CONTINUOUS
 62
    7
 10
987.25913242904562
 20
345.47204532146418
 11
977.59987416615502
 21
342.88385487043905
  0
LINE
  8
_0-d_寸法3
  6
CONTINUOUS
 62
    7
 10
987.25913242904562
 20
345.47204532146418
 11
977.59987416615502
 21
348.06023577248942
  0
LINE
  8
_0-d_寸法3
  6
CONTINUOUS
 62
    7
 10
970.59246576237911
 20
345.47204532146418
 11
987.25913242904562
 21
345.47204532146418
  0
TEXT
  8
_0-d_寸法3
 62
    7
 10
971.4257990957127
 20
345.47204532146418
 40
15
 41
1
 50
0
  1
10
  0
LINE
  8
_0-d_寸法3
  6
CONTINUOUS
 62
    7
 10
987.25913242904562
 20
345.47204532146418
 11
996.91839069193634
 21
348.06023577248931
  0
LINE
  8
_0-d_寸法3
  6
CONTINUOUS
 62
    7
 10
987.25913242904562
 20
345.47204532146418
 11
996.91839069193634
 21
342.883854870439
  0
LINE
  8
_0-d_寸法3
  6
CONTINUOUS
 62
    7
 10
1003.9257990957127
 20
303.23477256232161
 11
1003.9257990957127
 21
350.47204532146418
  0
LINE
  8
_0-d_寸法3
  6
CONTINUOUS
 62
    7
 10
1003.9257990957127
 20
345.47204532146418
 11
994.26654083282187
 21
342.88385487043905
  0
LINE
  8
_0-d_寸法3
  6
CONTINUOUS
 62
    7
 10
1003.9257990957127
 20
345.47204532146418
 11
994.26654083282187
 21
348.06023577248942
  0
LINE
  8
_0-d_寸法3
  6
CONTINUOUS
 62
    7
 10
987.25913242904562
 20
345.47204532146418
 11
1003.9257990957127
 21
345.47204532146418
  0
TEXT
  8
_0-d_寸法3
 62
    7
 10
988.09246576237967
 20
345.47204532146418
 40
15
 41
1
 50
0
  1
10
  0
LINE
  8
_0-d_寸法3
  6
CONTINUOUS
 62
    7
 10
923.09246576237865
 20
303.23477256232422
 11
923.09246576237865
 21
350.47204532146418
  0
LINE
  8
_0-d_寸法3
  6
CONTINUOUS
 62
    7
 10
923.09246576237865
 20
345.47204532146418
 11
913.43320749948805
 21
342.88385487043905
  0
LINE
  8
_0-d_寸法3
  6
CONTINUOUS
 62
    7
 10
923.09246576237865
 20
345.47204532146418
 11
913.43320749948805
 21
348.06023577248942
  0
LINE
  8
_0-d_寸法3
  6
CONTINUOUS
 62
    7
 10
934.75913242904562
 20
303.23477256232422
 11
934.75913242904562
 21
350.47204532146418
  0
CIRCLE
  8
_0-d_寸法3
  6
CONTINUOUS
 62
    1
 10
934.75913242904562
 20
345.47204532146418
 40
1.5000000000000002
  0
LINE
  8
_0-d_寸法3
  6
CONTINUOUS
 62
    7
 10
898.09246576237865
 20
345.47204532146418
 11
934.75913242904562
 21
345.47204532146418
  0
TEXT
  8
_0-d_寸法3
 62
    7
 10
907.99331213419339
 20
345.47204532146418
 40
15
 41
1
 50
0
  1
7
  0
LINE
  8
_0-d_寸法3
  6
CONTINUOUS
 62
    7
 10
939.75913242904562
 20
303.23477256232161
 11
939.75913242904562
 21
350.47204532146418
  0
LINE
  8
_0-d_寸法3
  6
CONTINUOUS
 62
    7
 10
939.75913242904562
 20
345.47204532146418
 11
949.41839069193634
 21
348.06023577248931
  0
LINE
  8
_0-d_寸法3
  6
CONTINUOUS
 62
    7
 10
939.75913242904562
 20
345.47204532146418
 11
949.41839069193634
 21
342.883854870439
  0
LINE
  8
_0-d_寸法3
  6
CONTINUOUS
 62
    7
 10
934.75913242904562
 20
345.47204532146418
 11
964.75913242904562
 21
345.47204532146418
  0
TEXT
  8
_0-d_寸法3
 62
    7
 10
941.3259870313118
 20
345.47204532146418
 40
15
 41
1
 50
0
  1
3
  0
ARC
  8
_0-b_細線3
  6
CONTINUOUS
 62
    7
 10
912.2591324290438
 20
284.13755034009534
 40
14.236111111107119
 50
245.81048584600342
 51
294.18951415399425
  0
ARC
  8
_0-b_細線3
  6
CONTINUOUS
 62
    7
 10
912.2591324290438
 20
275.66532811788113
 40
14.236111111107119
 50
65.81048584600542
 51
114.18951415399626
  0
LINE
  8
_0-b_細線3
  6
CONTINUOUS
 62
    7
 10
906.4257990957127
 20
293.23477256232161
 11
901.4257990957127
 21
293.23477256232161
  0
LINE
  8
_0-b_細線3
  6
CONTINUOUS
 62
    7
 10
901.4257990957127
 20
293.23477256232161
 11
901.4257990957127
 21
259.90143922898824
  0
LINE
  8
_0-b_細線3
  6
CONTINUOUS
 62
    7
 10
901.4257990957127
 20
259.90143922898824
 11
906.4257990957127
 21
259.90143922898824
  0
LINE
  8
_0-b_細線3
  6
CONTINUOUS
 62
    7
 10
906.4257990957127
 20
259.90143922898824
 11
906.4257990957127
 21
293.23477256232161
  0
ARC
  8
_0-a_極細3
  6
CONTINUOUS
 62
    7
 10
918.32025575588762
 20
287.35022690918015
 40
22.826491478025751
 50
150.03871396148196
 51
205.23810402387866
  0
ARC
  8
_0-a_極細3
  6
CONTINUOUS
 62
    7
 10
877.02513800902
 20
267.8846649327603
 40
22.826491478025751
 50
330.03871396148207
 51
25.238104023877916
  0
LINE
  8
_0-b_細線3
  6
CONTINUOUS
 62
    7
 10
896.26530538975794
 20
293.23477256232422
 11
1024.9953048465368
 21
293.23477256232422
  0
LINE
  8
_0-b_細線3
  6
CONTINUOUS
 62
    7
 10
898.41010517193638
 20
259.90143922898824
 11
1027.1401046287151
 21
259.90143922898824
  0
LINE
  8
_0-a_極細3
  6
CENTER1
 62
    7
 10
1033.4065398364507
 20
279.90143922898801
 11
888.59007893110686
 21
279.90143922898801
  0
LINE
  8
_0-d_寸法3
  6
CONTINUOUS
 62
    7
 10
1037.1401046287158
 20
259.90143922898812
 11
1067.5370798010085
 21
259.90143922898784
  0
LINE
  8
_0-d_寸法3
  6
CONTINUOUS
 62
    7
 10
1062.5370798010085
 20
259.9014392289879
 11
1059.9488893499833
 21
269.56069749187856
  0
LINE
  8
_0-d_寸法3
  6
CONTINUOUS
 62
    7
 10
1062.5370798010085
 20
259.9014392289879
 11
1065.1252702520337
 21
269.56069749187856
  0
LINE
  8
_0-d_寸法3
  6
CONTINUOUS
 62
    7
 10
1034.995304846537
 20
293.23477256232411
 11
1067.5370798010085
 21
293.23477256232377
  0
LINE
  8
_0-d_寸法3
  6
CONTINUOUS
 62
    7
 10
1062.5370798010085
 20
293.23477256232383
 11
1065.1252702520337
 21
283.57551429943317
  0
LINE
  8
_0-d_寸法3
  6
CONTINUOUS
 62
    7
 10
1062.5370798010085
 20
293.23477256232383
 11
1059.9488893499833
 21
283.57551429943317
  0
LINE
  8
_0-d_寸法3
  6
CONTINUOUS
 62
    7
 10
1062.5370798010085
 20
259.9014392289879
 11
1062.5370798010085
 21
293.23477256232383
  0
TEXT
  8
_0-d_寸法3
 62
    7
 10
1062.5370798010085
 20
269.06810589565589
 40
15
 41
1
 50
90
  1
20
  0
TEXT
  8
_0-7_枠細線
 62
    5
 10
913.27945023908626
 20
216.58931365246718
 40
25
 41
0.8
 50
0
  1
側面詳細図
  0
TEXT
  8
_0-7_枠細線
 62
    5
 10
972.45044880558351
 20
193.30336451795404
 40
20
 41
0.6
 50
0
  1
Ｓ＝１：３
  0
LINE
  8
_0-a_極細3
  6
CENTER1
 62
    7
 10
470.43065977017199
 20
243.71560963173167
 11
470.43065977017199
 21
307.16560963173828
  0
LINE
  8
_0-d_寸法3
  6
CONTINUOUS
 62
    7
 10
462.23913932728209
 20
265.63720348069228
 11
426.88679760159658
 21
290.39117965038304
  0
LINE
  8
_0-d_寸法3
  6
CONTINUOUS
 62
    7
 10
430.98255782304159
 20
287.52329746862773
 11
428.3943673720164
 21
297.18255573151839
  0
LINE
  8
_0-d_寸法3
  6
CONTINUOUS
 62
    7
 10
430.98255782304159
 20
287.52329746862773
 11
433.57074827406677
 21
297.18255573151839
  0
LINE
  8
_0-d_寸法3
  6
CONTINUOUS
 62
    7
 10
462.23913932728209
 20
298.97053681402571
 11
426.88679760159658
 21
323.72451298371652
  0
LINE
  8
_0-d_寸法3
  6
CONTINUOUS
 62
    7
 10
430.98255782304159
 20
320.85663080196122
 11
433.57074827406677
 21
311.1973725390705
  0
LINE
  8
_0-d_寸法3
  6
CONTINUOUS
 62
    7
 10
430.98255782304159
 20
320.85663080196122
 11
428.39436737201629
 21
311.19737253907056
  0
LINE
  8
_0-d_寸法3
  6
CONTINUOUS
 62
    7
 10
430.98255782304159
 20
287.52329746862773
 11
430.98255782304159
 21
320.85663080196122
  0
TEXT
  8
_0-d_寸法3
 62
    7
 10
430.98255782304159
 20
296.6899641352943
 40
15
 41
1
 50
90
  1
20
  0
TEXT
  8
_0-7_枠細線
 62
    5
 10
420.50861213093816
 20
109.90107411550341
 40
25
 41
0.8
 50
0
  1
断面詳細図
  0
TEXT
  8
_0-7_枠細線
 62
    5
 10
535.45758188010632
 20
109.90107411550341
 40
20
 41
0.6
 50
0
  1
Ｓ＝１：３
  0
LINE
  8
_0-a_極細3
  6
CONTINUOUS
 62
    7
 10
270.43065977017199
 20
248.23477245051478
 11
270.43065977017199
 21
179.90143911718178
  0
LINE
  8
_0-a_極細3
  6
CONTINUOUS
 62
    7
 10
353.76399310350553
 20
179.90143911718178
 11
270.43065977017199
 21
179.90143911718178
  0
LINE
  8
_0-a_極細3
  6
CONTINUOUS
 62
    7
 10
270.43065977017199
 20
248.23477245051478
 11
239.58624595839083
 21
248.23477245051478
  0
LINE
  8
_0-a_極細3
  6
CONTINUOUS
 62
    7
 10
353.76399310350553
 20
179.90143911718178
 11
353.76399310350553
 21
153.65983882240238
  0
LINE
  8
_0-a_極細3
  6
CONTINUOUS
 62
    7
 10
316.34201853851562
 20
153.6598389388395
 11
342.58361871685838
 21
179.90143911718178
  0
LINE
  8
_0-a_極細3
  6
CONTINUOUS
 62
    7
 10
245.6313406398744
 20
153.65983915885266
 11
271.87294059820346
 21
179.90143911718178
  0
LINE
  8
_0-a_極細3
  6
CONTINUOUS
 62
    7
 10
239.58624595839083
 20
218.32542259602403
 11
269.49559581288213
 21
248.23477245051478
  0
LINE
  8
_0-a_極細3
  6
CONTINUOUS
 62
    7
 10
309.2709507486515
 20
153.65983896084066
 11
335.51255090499262
 21
179.90143911718178
  0
LINE
  8
_0-a_極細3
  6
CONTINUOUS
 62
    7
 10
239.58624595839083
 20
154.68581228923441
 11
270.43065977017199
 21
185.53022610101607
  0
LINE
  8
_0-a_極細3
  6
CONTINUOUS
 62
    7
 10
239.58624595839083
 20
225.3964904078893
 11
262.42452800101631
 21
248.23477245051478
  0
LINE
  8
_0-a_極細3
  6
CONTINUOUS
 62
    7
 10
302.19988295878778
 20
153.65983898284227
 11
328.44148309312732
 21
179.90143911718178
  0
LINE
  8
_0-a_極細3
  6
CONTINUOUS
 62
    7
 10
239.58624595839083
 20
161.75688010110022
 11
270.43065977017199
 21
192.60129391288132
  0
LINE
  8
_0-a_極細3
  6
CONTINUOUS
 62
    7
 10
239.58624595839083
 20
232.46755821975461
 11
255.35346018915106
 21
248.23477245051478
  0
CIRCLE
  8
_0-a_極細3
  6
CONTINUOUS
 62
    7
 10
257.48213380155801
 20
263.43818286717482
 40
0.5530864197530718
  0
CIRCLE
  8
_0-a_極細3
  6
CONTINUOUS
 62
    7
 10
247.15126960402762
 20
253.48262731161952
 40
0.5530864197530718
  0
CIRCLE
  8
_0-a_極細3
  6
CONTINUOUS
 62
    7
 10
257.75867701143483
 20
254.54929397828613
 40
0.5530864197530718
  0
CIRCLE
  8
_0-a_極細3
  6
CONTINUOUS
 62
    7
 10
270.38089923365709
 20
256.50484953384142
 40
0.5530864197530718
  0
CIRCLE
  8
_0-a_極細3
  6
CONTINUOUS
 62
    7
 10
298.82534367810092
 20
268.238182867175
 40
0.5530864197530718
  0
CIRCLE
  8
_0-a_極細3
  6
CONTINUOUS
 62
    7
 10
323.71423256698966
 20
278.19373842273029
 40
0.5530864197530718
  0
CIRCLE
  8
_0-a_極細3
  6
CONTINUOUS
 62
    7
 10
329.40312145587853
 20
262.01596064495283
 40
0.5530864197530718
  0
CIRCLE
  8
_0-a_極細3
  6
CONTINUOUS
 62
    7
 10
304.5142325669899
 20
261.48262731161952
 40
0.5530864197530718
  0
CIRCLE
  8
_0-a_極細3
  6
CONTINUOUS
 62
    7
 10
292.78089923365667
 20
276.41596064495246
 40
0.5530864197530718
  0
CIRCLE
  8
_0-a_極細3
  6
CONTINUOUS
 62
    7
 10
277.32534367810149
 20
249.24929397828595
 40
0.5530864197530718
  0
CIRCLE
  8
_0-a_極細3
  6
CONTINUOUS
 62
    7
 10
297.76978812254532
 20
248.00484953384142
 40
0.5530864197530718
  0
CIRCLE
  8
_0-a_極細3
  6
CONTINUOUS
 62
    7
 10
322.83645478921193
 20
244.27151620050833
 40
0.5530864197530718
  0
CIRCLE
  8
_0-a_極細3
  6
CONTINUOUS
 62
    7
 10
310.21423256698966
 20
238.58262731161943
 40
0.5530864197530718
  0
CIRCLE
  8
_0-a_極細3
  6
CONTINUOUS
 62
    7
 10
295.45867701143465
 20
225.07151620050848
 40
0.5530864197530718
  0
CIRCLE
  8
_0-a_極細3
  6
CONTINUOUS
 62
    7
 10
322.83645478921193
 20
232.36040508939726
 40
0.5530864197530718
  0
CIRCLE
  8
_0-a_極細3
  6
CONTINUOUS
 62
    7
 10
281.72534367810107
 20
205.24929397828643
 40
0.5530864197530718
  0
CIRCLE
  8
_0-a_極細3
  6
CONTINUOUS
 62
    7
 10
276.03645478921226
 20
187.29373842273111
 40
0.5530864197530718
  0
CIRCLE
  8
_0-a_極細3
  6
CONTINUOUS
 62
    7
 10
284.74756590032342
 20
194.04929397828658
 40
0.5530864197530718
  0
CIRCLE
  8
_0-a_極細3
  6
CONTINUOUS
 62
    7
 10
290.96978812254565
 20
185.51596064495328
 40
0.5530864197530718
  0
CIRCLE
  8
_0-a_極細3
  6
CONTINUOUS
 62
    7
 10
330.26978812254532
 20
203.40484953384197
 40
0.5530864197530718
  0
CIRCLE
  8
_0-a_極細3
  6
CONTINUOUS
 62
    7
 10
319.0697881225455
 20
197.89373842273108
 40
0.5530864197530718
  0
CIRCLE
  8
_0-a_極細3
  6
CONTINUOUS
 62
    7
 10
325.29201034476773
 20
195.40484953384194
 40
0.5530864197530718
  0
CIRCLE
  8
_0-a_極細3
  6
CONTINUOUS
 62
    7
 10
321.73645478921202
 20
186.1604050893979
 40
0.5530864197530718
  0
CIRCLE
  8
_0-a_極細3
  6
CONTINUOUS
 62
    7
 10
341.64756590032306
 20
187.2270717560645
 40
0.5530864197530718
  0
CIRCLE
  8
_0-a_極細3
  6
CONTINUOUS
 62
    7
 10
354.62534367810071
 20
190.42707175606438
 40
0.5530864197530718
  0
CIRCLE
  8
_0-a_極細3
  6
CONTINUOUS
 62
    7
 10
368.31423256698963
 20
175.49373842273141
 40
0.5530864197530718
  0
CIRCLE
  8
_0-a_極細3
  6
CONTINUOUS
 62
    7
 10
361.38089923365618
 20
160.56040508939802
 40
0.5530864197530718
  0
CIRCLE
  8
_0-a_極細3
  6
CONTINUOUS
 62
    7
 10
344.71423256698972
 20
204.1752199042125
 40
0.5530864197530718
  0
CIRCLE
  8
_0-a_極細3
  6
CONTINUOUS
 62
    7
 10
359.46978812254514
 20
238.30855323754574
 40
0.5530864197530718
  0
CIRCLE
  8
_0-a_極細3
  6
CONTINUOUS
 62
    7
 10
374.580899233656
 20
228.35299768198996
 40
0.5530864197530718
  0
CIRCLE
  8
_0-a_極細3
  6
CONTINUOUS
 62
    7
 10
375.11423256698936
 20
210.3974421264347
 40
0.5530864197530718
  0
CIRCLE
  8
_0-a_極細3
  6
CONTINUOUS
 62
    7
 10
339.86978812254529
 20
240.13077545976782
 40
0.5530864197530718
  0
CIRCLE
  8
_0-a_極細3
  6
CONTINUOUS
 62
    7
 10
319.58089923365651
 20
262.11472607705167
 40
1.825531472681392
  0
CIRCLE
  8
_0-a_極細3
  6
CONTINUOUS
 62
    7
 10
267.81877953222141
 20
269.04434035174921
 40
1.825531472681392
  0
CIRCLE
  8
_0-a_極細3
  6
CONTINUOUS
 62
    7
 10
294.35867701143428
 20
239.31472607705149
 40
1.825531472681392
  0
CIRCLE
  8
_0-a_極細3
  6
CONTINUOUS
 62
    7
 10
274.75867701143443
 20
201.31472607705192
 40
1.825531472681392
  0
CIRCLE
  8
_0-a_極細3
  6
CONTINUOUS
 62
    7
 10
327.95867701143374
 20
188.51472607705219
 40
1.825531472681392
  0
CIRCLE
  8
_0-a_極細3
  6
CONTINUOUS
 62
    7
 10
363.93645478921138
 20
184.91472607705234
 40
1.825531472681392
  0
CIRCLE
  8
_0-a_極細3
  6
CONTINUOUS
 62
    7
 10
368.73645478921111
 20
166.24805941038579
 40
1.825531472681392
  0
CIRCLE
  8
_0-a_極細3
  6
CONTINUOUS
 62
    7
 10
247.62169999114207
 20
269.93694829927381
 40
1.825531472681392
  0
LINE
  8
_0-a_極細3
  6
CONTINUOUS
 62
    7
 10
386.26399310350553
 20
254.90143911718175
 11
387.09732643683901
 21
254.90143911718175
  0
LINE
  8
_0-a_極細3
  6
CONTINUOUS
 62
    7
 10
387.09732643683901
 20
254.90143911718175
 11
387.09732643683901
 21
153.65983882240238
  0
CIRCLE
  8
_0-a_極細3
  6
CONTINUOUS
 62
    7
 10
380.20989228921002
 20
238.91472607705231
 40
1.825531472681392
  0
CIRCLE
  8
_0-a_極細3
  6
CONTINUOUS
 62
    7
 10
379.21793627069286
 20
184.20484953384218
 40
0.5530864197530718
  0
CIRCLE
  8
_0-a_極細3
  6
CONTINUOUS
 62
    7
 10
380.5512696040268
 20
161.54877850067251
 40
0.5530864197530718
  0
CIRCLE
  8
_0-a_極細3
  6
CONTINUOUS
 62
    7
 10
368.18089923365187
 20
219.80361496594145
 40
1.825531472681392
  0
LINE
  8
_0-a_極細3
  6
CONTINUOUS
 62
    7
 10
328.76399310350553
 20
293.23477245051521
 11
328.76399310350553
 21
281.56810578384824
  0
LINE
  8
_0-a_極細3
  6
CONTINUOUS
 62
    7
 10
328.76399310350553
 20
293.23477245051521
 11
239.58624595839083
 21
293.23477245051521
  0
LINE
  8
_0-a_極細3
  6
CONTINUOUS
 62
    7
 10
337.09732643683901
 20
281.56810578384824
 11
239.58624595839083
 21
281.56810578384824
  0
LINE
  8
_0-a_極細3
  6
CONTINUOUS
 62
    7
 10
337.09732643683901
 20
293.23477245051521
 11
328.76399310350553
 21
293.23477245051521
  0
LINE
  8
_0-a_極細3
  6
CONTINUOUS
 62
    7
 10
337.09732643683901
 20
292.40143911718172
 11
337.09732643683901
 21
293.23477245051521
  0
LINE
  8
_0-a_極細3
  6
CONTINUOUS
 62
    7
 10
336.89923618047936
 20
281.56810578384824
 11
337.0973264368385
 21
281.76619604020789
  0
LINE
  8
_0-a_極細3
  6
CONTINUOUS
 62
    7
 10
332.65659549336027
 20
281.56810578384824
 11
337.09732643683901
 21
286.00883672732692
  0
LINE
  8
_0-a_極細3
  6
CONTINUOUS
 62
    7
 10
328.76399310350553
 20
281.91814408111298
 11
337.09732643683901
 21
290.25147741444601
  0
LINE
  8
_0-a_極細3
  6
CONTINUOUS
 62
    7
 10
328.76399310350553
 20
286.16078476823208
 11
335.83798078578815
 21
293.23477245051521
  0
LINE
  8
_0-a_極細3
  6
CONTINUOUS
 62
    7
 10
328.76399310350553
 20
290.40342545535162
 11
331.59534009866911
 21
293.23477245051521
  0
LINE
  8
_0-a_極細3
  6
CONTINUOUS
 62
    7
 10
337.09732643683901
 20
290.95380557825638
 11
334.81635956458058
 21
293.23477245051521
  0
LINE
  8
_0-a_極細3
  6
CONTINUOUS
 62
    7
 10
337.09732643683901
 20
286.71116489113723
 11
330.57371887746103
 21
293.23477245051521
  0
LINE
  8
_0-a_極細3
  6
CONTINUOUS
 62
    7
 10
328.76399310350553
 20
290.80185753735117
 11
337.09732643683901
 21
282.46852420401814
  0
LINE
  8
_0-a_極細3
  6
CONTINUOUS
 62
    7
 10
328.76399310350553
 20
286.55921685023208
 11
333.75510416988891
 21
281.56810578384824
  0
LINE
  8
_0-a_極細3
  6
CONTINUOUS
 62
    7
 10
328.76399310350553
 20
282.31657616311253
 11
329.51246348276976
 21
281.56810578384824
  0
LINE
  8
_0-a_極細3
  6
CONTINUOUS
 62
    7
 10
319.92867342587488
 20
281.56810577772097
 11
328.76399310350553
 21
290.40342545535162
  0
LINE
  8
_0-a_極細3
  6
CONTINUOUS
 62
    7
 10
298.71546997556732
 20
281.5681057630099
 11
310.38213666307274
 21
293.23477245051481
  0
LINE
  8
_0-a_極細3
  6
CONTINUOUS
 62
    7
 10
277.50226652525953
 20
281.56810574829836
 11
289.1689332274758
 21
293.23477245051521
  0
LINE
  8
_0-a_極細3
  6
CONTINUOUS
 62
    7
 10
256.28906307495157
 20
281.56810573358729
 11
267.95572979187955
 21
293.23477245051521
  0
LINE
  8
_0-a_極細3
  6
CONTINUOUS
 62
    7
 10
239.58624595839083
 20
286.07849205262249
 11
246.74252635628312
 21
293.23477245051481
  0
LINE
  8
_0-a_極細3
  6
DASHED2
 62
    7
 10
309.3220717007211
 20
281.56810577036543
 11
320.98873838087087
 21
293.23477245051521
  0
LINE
  8
_0-a_極細3
  6
DASHED2
 62
    7
 10
288.10886825041325
 20
281.5681057556539
 11
299.77553494527456
 21
293.23477245051521
  0
LINE
  8
_0-a_極細3
  6
DASHED2
 62
    7
 10
266.89566480010575
 20
281.56810574094283
 11
278.56233150967768
 21
293.23477245051521
  0
LINE
  8
_0-a_極細3
  6
DASHED2
 62
    7
 10
245.68246134979788
 20
281.56810572623175
 11
257.34912807408136
 21
293.23477245051521
  0
CIRCLE
  8
_0-a_極細3
  6
CONTINUOUS
 62
    7
 10
307.27719552995313
 20
273.62583718816126
 40
1.825531472681392
  0
LINE
  8
_0-a_極細3
  6
CONTINUOUS
 62
    7
 10
293.45725821635369
 20
204.78314027968509
 11
288.32695606646843
 21
218.87852959147352
  0
LINE
  8
_0-a_極細3
  6
CONTINUOUS
 62
    7
 10
343.45130089014987
 20
238.94215029071978
 11
348.58160304003462
 21
224.84676097893129
  0
LINE
  8
_0-a_極細3
  6
CONTINUOUS
 62
    7
 10
288.32695606646843
 20
218.87852959147352
 11
343.45130089014987
 21
238.94215029071978
  0
LINE
  8
_0-a_極細3
  6
CONTINUOUS
 62
    7
 10
293.45725821635369
 20
204.78314027968509
 11
348.58160304003462
 21
224.84676097893129
  0
LINE
  8
_0-a_極細3
  6
CENTER1
 62
    7
 10
285.93667374941833
 20
210.02720489554935
 11
349.96769423198378
 21
233.33259038058483
  0
LINE
  8
_0-a_極細3
  6
CONTINUOUS
 62
    7
 10
312.0973264368389
 20
179.90143911718178
 11
312.0973264368389
 21
223.98700046549763
  0
LINE
  8
_0-a_極細3
  6
CONTINUOUS
 62
    7
 10
312.0973264368389
 20
223.98700046549763
 11
297.0973264368389
 21
223.98700046549763
  0
LINE
  8
_0-a_極細3
  6
CONTINUOUS
 62
    7
 10
297.0973264368389
 20
223.98700046549763
 11
297.0973264368389
 21
179.90143911718178
  0
CIRCLE
  8
_0-a_極細3
  6
CONTINUOUS
 62
    7
 10
326.47719552995289
 20
209.82336805236031
 40
1.825531472681392
  0
CIRCLE
  8
_0-a_極細3
  6
CONTINUOUS
 62
    7
 10
348.18583750526153
 20
216.04559027458293
 40
1.825531472681392
  0
LINE
  8
_0-a_極細3
  6
CENTER1
 62
    7
 10
304.5973264368389
 20
171.62469883272882
 11
304.5973264368389
 21
228.26272063010717
  0
LINE
  8
_0-d_寸法3
  6
CONTINUOUS
 62
    7
 10
337.09732643683873
 20
206.56810578384824
 11
337.09732643683844
 21
189.42341388294281
  0
LINE
  8
_0-d_寸法3
  6
CONTINUOUS
 62
    7
 10
337.0973264368385
 20
194.42341388294281
 11
346.75658469972916
 21
197.01160433396808
  0
LINE
  8
_0-d_寸法3
  6
CONTINUOUS
 62
    7
 10
337.0973264368385
 20
194.42341388294281
 11
346.75658469972916
 21
191.83522343191768
  0
LINE
  8
_0-d_寸法3
  6
CONTINUOUS
 62
    7
 10
387.09732643683878
 20
244.90143911718175
 11
387.09732643683799
 21
189.42341388294281
  0
LINE
  8
_0-d_寸法3
  6
CONTINUOUS
 62
    7
 10
387.0973264368381
 20
194.42341388294281
 11
377.43806817394733
 21
191.83522343191768
  0
LINE
  8
_0-d_寸法3
  6
CONTINUOUS
 62
    7
 10
387.0973264368381
 20
194.42341388294281
 11
377.43806817394739
 21
197.01160433396808
  0
LINE
  8
_0-d_寸法3
  6
CONTINUOUS
 62
    7
 10
337.0973264368385
 20
194.42341388294281
 11
387.0973264368381
 21
194.42341388294281
  0
TEXT
  8
_0-d_寸法3
 62
    7
 10
354.5973264368385
 20
194.42341388294281
 40
15
 41
1
 50
0
  1
30
  0
ARC
  8
_0-b_細線3
  6
CONTINUOUS
 62
    7
 10
342.09732643683901
 20
259.90143911718172
 40
5
 50
179.99999999999983
 51
269.99999999999977
  0
LINE
  8
_0-b_細線3
  6
CONTINUOUS
 62
    7
 10
337.09732643683901
 20
259.90143911718172
 11
337.09732643683901
 21
292.40143911718172
  0
LINE
  8
_0-b_細線3
  6
CONTINUOUS
 62
    7
 10
342.09732643683901
 20
254.90143911718175
 11
386.26399310350553
 21
254.90143911718175
  0
LINE
  8
_0-b_細線3
  6
CONTINUOUS
 62
    7
 10
387.09732643683901
 20
255.73477245051478
 11
386.26399310350553
 21
254.90143911718175
  0
LINE
  8
_0-b_細線3
  6
CONTINUOUS
 62
    7
 10
387.09732643683901
 20
259.06810578384824
 11
387.09732643683901
 21
255.73477245051478
  0
LINE
  8
_0-b_細線3
  6
CONTINUOUS
 62
    7
 10
386.26399310350553
 20
259.90143911718172
 11
387.09732643683901
 21
259.06810578384824
  0
LINE
  8
_0-b_細線3
  6
CONTINUOUS
 62
    7
 10
342.09732643683901
 20
259.90143911718172
 11
386.26399310350553
 21
259.90143911718172
  0
LINE
  8
_0-b_細線3
  6
CONTINUOUS
 62
    7
 10
337.93065977017199
 20
293.23477245051521
 11
337.09732643683901
 21
292.40143911718172
  0
LINE
  8
_0-b_細線3
  6
CONTINUOUS
 62
    7
 10
341.26399310350553
 20
293.23477245051521
 11
337.93065977017199
 21
293.23477245051521
  0
LINE
  8
_0-b_細線3
  6
CONTINUOUS
 62
    7
 10
342.09732643683901
 20
292.40143911718172
 11
341.26399310350553
 21
293.23477245051521
  0
LINE
  8
_0-b_細線3
  6
CONTINUOUS
 62
    7
 10
342.09732643683901
 20
259.90143911718172
 11
342.09732643683901
 21
292.40143911718172
  0
ARC
  8
_0-b_細線3
  6
CONTINUOUS
 62
    7
 10
470.43065977017199
 20
279.90143911718127
 40
8.75
 50
294.03943363457506
 51
65.960566365424228
  0
ARC
  8
_0-b_細線3
  6
CONTINUOUS
 62
    7
 10
470.43065977017199
 20
279.90143911718127
 40
8.75
 50
114.03943363457542
 51
245.96056636541877
  0
ARC
  8
_0-b_細線3
  6
CONTINUOUS
 62
    7
 10
470.43065977016477
 20
274.06810578379054
 40
2.4999999999928004
 50
179.99999999999983
 51
359.99999999999966
  0
LINE
  8
_0-b_細線3
  6
CONTINUOUS
 62
    7
 10
467.93065977017199
 20
285.73477245051481
 11
467.93065977017199
 21
274.06810578384778
  0
ARC
  8
_0-b_細線3
  6
CONTINUOUS
 62
    7
 10
470.43065977016477
 20
285.7347724505866
 40
2.5000000000072005
 50
0
 51
179.99999999999983
  0
LINE
  8
_0-b_細線3
  6
CONTINUOUS
 62
    7
 10
472.93065977017199
 20
274.06810578384778
 11
472.93065977017199
 21
285.73477245051481
  0
ARC
  8
_0-b_細線3
  6
CONTINUOUS
 62
    7
 10
470.4306597701775
 20
274.0681057838292
 40
4.1666666666723522
 50
179.99999999999983
 51
359.99999999999966
  0
LINE
  8
_0-b_細線3
  6
CONTINUOUS
 62
    7
 10
466.26399310350592
 20
285.73477245051481
 11
466.26399310350592
 21
274.06810578384778
  0
ARC
  8
_0-b_細線3
  6
CONTINUOUS
 62
    7
 10
470.43065977013924
 20
285.73477245061258
 40
4.1666666667000154
 50
0
 51
179.99999999999983
  0
LINE
  8
_0-b_細線3
  6
CONTINUOUS
 62
    7
 10
474.59732643683901
 20
274.06810578384778
 11
474.59732643683901
 21
285.73477245051481
  0
LINE
  8
_0-b_細線3
  6
CONTINUOUS
 62
    7
 10
350.43065977017199
 20
259.90143911718127
 11
350.43065977017199
 21
293.2347724505143
  0
LINE
  8
_0-b_細線3
  6
CONTINUOUS
 62
    7
 10
350.43065977017199
 20
293.2347724505143
 11
345.43065977017199
 21
293.2347724505143
  0
LINE
  8
_0-b_細線3
  6
CONTINUOUS
 62
    7
 10
345.43065977017199
 20
293.2347724505143
 11
345.43065977017199
 21
259.90143911718127
  0
LINE
  8
_0-b_細線3
  6
CONTINUOUS
 62
    7
 10
345.43065977017199
 20
259.90143911718127
 11
350.43065977017199
 21
259.90143911718127
  0
LINE
  8
_0-a_極細3
  6
CONTINUOUS
 62
    7
 10
670.43065977017159
 20
248.23477245051478
 11
670.43065977017159
 21
179.90143911718178
  0
LINE
  8
_0-a_極細3
  6
CONTINUOUS
 62
    7
 10
587.09732643683856
 20
179.90143911718178
 11
670.43065977017159
 21
179.90143911718178
  0
LINE
  8
_0-a_極細3
  6
CONTINUOUS
 62
    7
 10
670.43065977017159
 20
248.23477245051478
 11
701.27507358195317
 21
248.23477245051478
  0
LINE
  8
_0-a_極細3
  6
CONTINUOUS
 62
    7
 10
587.09732643683856
 20
179.90143911718178
 11
587.09732643683856
 21
153.65983882240238
  0
LINE
  8
_0-a_極細3
  6
CONTINUOUS
 62
    7
 10
678.72066218476493
 20
153.65983882240238
 11
701.27507362349388
 21
176.2142502611313
  0
LINE
  8
_0-a_極細3
  6
CONTINUOUS
 62
    7
 10
608.00998406611006
 20
153.65983882240238
 11
634.25158436088896
 21
179.90143911718178
  0
LINE
  8
_0-a_極細3
  6
CONTINUOUS
 62
    7
 10
670.43065977017159
 20
216.08051452646436
 11
701.2750735827085
 21
246.9249283390013
  0
LINE
  8
_0-a_極細3
  6
CONTINUOUS
 62
    7
 10
671.64959437289917
 20
153.65983882240238
 11
701.27507361941525
 21
183.28531806891846
  0
LINE
  8
_0-a_極細3
  6
CONTINUOUS
 62
    7
 10
600.9389162542443
 20
153.65983882240238
 11
627.18051654902365
 21
179.90143911718178
  0
LINE
  8
_0-a_極細3
  6
CONTINUOUS
 62
    7
 10
670.43065977017159
 20
223.15158233832966
 11
695.51384970280651
 21
248.23477227096461
  0
LINE
  8
_0-a_極細3
  6
CONTINUOUS
 62
    7
 10
664.57852656103387
 20
153.65983882240238
 11
701.27507361533662
 21
190.35638587670562
  0
LINE
  8
_0-a_極細3
  6
CONTINUOUS
 62
    7
 10
593.867848442379
 20
153.65983882240238
 11
620.10944873715835
 21
179.90143911718178
  0
LINE
  8
_0-a_極細3
  6
CONTINUOUS
 62
    7
 10
670.43065977017159
 20
230.22265015019542
 11
688.44278194155731
 21
248.23477232158069
  0
CIRCLE
  8
_0-a_極細3
  6
CONTINUOUS
 62
    7
 10
573.50312145587577
 20
238.75577545976782
 40
0.5530864197530718
  0
CIRCLE
  8
_0-a_極細3
  6
CONTINUOUS
 62
    7
 10
583.45867701143106
 20
243.55577545976755
 40
0.5530864197530718
  0
CIRCLE
  8
_0-a_極細3
  6
CONTINUOUS
 62
    7
 10
579.36978812254256
 20
218.57799768199033
 40
0.5530864197530718
  0
CIRCLE
  8
_0-a_極細3
  6
CONTINUOUS
 62
    7
 10
596.90312145587586
 20
201.55577545976797
 40
0.5530864197530718
  0
CIRCLE
  8
_0-a_極細3
  6
CONTINUOUS
 62
    7
 10
579.06978812254238
 20
178.25577545976827
 40
0.5530864197530718
  0
CIRCLE
  8
_0-a_極細3
  6
CONTINUOUS
 62
    7
 10
569.73645478920935
 20
160.38910879310194
 40
0.5530864197530718
  0
CIRCLE
  8
_0-a_極細3
  6
CONTINUOUS
 62
    7
 10
581.20312145587559
 20
190.2557754597683
 40
0.5530864197530718
  0
CIRCLE
  8
_0-a_極細3
  6
CONTINUOUS
 62
    7
 10
595.06978812254238
 20
185.45577545976812
 40
0.5530864197530718
  0
CIRCLE
  8
_0-a_極細3
  6
CONTINUOUS
 62
    7
 10
622.00312145587577
 20
185.72244212643497
 40
0.5530864197530718
  0
CIRCLE
  8
_0-a_極細3
  6
CONTINUOUS
 62
    7
 10
610.00312145587577
 20
194.78910879310155
 40
0.5530864197530718
  0
CIRCLE
  8
_0-a_極細3
  6
CONTINUOUS
 62
    7
 10
621.20312145587559
 20
200.38910879310151
 40
0.5530864197530718
  0
CIRCLE
  8
_0-a_極細3
  6
CONTINUOUS
 62
    7
 10
611.71423256698654
 20
274.4113310153229
 40
0.5530864197530718
  0
CIRCLE
  8
_0-a_極細3
  6
CONTINUOUS
 62
    7
 10
609.22534367809749
 20
254.67799768198978
 40
0.5530864197530718
  0
CIRCLE
  8
_0-a_極細3
  6
CONTINUOUS
 62
    7
 10
629.75867701143079
 20
253.96688657087856
 40
0.5530864197530718
  0
CIRCLE
  8
_0-a_極細3
  6
CONTINUOUS
 62
    7
 10
618.15867701143088
 20
239.96688657087859
 40
0.5530864197530718
  0
CIRCLE
  8
_0-a_極細3
  6
CONTINUOUS
 62
    7
 10
657.35867701143081
 20
186.76688657087922
 40
0.5530864197530718
  0
CIRCLE
  8
_0-a_極細3
  6
CONTINUOUS
 62
    7
 10
664.55867701143052
 20
200.76688657087919
 40
0.5530864197530718
  0
CIRCLE
  8
_0-a_極細3
  6
CONTINUOUS
 62
    7
 10
662.95867701143027
 20
221.56688657087895
 40
0.5530864197530718
  0
CIRCLE
  8
_0-a_極細3
  6
CONTINUOUS
 62
    7
 10
644.95867701143072
 20
242.76688657087874
 40
0.5530864197530718
  0
CIRCLE
  8
_0-a_極細3
  6
CONTINUOUS
 62
    7
 10
661.75867701143034
 20
262.36688657087871
 40
0.5530864197530718
  0
CIRCLE
  8
_0-a_極細3
  6
CONTINUOUS
 62
    7
 10
658.95867701143015
 20
235.56688657087892
 40
0.5530864197530718
  0
CIRCLE
  8
_0-a_極細3
  6
CONTINUOUS
 62
    7
 10
688.55867701143006
 20
256.76688657087874
 40
0.5530864197530718
  0
CIRCLE
  8
_0-a_極細3
  6
CONTINUOUS
 62
    7
 10
683.75867701142988
 20
270.53694829927366
 40
1.825531472681392
  0
CIRCLE
  8
_0-a_極細3
  6
CONTINUOUS
 62
    7
 10
668.11423256698572
 20
255.07028163260699
 40
1.825531472681392
  0
CIRCLE
  8
_0-a_極細3
  6
CONTINUOUS
 62
    7
 10
612.69201034476418
 20
261.64805941038497
 40
1.825531472681392
  0
CIRCLE
  8
_0-a_極細3
  6
CONTINUOUS
 62
    7
 10
644.69201034476373
 20
229.64805941038497
 40
1.825531472681392
  0
CIRCLE
  8
_0-a_極細3
  6
CONTINUOUS
 62
    7
 10
574.29756590032048
 20
185.0980594103857
 40
1.825531472681392
  0
CIRCLE
  8
_0-a_極細3
  6
CONTINUOUS
 62
    7
 10
584.5197881225422
 20
214.96472607705203
 40
1.825531472681392
  0
CIRCLE
  8
_0-a_極細3
  6
CONTINUOUS
 62
    7
 10
619.71978812254201
 20
192.5647260770524
 40
1.825531472681392
  0
CIRCLE
  8
_0-a_極細3
  6
CONTINUOUS
 62
    7
 10
665.98498075782572
 20
182.37767368508273
 40
1.825531472681392
  0
CIRCLE
  8
_0-a_極細3
  6
CONTINUOUS
 62
    7
 10
615.31978812254192
 20
235.76472607705176
 40
1.825531472681392
  0
CIRCLE
  8
_0-a_極細3
  6
CONTINUOUS
 62
    7
 10
567.85373873982644
 20
230.34152067001557
 40
0.5530864197530718
  0
CIRCLE
  8
_0-a_極細3
  6
CONTINUOUS
 62
    7
 10
568.05373873982717
 20
206.38596511446025
 40
0.5530864197530718
  0
CIRCLE
  8
_0-a_極細3
  6
CONTINUOUS
 62
    7
 10
675.75867701143034
 20
278.50021990421186
 40
0.5530864197530718
  0
CIRCLE
  8
_0-a_極細3
  6
CONTINUOUS
 62
    7
 10
644.95867701143072
 20
273.43355323754525
 40
0.5530864197530718
  0
CIRCLE
  8
_0-a_極細3
  6
CONTINUOUS
 62
    7
 10
645.09201034476393
 20
267.11472607705167
 40
1.825531472681392
  0
CIRCLE
  8
_0-a_極細3
  6
CONTINUOUS
 62
    7
 10
623.75867701143079
 20
279.43355323754525
 40
0.5530864197530718
  0
LINE
  8
_0-a_極細3
  6
CONTINUOUS
 62
    7
 10
554.59732643683765
 20
254.90143911718175
 11
553.76399310350462
 21
254.90143911718175
  0
LINE
  8
_0-a_極細3
  6
CONTINUOUS
 62
    7
 10
553.76399310350462
 20
254.90143911718175
 11
553.76399310350462
 21
153.65983882240238
  0
CIRCLE
  8
_0-a_極細3
  6
CONTINUOUS
 62
    7
 10
559.74838894558798
 20
214.84466434865678
 40
0.5530864197530718
  0
CIRCLE
  8
_0-a_極細3
  6
CONTINUOUS
 62
    7
 10
561.05497330772778
 20
175.58910879310176
 40
0.5530864197530718
  0
CIRCLE
  8
_0-a_極細3
  6
CONTINUOUS
 62
    7
 10
560.41608441883818
 20
241.54250385483007
 40
1.825531472681392
  0
CIRCLE
  8
_0-a_極細3
  6
CONTINUOUS
 62
    7
 10
563.36423256698617
 20
168.92028163260775
 40
1.825531472681392
  0
LINE
  8
_0-a_極細3
  6
CONTINUOUS
 62
    7
 10
612.09732643683856
 20
293.23477245051521
 11
612.09732643683856
 21
281.56810578384824
  0
LINE
  8
_0-a_極細3
  6
CONTINUOUS
 62
    7
 10
612.09732643683856
 20
293.23477245051521
 11
701.27507358195317
 21
293.23477245051521
  0
LINE
  8
_0-a_極細3
  6
CONTINUOUS
 62
    7
 10
603.76399310350507
 20
281.56810578384824
 11
701.27507358195317
 21
281.56810578384824
  0
LINE
  8
_0-a_極細3
  6
CONTINUOUS
 62
    7
 10
603.76399310350507
 20
293.23477245051521
 11
612.09732643683856
 21
293.23477245051521
  0
LINE
  8
_0-a_極細3
  6
CONTINUOUS
 62
    7
 10
603.76399310350507
 20
292.40143911718172
 11
603.76399310350507
 21
293.23477245051521
  0
LINE
  8
_0-a_極細3
  6
CONTINUOUS
 62
    7
 10
612.09732643683856
 20
285.23719206457321
 11
608.42824015611359
 21
281.56810578384824
  0
LINE
  8
_0-a_極細3
  6
CONTINUOUS
 62
    7
 10
612.09732643683856
 20
289.4798327516923
 11
604.1855994689945
 21
281.56810578384824
  0
LINE
  8
_0-a_極細3
  6
CONTINUOUS
 62
    7
 10
603.76399310350507
 20
285.38914010547836
 11
611.60962544854192
 21
293.23477245051521
  0
LINE
  8
_0-a_極細3
  6
CONTINUOUS
 62
    7
 10
603.76399310350507
 20
289.63178079259751
 11
607.36698476142237
 21
293.23477245051481
  0
LINE
  8
_0-a_極細3
  6
CONTINUOUS
 62
    7
 10
612.09732643683856
 20
291.72545024100958
 11
610.58800422733293
 21
293.23477245051521
  0
LINE
  8
_0-a_極細3
  6
CONTINUOUS
 62
    7
 10
612.09732643683856
 20
287.48280955389009
 11
606.34536354021384
 21
293.23477245051521
  0
LINE
  8
_0-a_極細3
  6
CONTINUOUS
 62
    7
 10
612.09732643683856
 20
283.24016886677094
 11
603.76399310350507
 21
291.57350220010443
  0
LINE
  8
_0-a_極細3
  6
CONTINUOUS
 62
    7
 10
609.52674883264172
 20
281.56810578384824
 11
603.76399310350507
 21
287.33086151298488
  0
LINE
  8
_0-a_極細3
  6
CONTINUOUS
 62
    7
 10
605.28410814552262
 20
281.56810578384824
 11
603.76399310350507
 21
283.08822082586579
  0
LINE
  8
_0-a_極細3
  6
CONTINUOUS
 62
    7
 10
680.55313183714134
 20
281.56810578384824
 11
692.21979787701912
 21
293.23477182372602
  0
LINE
  8
_0-a_極細3
  6
CONTINUOUS
 62
    7
 10
659.33992840154497
 20
281.56810578384824
 11
671.00659460737143
 21
293.2347719896747
  0
LINE
  8
_0-a_極細3
  6
CONTINUOUS
 62
    7
 10
638.1267249659486
 20
281.56810578384824
 11
649.79339133772328
 21
293.23477215562292
  0
LINE
  8
_0-a_極細3
  6
CONTINUOUS
 62
    7
 10
616.91352153035223
 20
281.56810578384824
 11
628.58018806807559
 21
293.2347723215716
  0
LINE
  8
_0-a_極細3
  6
DASHED2
 62
    7
 10
691.15973355494009
 20
281.56810578384824
 11
701.27507358195317
 21
291.68344581086188
  0
LINE
  8
_0-a_極細3
  6
DASHED2
 62
    7
 10
669.94653011934315
 20
281.56810578384824
 11
681.61319624219504
 21
293.23477190670013
  0
LINE
  8
_0-a_極細3
  6
DASHED2
 62
    7
 10
648.7333266837469
 20
281.56810578384824
 11
660.39999297254735
 21
293.23477207264881
  0
LINE
  8
_0-a_極細3
  6
DASHED2
 62
    7
 10
627.52012324815041
 20
281.56810578384824
 11
639.1867897028992
 21
293.23477223859703
  0
LINE
  8
_0-a_極細3
  6
DASHED2
 62
    7
 10
612.09732643683856
 20
287.35851240813275
 11
617.97358643325151
 21
293.23477240454571
  0
LINE
  8
_0-a_極細3
  6
CONTINUOUS
 62
    7
 10
647.40406132399039
 20
204.78314027968509
 11
652.5343634738756
 21
218.87852959147352
  0
LINE
  8
_0-a_極細3
  6
CONTINUOUS
 62
    7
 10
597.41001865019416
 20
238.94215029071978
 11
592.27971650030941
 21
224.84676097893129
  0
LINE
  8
_0-a_極細3
  6
CONTINUOUS
 62
    7
 10
652.5343634738756
 20
218.87852959147352
 11
597.41001865019416
 21
238.94215029071978
  0
LINE
  8
_0-a_極細3
  6
CONTINUOUS
 62
    7
 10
647.40406132399039
 20
204.78314027968509
 11
592.27971650030941
 21
224.84676097893129
  0
LINE
  8
_0-a_極細3
  6
CENTER1
 62
    7
 10
654.92464579092587
 20
210.02720489554935
 11
590.89362530836024
 21
233.33259038058483
  0
LINE
  8
_0-a_極細3
  6
CONTINUOUS
 62
    7
 10
628.76399310350507
 20
179.90143911718178
 11
628.76399310350507
 21
223.98700046549763
  0
LINE
  8
_0-a_極細3
  6
CONTINUOUS
 62
    7
 10
628.76399310350507
 20
223.98700046549763
 11
643.76399310350507
 21
223.98700046549763
  0
LINE
  8
_0-a_極細3
  6
CONTINUOUS
 62
    7
 10
643.76399310350507
 20
223.98700046549763
 11
643.76399310350507
 21
179.90143911718178
  0
LINE
  8
_0-a_極細3
  6
CENTER1
 62
    7
 10
636.26399310350507
 20
171.62469883272882
 11
636.26399310350507
 21
228.26272063010717
  0
CIRCLE
  8
_0-a_極細3
  6
CONTINUOUS
 62
    7
 10
630.38089923365351
 20
237.0631828671753
 40
0.5530864197530718
  0
CIRCLE
  8
_0-a_極細3
  6
CONTINUOUS
 62
    7
 10
652.59708579058042
 20
223.71997299063239
 40
0.5530864197530718
  0
LINE
  8
_0-d_寸法3
  6
CONTINUOUS
 62
    7
 10
603.76399310350553
 20
206.56810578384824
 11
603.76399310350553
 21
189.42341388294281
  0
LINE
  8
_0-d_寸法3
  6
CONTINUOUS
 62
    7
 10
603.76399310350553
 20
194.42341388294281
 11
594.10473484061481
 21
191.83522343191768
  0
LINE
  8
_0-d_寸法3
  6
CONTINUOUS
 62
    7
 10
603.76399310350553
 20
194.42341388294281
 11
594.10473484061481
 21
197.01160433396808
  0
LINE
  8
_0-d_寸法3
  6
CONTINUOUS
 62
    7
 10
553.76399310350553
 20
244.90143911718175
 11
553.76399310350553
 21
189.42341388294281
  0
LINE
  8
_0-d_寸法3
  6
CONTINUOUS
 62
    7
 10
553.76399310350553
 20
194.42341388294281
 11
563.42325136639624
 21
197.01160433396808
  0
LINE
  8
_0-d_寸法3
  6
CONTINUOUS
 62
    7
 10
553.76399310350553
 20
194.42341388294281
 11
563.42325136639624
 21
191.83522343191768
  0
LINE
  8
_0-d_寸法3
  6
CONTINUOUS
 62
    7
 10
603.76399310350553
 20
194.42341388294281
 11
553.76399310350553
 21
194.42341388294281
  0
TEXT
  8
_0-d_寸法3
 62
    7
 10
571.26399310350553
 20
194.42341388294281
 40
15
 41
1
 50
0.0000000000002714
  1
30
  0
ARC
  8
_0-b_細線3
  6
CONTINUOUS
 62
    7
 10
598.76399310350507
 20
259.90143911718172
 40
5
 50
269.99999999999977
 51
359.99999999999966
  0
LINE
  8
_0-b_細線3
  6
CONTINUOUS
 62
    7
 10
603.76399310350507
 20
259.90143911718172
 11
603.76399310350507
 21
292.40143911718172
  0
LINE
  8
_0-b_細線3
  6
CONTINUOUS
 62
    7
 10
598.76399310350507
 20
254.90143911718175
 11
554.59732643683765
 21
254.90143911718175
  0
LINE
  8
_0-b_細線3
  6
CONTINUOUS
 62
    7
 10
553.76399310350462
 20
255.73477245051478
 11
554.59732643683765
 21
254.90143911718175
  0
LINE
  8
_0-b_細線3
  6
CONTINUOUS
 62
    7
 10
553.76399310350462
 20
259.06810578384824
 11
553.76399310350462
 21
255.73477245051478
  0
LINE
  8
_0-b_細線3
  6
CONTINUOUS
 62
    7
 10
554.59732643683765
 20
259.90143911718172
 11
553.76399310350462
 21
259.06810578384824
  0
LINE
  8
_0-b_細線3
  6
CONTINUOUS
 62
    7
 10
598.76399310350507
 20
259.90143911718172
 11
554.59732643683765
 21
259.90143911718172
  0
LINE
  8
_0-b_細線3
  6
CONTINUOUS
 62
    7
 10
602.93065977017204
 20
293.23477245051521
 11
603.76399310350507
 21
292.40143911718172
  0
LINE
  8
_0-b_細線3
  6
CONTINUOUS
 62
    7
 10
599.59732643683856
 20
293.23477245051521
 11
602.93065977017204
 21
293.23477245051521
  0
LINE
  8
_0-b_細線3
  6
CONTINUOUS
 62
    7
 10
598.76399310350507
 20
292.40143911718172
 11
599.59732643683856
 21
293.23477245051521
  0
LINE
  8
_0-b_細線3
  6
CONTINUOUS
 62
    7
 10
598.76399310350507
 20
259.90143911718172
 11
598.76399310350507
 21
292.40143911718172
  0
LINE
  8
_0-b_細線3
  6
CONTINUOUS
 62
    7
 10
590.43065977017204
 20
259.90143911718172
 11
590.43065977017204
 21
293.23477245051521
  0
LINE
  8
_0-b_細線3
  6
CONTINUOUS
 62
    7
 10
590.43065977017204
 20
293.23477245051521
 11
595.43065977017204
 21
293.23477245051521
  0
LINE
  8
_0-b_細線3
  6
CONTINUOUS
 62
    7
 10
595.43065977017204
 20
293.23477245051521
 11
595.43065977017204
 21
259.90143911718172
  0
LINE
  8
_0-b_細線3
  6
CONTINUOUS
 62
    7
 10
595.43065977017204
 20
259.90143911718172
 11
590.43065977017204
 21
259.90143911718172
  0
LINE
  8
_0-d_寸法3
  6
CONTINUOUS
 62
    7
 10
387.09732643683901
 20
249.90143911718175
 11
387.09732643683901
 21
189.42341388294281
  0
LINE
  8
_0-d_寸法3
  6
CONTINUOUS
 62
    7
 10
387.09732643683901
 20
194.42341388294281
 11
396.75658469972967
 21
197.01160433396808
  0
LINE
  8
_0-d_寸法3
  6
CONTINUOUS
 62
    7
 10
387.09732643683901
 20
194.42341388294281
 11
396.75658469972967
 21
191.83522343191768
  0
LINE
  8
_0-d_寸法3
  6
CONTINUOUS
 62
    7
 10
553.76399310350462
 20
249.90143911718175
 11
553.76399310350462
 21
189.42341388294281
  0
LINE
  8
_0-d_寸法3
  6
CONTINUOUS
 62
    7
 10
553.76399310350462
 20
194.42341388294281
 11
544.1047348406139
 21
191.83522343191768
  0
LINE
  8
_0-d_寸法3
  6
CONTINUOUS
 62
    7
 10
553.76399310350462
 20
194.42341388294281
 11
544.1047348406139
 21
197.01160433396808
  0
LINE
  8
_0-d_寸法3
  6
CONTINUOUS
 62
    7
 10
387.09732643683901
 20
194.42341388294281
 11
553.76399310350462
 21
194.42341388294281
  0
TEXT
  8
_0-d_寸法3
 62
    7
 10
459.18065977017199
 20
194.42341388294281
 40
15
 41
1
 50
0
  1
100
  0
LINE
  8
_0-b_細線3
  6
CONTINUOUS
 62
    7
 10
590.43065977017204
 20
259.90143911718172
 11
350.43065977017199
 21
259.90143911718127
  0
LINE
  8
_0-b_細線3
  6
CONTINUOUS
 62
    7
 10
590.43065977017204
 20
293.23477245051521
 11
350.43065977017199
 21
293.2347724505143
  0
LINE
  8
_0-a_極細3
  6
CENTER1
 62
    7
 10
606.4307481713272
 20
279.90143911718127
 11
335.44333399229845
 21
279.90143911718127
  0
LINE
  8
_0-d_寸法3
  6
CONTINUOUS
 62
    7
 10
337.09732643683901
 20
298.23477245051521
 11
337.09732643683901
 21
418.23477245051521
  0
LINE
  8
_0-d_寸法3
  6
CONTINUOUS
 62
    7
 10
337.09732643683901
 20
413.23477245051521
 11
346.75658469972967
 21
415.82296290154039
  0
LINE
  8
_0-d_寸法3
  6
CONTINUOUS
 62
    7
 10
337.09732643683901
 20
413.23477245051521
 11
346.75658469972967
 21
410.64658199949008
  0
LINE
  8
_0-d_寸法3
  6
CONTINUOUS
 62
    7
 10
603.76399310350507
 20
298.23477245051521
 11
603.76399310350553
 21
418.23477245051521
  0
LINE
  8
_0-d_寸法3
  6
CONTINUOUS
 62
    7
 10
603.76399310350553
 20
413.23477245051521
 11
594.10473484061481
 21
410.64658199949008
  0
LINE
  8
_0-d_寸法3
  6
CONTINUOUS
 62
    7
 10
603.76399310350553
 20
413.23477245051521
 11
594.10473484061481
 21
415.82296290154045
  0
LINE
  8
_0-d_寸法3
  6
CONTINUOUS
 62
    7
 10
337.09732643683901
 20
413.23477245051521
 11
603.76399310350553
 21
413.23477245051521
  0
TEXT
  8
_0-d_寸法3
 62
    7
 10
459.18065977017199
 20
413.23477245051521
 40
15
 41
1
 50
0
  1
160
  0
LINE
  8
_0-d_寸法3
  6
CONTINUOUS
 62
    7
 10
345.43065977017199
 20
303.23477245051521
 11
345.43065977017199
 21
348.23477245051521
  0
LINE
  8
_0-d_寸法3
  6
CONTINUOUS
 62
    7
 10
345.43065977017199
 20
343.23477245051521
 11
355.08991803306265
 21
345.82296290154039
  0
LINE
  8
_0-d_寸法3
  6
CONTINUOUS
 62
    7
 10
345.43065977017199
 20
343.23477245051521
 11
355.08991803306265
 21
340.64658199949002
  0
LINE
  8
_0-d_寸法3
  6
CONTINUOUS
 62
    7
 10
470.43065977017199
 20
303.23477245051521
 11
470.43065977017199
 21
348.23477245051521
  0
LINE
  8
_0-d_寸法3
  6
CONTINUOUS
 62
    7
 10
470.43065977017199
 20
343.23477245051521
 11
460.77140150728127
 21
340.64658199949002
  0
LINE
  8
_0-d_寸法3
  6
CONTINUOUS
 62
    7
 10
470.43065977017199
 20
343.23477245051521
 11
460.77140150728133
 21
345.82296290154045
  0
LINE
  8
_0-d_寸法3
  6
CONTINUOUS
 62
    7
 10
345.43065977017199
 20
343.23477245051521
 11
470.43065977017199
 21
343.23477245051521
  0
TEXT
  8
_0-d_寸法3
 62
    7
 10
400.43065977017199
 20
343.23477245051521
 40
15
 41
1
 50
0
  1
75
  0
LINE
  8
_0-d_寸法3
  6
CONTINUOUS
 62
    7
 10
470.43065977017199
 20
343.23477245051521
 11
480.08991803306276
 21
345.82296290154034
  0
LINE
  8
_0-d_寸法3
  6
CONTINUOUS
 62
    7
 10
470.43065977017199
 20
343.23477245051521
 11
480.08991803306265
 21
340.64658199949002
  0
LINE
  8
_0-d_寸法3
  6
CONTINUOUS
 62
    7
 10
595.43065977017204
 20
303.23477245051521
 11
595.43065977017204
 21
348.23477245051521
  0
LINE
  8
_0-d_寸法3
  6
CONTINUOUS
 62
    7
 10
595.43065977017204
 20
343.23477245051521
 11
585.77140150728133
 21
340.64658199949002
  0
LINE
  8
_0-d_寸法3
  6
CONTINUOUS
 62
    7
 10
595.43065977017204
 20
343.23477245051521
 11
585.77140150728133
 21
345.82296290154045
  0
LINE
  8
_0-d_寸法3
  6
CONTINUOUS
 62
    7
 10
470.43065977017199
 20
343.23477245051521
 11
595.43065977017204
 21
343.23477245051521
  0
TEXT
  8
_0-d_寸法3
 62
    7
 10
525.4306597701725
 20
343.23477245051521
 40
15
 41
1
 50
0
  1
75
  0
LINE
  8
_0-7_枠細線
  6
CONTINUOUS
 62
    5
 10
1139.4018171150183
 20
373.42884000293418
 11
1139.4018171150183
 21
453.42884000293418
  0
LINE
  8
_0-7_枠細線
  6
CONTINUOUS
 62
    5
 10
1229.4018171150183
 20
373.42884000293418
 11
1229.4018171150183
 21
453.42884000293418
  0
TEXT
  8
_0-7_枠細線
 62
    5
 10
1251.9018171150183
 20
430.92884000293418
 40
15
 41
1
 50
0
  1
蓋重量
  0
LINE
  8
_0-7_枠細線
  6
CONTINUOUS
 62
    5
 10
1319.4018171150183
 20
373.42884000293418
 11
1319.4018171150183
 21
453.42884000293418
  0
TEXT
  8
_0-7_枠細線
 62
    5
 10
1341.9018171150183
 20
430.92884000293418
 40
15
 41
1
 50
0
  1
枠重量
  0
LINE
  8
_0-7_枠細線
  6
CONTINUOUS
 62
    5
 10
1139.4018171150183
 20
423.42884000293418
 11
1409.4018171150183
 21
423.42884000293418
  0
LINE
  8
_0-7_枠細線
  6
CONTINUOUS
 62
    5
 10
1139.4018171150183
 20
453.42884000293418
 11
1409.4018171150183
 21
453.42884000293418
  0
LINE
  8
_0-7_枠細線
  6
CONTINUOUS
 62
    5
 10
1139.4018171150183
 20
373.42884000293418
 11
1409.4018171150183
 21
373.42884000293418
  0
LINE
  8
_0-7_枠細線
  6
CONTINUOUS
 62
    5
 10
1409.4018171150183
 20
373.42884000293418
 11
1409.4018171150183
 21
453.42884000293418
  0
TEXT
  8
_0-7_枠細線
 62
    5
 10
1154.4018171150183
 20
430.92884000293418
 40
15
 41
1
 50
0
  1
適用荷重
  0
TEXT
  8
_0-7_枠細線
 62
    5
 10
1250.4018171150183
 20
392.17884000293418
 40
15
 41
0.8000000000000001
 50
0
  1
8.0kg/枚
  0
TEXT
  8
_0-7_枠細線
 62
    5
 10
1334.4018171150183
 20
392.17884000293418
 40
15
 41
0.8000000000000001
 50
0
  1
2.4kg/ｍ組
  0
TEXT
  8
_0-7_枠細線
 62
    5
 10
1146.9018171150183
 20
391.84307868606186
 40
15
 41
1
 50
0
  1
（Ｔ－２）
  0
LINE
  8
_0-0_計極細
  6
CENTER2
 62
    2
 10
212.54515046382551
 20
681.93908616188696
 11
1239.2513387144309
 21
681.93908616188696
  0
LINE
  8
_0-1_計細線
  6
CONTINUOUS
 62
    3
 10
1221.4337500008442
 20
753.93908616188787
 11
228.43375000084427
 21
753.93908616188787
  0
LINE
  8
_0-1_計細線
  6
CONTINUOUS
 62
    3
 10
228.43375000084427
 20
753.93908616188787
 11
228.43375000084427
 21
756.93908616188776
  0
LINE
  8
_0-1_計細線
  6
CONTINUOUS
 62
    3
 10
228.43375000084427
 20
756.93908616188776
 11
1221.4337500008442
 21
756.93908616188776
  0
LINE
  8
_0-1_計細線
  6
CONTINUOUS
 62
    3
 10
1221.4337500008442
 20
756.93908616188776
 11
1221.4337500008442
 21
753.93908616188787
  0
LINE
  8
_0-1_計細線
  6
CONTINUOUS
 62
    3
 10
1218.4337500008442
 20
731.93908616188776
 11
1211.4337500008442
 21
731.93908616188776
  0
LINE
  8
_0-1_計細線
  6
CONTINUOUS
 62
    3
 10
1208.4337500008442
 20
731.93908616188776
 11
1201.4337500008442
 21
731.93908616188776
  0
LINE
  8
_0-1_計細線
  6
CONTINUOUS
 62
    3
 10
1198.4337500008442
 20
731.93908616188776
 11
1191.4337500008442
 21
731.93908616188776
  0
LINE
  8
_0-1_計細線
  6
CONTINUOUS
 62
    3
 10
1188.4337500008442
 20
731.93908616188776
 11
1181.4337500008442
 21
731.93908616188776
  0
LINE
  8
_0-1_計細線
  6
CONTINUOUS
 62
    3
 10
1178.4337500008442
 20
731.93908616188776
 11
1171.4337500008442
 21
731.93908616188776
  0
LINE
  8
_0-1_計細線
  6
CONTINUOUS
 62
    3
 10
1168.4337500008442
 20
731.93908616188776
 11
1161.4337500008442
 21
731.93908616188776
  0
LINE
  8
_0-1_計細線
  6
CONTINUOUS
 62
    3
 10
1158.4337500008442
 20
731.93908616188776
 11
1151.4337500008442
 21
731.93908616188776
  0
LINE
  8
_0-1_計細線
  6
CONTINUOUS
 62
    3
 10
1148.4337500008442
 20
731.93908616188776
 11
1141.4337500008442
 21
731.93908616188776
  0
LINE
  8
_0-1_計細線
  6
CONTINUOUS
 62
    3
 10
1138.4337500008442
 20
731.93908616188776
 11
1131.4337500008442
 21
731.93908616188776
  0
LINE
  8
_0-1_計細線
  6
CONTINUOUS
 62
    3
 10
1128.4337500008442
 20
731.93908616188776
 11
1121.4337500008442
 21
731.93908616188776
  0
LINE
  8
_0-1_計細線
  6
CONTINUOUS
 62
    3
 10
1118.4337500008442
 20
731.93908616188776
 11
1111.4337500008442
 21
731.93908616188776
  0
LINE
  8
_0-1_計細線
  6
CONTINUOUS
 62
    3
 10
1108.4337500008442
 20
731.93908616188776
 11
1101.4337500008442
 21
731.93908616188776
  0
LINE
  8
_0-1_計細線
  6
CONTINUOUS
 62
    3
 10
1098.4337500008442
 20
731.93908616188776
 11
1091.4337500008442
 21
731.93908616188776
  0
LINE
  8
_0-1_計細線
  6
CONTINUOUS
 62
    3
 10
1088.4337500008442
 20
731.93908616188776
 11
1081.4337500008442
 21
731.93908616188776
  0
LINE
  8
_0-1_計細線
  6
CONTINUOUS
 62
    3
 10
1078.4337500008442
 20
731.93908616188776
 11
1071.4337500008442
 21
731.93908616188776
  0
LINE
  8
_0-1_計細線
  6
CONTINUOUS
 62
    3
 10
1068.4337500008442
 20
731.93908616188776
 11
1061.4337500008442
 21
731.93908616188776
  0
LINE
  8
_0-1_計細線
  6
CONTINUOUS
 62
    3
 10
1058.4337500008442
 20
731.93908616188776
 11
1051.4337500008442
 21
731.93908616188776
  0
LINE
  8
_0-1_計細線
  6
CONTINUOUS
 62
    3
 10
1048.4337500008442
 20
731.93908616188776
 11
1041.4337500008442
 21
731.93908616188776
  0
LINE
  8
_0-1_計細線
  6
CONTINUOUS
 62
    3
 10
1038.4337500008442
 20
731.93908616188776
 11
1031.4337500008442
 21
731.93908616188776
  0
LINE
  8
_0-1_計細線
  6
CONTINUOUS
 62
    3
 10
1028.4337500008442
 20
731.93908616188776
 11
1021.4337500008444
 21
731.93908616188776
  0
LINE
  8
_0-1_計細線
  6
CONTINUOUS
 62
    3
 10
1018.4337500008444
 20
731.93908616188776
 11
1011.4337500008444
 21
731.93908616188776
  0
LINE
  8
_0-1_計細線
  6
CONTINUOUS
 62
    3
 10
1008.4337500008444
 20
731.93908616188776
 11
1001.4337500008444
 21
731.93908616188776
  0
LINE
  8
_0-1_計細線
  6
CONTINUOUS
 62
    3
 10
998.43375000084438
 20
731.93908616188776
 11
991.43375000084438
 21
731.93908616188776
  0
LINE
  8
_0-1_計細線
  6
CONTINUOUS
 62
    3
 10
988.43375000084438
 20
731.93908616188776
 11
981.43375000084438
 21
731.93908616188776
  0
LINE
  8
_0-1_計細線
  6
CONTINUOUS
 62
    3
 10
978.43375000084438
 20
731.93908616188776
 11
971.43375000084438
 21
731.93908616188776
  0
LINE
  8
_0-1_計細線
  6
CONTINUOUS
 62
    3
 10
968.43375000084438
 20
731.93908616188776
 11
961.43375000084438
 21
731.93908616188776
  0
LINE
  8
_0-1_計細線
  6
CONTINUOUS
 62
    3
 10
958.43375000084438
 20
731.93908616188776
 11
951.43375000084438
 21
731.93908616188776
  0
LINE
  8
_0-1_計細線
  6
CONTINUOUS
 62
    3
 10
948.43375000084438
 20
731.93908616188776
 11
941.43375000084438
 21
731.93908616188776
  0
LINE
  8
_0-1_計細線
  6
CONTINUOUS
 62
    3
 10
938.43375000084438
 20
731.93908616188776
 11
931.43375000084438
 21
731.93908616188776
  0
LINE
  8
_0-1_計細線
  6
CONTINUOUS
 62
    3
 10
928.43375000084438
 20
731.93908616188776
 11
921.43375000084438
 21
731.93908616188776
  0
LINE
  8
_0-1_計細線
  6
CONTINUOUS
 62
    3
 10
918.43375000084438
 20
731.93908616188776
 11
911.43375000084438
 21
731.93908616188776
  0
LINE
  8
_0-1_計細線
  6
CONTINUOUS
 62
    3
 10
908.43375000084438
 20
731.93908616188776
 11
901.43375000084438
 21
731.93908616188776
  0
LINE
  8
_0-1_計細線
  6
CONTINUOUS
 62
    3
 10
898.43375000084438
 20
731.93908616188776
 11
891.43375000084438
 21
731.93908616188776
  0
LINE
  8
_0-1_計細線
  6
CONTINUOUS
 62
    3
 10
888.43375000084438
 20
731.93908616188776
 11
881.43375000084438
 21
731.93908616188776
  0
LINE
  8
_0-1_計細線
  6
CONTINUOUS
 62
    3
 10
878.43375000084438
 20
731.93908616188776
 11
871.43375000084438
 21
731.93908616188776
  0
LINE
  8
_0-1_計細線
  6
CONTINUOUS
 62
    3
 10
868.43375000084438
 20
731.93908616188776
 11
861.43375000084438
 21
731.93908616188776
  0
LINE
  8
_0-1_計細線
  6
CONTINUOUS
 62
    3
 10
858.43375000084438
 20
731.93908616188776
 11
851.43375000084438
 21
731.93908616188776
  0
LINE
  8
_0-1_計細線
  6
CONTINUOUS
 62
    3
 10
848.43375000084438
 20
731.93908616188776
 11
841.43375000084438
 21
731.93908616188776
  0
LINE
  8
_0-1_計細線
  6
CONTINUOUS
 62
    3
 10
838.43375000084438
 20
731.93908616188776
 11
831.43375000084438
 21
731.93908616188776
  0
LINE
  8
_0-1_計細線
  6
CONTINUOUS
 62
    3
 10
828.43375000084438
 20
731.93908616188776
 11
821.43375000084438
 21
731.93908616188776
  0
LINE
  8
_0-1_計細線
  6
CONTINUOUS
 62
    3
 10
818.43375000084438
 20
731.93908616188776
 11
811.43375000084438
 21
731.93908616188776
  0
LINE
  8
_0-1_計細線
  6
CONTINUOUS
 62
    3
 10
808.43375000084438
 20
731.93908616188776
 11
801.43375000084438
 21
731.93908616188776
  0
LINE
  8
_0-1_計細線
  6
CONTINUOUS
 62
    3
 10
798.43375000084438
 20
731.93908616188776
 11
791.43375000084438
 21
731.93908616188776
  0
LINE
  8
_0-1_計細線
  6
CONTINUOUS
 62
    3
 10
788.43375000084438
 20
731.93908616188776
 11
781.43375000084438
 21
731.93908616188776
  0
LINE
  8
_0-1_計細線
  6
CONTINUOUS
 62
    3
 10
778.43375000084438
 20
731.93908616188776
 11
771.43375000084438
 21
731.93908616188776
  0
LINE
  8
_0-1_計細線
  6
CONTINUOUS
 62
    3
 10
768.43375000084438
 20
731.93908616188776
 11
761.43375000084438
 21
731.93908616188776
  0
LINE
  8
_0-1_計細線
  6
CONTINUOUS
 62
    3
 10
758.43375000084438
 20
731.93908616188776
 11
751.43375000084438
 21
731.93908616188776
  0
LINE
  8
_0-1_計細線
  6
CONTINUOUS
 62
    3
 10
748.43375000084438
 20
731.93908616188776
 11
741.43375000084438
 21
731.93908616188776
  0
LINE
  8
_0-1_計細線
  6
CONTINUOUS
 62
    3
 10
738.43375000084438
 20
731.93908616188776
 11
731.43375000084438
 21
731.93908616188776
  0
LINE
  8
_0-1_計細線
  6
CONTINUOUS
 62
    3
 10
728.43375000084438
 20
731.93908616188776
 11
721.43375000084438
 21
731.93908616188776
  0
LINE
  8
_0-1_計細線
  6
CONTINUOUS
 62
    3
 10
718.43375000084438
 20
731.93908616188776
 11
711.43375000084438
 21
731.93908616188776
  0
LINE
  8
_0-1_計細線
  6
CONTINUOUS
 62
    3
 10
708.43375000084438
 20
731.93908616188776
 11
701.43375000084438
 21
731.93908616188776
  0
LINE
  8
_0-1_計細線
  6
CONTINUOUS
 62
    3
 10
698.43375000084438
 20
731.93908616188776
 11
691.43375000084438
 21
731.93908616188776
  0
LINE
  8
_0-1_計細線
  6
CONTINUOUS
 62
    3
 10
688.43375000084438
 20
731.93908616188776
 11
681.43375000084438
 21
731.93908616188776
  0
LINE
  8
_0-1_計細線
  6
CONTINUOUS
 62
    3
 10
678.43375000084438
 20
731.93908616188776
 11
671.43375000084438
 21
731.93908616188776
  0
LINE
  8
_0-1_計細線
  6
CONTINUOUS
 62
    3
 10
668.43375000084438
 20
731.93908616188776
 11
661.43375000084438
 21
731.93908616188776
  0
LINE
  8
_0-1_計細線
  6
CONTINUOUS
 62
    3
 10
658.43375000084438
 20
731.93908616188776
 11
651.43375000084438
 21
731.93908616188776
  0
LINE
  8
_0-1_計細線
  6
CONTINUOUS
 62
    3
 10
648.43375000084438
 20
731.93908616188776
 11
641.43375000084438
 21
731.93908616188776
  0
LINE
  8
_0-1_計細線
  6
CONTINUOUS
 62
    3
 10
638.43375000084427
 20
731.93908616188776
 11
631.43375000084438
 21
731.93908616188776
  0
LINE
  8
_0-1_計細線
  6
CONTINUOUS
 62
    3
 10
628.43375000084427
 20
731.93908616188776
 11
621.43375000084438
 21
731.93908616188776
  0
LINE
  8
_0-1_計細線
  6
CONTINUOUS
 62
    3
 10
618.43375000084427
 20
731.93908616188776
 11
611.43375000084438
 21
731.93908616188776
  0
LINE
  8
_0-1_計細線
  6
CONTINUOUS
 62
    3
 10
608.43375000084427
 20
731.93908616188776
 11
601.43375000084438
 21
731.93908616188776
  0
LINE
  8
_0-1_計細線
  6
CONTINUOUS
 62
    3
 10
598.43375000084427
 20
731.93908616188776
 11
591.43375000084438
 21
731.93908616188776
  0
LINE
  8
_0-1_計細線
  6
CONTINUOUS
 62
    3
 10
588.43375000084427
 20
731.93908616188776
 11
581.43375000084438
 21
731.93908616188776
  0
LINE
  8
_0-1_計細線
  6
CONTINUOUS
 62
    3
 10
578.43375000084427
 20
731.93908616188776
 11
571.43375000084438
 21
731.93908616188776
  0
LINE
  8
_0-1_計細線
  6
CONTINUOUS
 62
    3
 10
568.43375000084427
 20
731.93908616188776
 11
561.43375000084438
 21
731.93908616188776
  0
LINE
  8
_0-1_計細線
  6
CONTINUOUS
 62
    3
 10
558.43375000084427
 20
731.93908616188776
 11
551.43375000084438
 21
731.93908616188776
  0
LINE
  8
_0-1_計細線
  6
CONTINUOUS
 62
    3
 10
548.43375000084427
 20
731.93908616188776
 11
541.43375000084438
 21
731.93908616188776
  0
LINE
  8
_0-1_計細線
  6
CONTINUOUS
 62
    3
 10
538.43375000084427
 20
731.93908616188776
 11
531.43375000084438
 21
731.93908616188776
  0
LINE
  8
_0-1_計細線
  6
CONTINUOUS
 62
    3
 10
528.43375000084427
 20
731.93908616188776
 11
521.43375000084438
 21
731.93908616188776
  0
LINE
  8
_0-1_計細線
  6
CONTINUOUS
 62
    3
 10
518.43375000084427
 20
731.93908616188776
 11
511.43375000084433
 21
731.93908616188776
  0
LINE
  8
_0-1_計細線
  6
CONTINUOUS
 62
    3
 10
508.43375000084427
 20
731.93908616188776
 11
501.43375000084433
 21
731.93908616188776
  0
LINE
  8
_0-1_計細線
  6
CONTINUOUS
 62
    3
 10
498.43375000084427
 20
731.93908616188776
 11
491.43375000084433
 21
731.93908616188776
  0
LINE
  8
_0-1_計細線
  6
CONTINUOUS
 62
    3
 10
488.43375000084427
 20
731.93908616188776
 11
481.43375000084433
 21
731.93908616188776
  0
LINE
  8
_0-1_計細線
  6
CONTINUOUS
 62
    3
 10
478.43375000084427
 20
731.93908616188776
 11
471.43375000084433
 21
731.93908616188776
  0
LINE
  8
_0-1_計細線
  6
CONTINUOUS
 62
    3
 10
468.43375000084427
 20
731.93908616188776
 11
461.43375000084433
 21
731.93908616188776
  0
LINE
  8
_0-1_計細線
  6
CONTINUOUS
 62
    3
 10
458.43375000084427
 20
731.93908616188776
 11
451.43375000084433
 21
731.93908616188776
  0
LINE
  8
_0-1_計細線
  6
CONTINUOUS
 62
    3
 10
448.43375000084427
 20
731.93908616188776
 11
441.43375000084433
 21
731.93908616188776
  0
LINE
  8
_0-1_計細線
  6
CONTINUOUS
 62
    3
 10
438.43375000084427
 20
731.93908616188776
 11
431.43375000084433
 21
731.93908616188776
  0
LINE
  8
_0-1_計細線
  6
CONTINUOUS
 62
    3
 10
428.43375000084427
 20
731.93908616188776
 11
421.43375000084433
 21
731.93908616188776
  0
LINE
  8
_0-1_計細線
  6
CONTINUOUS
 62
    3
 10
418.43375000084427
 20
731.93908616188776
 11
411.43375000084433
 21
731.93908616188776
  0
LINE
  8
_0-1_計細線
  6
CONTINUOUS
 62
    3
 10
408.43375000084427
 20
731.93908616188776
 11
401.43375000084433
 21
731.93908616188776
  0
LINE
  8
_0-1_計細線
  6
CONTINUOUS
 62
    3
 10
398.43375000084427
 20
731.93908616188776
 11
391.43375000084433
 21
731.93908616188776
  0
LINE
  8
_0-1_計細線
  6
CONTINUOUS
 62
    3
 10
388.43375000084427
 20
731.93908616188776
 11
381.43375000084427
 21
731.93908616188776
  0
LINE
  8
_0-1_計細線
  6
CONTINUOUS
 62
    3
 10
378.43375000084427
 20
731.93908616188776
 11
371.43375000084427
 21
731.93908616188776
  0
LINE
  8
_0-1_計細線
  6
CONTINUOUS
 62
    3
 10
368.43375000084427
 20
731.93908616188776
 11
361.43375000084427
 21
731.93908616188776
  0
LINE
  8
_0-1_計細線
  6
CONTINUOUS
 62
    3
 10
358.43375000084427
 20
731.93908616188776
 11
351.43375000084427
 21
731.93908616188776
  0
LINE
  8
_0-1_計細線
  6
CONTINUOUS
 62
    3
 10
348.43375000084427
 20
731.93908616188776
 11
341.43375000084427
 21
731.93908616188776
  0
LINE
  8
_0-1_計細線
  6
CONTINUOUS
 62
    3
 10
338.43375000084427
 20
731.93908616188776
 11
331.43375000084427
 21
731.93908616188776
  0
LINE
  8
_0-1_計細線
  6
CONTINUOUS
 62
    3
 10
328.43375000084427
 20
731.93908616188776
 11
321.43375000084427
 21
731.93908616188776
  0
LINE
  8
_0-1_計細線
  6
CONTINUOUS
 62
    3
 10
318.43375000084427
 20
731.93908616188776
 11
311.43375000084433
 21
731.93908616188776
  0
LINE
  8
_0-1_計細線
  6
CONTINUOUS
 62
    3
 10
308.43375000084427
 20
731.93908616188776
 11
301.43375000084433
 21
731.93908616188776
  0
LINE
  8
_0-1_計細線
  6
CONTINUOUS
 62
    3
 10
298.43375000084427
 20
731.93908616188776
 11
291.43375000084433
 21
731.93908616188776
  0
LINE
  8
_0-1_計細線
  6
CONTINUOUS
 62
    3
 10
288.43375000084427
 20
731.93908616188776
 11
281.43375000084433
 21
731.93908616188776
  0
LINE
  8
_0-1_計細線
  6
CONTINUOUS
 62
    3
 10
278.43375000084427
 20
731.93908616188776
 11
271.43375000084433
 21
731.93908616188776
  0
LINE
  8
_0-1_計細線
  6
CONTINUOUS
 62
    3
 10
268.43375000084427
 20
731.93908616188776
 11
261.43375000084433
 21
731.93908616188776
  0
LINE
  8
_0-1_計細線
  6
CONTINUOUS
 62
    3
 10
258.43375000084427
 20
731.93908616188776
 11
251.43375000084433
 21
731.93908616188776
  0
LINE
  8
_0-1_計細線
  6
CONTINUOUS
 62
    3
 10
248.43375000084427
 20
731.93908616188776
 11
241.43375000084433
 21
731.93908616188776
  0
LINE
  8
_0-1_計細線
  6
CONTINUOUS
 62
    3
 10
238.43375000084427
 20
731.93908616188776
 11
231.43375000084433
 21
731.93908616188776
  0
LINE
  8
_0-1_計細線
  6
CONTINUOUS
 62
    3
 10
228.43375000084427
 20
731.93908616188776
 11
200.43375000084424
 21
731.93908616188776
  0
LINE
  8
_0-1_計細線
  6
CONTINUOUS
 62
    3
 10
1221.4337500008442
 20
731.93908616188776
 11
1249.4337500008442
 21
731.93908616188776
  0
LINE
  8
_0-1_計細線
  6
CONTINUOUS
 62
    3
 10
201.74584238636925
 20
758.93908616188787
 11
1250.7458423863691
 21
758.93908616188787
  0
LINE
  8
_0-1_計細線
  6
CONTINUOUS
 62
    3
 10
200.43375000084424
 20
761.93908616188776
 11
1249.4337500008442
 21
761.93908616188776
  0
ARC
  8
_0-0_計極細
  6
CONTINUOUS
 62
    2
 10
1236.443368944033
 20
754.43908616188321
 40
15.000000000036371
 50
330.00000000009993
 51
29.999999999930402
  0
ARC
  8
_0-0_計極細
  6
CONTINUOUS
 62
    2
 10
1262.4241310575999
 20
739.43908616189913
 40
14.999999999996563
 50
150.00000000001793
 51
210.00000000005798
  0
ARC
  8
_0-0_計極細
  6
CONTINUOUS
 62
    2
 10
187.44336894408676
 20
754.43908616189151
 40
14.999999999993854
 50
329.99999999997038
 51
30.000000000005667
  0
ARC
  8
_0-0_計極細
  6
CONTINUOUS
 62
    2
 10
213.42413105759547
 20
739.43908616189151
 40
14.999999999988354
 50
149.99999999998181
 51
210.00000000004107
  0
LINE
  8
_0-1_計細線
  6
CONTINUOUS
 62
    3
 10
1221.4337500008442
 20
609.9390861618873
 11
228.43375000084427
 21
609.9390861618873
  0
LINE
  8
_0-1_計細線
  6
CONTINUOUS
 62
    3
 10
228.43375000084427
 20
609.9390861618873
 11
228.43375000084427
 21
606.93908616188742
  0
LINE
  8
_0-1_計細線
  6
CONTINUOUS
 62
    3
 10
228.43375000084427
 20
606.93908616188742
 11
1221.4337500008442
 21
606.93908616188742
  0
LINE
  8
_0-1_計細線
  6
CONTINUOUS
 62
    3
 10
1221.4337500008442
 20
606.93908616188742
 11
1221.4337500008442
 21
609.9390861618873
  0
LINE
  8
_0-1_計細線
  6
CONTINUOUS
 62
    3
 10
1218.4337500008442
 20
631.93908616188685
 11
1211.4337500008442
 21
631.93908616188685
  0
LINE
  8
_0-1_計細線
  6
CONTINUOUS
 62
    3
 10
1208.4337500008442
 20
631.93908616188685
 11
1201.4337500008442
 21
631.93908616188685
  0
LINE
  8
_0-1_計細線
  6
CONTINUOUS
 62
    3
 10
1198.4337500008442
 20
631.93908616188685
 11
1191.4337500008442
 21
631.93908616188685
  0
LINE
  8
_0-1_計細線
  6
CONTINUOUS
 62
    3
 10
1188.4337500008442
 20
631.93908616188685
 11
1181.4337500008442
 21
631.93908616188685
  0
LINE
  8
_0-1_計細線
  6
CONTINUOUS
 62
    3
 10
1178.4337500008442
 20
631.93908616188685
 11
1171.4337500008442
 21
631.93908616188685
  0
LINE
  8
_0-1_計細線
  6
CONTINUOUS
 62
    3
 10
1168.4337500008442
 20
631.93908616188685
 11
1161.4337500008442
 21
631.93908616188685
  0
LINE
  8
_0-1_計細線
  6
CONTINUOUS
 62
    3
 10
1158.4337500008442
 20
631.93908616188685
 11
1151.4337500008442
 21
631.93908616188685
  0
LINE
  8
_0-1_計細線
  6
CONTINUOUS
 62
    3
 10
1148.4337500008442
 20
631.93908616188685
 11
1141.4337500008442
 21
631.93908616188685
  0
LINE
  8
_0-1_計細線
  6
CONTINUOUS
 62
    3
 10
1138.4337500008442
 20
631.93908616188685
 11
1131.4337500008442
 21
631.93908616188685
  0
LINE
  8
_0-1_計細線
  6
CONTINUOUS
 62
    3
 10
1128.4337500008442
 20
631.93908616188685
 11
1121.4337500008442
 21
631.93908616188685
  0
LINE
  8
_0-1_計細線
  6
CONTINUOUS
 62
    3
 10
1118.4337500008442
 20
631.93908616188685
 11
1111.4337500008442
 21
631.93908616188685
  0
LINE
  8
_0-1_計細線
  6
CONTINUOUS
 62
    3
 10
1108.4337500008442
 20
631.93908616188685
 11
1101.4337500008442
 21
631.93908616188685
  0
LINE
  8
_0-1_計細線
  6
CONTINUOUS
 62
    3
 10
1098.4337500008442
 20
631.93908616188685
 11
1091.4337500008442
 21
631.93908616188685
  0
LINE
  8
_0-1_計細線
  6
CONTINUOUS
 62
    3
 10
1088.4337500008442
 20
631.93908616188685
 11
1081.4337500008442
 21
631.93908616188685
  0
LINE
  8
_0-1_計細線
  6
CONTINUOUS
 62
    3
 10
1078.4337500008442
 20
631.93908616188685
 11
1071.4337500008442
 21
631.93908616188685
  0
LINE
  8
_0-1_計細線
  6
CONTINUOUS
 62
    3
 10
1068.4337500008442
 20
631.93908616188685
 11
1061.4337500008442
 21
631.93908616188685
  0
LINE
  8
_0-1_計細線
  6
CONTINUOUS
 62
    3
 10
1058.4337500008442
 20
631.93908616188685
 11
1051.4337500008442
 21
631.93908616188685
  0
LINE
  8
_0-1_計細線
  6
CONTINUOUS
 62
    3
 10
1048.4337500008442
 20
631.93908616188685
 11
1041.4337500008442
 21
631.93908616188685
  0
LINE
  8
_0-1_計細線
  6
CONTINUOUS
 62
    3
 10
1038.4337500008442
 20
631.93908616188685
 11
1031.4337500008442
 21
631.93908616188685
  0
LINE
  8
_0-1_計細線
  6
CONTINUOUS
 62
    3
 10
1028.4337500008442
 20
631.93908616188685
 11
1021.4337500008444
 21
631.93908616188685
  0
LINE
  8
_0-1_計細線
  6
CONTINUOUS
 62
    3
 10
1018.4337500008444
 20
631.93908616188685
 11
1011.4337500008444
 21
631.93908616188685
  0
LINE
  8
_0-1_計細線
  6
CONTINUOUS
 62
    3
 10
1008.4337500008444
 20
631.93908616188685
 11
1001.4337500008444
 21
631.93908616188685
  0
LINE
  8
_0-1_計細線
  6
CONTINUOUS
 62
    3
 10
998.43375000084438
 20
631.93908616188685
 11
991.43375000084438
 21
631.93908616188685
  0
LINE
  8
_0-1_計細線
  6
CONTINUOUS
 62
    3
 10
988.43375000084438
 20
631.93908616188685
 11
981.43375000084438
 21
631.93908616188685
  0
LINE
  8
_0-1_計細線
  6
CONTINUOUS
 62
    3
 10
978.43375000084438
 20
631.93908616188685
 11
971.43375000084438
 21
631.93908616188685
  0
LINE
  8
_0-1_計細線
  6
CONTINUOUS
 62
    3
 10
968.43375000084438
 20
631.93908616188685
 11
961.43375000084438
 21
631.93908616188685
  0
LINE
  8
_0-1_計細線
  6
CONTINUOUS
 62
    3
 10
958.43375000084438
 20
631.93908616188685
 11
951.43375000084438
 21
631.93908616188685
  0
LINE
  8
_0-1_計細線
  6
CONTINUOUS
 62
    3
 10
948.43375000084438
 20
631.93908616188685
 11
941.43375000084438
 21
631.93908616188685
  0
LINE
  8
_0-1_計細線
  6
CONTINUOUS
 62
    3
 10
938.43375000084438
 20
631.93908616188685
 11
931.43375000084438
 21
631.93908616188685
  0
LINE
  8
_0-1_計細線
  6
CONTINUOUS
 62
    3
 10
928.43375000084438
 20
631.93908616188685
 11
921.43375000084438
 21
631.93908616188685
  0
LINE
  8
_0-1_計細線
  6
CONTINUOUS
 62
    3
 10
918.43375000084438
 20
631.93908616188685
 11
911.43375000084438
 21
631.93908616188685
  0
LINE
  8
_0-1_計細線
  6
CONTINUOUS
 62
    3
 10
908.43375000084438
 20
631.93908616188685
 11
901.43375000084438
 21
631.93908616188685
  0
LINE
  8
_0-1_計細線
  6
CONTINUOUS
 62
    3
 10
898.43375000084438
 20
631.93908616188685
 11
891.43375000084438
 21
631.93908616188685
  0
LINE
  8
_0-1_計細線
  6
CONTINUOUS
 62
    3
 10
888.43375000084438
 20
631.93908616188685
 11
881.43375000084438
 21
631.93908616188685
  0
LINE
  8
_0-1_計細線
  6
CONTINUOUS
 62
    3
 10
878.43375000084438
 20
631.93908616188685
 11
871.43375000084438
 21
631.93908616188685
  0
LINE
  8
_0-1_計細線
  6
CONTINUOUS
 62
    3
 10
868.43375000084438
 20
631.93908616188685
 11
861.43375000084438
 21
631.93908616188685
  0
LINE
  8
_0-1_計細線
  6
CONTINUOUS
 62
    3
 10
858.43375000084438
 20
631.93908616188685
 11
851.43375000084438
 21
631.93908616188685
  0
LINE
  8
_0-1_計細線
  6
CONTINUOUS
 62
    3
 10
848.43375000084438
 20
631.93908616188685
 11
841.43375000084438
 21
631.93908616188685
  0
LINE
  8
_0-1_計細線
  6
CONTINUOUS
 62
    3
 10
838.43375000084438
 20
631.93908616188685
 11
831.43375000084438
 21
631.93908616188685
  0
LINE
  8
_0-1_計細線
  6
CONTINUOUS
 62
    3
 10
828.43375000084438
 20
631.93908616188685
 11
821.43375000084438
 21
631.93908616188685
  0
LINE
  8
_0-1_計細線
  6
CONTINUOUS
 62
    3
 10
818.43375000084438
 20
631.93908616188685
 11
811.43375000084438
 21
631.93908616188685
  0
LINE
  8
_0-1_計細線
  6
CONTINUOUS
 62
    3
 10
808.43375000084438
 20
631.93908616188685
 11
801.43375000084438
 21
631.93908616188685
  0
LINE
  8
_0-1_計細線
  6
CONTINUOUS
 62
    3
 10
798.43375000084438
 20
631.93908616188685
 11
791.43375000084438
 21
631.93908616188685
  0
LINE
  8
_0-1_計細線
  6
CONTINUOUS
 62
    3
 10
788.43375000084438
 20
631.93908616188685
 11
781.43375000084438
 21
631.93908616188685
  0
LINE
  8
_0-1_計細線
  6
CONTINUOUS
 62
    3
 10
778.43375000084438
 20
631.93908616188685
 11
771.43375000084438
 21
631.93908616188685
  0
LINE
  8
_0-1_計細線
  6
CONTINUOUS
 62
    3
 10
768.43375000084438
 20
631.93908616188685
 11
761.43375000084438
 21
631.93908616188685
  0
LINE
  8
_0-1_計細線
  6
CONTINUOUS
 62
    3
 10
758.43375000084438
 20
631.93908616188685
 11
751.43375000084438
 21
631.93908616188685
  0
LINE
  8
_0-1_計細線
  6
CONTINUOUS
 62
    3
 10
748.43375000084438
 20
631.93908616188685
 11
741.43375000084438
 21
631.93908616188685
  0
LINE
  8
_0-1_計細線
  6
CONTINUOUS
 62
    3
 10
738.43375000084438
 20
631.93908616188685
 11
731.43375000084438
 21
631.93908616188685
  0
LINE
  8
_0-1_計細線
  6
CONTINUOUS
 62
    3
 10
728.43375000084438
 20
631.93908616188685
 11
721.43375000084438
 21
631.93908616188685
  0
LINE
  8
_0-1_計細線
  6
CONTINUOUS
 62
    3
 10
718.43375000084438
 20
631.93908616188685
 11
711.43375000084438
 21
631.93908616188685
  0
LINE
  8
_0-1_計細線
  6
CONTINUOUS
 62
    3
 10
708.43375000084438
 20
631.93908616188685
 11
701.43375000084438
 21
631.93908616188685
  0
LINE
  8
_0-1_計細線
  6
CONTINUOUS
 62
    3
 10
698.43375000084438
 20
631.93908616188685
 11
691.43375000084438
 21
631.93908616188685
  0
LINE
  8
_0-1_計細線
  6
CONTINUOUS
 62
    3
 10
688.43375000084438
 20
631.93908616188685
 11
681.43375000084438
 21
631.93908616188685
  0
LINE
  8
_0-1_計細線
  6
CONTINUOUS
 62
    3
 10
678.43375000084438
 20
631.93908616188685
 11
671.43375000084438
 21
631.93908616188685
  0
LINE
  8
_0-1_計細線
  6
CONTINUOUS
 62
    3
 10
668.43375000084438
 20
631.93908616188685
 11
661.43375000084438
 21
631.93908616188685
  0
LINE
  8
_0-1_計細線
  6
CONTINUOUS
 62
    3
 10
658.43375000084438
 20
631.93908616188685
 11
651.43375000084438
 21
631.93908616188685
  0
LINE
  8
_0-1_計細線
  6
CONTINUOUS
 62
    3
 10
648.43375000084438
 20
631.93908616188685
 11
641.43375000084438
 21
631.93908616188685
  0
LINE
  8
_0-1_計細線
  6
CONTINUOUS
 62
    3
 10
638.43375000084427
 20
631.93908616188685
 11
631.43375000084438
 21
631.93908616188685
  0
LINE
  8
_0-1_計細線
  6
CONTINUOUS
 62
    3
 10
628.43375000084427
 20
631.93908616188685
 11
621.43375000084438
 21
631.93908616188685
  0
LINE
  8
_0-1_計細線
  6
CONTINUOUS
 62
    3
 10
618.43375000084427
 20
631.93908616188685
 11
611.43375000084438
 21
631.93908616188685
  0
LINE
  8
_0-1_計細線
  6
CONTINUOUS
 62
    3
 10
608.43375000084427
 20
631.93908616188685
 11
601.43375000084438
 21
631.93908616188685
  0
LINE
  8
_0-1_計細線
  6
CONTINUOUS
 62
    3
 10
598.43375000084427
 20
631.93908616188685
 11
591.43375000084438
 21
631.93908616188685
  0
LINE
  8
_0-1_計細線
  6
CONTINUOUS
 62
    3
 10
588.43375000084427
 20
631.93908616188685
 11
581.43375000084438
 21
631.93908616188685
  0
LINE
  8
_0-1_計細線
  6
CONTINUOUS
 62
    3
 10
578.43375000084427
 20
631.93908616188685
 11
571.43375000084438
 21
631.93908616188685
  0
LINE
  8
_0-1_計細線
  6
CONTINUOUS
 62
    3
 10
568.43375000084427
 20
631.93908616188685
 11
561.43375000084438
 21
631.93908616188685
  0
LINE
  8
_0-1_計細線
  6
CONTINUOUS
 62
    3
 10
558.43375000084427
 20
631.93908616188685
 11
551.43375000084438
 21
631.93908616188685
  0
LINE
  8
_0-1_計細線
  6
CONTINUOUS
 62
    3
 10
548.43375000084427
 20
631.93908616188685
 11
541.43375000084438
 21
631.93908616188685
  0
LINE
  8
_0-1_計細線
  6
CONTINUOUS
 62
    3
 10
538.43375000084427
 20
631.93908616188685
 11
531.43375000084438
 21
631.93908616188685
  0
LINE
  8
_0-1_計細線
  6
CONTINUOUS
 62
    3
 10
528.43375000084427
 20
631.93908616188685
 11
521.43375000084438
 21
631.93908616188685
  0
LINE
  8
_0-1_計細線
  6
CONTINUOUS
 62
    3
 10
518.43375000084427
 20
631.93908616188685
 11
511.43375000084433
 21
631.93908616188685
  0
LINE
  8
_0-1_計細線
  6
CONTINUOUS
 62
    3
 10
508.43375000084427
 20
631.93908616188685
 11
501.43375000084433
 21
631.93908616188685
  0
LINE
  8
_0-1_計細線
  6
CONTINUOUS
 62
    3
 10
498.43375000084427
 20
631.93908616188685
 11
491.43375000084433
 21
631.93908616188685
  0
LINE
  8
_0-1_計細線
  6
CONTINUOUS
 62
    3
 10
488.43375000084427
 20
631.93908616188685
 11
481.43375000084433
 21
631.93908616188685
  0
LINE
  8
_0-1_計細線
  6
CONTINUOUS
 62
    3
 10
478.43375000084427
 20
631.93908616188685
 11
471.43375000084433
 21
631.93908616188685
  0
LINE
  8
_0-1_計細線
  6
CONTINUOUS
 62
    3
 10
468.43375000084427
 20
631.93908616188685
 11
461.43375000084433
 21
631.93908616188685
  0
LINE
  8
_0-1_計細線
  6
CONTINUOUS
 62
    3
 10
458.43375000084427
 20
631.93908616188685
 11
451.43375000084433
 21
631.93908616188685
  0
LINE
  8
_0-1_計細線
  6
CONTINUOUS
 62
    3
 10
448.43375000084427
 20
631.93908616188685
 11
441.43375000084433
 21
631.93908616188685
  0
LINE
  8
_0-1_計細線
  6
CONTINUOUS
 62
    3
 10
438.43375000084427
 20
631.93908616188685
 11
431.43375000084433
 21
631.93908616188685
  0
LINE
  8
_0-1_計細線
  6
CONTINUOUS
 62
    3
 10
428.43375000084427
 20
631.93908616188685
 11
421.43375000084433
 21
631.93908616188685
  0
LINE
  8
_0-1_計細線
  6
CONTINUOUS
 62
    3
 10
418.43375000084427
 20
631.93908616188685
 11
411.43375000084433
 21
631.93908616188685
  0
LINE
  8
_0-1_計細線
  6
CONTINUOUS
 62
    3
 10
408.43375000084427
 20
631.93908616188685
 11
401.43375000084433
 21
631.93908616188685
  0
LINE
  8
_0-1_計細線
  6
CONTINUOUS
 62
    3
 10
398.43375000084427
 20
631.93908616188685
 11
391.43375000084433
 21
631.93908616188685
  0
LINE
  8
_0-1_計細線
  6
CONTINUOUS
 62
    3
 10
388.43375000084427
 20
631.93908616188685
 11
381.43375000084427
 21
631.93908616188685
  0
LINE
  8
_0-1_計細線
  6
CONTINUOUS
 62
    3
 10
378.43375000084427
 20
631.93908616188685
 11
371.43375000084427
 21
631.93908616188685
  0
LINE
  8
_0-1_計細線
  6
CONTINUOUS
 62
    3
 10
368.43375000084427
 20
631.93908616188685
 11
361.43375000084427
 21
631.93908616188685
  0
LINE
  8
_0-1_計細線
  6
CONTINUOUS
 62
    3
 10
358.43375000084427
 20
631.93908616188685
 11
351.43375000084427
 21
631.93908616188685
  0
LINE
  8
_0-1_計細線
  6
CONTINUOUS
 62
    3
 10
348.43375000084427
 20
631.93908616188685
 11
341.43375000084427
 21
631.93908616188685
  0
LINE
  8
_0-1_計細線
  6
CONTINUOUS
 62
    3
 10
338.43375000084427
 20
631.93908616188685
 11
331.43375000084427
 21
631.93908616188685
  0
LINE
  8
_0-1_計細線
  6
CONTINUOUS
 62
    3
 10
328.43375000084427
 20
631.93908616188685
 11
321.43375000084427
 21
631.93908616188685
  0
LINE
  8
_0-1_計細線
  6
CONTINUOUS
 62
    3
 10
318.43375000084427
 20
631.93908616188685
 11
311.43375000084433
 21
631.93908616188685
  0
LINE
  8
_0-1_計細線
  6
CONTINUOUS
 62
    3
 10
308.43375000084427
 20
631.93908616188685
 11
301.43375000084433
 21
631.93908616188685
  0
LINE
  8
_0-1_計細線
  6
CONTINUOUS
 62
    3
 10
298.43375000084427
 20
631.93908616188685
 11
291.43375000084433
 21
631.93908616188685
  0
LINE
  8
_0-1_計細線
  6
CONTINUOUS
 62
    3
 10
288.43375000084427
 20
631.93908616188685
 11
281.43375000084433
 21
631.93908616188685
  0
LINE
  8
_0-1_計細線
  6
CONTINUOUS
 62
    3
 10
278.43375000084427
 20
631.93908616188685
 11
271.43375000084433
 21
631.93908616188685
  0
LINE
  8
_0-1_計細線
  6
CONTINUOUS
 62
    3
 10
268.43375000084427
 20
631.93908616188685
 11
261.43375000084433
 21
631.93908616188685
  0
LINE
  8
_0-1_計細線
  6
CONTINUOUS
 62
    3
 10
258.43375000084427
 20
631.93908616188685
 11
251.43375000084433
 21
631.93908616188685
  0
LINE
  8
_0-1_計細線
  6
CONTINUOUS
 62
    3
 10
248.43375000084427
 20
631.93908616188685
 11
241.43375000084433
 21
631.93908616188685
  0
LINE
  8
_0-1_計細線
  6
CONTINUOUS
 62
    3
 10
238.43375000084427
 20
631.93908616188685
 11
231.43375000084433
 21
631.93908616188685
  0
LINE
  8
_0-1_計細線
  6
CONTINUOUS
 62
    3
 10
199.12165761531895
 20
604.9390861618873
 11
1248.1216576153183
 21
604.9390861618873
  0
LINE
  8
_0-1_計細線
  6
CONTINUOUS
 62
    3
 10
200.43375000084424
 20
601.93908616188742
 11
1249.4337500008442
 21
601.93908616188742
  0
LINE
  8
_0-1_計細線
  6
CONTINUOUS
 62
    3
 10
1221.4337500008442
 20
631.93908616188821
 11
1249.4337500008442
 21
631.93908616188685
  0
LINE
  8
_0-1_計細線
  6
CONTINUOUS
 62
    3
 10
228.43375000084427
 20
631.93908616188821
 11
200.43375000084424
 21
631.93908616188821
  0
LINE
  8
_0-0_計極細
  6
CONTINUOUS
 62
    2
 10
1211.4337500008442
 20
679.43908616188696
 11
1218.4337500008442
 21
679.43908616188696
  0
LINE
  8
_0-0_計極細
  6
CONTINUOUS
 62
    2
 10
1211.4337500008442
 20
684.43908616188696
 11
1218.4337500008442
 21
684.43908616188696
  0
LINE
  8
_0-0_計極細
  6
CONTINUOUS
 62
    2
 10
1201.4337500008442
 20
679.43908616188696
 11
1208.4337500008442
 21
679.43908616188696
  0
LINE
  8
_0-0_計極細
  6
CONTINUOUS
 62
    2
 10
1201.4337500008442
 20
684.43908616188696
 11
1208.4337500008442
 21
684.43908616188696
  0
LINE
  8
_0-0_計極細
  6
CONTINUOUS
 62
    2
 10
1191.4337500008442
 20
679.43908616188696
 11
1198.4337500008442
 21
679.43908616188696
  0
LINE
  8
_0-0_計極細
  6
CONTINUOUS
 62
    2
 10
1191.4337500008442
 20
684.43908616188696
 11
1198.4337500008442
 21
684.43908616188696
  0
LINE
  8
_0-0_計極細
  6
CONTINUOUS
 62
    2
 10
1181.4337500008442
 20
679.43908616188696
 11
1188.4337500008442
 21
679.43908616188696
  0
LINE
  8
_0-0_計極細
  6
CONTINUOUS
 62
    2
 10
1181.4337500008442
 20
684.43908616188696
 11
1188.4337500008442
 21
684.43908616188696
  0
LINE
  8
_0-0_計極細
  6
CONTINUOUS
 62
    2
 10
1171.4337500008442
 20
679.43908616188696
 11
1178.4337500008442
 21
679.43908616188696
  0
LINE
  8
_0-0_計極細
  6
CONTINUOUS
 62
    2
 10
1171.4337500008442
 20
684.43908616188696
 11
1178.4337500008442
 21
684.43908616188696
  0
LINE
  8
_0-0_計極細
  6
CONTINUOUS
 62
    2
 10
1161.4337500008442
 20
679.43908616188696
 11
1168.4337500008442
 21
679.43908616188696
  0
LINE
  8
_0-0_計極細
  6
CONTINUOUS
 62
    2
 10
1161.4337500008442
 20
684.43908616188696
 11
1168.4337500008442
 21
684.43908616188696
  0
LINE
  8
_0-0_計極細
  6
CONTINUOUS
 62
    2
 10
1151.4337500008442
 20
679.43908616188696
 11
1158.4337500008442
 21
679.43908616188696
  0
LINE
  8
_0-0_計極細
  6
CONTINUOUS
 62
    2
 10
1151.4337500008442
 20
684.43908616188696
 11
1158.4337500008442
 21
684.43908616188696
  0
LINE
  8
_0-0_計極細
  6
CONTINUOUS
 62
    2
 10
1141.4337500008442
 20
679.43908616188696
 11
1148.4337500008442
 21
679.43908616188696
  0
LINE
  8
_0-0_計極細
  6
CONTINUOUS
 62
    2
 10
1141.4337500008442
 20
684.43908616188696
 11
1148.4337500008442
 21
684.43908616188696
  0
LINE
  8
_0-0_計極細
  6
CONTINUOUS
 62
    2
 10
1131.4337500008442
 20
679.43908616188696
 11
1138.4337500008442
 21
679.43908616188696
  0
LINE
  8
_0-0_計極細
  6
CONTINUOUS
 62
    2
 10
1131.4337500008442
 20
684.43908616188696
 11
1138.4337500008442
 21
684.43908616188696
  0
LINE
  8
_0-0_計極細
  6
CONTINUOUS
 62
    2
 10
1121.4337500008442
 20
679.43908616188696
 11
1128.4337500008442
 21
679.43908616188696
  0
LINE
  8
_0-0_計極細
  6
CONTINUOUS
 62
    2
 10
1121.4337500008442
 20
684.43908616188696
 11
1128.4337500008442
 21
684.43908616188696
  0
LINE
  8
_0-0_計極細
  6
CONTINUOUS
 62
    2
 10
1111.4337500008442
 20
679.43908616188696
 11
1118.4337500008442
 21
679.43908616188696
  0
LINE
  8
_0-0_計極細
  6
CONTINUOUS
 62
    2
 10
1111.4337500008442
 20
684.43908616188696
 11
1118.4337500008442
 21
684.43908616188696
  0
LINE
  8
_0-0_計極細
  6
CONTINUOUS
 62
    2
 10
1101.4337500008442
 20
679.43908616188696
 11
1108.4337500008442
 21
679.43908616188696
  0
LINE
  8
_0-0_計極細
  6
CONTINUOUS
 62
    2
 10
1101.4337500008442
 20
684.43908616188696
 11
1108.4337500008442
 21
684.43908616188696
  0
LINE
  8
_0-0_計極細
  6
CONTINUOUS
 62
    2
 10
1091.4337500008442
 20
679.43908616188696
 11
1098.4337500008442
 21
679.43908616188696
  0
LINE
  8
_0-0_計極細
  6
CONTINUOUS
 62
    2
 10
1091.4337500008442
 20
684.43908616188696
 11
1098.4337500008442
 21
684.43908616188696
  0
LINE
  8
_0-0_計極細
  6
CONTINUOUS
 62
    2
 10
1081.4337500008442
 20
679.43908616188696
 11
1088.4337500008442
 21
679.43908616188696
  0
LINE
  8
_0-0_計極細
  6
CONTINUOUS
 62
    2
 10
1081.4337500008442
 20
684.43908616188696
 11
1088.4337500008442
 21
684.43908616188696
  0
LINE
  8
_0-0_計極細
  6
CONTINUOUS
 62
    2
 10
1071.4337500008442
 20
679.43908616188696
 11
1078.4337500008442
 21
679.43908616188696
  0
LINE
  8
_0-0_計極細
  6
CONTINUOUS
 62
    2
 10
1071.4337500008442
 20
684.43908616188696
 11
1078.4337500008442
 21
684.43908616188696
  0
LINE
  8
_0-0_計極細
  6
CONTINUOUS
 62
    2
 10
1061.4337500008442
 20
679.43908616188696
 11
1068.4337500008442
 21
679.43908616188696
  0
LINE
  8
_0-0_計極細
  6
CONTINUOUS
 62
    2
 10
1061.4337500008442
 20
684.43908616188696
 11
1068.4337500008442
 21
684.43908616188696
  0
LINE
  8
_0-0_計極細
  6
CONTINUOUS
 62
    2
 10
1051.4337500008442
 20
679.43908616188696
 11
1058.4337500008442
 21
679.43908616188696
  0
LINE
  8
_0-0_計極細
  6
CONTINUOUS
 62
    2
 10
1051.4337500008442
 20
684.43908616188696
 11
1058.4337500008442
 21
684.43908616188696
  0
LINE
  8
_0-0_計極細
  6
CONTINUOUS
 62
    2
 10
1041.4337500008442
 20
679.43908616188696
 11
1048.4337500008442
 21
679.43908616188696
  0
LINE
  8
_0-0_計極細
  6
CONTINUOUS
 62
    2
 10
1041.4337500008442
 20
684.43908616188696
 11
1048.4337500008442
 21
684.43908616188696
  0
LINE
  8
_0-0_計極細
  6
CONTINUOUS
 62
    2
 10
1031.4337500008442
 20
679.43908616188696
 11
1038.4337500008442
 21
679.43908616188696
  0
LINE
  8
_0-0_計極細
  6
CONTINUOUS
 62
    2
 10
1031.4337500008442
 20
684.43908616188696
 11
1038.4337500008442
 21
684.43908616188696
  0
LINE
  8
_0-0_計極細
  6
CONTINUOUS
 62
    2
 10
1021.4337500008444
 20
679.43908616188696
 11
1028.4337500008442
 21
679.43908616188696
  0
LINE
  8
_0-0_計極細
  6
CONTINUOUS
 62
    2
 10
1021.4337500008444
 20
684.43908616188696
 11
1028.4337500008442
 21
684.43908616188696
  0
LINE
  8
_0-0_計極細
  6
CONTINUOUS
 62
    2
 10
1011.4337500008444
 20
679.43908616188696
 11
1018.4337500008444
 21
679.43908616188696
  0
LINE
  8
_0-0_計極細
  6
CONTINUOUS
 62
    2
 10
1011.4337500008444
 20
684.43908616188696
 11
1018.4337500008444
 21
684.43908616188696
  0
LINE
  8
_0-0_計極細
  6
CONTINUOUS
 62
    2
 10
1001.4337500008444
 20
679.43908616188696
 11
1008.4337500008444
 21
679.43908616188696
  0
LINE
  8
_0-0_計極細
  6
CONTINUOUS
 62
    2
 10
1001.4337500008444
 20
684.43908616188696
 11
1008.4337500008444
 21
684.43908616188696
  0
LINE
  8
_0-0_計極細
  6
CONTINUOUS
 62
    2
 10
991.43375000084438
 20
679.43908616188696
 11
998.43375000084438
 21
679.43908616188696
  0
LINE
  8
_0-0_計極細
  6
CONTINUOUS
 62
    2
 10
991.43375000084438
 20
684.43908616188696
 11
998.43375000084438
 21
684.43908616188696
  0
LINE
  8
_0-0_計極細
  6
CONTINUOUS
 62
    2
 10
981.43375000084438
 20
679.43908616188696
 11
988.43375000084438
 21
679.43908616188696
  0
LINE
  8
_0-0_計極細
  6
CONTINUOUS
 62
    2
 10
981.43375000084438
 20
684.43908616188696
 11
988.43375000084438
 21
684.43908616188696
  0
LINE
  8
_0-0_計極細
  6
CONTINUOUS
 62
    2
 10
971.43375000084438
 20
679.43908616188696
 11
978.43375000084438
 21
679.43908616188696
  0
LINE
  8
_0-0_計極細
  6
CONTINUOUS
 62
    2
 10
971.43375000084438
 20
684.43908616188696
 11
978.43375000084438
 21
684.43908616188696
  0
LINE
  8
_0-0_計極細
  6
CONTINUOUS
 62
    2
 10
961.43375000084438
 20
679.43908616188696
 11
968.43375000084438
 21
679.43908616188696
  0
LINE
  8
_0-0_計極細
  6
CONTINUOUS
 62
    2
 10
961.43375000084438
 20
684.43908616188696
 11
968.43375000084438
 21
684.43908616188696
  0
LINE
  8
_0-0_計極細
  6
CONTINUOUS
 62
    2
 10
951.43375000084438
 20
679.43908616188696
 11
958.43375000084438
 21
679.43908616188696
  0
LINE
  8
_0-0_計極細
  6
CONTINUOUS
 62
    2
 10
951.43375000084438
 20
684.43908616188696
 11
958.43375000084438
 21
684.43908616188696
  0
LINE
  8
_0-0_計極細
  6
CONTINUOUS
 62
    2
 10
941.43375000084438
 20
679.43908616188696
 11
948.43375000084438
 21
679.43908616188696
  0
LINE
  8
_0-0_計極細
  6
CONTINUOUS
 62
    2
 10
941.43375000084438
 20
684.43908616188696
 11
948.43375000084438
 21
684.43908616188696
  0
LINE
  8
_0-0_計極細
  6
CONTINUOUS
 62
    2
 10
931.43375000084438
 20
679.43908616188696
 11
938.43375000084438
 21
679.43908616188696
  0
LINE
  8
_0-0_計極細
  6
CONTINUOUS
 62
    2
 10
931.43375000084438
 20
684.43908616188696
 11
938.43375000084438
 21
684.43908616188696
  0
LINE
  8
_0-0_計極細
  6
CONTINUOUS
 62
    2
 10
921.43375000084438
 20
679.43908616188696
 11
928.43375000084438
 21
679.43908616188696
  0
LINE
  8
_0-0_計極細
  6
CONTINUOUS
 62
    2
 10
921.43375000084438
 20
684.43908616188696
 11
928.43375000084438
 21
684.43908616188696
  0
LINE
  8
_0-0_計極細
  6
CONTINUOUS
 62
    2
 10
911.43375000084438
 20
679.43908616188696
 11
918.43375000084438
 21
679.43908616188696
  0
LINE
  8
_0-0_計極細
  6
CONTINUOUS
 62
    2
 10
911.43375000084438
 20
684.43908616188696
 11
918.43375000084438
 21
684.43908616188696
  0
LINE
  8
_0-0_計極細
  6
CONTINUOUS
 62
    2
 10
901.43375000084438
 20
679.43908616188696
 11
908.43375000084438
 21
679.43908616188696
  0
LINE
  8
_0-0_計極細
  6
CONTINUOUS
 62
    2
 10
901.43375000084438
 20
684.43908616188696
 11
908.43375000084438
 21
684.43908616188696
  0
LINE
  8
_0-0_計極細
  6
CONTINUOUS
 62
    2
 10
891.43375000084438
 20
679.43908616188696
 11
898.43375000084438
 21
679.43908616188696
  0
LINE
  8
_0-0_計極細
  6
CONTINUOUS
 62
    2
 10
891.43375000084438
 20
684.43908616188696
 11
898.43375000084438
 21
684.43908616188696
  0
LINE
  8
_0-0_計極細
  6
CONTINUOUS
 62
    2
 10
881.43375000084438
 20
679.43908616188696
 11
888.43375000084438
 21
679.43908616188696
  0
LINE
  8
_0-0_計極細
  6
CONTINUOUS
 62
    2
 10
881.43375000084438
 20
684.43908616188696
 11
888.43375000084438
 21
684.43908616188696
  0
LINE
  8
_0-0_計極細
  6
CONTINUOUS
 62
    2
 10
871.43375000084438
 20
679.43908616188696
 11
878.43375000084438
 21
679.43908616188696
  0
LINE
  8
_0-0_計極細
  6
CONTINUOUS
 62
    2
 10
871.43375000084438
 20
684.43908616188696
 11
878.43375000084438
 21
684.43908616188696
  0
LINE
  8
_0-0_計極細
  6
CONTINUOUS
 62
    2
 10
861.43375000084438
 20
679.43908616188696
 11
868.43375000084438
 21
679.43908616188696
  0
LINE
  8
_0-0_計極細
  6
CONTINUOUS
 62
    2
 10
861.43375000084438
 20
684.43908616188696
 11
868.43375000084438
 21
684.43908616188696
  0
LINE
  8
_0-0_計極細
  6
CONTINUOUS
 62
    2
 10
851.43375000084438
 20
679.43908616188696
 11
858.43375000084438
 21
679.43908616188696
  0
LINE
  8
_0-0_計極細
  6
CONTINUOUS
 62
    2
 10
851.43375000084438
 20
684.43908616188696
 11
858.43375000084438
 21
684.43908616188696
  0
LINE
  8
_0-0_計極細
  6
CONTINUOUS
 62
    2
 10
841.43375000084438
 20
679.43908616188696
 11
848.43375000084438
 21
679.43908616188696
  0
LINE
  8
_0-0_計極細
  6
CONTINUOUS
 62
    2
 10
841.43375000084438
 20
684.43908616188696
 11
848.43375000084438
 21
684.43908616188696
  0
LINE
  8
_0-0_計極細
  6
CONTINUOUS
 62
    2
 10
831.43375000084438
 20
679.43908616188696
 11
838.43375000084438
 21
679.43908616188696
  0
LINE
  8
_0-0_計極細
  6
CONTINUOUS
 62
    2
 10
831.43375000084438
 20
684.43908616188696
 11
838.43375000084438
 21
684.43908616188696
  0
LINE
  8
_0-0_計極細
  6
CONTINUOUS
 62
    2
 10
821.43375000084438
 20
679.43908616188696
 11
828.43375000084438
 21
679.43908616188696
  0
LINE
  8
_0-0_計極細
  6
CONTINUOUS
 62
    2
 10
821.43375000084438
 20
684.43908616188696
 11
828.43375000084438
 21
684.43908616188696
  0
LINE
  8
_0-0_計極細
  6
CONTINUOUS
 62
    2
 10
811.43375000084438
 20
679.43908616188696
 11
818.43375000084438
 21
679.43908616188696
  0
LINE
  8
_0-0_計極細
  6
CONTINUOUS
 62
    2
 10
811.43375000084438
 20
684.43908616188696
 11
818.43375000084438
 21
684.43908616188696
  0
LINE
  8
_0-0_計極細
  6
CONTINUOUS
 62
    2
 10
801.43375000084438
 20
679.43908616188696
 11
808.43375000084438
 21
679.43908616188696
  0
LINE
  8
_0-0_計極細
  6
CONTINUOUS
 62
    2
 10
801.43375000084438
 20
684.43908616188696
 11
808.43375000084438
 21
684.43908616188696
  0
LINE
  8
_0-0_計極細
  6
CONTINUOUS
 62
    2
 10
791.43375000084438
 20
679.43908616188696
 11
798.43375000084438
 21
679.43908616188696
  0
LINE
  8
_0-0_計極細
  6
CONTINUOUS
 62
    2
 10
791.43375000084438
 20
684.43908616188696
 11
798.43375000084438
 21
684.43908616188696
  0
LINE
  8
_0-0_計極細
  6
CONTINUOUS
 62
    2
 10
781.43375000084438
 20
679.43908616188696
 11
788.43375000084438
 21
679.43908616188696
  0
LINE
  8
_0-0_計極細
  6
CONTINUOUS
 62
    2
 10
781.43375000084438
 20
684.43908616188696
 11
788.43375000084438
 21
684.43908616188696
  0
LINE
  8
_0-0_計極細
  6
CONTINUOUS
 62
    2
 10
771.43375000084438
 20
679.43908616188696
 11
778.43375000084438
 21
679.43908616188696
  0
LINE
  8
_0-0_計極細
  6
CONTINUOUS
 62
    2
 10
771.43375000084438
 20
684.43908616188696
 11
778.43375000084438
 21
684.43908616188696
  0
LINE
  8
_0-0_計極細
  6
CONTINUOUS
 62
    2
 10
761.43375000084438
 20
679.43908616188696
 11
768.43375000084438
 21
679.43908616188696
  0
LINE
  8
_0-0_計極細
  6
CONTINUOUS
 62
    2
 10
761.43375000084438
 20
684.43908616188696
 11
768.43375000084438
 21
684.43908616188696
  0
LINE
  8
_0-0_計極細
  6
CONTINUOUS
 62
    2
 10
751.43375000084438
 20
679.43908616188696
 11
758.43375000084438
 21
679.43908616188696
  0
LINE
  8
_0-0_計極細
  6
CONTINUOUS
 62
    2
 10
751.43375000084438
 20
684.43908616188696
 11
758.43375000084438
 21
684.43908616188696
  0
LINE
  8
_0-0_計極細
  6
CONTINUOUS
 62
    2
 10
741.43375000084438
 20
679.43908616188696
 11
748.43375000084438
 21
679.43908616188696
  0
LINE
  8
_0-0_計極細
  6
CONTINUOUS
 62
    2
 10
741.43375000084438
 20
684.43908616188696
 11
748.43375000084438
 21
684.43908616188696
  0
LINE
  8
_0-0_計極細
  6
CONTINUOUS
 62
    2
 10
731.43375000084438
 20
679.43908616188696
 11
738.43375000084438
 21
679.43908616188696
  0
LINE
  8
_0-0_計極細
  6
CONTINUOUS
 62
    2
 10
731.43375000084438
 20
684.43908616188696
 11
738.43375000084438
 21
684.43908616188696
  0
LINE
  8
_0-0_計極細
  6
CONTINUOUS
 62
    2
 10
721.43375000084438
 20
679.43908616188696
 11
728.43375000084438
 21
679.43908616188696
  0
LINE
  8
_0-0_計極細
  6
CONTINUOUS
 62
    2
 10
721.43375000084438
 20
684.43908616188696
 11
728.43375000084438
 21
684.43908616188696
  0
LINE
  8
_0-0_計極細
  6
CONTINUOUS
 62
    2
 10
711.43375000084438
 20
679.43908616188696
 11
718.43375000084438
 21
679.43908616188696
  0
LINE
  8
_0-0_計極細
  6
CONTINUOUS
 62
    2
 10
711.43375000084438
 20
684.43908616188696
 11
718.43375000084438
 21
684.43908616188696
  0
LINE
  8
_0-0_計極細
  6
CONTINUOUS
 62
    2
 10
701.43375000084438
 20
679.43908616188696
 11
708.43375000084438
 21
679.43908616188696
  0
LINE
  8
_0-0_計極細
  6
CONTINUOUS
 62
    2
 10
701.43375000084438
 20
684.43908616188696
 11
708.43375000084438
 21
684.43908616188696
  0
LINE
  8
_0-0_計極細
  6
CONTINUOUS
 62
    2
 10
691.43375000084438
 20
679.43908616188696
 11
698.43375000084438
 21
679.43908616188696
  0
LINE
  8
_0-0_計極細
  6
CONTINUOUS
 62
    2
 10
691.43375000084438
 20
684.43908616188696
 11
698.43375000084438
 21
684.43908616188696
  0
LINE
  8
_0-0_計極細
  6
CONTINUOUS
 62
    2
 10
681.43375000084438
 20
679.43908616188696
 11
688.43375000084438
 21
679.43908616188696
  0
LINE
  8
_0-0_計極細
  6
CONTINUOUS
 62
    2
 10
681.43375000084438
 20
684.43908616188696
 11
688.43375000084438
 21
684.43908616188696
  0
LINE
  8
_0-0_計極細
  6
CONTINUOUS
 62
    2
 10
671.43375000084438
 20
679.43908616188696
 11
678.43375000084438
 21
679.43908616188696
  0
LINE
  8
_0-0_計極細
  6
CONTINUOUS
 62
    2
 10
671.43375000084438
 20
684.43908616188696
 11
678.43375000084438
 21
684.43908616188696
  0
LINE
  8
_0-0_計極細
  6
CONTINUOUS
 62
    2
 10
661.43375000084438
 20
679.43908616188696
 11
668.43375000084438
 21
679.43908616188696
  0
LINE
  8
_0-0_計極細
  6
CONTINUOUS
 62
    2
 10
661.43375000084438
 20
684.43908616188696
 11
668.43375000084438
 21
684.43908616188696
  0
LINE
  8
_0-0_計極細
  6
CONTINUOUS
 62
    2
 10
651.43375000084438
 20
679.43908616188696
 11
658.43375000084438
 21
679.43908616188696
  0
LINE
  8
_0-0_計極細
  6
CONTINUOUS
 62
    2
 10
651.43375000084438
 20
684.43908616188696
 11
658.43375000084438
 21
684.43908616188696
  0
LINE
  8
_0-0_計極細
  6
CONTINUOUS
 62
    2
 10
641.43375000084438
 20
679.43908616188696
 11
648.43375000084438
 21
679.43908616188696
  0
LINE
  8
_0-0_計極細
  6
CONTINUOUS
 62
    2
 10
641.43375000084438
 20
684.43908616188696
 11
648.43375000084438
 21
684.43908616188696
  0
LINE
  8
_0-0_計極細
  6
CONTINUOUS
 62
    2
 10
631.43375000084438
 20
679.43908616188696
 11
638.43375000084427
 21
679.43908616188696
  0
LINE
  8
_0-0_計極細
  6
CONTINUOUS
 62
    2
 10
631.43375000084438
 20
684.43908616188696
 11
638.43375000084427
 21
684.43908616188696
  0
LINE
  8
_0-0_計極細
  6
CONTINUOUS
 62
    2
 10
621.43375000084438
 20
679.43908616188696
 11
628.43375000084427
 21
679.43908616188696
  0
LINE
  8
_0-0_計極細
  6
CONTINUOUS
 62
    2
 10
621.43375000084438
 20
684.43908616188696
 11
628.43375000084427
 21
684.43908616188696
  0
LINE
  8
_0-0_計極細
  6
CONTINUOUS
 62
    2
 10
611.43375000084438
 20
679.43908616188696
 11
618.43375000084427
 21
679.43908616188696
  0
LINE
  8
_0-0_計極細
  6
CONTINUOUS
 62
    2
 10
611.43375000084438
 20
684.43908616188696
 11
618.43375000084427
 21
684.43908616188696
  0
LINE
  8
_0-0_計極細
  6
CONTINUOUS
 62
    2
 10
601.43375000084438
 20
679.43908616188696
 11
608.43375000084427
 21
679.43908616188696
  0
LINE
  8
_0-0_計極細
  6
CONTINUOUS
 62
    2
 10
601.43375000084438
 20
684.43908616188696
 11
608.43375000084427
 21
684.43908616188696
  0
LINE
  8
_0-0_計極細
  6
CONTINUOUS
 62
    2
 10
591.43375000084438
 20
679.43908616188696
 11
598.43375000084427
 21
679.43908616188696
  0
LINE
  8
_0-0_計極細
  6
CONTINUOUS
 62
    2
 10
591.43375000084438
 20
684.43908616188696
 11
598.43375000084427
 21
684.43908616188696
  0
LINE
  8
_0-0_計極細
  6
CONTINUOUS
 62
    2
 10
581.43375000084438
 20
679.43908616188696
 11
588.43375000084427
 21
679.43908616188696
  0
LINE
  8
_0-0_計極細
  6
CONTINUOUS
 62
    2
 10
581.43375000084438
 20
684.43908616188696
 11
588.43375000084427
 21
684.43908616188696
  0
LINE
  8
_0-0_計極細
  6
CONTINUOUS
 62
    2
 10
571.43375000084438
 20
679.43908616188696
 11
578.43375000084427
 21
679.43908616188696
  0
LINE
  8
_0-0_計極細
  6
CONTINUOUS
 62
    2
 10
571.43375000084438
 20
684.43908616188696
 11
578.43375000084427
 21
684.43908616188696
  0
LINE
  8
_0-0_計極細
  6
CONTINUOUS
 62
    2
 10
561.43375000084438
 20
679.43908616188696
 11
568.43375000084427
 21
679.43908616188696
  0
LINE
  8
_0-0_計極細
  6
CONTINUOUS
 62
    2
 10
561.43375000084438
 20
684.43908616188696
 11
568.43375000084427
 21
684.43908616188696
  0
LINE
  8
_0-0_計極細
  6
CONTINUOUS
 62
    2
 10
551.43375000084438
 20
679.43908616188696
 11
558.43375000084427
 21
679.43908616188696
  0
LINE
  8
_0-0_計極細
  6
CONTINUOUS
 62
    2
 10
551.43375000084438
 20
684.43908616188696
 11
558.43375000084427
 21
684.43908616188696
  0
LINE
  8
_0-0_計極細
  6
CONTINUOUS
 62
    2
 10
541.43375000084438
 20
679.43908616188696
 11
548.43375000084427
 21
679.43908616188696
  0
LINE
  8
_0-0_計極細
  6
CONTINUOUS
 62
    2
 10
541.43375000084438
 20
684.43908616188696
 11
548.43375000084427
 21
684.43908616188696
  0
LINE
  8
_0-0_計極細
  6
CONTINUOUS
 62
    2
 10
531.43375000084438
 20
679.43908616188696
 11
538.43375000084427
 21
679.43908616188696
  0
LINE
  8
_0-0_計極細
  6
CONTINUOUS
 62
    2
 10
531.43375000084438
 20
684.43908616188696
 11
538.43375000084427
 21
684.43908616188696
  0
LINE
  8
_0-0_計極細
  6
CONTINUOUS
 62
    2
 10
521.43375000084438
 20
679.43908616188696
 11
528.43375000084427
 21
679.43908616188696
  0
LINE
  8
_0-0_計極細
  6
CONTINUOUS
 62
    2
 10
521.43375000084438
 20
684.43908616188696
 11
528.43375000084427
 21
684.43908616188696
  0
LINE
  8
_0-0_計極細
  6
CONTINUOUS
 62
    2
 10
511.43375000084433
 20
679.43908616188696
 11
518.43375000084427
 21
679.43908616188696
  0
LINE
  8
_0-0_計極細
  6
CONTINUOUS
 62
    2
 10
511.43375000084433
 20
684.43908616188696
 11
518.43375000084427
 21
684.43908616188696
  0
LINE
  8
_0-0_計極細
  6
CONTINUOUS
 62
    2
 10
501.43375000084433
 20
679.43908616188696
 11
508.43375000084427
 21
679.43908616188696
  0
LINE
  8
_0-0_計極細
  6
CONTINUOUS
 62
    2
 10
501.43375000084433
 20
684.43908616188696
 11
508.43375000084427
 21
684.43908616188696
  0
LINE
  8
_0-0_計極細
  6
CONTINUOUS
 62
    2
 10
491.43375000084433
 20
679.43908616188696
 11
498.43375000084427
 21
679.43908616188696
  0
LINE
  8
_0-0_計極細
  6
CONTINUOUS
 62
    2
 10
491.43375000084433
 20
684.43908616188696
 11
498.43375000084427
 21
684.43908616188696
  0
LINE
  8
_0-0_計極細
  6
CONTINUOUS
 62
    2
 10
481.43375000084433
 20
679.43908616188696
 11
488.43375000084427
 21
679.43908616188696
  0
LINE
  8
_0-0_計極細
  6
CONTINUOUS
 62
    2
 10
481.43375000084433
 20
684.43908616188696
 11
488.43375000084427
 21
684.43908616188696
  0
LINE
  8
_0-0_計極細
  6
CONTINUOUS
 62
    2
 10
471.43375000084433
 20
679.43908616188696
 11
478.43375000084427
 21
679.43908616188696
  0
LINE
  8
_0-0_計極細
  6
CONTINUOUS
 62
    2
 10
471.43375000084433
 20
684.43908616188696
 11
478.43375000084427
 21
684.43908616188696
  0
LINE
  8
_0-0_計極細
  6
CONTINUOUS
 62
    2
 10
461.43375000084433
 20
679.43908616188696
 11
468.43375000084427
 21
679.43908616188696
  0
LINE
  8
_0-0_計極細
  6
CONTINUOUS
 62
    2
 10
461.43375000084433
 20
684.43908616188696
 11
468.43375000084427
 21
684.43908616188696
  0
LINE
  8
_0-0_計極細
  6
CONTINUOUS
 62
    2
 10
451.43375000084433
 20
679.43908616188696
 11
458.43375000084427
 21
679.43908616188696
  0
LINE
  8
_0-0_計極細
  6
CONTINUOUS
 62
    2
 10
451.43375000084433
 20
684.43908616188696
 11
458.43375000084427
 21
684.43908616188696
  0
LINE
  8
_0-0_計極細
  6
CONTINUOUS
 62
    2
 10
441.43375000084433
 20
679.43908616188696
 11
448.43375000084427
 21
679.43908616188696
  0
LINE
  8
_0-0_計極細
  6
CONTINUOUS
 62
    2
 10
441.43375000084433
 20
684.43908616188696
 11
448.43375000084427
 21
684.43908616188696
  0
LINE
  8
_0-0_計極細
  6
CONTINUOUS
 62
    2
 10
431.43375000084433
 20
679.43908616188696
 11
438.43375000084427
 21
679.43908616188696
  0
LINE
  8
_0-0_計極細
  6
CONTINUOUS
 62
    2
 10
431.43375000084433
 20
684.43908616188696
 11
438.43375000084427
 21
684.43908616188696
  0
LINE
  8
_0-0_計極細
  6
CONTINUOUS
 62
    2
 10
421.43375000084433
 20
679.43908616188696
 11
428.43375000084427
 21
679.43908616188696
  0
LINE
  8
_0-0_計極細
  6
CONTINUOUS
 62
    2
 10
421.43375000084433
 20
684.43908616188696
 11
428.43375000084427
 21
684.43908616188696
  0
LINE
  8
_0-0_計極細
  6
CONTINUOUS
 62
    2
 10
411.43375000084433
 20
679.43908616188696
 11
418.43375000084427
 21
679.43908616188696
  0
LINE
  8
_0-0_計極細
  6
CONTINUOUS
 62
    2
 10
411.43375000084433
 20
684.43908616188696
 11
418.43375000084427
 21
684.43908616188696
  0
LINE
  8
_0-0_計極細
  6
CONTINUOUS
 62
    2
 10
401.43375000084433
 20
679.43908616188696
 11
408.43375000084427
 21
679.43908616188696
  0
LINE
  8
_0-0_計極細
  6
CONTINUOUS
 62
    2
 10
401.43375000084433
 20
684.43908616188696
 11
408.43375000084427
 21
684.43908616188696
  0
LINE
  8
_0-0_計極細
  6
CONTINUOUS
 62
    2
 10
391.43375000084433
 20
679.43908616188696
 11
398.43375000084427
 21
679.43908616188696
  0
LINE
  8
_0-0_計極細
  6
CONTINUOUS
 62
    2
 10
391.43375000084433
 20
684.43908616188696
 11
398.43375000084427
 21
684.43908616188696
  0
LINE
  8
_0-0_計極細
  6
CONTINUOUS
 62
    2
 10
381.43375000084427
 20
679.43908616188696
 11
388.43375000084427
 21
679.43908616188696
  0
LINE
  8
_0-0_計極細
  6
CONTINUOUS
 62
    2
 10
381.43375000084427
 20
684.43908616188696
 11
388.43375000084427
 21
684.43908616188696
  0
LINE
  8
_0-0_計極細
  6
CONTINUOUS
 62
    2
 10
371.43375000084427
 20
679.43908616188696
 11
378.43375000084427
 21
679.43908616188696
  0
LINE
  8
_0-0_計極細
  6
CONTINUOUS
 62
    2
 10
371.43375000084427
 20
684.43908616188696
 11
378.43375000084427
 21
684.43908616188696
  0
LINE
  8
_0-0_計極細
  6
CONTINUOUS
 62
    2
 10
361.43375000084427
 20
679.43908616188696
 11
368.43375000084427
 21
679.43908616188696
  0
LINE
  8
_0-0_計極細
  6
CONTINUOUS
 62
    2
 10
361.43375000084427
 20
684.43908616188696
 11
368.43375000084427
 21
684.43908616188696
  0
LINE
  8
_0-0_計極細
  6
CONTINUOUS
 62
    2
 10
351.43375000084427
 20
679.43908616188696
 11
358.43375000084427
 21
679.43908616188696
  0
LINE
  8
_0-0_計極細
  6
CONTINUOUS
 62
    2
 10
351.43375000084427
 20
684.43908616188696
 11
358.43375000084427
 21
684.43908616188696
  0
LINE
  8
_0-0_計極細
  6
CONTINUOUS
 62
    2
 10
341.43375000084427
 20
679.43908616188696
 11
348.43375000084427
 21
679.43908616188696
  0
LINE
  8
_0-0_計極細
  6
CONTINUOUS
 62
    2
 10
341.43375000084427
 20
684.43908616188696
 11
348.43375000084427
 21
684.43908616188696
  0
LINE
  8
_0-0_計極細
  6
CONTINUOUS
 62
    2
 10
331.43375000084427
 20
679.43908616188696
 11
338.43375000084427
 21
679.43908616188696
  0
LINE
  8
_0-0_計極細
  6
CONTINUOUS
 62
    2
 10
331.43375000084427
 20
684.43908616188696
 11
338.43375000084427
 21
684.43908616188696
  0
LINE
  8
_0-0_計極細
  6
CONTINUOUS
 62
    2
 10
321.43375000084427
 20
679.43908616188696
 11
328.43375000084427
 21
679.43908616188696
  0
LINE
  8
_0-0_計極細
  6
CONTINUOUS
 62
    2
 10
321.43375000084427
 20
684.43908616188696
 11
328.43375000084427
 21
684.43908616188696
  0
LINE
  8
_0-0_計極細
  6
CONTINUOUS
 62
    2
 10
311.43375000084433
 20
679.43908616188696
 11
318.43375000084427
 21
679.43908616188696
  0
LINE
  8
_0-0_計極細
  6
CONTINUOUS
 62
    2
 10
311.43375000084433
 20
684.43908616188696
 11
318.43375000084427
 21
684.43908616188696
  0
LINE
  8
_0-0_計極細
  6
CONTINUOUS
 62
    2
 10
301.43375000084433
 20
679.43908616188696
 11
308.43375000084427
 21
679.43908616188696
  0
LINE
  8
_0-0_計極細
  6
CONTINUOUS
 62
    2
 10
301.43375000084433
 20
684.43908616188696
 11
308.43375000084427
 21
684.43908616188696
  0
LINE
  8
_0-0_計極細
  6
CONTINUOUS
 62
    2
 10
291.43375000084433
 20
679.43908616188696
 11
298.43375000084427
 21
679.43908616188696
  0
LINE
  8
_0-0_計極細
  6
CONTINUOUS
 62
    2
 10
291.43375000084433
 20
684.43908616188696
 11
298.43375000084427
 21
684.43908616188696
  0
LINE
  8
_0-0_計極細
  6
CONTINUOUS
 62
    2
 10
281.43375000084433
 20
679.43908616188696
 11
288.43375000084427
 21
679.43908616188696
  0
LINE
  8
_0-0_計極細
  6
CONTINUOUS
 62
    2
 10
281.43375000084433
 20
684.43908616188696
 11
288.43375000084427
 21
684.43908616188696
  0
LINE
  8
_0-0_計極細
  6
CONTINUOUS
 62
    2
 10
271.43375000084433
 20
679.43908616188696
 11
278.43375000084427
 21
679.43908616188696
  0
LINE
  8
_0-0_計極細
  6
CONTINUOUS
 62
    2
 10
271.43375000084433
 20
684.43908616188696
 11
278.43375000084427
 21
684.43908616188696
  0
LINE
  8
_0-0_計極細
  6
CONTINUOUS
 62
    2
 10
261.43375000084433
 20
679.43908616188696
 11
268.43375000084427
 21
679.43908616188696
  0
LINE
  8
_0-0_計極細
  6
CONTINUOUS
 62
    2
 10
261.43375000084433
 20
684.43908616188696
 11
268.43375000084427
 21
684.43908616188696
  0
LINE
  8
_0-0_計極細
  6
CONTINUOUS
 62
    2
 10
251.43375000084433
 20
679.43908616188696
 11
258.43375000084427
 21
679.43908616188696
  0
LINE
  8
_0-0_計極細
  6
CONTINUOUS
 62
    2
 10
251.43375000084433
 20
684.43908616188696
 11
258.43375000084427
 21
684.43908616188696
  0
ARC
  8
_0-0_計極細
  6
CONTINUOUS
 62
    2
 10
1236.4433689440912
 20
624.43908616189003
 40
14.999999999989658
 50
329.99999999996317
 51
30.00000000001284
  0
ARC
  8
_0-0_計極細
  6
CONTINUOUS
 62
    2
 10
1262.4241310575708
 20
609.43908616189503
 40
14.999999999969544
 50
149.99999999994964
 51
210.00000000010303
  0
ARC
  8
_0-0_計極細
  6
CONTINUOUS
 62
    2
 10
187.44336894410125
 20
624.43908616188639
 40
14.999999999979083
 50
329.99999999995606
 51
30.000000000047088
  0
LINE
  8
_0-0_計極細
  6
CONTINUOUS
 62
    2
 10
231.43375000084433
 20
679.43908616188696
 11
238.43375000084427
 21
679.43908616188696
  0
LINE
  8
_0-0_計極細
  6
CONTINUOUS
 62
    2
 10
231.43375000084433
 20
684.43908616188696
 11
238.43375000084427
 21
684.43908616188696
  0
LINE
  8
_0-0_計極細
  6
CONTINUOUS
 62
    2
 10
241.43375000084433
 20
679.43908616188696
 11
248.43375000084427
 21
679.43908616188696
  0
LINE
  8
_0-0_計極細
  6
CONTINUOUS
 62
    2
 10
241.43375000084433
 20
684.43908616188696
 11
248.43375000084427
 21
684.43908616188696
  0
LINE
  8
_0-5_寸法線
  6
CONTINUOUS
 62
    7
 10
621.46713667456709
 20
603.3170685113206
 11
626.46713668569146
 21
594.65681447989891
  0
LINE
  8
_0-5_寸法線
  6
CONTINUOUS
 62
    7
 10
621.46713667456709
 20
603.3170685113206
 11
621.46713668741245
 21
593.3170685113206
  0
LINE
  8
_0-5_寸法線
  6
CONTINUOUS
 62
    7
 10
621.46713667456709
 20
603.3170685113206
 11
633.30850623203253
 21
559.12447591872808
  0
LINE
  8
_0-5_寸法線
  6
CONTINUOUS
 62
    7
 10
633.30850623203253
 20
559.12447591872808
 11
741.30850623203264
 21
559.12447591872808
  0
TEXT
  8
_0-5_寸法線
 62
    7
 10
633.30850623203253
 20
559.72447591872799
 40
15
 41
0.8000000000000001
 50
0
  1
ＳＵＳアングル受枠
  0
LINE
  8
_0-5_寸法線
  6
CONTINUOUS
 62
    7
 10
829.55110944640296
 20
646.29578965970279
 11
834.55110944640296
 21
637.63553562185837
  0
LINE
  8
_0-5_寸法線
  6
CONTINUOUS
 62
    7
 10
829.55110944640296
 20
646.29578965970279
 11
829.55110944640296
 21
636.29578965970279
  0
LINE
  8
_0-5_寸法線
  6
CONTINUOUS
 62
    7
 10
829.55110944640296
 20
646.29578965970279
 11
852.90859256645695
 21
559.12447591872808
  0
LINE
  8
_0-5_寸法線
  6
CONTINUOUS
 62
    7
 10
852.90859256645695
 20
559.12447591872808
 11
987.34760478157682
 21
559.12447591872808
  0
TEXT
  8
_0-5_寸法線
 62
    7
 10
855.34760478157682
 20
559.12447591872808
 40
15
 41
0.8000000000000001
 50
0
  1
ステンレスグレーチング
  0
ARC
  8
_0-0_計極細
  6
CONTINUOUS
 62
    2
 10
213.42413105758226
 20
609.43908616188639
 40
14.999999999974561
 50
149.99999999994213
 51
210.00000000004974
  0
LINE
  8
_0-1_計細線
  6
CONTINUOUS
 62
    3
 10
241.43375000084433
 20
753.93908616188787
 11
238.43375000084427
 21
753.93908616188787
  0
LINE
  8
_0-1_計細線
  6
CONTINUOUS
 62
    3
 10
238.43375000084427
 20
753.93908616188787
 11
238.43375000084427
 21
609.9390861618873
  0
LINE
  8
_0-1_計細線
  6
CONTINUOUS
 62
    3
 10
238.43375000084427
 20
609.9390861618873
 11
241.43375000084433
 21
609.9390861618873
  0
LINE
  8
_0-1_計細線
  6
CONTINUOUS
 62
    3
 10
241.43375000084433
 20
609.9390861618873
 11
241.43375000084433
 21
753.93908616188787
  0
LINE
  8
_0-1_計細線
  6
CONTINUOUS
 62
    3
 10
231.43375000084433
 20
753.93908616188787
 11
228.43375000084427
 21
753.93908616188787
  0
LINE
  8
_0-1_計細線
  6
CONTINUOUS
 62
    3
 10
228.43375000084427
 20
753.93908616188787
 11
228.43375000084427
 21
609.9390861618873
  0
LINE
  8
_0-1_計細線
  6
CONTINUOUS
 62
    3
 10
228.43375000084427
 20
609.9390861618873
 11
231.43375000084433
 21
609.9390861618873
  0
LINE
  8
_0-1_計細線
  6
CONTINUOUS
 62
    3
 10
231.43375000084433
 20
609.9390861618873
 11
231.43375000084433
 21
753.93908616188787
  0
LINE
  8
_0-1_計細線
  6
CONTINUOUS
 62
    3
 10
251.43375000084433
 20
753.93908616188787
 11
248.43375000084427
 21
753.93908616188787
  0
LINE
  8
_0-1_計細線
  6
CONTINUOUS
 62
    3
 10
248.43375000084427
 20
753.93908616188787
 11
248.43375000084427
 21
609.9390861618873
  0
LINE
  8
_0-1_計細線
  6
CONTINUOUS
 62
    3
 10
248.43375000084427
 20
609.9390861618873
 11
251.43375000084433
 21
609.9390861618873
  0
LINE
  8
_0-1_計細線
  6
CONTINUOUS
 62
    3
 10
251.43375000084433
 20
609.9390861618873
 11
251.43375000084433
 21
753.93908616188787
  0
LINE
  8
_0-1_計細線
  6
CONTINUOUS
 62
    3
 10
261.43375000084433
 20
753.93908616188787
 11
258.43375000084427
 21
753.93908616188787
  0
LINE
  8
_0-1_計細線
  6
CONTINUOUS
 62
    3
 10
258.43375000084427
 20
753.93908616188787
 11
258.43375000084427
 21
609.9390861618873
  0
LINE
  8
_0-1_計細線
  6
CONTINUOUS
 62
    3
 10
258.43375000084427
 20
609.9390861618873
 11
261.43375000084433
 21
609.9390861618873
  0
LINE
  8
_0-1_計細線
  6
CONTINUOUS
 62
    3
 10
261.43375000084433
 20
609.9390861618873
 11
261.43375000084433
 21
753.93908616188787
  0
LINE
  8
_0-1_計細線
  6
CONTINUOUS
 62
    3
 10
271.43375000084433
 20
753.93908616188787
 11
268.43375000084427
 21
753.93908616188787
  0
LINE
  8
_0-1_計細線
  6
CONTINUOUS
 62
    3
 10
268.43375000084427
 20
753.93908616188787
 11
268.43375000084427
 21
609.9390861618873
  0
LINE
  8
_0-1_計細線
  6
CONTINUOUS
 62
    3
 10
268.43375000084427
 20
609.9390861618873
 11
271.43375000084433
 21
609.9390861618873
  0
LINE
  8
_0-1_計細線
  6
CONTINUOUS
 62
    3
 10
271.43375000084433
 20
609.9390861618873
 11
271.43375000084433
 21
753.93908616188787
  0
LINE
  8
_0-1_計細線
  6
CONTINUOUS
 62
    3
 10
281.43375000084433
 20
753.93908616188787
 11
278.43375000084427
 21
753.93908616188787
  0
LINE
  8
_0-1_計細線
  6
CONTINUOUS
 62
    3
 10
278.43375000084427
 20
753.93908616188787
 11
278.43375000084427
 21
609.9390861618873
  0
LINE
  8
_0-1_計細線
  6
CONTINUOUS
 62
    3
 10
278.43375000084427
 20
609.9390861618873
 11
281.43375000084433
 21
609.9390861618873
  0
LINE
  8
_0-1_計細線
  6
CONTINUOUS
 62
    3
 10
281.43375000084433
 20
609.9390861618873
 11
281.43375000084433
 21
753.93908616188787
  0
LINE
  8
_0-1_計細線
  6
CONTINUOUS
 62
    3
 10
291.43375000084433
 20
753.93908616188787
 11
288.43375000084427
 21
753.93908616188787
  0
LINE
  8
_0-1_計細線
  6
CONTINUOUS
 62
    3
 10
288.43375000084427
 20
753.93908616188787
 11
288.43375000084427
 21
609.9390861618873
  0
LINE
  8
_0-1_計細線
  6
CONTINUOUS
 62
    3
 10
288.43375000084427
 20
609.9390861618873
 11
291.43375000084433
 21
609.9390861618873
  0
LINE
  8
_0-1_計細線
  6
CONTINUOUS
 62
    3
 10
291.43375000084433
 20
609.9390861618873
 11
291.43375000084433
 21
753.93908616188787
  0
LINE
  8
_0-1_計細線
  6
CONTINUOUS
 62
    3
 10
301.43375000084433
 20
753.93908616188787
 11
298.43375000084427
 21
753.93908616188787
  0
LINE
  8
_0-1_計細線
  6
CONTINUOUS
 62
    3
 10
298.43375000084427
 20
753.93908616188787
 11
298.43375000084427
 21
609.9390861618873
  0
LINE
  8
_0-1_計細線
  6
CONTINUOUS
 62
    3
 10
298.43375000084427
 20
609.9390861618873
 11
301.43375000084433
 21
609.9390861618873
  0
LINE
  8
_0-1_計細線
  6
CONTINUOUS
 62
    3
 10
301.43375000084433
 20
609.9390861618873
 11
301.43375000084433
 21
753.93908616188787
  0
LINE
  8
_0-1_計細線
  6
CONTINUOUS
 62
    3
 10
311.43375000084433
 20
753.93908616188787
 11
308.43375000084427
 21
753.93908616188787
  0
LINE
  8
_0-1_計細線
  6
CONTINUOUS
 62
    3
 10
308.43375000084427
 20
753.93908616188787
 11
308.43375000084427
 21
609.9390861618873
  0
LINE
  8
_0-1_計細線
  6
CONTINUOUS
 62
    3
 10
308.43375000084427
 20
609.9390861618873
 11
311.43375000084433
 21
609.9390861618873
  0
LINE
  8
_0-1_計細線
  6
CONTINUOUS
 62
    3
 10
311.43375000084433
 20
609.9390861618873
 11
311.43375000084433
 21
753.93908616188787
  0
LINE
  8
_0-1_計細線
  6
CONTINUOUS
 62
    3
 10
321.43375000084427
 20
753.93908616188787
 11
318.43375000084427
 21
753.93908616188787
  0
LINE
  8
_0-1_計細線
  6
CONTINUOUS
 62
    3
 10
318.43375000084427
 20
753.93908616188787
 11
318.43375000084427
 21
609.9390861618873
  0
LINE
  8
_0-1_計細線
  6
CONTINUOUS
 62
    3
 10
318.43375000084427
 20
609.9390861618873
 11
321.43375000084427
 21
609.9390861618873
  0
LINE
  8
_0-1_計細線
  6
CONTINUOUS
 62
    3
 10
321.43375000084427
 20
609.9390861618873
 11
321.43375000084427
 21
753.93908616188787
  0
LINE
  8
_0-1_計細線
  6
CONTINUOUS
 62
    3
 10
331.43375000084427
 20
753.93908616188787
 11
328.43375000084427
 21
753.93908616188787
  0
LINE
  8
_0-1_計細線
  6
CONTINUOUS
 62
    3
 10
328.43375000084427
 20
753.93908616188787
 11
328.43375000084427
 21
609.9390861618873
  0
LINE
  8
_0-1_計細線
  6
CONTINUOUS
 62
    3
 10
328.43375000084427
 20
609.9390861618873
 11
331.43375000084427
 21
609.9390861618873
  0
LINE
  8
_0-1_計細線
  6
CONTINUOUS
 62
    3
 10
331.43375000084427
 20
609.9390861618873
 11
331.43375000084427
 21
753.93908616188787
  0
LINE
  8
_0-1_計細線
  6
CONTINUOUS
 62
    3
 10
341.43375000084427
 20
753.93908616188787
 11
338.43375000084427
 21
753.93908616188787
  0
LINE
  8
_0-1_計細線
  6
CONTINUOUS
 62
    3
 10
338.43375000084427
 20
753.93908616188787
 11
338.43375000084427
 21
609.9390861618873
  0
LINE
  8
_0-1_計細線
  6
CONTINUOUS
 62
    3
 10
338.43375000084427
 20
609.9390861618873
 11
341.43375000084427
 21
609.9390861618873
  0
LINE
  8
_0-1_計細線
  6
CONTINUOUS
 62
    3
 10
341.43375000084427
 20
609.9390861618873
 11
341.43375000084427
 21
753.93908616188787
  0
LINE
  8
_0-1_計細線
  6
CONTINUOUS
 62
    3
 10
351.43375000084427
 20
753.93908616188787
 11
348.43375000084427
 21
753.93908616188787
  0
LINE
  8
_0-1_計細線
  6
CONTINUOUS
 62
    3
 10
348.43375000084427
 20
753.93908616188787
 11
348.43375000084427
 21
609.9390861618873
  0
LINE
  8
_0-1_計細線
  6
CONTINUOUS
 62
    3
 10
348.43375000084427
 20
609.9390861618873
 11
351.43375000084427
 21
609.9390861618873
  0
LINE
  8
_0-1_計細線
  6
CONTINUOUS
 62
    3
 10
351.43375000084427
 20
609.9390861618873
 11
351.43375000084427
 21
753.93908616188787
  0
LINE
  8
_0-1_計細線
  6
CONTINUOUS
 62
    3
 10
361.43375000084427
 20
753.93908616188787
 11
358.43375000084427
 21
753.93908616188787
  0
LINE
  8
_0-1_計細線
  6
CONTINUOUS
 62
    3
 10
358.43375000084427
 20
753.93908616188787
 11
358.43375000084427
 21
609.9390861618873
  0
LINE
  8
_0-1_計細線
  6
CONTINUOUS
 62
    3
 10
358.43375000084427
 20
609.9390861618873
 11
361.43375000084427
 21
609.9390861618873
  0
LINE
  8
_0-1_計細線
  6
CONTINUOUS
 62
    3
 10
361.43375000084427
 20
609.9390861618873
 11
361.43375000084427
 21
753.93908616188787
  0
LINE
  8
_0-1_計細線
  6
CONTINUOUS
 62
    3
 10
371.43375000084427
 20
753.93908616188787
 11
368.43375000084427
 21
753.93908616188787
  0
LINE
  8
_0-1_計細線
  6
CONTINUOUS
 62
    3
 10
368.43375000084427
 20
753.93908616188787
 11
368.43375000084427
 21
609.9390861618873
  0
LINE
  8
_0-1_計細線
  6
CONTINUOUS
 62
    3
 10
368.43375000084427
 20
609.9390861618873
 11
371.43375000084427
 21
609.9390861618873
  0
LINE
  8
_0-1_計細線
  6
CONTINUOUS
 62
    3
 10
371.43375000084427
 20
609.9390861618873
 11
371.43375000084427
 21
753.93908616188787
  0
LINE
  8
_0-1_計細線
  6
CONTINUOUS
 62
    3
 10
381.43375000084427
 20
753.93908616188787
 11
378.43375000084427
 21
753.93908616188787
  0
LINE
  8
_0-1_計細線
  6
CONTINUOUS
 62
    3
 10
378.43375000084427
 20
753.93908616188787
 11
378.43375000084427
 21
609.9390861618873
  0
LINE
  8
_0-1_計細線
  6
CONTINUOUS
 62
    3
 10
378.43375000084427
 20
609.9390861618873
 11
381.43375000084427
 21
609.9390861618873
  0
LINE
  8
_0-1_計細線
  6
CONTINUOUS
 62
    3
 10
381.43375000084427
 20
609.9390861618873
 11
381.43375000084427
 21
753.93908616188787
  0
LINE
  8
_0-1_計細線
  6
CONTINUOUS
 62
    3
 10
391.43375000084433
 20
753.93908616188787
 11
388.43375000084427
 21
753.93908616188787
  0
LINE
  8
_0-1_計細線
  6
CONTINUOUS
 62
    3
 10
388.43375000084427
 20
753.93908616188787
 11
388.43375000084427
 21
609.9390861618873
  0
LINE
  8
_0-1_計細線
  6
CONTINUOUS
 62
    3
 10
388.43375000084427
 20
609.9390861618873
 11
391.43375000084433
 21
609.9390861618873
  0
LINE
  8
_0-1_計細線
  6
CONTINUOUS
 62
    3
 10
391.43375000084433
 20
609.9390861618873
 11
391.43375000084433
 21
753.93908616188787
  0
LINE
  8
_0-1_計細線
  6
CONTINUOUS
 62
    3
 10
401.43375000084433
 20
753.93908616188787
 11
398.43375000084427
 21
753.93908616188787
  0
LINE
  8
_0-1_計細線
  6
CONTINUOUS
 62
    3
 10
398.43375000084427
 20
753.93908616188787
 11
398.43375000084427
 21
609.9390861618873
  0
LINE
  8
_0-1_計細線
  6
CONTINUOUS
 62
    3
 10
398.43375000084427
 20
609.9390861618873
 11
401.43375000084433
 21
609.9390861618873
  0
LINE
  8
_0-1_計細線
  6
CONTINUOUS
 62
    3
 10
401.43375000084433
 20
609.9390861618873
 11
401.43375000084433
 21
753.93908616188787
  0
LINE
  8
_0-1_計細線
  6
CONTINUOUS
 62
    3
 10
411.43375000084433
 20
753.93908616188787
 11
408.43375000084427
 21
753.93908616188787
  0
LINE
  8
_0-1_計細線
  6
CONTINUOUS
 62
    3
 10
408.43375000084427
 20
753.93908616188787
 11
408.43375000084427
 21
609.9390861618873
  0
LINE
  8
_0-1_計細線
  6
CONTINUOUS
 62
    3
 10
408.43375000084427
 20
609.9390861618873
 11
411.43375000084433
 21
609.9390861618873
  0
LINE
  8
_0-1_計細線
  6
CONTINUOUS
 62
    3
 10
411.43375000084433
 20
609.9390861618873
 11
411.43375000084433
 21
753.93908616188787
  0
LINE
  8
_0-1_計細線
  6
CONTINUOUS
 62
    3
 10
421.43375000084433
 20
753.93908616188787
 11
418.43375000084427
 21
753.93908616188787
  0
LINE
  8
_0-1_計細線
  6
CONTINUOUS
 62
    3
 10
418.43375000084427
 20
753.93908616188787
 11
418.43375000084427
 21
609.9390861618873
  0
LINE
  8
_0-1_計細線
  6
CONTINUOUS
 62
    3
 10
418.43375000084427
 20
609.9390861618873
 11
421.43375000084433
 21
609.9390861618873
  0
LINE
  8
_0-1_計細線
  6
CONTINUOUS
 62
    3
 10
421.43375000084433
 20
609.9390861618873
 11
421.43375000084433
 21
753.93908616188787
  0
LINE
  8
_0-1_計細線
  6
CONTINUOUS
 62
    3
 10
431.43375000084433
 20
753.93908616188787
 11
428.43375000084427
 21
753.93908616188787
  0
LINE
  8
_0-1_計細線
  6
CONTINUOUS
 62
    3
 10
428.43375000084427
 20
753.93908616188787
 11
428.43375000084427
 21
609.9390861618873
  0
LINE
  8
_0-1_計細線
  6
CONTINUOUS
 62
    3
 10
428.43375000084427
 20
609.9390861618873
 11
431.43375000084433
 21
609.9390861618873
  0
LINE
  8
_0-1_計細線
  6
CONTINUOUS
 62
    3
 10
431.43375000084433
 20
609.9390861618873
 11
431.43375000084433
 21
753.93908616188787
  0
LINE
  8
_0-1_計細線
  6
CONTINUOUS
 62
    3
 10
441.43375000084433
 20
753.93908616188787
 11
438.43375000084427
 21
753.93908616188787
  0
LINE
  8
_0-1_計細線
  6
CONTINUOUS
 62
    3
 10
438.43375000084427
 20
753.93908616188787
 11
438.43375000084427
 21
609.9390861618873
  0
LINE
  8
_0-1_計細線
  6
CONTINUOUS
 62
    3
 10
438.43375000084427
 20
609.9390861618873
 11
441.43375000084433
 21
609.9390861618873
  0
LINE
  8
_0-1_計細線
  6
CONTINUOUS
 62
    3
 10
441.43375000084433
 20
609.9390861618873
 11
441.43375000084433
 21
753.93908616188787
  0
LINE
  8
_0-1_計細線
  6
CONTINUOUS
 62
    3
 10
451.43375000084433
 20
753.93908616188787
 11
448.43375000084427
 21
753.93908616188787
  0
LINE
  8
_0-1_計細線
  6
CONTINUOUS
 62
    3
 10
448.43375000084427
 20
753.93908616188787
 11
448.43375000084427
 21
609.9390861618873
  0
LINE
  8
_0-1_計細線
  6
CONTINUOUS
 62
    3
 10
448.43375000084427
 20
609.9390861618873
 11
451.43375000084433
 21
609.9390861618873
  0
LINE
  8
_0-1_計細線
  6
CONTINUOUS
 62
    3
 10
451.43375000084433
 20
609.9390861618873
 11
451.43375000084433
 21
753.93908616188787
  0
LINE
  8
_0-1_計細線
  6
CONTINUOUS
 62
    3
 10
461.43375000084433
 20
753.93908616188787
 11
458.43375000084427
 21
753.93908616188787
  0
LINE
  8
_0-1_計細線
  6
CONTINUOUS
 62
    3
 10
458.43375000084427
 20
753.93908616188787
 11
458.43375000084427
 21
609.9390861618873
  0
LINE
  8
_0-1_計細線
  6
CONTINUOUS
 62
    3
 10
458.43375000084427
 20
609.9390861618873
 11
461.43375000084433
 21
609.9390861618873
  0
LINE
  8
_0-1_計細線
  6
CONTINUOUS
 62
    3
 10
461.43375000084433
 20
609.9390861618873
 11
461.43375000084433
 21
753.93908616188787
  0
LINE
  8
_0-1_計細線
  6
CONTINUOUS
 62
    3
 10
471.43375000084433
 20
753.93908616188787
 11
468.43375000084427
 21
753.93908616188787
  0
LINE
  8
_0-1_計細線
  6
CONTINUOUS
 62
    3
 10
468.43375000084427
 20
753.93908616188787
 11
468.43375000084427
 21
609.9390861618873
  0
LINE
  8
_0-1_計細線
  6
CONTINUOUS
 62
    3
 10
468.43375000084427
 20
609.9390861618873
 11
471.43375000084433
 21
609.9390861618873
  0
LINE
  8
_0-1_計細線
  6
CONTINUOUS
 62
    3
 10
471.43375000084433
 20
609.9390861618873
 11
471.43375000084433
 21
753.93908616188787
  0
LINE
  8
_0-1_計細線
  6
CONTINUOUS
 62
    3
 10
481.43375000084433
 20
753.93908616188787
 11
478.43375000084427
 21
753.93908616188787
  0
LINE
  8
_0-1_計細線
  6
CONTINUOUS
 62
    3
 10
478.43375000084427
 20
753.93908616188787
 11
478.43375000084427
 21
609.9390861618873
  0
LINE
  8
_0-1_計細線
  6
CONTINUOUS
 62
    3
 10
478.43375000084427
 20
609.9390861618873
 11
481.43375000084433
 21
609.9390861618873
  0
LINE
  8
_0-1_計細線
  6
CONTINUOUS
 62
    3
 10
481.43375000084433
 20
609.9390861618873
 11
481.43375000084433
 21
753.93908616188787
  0
LINE
  8
_0-1_計細線
  6
CONTINUOUS
 62
    3
 10
491.43375000084433
 20
753.93908616188787
 11
488.43375000084427
 21
753.93908616188787
  0
LINE
  8
_0-1_計細線
  6
CONTINUOUS
 62
    3
 10
488.43375000084427
 20
753.93908616188787
 11
488.43375000084427
 21
609.9390861618873
  0
LINE
  8
_0-1_計細線
  6
CONTINUOUS
 62
    3
 10
488.43375000084427
 20
609.9390861618873
 11
491.43375000084433
 21
609.9390861618873
  0
LINE
  8
_0-1_計細線
  6
CONTINUOUS
 62
    3
 10
491.43375000084433
 20
609.9390861618873
 11
491.43375000084433
 21
753.93908616188787
  0
LINE
  8
_0-1_計細線
  6
CONTINUOUS
 62
    3
 10
501.43375000084433
 20
753.93908616188787
 11
498.43375000084427
 21
753.93908616188787
  0
LINE
  8
_0-1_計細線
  6
CONTINUOUS
 62
    3
 10
498.43375000084427
 20
753.93908616188787
 11
498.43375000084427
 21
609.9390861618873
  0
LINE
  8
_0-1_計細線
  6
CONTINUOUS
 62
    3
 10
498.43375000084427
 20
609.9390861618873
 11
501.43375000084433
 21
609.9390861618873
  0
LINE
  8
_0-1_計細線
  6
CONTINUOUS
 62
    3
 10
501.43375000084433
 20
609.9390861618873
 11
501.43375000084433
 21
753.93908616188787
  0
LINE
  8
_0-1_計細線
  6
CONTINUOUS
 62
    3
 10
511.43375000084433
 20
753.93908616188787
 11
508.43375000084427
 21
753.93908616188787
  0
LINE
  8
_0-1_計細線
  6
CONTINUOUS
 62
    3
 10
508.43375000084427
 20
753.93908616188787
 11
508.43375000084427
 21
609.9390861618873
  0
LINE
  8
_0-1_計細線
  6
CONTINUOUS
 62
    3
 10
508.43375000084427
 20
609.9390861618873
 11
511.43375000084433
 21
609.9390861618873
  0
LINE
  8
_0-1_計細線
  6
CONTINUOUS
 62
    3
 10
511.43375000084433
 20
609.9390861618873
 11
511.43375000084433
 21
753.93908616188787
  0
LINE
  8
_0-1_計細線
  6
CONTINUOUS
 62
    3
 10
521.43375000084438
 20
753.93908616188787
 11
518.43375000084427
 21
753.93908616188787
  0
LINE
  8
_0-1_計細線
  6
CONTINUOUS
 62
    3
 10
518.43375000084427
 20
753.93908616188787
 11
518.43375000084427
 21
609.9390861618873
  0
LINE
  8
_0-1_計細線
  6
CONTINUOUS
 62
    3
 10
518.43375000084427
 20
609.9390861618873
 11
521.43375000084438
 21
609.9390861618873
  0
LINE
  8
_0-1_計細線
  6
CONTINUOUS
 62
    3
 10
521.43375000084438
 20
609.9390861618873
 11
521.43375000084438
 21
753.93908616188787
  0
LINE
  8
_0-1_計細線
  6
CONTINUOUS
 62
    3
 10
531.43375000084438
 20
753.93908616188787
 11
528.43375000084427
 21
753.93908616188787
  0
LINE
  8
_0-1_計細線
  6
CONTINUOUS
 62
    3
 10
528.43375000084427
 20
753.93908616188787
 11
528.43375000084427
 21
609.9390861618873
  0
LINE
  8
_0-1_計細線
  6
CONTINUOUS
 62
    3
 10
528.43375000084427
 20
609.9390861618873
 11
531.43375000084438
 21
609.9390861618873
  0
LINE
  8
_0-1_計細線
  6
CONTINUOUS
 62
    3
 10
531.43375000084438
 20
609.9390861618873
 11
531.43375000084438
 21
753.93908616188787
  0
LINE
  8
_0-1_計細線
  6
CONTINUOUS
 62
    3
 10
541.43375000084438
 20
753.93908616188787
 11
538.43375000084427
 21
753.93908616188787
  0
LINE
  8
_0-1_計細線
  6
CONTINUOUS
 62
    3
 10
538.43375000084427
 20
753.93908616188787
 11
538.43375000084427
 21
609.9390861618873
  0
LINE
  8
_0-1_計細線
  6
CONTINUOUS
 62
    3
 10
538.43375000084427
 20
609.9390861618873
 11
541.43375000084438
 21
609.9390861618873
  0
LINE
  8
_0-1_計細線
  6
CONTINUOUS
 62
    3
 10
541.43375000084438
 20
609.9390861618873
 11
541.43375000084438
 21
753.93908616188787
  0
LINE
  8
_0-1_計細線
  6
CONTINUOUS
 62
    3
 10
551.43375000084438
 20
753.93908616188787
 11
548.43375000084427
 21
753.93908616188787
  0
LINE
  8
_0-1_計細線
  6
CONTINUOUS
 62
    3
 10
548.43375000084427
 20
753.93908616188787
 11
548.43375000084427
 21
609.9390861618873
  0
LINE
  8
_0-1_計細線
  6
CONTINUOUS
 62
    3
 10
548.43375000084427
 20
609.9390861618873
 11
551.43375000084438
 21
609.9390861618873
  0
LINE
  8
_0-1_計細線
  6
CONTINUOUS
 62
    3
 10
551.43375000084438
 20
609.9390861618873
 11
551.43375000084438
 21
753.93908616188787
  0
LINE
  8
_0-1_計細線
  6
CONTINUOUS
 62
    3
 10
561.43375000084438
 20
753.93908616188787
 11
558.43375000084427
 21
753.93908616188787
  0
LINE
  8
_0-1_計細線
  6
CONTINUOUS
 62
    3
 10
558.43375000084427
 20
753.93908616188787
 11
558.43375000084427
 21
609.9390861618873
  0
LINE
  8
_0-1_計細線
  6
CONTINUOUS
 62
    3
 10
558.43375000084427
 20
609.9390861618873
 11
561.43375000084438
 21
609.9390861618873
  0
LINE
  8
_0-1_計細線
  6
CONTINUOUS
 62
    3
 10
561.43375000084438
 20
609.9390861618873
 11
561.43375000084438
 21
753.93908616188787
  0
LINE
  8
_0-1_計細線
  6
CONTINUOUS
 62
    3
 10
571.43375000084438
 20
753.93908616188787
 11
568.43375000084427
 21
753.93908616188787
  0
LINE
  8
_0-1_計細線
  6
CONTINUOUS
 62
    3
 10
568.43375000084427
 20
753.93908616188787
 11
568.43375000084427
 21
609.9390861618873
  0
LINE
  8
_0-1_計細線
  6
CONTINUOUS
 62
    3
 10
568.43375000084427
 20
609.9390861618873
 11
571.43375000084438
 21
609.9390861618873
  0
LINE
  8
_0-1_計細線
  6
CONTINUOUS
 62
    3
 10
571.43375000084438
 20
609.9390861618873
 11
571.43375000084438
 21
753.93908616188787
  0
LINE
  8
_0-1_計細線
  6
CONTINUOUS
 62
    3
 10
581.43375000084438
 20
753.93908616188787
 11
578.43375000084427
 21
753.93908616188787
  0
LINE
  8
_0-1_計細線
  6
CONTINUOUS
 62
    3
 10
578.43375000084427
 20
753.93908616188787
 11
578.43375000084427
 21
609.9390861618873
  0
LINE
  8
_0-1_計細線
  6
CONTINUOUS
 62
    3
 10
578.43375000084427
 20
609.9390861618873
 11
581.43375000084438
 21
609.9390861618873
  0
LINE
  8
_0-1_計細線
  6
CONTINUOUS
 62
    3
 10
581.43375000084438
 20
609.9390861618873
 11
581.43375000084438
 21
753.93908616188787
  0
LINE
  8
_0-1_計細線
  6
CONTINUOUS
 62
    3
 10
591.43375000084438
 20
753.93908616188787
 11
588.43375000084427
 21
753.93908616188787
  0
LINE
  8
_0-1_計細線
  6
CONTINUOUS
 62
    3
 10
588.43375000084427
 20
753.93908616188787
 11
588.43375000084427
 21
609.9390861618873
  0
LINE
  8
_0-1_計細線
  6
CONTINUOUS
 62
    3
 10
588.43375000084427
 20
609.9390861618873
 11
591.43375000084438
 21
609.9390861618873
  0
LINE
  8
_0-1_計細線
  6
CONTINUOUS
 62
    3
 10
591.43375000084438
 20
609.9390861618873
 11
591.43375000084438
 21
753.93908616188787
  0
LINE
  8
_0-1_計細線
  6
CONTINUOUS
 62
    3
 10
601.43375000084438
 20
753.93908616188787
 11
598.43375000084427
 21
753.93908616188787
  0
LINE
  8
_0-1_計細線
  6
CONTINUOUS
 62
    3
 10
598.43375000084427
 20
753.93908616188787
 11
598.43375000084427
 21
609.9390861618873
  0
LINE
  8
_0-1_計細線
  6
CONTINUOUS
 62
    3
 10
598.43375000084427
 20
609.9390861618873
 11
601.43375000084438
 21
609.9390861618873
  0
LINE
  8
_0-1_計細線
  6
CONTINUOUS
 62
    3
 10
601.43375000084438
 20
609.9390861618873
 11
601.43375000084438
 21
753.93908616188787
  0
LINE
  8
_0-1_計細線
  6
CONTINUOUS
 62
    3
 10
611.43375000084438
 20
753.93908616188787
 11
608.43375000084427
 21
753.93908616188787
  0
LINE
  8
_0-1_計細線
  6
CONTINUOUS
 62
    3
 10
608.43375000084427
 20
753.93908616188787
 11
608.43375000084427
 21
609.9390861618873
  0
LINE
  8
_0-1_計細線
  6
CONTINUOUS
 62
    3
 10
608.43375000084427
 20
609.9390861618873
 11
611.43375000084438
 21
609.9390861618873
  0
LINE
  8
_0-1_計細線
  6
CONTINUOUS
 62
    3
 10
611.43375000084438
 20
609.9390861618873
 11
611.43375000084438
 21
753.93908616188787
  0
LINE
  8
_0-1_計細線
  6
CONTINUOUS
 62
    3
 10
621.43375000084438
 20
753.93908616188787
 11
618.43375000084427
 21
753.93908616188787
  0
LINE
  8
_0-1_計細線
  6
CONTINUOUS
 62
    3
 10
618.43375000084427
 20
753.93908616188787
 11
618.43375000084427
 21
609.9390861618873
  0
LINE
  8
_0-1_計細線
  6
CONTINUOUS
 62
    3
 10
618.43375000084427
 20
609.9390861618873
 11
621.43375000084438
 21
609.9390861618873
  0
LINE
  8
_0-1_計細線
  6
CONTINUOUS
 62
    3
 10
621.43375000084438
 20
609.9390861618873
 11
621.43375000084438
 21
753.93908616188787
  0
LINE
  8
_0-1_計細線
  6
CONTINUOUS
 62
    3
 10
631.43375000084438
 20
753.93908616188787
 11
628.43375000084427
 21
753.93908616188787
  0
LINE
  8
_0-1_計細線
  6
CONTINUOUS
 62
    3
 10
628.43375000084427
 20
753.93908616188787
 11
628.43375000084427
 21
609.9390861618873
  0
LINE
  8
_0-1_計細線
  6
CONTINUOUS
 62
    3
 10
628.43375000084427
 20
609.9390861618873
 11
631.43375000084438
 21
609.9390861618873
  0
LINE
  8
_0-1_計細線
  6
CONTINUOUS
 62
    3
 10
631.43375000084438
 20
609.9390861618873
 11
631.43375000084438
 21
753.93908616188787
  0
LINE
  8
_0-1_計細線
  6
CONTINUOUS
 62
    3
 10
641.43375000084438
 20
753.93908616188787
 11
638.43375000084427
 21
753.93908616188787
  0
LINE
  8
_0-1_計細線
  6
CONTINUOUS
 62
    3
 10
638.43375000084427
 20
753.93908616188787
 11
638.43375000084427
 21
609.9390861618873
  0
LINE
  8
_0-1_計細線
  6
CONTINUOUS
 62
    3
 10
638.43375000084427
 20
609.9390861618873
 11
641.43375000084438
 21
609.9390861618873
  0
LINE
  8
_0-1_計細線
  6
CONTINUOUS
 62
    3
 10
641.43375000084438
 20
609.9390861618873
 11
641.43375000084438
 21
753.93908616188787
  0
LINE
  8
_0-1_計細線
  6
CONTINUOUS
 62
    3
 10
651.43375000084438
 20
753.93908616188787
 11
648.43375000084438
 21
753.93908616188787
  0
LINE
  8
_0-1_計細線
  6
CONTINUOUS
 62
    3
 10
648.43375000084438
 20
753.93908616188787
 11
648.43375000084438
 21
609.9390861618873
  0
LINE
  8
_0-1_計細線
  6
CONTINUOUS
 62
    3
 10
648.43375000084438
 20
609.9390861618873
 11
651.43375000084438
 21
609.9390861618873
  0
LINE
  8
_0-1_計細線
  6
CONTINUOUS
 62
    3
 10
651.43375000084438
 20
609.9390861618873
 11
651.43375000084438
 21
753.93908616188787
  0
LINE
  8
_0-1_計細線
  6
CONTINUOUS
 62
    3
 10
661.43375000084438
 20
753.93908616188787
 11
658.43375000084438
 21
753.93908616188787
  0
LINE
  8
_0-1_計細線
  6
CONTINUOUS
 62
    3
 10
658.43375000084438
 20
753.93908616188787
 11
658.43375000084438
 21
609.9390861618873
  0
LINE
  8
_0-1_計細線
  6
CONTINUOUS
 62
    3
 10
658.43375000084438
 20
609.9390861618873
 11
661.43375000084438
 21
609.9390861618873
  0
LINE
  8
_0-1_計細線
  6
CONTINUOUS
 62
    3
 10
661.43375000084438
 20
609.9390861618873
 11
661.43375000084438
 21
753.93908616188787
  0
LINE
  8
_0-1_計細線
  6
CONTINUOUS
 62
    3
 10
671.43375000084438
 20
753.93908616188787
 11
668.43375000084438
 21
753.93908616188787
  0
LINE
  8
_0-1_計細線
  6
CONTINUOUS
 62
    3
 10
668.43375000084438
 20
753.93908616188787
 11
668.43375000084438
 21
609.9390861618873
  0
LINE
  8
_0-1_計細線
  6
CONTINUOUS
 62
    3
 10
668.43375000084438
 20
609.9390861618873
 11
671.43375000084438
 21
609.9390861618873
  0
LINE
  8
_0-1_計細線
  6
CONTINUOUS
 62
    3
 10
671.43375000084438
 20
609.9390861618873
 11
671.43375000084438
 21
753.93908616188787
  0
LINE
  8
_0-1_計細線
  6
CONTINUOUS
 62
    3
 10
681.43375000084438
 20
753.93908616188787
 11
678.43375000084438
 21
753.93908616188787
  0
LINE
  8
_0-1_計細線
  6
CONTINUOUS
 62
    3
 10
678.43375000084438
 20
753.93908616188787
 11
678.43375000084438
 21
609.9390861618873
  0
LINE
  8
_0-1_計細線
  6
CONTINUOUS
 62
    3
 10
678.43375000084438
 20
609.9390861618873
 11
681.43375000084438
 21
609.9390861618873
  0
LINE
  8
_0-1_計細線
  6
CONTINUOUS
 62
    3
 10
681.43375000084438
 20
609.9390861618873
 11
681.43375000084438
 21
753.93908616188787
  0
LINE
  8
_0-1_計細線
  6
CONTINUOUS
 62
    3
 10
691.43375000084438
 20
753.93908616188787
 11
688.43375000084438
 21
753.93908616188787
  0
LINE
  8
_0-1_計細線
  6
CONTINUOUS
 62
    3
 10
688.43375000084438
 20
753.93908616188787
 11
688.43375000084438
 21
609.9390861618873
  0
LINE
  8
_0-1_計細線
  6
CONTINUOUS
 62
    3
 10
688.43375000084438
 20
609.9390861618873
 11
691.43375000084438
 21
609.9390861618873
  0
LINE
  8
_0-1_計細線
  6
CONTINUOUS
 62
    3
 10
691.43375000084438
 20
609.9390861618873
 11
691.43375000084438
 21
753.93908616188787
  0
LINE
  8
_0-1_計細線
  6
CONTINUOUS
 62
    3
 10
701.43375000084438
 20
753.93908616188787
 11
698.43375000084438
 21
753.93908616188787
  0
LINE
  8
_0-1_計細線
  6
CONTINUOUS
 62
    3
 10
698.43375000084438
 20
753.93908616188787
 11
698.43375000084438
 21
609.9390861618873
  0
LINE
  8
_0-1_計細線
  6
CONTINUOUS
 62
    3
 10
698.43375000084438
 20
609.9390861618873
 11
701.43375000084438
 21
609.9390861618873
  0
LINE
  8
_0-1_計細線
  6
CONTINUOUS
 62
    3
 10
701.43375000084438
 20
609.9390861618873
 11
701.43375000084438
 21
753.93908616188787
  0
LINE
  8
_0-1_計細線
  6
CONTINUOUS
 62
    3
 10
711.43375000084438
 20
753.93908616188787
 11
708.43375000084438
 21
753.93908616188787
  0
LINE
  8
_0-1_計細線
  6
CONTINUOUS
 62
    3
 10
708.43375000084438
 20
753.93908616188787
 11
708.43375000084438
 21
609.9390861618873
  0
LINE
  8
_0-1_計細線
  6
CONTINUOUS
 62
    3
 10
708.43375000084438
 20
609.9390861618873
 11
711.43375000084438
 21
609.9390861618873
  0
LINE
  8
_0-1_計細線
  6
CONTINUOUS
 62
    3
 10
711.43375000084438
 20
609.9390861618873
 11
711.43375000084438
 21
753.93908616188787
  0
LINE
  8
_0-1_計細線
  6
CONTINUOUS
 62
    3
 10
721.43375000084438
 20
753.93908616188787
 11
718.43375000084438
 21
753.93908616188787
  0
LINE
  8
_0-1_計細線
  6
CONTINUOUS
 62
    3
 10
718.43375000084438
 20
753.93908616188787
 11
718.43375000084438
 21
609.9390861618873
  0
LINE
  8
_0-1_計細線
  6
CONTINUOUS
 62
    3
 10
718.43375000084438
 20
609.9390861618873
 11
721.43375000084438
 21
609.9390861618873
  0
LINE
  8
_0-1_計細線
  6
CONTINUOUS
 62
    3
 10
721.43375000084438
 20
609.9390861618873
 11
721.43375000084438
 21
753.93908616188787
  0
LINE
  8
_0-1_計細線
  6
CONTINUOUS
 62
    3
 10
731.43375000084438
 20
753.93908616188787
 11
728.43375000084438
 21
753.93908616188787
  0
LINE
  8
_0-1_計細線
  6
CONTINUOUS
 62
    3
 10
728.43375000084438
 20
753.93908616188787
 11
728.43375000084438
 21
609.9390861618873
  0
LINE
  8
_0-1_計細線
  6
CONTINUOUS
 62
    3
 10
728.43375000084438
 20
609.9390861618873
 11
731.43375000084438
 21
609.9390861618873
  0
LINE
  8
_0-1_計細線
  6
CONTINUOUS
 62
    3
 10
731.43375000084438
 20
609.9390861618873
 11
731.43375000084438
 21
753.93908616188787
  0
LINE
  8
_0-1_計細線
  6
CONTINUOUS
 62
    3
 10
741.43375000084438
 20
753.93908616188787
 11
738.43375000084438
 21
753.93908616188787
  0
LINE
  8
_0-1_計細線
  6
CONTINUOUS
 62
    3
 10
738.43375000084438
 20
753.93908616188787
 11
738.43375000084438
 21
609.9390861618873
  0
LINE
  8
_0-1_計細線
  6
CONTINUOUS
 62
    3
 10
738.43375000084438
 20
609.9390861618873
 11
741.43375000084438
 21
609.9390861618873
  0
LINE
  8
_0-1_計細線
  6
CONTINUOUS
 62
    3
 10
741.43375000084438
 20
609.9390861618873
 11
741.43375000084438
 21
753.93908616188787
  0
LINE
  8
_0-1_計細線
  6
CONTINUOUS
 62
    3
 10
751.43375000084438
 20
753.93908616188787
 11
748.43375000084438
 21
753.93908616188787
  0
LINE
  8
_0-1_計細線
  6
CONTINUOUS
 62
    3
 10
748.43375000084438
 20
753.93908616188787
 11
748.43375000084438
 21
609.9390861618873
  0
LINE
  8
_0-1_計細線
  6
CONTINUOUS
 62
    3
 10
748.43375000084438
 20
609.9390861618873
 11
751.43375000084438
 21
609.9390861618873
  0
LINE
  8
_0-1_計細線
  6
CONTINUOUS
 62
    3
 10
751.43375000084438
 20
609.9390861618873
 11
751.43375000084438
 21
753.93908616188787
  0
LINE
  8
_0-1_計細線
  6
CONTINUOUS
 62
    3
 10
761.43375000084438
 20
753.93908616188787
 11
758.43375000084438
 21
753.93908616188787
  0
LINE
  8
_0-1_計細線
  6
CONTINUOUS
 62
    3
 10
758.43375000084438
 20
753.93908616188787
 11
758.43375000084438
 21
609.9390861618873
  0
LINE
  8
_0-1_計細線
  6
CONTINUOUS
 62
    3
 10
758.43375000084438
 20
609.9390861618873
 11
761.43375000084438
 21
609.9390861618873
  0
LINE
  8
_0-1_計細線
  6
CONTINUOUS
 62
    3
 10
761.43375000084438
 20
609.9390861618873
 11
761.43375000084438
 21
753.93908616188787
  0
LINE
  8
_0-1_計細線
  6
CONTINUOUS
 62
    3
 10
771.43375000084438
 20
753.93908616188787
 11
768.43375000084438
 21
753.93908616188787
  0
LINE
  8
_0-1_計細線
  6
CONTINUOUS
 62
    3
 10
768.43375000084438
 20
753.93908616188787
 11
768.43375000084438
 21
609.9390861618873
  0
LINE
  8
_0-1_計細線
  6
CONTINUOUS
 62
    3
 10
768.43375000084438
 20
609.9390861618873
 11
771.43375000084438
 21
609.9390861618873
  0
LINE
  8
_0-1_計細線
  6
CONTINUOUS
 62
    3
 10
771.43375000084438
 20
609.9390861618873
 11
771.43375000084438
 21
753.93908616188787
  0
LINE
  8
_0-1_計細線
  6
CONTINUOUS
 62
    3
 10
781.43375000084438
 20
753.93908616188787
 11
778.43375000084438
 21
753.93908616188787
  0
LINE
  8
_0-1_計細線
  6
CONTINUOUS
 62
    3
 10
778.43375000084438
 20
753.93908616188787
 11
778.43375000084438
 21
609.9390861618873
  0
LINE
  8
_0-1_計細線
  6
CONTINUOUS
 62
    3
 10
778.43375000084438
 20
609.9390861618873
 11
781.43375000084438
 21
609.9390861618873
  0
LINE
  8
_0-1_計細線
  6
CONTINUOUS
 62
    3
 10
781.43375000084438
 20
609.9390861618873
 11
781.43375000084438
 21
753.93908616188787
  0
LINE
  8
_0-1_計細線
  6
CONTINUOUS
 62
    3
 10
791.43375000084438
 20
753.93908616188787
 11
788.43375000084438
 21
753.93908616188787
  0
LINE
  8
_0-1_計細線
  6
CONTINUOUS
 62
    3
 10
788.43375000084438
 20
753.93908616188787
 11
788.43375000084438
 21
609.9390861618873
  0
LINE
  8
_0-1_計細線
  6
CONTINUOUS
 62
    3
 10
788.43375000084438
 20
609.9390861618873
 11
791.43375000084438
 21
609.9390861618873
  0
LINE
  8
_0-1_計細線
  6
CONTINUOUS
 62
    3
 10
791.43375000084438
 20
609.9390861618873
 11
791.43375000084438
 21
753.93908616188787
  0
LINE
  8
_0-1_計細線
  6
CONTINUOUS
 62
    3
 10
801.43375000084438
 20
753.93908616188787
 11
798.43375000084438
 21
753.93908616188787
  0
LINE
  8
_0-1_計細線
  6
CONTINUOUS
 62
    3
 10
798.43375000084438
 20
753.93908616188787
 11
798.43375000084438
 21
609.9390861618873
  0
LINE
  8
_0-1_計細線
  6
CONTINUOUS
 62
    3
 10
798.43375000084438
 20
609.9390861618873
 11
801.43375000084438
 21
609.9390861618873
  0
LINE
  8
_0-1_計細線
  6
CONTINUOUS
 62
    3
 10
801.43375000084438
 20
609.9390861618873
 11
801.43375000084438
 21
753.93908616188787
  0
LINE
  8
_0-1_計細線
  6
CONTINUOUS
 62
    3
 10
811.43375000084438
 20
753.93908616188787
 11
808.43375000084438
 21
753.93908616188787
  0
LINE
  8
_0-1_計細線
  6
CONTINUOUS
 62
    3
 10
808.43375000084438
 20
753.93908616188787
 11
808.43375000084438
 21
609.9390861618873
  0
LINE
  8
_0-1_計細線
  6
CONTINUOUS
 62
    3
 10
808.43375000084438
 20
609.9390861618873
 11
811.43375000084438
 21
609.9390861618873
  0
LINE
  8
_0-1_計細線
  6
CONTINUOUS
 62
    3
 10
811.43375000084438
 20
609.9390861618873
 11
811.43375000084438
 21
753.93908616188787
  0
LINE
  8
_0-1_計細線
  6
CONTINUOUS
 62
    3
 10
821.43375000084438
 20
753.93908616188787
 11
818.43375000084438
 21
753.93908616188787
  0
LINE
  8
_0-1_計細線
  6
CONTINUOUS
 62
    3
 10
818.43375000084438
 20
753.93908616188787
 11
818.43375000084438
 21
609.9390861618873
  0
LINE
  8
_0-1_計細線
  6
CONTINUOUS
 62
    3
 10
818.43375000084438
 20
609.9390861618873
 11
821.43375000084438
 21
609.9390861618873
  0
LINE
  8
_0-1_計細線
  6
CONTINUOUS
 62
    3
 10
821.43375000084438
 20
609.9390861618873
 11
821.43375000084438
 21
753.93908616188787
  0
LINE
  8
_0-1_計細線
  6
CONTINUOUS
 62
    3
 10
831.43375000084438
 20
753.93908616188787
 11
828.43375000084438
 21
753.93908616188787
  0
LINE
  8
_0-1_計細線
  6
CONTINUOUS
 62
    3
 10
828.43375000084438
 20
753.93908616188787
 11
828.43375000084438
 21
609.9390861618873
  0
LINE
  8
_0-1_計細線
  6
CONTINUOUS
 62
    3
 10
828.43375000084438
 20
609.9390861618873
 11
831.43375000084438
 21
609.9390861618873
  0
LINE
  8
_0-1_計細線
  6
CONTINUOUS
 62
    3
 10
831.43375000084438
 20
609.9390861618873
 11
831.43375000084438
 21
753.93908616188787
  0
LINE
  8
_0-1_計細線
  6
CONTINUOUS
 62
    3
 10
841.43375000084438
 20
753.93908616188787
 11
838.43375000084438
 21
753.93908616188787
  0
LINE
  8
_0-1_計細線
  6
CONTINUOUS
 62
    3
 10
838.43375000084438
 20
753.93908616188787
 11
838.43375000084438
 21
609.9390861618873
  0
LINE
  8
_0-1_計細線
  6
CONTINUOUS
 62
    3
 10
838.43375000084438
 20
609.9390861618873
 11
841.43375000084438
 21
609.9390861618873
  0
LINE
  8
_0-1_計細線
  6
CONTINUOUS
 62
    3
 10
841.43375000084438
 20
609.9390861618873
 11
841.43375000084438
 21
753.93908616188787
  0
LINE
  8
_0-1_計細線
  6
CONTINUOUS
 62
    3
 10
851.43375000084438
 20
753.93908616188787
 11
848.43375000084438
 21
753.93908616188787
  0
LINE
  8
_0-1_計細線
  6
CONTINUOUS
 62
    3
 10
848.43375000084438
 20
753.93908616188787
 11
848.43375000084438
 21
609.9390861618873
  0
LINE
  8
_0-1_計細線
  6
CONTINUOUS
 62
    3
 10
848.43375000084438
 20
609.9390861618873
 11
851.43375000084438
 21
609.9390861618873
  0
LINE
  8
_0-1_計細線
  6
CONTINUOUS
 62
    3
 10
851.43375000084438
 20
609.9390861618873
 11
851.43375000084438
 21
753.93908616188787
  0
LINE
  8
_0-1_計細線
  6
CONTINUOUS
 62
    3
 10
861.43375000084438
 20
753.93908616188787
 11
858.43375000084438
 21
753.93908616188787
  0
LINE
  8
_0-1_計細線
  6
CONTINUOUS
 62
    3
 10
858.43375000084438
 20
753.93908616188787
 11
858.43375000084438
 21
609.9390861618873
  0
LINE
  8
_0-1_計細線
  6
CONTINUOUS
 62
    3
 10
858.43375000084438
 20
609.9390861618873
 11
861.43375000084438
 21
609.9390861618873
  0
LINE
  8
_0-1_計細線
  6
CONTINUOUS
 62
    3
 10
861.43375000084438
 20
609.9390861618873
 11
861.43375000084438
 21
753.93908616188787
  0
LINE
  8
_0-1_計細線
  6
CONTINUOUS
 62
    3
 10
871.43375000084438
 20
753.93908616188787
 11
868.43375000084438
 21
753.93908616188787
  0
LINE
  8
_0-1_計細線
  6
CONTINUOUS
 62
    3
 10
868.43375000084438
 20
753.93908616188787
 11
868.43375000084438
 21
609.9390861618873
  0
LINE
  8
_0-1_計細線
  6
CONTINUOUS
 62
    3
 10
868.43375000084438
 20
609.9390861618873
 11
871.43375000084438
 21
609.9390861618873
  0
LINE
  8
_0-1_計細線
  6
CONTINUOUS
 62
    3
 10
871.43375000084438
 20
609.9390861618873
 11
871.43375000084438
 21
753.93908616188787
  0
LINE
  8
_0-1_計細線
  6
CONTINUOUS
 62
    3
 10
881.43375000084438
 20
753.93908616188787
 11
878.43375000084438
 21
753.93908616188787
  0
LINE
  8
_0-1_計細線
  6
CONTINUOUS
 62
    3
 10
878.43375000084438
 20
753.93908616188787
 11
878.43375000084438
 21
609.9390861618873
  0
LINE
  8
_0-1_計細線
  6
CONTINUOUS
 62
    3
 10
878.43375000084438
 20
609.9390861618873
 11
881.43375000084438
 21
609.9390861618873
  0
LINE
  8
_0-1_計細線
  6
CONTINUOUS
 62
    3
 10
881.43375000084438
 20
609.9390861618873
 11
881.43375000084438
 21
753.93908616188787
  0
LINE
  8
_0-1_計細線
  6
CONTINUOUS
 62
    3
 10
891.43375000084438
 20
753.93908616188787
 11
888.43375000084438
 21
753.93908616188787
  0
LINE
  8
_0-1_計細線
  6
CONTINUOUS
 62
    3
 10
888.43375000084438
 20
753.93908616188787
 11
888.43375000084438
 21
609.9390861618873
  0
LINE
  8
_0-1_計細線
  6
CONTINUOUS
 62
    3
 10
888.43375000084438
 20
609.9390861618873
 11
891.43375000084438
 21
609.9390861618873
  0
LINE
  8
_0-1_計細線
  6
CONTINUOUS
 62
    3
 10
891.43375000084438
 20
609.9390861618873
 11
891.43375000084438
 21
753.93908616188787
  0
LINE
  8
_0-1_計細線
  6
CONTINUOUS
 62
    3
 10
901.43375000084438
 20
753.93908616188787
 11
898.43375000084438
 21
753.93908616188787
  0
LINE
  8
_0-1_計細線
  6
CONTINUOUS
 62
    3
 10
898.43375000084438
 20
753.93908616188787
 11
898.43375000084438
 21
609.9390861618873
  0
LINE
  8
_0-1_計細線
  6
CONTINUOUS
 62
    3
 10
898.43375000084438
 20
609.9390861618873
 11
901.43375000084438
 21
609.9390861618873
  0
LINE
  8
_0-1_計細線
  6
CONTINUOUS
 62
    3
 10
901.43375000084438
 20
609.9390861618873
 11
901.43375000084438
 21
753.93908616188787
  0
LINE
  8
_0-1_計細線
  6
CONTINUOUS
 62
    3
 10
911.43375000084438
 20
753.93908616188787
 11
908.43375000084438
 21
753.93908616188787
  0
LINE
  8
_0-1_計細線
  6
CONTINUOUS
 62
    3
 10
908.43375000084438
 20
753.93908616188787
 11
908.43375000084438
 21
609.9390861618873
  0
LINE
  8
_0-1_計細線
  6
CONTINUOUS
 62
    3
 10
908.43375000084438
 20
609.9390861618873
 11
911.43375000084438
 21
609.9390861618873
  0
LINE
  8
_0-1_計細線
  6
CONTINUOUS
 62
    3
 10
911.43375000084438
 20
609.9390861618873
 11
911.43375000084438
 21
753.93908616188787
  0
LINE
  8
_0-1_計細線
  6
CONTINUOUS
 62
    3
 10
921.43375000084438
 20
753.93908616188787
 11
918.43375000084438
 21
753.93908616188787
  0
LINE
  8
_0-1_計細線
  6
CONTINUOUS
 62
    3
 10
918.43375000084438
 20
753.93908616188787
 11
918.43375000084438
 21
609.9390861618873
  0
LINE
  8
_0-1_計細線
  6
CONTINUOUS
 62
    3
 10
918.43375000084438
 20
609.9390861618873
 11
921.43375000084438
 21
609.9390861618873
  0
LINE
  8
_0-1_計細線
  6
CONTINUOUS
 62
    3
 10
921.43375000084438
 20
609.9390861618873
 11
921.43375000084438
 21
753.93908616188787
  0
LINE
  8
_0-1_計細線
  6
CONTINUOUS
 62
    3
 10
931.43375000084438
 20
753.93908616188787
 11
928.43375000084438
 21
753.93908616188787
  0
LINE
  8
_0-1_計細線
  6
CONTINUOUS
 62
    3
 10
928.43375000084438
 20
753.93908616188787
 11
928.43375000084438
 21
609.9390861618873
  0
LINE
  8
_0-1_計細線
  6
CONTINUOUS
 62
    3
 10
928.43375000084438
 20
609.9390861618873
 11
931.43375000084438
 21
609.9390861618873
  0
LINE
  8
_0-1_計細線
  6
CONTINUOUS
 62
    3
 10
931.43375000084438
 20
609.9390861618873
 11
931.43375000084438
 21
753.93908616188787
  0
LINE
  8
_0-1_計細線
  6
CONTINUOUS
 62
    3
 10
941.43375000084438
 20
753.93908616188787
 11
938.43375000084438
 21
753.93908616188787
  0
LINE
  8
_0-1_計細線
  6
CONTINUOUS
 62
    3
 10
938.43375000084438
 20
753.93908616188787
 11
938.43375000084438
 21
609.9390861618873
  0
LINE
  8
_0-1_計細線
  6
CONTINUOUS
 62
    3
 10
938.43375000084438
 20
609.9390861618873
 11
941.43375000084438
 21
609.9390861618873
  0
LINE
  8
_0-1_計細線
  6
CONTINUOUS
 62
    3
 10
941.43375000084438
 20
609.9390861618873
 11
941.43375000084438
 21
753.93908616188787
  0
LINE
  8
_0-1_計細線
  6
CONTINUOUS
 62
    3
 10
951.43375000084438
 20
753.93908616188787
 11
948.43375000084438
 21
753.93908616188787
  0
LINE
  8
_0-1_計細線
  6
CONTINUOUS
 62
    3
 10
948.43375000084438
 20
753.93908616188787
 11
948.43375000084438
 21
609.9390861618873
  0
LINE
  8
_0-1_計細線
  6
CONTINUOUS
 62
    3
 10
948.43375000084438
 20
609.9390861618873
 11
951.43375000084438
 21
609.9390861618873
  0
LINE
  8
_0-1_計細線
  6
CONTINUOUS
 62
    3
 10
951.43375000084438
 20
609.9390861618873
 11
951.43375000084438
 21
753.93908616188787
  0
LINE
  8
_0-1_計細線
  6
CONTINUOUS
 62
    3
 10
961.43375000084438
 20
753.93908616188787
 11
958.43375000084438
 21
753.93908616188787
  0
LINE
  8
_0-1_計細線
  6
CONTINUOUS
 62
    3
 10
958.43375000084438
 20
753.93908616188787
 11
958.43375000084438
 21
609.9390861618873
  0
LINE
  8
_0-1_計細線
  6
CONTINUOUS
 62
    3
 10
958.43375000084438
 20
609.9390861618873
 11
961.43375000084438
 21
609.9390861618873
  0
LINE
  8
_0-1_計細線
  6
CONTINUOUS
 62
    3
 10
961.43375000084438
 20
609.9390861618873
 11
961.43375000084438
 21
753.93908616188787
  0
LINE
  8
_0-1_計細線
  6
CONTINUOUS
 62
    3
 10
971.43375000084438
 20
753.93908616188787
 11
968.43375000084438
 21
753.93908616188787
  0
LINE
  8
_0-1_計細線
  6
CONTINUOUS
 62
    3
 10
968.43375000084438
 20
753.93908616188787
 11
968.43375000084438
 21
609.9390861618873
  0
LINE
  8
_0-1_計細線
  6
CONTINUOUS
 62
    3
 10
968.43375000084438
 20
609.9390861618873
 11
971.43375000084438
 21
609.9390861618873
  0
LINE
  8
_0-1_計細線
  6
CONTINUOUS
 62
    3
 10
971.43375000084438
 20
609.9390861618873
 11
971.43375000084438
 21
753.93908616188787
  0
LINE
  8
_0-1_計細線
  6
CONTINUOUS
 62
    3
 10
981.43375000084438
 20
753.93908616188787
 11
978.43375000084438
 21
753.93908616188787
  0
LINE
  8
_0-1_計細線
  6
CONTINUOUS
 62
    3
 10
978.43375000084438
 20
753.93908616188787
 11
978.43375000084438
 21
609.9390861618873
  0
LINE
  8
_0-1_計細線
  6
CONTINUOUS
 62
    3
 10
978.43375000084438
 20
609.9390861618873
 11
981.43375000084438
 21
609.9390861618873
  0
LINE
  8
_0-1_計細線
  6
CONTINUOUS
 62
    3
 10
981.43375000084438
 20
609.9390861618873
 11
981.43375000084438
 21
753.93908616188787
  0
LINE
  8
_0-1_計細線
  6
CONTINUOUS
 62
    3
 10
991.43375000084438
 20
753.93908616188787
 11
988.43375000084438
 21
753.93908616188787
  0
LINE
  8
_0-1_計細線
  6
CONTINUOUS
 62
    3
 10
988.43375000084438
 20
753.93908616188787
 11
988.43375000084438
 21
609.9390861618873
  0
LINE
  8
_0-1_計細線
  6
CONTINUOUS
 62
    3
 10
988.43375000084438
 20
609.9390861618873
 11
991.43375000084438
 21
609.9390861618873
  0
LINE
  8
_0-1_計細線
  6
CONTINUOUS
 62
    3
 10
991.43375000084438
 20
609.9390861618873
 11
991.43375000084438
 21
753.93908616188787
  0
LINE
  8
_0-1_計細線
  6
CONTINUOUS
 62
    3
 10
1001.4337500008444
 20
753.93908616188787
 11
998.43375000084438
 21
753.93908616188787
  0
LINE
  8
_0-1_計細線
  6
CONTINUOUS
 62
    3
 10
998.43375000084438
 20
753.93908616188787
 11
998.43375000084438
 21
609.9390861618873
  0
LINE
  8
_0-1_計細線
  6
CONTINUOUS
 62
    3
 10
998.43375000084438
 20
609.9390861618873
 11
1001.4337500008444
 21
609.9390861618873
  0
LINE
  8
_0-1_計細線
  6
CONTINUOUS
 62
    3
 10
1001.4337500008444
 20
609.9390861618873
 11
1001.4337500008444
 21
753.93908616188787
  0
LINE
  8
_0-1_計細線
  6
CONTINUOUS
 62
    3
 10
1011.4337500008444
 20
753.93908616188787
 11
1008.4337500008444
 21
753.93908616188787
  0
LINE
  8
_0-1_計細線
  6
CONTINUOUS
 62
    3
 10
1008.4337500008444
 20
753.93908616188787
 11
1008.4337500008444
 21
609.9390861618873
  0
LINE
  8
_0-1_計細線
  6
CONTINUOUS
 62
    3
 10
1008.4337500008444
 20
609.9390861618873
 11
1011.4337500008444
 21
609.9390861618873
  0
LINE
  8
_0-1_計細線
  6
CONTINUOUS
 62
    3
 10
1011.4337500008444
 20
609.9390861618873
 11
1011.4337500008444
 21
753.93908616188787
  0
LINE
  8
_0-1_計細線
  6
CONTINUOUS
 62
    3
 10
1021.4337500008444
 20
753.93908616188787
 11
1018.4337500008444
 21
753.93908616188787
  0
LINE
  8
_0-1_計細線
  6
CONTINUOUS
 62
    3
 10
1018.4337500008444
 20
753.93908616188787
 11
1018.4337500008444
 21
609.9390861618873
  0
LINE
  8
_0-1_計細線
  6
CONTINUOUS
 62
    3
 10
1018.4337500008444
 20
609.9390861618873
 11
1021.4337500008444
 21
609.9390861618873
  0
LINE
  8
_0-1_計細線
  6
CONTINUOUS
 62
    3
 10
1021.4337500008444
 20
609.9390861618873
 11
1021.4337500008444
 21
753.93908616188787
  0
LINE
  8
_0-1_計細線
  6
CONTINUOUS
 62
    3
 10
1031.4337500008442
 20
753.93908616188787
 11
1028.4337500008442
 21
753.93908616188787
  0
LINE
  8
_0-1_計細線
  6
CONTINUOUS
 62
    3
 10
1028.4337500008442
 20
753.93908616188787
 11
1028.4337500008442
 21
609.9390861618873
  0
LINE
  8
_0-1_計細線
  6
CONTINUOUS
 62
    3
 10
1028.4337500008442
 20
609.9390861618873
 11
1031.4337500008442
 21
609.9390861618873
  0
LINE
  8
_0-1_計細線
  6
CONTINUOUS
 62
    3
 10
1031.4337500008442
 20
609.9390861618873
 11
1031.4337500008442
 21
753.93908616188787
  0
LINE
  8
_0-1_計細線
  6
CONTINUOUS
 62
    3
 10
1041.4337500008442
 20
753.93908616188787
 11
1038.4337500008442
 21
753.93908616188787
  0
LINE
  8
_0-1_計細線
  6
CONTINUOUS
 62
    3
 10
1038.4337500008442
 20
753.93908616188787
 11
1038.4337500008442
 21
609.9390861618873
  0
LINE
  8
_0-1_計細線
  6
CONTINUOUS
 62
    3
 10
1038.4337500008442
 20
609.9390861618873
 11
1041.4337500008442
 21
609.9390861618873
  0
LINE
  8
_0-1_計細線
  6
CONTINUOUS
 62
    3
 10
1041.4337500008442
 20
609.9390861618873
 11
1041.4337500008442
 21
753.93908616188787
  0
LINE
  8
_0-1_計細線
  6
CONTINUOUS
 62
    3
 10
1051.4337500008442
 20
753.93908616188787
 11
1048.4337500008442
 21
753.93908616188787
  0
LINE
  8
_0-1_計細線
  6
CONTINUOUS
 62
    3
 10
1048.4337500008442
 20
753.93908616188787
 11
1048.4337500008442
 21
609.9390861618873
  0
LINE
  8
_0-1_計細線
  6
CONTINUOUS
 62
    3
 10
1048.4337500008442
 20
609.9390861618873
 11
1051.4337500008442
 21
609.9390861618873
  0
LINE
  8
_0-1_計細線
  6
CONTINUOUS
 62
    3
 10
1051.4337500008442
 20
609.9390861618873
 11
1051.4337500008442
 21
753.93908616188787
  0
LINE
  8
_0-1_計細線
  6
CONTINUOUS
 62
    3
 10
1061.4337500008442
 20
753.93908616188787
 11
1058.4337500008442
 21
753.93908616188787
  0
LINE
  8
_0-1_計細線
  6
CONTINUOUS
 62
    3
 10
1058.4337500008442
 20
753.93908616188787
 11
1058.4337500008442
 21
609.9390861618873
  0
LINE
  8
_0-1_計細線
  6
CONTINUOUS
 62
    3
 10
1058.4337500008442
 20
609.9390861618873
 11
1061.4337500008442
 21
609.9390861618873
  0
LINE
  8
_0-1_計細線
  6
CONTINUOUS
 62
    3
 10
1061.4337500008442
 20
609.9390861618873
 11
1061.4337500008442
 21
753.93908616188787
  0
LINE
  8
_0-1_計細線
  6
CONTINUOUS
 62
    3
 10
1071.4337500008442
 20
753.93908616188787
 11
1068.4337500008442
 21
753.93908616188787
  0
LINE
  8
_0-1_計細線
  6
CONTINUOUS
 62
    3
 10
1068.4337500008442
 20
753.93908616188787
 11
1068.4337500008442
 21
609.9390861618873
  0
LINE
  8
_0-1_計細線
  6
CONTINUOUS
 62
    3
 10
1068.4337500008442
 20
609.9390861618873
 11
1071.4337500008442
 21
609.9390861618873
  0
LINE
  8
_0-1_計細線
  6
CONTINUOUS
 62
    3
 10
1071.4337500008442
 20
609.9390861618873
 11
1071.4337500008442
 21
753.93908616188787
  0
LINE
  8
_0-1_計細線
  6
CONTINUOUS
 62
    3
 10
1081.4337500008442
 20
753.93908616188787
 11
1078.4337500008442
 21
753.93908616188787
  0
LINE
  8
_0-1_計細線
  6
CONTINUOUS
 62
    3
 10
1078.4337500008442
 20
753.93908616188787
 11
1078.4337500008442
 21
609.9390861618873
  0
LINE
  8
_0-1_計細線
  6
CONTINUOUS
 62
    3
 10
1078.4337500008442
 20
609.9390861618873
 11
1081.4337500008442
 21
609.9390861618873
  0
LINE
  8
_0-1_計細線
  6
CONTINUOUS
 62
    3
 10
1081.4337500008442
 20
609.9390861618873
 11
1081.4337500008442
 21
753.93908616188787
  0
LINE
  8
_0-1_計細線
  6
CONTINUOUS
 62
    3
 10
1091.4337500008442
 20
753.93908616188787
 11
1088.4337500008442
 21
753.93908616188787
  0
LINE
  8
_0-1_計細線
  6
CONTINUOUS
 62
    3
 10
1088.4337500008442
 20
753.93908616188787
 11
1088.4337500008442
 21
609.9390861618873
  0
LINE
  8
_0-1_計細線
  6
CONTINUOUS
 62
    3
 10
1088.4337500008442
 20
609.9390861618873
 11
1091.4337500008442
 21
609.9390861618873
  0
LINE
  8
_0-1_計細線
  6
CONTINUOUS
 62
    3
 10
1091.4337500008442
 20
609.9390861618873
 11
1091.4337500008442
 21
753.93908616188787
  0
LINE
  8
_0-1_計細線
  6
CONTINUOUS
 62
    3
 10
1101.4337500008442
 20
753.93908616188787
 11
1098.4337500008442
 21
753.93908616188787
  0
LINE
  8
_0-1_計細線
  6
CONTINUOUS
 62
    3
 10
1098.4337500008442
 20
753.93908616188787
 11
1098.4337500008442
 21
609.9390861618873
  0
LINE
  8
_0-1_計細線
  6
CONTINUOUS
 62
    3
 10
1098.4337500008442
 20
609.9390861618873
 11
1101.4337500008442
 21
609.9390861618873
  0
LINE
  8
_0-1_計細線
  6
CONTINUOUS
 62
    3
 10
1101.4337500008442
 20
609.9390861618873
 11
1101.4337500008442
 21
753.93908616188787
  0
LINE
  8
_0-1_計細線
  6
CONTINUOUS
 62
    3
 10
1111.4337500008442
 20
753.93908616188787
 11
1108.4337500008442
 21
753.93908616188787
  0
LINE
  8
_0-1_計細線
  6
CONTINUOUS
 62
    3
 10
1108.4337500008442
 20
753.93908616188787
 11
1108.4337500008442
 21
609.9390861618873
  0
LINE
  8
_0-1_計細線
  6
CONTINUOUS
 62
    3
 10
1108.4337500008442
 20
609.9390861618873
 11
1111.4337500008442
 21
609.9390861618873
  0
LINE
  8
_0-1_計細線
  6
CONTINUOUS
 62
    3
 10
1111.4337500008442
 20
609.9390861618873
 11
1111.4337500008442
 21
753.93908616188787
  0
LINE
  8
_0-1_計細線
  6
CONTINUOUS
 62
    3
 10
1121.4337500008442
 20
753.93908616188787
 11
1118.4337500008442
 21
753.93908616188787
  0
LINE
  8
_0-1_計細線
  6
CONTINUOUS
 62
    3
 10
1118.4337500008442
 20
753.93908616188787
 11
1118.4337500008442
 21
609.9390861618873
  0
LINE
  8
_0-1_計細線
  6
CONTINUOUS
 62
    3
 10
1118.4337500008442
 20
609.9390861618873
 11
1121.4337500008442
 21
609.9390861618873
  0
LINE
  8
_0-1_計細線
  6
CONTINUOUS
 62
    3
 10
1121.4337500008442
 20
609.9390861618873
 11
1121.4337500008442
 21
753.93908616188787
  0
LINE
  8
_0-1_計細線
  6
CONTINUOUS
 62
    3
 10
1131.4337500008442
 20
753.93908616188787
 11
1128.4337500008442
 21
753.93908616188787
  0
LINE
  8
_0-1_計細線
  6
CONTINUOUS
 62
    3
 10
1128.4337500008442
 20
753.93908616188787
 11
1128.4337500008442
 21
609.9390861618873
  0
LINE
  8
_0-1_計細線
  6
CONTINUOUS
 62
    3
 10
1128.4337500008442
 20
609.9390861618873
 11
1131.4337500008442
 21
609.9390861618873
  0
LINE
  8
_0-1_計細線
  6
CONTINUOUS
 62
    3
 10
1131.4337500008442
 20
609.9390861618873
 11
1131.4337500008442
 21
753.93908616188787
  0
LINE
  8
_0-1_計細線
  6
CONTINUOUS
 62
    3
 10
1141.4337500008442
 20
753.93908616188787
 11
1138.4337500008442
 21
753.93908616188787
  0
LINE
  8
_0-1_計細線
  6
CONTINUOUS
 62
    3
 10
1138.4337500008442
 20
753.93908616188787
 11
1138.4337500008442
 21
609.9390861618873
  0
LINE
  8
_0-1_計細線
  6
CONTINUOUS
 62
    3
 10
1138.4337500008442
 20
609.9390861618873
 11
1141.4337500008442
 21
609.9390861618873
  0
LINE
  8
_0-1_計細線
  6
CONTINUOUS
 62
    3
 10
1141.4337500008442
 20
609.9390861618873
 11
1141.4337500008442
 21
753.93908616188787
  0
LINE
  8
_0-1_計細線
  6
CONTINUOUS
 62
    3
 10
1151.4337500008442
 20
753.93908616188787
 11
1148.4337500008442
 21
753.93908616188787
  0
LINE
  8
_0-1_計細線
  6
CONTINUOUS
 62
    3
 10
1148.4337500008442
 20
753.93908616188787
 11
1148.4337500008442
 21
609.9390861618873
  0
LINE
  8
_0-1_計細線
  6
CONTINUOUS
 62
    3
 10
1148.4337500008442
 20
609.9390861618873
 11
1151.4337500008442
 21
609.9390861618873
  0
LINE
  8
_0-1_計細線
  6
CONTINUOUS
 62
    3
 10
1151.4337500008442
 20
609.9390861618873
 11
1151.4337500008442
 21
753.93908616188787
  0
LINE
  8
_0-1_計細線
  6
CONTINUOUS
 62
    3
 10
1161.4337500008442
 20
753.93908616188787
 11
1158.4337500008442
 21
753.93908616188787
  0
LINE
  8
_0-1_計細線
  6
CONTINUOUS
 62
    3
 10
1158.4337500008442
 20
753.93908616188787
 11
1158.4337500008442
 21
609.9390861618873
  0
LINE
  8
_0-1_計細線
  6
CONTINUOUS
 62
    3
 10
1158.4337500008442
 20
609.9390861618873
 11
1161.4337500008442
 21
609.9390861618873
  0
LINE
  8
_0-1_計細線
  6
CONTINUOUS
 62
    3
 10
1161.4337500008442
 20
609.9390861618873
 11
1161.4337500008442
 21
753.93908616188787
  0
LINE
  8
_0-1_計細線
  6
CONTINUOUS
 62
    3
 10
1171.4337500008442
 20
753.93908616188787
 11
1168.4337500008442
 21
753.93908616188787
  0
LINE
  8
_0-1_計細線
  6
CONTINUOUS
 62
    3
 10
1168.4337500008442
 20
753.93908616188787
 11
1168.4337500008442
 21
609.9390861618873
  0
LINE
  8
_0-1_計細線
  6
CONTINUOUS
 62
    3
 10
1168.4337500008442
 20
609.9390861618873
 11
1171.4337500008442
 21
609.9390861618873
  0
LINE
  8
_0-1_計細線
  6
CONTINUOUS
 62
    3
 10
1171.4337500008442
 20
609.9390861618873
 11
1171.4337500008442
 21
753.93908616188787
  0
LINE
  8
_0-1_計細線
  6
CONTINUOUS
 62
    3
 10
1181.4337500008442
 20
753.93908616188787
 11
1178.4337500008442
 21
753.93908616188787
  0
LINE
  8
_0-1_計細線
  6
CONTINUOUS
 62
    3
 10
1178.4337500008442
 20
753.93908616188787
 11
1178.4337500008442
 21
609.9390861618873
  0
LINE
  8
_0-1_計細線
  6
CONTINUOUS
 62
    3
 10
1178.4337500008442
 20
609.9390861618873
 11
1181.4337500008442
 21
609.9390861618873
  0
LINE
  8
_0-1_計細線
  6
CONTINUOUS
 62
    3
 10
1181.4337500008442
 20
609.9390861618873
 11
1181.4337500008442
 21
753.93908616188787
  0
LINE
  8
_0-1_計細線
  6
CONTINUOUS
 62
    3
 10
1191.4337500008442
 20
753.93908616188787
 11
1188.4337500008442
 21
753.93908616188787
  0
LINE
  8
_0-1_計細線
  6
CONTINUOUS
 62
    3
 10
1188.4337500008442
 20
753.93908616188787
 11
1188.4337500008442
 21
609.9390861618873
  0
LINE
  8
_0-1_計細線
  6
CONTINUOUS
 62
    3
 10
1188.4337500008442
 20
609.9390861618873
 11
1191.4337500008442
 21
609.9390861618873
  0
LINE
  8
_0-1_計細線
  6
CONTINUOUS
 62
    3
 10
1191.4337500008442
 20
609.9390861618873
 11
1191.4337500008442
 21
753.93908616188787
  0
LINE
  8
_0-1_計細線
  6
CONTINUOUS
 62
    3
 10
1201.4337500008442
 20
753.93908616188787
 11
1198.4337500008442
 21
753.93908616188787
  0
LINE
  8
_0-1_計細線
  6
CONTINUOUS
 62
    3
 10
1198.4337500008442
 20
753.93908616188787
 11
1198.4337500008442
 21
609.9390861618873
  0
LINE
  8
_0-1_計細線
  6
CONTINUOUS
 62
    3
 10
1198.4337500008442
 20
609.9390861618873
 11
1201.4337500008442
 21
609.9390861618873
  0
LINE
  8
_0-1_計細線
  6
CONTINUOUS
 62
    3
 10
1201.4337500008442
 20
609.9390861618873
 11
1201.4337500008442
 21
753.93908616188787
  0
LINE
  8
_0-1_計細線
  6
CONTINUOUS
 62
    3
 10
1211.4337500008442
 20
753.93908616188787
 11
1208.4337500008442
 21
753.93908616188787
  0
LINE
  8
_0-1_計細線
  6
CONTINUOUS
 62
    3
 10
1208.4337500008442
 20
753.93908616188787
 11
1208.4337500008442
 21
609.9390861618873
  0
LINE
  8
_0-1_計細線
  6
CONTINUOUS
 62
    3
 10
1208.4337500008442
 20
609.9390861618873
 11
1211.4337500008442
 21
609.9390861618873
  0
LINE
  8
_0-1_計細線
  6
CONTINUOUS
 62
    3
 10
1211.4337500008442
 20
609.9390861618873
 11
1211.4337500008442
 21
753.93908616188787
  0
LINE
  8
_0-1_計細線
  6
CONTINUOUS
 62
    3
 10
1221.4337500008442
 20
753.93908616188787
 11
1218.4337500008442
 21
753.93908616188787
  0
LINE
  8
_0-1_計細線
  6
CONTINUOUS
 62
    3
 10
1218.4337500008442
 20
753.93908616188787
 11
1218.4337500008442
 21
609.9390861618873
  0
LINE
  8
_0-1_計細線
  6
CONTINUOUS
 62
    3
 10
1218.4337500008442
 20
609.9390861618873
 11
1221.4337500008442
 21
609.9390861618873
  0
LINE
  8
_0-1_計細線
  6
CONTINUOUS
 62
    3
 10
1221.4337500008442
 20
609.9390861618873
 11
1221.4337500008442
 21
753.93908616188787
  0
LINE
  8
_0-5_寸法線
  6
CONTINUOUS
 62
    7
 10
1261.4433689440693
 20
601.93908616188742
 11
1341.3456879950695
 21
601.93908616188708
  0
LINE
  8
_0-5_寸法線
  6
CONTINUOUS
 62
    7
 10
1336.3456879950695
 20
601.93908616188708
 11
1333.7574975440443
 21
611.59834442477779
  0
LINE
  8
_0-5_寸法線
  6
CONTINUOUS
 62
    7
 10
1336.3456879950695
 20
601.93908616188708
 11
1338.9338784460947
 21
611.59834442477779
  0
LINE
  8
_0-5_寸法線
  6
CONTINUOUS
 62
    7
 10
1261.4433689440693
 20
761.93908616188742
 11
1341.3456879950695
 21
761.93908616188708
  0
LINE
  8
_0-5_寸法線
  6
CONTINUOUS
 62
    7
 10
1336.3456879950695
 20
761.93908616188708
 11
1338.9338784460947
 21
752.27982789899647
  0
LINE
  8
_0-5_寸法線
  6
CONTINUOUS
 62
    7
 10
1336.3456879950695
 20
761.93908616188708
 11
1333.7574975440443
 21
752.27982789899647
  0
LINE
  8
_0-5_寸法線
  6
CONTINUOUS
 62
    7
 10
1336.3456879950695
 20
601.93908616188708
 11
1336.3456879950695
 21
761.93908616188708
  0
TEXT
  8
_0-5_寸法線
 62
    7
 10
1336.3456879950695
 20
670.68908616188708
 40
15
 41
1
 50
90
  1
160
  0
LINE
  8
_0-5_寸法線
  6
CONTINUOUS
 62
    7
 10
188.4241310576077
 20
601.93908616188742
 11
143.42413105760727
 21
601.93908616188753
  0
LINE
  8
_0-5_寸法線
  6
CONTINUOUS
 62
    7
 10
148.42413105760727
 20
601.93908616188753
 11
145.83594060658208
 21
611.59834442477836
  0
LINE
  8
_0-5_寸法線
  6
CONTINUOUS
 62
    7
 10
148.42413105760727
 20
601.93908616188753
 11
151.01232150863245
 21
611.59834442477836
  0
LINE
  8
_0-5_寸法線
  6
CONTINUOUS
 62
    7
 10
188.4241310576077
 20
631.93908616188821
 11
143.42413105760727
 21
631.93908616188855
  0
LINE
  8
_0-5_寸法線
  6
CONTINUOUS
 62
    7
 10
148.42413105760727
 20
631.93908616188855
 11
151.0123215086324
 21
622.27982789899772
  0
LINE
  8
_0-5_寸法線
  6
CONTINUOUS
 62
    7
 10
148.42413105760727
 20
631.93908616188855
 11
145.835940606582
 21
622.27982789899772
  0
LINE
  8
_0-5_寸法線
  6
CONTINUOUS
 62
    7
 10
148.42413105760727
 20
601.93908616188753
 11
148.42413105760727
 21
631.93908616188855
  0
TEXT
  8
_0-5_寸法線
 62
    7
 10
148.42413105760727
 20
609.43908616188799
 40
15
 41
1
 50
90
  1
30
  0
LINE
  8
_0-5_寸法線
  6
CONTINUOUS
 62
    7
 10
148.42413105760727
 20
631.93908616188855
 11
145.83594060658208
 21
641.59834442477916
  0
LINE
  8
_0-5_寸法線
  6
CONTINUOUS
 62
    7
 10
148.42413105760727
 20
631.93908616188855
 11
151.01232150863245
 21
641.59834442477916
  0
LINE
  8
_0-5_寸法線
  6
CONTINUOUS
 62
    7
 10
188.4241310576077
 20
731.93908616188776
 11
143.42413105760727
 21
731.9390861618881
  0
LINE
  8
_0-5_寸法線
  6
CONTINUOUS
 62
    7
 10
148.42413105760727
 20
731.9390861618881
 11
151.0123215086324
 21
722.27982789899727
  0
LINE
  8
_0-5_寸法線
  6
CONTINUOUS
 62
    7
 10
148.42413105760727
 20
731.9390861618881
 11
145.835940606582
 21
722.27982789899727
  0
LINE
  8
_0-5_寸法線
  6
CONTINUOUS
 62
    7
 10
148.42413105760727
 20
631.93908616188855
 11
148.42413105760727
 21
731.9390861618881
  0
TEXT
  8
_0-5_寸法線
 62
    7
 10
148.42413105760727
 20
670.68908616188821
 40
15
 41
1
 50
90
  1
100
  0
LINE
  8
_0-5_寸法線
  6
CONTINUOUS
 62
    7
 10
148.42413105760727
 20
731.9390861618881
 11
145.83594060658208
 21
741.5983444247787
  0
LINE
  8
_0-5_寸法線
  6
CONTINUOUS
 62
    7
 10
148.42413105760727
 20
731.9390861618881
 11
151.01232150863245
 21
741.5983444247787
  0
LINE
  8
_0-5_寸法線
  6
CONTINUOUS
 62
    7
 10
188.4241310576077
 20
761.93908616188776
 11
143.42413105760727
 21
761.9390861618881
  0
LINE
  8
_0-5_寸法線
  6
CONTINUOUS
 62
    7
 10
148.42413105760727
 20
761.9390861618881
 11
151.0123215086324
 21
752.27982789899727
  0
LINE
  8
_0-5_寸法線
  6
CONTINUOUS
 62
    7
 10
148.42413105760727
 20
761.9390861618881
 11
145.835940606582
 21
752.27982789899727
  0
LINE
  8
_0-5_寸法線
  6
CONTINUOUS
 62
    7
 10
148.42413105760727
 20
731.9390861618881
 11
148.42413105760727
 21
761.9390861618881
  0
TEXT
  8
_0-5_寸法線
 62
    7
 10
148.42413105760727
 20
739.4390861618881
 40
15
 41
1
 50
90
  1
30
  0
LINE
  8
_0-5_寸法線
  6
CONTINUOUS
 62
    7
 10
228.43375000084436
 20
771.93908616188776
 11
228.43375000084427
 21
816.93908616188776
  0
LINE
  8
_0-5_寸法線
  6
CONTINUOUS
 62
    7
 10
228.43375000084427
 20
811.93908616188776
 11
238.09300826373502
 21
814.52727661291306
  0
LINE
  8
_0-5_寸法線
  6
CONTINUOUS
 62
    7
 10
228.43375000084427
 20
811.93908616188776
 11
238.09300826373502
 21
809.35089571086269
  0
LINE
  8
_0-5_寸法線
  6
CONTINUOUS
 62
    7
 10
1221.4337500008442
 20
771.93908616188776
 11
1221.4337500008442
 21
816.93908616188776
  0
LINE
  8
_0-5_寸法線
  6
CONTINUOUS
 62
    7
 10
1221.4337500008442
 20
811.93908616188776
 11
1211.7744917379534
 21
809.35089571086269
  0
LINE
  8
_0-5_寸法線
  6
CONTINUOUS
 62
    7
 10
1221.4337500008442
 20
811.93908616188776
 11
1211.7744917379534
 21
814.52727661291306
  0
LINE
  8
_0-5_寸法線
  6
CONTINUOUS
 62
    7
 10
228.43375000084427
 20
811.93908616188776
 11
1221.4337500008442
 21
811.93908616188776
  0
TEXT
  8
_0-5_寸法線
 62
    7
 10
713.68375000084427
 20
811.93908616188776
 40
15
 41
1
 50
0
  1
993
  0
TEXT
  8
_0-5_寸法線
 62
    7
 10
633.30850623203253
 20
544.12447591872808
 40
15
 41
0.8000000000000001
 50
0
  1
ＧＳＬ－２０
  0
TEXT
  8
_0-5_寸法線
 62
    7
 10
852.90859256645695
 20
544.12447591872808
 40
15
 41
0.8000000000000001
 50
0
  1
ＧＳＦＪ－２０Ｗ１５０
  0
TEXT
  8
_0-7_枠細線
 62
    5
 10
965.50000000000011
 20
110
 40
20
 41
0.6
 50
0
  1
ＧＳＦＪ－２０Ｗ１５０
  0
TEXT
  8
_0-7_枠細線
 62
    5
 10
965.49999999999966
 20
70
 40
20.000000000000004
 41
0.5999999999999997
 50
0
  1
表面形状については記号表参照のこと
  0
LINE
  8
_0-7_枠細線
  6
CONTINUOUS
 62
    5
 10
1409.4018171150183
 20
328.47321710336234
 11
1409.4018171150183
 21
223.47321710336274
  0
TEXT
  8
_0-7_枠細線
 62
    5
 10
1318.4018171150192
 20
308.47321710336234
 40
15.000000000000002
 41
0.8
 50
0
  1
ノンスリップ
  0
TEXT
  8
_0-7_枠細線
 62
    5
 10
1330.4018171150185
 20
283.47321710336234
 40
15.000000000000002
 41
0.8
 50
0
  1
品番－Ｄ
  0
LINE
  8
_0-7_枠細線
  6
CONTINUOUS
 62
    5
 10
1299.4018171150178
 20
328.47321710336234
 11
1299.4018171150178
 21
223.47321710336274
  0
TEXT
  8
_0-7_枠細線
 62
    5
 10
1220.4018171150178
 20
308.4732171033624
 40
15.000000000000002
 41
0.8
 50
0
  1
プレーン
  0
TEXT
  8
_0-7_枠細線
 62
    5
 10
1220.4018171150185
 20
283.47321710336234
 40
15.000000000000002
 41
0.8
 50
0
  1
品番－Ｆ
  0
TEXT
  8
_0-7_枠細線
 62
    5
 10
1140.4018171150183
 20
308.47321710336234
 40
15.000000000000002
 41
0.8
 50
0
  1
タ イ プ
  0
LINE
  8
_0-7_枠細線
  6
CONTINUOUS
 62
    5
 10
1139.4018171150174
 20
278.47321710336234
 11
1409.4018171150183
 21
278.47321710336234
  0
LINE
  8
_0-7_枠細線
  6
CONTINUOUS
 62
    5
 10
1139.4018171150174
 20
303.47321710336234
 11
1409.4018171150183
 21
303.47321710336234
  0
LINE
  8
_0-7_枠細線
  6
CONTINUOUS
 62
    5
 10
1139.4018171150174
 20
328.47321710336234
 11
1409.4018171150183
 21
328.47321710336234
  0
LINE
  8
_0-7_枠細線
  6
CONTINUOUS
 62
    5
 10
1139.4018171150174
 20
223.47321710336274
 11
1409.4018171150183
 21
223.47321710336274
  0
LINE
  8
_0-7_枠細線
  6
CONTINUOUS
 62
    5
 10
1189.4018171150183
 20
328.47321710336234
 11
1189.4018171150183
 21
223.47321710336274
  0
LINE
  8
_0-7_枠細線
  6
CONTINUOUS
 62
    5
 10
1139.4018171150174
 20
328.47321710336234
 11
1139.4018171150174
 21
223.47321710336274
  0
TEXT
  8
_0-7_枠細線
 62
    5
 10
1140.4018171150183
 20
243.47321710336257
 40
15.000000000000002
 41
0.8
 50
0
  1
表面形状
  0
TEXT
  8
_0-7_枠細線
 62
    5
 10
1147.1760284558286
 20
330.9732171033624
 40
17.500000000000004
 41
0.7999999999999996
 50
0
  1
記号表
  0
TEXT
  8
_0-7_枠細線
 62
    5
 10
1140.4018171150183
 20
283.47321710336246
 40
15.000000000000002
 41
0.8
 50
0
  1
記　　号
  0
ARC
  8
_0-7_枠細線
  6
CONTINUOUS
 62
    5
 10
1285.5023462775741
 20
245.17647202943709
 40
8.5903566658075761
 50
317.56162900000447
 51
42.438370999995371
  0
ARC
  8
_0-7_枠細線
  6
CONTINUOUS
 62
    5
 10
1190.621859620396
 20
245.17647202943709
 40
8.5903566658076702
 50
317.56162899999947
 51
42.43837100000087
  0
ARC
  8
_0-7_枠細線
  6
CONTINUOUS
 62
    5
 10
1203.3012879524622
 20
256.76996202827797
 40
8.5903566658076702
 50
137.56162899999987
 51
222.43837100000292
  0
ARC
  8
_0-7_枠細線
  6
CONTINUOUS
 62
    5
 10
1298.1817746096403
 20
256.76996202827797
 40
8.5903566658075761
 50
137.56162899999941
 51
222.4383710000034
  0
LINE
  8
_0-7_枠細線
  6
CONTINUOUS
 62
    5
 10
1194.8814809446508
 20
258.47321702885716
 11
1289.7619676018294
 21
258.47321702885716
  0
LINE
  8
_0-7_枠細線
  6
CONTINUOUS
 62
    5
 10
1293.9221532853853
 20
243.47321702885765
 11
1199.0416666282072
 21
243.47321702885765
  0
ARC
  8
_0-7_枠細線
  6
CONTINUOUS
 62
    5
 10
1301.122215453679
 20
245.17647202943706
 40
8.5903566658075761
 50
317.5616290000001
 51
42.438371000001837
  0
ARC
  8
_0-7_枠細線
  6
CONTINUOUS
 62
    5
 10
1313.8016437857441
 20
256.76996202827786
 40
8.5903566658075761
 50
137.56162900000044
 51
222.43837100000019
  0
ARC
  8
_0-7_枠細線
  6
CONTINUOUS
 62
    5
 10
1396.0027021108588
 20
245.17647202943706
 40
8.5903566658075761
 50
317.56162899999799
 51
42.438371000001837
  0
ARC
  8
_0-7_枠細線
  6
CONTINUOUS
 62
    5
 10
1408.6821304429236
 20
256.76996202827786
 40
8.5903566658075761
 50
137.56162900000146
 51
222.43837100000019
  0
LINE
  8
_0-7_枠細線
  6
CONTINUOUS
 62
    5
 10
1305.3818367779329
 20
258.47321702885711
 11
1400.2623234351113
 21
258.47321702885711
  0
LINE
  8
_0-7_枠細線
  6
CONTINUOUS
 62
    5
 10
1404.4225091186672
 20
243.47321702885762
 11
1309.5420224614893
 21
243.47321702885762
  0
LINE
  8
_0-7_枠細線
  6
CONTINUOUS
 62
    5
 10
1305.319542326198
 20
258.12944077976692
 11
1319.975766077107
 21
243.47321702885773
  0
LINE
  8
_0-7_枠細線
  6
CONTINUOUS
 62
    5
 10
1315.5823677949058
 20
258.47321702885711
 11
1330.5823677949052
 21
243.47321702885773
  0
LINE
  8
_0-7_枠細線
  6
CONTINUOUS
 62
    5
 10
1326.1889695127043
 20
258.47321702885711
 11
1341.1889695127034
 21
243.47321702885773
  0
LINE
  8
_0-7_枠細線
  6
CONTINUOUS
 62
    5
 10
1336.7955712305022
 20
258.47321702885711
 11
1351.7955712305015
 21
243.47321702885773
  0
LINE
  8
_0-7_枠細線
  6
CONTINUOUS
 62
    5
 10
1347.4021729483002
 20
258.47321702885711
 11
1362.4021729482997
 21
243.47321702885762
  0
LINE
  8
_0-7_枠細線
  6
CONTINUOUS
 62
    5
 10
1358.0087746660984
 20
258.47321702885711
 11
1373.0087746660977
 21
243.47321702885762
  0
LINE
  8
_0-7_枠細線
  6
CONTINUOUS
 62
    5
 10
1368.6153763838965
 20
258.47321702885711
 11
1383.6153763838959
 21
243.47321702885762
  0
LINE
  8
_0-7_枠細線
  6
CONTINUOUS
 62
    5
 10
1379.2219781016945
 20
258.47321702885711
 11
1394.2219781016943
 21
243.47321702885762
  0
LINE
  8
_0-7_枠細線
  6
CONTINUOUS
 62
    5
 10
1389.8285798194929
 20
258.47321702885711
 11
1404.4848035704022
 21
243.81699327794757
  0
LINE
  8
_0-7_枠細線
  6
CONTINUOUS
 62
    5
 10
1400.4351815372913
 20
243.47321702885762
 11
1404.3132122249604
 21
247.3512477165265
  0
LINE
  8
_0-7_枠細線
  6
CONTINUOUS
 62
    5
 10
1389.8285798194931
 20
243.47321702885762
 11
1400.502099021217
 21
254.14673623058133
  0
LINE
  8
_0-7_枠細線
  6
CONTINUOUS
 62
    5
 10
1379.2219781016952
 20
243.47321702885762
 11
1394.2219781016945
 21
258.47321702885711
  0
LINE
  8
_0-7_枠細線
  6
CONTINUOUS
 62
    5
 10
1368.6153763838968
 20
243.47321702885762
 11
1383.6153763838965
 21
258.47321702885711
  0
LINE
  8
_0-7_枠細線
  6
CONTINUOUS
 62
    5
 10
1358.0087746660988
 20
243.47321702885773
 11
1373.0087746660979
 21
258.47321702885711
  0
LINE
  8
_0-7_枠細線
  6
CONTINUOUS
 62
    5
 10
1347.4021729483004
 20
243.47321702885773
 11
1362.4021729482999
 21
258.47321702885711
  0
LINE
  8
_0-7_枠細線
  6
CONTINUOUS
 62
    5
 10
1336.7955712305022
 20
243.47321702885773
 11
1351.7955712305015
 21
258.47321702885711
  0
LINE
  8
_0-7_枠細線
  6
CONTINUOUS
 62
    5
 10
1326.1889695127038
 20
243.47321702885773
 11
1341.1889695127034
 21
258.47321702885711
  0
LINE
  8
_0-7_枠細線
  6
CONTINUOUS
 62
    5
 10
1315.5823677949056
 20
243.47321702885773
 11
1330.5823677949052
 21
258.47321702885711
  0
LINE
  8
_0-7_枠細線
  6
CONTINUOUS
 62
    5
 10
1309.3022468753834
 20
247.79969782713346
 11
1319.975766077107
 21
258.47321702885711
  0
LINE
  8
_0-7_枠細線
  6
CONTINUOUS
 62
    5
 10
1305.4911336716398
 20
254.59518634118811
 11
1309.369164359309
 21
258.47321702885711
  0
LINE
  8
_0-9_枠極太
  6
CONTINUOUS
 62
    5
 10
60
 20
60
 11
60
 21
960
  0
LINE
  8
_0-9_枠極太
  6
CONTINUOUS
 62
    5
 10
60
 20
960
 11
1425
 21
960
  0
LINE
  8
_0-9_枠極太
  6
CONTINUOUS
 62
    5
 10
1425
 20
960
 11
1425
 21
60
  0
LINE
  8
_0-9_枠極太
  6
CONTINUOUS
 62
    5
 10
1425
 20
60
 11
60
 21
60
  0
LINE
  8
_0-a_極細3
  6
CONTINUOUS
 62
    7
 10
607.59732664013382
 20
248.23477269402858
 11
603.76399330680044
 21
248.23477269402858
  0
LINE
  8
_0-a_極細3
  6
CONTINUOUS
 62
    7
 10
607.59732664013382
 20
251.56810602736203
 11
603.76399330680044
 21
251.56810602736203
  0
LINE
  8
_0-a_極細3
  6
CONTINUOUS
 62
    7
 10
607.59732664013382
 20
244.90143936069555
 11
603.76399330680044
 21
244.90143936069555
  0
LINE
  8
_0-a_極細3
  6
CONTINUOUS
 62
    7
 10
607.59732664013382
 20
254.90143936069555
 11
603.76399330680044
 21
254.90143936069555
  0
LINE
  8
_0-a_極細3
  6
CONTINUOUS
 62
    7
 10
603.76399330680044
 20
221.56810602736203
 11
607.59732664013382
 21
221.56810602736203
  0
LINE
  8
_0-a_極細3
  6
CONTINUOUS
 62
    7
 10
607.59732664013382
 20
271.56810602736203
 11
603.76399330680044
 21
271.56810602736203
  0
LINE
  8
_0-b_細線3
  6
CONTINUOUS
 62
    7
 10
603.76399330680044
 20
274.90143936069552
 11
603.76399330680044
 21
216.56810602736203
  0
LINE
  8
_0-b_細線3
  6
CONTINUOUS
 62
    7
 10
603.76399330680044
 20
216.56810602736203
 11
607.59732664013382
 21
216.56810602736203
  0
LINE
  8
_0-b_細線3
  6
CONTINUOUS
 62
    7
 10
607.59732664013382
 20
216.56810602736203
 11
607.59732664013382
 21
274.90143936069552
  0
LINE
  8
_0-b_細線3
  6
CONTINUOUS
 62
    7
 10
607.59732664013382
 20
274.90143936069552
 11
603.76399330680044
 21
274.90143936069552
  0
LINE
  8
_0-7_枠細線
  6
CONTINUOUS
 62
    5
 10
626.68319473337328
 20
252.63018935684931
 11
619.18319473337328
 21
267.63018935684931
  0
LINE
  8
_0-7_枠細線
  6
CONTINUOUS
 62
    5
 10
611.68319473337328
 20
252.63018935684931
 11
626.68319473337328
 21
252.63018935684931
  0
LINE
  8
_0-7_枠細線
  6
CONTINUOUS
 62
    5
 10
619.18319473337328
 20
267.63018935684931
 11
611.68319473337328
 21
252.63018935684931
  0
TEXT
  8
_0-7_枠細線
 62
    5
 10
614.0483460015214
 20
252.32318711146877
 40
12.5
 41
0.8
 50
0
  1
１
  0
LINE
  8
_0-a_極細3
  6
CONTINUOUS
 62
    7
 10
333.26399310350564
 20
248.23477217644151
 11
337.09732643683901
 21
248.23477217644151
  0
LINE
  8
_0-a_極細3
  6
CONTINUOUS
 62
    7
 10
333.26399310350564
 20
251.56810550977497
 11
337.09732643683901
 21
251.56810550977497
  0
LINE
  8
_0-a_極細3
  6
CONTINUOUS
 62
    7
 10
333.26399310350564
 20
244.90143884310845
 11
337.09732643683901
 21
244.90143884310845
  0
LINE
  8
_0-a_極細3
  6
CONTINUOUS
 62
    7
 10
333.26399310350564
 20
254.90143884310845
 11
337.09732643683901
 21
254.90143884310845
  0
LINE
  8
_0-a_極細3
  6
CONTINUOUS
 62
    7
 10
337.09732643683901
 20
221.56810550977497
 11
333.26399310350564
 21
221.56810550977497
  0
LINE
  8
_0-a_極細3
  6
CONTINUOUS
 62
    7
 10
333.26399310350564
 20
271.56810550977497
 11
337.09732643683901
 21
271.56810550977497
  0
LINE
  8
_0-b_細線3
  6
CONTINUOUS
 62
    7
 10
337.09732643683901
 20
274.90143884310845
 11
337.09732643683901
 21
216.56810550977497
  0
LINE
  8
_0-b_細線3
  6
CONTINUOUS
 62
    7
 10
337.09732643683901
 20
216.56810550977497
 11
333.26399310350564
 21
216.56810550977497
  0
LINE
  8
_0-b_細線3
  6
CONTINUOUS
 62
    7
 10
333.26399310350564
 20
216.56810550977497
 11
333.26399310350564
 21
274.90143884310845
  0
LINE
  8
_0-b_細線3
  6
CONTINUOUS
 62
    7
 10
333.26399310350564
 20
274.90143884310845
 11
337.09732643683901
 21
274.90143884310845
  0
LINE
  8
_0-d_寸法3
  6
CONTINUOUS
 62
    7
 10
323.26399310350564
 20
254.90143884310851
 11
281.14729535824961
 21
254.90143884310851
  0
LINE
  8
_0-d_寸法3
  6
CONTINUOUS
 62
    7
 10
286.14729535824961
 20
254.90143884310845
 11
288.73548580927491
 21
245.24218058021776
  0
LINE
  8
_0-d_寸法3
  6
CONTINUOUS
 62
    7
 10
286.14729535824961
 20
254.90143884310845
 11
283.55910490722442
 21
245.24218058021779
  0
LINE
  8
_0-d_寸法3
  6
CONTINUOUS
 62
    7
 10
323.26399310350564
 20
216.56810550977499
 11
281.14729535824961
 21
216.56810550977499
  0
LINE
  8
_0-d_寸法3
  6
CONTINUOUS
 62
    7
 10
286.14729535824961
 20
216.56810550977497
 11
283.55910490722442
 21
226.22736377266565
  0
LINE
  8
_0-d_寸法3
  6
CONTINUOUS
 62
    7
 10
286.14729535824961
 20
216.56810550977497
 11
288.73548580927491
 21
226.22736377266565
  0
LINE
  8
_0-d_寸法3
  6
CONTINUOUS
 62
    7
 10
286.14729535824961
 20
254.90143884310845
 11
286.14729535824961
 21
216.56810550977497
  0
TEXT
  8
_0-d_寸法3
 62
    7
 10
286.14729535824961
 20
228.23477217644171
 40
15
 41
1
 50
90
  1
23
  0
LINE
  8
_0-d_寸法3
  6
CONTINUOUS
 62
    7
 10
327.09732643683901
 20
293.23477245051527
 11
281.14729535824921
 21
293.23477245051521
  0
LINE
  8
_0-d_寸法3
  6
CONTINUOUS
 62
    7
 10
286.14729535824921
 20
293.23477245051521
 11
288.73548580927439
 21
283.57551418762449
  0
LINE
  8
_0-d_寸法3
  6
CONTINUOUS
 62
    7
 10
286.14729535824921
 20
293.23477245051521
 11
283.55910490722397
 21
283.57551418762455
  0
LINE
  8
_0-d_寸法3
  6
CONTINUOUS
 62
    7
 10
323.26399310350564
 20
254.90143884310837
 11
281.14729535824961
 21
254.90143884310794
  0
LINE
  8
_0-d_寸法3
  6
CONTINUOUS
 62
    7
 10
286.14729535824961
 20
254.90143884310797
 11
283.55910490722442
 21
264.56069710599866
  0
LINE
  8
_0-d_寸法3
  6
CONTINUOUS
 62
    7
 10
286.14729535824961
 20
254.90143884310797
 11
288.73548580927491
 21
264.56069710599866
  0
LINE
  8
_0-d_寸法3
  6
CONTINUOUS
 62
    7
 10
286.14729535824921
 20
293.23477245051521
 11
286.14729535824961
 21
254.90143884310797
  0
TEXT
  8
_0-d_寸法3
 62
    7
 10
286.14729535824961
 20
266.56810564681138
 40
15
 41
1
 50
90
  1
23
  0
LINE
  8
_0-7_枠細線
  6
CONTINUOUS
 62
    5
 10
1425
 20
907.5
 11
890
 21
907.5
  0
LINE
  8
_0-7_枠細線
  6
CONTINUOUS
 62
    5
 10
915
 20
908.94233397174708
 11
907.5
 21
923.94233397174708
  0
LINE
  8
_0-7_枠細線
  6
CONTINUOUS
 62
    5
 10
900
 20
908.94233397174708
 11
915
 21
908.94233397174708
  0
LINE
  8
_0-7_枠細線
  6
CONTINUOUS
 62
    5
 10
907.5
 20
923.94233397174708
 11
900
 21
908.94233397174708
  0
TEXT
  8
_0-7_枠細線
 62
    5
 10
902.36515126814822
 20
908.63533172636653
 40
12.5
 41
0.8
 50
0
  1
１
  0
TEXT
  8
_0-7_枠細線
 62
    5
 10
1180
 20
910
 40
12.5
 41
0.7199999999999999
 50
0
  1
２０１９．０９．０１
  0
TEXT
  8
_0-7_枠細線
 62
    5
 10
938.85037037037023
 20
910
 40
12.500000000000002
 41
1
 50
0
  1
アンカー材質･厚み変更
  0
LINE
  8
_0-7_枠細線
  6
CONTINUOUS
 62
    5
 10
890
 20
907.5
 11
890
 21
959.99999999999909
  0
LINE
  8
_0-7_枠細線
  6
CONTINUOUS
 62
    5
 10
925
 20
907.5
 11
925
 21
959.99999999999943
  0
LINE
  8
_0-7_枠細線
  6
CONTINUOUS
 62
    5
 10
1175
 20
907.5
 11
1175
 21
959.99999999999943
  0
LINE
  8
_0-7_枠細線
  6
CONTINUOUS
 62
    5
 10
1275
 20
907.5
 11
1275
 21
959.99999999999943
  0
LINE
  8
_0-5_寸法線
  6
CONTINUOUS
 62
    7
 10
1261.4433689440693
 20
601.93908616188742
 11
1306.3456879950695
 21
601.93908616188708
  0
LINE
  8
_0-5_寸法線
  6
CONTINUOUS
 62
    7
 10
1301.3456879950695
 20
601.93908616188708
 11
1303.9338784460947
 21
592.27982789899647
  0
LINE
  8
_0-5_寸法線
  6
CONTINUOUS
 62
    7
 10
1301.3456879950695
 20
601.93908616188708
 11
1298.7574975440443
 21
592.27982789899647
  0
LINE
  8
_0-5_寸法線
  6
CONTINUOUS
 62
    7
 10
1261.4433689440693
 20
604.9390861618873
 11
1306.3456879950695
 21
604.93908616188708
  0
CIRCLE
  8
_0-5_寸法線
  6
CONTINUOUS
 62
    1
 10
1301.3456879950695
 20
604.93908616188708
 40
1.5000000000000002
  0
LINE
  8
_0-5_寸法線
  6
CONTINUOUS
 62
    7
 10
1301.3456879950695
 20
576.93908616188708
 11
1301.3456879950695
 21
604.93908616188708
  0
TEXT
  8
_0-5_寸法線
 62
    7
 10
1301.3456879950695
 20
579.89149752366848
 40
15
 41
1
 50
90
  1
3
  0
LINE
  8
_0-5_寸法線
  6
CONTINUOUS
 62
    7
 10
1261.4433689440693
 20
606.93908616188742
 11
1306.3456879950695
 21
606.93908616188708
  0
LINE
  8
_0-5_寸法線
  6
CONTINUOUS
 62
    7
 10
1301.3456879950695
 20
604.93908616188708
 11
1301.3456879950695
 21
606.93908616188708
  0
TEXT
  8
_0-5_寸法線
 62
    7
 10
1322.458566374539
 20
604.44503163488548
 40
15
 41
1
 50
90
  1
2
  0
LINE
  8
_0-5_寸法線
  6
CONTINUOUS
 62
    7
 10
1301.3456879950695
 20
606.93908616188708
 11
1298.7574975440443
 21
616.59834442477779
  0
LINE
  8
_0-5_寸法線
  6
CONTINUOUS
 62
    7
 10
1301.3456879950695
 20
606.93908616188708
 11
1303.9338784460947
 21
616.59834442477779
  0
LINE
  8
_0-5_寸法線
  6
CONTINUOUS
 62
    7
 10
1261.4433689440693
 20
756.93908616188742
 11
1306.3456879950695
 21
756.93908616188708
  0
LINE
  8
_0-5_寸法線
  6
CONTINUOUS
 62
    7
 10
1301.3456879950695
 20
756.93908616188708
 11
1303.9338784460947
 21
747.27982789899647
  0
LINE
  8
_0-5_寸法線
  6
CONTINUOUS
 62
    7
 10
1301.3456879950695
 20
756.93908616188708
 11
1298.7574975440443
 21
747.27982789899647
  0
LINE
  8
_0-5_寸法線
  6
CONTINUOUS
 62
    7
 10
1301.3456879950695
 20
606.93908616188708
 11
1301.3456879950695
 21
756.93908616188708
  0
TEXT
  8
_0-5_寸法線
 62
    7
 10
1301.3456879950695
 20
670.68908616188708
 40
15
 41
1
 50
90
  1
150
  0
LINE
  8
_0-5_寸法線
  6
CONTINUOUS
 62
    7
 10
1261.4433689440693
 20
758.93908616188787
 11
1306.3456879950695
 21
758.93908616188753
  0
CIRCLE
  8
_0-5_寸法線
  6
CONTINUOUS
 62
    1
 10
1301.3456879950695
 20
758.93908616188753
 40
1.5000000000000002
  0
LINE
  8
_0-5_寸法線
  6
CONTINUOUS
 62
    7
 10
1301.3456879950695
 20
756.93908616188708
 11
1301.3456879950695
 21
758.93908616188753
  0
TEXT
  8
_0-5_寸法線
 62
    7
 10
1321.7598097502969
 20
751.28803893072632
 40
15
 41
1
 50
90
  1
2
  0
LINE
  8
_0-5_寸法線
  6
CONTINUOUS
 62
    7
 10
1261.4433689440693
 20
761.93908616188742
 11
1306.3456879950695
 21
761.93908616188708
  0
LINE
  8
_0-5_寸法線
  6
CONTINUOUS
 62
    7
 10
1301.3456879950695
 20
761.93908616188708
 11
1298.7574975440443
 21
771.59834442477791
  0
LINE
  8
_0-5_寸法線
  6
CONTINUOUS
 62
    7
 10
1301.3456879950695
 20
761.93908616188708
 11
1303.9338784460947
 21
771.59834442477791
  0
LINE
  8
_0-5_寸法線
  6
CONTINUOUS
 62
    7
 10
1301.3456879950695
 20
758.93908616188753
 11
1301.3456879950695
 21
786.93908616188708
  0
TEXT
  8
_0-5_寸法線
 62
    7
 10
1301.3456879950695
 20
773.87638662576012
 40
15
 41
1
 50
90
  1
3
  0
LINE
  8
_0-d_寸法3
  6
CONTINUOUS
 62
    7
 10
337.09732643683901
 20
378.23477245051521
 11
327.4380681739483
 21
375.64658199949002
  0
LINE
  8
_0-d_寸法3
  6
CONTINUOUS
 62
    7
 10
337.09732643683901
 20
378.23477245051521
 11
327.43806817394835
 21
380.82296290154045
  0
LINE
  8
_0-d_寸法3
  6
CONTINUOUS
 62
    7
 10
342.09732643683901
 20
297.40143911718172
 11
342.09732643683901
 21
383.23477245051521
  0
CIRCLE
  8
_0-d_寸法3
  6
CONTINUOUS
 62
    1
 10
342.09732643683901
 20
378.23477245051521
 40
1.5000000000000002
  0
LINE
  8
_0-d_寸法3
  6
CONTINUOUS
 62
    7
 10
312.0973264368389
 20
378.23477245051521
 11
342.09732643683901
 21
378.23477245051521
  0
TEXT
  8
_0-d_寸法3
 62
    7
 10
315.95265849291582
 20
378.23477245051521
 40
15
 41
1
 50
0
  1
3
  0
LINE
  8
_0-d_寸法3
  6
CONTINUOUS
 62
    7
 10
345.43065977017199
 20
294.90143744883738
 11
345.43065977017199
 21
383.23477245051521
  0
LINE
  8
_0-d_寸法3
  6
CONTINUOUS
 62
    7
 10
342.09732643683901
 20
378.23477245051521
 11
345.43065977017199
 21
378.23477245051521
  0
TEXT
  8
_0-d_寸法3
 62
    7
 10
340.01399310350502
 20
378.23477245051521
 40
15
 41
1
 50
0
  1
2
  0
LINE
  8
_0-d_寸法3
  6
CONTINUOUS
 62
    7
 10
345.43065977017199
 20
378.23477245051521
 11
355.08991803306265
 21
380.82296290154039
  0
LINE
  8
_0-d_寸法3
  6
CONTINUOUS
 62
    7
 10
345.43065977017199
 20
378.23477245051521
 11
355.08991803306265
 21
375.64658199949002
  0
LINE
  8
_0-d_寸法3
  6
CONTINUOUS
 62
    7
 10
595.43065977017204
 20
294.90143744883738
 11
595.43065977017204
 21
383.23477245051521
  0
LINE
  8
_0-d_寸法3
  6
CONTINUOUS
 62
    7
 10
595.43065977017204
 20
378.23477245051521
 11
585.77140150728133
 21
375.64658199949002
  0
LINE
  8
_0-d_寸法3
  6
CONTINUOUS
 62
    7
 10
595.43065977017204
 20
378.23477245051521
 11
585.77140150728133
 21
380.82296290154045
  0
LINE
  8
_0-d_寸法3
  6
CONTINUOUS
 62
    7
 10
345.43065977017199
 20
378.23477245051521
 11
595.43065977017204
 21
378.23477245051521
  0
TEXT
  8
_0-d_寸法3
 62
    7
 10
459.18065977017199
 20
378.23477245051521
 40
15
 41
1
 50
0
  1
150
  0
LINE
  8
_0-d_寸法3
  6
CONTINUOUS
 62
    7
 10
598.76399310350507
 20
297.40143911718172
 11
598.76399310350507
 21
383.23477245051521
  0
CIRCLE
  8
_0-d_寸法3
  6
CONTINUOUS
 62
    1
 10
598.76399310350507
 20
378.23477245051521
 40
1.5000000000000002
  0
LINE
  8
_0-d_寸法3
  6
CONTINUOUS
 62
    7
 10
595.43065977017204
 20
378.23477245051521
 11
598.76399310350507
 21
378.23477245051521
  0
TEXT
  8
_0-d_寸法3
 62
    7
 10
593.34732643683856
 20
378.23477245051521
 40
15
 41
1
 50
0
  1
2
  0
LINE
  8
_0-d_寸法3
  6
CONTINUOUS
 62
    7
 10
603.76399310350507
 20
378.23477245051521
 11
613.42325136639579
 21
380.82296290154034
  0
LINE
  8
_0-d_寸法3
  6
CONTINUOUS
 62
    7
 10
603.76399310350507
 20
378.23477245051521
 11
613.42325136639579
 21
375.64658199949002
  0
LINE
  8
_0-d_寸法3
  6
CONTINUOUS
 62
    7
 10
598.76399310350507
 20
378.23477245051521
 11
628.76399310350507
 21
378.23477245051521
  0
TEXT
  8
_0-d_寸法3
 62
    7
 10
618.0373893513015
 20
378.23477245051521
 40
15
 41
1
 50
0
  1
3
  0
ENDSEC
  0
EOF
