  0
SECTION
  2
HEADER
  9
$ACADVER
  1
AC1009
  9
$INSBASE
 10
0
 20
0
 30
0
  9
$EXTMIN
 10
0
 20
0
  9
$EXTMAX
 10
1485
 20
1050
  9
$LIMMIN
 10
0
 20
0
  9
$LIMMAX
 10
1485
 20
1050
  9
$LTSCALE
 40
5
  0
ENDSEC
  0
SECTION
  2
TABLES
  0
TABLE
  2
LTYPE
 70
     9
  0
LTYPE
  2
CONTINUOUS
 70
    64
  3
実線
 72
    65
 73
     0
 40
0.0
  0
LTYPE
  2
DASHED1
 70
    64
  3
--  --  --  --  --  --  --  --  
 72
    65
 73
     2
 40
2.5
 49
1.25
 49
-1.25
  0
LTYPE
  2
DASHED2
 70
    64
  3
----    ----    ----    ----    
 72
    65
 73
     2
 40
5.0
 49
2.5
 49
-2.5
  0
LTYPE
  2
DASHED3
 70
    64
  3
------  ------  ------  ------  
 72
    65
 73
     2
 40
5.0
 49
3.75
 49
-1.25
  0
LTYPE
  2
CENTER1
 70
    64
  3
----- - ----- - ----- - ----- - 
 72
    65
 73
     4
 40
10.0
 49
6.25
 49
-1.25
 49
1.25
 49
-1.25
  0
LTYPE
  2
CENTER2
 70
    64
  3
----------  --  ----------  --  
 72
    65
 73
     4
 40
20.0
 49
12.5
 49
-2.5
 49
2.5
 49
-2.5
  0
LTYPE
  2
PHANTOM1
 70
    64
  3
--- - - --- - - --- - - --- - - 
 72
    65
 73
     6
 40
10.0
 49
3.25
 49
-1.25
 49
1.25
 49
-1.25
 49
1.25
 49
-1.25
  0
LTYPE
  2
PHANTOM2
 70
    64
  3
--------  -  -  --------  -  -  
 72
    65
 73
     6
 40
20.0
 49
10.0
 49
-2.5
 49
1.25
 49
-2.5
 49
1.25
 49
-2.5
  0
LTYPE
  2
DOT
 70
    64
  3
-   -   -   -   -   -   -   -   
 72
    65
 73
     2
 40
2.5
 49
0.625
 49
-1.875
  0
LTYPE
  2
DUMMY
 70
    64
  3
ダミー
 72
    65
 73
     0
 40
0.0
  0
LTYPE
  2
RAND1
 70
    64
  3
ランダム線1
 72
    65
 73
     4
 40
10.0
 49
1.0
 49
-2.0
 49
3.0
 49
-4.0
  0
LTYPE
  2
RAND2
 70
    64
  3
ランダム線2
 72
    65
 73
     4
 40
14.0
 49
2.0
 49
-3.0
 49
4.0
 49
-5.0
  0
LTYPE
  2
RAND3
 70
    64
  3
ランダム線3
 72
    65
 73
     4
 40
18.0
 49
3.0
 49
-4.0
 49
5.0
 49
-6.0
  0
LTYPE
  2
RAND4
 70
    64
  3
ランダム線4
 72
    65
 73
     4
 40
22.0
 49
4.0
 49
-5.0
 49
6.0
 49
-7.0
  0
LTYPE
  2
RAND5
 70
    64
  3
ランダム線5
 72
    65
 73
     4
 40
26.0
 49
5.0
 49
-6.0
 49
7.0
 49
-8.0
  0
LTYPE
  2
LONG1
 70
    64
  3
----------  --  ----------  --  
 72
    65
 73
     4
 40
40.0
 49
32.5
 49
-2.5
 49
2.5
 49
-2.5
  0
LTYPE
  2
LONG2
 70
    64
  3
--------  -  -  --------  -  -  
 72
    65
 73
     6
 40
40.0
 49
30.0
 49
-2.5
 49
1.25
 49
-2.5
 49
1.25
 49
-2.5
  0
LTYPE
  2
LONG3
 70
    64
  3
+++++++++++++++..+++++++++++++++
 72
    65
 73
     2
 40
40.0
 49
37.5
 49
-2.5
  0
LTYPE
  2
LONG4
 70
    64
  3
+++++++++++++++..+++++++++++++++
 72
    65
 73
     2
 40
80.0
 49
75.0
 49
-5.0
  0
LTYPE
  2
LONG5
 70
    64
  3
----------  --  ----------  --  
 72
    65
 73
     4
 40
60.0
 49
37.5
 49
-7.5
 49
7.5
 49
-7.5
  0
LTYPE
  2
dashed
 70
   64
  3
-------   -------------   ------
 72
   65
 73
    2
 40
7.5
 49
6
 49
-1.5
  0
LTYPE
  2
dashed_spaced
 70
   64
  3
----        --------        ----
 72
   65
 73
    2
 40
12
 49
6
 49
-6
  0
LTYPE
  2
long_dashed_dotted
 70
   64
  3
------------- --- --------------
 72
   65
 73
    4
 40
15.25
 49
12
 49
-1.5
 49
0.25
 49
-1.5
  0
LTYPE
  2
long_dashed_double-dotted
 70
   64
  3
----------- --- --- ------------
 72
   65
 73
    6
 40
17
 49
12
 49
-1.5
 49
0.25
 49
-1.5
 49
0.25
 49
-1.5
  0
LTYPE
  2
long_dashed_triplicate-dotted
 70
   64
  3
--------- --- --- --- ----------
 72
   65
 73
    8
 40
18.75
 49
12
 49
-1.5
 49
0.25
 49
-1.5
 49
0.25
 49
-1.5
 49
0.25
 49
-1.5
  0
LTYPE
  2
dotted
 70
   64
  3
   -       -       -       -    
 72
   65
 73
    2
 40
1.75
 49
0.25
 49
-1.5
  0
LTYPE
  2
chain
 70
   64
  3
-------------- -- --------------
 72
   65
 73
    4
 40
18.5
 49
12
 49
-1.5
 49
3.5
 49
-1.5
  0
LTYPE
  2
chain_double_dash
 70
   64
  3
------------ -- -- -------------
 72
   65
 73
    6
 40
23.5
 49
12
 49
-1.5
 49
3.5
 49
-1.5
 49
3.5
 49
-1.5
  0
LTYPE
  2
dashed_dotted
 70
   64
  3
-----------     -     ----------
 72
   65
 73
    4
 40
9.25
 49
6
 49
-1.5
 49
0.25
 49
-1.5
  0
LTYPE
  2
double-dashed_dotted
 70
   64
  3
------   -----------   -   -----
 72
   65
 73
    6
 40
16.75
 49
6
 49
-1.5
 49
6
 49
-1.5
 49
0.25
 49
-1.5
  0
LTYPE
  2
dashed_double-dotted
 70
   64
  3
---------    -    -    ---------
 72
   65
 73
    6
 40
11
 49
6
 49
-1.5
 49
0.25
 49
-1.5
 49
0.25
 49
-1.5
  0
LTYPE
  2
double-dashed_double-dotted
 70
   64
  3
-----   ---------   -   -   ----
 72
   65
 73
    8
 40
18.5
 49
6
 49
-1.5
 49
6
 49
-1.5
 49
0.25
 49
-1.5
 49
0.25
 49
-1.5
  0
LTYPE
  2
dashed_triplicate-dotted
 70
   64
  3
-------    -    -    -    ------
 72
   65
 73
    8
 40
12.75
 49
6
 49
-1.5
 49
0.25
 49
-1.5
 49
0.25
 49
-1.5
 49
0.25
 49
-1.5
  0
LTYPE
  2
double-dashed_triplicate-dotted
 70
   64
  3
-----  ---------  -  -  -  -----
 72
   65
 73
   10
 40
20.25
 49
6
 49
-1.5
 49
6
 49
-1.5
 49
0.25
 49
-1.5
 49
0.25
 49
-1.5
 49
0.25
 49
-1.5
  0
LTYPE
  2
undefined
 70
   64
  3
--------------------------------
 72
   65
 73
    0
 40
0
  0
ENDTAB
  0
TABLE
  2
STYLE
  5
3
100
AcDbSymbolTable
 70
     1
  0
STYLE
  5
10
100
AcDbSymbolTableRecord
100
AcDbTextStyleTableRecord
  2
STANDARD
 70
     0
 40
0.0
 41
1.0
 50
0.0
 71
     0
 42
0.2
  3
txt
  4
bigfont.shx
  0
STYLE
  5
26
100
AcDbSymbolTableRecord
100
AcDbTextStyleTableRecord
  2
TATEGAKI
 70
    68
 40
0.0
 41
1.0
 50
0.0
 71
     0
 42
1.0
  3
txt
  4
bigfont.shx
  0
ENDTAB
  0
TABLE
  2
LAYER
 70
   10
  0
LAYER
  2
_0-0_計極細
 70
   64
 62
    7
  6
CONTINUOUS
  0
LAYER
  2
_0-1_計細線
 70
   64
 62
    7
  6
CONTINUOUS
  0
LAYER
  2
_0-5_寸法線
 70
   64
 62
    7
  6
CONTINUOUS
  0
LAYER
  2
_0-7_枠細線
 70
   64
 62
    7
  6
CONTINUOUS
  0
LAYER
  2
_0-8_枠中線
 70
   64
 62
    7
  6
CONTINUOUS
  0
LAYER
  2
_0-9_枠極太
 70
   64
 62
    7
  6
CONTINUOUS
  0
LAYER
  2
_0-a_極細3
 70
   64
 62
    7
  6
CONTINUOUS
  0
LAYER
  2
_0-b_細線3
 70
   64
 62
    7
  6
CONTINUOUS
  0
LAYER
  2
_0-d_寸法3
 70
   64
 62
    7
  6
CONTINUOUS
  0
LAYER
  2
ADD_LINE
 70
   64
 62
    7
  6
CONTINUOUS
  0
ENDTAB
  0
ENDSEC
  0
SECTION
  2
BLOCKS
  0
ENDSEC
  0
SECTION
  2
ENTITIES
  0
LINE
  8
_0-7_枠細線
  6
CONTINUOUS
 62
    5
 10
1425
 20
942.5
 11
890
 21
942.5
  0
TEXT
  8
_0-7_枠細線
 62
    5
 10
895
 20
945
 40
12.5
 41
1
 50
0
  1
記号
  0
TEXT
  8
_0-7_枠細線
 62
    5
 10
996.875
 20
945
 40
12.5
 41
1
 50
0
  1
訂　 正　 記　 事
  0
TEXT
  8
_0-7_枠細線
 62
    5
 10
1181.25
 20
945
 40
12.5
 41
1
 50
0
  1
訂 正 年 月 日
  0
TEXT
  8
_0-7_枠細線
 62
    5
 10
1306.25
 20
945
 40
12.5
 41
1
 50
0
  1
備　　　　　考
  0
LINE
  8
_0-7_枠細線
  6
CONTINUOUS
 62
    5
 10
1185
 20
180
 11
1185
 21
100
  0
TEXT
  8
_0-7_枠細線
 62
    5
 10
937.5
 20
97.5
 40
17.5
 41
1
 50
0
  1
備考
  7
TATEGAKI
  0
TEXT
  8
_0-7_枠細線
 62
    5
 10
937.5
 20
137.5
 40
17.5
 41
1
 50
0
  1
品番
  7
TATEGAKI
  0
TEXT
  8
_0-7_枠細線
 62
    5
 10
937.5
 20
177.5
 40
17.5
 41
1
 50
0
  1
品名
  7
TATEGAKI
  0
LINE
  8
_0-7_枠細線
  6
CONTINUOUS
 62
    5
 10
1185
 20
140
 11
925
 21
140
  0
LINE
  8
_0-7_枠細線
  6
CONTINUOUS
 62
    5
 10
950
 20
180
 11
950
 21
60
  0
LINE
  8
_0-8_枠中線
  6
CONTINUOUS
 62
    5
 10
1425
 20
180
 11
925
 21
180
  0
LINE
  8
_0-8_枠中線
  6
CONTINUOUS
 62
    5
 10
925
 20
180
 11
925
 21
60
  0
LINE
  8
_0-7_枠細線
  6
CONTINUOUS
 62
    5
 10
1245
 20
180
 11
1245
 21
60
  0
TEXT
  8
_0-7_枠細線
 62
    5
 10
1192.5
 20
160
 40
15
 41
1
 50
0
  1
縮　尺
  0
TEXT
  8
_0-7_枠細線
 62
    5
 10
1194
 20
117.5
 40
20
 41
0.7000000000000001
 50
0
  1
１：５
  0
LINE
  8
_0-7_枠細線
  6
CONTINUOUS
 62
    5
 10
1185
 20
155
 11
1245
 21
155
  0
LINE
  8
_0-7_枠細線
  6
CONTINUOUS
 62
    5
 10
1245
 20
100
 11
925
 21
100
  0
LINE
  8
_0-7_枠細線
  6
CONTINUOUS
 62
    5
 10
1425
 20
90
 11
1245
 21
90
  0
LINE
  8
_0-7_枠細線
  6
CONTINUOUS
 62
    5
 10
1245
 20
120
 11
1425
 21
120
  0
LINE
  8
_0-7_枠細線
  6
CONTINUOUS
 62
    5
 10
1425
 20
140
 11
1245
 21
140
  0
TEXT
  8
_0-7_枠細線
 62
    5
 10
1255
 20
147.5
 40
25
 41
0.8
 50
0
  1
株式会社シマブン
  0
TEXT
  8
_0-7_枠細線
 62
    5
 10
1252.5
 20
60
 40
15
 41
1
 50
0
  1
年月日
  0
TEXT
  8
_0-7_枠細線
 62
    5
 10
1252.5
 20
75
 40
15
 41
1
 50
0
  1
作　成
  0
TEXT
  8
_0-7_枠細線
 62
    5
 10
1256.25
 20
122.5
 40
15
 41
1
 50
0
  1
承 認
  0
LINE
  8
_0-7_枠細線
  6
CONTINUOUS
 62
    5
 10
1305
 20
140
 11
1305
 21
60
  0
TEXT
  8
_0-7_枠細線
 62
    5
 10
1316.25
 20
122.5
 40
15
 41
1
 50
0
  1
検 図
  0
LINE
  8
_0-7_枠細線
  6
CONTINUOUS
 62
    5
 10
1365
 20
140
 11
1365
 21
90
  0
TEXT
  8
_0-7_枠細線
 62
    5
 10
1375
 20
95
 40
20
 41
1
 50
0
  1
藤戸
  0
TEXT
  8
_0-7_枠細線
 62
    5
 10
1376.25
 20
122.5
 40
15
 41
1
 50
0
  1
設 計
  0
TEXT
  8
_0-7_枠細線
 62
    5
 10
1310
 20
67.5
 40
15
 41
0.6666666666666666
 50
0
  1
２０１１年０７月０４日
  0
TEXT
  8
_0-7_枠細線
 62
    5
 10
1255
 20
95
 40
20
 41
1
 50
0
  1
隠塚
  0
TEXT
  8
_0-7_枠細線
 62
    5
 10
1315
 20
95
 40
20
 41
1
 50
0
  1
渋田
  0
TEXT
  8
_0-7_枠細線
 62
    5
 10
965.50000000000011
 20
150
 40
20
 41
0.5
 50
0
  1
Ｆバー ステンレスグレーチング Ｈ２０タイプ
  0
LINE
  8
_0-7_枠細線
  6
CONTINUOUS
 62
    5
 10
1425
 20
925
 11
890
 21
925
  0
TEXT
  8
_0-7_枠細線
 62
    5
 10
938.85037037037023
 20
927.5
 40
12.500000000000002
 41
1
 50
0
  1
品番変更
  0
TEXT
  8
_0-7_枠細線
 62
    5
 10
1180
 20
927.5
 40
12.5
 41
0.7199999999999999
 50
0
  1
２０１５．０４．０１
  0
LINE
  8
_0-b_細線3
  6
CONTINUOUS
 62
    7
 10
1023.0924657623791
 20
293.23477256232161
 11
1018.0924657623791
 21
293.23477256232161
  0
LINE
  8
_0-b_細線3
  6
CONTINUOUS
 62
    7
 10
1018.0924657623791
 20
293.23477256232161
 11
1018.0924657623791
 21
259.90143922898824
  0
LINE
  8
_0-b_細線3
  6
CONTINUOUS
 62
    7
 10
1018.0924657623791
 20
259.90143922898824
 11
1023.0924657623791
 21
259.90143922898824
  0
LINE
  8
_0-b_細線3
  6
CONTINUOUS
 62
    7
 10
1023.0924657623791
 20
259.90143922898824
 11
1023.0924657623791
 21
293.23477256232161
  0
ARC
  8
_0-b_細線3
  6
CONTINUOUS
 62
    7
 10
1012.2591324290433
 20
284.13755034009534
 40
14.236111111107119
 50
245.81048584600504
 51
294.1895141539959
  0
ARC
  8
_0-b_細線3
  6
CONTINUOUS
 62
    7
 10
1012.2591324290433
 20
275.66532811788113
 40
14.236111111107119
 50
65.810485846003758
 51
114.18951415399458
  0
LINE
  8
_0-b_細線3
  6
CONTINUOUS
 62
    7
 10
1006.4257990957127
 20
293.23477256232161
 11
1001.4257990957127
 21
293.23477256232161
  0
LINE
  8
_0-b_細線3
  6
CONTINUOUS
 62
    7
 10
1001.4257990957127
 20
293.23477256232161
 11
1001.4257990957127
 21
259.90143922898824
  0
LINE
  8
_0-b_細線3
  6
CONTINUOUS
 62
    7
 10
1001.4257990957127
 20
259.90143922898824
 11
1006.4257990957127
 21
259.90143922898824
  0
LINE
  8
_0-b_細線3
  6
CONTINUOUS
 62
    7
 10
1006.4257990957127
 20
259.90143922898824
 11
1006.4257990957127
 21
293.23477256232161
  0
ARC
  8
_0-b_細線3
  6
CONTINUOUS
 62
    7
 10
995.59246576237683
 20
284.13755034009534
 40
14.236111111107119
 50
245.81048584600504
 51
294.18951415399425
  0
ARC
  8
_0-b_細線3
  6
CONTINUOUS
 62
    7
 10
995.59246576237683
 20
275.66532811788113
 40
14.236111111107119
 50
65.81048584600542
 51
114.18951415399458
  0
LINE
  8
_0-b_細線3
  6
CONTINUOUS
 62
    7
 10
989.75913242904562
 20
293.23477256232161
 11
984.75913242904562
 21
293.23477256232161
  0
LINE
  8
_0-b_細線3
  6
CONTINUOUS
 62
    7
 10
984.75913242904562
 20
293.23477256232161
 11
984.75913242904562
 21
259.90143922898824
  0
LINE
  8
_0-b_細線3
  6
CONTINUOUS
 62
    7
 10
984.75913242904562
 20
259.90143922898824
 11
989.75913242904562
 21
259.90143922898824
  0
LINE
  8
_0-b_細線3
  6
CONTINUOUS
 62
    7
 10
989.75913242904562
 20
259.90143922898824
 11
989.75913242904562
 21
293.23477256232161
  0
ARC
  8
_0-b_細線3
  6
CONTINUOUS
 62
    7
 10
978.92579909571043
 20
284.13755034009534
 40
14.236111111107119
 50
245.81048584600342
 51
294.18951415399425
  0
ARC
  8
_0-b_細線3
  6
CONTINUOUS
 62
    7
 10
978.92579909571043
 20
275.66532811788113
 40
14.236111111107119
 50
65.81048584600542
 51
114.18951415399626
  0
LINE
  8
_0-b_細線3
  6
CONTINUOUS
 62
    7
 10
973.09246576237911
 20
293.23477256232161
 11
968.09246576237911
 21
293.23477256232161
  0
LINE
  8
_0-b_細線3
  6
CONTINUOUS
 62
    7
 10
968.09246576237911
 20
293.23477256232161
 11
968.09246576237911
 21
259.90143922898824
  0
LINE
  8
_0-b_細線3
  6
CONTINUOUS
 62
    7
 10
968.09246576237911
 20
259.90143922898824
 11
973.09246576237911
 21
259.90143922898824
  0
LINE
  8
_0-b_細線3
  6
CONTINUOUS
 62
    7
 10
973.09246576237911
 20
259.90143922898824
 11
973.09246576237911
 21
293.23477256232161
  0
ARC
  8
_0-b_細線3
  6
CONTINUOUS
 62
    7
 10
962.25913242904335
 20
284.13755034009534
 40
14.236111111107119
 50
245.81048584600504
 51
294.1895141539959
  0
ARC
  8
_0-b_細線3
  6
CONTINUOUS
 62
    7
 10
962.25913242904335
 20
275.66532811788113
 40
14.236111111107119
 50
65.810485846003758
 51
114.18951415399458
  0
LINE
  8
_0-b_細線3
  6
CONTINUOUS
 62
    7
 10
956.4257990957127
 20
293.23477256232161
 11
951.4257990957127
 21
293.23477256232161
  0
LINE
  8
_0-b_細線3
  6
CONTINUOUS
 62
    7
 10
951.4257990957127
 20
293.23477256232161
 11
951.4257990957127
 21
259.90143922898824
  0
LINE
  8
_0-b_細線3
  6
CONTINUOUS
 62
    7
 10
951.4257990957127
 20
259.90143922898824
 11
956.4257990957127
 21
259.90143922898824
  0
LINE
  8
_0-b_細線3
  6
CONTINUOUS
 62
    7
 10
956.4257990957127
 20
259.90143922898824
 11
956.4257990957127
 21
293.23477256232161
  0
ARC
  8
_0-b_細線3
  6
CONTINUOUS
 62
    7
 10
945.59246576237683
 20
284.13755034009534
 40
14.236111111107119
 50
245.81048584600504
 51
294.18951415399425
  0
ARC
  8
_0-b_細線3
  6
CONTINUOUS
 62
    7
 10
945.59246576237683
 20
275.66532811788113
 40
14.236111111107119
 50
65.81048584600542
 51
114.18951415399458
  0
LINE
  8
_0-b_細線3
  6
CONTINUOUS
 62
    7
 10
939.75913242904562
 20
293.23477256232161
 11
934.75913242904562
 21
293.23477256232161
  0
LINE
  8
_0-b_細線3
  6
CONTINUOUS
 62
    7
 10
934.75913242904562
 20
293.23477256232161
 11
934.75913242904562
 21
259.90143922898824
  0
LINE
  8
_0-b_細線3
  6
CONTINUOUS
 62
    7
 10
934.75913242904562
 20
259.90143922898824
 11
939.75913242904562
 21
259.90143922898824
  0
LINE
  8
_0-b_細線3
  6
CONTINUOUS
 62
    7
 10
939.75913242904562
 20
259.90143922898824
 11
939.75913242904562
 21
293.23477256232161
  0
ARC
  8
_0-b_細線3
  6
CONTINUOUS
 62
    7
 10
928.92579909571043
 20
284.13755034009534
 40
14.236111111107119
 50
245.81048584600342
 51
294.18951415399425
  0
ARC
  8
_0-b_細線3
  6
CONTINUOUS
 62
    7
 10
928.92579909571043
 20
275.66532811788113
 40
14.236111111107119
 50
65.81048584600542
 51
114.18951415399626
  0
LINE
  8
_0-b_細線3
  6
CONTINUOUS
 62
    7
 10
923.09246576237911
 20
293.23477256232161
 11
918.09246576237911
 21
293.23477256232161
  0
LINE
  8
_0-b_細線3
  6
CONTINUOUS
 62
    7
 10
918.09246576237911
 20
293.23477256232161
 11
918.09246576237911
 21
259.90143922898824
  0
LINE
  8
_0-b_細線3
  6
CONTINUOUS
 62
    7
 10
918.09246576237911
 20
259.90143922898824
 11
923.09246576237911
 21
259.90143922898824
  0
LINE
  8
_0-b_細線3
  6
CONTINUOUS
 62
    7
 10
923.09246576237911
 20
259.90143922898824
 11
923.09246576237911
 21
293.23477256232161
  0
ARC
  8
_0-a_極細3
  6
CONTINUOUS
 62
    7
 10
1047.0502552126668
 20
287.35022690917992
 40
22.826491478025751
 50
150.03871396148196
 51
205.23810402387866
  0
ARC
  8
_0-a_極細3
  6
CONTINUOUS
 62
    7
 10
1005.7551374657993
 20
267.88466493276007
 40
22.826491478025751
 50
330.03871396148207
 51
25.238104023877916
  0
LINE
  8
_0-d_寸法3
  6
CONTINUOUS
 62
    7
 10
970.59246576237911
 20
303.23477256232422
 11
970.59246576237911
 21
350.47204532146418
  0
LINE
  8
_0-d_寸法3
  6
CONTINUOUS
 62
    7
 10
970.59246576237911
 20
345.47204532146418
 11
980.25172402526994
 21
348.06023577248936
  0
LINE
  8
_0-d_寸法3
  6
CONTINUOUS
 62
    7
 10
970.59246576237911
 20
345.47204532146418
 11
980.25172402526994
 21
342.88385487043905
  0
LINE
  8
_0-d_寸法3
  6
CONTINUOUS
 62
    7
 10
987.25913242904562
 20
303.23477256232161
 11
987.25913242904562
 21
350.47204532146418
  0
LINE
  8
_0-d_寸法3
  6
CONTINUOUS
 62
    7
 10
987.25913242904562
 20
345.47204532146418
 11
977.59987416615502
 21
342.88385487043905
  0
LINE
  8
_0-d_寸法3
  6
CONTINUOUS
 62
    7
 10
987.25913242904562
 20
345.47204532146418
 11
977.59987416615502
 21
348.06023577248942
  0
LINE
  8
_0-d_寸法3
  6
CONTINUOUS
 62
    7
 10
970.59246576237911
 20
345.47204532146418
 11
987.25913242904562
 21
345.47204532146418
  0
TEXT
  8
_0-d_寸法3
 62
    7
 10
971.4257990957127
 20
345.47204532146418
 40
15
 41
1
 50
0
  1
10
  0
LINE
  8
_0-d_寸法3
  6
CONTINUOUS
 62
    7
 10
987.25913242904562
 20
345.47204532146418
 11
996.91839069193634
 21
348.06023577248931
  0
LINE
  8
_0-d_寸法3
  6
CONTINUOUS
 62
    7
 10
987.25913242904562
 20
345.47204532146418
 11
996.91839069193634
 21
342.883854870439
  0
LINE
  8
_0-d_寸法3
  6
CONTINUOUS
 62
    7
 10
1003.9257990957127
 20
303.23477256232161
 11
1003.9257990957127
 21
350.47204532146418
  0
LINE
  8
_0-d_寸法3
  6
CONTINUOUS
 62
    7
 10
1003.9257990957127
 20
345.47204532146418
 11
994.26654083282187
 21
342.88385487043905
  0
LINE
  8
_0-d_寸法3
  6
CONTINUOUS
 62
    7
 10
1003.9257990957127
 20
345.47204532146418
 11
994.26654083282187
 21
348.06023577248942
  0
LINE
  8
_0-d_寸法3
  6
CONTINUOUS
 62
    7
 10
987.25913242904562
 20
345.47204532146418
 11
1003.9257990957127
 21
345.47204532146418
  0
TEXT
  8
_0-d_寸法3
 62
    7
 10
988.09246576237967
 20
345.47204532146418
 40
15
 41
1
 50
0
  1
10
  0
LINE
  8
_0-d_寸法3
  6
CONTINUOUS
 62
    7
 10
923.09246576237865
 20
303.23477256232422
 11
923.09246576237865
 21
350.47204532146418
  0
LINE
  8
_0-d_寸法3
  6
CONTINUOUS
 62
    7
 10
923.09246576237865
 20
345.47204532146418
 11
913.43320749948805
 21
342.88385487043905
  0
LINE
  8
_0-d_寸法3
  6
CONTINUOUS
 62
    7
 10
923.09246576237865
 20
345.47204532146418
 11
913.43320749948805
 21
348.06023577248942
  0
LINE
  8
_0-d_寸法3
  6
CONTINUOUS
 62
    7
 10
934.75913242904562
 20
303.23477256232422
 11
934.75913242904562
 21
350.47204532146418
  0
CIRCLE
  8
_0-d_寸法3
  6
CONTINUOUS
 62
    1
 10
934.75913242904562
 20
345.47204532146418
 40
1.5000000000000002
  0
LINE
  8
_0-d_寸法3
  6
CONTINUOUS
 62
    7
 10
898.09246576237865
 20
345.47204532146418
 11
934.75913242904562
 21
345.47204532146418
  0
TEXT
  8
_0-d_寸法3
 62
    7
 10
907.99331213419339
 20
345.47204532146418
 40
15
 41
1
 50
0
  1
7
  0
LINE
  8
_0-d_寸法3
  6
CONTINUOUS
 62
    7
 10
939.75913242904562
 20
303.23477256232161
 11
939.75913242904562
 21
350.47204532146418
  0
LINE
  8
_0-d_寸法3
  6
CONTINUOUS
 62
    7
 10
939.75913242904562
 20
345.47204532146418
 11
949.41839069193634
 21
348.06023577248931
  0
LINE
  8
_0-d_寸法3
  6
CONTINUOUS
 62
    7
 10
939.75913242904562
 20
345.47204532146418
 11
949.41839069193634
 21
342.883854870439
  0
LINE
  8
_0-d_寸法3
  6
CONTINUOUS
 62
    7
 10
934.75913242904562
 20
345.47204532146418
 11
964.75913242904562
 21
345.47204532146418
  0
TEXT
  8
_0-d_寸法3
 62
    7
 10
941.3259870313118
 20
345.47204532146418
 40
15
 41
1
 50
0
  1
3
  0
ARC
  8
_0-b_細線3
  6
CONTINUOUS
 62
    7
 10
912.2591324290438
 20
284.13755034009534
 40
14.236111111107119
 50
245.81048584600342
 51
294.18951415399425
  0
ARC
  8
_0-b_細線3
  6
CONTINUOUS
 62
    7
 10
912.2591324290438
 20
275.66532811788113
 40
14.236111111107119
 50
65.81048584600542
 51
114.18951415399626
  0
LINE
  8
_0-b_細線3
  6
CONTINUOUS
 62
    7
 10
906.4257990957127
 20
293.23477256232161
 11
901.4257990957127
 21
293.23477256232161
  0
LINE
  8
_0-b_細線3
  6
CONTINUOUS
 62
    7
 10
901.4257990957127
 20
293.23477256232161
 11
901.4257990957127
 21
259.90143922898824
  0
LINE
  8
_0-b_細線3
  6
CONTINUOUS
 62
    7
 10
901.4257990957127
 20
259.90143922898824
 11
906.4257990957127
 21
259.90143922898824
  0
LINE
  8
_0-b_細線3
  6
CONTINUOUS
 62
    7
 10
906.4257990957127
 20
259.90143922898824
 11
906.4257990957127
 21
293.23477256232161
  0
ARC
  8
_0-a_極細3
  6
CONTINUOUS
 62
    7
 10
918.32025575588762
 20
287.35022690918015
 40
22.826491478025751
 50
150.03871396148196
 51
205.23810402387866
  0
ARC
  8
_0-a_極細3
  6
CONTINUOUS
 62
    7
 10
877.02513800902
 20
267.8846649327603
 40
22.826491478025751
 50
330.03871396148207
 51
25.238104023877916
  0
LINE
  8
_0-b_細線3
  6
CONTINUOUS
 62
    7
 10
896.26530538975794
 20
293.23477256232422
 11
1024.9953048465368
 21
293.23477256232422
  0
LINE
  8
_0-b_細線3
  6
CONTINUOUS
 62
    7
 10
898.41010517193638
 20
259.90143922898824
 11
1027.1401046287151
 21
259.90143922898824
  0
LINE
  8
_0-a_極細3
  6
CENTER1
 62
    7
 10
1033.4065398364507
 20
279.90143922898801
 11
888.59007893110686
 21
279.90143922898801
  0
LINE
  8
_0-d_寸法3
  6
CONTINUOUS
 62
    7
 10
1037.1401046287158
 20
259.90143922898812
 11
1067.5370798010085
 21
259.90143922898784
  0
LINE
  8
_0-d_寸法3
  6
CONTINUOUS
 62
    7
 10
1062.5370798010085
 20
259.9014392289879
 11
1059.9488893499833
 21
269.56069749187856
  0
LINE
  8
_0-d_寸法3
  6
CONTINUOUS
 62
    7
 10
1062.5370798010085
 20
259.9014392289879
 11
1065.1252702520337
 21
269.56069749187856
  0
LINE
  8
_0-d_寸法3
  6
CONTINUOUS
 62
    7
 10
1034.995304846537
 20
293.23477256232411
 11
1067.5370798010085
 21
293.23477256232377
  0
LINE
  8
_0-d_寸法3
  6
CONTINUOUS
 62
    7
 10
1062.5370798010085
 20
293.23477256232383
 11
1065.1252702520337
 21
283.57551429943317
  0
LINE
  8
_0-d_寸法3
  6
CONTINUOUS
 62
    7
 10
1062.5370798010085
 20
293.23477256232383
 11
1059.9488893499833
 21
283.57551429943317
  0
LINE
  8
_0-d_寸法3
  6
CONTINUOUS
 62
    7
 10
1062.5370798010085
 20
259.9014392289879
 11
1062.5370798010085
 21
293.23477256232383
  0
TEXT
  8
_0-d_寸法3
 62
    7
 10
1062.5370798010085
 20
269.06810589565589
 40
15
 41
1
 50
90
  1
20
  0
TEXT
  8
_0-7_枠細線
 62
    5
 10
913.27945023908626
 20
216.58931365246718
 40
25
 41
0.8
 50
0
  1
側面詳細図
  0
TEXT
  8
_0-7_枠細線
 62
    5
 10
972.45044880558351
 20
193.30336451795404
 40
20
 41
0.6
 50
0
  1
Ｓ＝１：３
  0
LINE
  8
_0-a_極細3
  6
CENTER1
 62
    7
 10
470.43065977017199
 20
243.71560987248449
 11
470.43065977017199
 21
307.1656098724909
  0
LINE
  8
_0-d_寸法3
  6
CONTINUOUS
 62
    7
 10
462.23913932728209
 20
265.63720372144485
 11
426.88679760159658
 21
290.39117989113561
  0
LINE
  8
_0-d_寸法3
  6
CONTINUOUS
 62
    7
 10
430.98255782304159
 20
287.52329770938036
 11
428.3943673720164
 21
297.18255597227102
  0
LINE
  8
_0-d_寸法3
  6
CONTINUOUS
 62
    7
 10
430.98255782304159
 20
287.52329770938036
 11
433.57074827406677
 21
297.18255597227102
  0
LINE
  8
_0-d_寸法3
  6
CONTINUOUS
 62
    7
 10
462.23913932728209
 20
298.97053705477833
 11
426.88679760159658
 21
323.72451322446915
  0
LINE
  8
_0-d_寸法3
  6
CONTINUOUS
 62
    7
 10
430.98255782304159
 20
320.85663104271384
 11
433.57074827406677
 21
311.19737277982313
  0
LINE
  8
_0-d_寸法3
  6
CONTINUOUS
 62
    7
 10
430.98255782304159
 20
320.85663104271384
 11
428.39436737201629
 21
311.19737277982318
  0
LINE
  8
_0-d_寸法3
  6
CONTINUOUS
 62
    7
 10
430.98255782304159
 20
287.52329770938036
 11
430.98255782304159
 21
320.85663104271384
  0
TEXT
  8
_0-d_寸法3
 62
    7
 10
430.98255782304159
 20
296.68996437604687
 40
15
 41
1
 50
90
  1
20
  0
TEXT
  8
_0-7_枠細線
 62
    5
 10
420.50861213093816
 20
109.90107435625625
 40
25
 41
0.8
 50
0
  1
断面詳細図
  0
TEXT
  8
_0-7_枠細線
 62
    5
 10
535.45758188010586
 20
109.90107435625625
 40
20
 41
0.6
 50
0
  1
Ｓ＝１：３
  0
ARC
  8
_0-b_細線3
  6
CONTINUOUS
 62
    7
 10
470.43065977017159
 20
279.9014393579339
 40
8.75
 50
294.03943363457506
 51
65.960566365424228
  0
ARC
  8
_0-b_細線3
  6
CONTINUOUS
 62
    7
 10
470.43065977017159
 20
279.9014393579339
 40
8.75
 50
114.03943363457542
 51
245.96056636541877
  0
ARC
  8
_0-b_細線3
  6
CONTINUOUS
 62
    7
 10
470.43065977016425
 20
274.06810602454311
 40
2.4999999999928004
 50
179.99999999999983
 51
359.99999999999966
  0
LINE
  8
_0-b_細線3
  6
CONTINUOUS
 62
    7
 10
467.93065977017159
 20
285.73477269126738
 11
467.93065977017159
 21
274.06810602460064
  0
ARC
  8
_0-b_細線3
  6
CONTINUOUS
 62
    7
 10
470.43065977016425
 20
285.73477269133923
 40
2.5000000000072005
 50
0
 51
179.99999999999983
  0
LINE
  8
_0-b_細線3
  6
CONTINUOUS
 62
    7
 10
472.93065977017159
 20
274.06810602460064
 11
472.93065977017159
 21
285.73477269126738
  0
ARC
  8
_0-b_細線3
  6
CONTINUOUS
 62
    7
 10
470.43065977017704
 20
274.06810602458177
 40
4.1666666666723522
 50
179.99999999999983
 51
359.99999999999966
  0
LINE
  8
_0-b_細線3
  6
CONTINUOUS
 62
    7
 10
466.26399310350553
 20
285.73477269126738
 11
466.26399310350553
 21
274.06810602460064
  0
ARC
  8
_0-b_細線3
  6
CONTINUOUS
 62
    7
 10
470.43065977013885
 20
285.73477269136515
 40
4.1666666667000154
 50
0
 51
179.99999999999983
  0
LINE
  8
_0-b_細線3
  6
CONTINUOUS
 62
    7
 10
474.5973264368385
 20
274.06810602460064
 11
474.5973264368385
 21
285.73477269126738
  0
LINE
  8
_0-a_極細3
  6
CONTINUOUS
 62
    7
 10
228.76399310350507
 20
248.23477269126761
 11
228.76399310350507
 21
179.90143935793441
  0
LINE
  8
_0-a_極細3
  6
CONTINUOUS
 62
    7
 10
312.0973264368385
 20
179.90143935793441
 11
228.76399310350507
 21
179.90143935793441
  0
LINE
  8
_0-a_極細3
  6
CONTINUOUS
 62
    7
 10
228.76399310350507
 20
248.23477269126761
 11
197.91957929172389
 21
248.23477269126761
  0
LINE
  8
_0-a_極細3
  6
CONTINUOUS
 62
    7
 10
312.0973264368385
 20
179.90143935793441
 11
312.0973264368385
 21
153.6598390631552
  0
LINE
  8
_0-a_極細3
  6
CONTINUOUS
 62
    7
 10
274.6753518718487
 20
153.65983917959213
 11
300.91695205019136
 21
179.90143935793441
  0
LINE
  8
_0-a_極細3
  6
CONTINUOUS
 62
    7
 10
203.96467397320748
 20
153.65983939960529
 11
230.20627393153646
 21
179.90143935793441
  0
LINE
  8
_0-a_極細3
  6
CONTINUOUS
 62
    7
 10
197.91957929172389
 20
218.32542283677665
 11
227.82892914621513
 21
248.23477269126761
  0
LINE
  8
_0-a_極細3
  6
CONTINUOUS
 62
    7
 10
267.60428408198447
 20
153.65983920159351
 11
293.8458842383256
 21
179.90143935793441
  0
LINE
  8
_0-a_極細3
  6
CONTINUOUS
 62
    7
 10
197.91957929172389
 20
154.68581252998732
 11
228.76399310350507
 21
185.5302263417687
  0
LINE
  8
_0-a_極細3
  6
CONTINUOUS
 62
    7
 10
197.91957929172389
 20
225.39649064864219
 11
220.75786133434931
 21
248.23477269126761
  0
LINE
  8
_0-a_極細3
  6
CONTINUOUS
 62
    7
 10
260.53321629212076
 20
153.6598392235949
 11
286.77481642646029
 21
179.90143935793441
  0
LINE
  8
_0-a_極細3
  6
CONTINUOUS
 62
    7
 10
197.91957929172389
 20
161.75688034185285
 11
228.76399310350507
 21
192.60129415363423
  0
LINE
  8
_0-a_極細3
  6
CONTINUOUS
 62
    7
 10
197.91957929172389
 20
232.46755846050746
 11
213.68679352248407
 21
248.23477269126761
  0
CIRCLE
  8
_0-a_極細3
  6
CONTINUOUS
 62
    7
 10
215.81546713489109
 20
263.43818310792767
 40
0.5530864197530718
  0
CIRCLE
  8
_0-a_極細3
  6
CONTINUOUS
 62
    7
 10
205.48460293736071
 20
253.48262755237215
 40
0.5530864197530718
  0
CIRCLE
  8
_0-a_極細3
  6
CONTINUOUS
 62
    7
 10
216.09201034476783
 20
254.54929421903876
 40
0.5530864197530718
  0
CIRCLE
  8
_0-a_極細3
  6
CONTINUOUS
 62
    7
 10
228.71423256699018
 20
256.50484977459428
 40
0.5530864197530718
  0
CIRCLE
  8
_0-a_極細3
  6
CONTINUOUS
 62
    7
 10
257.15867701143401
 20
268.23818310792763
 40
0.5530864197530718
  0
CIRCLE
  8
_0-a_極細3
  6
CONTINUOUS
 62
    7
 10
282.04756590032275
 20
278.19373866348315
 40
0.5530864197530718
  0
CIRCLE
  8
_0-a_極細3
  6
CONTINUOUS
 62
    7
 10
287.73645478921151
 20
262.01596088570545
 40
0.5530864197530718
  0
CIRCLE
  8
_0-a_極細3
  6
CONTINUOUS
 62
    7
 10
262.84756590032288
 20
261.48262755237215
 40
0.5530864197530718
  0
CIRCLE
  8
_0-a_極細3
  6
CONTINUOUS
 62
    7
 10
251.11423256698976
 20
276.41596088570532
 40
0.5530864197530718
  0
CIRCLE
  8
_0-a_極細3
  6
CONTINUOUS
 62
    7
 10
235.65867701143446
 20
249.24929421903883
 40
0.5530864197530718
  0
CIRCLE
  8
_0-a_極細3
  6
CONTINUOUS
 62
    7
 10
256.10312145587841
 20
248.00484977459431
 40
0.5530864197530718
  0
CIRCLE
  8
_0-a_極細3
  6
CONTINUOUS
 62
    7
 10
281.16978812254501
 20
244.27151644126116
 40
0.5530864197530718
  0
CIRCLE
  8
_0-a_極細3
  6
CONTINUOUS
 62
    7
 10
268.54756590032264
 20
238.58262755237232
 40
0.5530864197530718
  0
CIRCLE
  8
_0-a_極細3
  6
CONTINUOUS
 62
    7
 10
253.79201034476765
 20
225.07151644126111
 40
0.5530864197530718
  0
CIRCLE
  8
_0-a_極細3
  6
CONTINUOUS
 62
    7
 10
281.16978812254501
 20
232.36040533015014
 40
0.5530864197530718
  0
CIRCLE
  8
_0-a_極細3
  6
CONTINUOUS
 62
    7
 10
240.05867701143416
 20
205.24929421903926
 40
0.5530864197530718
  0
CIRCLE
  8
_0-a_極細3
  6
CONTINUOUS
 62
    7
 10
234.36978812254523
 20
187.29373866348374
 40
0.5530864197530718
  0
CIRCLE
  8
_0-a_極細3
  6
CONTINUOUS
 62
    7
 10
243.08089923365642
 20
194.04929421903921
 40
0.5530864197530718
  0
CIRCLE
  8
_0-a_極細3
  6
CONTINUOUS
 62
    7
 10
249.30312145587862
 20
185.51596088570591
 40
0.5530864197530718
  0
CIRCLE
  8
_0-a_極細3
  6
CONTINUOUS
 62
    7
 10
288.60312145587841
 20
203.40484977459482
 40
0.5530864197530718
  0
CIRCLE
  8
_0-a_極細3
  6
CONTINUOUS
 62
    7
 10
277.40312145587848
 20
197.8937386634837
 40
0.5530864197530718
  0
CIRCLE
  8
_0-a_極細3
  6
CONTINUOUS
 62
    7
 10
283.62534367810071
 20
195.40484977459485
 40
0.5530864197530718
  0
CIRCLE
  8
_0-a_極細3
  6
CONTINUOUS
 62
    7
 10
280.06978812254499
 20
186.16040533015052
 40
0.5530864197530718
  0
CIRCLE
  8
_0-a_極細3
  6
CONTINUOUS
 62
    7
 10
299.98089923365615
 20
187.22707199681713
 40
0.5530864197530718
  0
CIRCLE
  8
_0-a_極細3
  6
CONTINUOUS
 62
    7
 10
312.95867701143379
 20
190.42707199681715
 40
0.5530864197530718
  0
CIRCLE
  8
_0-a_極細3
  6
CONTINUOUS
 62
    7
 10
326.6475659003226
 20
175.49373866348404
 40
0.5530864197530718
  0
CIRCLE
  8
_0-a_極細3
  6
CONTINUOUS
 62
    7
 10
319.71423256698927
 20
160.56040533015064
 40
0.5530864197530718
  0
CIRCLE
  8
_0-a_極細3
  6
CONTINUOUS
 62
    7
 10
303.0475659003227
 20
204.17522014496512
 40
0.5530864197530718
  0
CIRCLE
  8
_0-a_極細3
  6
CONTINUOUS
 62
    7
 10
317.80312145587811
 20
238.30855347829836
 40
0.5530864197530718
  0
CIRCLE
  8
_0-a_極細3
  6
CONTINUOUS
 62
    7
 10
332.91423256698909
 20
228.35299792274284
 40
0.5530864197530718
  0
CIRCLE
  8
_0-a_極細3
  6
CONTINUOUS
 62
    7
 10
333.44756590032233
 20
210.39744236718732
 40
0.5530864197530718
  0
CIRCLE
  8
_0-a_極細3
  6
CONTINUOUS
 62
    7
 10
298.20312145587826
 20
240.13077570052045
 40
0.5530864197530718
  0
CIRCLE
  8
_0-a_極細3
  6
CONTINUOUS
 62
    7
 10
277.91423256698948
 20
262.1147263178043
 40
1.825531472681392
  0
CIRCLE
  8
_0-a_極細3
  6
CONTINUOUS
 62
    7
 10
226.1521128655545
 20
269.04434059250207
 40
1.825531472681392
  0
CIRCLE
  8
_0-a_極細3
  6
CONTINUOUS
 62
    7
 10
252.69201034476737
 20
239.31472631780437
 40
1.825531472681392
  0
CIRCLE
  8
_0-a_極細3
  6
CONTINUOUS
 62
    7
 10
233.09201034476743
 20
201.31472631780483
 40
1.825531472681392
  0
CIRCLE
  8
_0-a_極細3
  6
CONTINUOUS
 62
    7
 10
286.29201034476682
 20
188.5147263178051
 40
1.825531472681392
  0
CIRCLE
  8
_0-a_極細3
  6
CONTINUOUS
 62
    7
 10
322.26978812254447
 20
184.91472631780516
 40
1.825531472681392
  0
CIRCLE
  8
_0-a_極細3
  6
CONTINUOUS
 62
    7
 10
327.06978812254414
 20
166.24805965113865
 40
1.825531472681392
  0
CIRCLE
  8
_0-a_極細3
  6
CONTINUOUS
 62
    7
 10
205.95503332447507
 20
269.93694854002638
 40
1.825531472681392
  0
LINE
  8
_0-a_極細3
  6
CONTINUOUS
 62
    7
 10
344.5973264368385
 20
254.90143935793438
 11
345.43065977017199
 21
254.90143935793438
  0
LINE
  8
_0-a_極細3
  6
CONTINUOUS
 62
    7
 10
345.43065977017199
 20
254.90143935793438
 11
345.43065977017199
 21
153.6598390631552
  0
CIRCLE
  8
_0-a_極細3
  6
CONTINUOUS
 62
    7
 10
338.54322562254305
 20
238.91472631780493
 40
1.825531472681392
  0
CIRCLE
  8
_0-a_極細3
  6
CONTINUOUS
 62
    7
 10
337.55126960402595
 20
184.204849774595
 40
0.5530864197530718
  0
CIRCLE
  8
_0-a_極細3
  6
CONTINUOUS
 62
    7
 10
338.88460293735983
 20
161.54877874142514
 40
0.5530864197530718
  0
CIRCLE
  8
_0-a_極細3
  6
CONTINUOUS
 62
    7
 10
326.51423256698484
 20
219.80361520669408
 40
1.825531472681392
  0
LINE
  8
_0-a_極細3
  6
CONTINUOUS
 62
    7
 10
287.0973264368385
 20
293.23477269126784
 11
287.0973264368385
 21
281.56810602460087
  0
LINE
  8
_0-a_極細3
  6
CONTINUOUS
 62
    7
 10
287.0973264368385
 20
293.23477269126784
 11
197.91957929172389
 21
293.23477269126784
  0
LINE
  8
_0-a_極細3
  6
CONTINUOUS
 62
    7
 10
295.43065977017199
 20
281.56810602460087
 11
197.91957929172389
 21
281.56810602460087
  0
LINE
  8
_0-a_極細3
  6
CONTINUOUS
 62
    7
 10
295.43065977017199
 20
293.23477269126784
 11
287.0973264368385
 21
293.23477269126784
  0
LINE
  8
_0-a_極細3
  6
CONTINUOUS
 62
    7
 10
295.43065977017199
 20
292.40143935793435
 11
295.43065977017199
 21
293.23477269126784
  0
LINE
  8
_0-a_極細3
  6
CONTINUOUS
 62
    7
 10
295.23256951381245
 20
281.56810602460087
 11
295.43065977017147
 21
281.76619628096046
  0
LINE
  8
_0-a_極細3
  6
CONTINUOUS
 62
    7
 10
290.98992882669336
 20
281.56810602460087
 11
295.43065977017199
 21
286.00883696807955
  0
LINE
  8
_0-a_極細3
  6
CONTINUOUS
 62
    7
 10
287.0973264368385
 20
281.91814432186561
 11
295.43065977017199
 21
290.25147765519887
  0
LINE
  8
_0-a_極細3
  6
CONTINUOUS
 62
    7
 10
287.0973264368385
 20
286.1607850089847
 11
294.17131411912123
 21
293.23477269126784
  0
LINE
  8
_0-a_極細3
  6
CONTINUOUS
 62
    7
 10
287.0973264368385
 20
290.40342569610425
 11
289.92867343200209
 21
293.23477269126784
  0
LINE
  8
_0-a_極細3
  6
CONTINUOUS
 62
    7
 10
295.43065977017199
 20
290.95380581900918
 11
293.14969289791355
 21
293.23477269126784
  0
LINE
  8
_0-a_極細3
  6
CONTINUOUS
 62
    7
 10
295.43065977017199
 20
286.71116513188986
 11
288.90705221079401
 21
293.23477269126784
  0
LINE
  8
_0-a_極細3
  6
CONTINUOUS
 62
    7
 10
287.0973264368385
 20
290.80185777810402
 11
295.43065977017199
 21
282.46852444477076
  0
LINE
  8
_0-a_極細3
  6
CONTINUOUS
 62
    7
 10
287.0973264368385
 20
286.5592170909847
 11
292.08843750322188
 21
281.56810602460087
  0
LINE
  8
_0-a_極細3
  6
CONTINUOUS
 62
    7
 10
287.0973264368385
 20
282.31657640386538
 11
287.84579681610285
 21
281.56810602460087
  0
LINE
  8
_0-a_極細3
  6
CONTINUOUS
 62
    7
 10
278.26200675920791
 20
281.5681060184736
 11
287.0973264368385
 21
290.40342569610425
  0
LINE
  8
_0-a_極細3
  6
CONTINUOUS
 62
    7
 10
257.0488033089004
 20
281.56810600376252
 11
268.71546999640572
 21
293.23477269126761
  0
LINE
  8
_0-a_極細3
  6
CONTINUOUS
 62
    7
 10
235.83559985859253
 20
281.56810598905099
 11
247.50226656080889
 21
293.23477269126784
  0
LINE
  8
_0-a_極細3
  6
CONTINUOUS
 62
    7
 10
214.62239640828457
 20
281.56810597433991
 11
226.28906312521252
 21
293.23477269126784
  0
LINE
  8
_0-a_極細3
  6
CONTINUOUS
 62
    7
 10
197.91957929172389
 20
286.07849229337512
 11
205.07585968961621
 21
293.23477269126761
  0
LINE
  8
_0-a_極細3
  6
DASHED2
 62
    7
 10
267.65540503405418
 20
281.56810601111806
 11
279.32207171420384
 21
293.23477269126784
  0
LINE
  8
_0-a_極細3
  6
DASHED2
 62
    7
 10
246.44220158374623
 20
281.56810599640676
 11
258.10886827860759
 21
293.23477269126784
  0
LINE
  8
_0-a_極細3
  6
DASHED2
 62
    7
 10
225.22899813343884
 20
281.56810598169545
 11
236.89566484301068
 21
293.23477269126784
  0
LINE
  8
_0-a_極細3
  6
DASHED2
 62
    7
 10
204.01579468313088
 20
281.56810596698438
 11
215.68246140741437
 21
293.23477269126784
  0
CIRCLE
  8
_0-a_極細3
  6
CONTINUOUS
 62
    7
 10
265.61052886328611
 20
273.62583742891388
 40
1.825531472681392
  0
LINE
  8
_0-a_極細3
  6
CONTINUOUS
 62
    7
 10
251.7905915496867
 20
204.78314052043785
 11
246.66028939980151
 21
218.87852983222641
  0
LINE
  8
_0-a_極細3
  6
CONTINUOUS
 62
    7
 10
301.78463422348284
 20
238.94215053147263
 11
306.91493637336811
 21
224.84676121968417
  0
LINE
  8
_0-a_極細3
  6
CONTINUOUS
 62
    7
 10
246.66028939980151
 20
218.87852983222641
 11
301.78463422348284
 21
238.94215053147263
  0
LINE
  8
_0-a_極細3
  6
CONTINUOUS
 62
    7
 10
251.7905915496867
 20
204.78314052043785
 11
306.91493637336811
 21
224.84676121968417
  0
LINE
  8
_0-a_極細3
  6
CENTER1
 62
    7
 10
244.27000708275131
 20
210.02720513630223
 11
308.30102756531733
 21
233.33259062133766
  0
LINE
  8
_0-a_極細3
  6
CONTINUOUS
 62
    7
 10
270.43065977017199
 20
179.90143935793441
 11
270.43065977017199
 21
223.98700070625046
  0
LINE
  8
_0-a_極細3
  6
CONTINUOUS
 62
    7
 10
270.43065977017199
 20
223.98700070625046
 11
255.43065977017199
 21
223.98700070625046
  0
LINE
  8
_0-a_極細3
  6
CONTINUOUS
 62
    7
 10
255.43065977017199
 20
223.98700070625046
 11
255.43065977017199
 21
179.90143935793441
  0
CIRCLE
  8
_0-a_極細3
  6
CONTINUOUS
 62
    7
 10
284.81052886328598
 20
209.82336829311319
 40
1.825531472681392
  0
CIRCLE
  8
_0-a_極細3
  6
CONTINUOUS
 62
    7
 10
306.51917083859462
 20
216.04559051533556
 40
1.825531472681392
  0
LINE
  8
_0-a_極細3
  6
CENTER1
 62
    7
 10
262.93065977017199
 20
171.62469907348145
 11
262.93065977017199
 21
228.26272087085999
  0
LINE
  8
_0-d_寸法3
  6
CONTINUOUS
 62
    7
 10
295.43065977017199
 20
206.56810602460112
 11
295.43065977017199
 21
189.42341412369572
  0
LINE
  8
_0-d_寸法3
  6
CONTINUOUS
 62
    7
 10
295.43065977017199
 20
194.42341412369572
 11
305.08991803306265
 21
197.01160457472093
  0
LINE
  8
_0-d_寸法3
  6
CONTINUOUS
 62
    7
 10
295.43065977017199
 20
194.42341412369572
 11
305.08991803306265
 21
191.83522367267045
  0
LINE
  8
_0-d_寸法3
  6
CONTINUOUS
 62
    7
 10
345.43065977017187
 20
244.90143935793438
 11
345.43065977017102
 21
189.42341412369572
  0
LINE
  8
_0-d_寸法3
  6
CONTINUOUS
 62
    7
 10
345.43065977017108
 20
194.42341412369572
 11
335.77140150728036
 21
191.83522367267051
  0
LINE
  8
_0-d_寸法3
  6
CONTINUOUS
 62
    7
 10
345.43065977017108
 20
194.42341412369572
 11
335.77140150728042
 21
197.01160457472099
  0
LINE
  8
_0-d_寸法3
  6
CONTINUOUS
 62
    7
 10
295.43065977017199
 20
194.42341412369572
 11
345.43065977017108
 21
194.42341412369572
  0
TEXT
  8
_0-d_寸法3
 62
    7
 10
312.93065977017147
 20
194.42341412369572
 40
15
 41
1
 50
0
  1
30
  0
ARC
  8
_0-b_細線3
  6
CONTINUOUS
 62
    7
 10
300.43065977017199
 20
259.90143935793435
 40
5
 50
179.99999999999983
 51
269.99999999999977
  0
LINE
  8
_0-b_細線3
  6
CONTINUOUS
 62
    7
 10
295.43065977017199
 20
259.90143935793435
 11
295.43065977017199
 21
292.40143935793435
  0
LINE
  8
_0-b_細線3
  6
CONTINUOUS
 62
    7
 10
300.43065977017199
 20
254.90143935793438
 11
344.5973264368385
 21
254.90143935793438
  0
LINE
  8
_0-b_細線3
  6
CONTINUOUS
 62
    7
 10
345.43065977017199
 20
255.73477269126761
 11
344.5973264368385
 21
254.90143935793438
  0
LINE
  8
_0-b_細線3
  6
CONTINUOUS
 62
    7
 10
345.43065977017199
 20
259.06810602460109
 11
345.43065977017199
 21
255.73477269126761
  0
LINE
  8
_0-b_細線3
  6
CONTINUOUS
 62
    7
 10
344.5973264368385
 20
259.90143935793435
 11
345.43065977017199
 21
259.06810602460109
  0
LINE
  8
_0-b_細線3
  6
CONTINUOUS
 62
    7
 10
300.43065977017199
 20
259.90143935793435
 11
344.5973264368385
 21
259.90143935793435
  0
LINE
  8
_0-b_細線3
  6
CONTINUOUS
 62
    7
 10
296.26399310350507
 20
293.23477269126784
 11
295.43065977017199
 21
292.40143935793435
  0
LINE
  8
_0-b_細線3
  6
CONTINUOUS
 62
    7
 10
299.5973264368385
 20
293.23477269126784
 11
296.26399310350507
 21
293.23477269126784
  0
LINE
  8
_0-b_細線3
  6
CONTINUOUS
 62
    7
 10
300.43065977017199
 20
292.40143935793435
 11
299.5973264368385
 21
293.23477269126784
  0
LINE
  8
_0-b_細線3
  6
CONTINUOUS
 62
    7
 10
300.43065977017199
 20
259.90143935793435
 11
300.43065977017199
 21
292.40143935793435
  0
LINE
  8
_0-b_細線3
  6
CONTINUOUS
 62
    7
 10
308.76399310350507
 20
259.9014393579339
 11
308.76399310350507
 21
293.23477269126715
  0
LINE
  8
_0-b_細線3
  6
CONTINUOUS
 62
    7
 10
308.76399310350507
 20
293.23477269126715
 11
303.76399310350507
 21
293.23477269126715
  0
LINE
  8
_0-b_細線3
  6
CONTINUOUS
 62
    7
 10
303.76399310350507
 20
293.23477269126715
 11
303.76399310350507
 21
259.9014393579339
  0
LINE
  8
_0-b_細線3
  6
CONTINUOUS
 62
    7
 10
303.76399310350507
 20
259.9014393579339
 11
308.76399310350507
 21
259.9014393579339
  0
LINE
  8
_0-a_極細3
  6
CONTINUOUS
 62
    7
 10
712.0973264368381
 20
248.23477269126761
 11
712.0973264368381
 21
179.90143935793441
  0
LINE
  8
_0-a_極細3
  6
CONTINUOUS
 62
    7
 10
628.76399310350507
 20
179.90143935793441
 11
712.0973264368381
 21
179.90143935793441
  0
LINE
  8
_0-a_極細3
  6
CONTINUOUS
 62
    7
 10
712.0973264368381
 20
248.23477269126761
 11
742.94174024861968
 21
248.23477269126761
  0
LINE
  8
_0-a_極細3
  6
CONTINUOUS
 62
    7
 10
628.76399310350507
 20
179.90143935793441
 11
628.76399310350507
 21
153.6598390631552
  0
LINE
  8
_0-a_極細3
  6
CONTINUOUS
 62
    7
 10
720.38732885143145
 20
153.6598390631552
 11
742.94174029016051
 21
176.21425050188421
  0
LINE
  8
_0-a_極細3
  6
CONTINUOUS
 62
    7
 10
649.67665073277658
 20
153.6598390631552
 11
675.91825102755547
 21
179.90143935793441
  0
LINE
  8
_0-a_極細3
  6
CONTINUOUS
 62
    7
 10
712.0973264368381
 20
216.08051476721698
 11
742.94174024937502
 21
246.92492857975392
  0
LINE
  8
_0-a_極細3
  6
CONTINUOUS
 62
    7
 10
713.31626103956569
 20
153.6598390631552
 11
742.94174028608177
 21
183.28531830967137
  0
LINE
  8
_0-a_極細3
  6
CONTINUOUS
 62
    7
 10
642.60558292091093
 20
153.6598390631552
 11
668.84718321569028
 21
179.90143935793441
  0
LINE
  8
_0-a_極細3
  6
CONTINUOUS
 62
    7
 10
712.0973264368381
 20
223.15158257908251
 11
737.18051636947303
 21
248.23477251171724
  0
LINE
  8
_0-a_極細3
  6
CONTINUOUS
 62
    7
 10
706.24519322770038
 20
153.6598390631552
 11
742.94174028200314
 21
190.35638611745824
  0
LINE
  8
_0-a_極細3
  6
CONTINUOUS
 62
    7
 10
635.53451510904551
 20
153.6598390631552
 11
661.77611540382486
 21
179.90143935793441
  0
LINE
  8
_0-a_極細3
  6
CONTINUOUS
 62
    7
 10
712.0973264368381
 20
230.22265039094805
 11
730.10944860822394
 21
248.23477256233332
  0
CIRCLE
  8
_0-a_極細3
  6
CONTINUOUS
 62
    7
 10
615.16978812254229
 20
238.75577570052045
 40
0.5530864197530718
  0
CIRCLE
  8
_0-a_極細3
  6
CONTINUOUS
 62
    7
 10
625.12534367809758
 20
243.55577570052037
 40
0.5530864197530718
  0
CIRCLE
  8
_0-a_極細3
  6
CONTINUOUS
 62
    7
 10
621.03645478920907
 20
218.57799792274295
 40
0.5530864197530718
  0
CIRCLE
  8
_0-a_極細3
  6
CONTINUOUS
 62
    7
 10
638.56978812254238
 20
201.55577570052088
 40
0.5530864197530718
  0
CIRCLE
  8
_0-a_極細3
  6
CONTINUOUS
 62
    7
 10
620.73645478920889
 20
178.2557757005211
 40
0.5530864197530718
  0
CIRCLE
  8
_0-a_極細3
  6
CONTINUOUS
 62
    7
 10
611.40312145587586
 20
160.38910903385457
 40
0.5530864197530718
  0
CIRCLE
  8
_0-a_極細3
  6
CONTINUOUS
 62
    7
 10
622.8697881225421
 20
190.25577570052093
 40
0.5530864197530718
  0
CIRCLE
  8
_0-a_極細3
  6
CONTINUOUS
 62
    7
 10
636.73645478920889
 20
185.45577570052089
 40
0.5530864197530718
  0
CIRCLE
  8
_0-a_極細3
  6
CONTINUOUS
 62
    7
 10
663.66978812254229
 20
185.7224423671876
 40
0.5530864197530718
  0
CIRCLE
  8
_0-a_極細3
  6
CONTINUOUS
 62
    7
 10
651.66978812254229
 20
194.78910903385417
 40
0.5530864197530718
  0
CIRCLE
  8
_0-a_極細3
  6
CONTINUOUS
 62
    7
 10
662.86978812254222
 20
200.38910903385414
 40
0.5530864197530718
  0
CIRCLE
  8
_0-a_極細3
  6
CONTINUOUS
 62
    7
 10
653.38089923365305
 20
274.41133125607553
 40
0.5530864197530718
  0
CIRCLE
  8
_0-a_極細3
  6
CONTINUOUS
 62
    7
 10
650.892010344764
 20
254.67799792274241
 40
0.5530864197530718
  0
CIRCLE
  8
_0-a_極細3
  6
CONTINUOUS
 62
    7
 10
671.42534367809731
 20
253.96688681163141
 40
0.5530864197530718
  0
CIRCLE
  8
_0-a_極細3
  6
CONTINUOUS
 62
    7
 10
659.82534367809751
 20
239.96688681163141
 40
0.5530864197530718
  0
CIRCLE
  8
_0-a_極細3
  6
CONTINUOUS
 62
    7
 10
699.02534367809722
 20
186.76688681163205
 40
0.5530864197530718
  0
CIRCLE
  8
_0-a_極細3
  6
CONTINUOUS
 62
    7
 10
706.22534367809703
 20
200.76688681163205
 40
0.5530864197530718
  0
CIRCLE
  8
_0-a_極細3
  6
CONTINUOUS
 62
    7
 10
704.62534367809667
 20
221.56688681163178
 40
0.5530864197530718
  0
CIRCLE
  8
_0-a_極細3
  6
CONTINUOUS
 62
    7
 10
686.62534367809712
 20
242.76688681163162
 40
0.5530864197530718
  0
CIRCLE
  8
_0-a_極細3
  6
CONTINUOUS
 62
    7
 10
703.42534367809685
 20
262.36688681163128
 40
0.5530864197530718
  0
CIRCLE
  8
_0-a_極細3
  6
CONTINUOUS
 62
    7
 10
700.62534367809678
 20
235.56688681163155
 40
0.5530864197530718
  0
CIRCLE
  8
_0-a_極細3
  6
CONTINUOUS
 62
    7
 10
730.22534367809658
 20
256.76688681163137
 40
0.5530864197530718
  0
CIRCLE
  8
_0-a_極細3
  6
CONTINUOUS
 62
    7
 10
725.4253436780964
 20
270.53694854002629
 40
1.825531472681392
  0
CIRCLE
  8
_0-a_極細3
  6
CONTINUOUS
 62
    7
 10
709.78089923365235
 20
255.07028187335982
 40
1.825531472681392
  0
CIRCLE
  8
_0-a_極細3
  6
CONTINUOUS
 62
    7
 10
654.3586770114307
 20
261.6480596511376
 40
1.825531472681392
  0
CIRCLE
  8
_0-a_極細3
  6
CONTINUOUS
 62
    7
 10
686.35867701143025
 20
229.64805965113783
 40
1.825531472681392
  0
CIRCLE
  8
_0-a_極細3
  6
CONTINUOUS
 62
    7
 10
615.96423256698699
 20
185.09805965113833
 40
1.825531472681392
  0
CIRCLE
  8
_0-a_極細3
  6
CONTINUOUS
 62
    7
 10
626.18645478920871
 20
214.96472631780492
 40
1.825531472681392
  0
CIRCLE
  8
_0-a_極細3
  6
CONTINUOUS
 62
    7
 10
661.38645478920853
 20
192.56472631780503
 40
1.825531472681392
  0
CIRCLE
  8
_0-a_極細3
  6
CONTINUOUS
 62
    7
 10
707.65164742449224
 20
182.37767392583555
 40
1.825531472681392
  0
CIRCLE
  8
_0-a_極細3
  6
CONTINUOUS
 62
    7
 10
656.98645478920855
 20
235.76472631780462
 40
1.825531472681392
  0
CIRCLE
  8
_0-a_極細3
  6
CONTINUOUS
 62
    7
 10
609.52040540649296
 20
230.3415209107682
 40
0.5530864197530718
  0
CIRCLE
  8
_0-a_極細3
  6
CONTINUOUS
 62
    7
 10
609.72040540649368
 20
206.38596535521287
 40
0.5530864197530718
  0
CIRCLE
  8
_0-a_極細3
  6
CONTINUOUS
 62
    7
 10
717.42534367809685
 20
278.50022014496449
 40
0.5530864197530718
  0
CIRCLE
  8
_0-a_極細3
  6
CONTINUOUS
 62
    7
 10
686.62534367809712
 20
273.43355347829788
 40
0.5530864197530718
  0
CIRCLE
  8
_0-a_極細3
  6
CONTINUOUS
 62
    7
 10
686.75867701143034
 20
267.1147263178043
 40
1.825531472681392
  0
CIRCLE
  8
_0-a_極細3
  6
CONTINUOUS
 62
    7
 10
665.42534367809731
 20
279.43355347829788
 40
0.5530864197530718
  0
LINE
  8
_0-a_極細3
  6
CONTINUOUS
 62
    7
 10
596.26399310350416
 20
254.90143935793438
 11
595.43065977017113
 21
254.90143935793438
  0
LINE
  8
_0-a_極細3
  6
CONTINUOUS
 62
    7
 10
595.43065977017113
 20
254.90143935793438
 11
595.43065977017113
 21
153.6598390631552
  0
CIRCLE
  8
_0-a_極細3
  6
CONTINUOUS
 62
    7
 10
601.41505561225449
 20
214.8446645894096
 40
0.5530864197530718
  0
CIRCLE
  8
_0-a_極細3
  6
CONTINUOUS
 62
    7
 10
602.72163997439429
 20
175.58910903385438
 40
0.5530864197530718
  0
CIRCLE
  8
_0-a_極細3
  6
CONTINUOUS
 62
    7
 10
602.0827510855047
 20
241.5425040955829
 40
1.825531472681392
  0
CIRCLE
  8
_0-a_極細3
  6
CONTINUOUS
 62
    7
 10
605.03089923365269
 20
168.92028187336038
 40
1.825531472681392
  0
LINE
  8
_0-a_極細3
  6
CONTINUOUS
 62
    7
 10
653.76399310350507
 20
293.23477269126784
 11
653.76399310350507
 21
281.56810602460087
  0
LINE
  8
_0-a_極細3
  6
CONTINUOUS
 62
    7
 10
653.76399310350507
 20
293.23477269126784
 11
742.94174024861968
 21
293.23477269126784
  0
LINE
  8
_0-a_極細3
  6
CONTINUOUS
 62
    7
 10
645.43065977017159
 20
281.56810602460087
 11
742.94174024861968
 21
281.56810602460087
  0
LINE
  8
_0-a_極細3
  6
CONTINUOUS
 62
    7
 10
645.43065977017159
 20
293.23477269126784
 11
653.76399310350507
 21
293.23477269126784
  0
LINE
  8
_0-a_極細3
  6
CONTINUOUS
 62
    7
 10
645.43065977017159
 20
292.40143935793435
 11
645.43065977017159
 21
293.23477269126784
  0
LINE
  8
_0-a_極細3
  6
CONTINUOUS
 62
    7
 10
653.76399310350507
 20
285.23719230532583
 11
650.0949068227801
 21
281.56810602460087
  0
LINE
  8
_0-a_極細3
  6
CONTINUOUS
 62
    7
 10
653.76399310350507
 20
289.47983299244493
 11
645.85226613566101
 21
281.56810602460087
  0
LINE
  8
_0-a_極細3
  6
CONTINUOUS
 62
    7
 10
645.43065977017159
 20
285.38914034623099
 11
653.27629211520843
 21
293.23477269126784
  0
LINE
  8
_0-a_極細3
  6
CONTINUOUS
 62
    7
 10
645.43065977017159
 20
289.63178103335031
 11
649.03365142808889
 21
293.23477269126761
  0
LINE
  8
_0-a_極細3
  6
CONTINUOUS
 62
    7
 10
653.76399310350507
 20
291.72545048176221
 11
652.25467089399945
 21
293.23477269126784
  0
LINE
  8
_0-a_極細3
  6
CONTINUOUS
 62
    7
 10
653.76399310350507
 20
287.48280979464289
 11
648.01203020688035
 21
293.23477269126784
  0
LINE
  8
_0-a_極細3
  6
CONTINUOUS
 62
    7
 10
653.76399310350507
 20
283.24016910752357
 11
645.43065977017159
 21
291.57350244085706
  0
LINE
  8
_0-a_極細3
  6
CONTINUOUS
 62
    7
 10
651.19341549930823
 20
281.56810602460087
 11
645.43065977017159
 21
287.33086175373774
  0
LINE
  8
_0-a_極細3
  6
CONTINUOUS
 62
    7
 10
646.95077481218914
 20
281.56810602460087
 11
645.43065977017159
 21
283.08822106661842
  0
LINE
  8
_0-a_極細3
  6
CONTINUOUS
 62
    7
 10
722.21979850380785
 20
281.56810602460087
 11
733.88646454368563
 21
293.23477206447865
  0
LINE
  8
_0-a_極細3
  6
CONTINUOUS
 62
    7
 10
701.00659506821148
 20
281.56810602460109
 11
712.67326127403794
 21
293.23477223042732
  0
LINE
  8
_0-a_極細3
  6
CONTINUOUS
 62
    7
 10
679.79339163261511
 20
281.56810602460087
 11
691.46005800438979
 21
293.23477239637555
  0
LINE
  8
_0-a_極細3
  6
CONTINUOUS
 62
    7
 10
658.58018819701886
 20
281.56810602460087
 11
670.2468547347421
 21
293.23477256232422
  0
LINE
  8
_0-a_極細3
  6
DASHED2
 62
    7
 10
732.82640022160649
 20
281.56810602460109
 11
742.94174024861968
 21
291.68344605161451
  0
LINE
  8
_0-a_極細3
  6
DASHED2
 62
    7
 10
711.61319678600978
 20
281.56810602460087
 11
723.27986290886156
 21
293.23477214745276
  0
LINE
  8
_0-a_極細3
  6
DASHED2
 62
    7
 10
690.3999933504133
 20
281.56810602460087
 11
702.06665963921398
 21
293.23477231340144
  0
LINE
  8
_0-a_極細3
  6
DASHED2
 62
    7
 10
669.18678991481693
 20
281.56810602460087
 11
680.85345636956572
 21
293.23477247934989
  0
LINE
  8
_0-a_極細3
  6
DASHED2
 62
    7
 10
653.76399310350507
 20
287.35851264888538
 11
659.64025309991814
 21
293.23477264529834
  0
LINE
  8
_0-a_極細3
  6
CONTINUOUS
 62
    7
 10
689.07072799065691
 20
204.78314052043785
 11
694.20103014054223
 21
218.87852983222641
  0
LINE
  8
_0-a_極細3
  6
CONTINUOUS
 62
    7
 10
639.07668531686068
 20
238.94215053147263
 11
633.94638316697592
 21
224.84676121968417
  0
LINE
  8
_0-a_極細3
  6
CONTINUOUS
 62
    7
 10
694.20103014054223
 20
218.87852983222641
 11
639.07668531686068
 21
238.94215053147263
  0
LINE
  8
_0-a_極細3
  6
CONTINUOUS
 62
    7
 10
689.07072799065691
 20
204.78314052043785
 11
633.94638316697592
 21
224.84676121968417
  0
LINE
  8
_0-a_極細3
  6
CENTER1
 62
    7
 10
696.59131245759227
 20
210.02720513630223
 11
632.56029197502676
 21
233.33259062133766
  0
LINE
  8
_0-a_極細3
  6
CONTINUOUS
 62
    7
 10
670.43065977017159
 20
179.90143935793441
 11
670.43065977017159
 21
223.98700070625046
  0
LINE
  8
_0-a_極細3
  6
CONTINUOUS
 62
    7
 10
670.43065977017159
 20
223.98700070625046
 11
685.43065977017159
 21
223.98700070625046
  0
LINE
  8
_0-a_極細3
  6
CONTINUOUS
 62
    7
 10
685.43065977017159
 20
223.98700070625046
 11
685.43065977017159
 21
179.90143935793441
  0
LINE
  8
_0-a_極細3
  6
CENTER1
 62
    7
 10
677.93065977017159
 20
171.62469907348145
 11
677.93065977017159
 21
228.26272087085999
  0
CIRCLE
  8
_0-a_極細3
  6
CONTINUOUS
 62
    7
 10
672.04756590032002
 20
237.06318310792793
 40
0.5530864197530718
  0
CIRCLE
  8
_0-a_極細3
  6
CONTINUOUS
 62
    7
 10
694.26375245724694
 20
223.71997323138501
 40
0.5530864197530718
  0
LINE
  8
_0-d_寸法3
  6
CONTINUOUS
 62
    7
 10
645.43065977017204
 20
206.56810602460112
 11
645.43065977017204
 21
189.42341412369572
  0
LINE
  8
_0-d_寸法3
  6
CONTINUOUS
 62
    7
 10
645.43065977017204
 20
194.42341412369572
 11
635.77140150728133
 21
191.83522367267045
  0
LINE
  8
_0-d_寸法3
  6
CONTINUOUS
 62
    7
 10
645.43065977017204
 20
194.42341412369572
 11
635.77140150728133
 21
197.01160457472093
  0
LINE
  8
_0-d_寸法3
  6
CONTINUOUS
 62
    7
 10
595.43065977017204
 20
244.90143935793438
 11
595.43065977017204
 21
189.42341412369572
  0
LINE
  8
_0-d_寸法3
  6
CONTINUOUS
 62
    7
 10
595.43065977017204
 20
194.42341412369572
 11
605.08991803306276
 21
197.01160457472099
  0
LINE
  8
_0-d_寸法3
  6
CONTINUOUS
 62
    7
 10
595.43065977017204
 20
194.42341412369572
 11
605.08991803306276
 21
191.83522367267051
  0
LINE
  8
_0-d_寸法3
  6
CONTINUOUS
 62
    7
 10
645.43065977017204
 20
194.42341412369572
 11
595.43065977017204
 21
194.42341412369572
  0
TEXT
  8
_0-d_寸法3
 62
    7
 10
612.93065977017204
 20
194.42341412369572
 40
15
 41
1
 50
0
  1
30
  0
ARC
  8
_0-b_細線3
  6
CONTINUOUS
 62
    7
 10
640.43065977017159
 20
259.90143935793435
 40
5
 50
269.99999999999977
 51
359.99999999999966
  0
LINE
  8
_0-b_細線3
  6
CONTINUOUS
 62
    7
 10
645.43065977017159
 20
259.90143935793435
 11
645.43065977017159
 21
292.40143935793435
  0
LINE
  8
_0-b_細線3
  6
CONTINUOUS
 62
    7
 10
640.43065977017159
 20
254.90143935793438
 11
596.26399310350416
 21
254.90143935793438
  0
LINE
  8
_0-b_細線3
  6
CONTINUOUS
 62
    7
 10
595.43065977017113
 20
255.73477269126761
 11
596.26399310350416
 21
254.90143935793438
  0
LINE
  8
_0-b_細線3
  6
CONTINUOUS
 62
    7
 10
595.43065977017113
 20
259.06810602460109
 11
595.43065977017113
 21
255.73477269126761
  0
LINE
  8
_0-b_細線3
  6
CONTINUOUS
 62
    7
 10
596.26399310350416
 20
259.90143935793435
 11
595.43065977017113
 21
259.06810602460109
  0
LINE
  8
_0-b_細線3
  6
CONTINUOUS
 62
    7
 10
640.43065977017159
 20
259.90143935793435
 11
596.26399310350416
 21
259.90143935793435
  0
LINE
  8
_0-b_細線3
  6
CONTINUOUS
 62
    7
 10
644.59732643683867
 20
293.23477269126784
 11
645.43065977017159
 21
292.40143935793435
  0
LINE
  8
_0-b_細線3
  6
CONTINUOUS
 62
    7
 10
641.26399310350507
 20
293.23477269126784
 11
644.59732643683867
 21
293.23477269126784
  0
LINE
  8
_0-b_細線3
  6
CONTINUOUS
 62
    7
 10
640.43065977017159
 20
292.40143935793435
 11
641.26399310350507
 21
293.23477269126784
  0
LINE
  8
_0-b_細線3
  6
CONTINUOUS
 62
    7
 10
640.43065977017159
 20
259.90143935793435
 11
640.43065977017159
 21
292.40143935793435
  0
LINE
  8
_0-b_細線3
  6
CONTINUOUS
 62
    7
 10
632.09732643683856
 20
259.90143935793458
 11
632.09732643683856
 21
293.23477269126784
  0
LINE
  8
_0-b_細線3
  6
CONTINUOUS
 62
    7
 10
632.09732643683856
 20
293.23477269126784
 11
637.09732643683856
 21
293.23477269126784
  0
LINE
  8
_0-b_細線3
  6
CONTINUOUS
 62
    7
 10
637.09732643683856
 20
293.23477269126784
 11
637.09732643683856
 21
259.90143935793458
  0
LINE
  8
_0-b_細線3
  6
CONTINUOUS
 62
    7
 10
637.09732643683856
 20
259.90143935793458
 11
632.09732643683856
 21
259.90143935793458
  0
LINE
  8
_0-d_寸法3
  6
CONTINUOUS
 62
    7
 10
345.43065977017199
 20
249.90143935793438
 11
345.43065977017199
 21
189.42341412369572
  0
LINE
  8
_0-d_寸法3
  6
CONTINUOUS
 62
    7
 10
345.43065977017199
 20
194.42341412369572
 11
355.08991803306265
 21
197.01160457472093
  0
LINE
  8
_0-d_寸法3
  6
CONTINUOUS
 62
    7
 10
345.43065977017199
 20
194.42341412369572
 11
355.08991803306265
 21
191.83522367267045
  0
LINE
  8
_0-d_寸法3
  6
CONTINUOUS
 62
    7
 10
595.43065977017113
 20
249.90143935793438
 11
595.43065977017113
 21
189.42341412369572
  0
LINE
  8
_0-d_寸法3
  6
CONTINUOUS
 62
    7
 10
595.43065977017113
 20
194.42341412369572
 11
585.77140150728042
 21
191.83522367267051
  0
LINE
  8
_0-d_寸法3
  6
CONTINUOUS
 62
    7
 10
595.43065977017113
 20
194.42341412369572
 11
585.77140150728042
 21
197.01160457472099
  0
LINE
  8
_0-d_寸法3
  6
CONTINUOUS
 62
    7
 10
345.43065977017199
 20
194.42341412369572
 11
595.43065977017113
 21
194.42341412369572
  0
TEXT
  8
_0-d_寸法3
 62
    7
 10
459.18065977017199
 20
194.42341412369572
 40
15
 41
1
 50
0
  1
150
  0
LINE
  8
_0-b_細線3
  6
CONTINUOUS
 62
    7
 10
632.09732643683856
 20
259.90143935793458
 11
308.76399310350507
 21
259.9014393579339
  0
LINE
  8
_0-b_細線3
  6
CONTINUOUS
 62
    7
 10
632.09732643683856
 20
293.23477269126784
 11
308.76399310350507
 21
293.23477269126715
  0
LINE
  8
_0-a_極細3
  6
CENTER1
 62
    7
 10
648.09741483799371
 20
279.9014393579339
 11
293.77666732563142
 21
279.9014393579339
  0
LINE
  8
_0-d_寸法3
  6
CONTINUOUS
 62
    7
 10
295.43065977017199
 20
298.23477269126784
 11
295.43065977017199
 21
418.23477269126784
  0
LINE
  8
_0-d_寸法3
  6
CONTINUOUS
 62
    7
 10
295.43065977017199
 20
413.23477269126784
 11
305.08991803306265
 21
415.82296314229302
  0
LINE
  8
_0-d_寸法3
  6
CONTINUOUS
 62
    7
 10
295.43065977017199
 20
413.23477269126784
 11
305.08991803306265
 21
410.64658224024271
  0
LINE
  8
_0-d_寸法3
  6
CONTINUOUS
 62
    7
 10
645.43065977017159
 20
298.23477269126784
 11
645.43065977017204
 21
418.23477269126784
  0
LINE
  8
_0-d_寸法3
  6
CONTINUOUS
 62
    7
 10
645.43065977017204
 20
413.23477269126784
 11
635.77140150728133
 21
410.64658224024271
  0
LINE
  8
_0-d_寸法3
  6
CONTINUOUS
 62
    7
 10
645.43065977017204
 20
413.23477269126784
 11
635.77140150728133
 21
415.82296314229313
  0
LINE
  8
_0-d_寸法3
  6
CONTINUOUS
 62
    7
 10
295.43065977017199
 20
413.23477269126784
 11
645.43065977017204
 21
413.23477269126784
  0
TEXT
  8
_0-d_寸法3
 62
    7
 10
459.18065977017199
 20
413.23477269126784
 40
15
 41
1
 50
0
  1
210
  0
LINE
  8
_0-d_寸法3
  6
CONTINUOUS
 62
    7
 10
303.76399310350507
 20
303.23477269126784
 11
303.76399310350507
 21
348.23477269126784
  0
LINE
  8
_0-d_寸法3
  6
CONTINUOUS
 62
    7
 10
303.76399310350507
 20
343.23477269126784
 11
313.42325136639573
 21
345.82296314229302
  0
LINE
  8
_0-d_寸法3
  6
CONTINUOUS
 62
    7
 10
303.76399310350507
 20
343.23477269126784
 11
313.42325136639573
 21
340.64658224024265
  0
LINE
  8
_0-d_寸法3
  6
CONTINUOUS
 62
    7
 10
470.43065977017199
 20
303.23477269126784
 11
470.43065977017199
 21
348.23477269126784
  0
LINE
  8
_0-d_寸法3
  6
CONTINUOUS
 62
    7
 10
470.43065977017199
 20
343.23477269126784
 11
460.77140150728127
 21
340.64658224024265
  0
LINE
  8
_0-d_寸法3
  6
CONTINUOUS
 62
    7
 10
470.43065977017199
 20
343.23477269126784
 11
460.77140150728133
 21
345.82296314229313
  0
LINE
  8
_0-d_寸法3
  6
CONTINUOUS
 62
    7
 10
303.76399310350507
 20
343.23477269126784
 11
470.43065977017199
 21
343.23477269126784
  0
TEXT
  8
_0-d_寸法3
 62
    7
 10
375.8473264368385
 20
343.23477269126784
 40
15
 41
1
 50
0
  1
100
  0
LINE
  8
_0-d_寸法3
  6
CONTINUOUS
 62
    7
 10
470.43065977017199
 20
343.23477269126784
 11
480.08991803306276
 21
345.82296314229296
  0
LINE
  8
_0-d_寸法3
  6
CONTINUOUS
 62
    7
 10
470.43065977017199
 20
343.23477269126784
 11
480.08991803306265
 21
340.64658224024265
  0
LINE
  8
_0-d_寸法3
  6
CONTINUOUS
 62
    7
 10
637.09732643683856
 20
303.23477269126784
 11
637.09732643683856
 21
348.23477269126784
  0
LINE
  8
_0-d_寸法3
  6
CONTINUOUS
 62
    7
 10
637.09732643683856
 20
343.23477269126784
 11
627.43806817394784
 21
340.64658224024265
  0
LINE
  8
_0-d_寸法3
  6
CONTINUOUS
 62
    7
 10
637.09732643683856
 20
343.23477269126784
 11
627.43806817394784
 21
345.82296314229313
  0
LINE
  8
_0-d_寸法3
  6
CONTINUOUS
 62
    7
 10
470.43065977017199
 20
343.23477269126784
 11
637.09732643683856
 21
343.23477269126784
  0
TEXT
  8
_0-d_寸法3
 62
    7
 10
542.51399310350507
 20
343.23477269126784
 40
15
 41
1
 50
0
  1
100
  0
LINE
  8
_0-7_枠細線
  6
CONTINUOUS
 62
    5
 10
1139.4018171150183
 20
373.42884000293418
 11
1139.4018171150183
 21
453.42884000293418
  0
LINE
  8
_0-7_枠細線
  6
CONTINUOUS
 62
    5
 10
1229.4018171150183
 20
373.42884000293418
 11
1229.4018171150183
 21
453.42884000293418
  0
TEXT
  8
_0-7_枠細線
 62
    5
 10
1251.9018171150183
 20
430.92884000293418
 40
15
 41
1
 50
0
  1
蓋重量
  0
LINE
  8
_0-7_枠細線
  6
CONTINUOUS
 62
    5
 10
1319.4018171150183
 20
373.42884000293418
 11
1319.4018171150183
 21
453.42884000293418
  0
TEXT
  8
_0-7_枠細線
 62
    5
 10
1341.9018171150183
 20
430.92884000293418
 40
15
 41
1
 50
0
  1
枠重量
  0
LINE
  8
_0-7_枠細線
  6
CONTINUOUS
 62
    5
 10
1139.4018171150183
 20
423.42884000293418
 11
1409.4018171150183
 21
423.42884000293418
  0
LINE
  8
_0-7_枠細線
  6
CONTINUOUS
 62
    5
 10
1139.4018171150183
 20
453.42884000293418
 11
1409.4018171150183
 21
453.42884000293418
  0
LINE
  8
_0-7_枠細線
  6
CONTINUOUS
 62
    5
 10
1139.4018171150183
 20
373.42884000293418
 11
1409.4018171150183
 21
373.42884000293418
  0
LINE
  8
_0-7_枠細線
  6
CONTINUOUS
 62
    5
 10
1409.4018171150183
 20
373.42884000293418
 11
1409.4018171150183
 21
453.42884000293418
  0
TEXT
  8
_0-7_枠細線
 62
    5
 10
1247.4018171150178
 20
392.17884000293418
 40
15
 41
0.8000000000000001
 50
0
  1
10.4kg/枚
  0
TEXT
  8
_0-7_枠細線
 62
    5
 10
1334.4018171150183
 20
392.17884000293418
 40
15
 41
0.8000000000000001
 50
0
  1
2.4kg/ｍ組
  0
TEXT
  8
_0-7_枠細線
 62
    5
 10
1154.4018171150183
 20
430.92884000293418
 40
15
 41
1
 50
0
  1
適用荷重
  0
TEXT
  8
_0-7_枠細線
 62
    5
 10
1146.9018171150183
 20
391.84307868606203
 40
15
 41
1
 50
0
  1
（Ｔ－２）
  0
LINE
  8
_0-0_計極細
  6
CENTER2
 62
    2
 10
212.54515031966753
 20
681.93908616188662
 11
1239.251338570273
 21
681.93908616188662
  0
LINE
  8
_0-0_計極細
  6
CONTINUOUS
 62
    2
 10
1211.4337498566863
 20
679.43908616188662
 11
1218.4337498566863
 21
679.43908616188662
  0
LINE
  8
_0-0_計極細
  6
CONTINUOUS
 62
    2
 10
1211.4337498566863
 20
684.43908616188662
 11
1218.4337498566863
 21
684.43908616188662
  0
LINE
  8
_0-0_計極細
  6
CONTINUOUS
 62
    2
 10
1201.4337498566863
 20
679.43908616188662
 11
1208.4337498566863
 21
679.43908616188662
  0
LINE
  8
_0-0_計極細
  6
CONTINUOUS
 62
    2
 10
1201.4337498566863
 20
684.43908616188662
 11
1208.4337498566863
 21
684.43908616188662
  0
LINE
  8
_0-0_計極細
  6
CONTINUOUS
 62
    2
 10
1191.4337498566863
 20
679.43908616188662
 11
1198.4337498566863
 21
679.43908616188662
  0
LINE
  8
_0-0_計極細
  6
CONTINUOUS
 62
    2
 10
1191.4337498566863
 20
684.43908616188662
 11
1198.4337498566863
 21
684.43908616188662
  0
LINE
  8
_0-0_計極細
  6
CONTINUOUS
 62
    2
 10
1181.4337498566863
 20
679.43908616188662
 11
1188.4337498566863
 21
679.43908616188662
  0
LINE
  8
_0-0_計極細
  6
CONTINUOUS
 62
    2
 10
1181.4337498566863
 20
684.43908616188662
 11
1188.4337498566863
 21
684.43908616188662
  0
LINE
  8
_0-0_計極細
  6
CONTINUOUS
 62
    2
 10
1171.4337498566863
 20
679.43908616188662
 11
1178.4337498566863
 21
679.43908616188662
  0
LINE
  8
_0-0_計極細
  6
CONTINUOUS
 62
    2
 10
1171.4337498566863
 20
684.43908616188662
 11
1178.4337498566863
 21
684.43908616188662
  0
LINE
  8
_0-0_計極細
  6
CONTINUOUS
 62
    2
 10
1161.4337498566863
 20
679.43908616188662
 11
1168.4337498566863
 21
679.43908616188662
  0
LINE
  8
_0-0_計極細
  6
CONTINUOUS
 62
    2
 10
1161.4337498566863
 20
684.43908616188662
 11
1168.4337498566863
 21
684.43908616188662
  0
LINE
  8
_0-0_計極細
  6
CONTINUOUS
 62
    2
 10
1151.4337498566863
 20
679.43908616188662
 11
1158.4337498566863
 21
679.43908616188662
  0
LINE
  8
_0-0_計極細
  6
CONTINUOUS
 62
    2
 10
1151.4337498566863
 20
684.43908616188662
 11
1158.4337498566863
 21
684.43908616188662
  0
LINE
  8
_0-0_計極細
  6
CONTINUOUS
 62
    2
 10
1141.4337498566863
 20
679.43908616188662
 11
1148.4337498566863
 21
679.43908616188662
  0
LINE
  8
_0-0_計極細
  6
CONTINUOUS
 62
    2
 10
1141.4337498566863
 20
684.43908616188662
 11
1148.4337498566863
 21
684.43908616188662
  0
LINE
  8
_0-0_計極細
  6
CONTINUOUS
 62
    2
 10
1131.4337498566863
 20
679.43908616188662
 11
1138.4337498566863
 21
679.43908616188662
  0
LINE
  8
_0-0_計極細
  6
CONTINUOUS
 62
    2
 10
1131.4337498566863
 20
684.43908616188662
 11
1138.4337498566863
 21
684.43908616188662
  0
LINE
  8
_0-0_計極細
  6
CONTINUOUS
 62
    2
 10
1121.4337498566863
 20
679.43908616188662
 11
1128.4337498566863
 21
679.43908616188662
  0
LINE
  8
_0-0_計極細
  6
CONTINUOUS
 62
    2
 10
1121.4337498566863
 20
684.43908616188662
 11
1128.4337498566863
 21
684.43908616188662
  0
LINE
  8
_0-0_計極細
  6
CONTINUOUS
 62
    2
 10
1111.4337498566863
 20
679.43908616188662
 11
1118.4337498566863
 21
679.43908616188662
  0
LINE
  8
_0-0_計極細
  6
CONTINUOUS
 62
    2
 10
1111.4337498566863
 20
684.43908616188662
 11
1118.4337498566863
 21
684.43908616188662
  0
LINE
  8
_0-0_計極細
  6
CONTINUOUS
 62
    2
 10
1101.4337498566863
 20
679.43908616188662
 11
1108.4337498566863
 21
679.43908616188662
  0
LINE
  8
_0-0_計極細
  6
CONTINUOUS
 62
    2
 10
1101.4337498566863
 20
684.43908616188662
 11
1108.4337498566863
 21
684.43908616188662
  0
LINE
  8
_0-0_計極細
  6
CONTINUOUS
 62
    2
 10
1091.4337498566863
 20
679.43908616188662
 11
1098.4337498566863
 21
679.43908616188662
  0
LINE
  8
_0-0_計極細
  6
CONTINUOUS
 62
    2
 10
1091.4337498566863
 20
684.43908616188662
 11
1098.4337498566863
 21
684.43908616188662
  0
LINE
  8
_0-0_計極細
  6
CONTINUOUS
 62
    2
 10
1081.4337498566863
 20
679.43908616188662
 11
1088.4337498566863
 21
679.43908616188662
  0
LINE
  8
_0-0_計極細
  6
CONTINUOUS
 62
    2
 10
1081.4337498566863
 20
684.43908616188662
 11
1088.4337498566863
 21
684.43908616188662
  0
LINE
  8
_0-0_計極細
  6
CONTINUOUS
 62
    2
 10
1071.4337498566863
 20
679.43908616188662
 11
1078.4337498566863
 21
679.43908616188662
  0
LINE
  8
_0-0_計極細
  6
CONTINUOUS
 62
    2
 10
1071.4337498566863
 20
684.43908616188662
 11
1078.4337498566863
 21
684.43908616188662
  0
LINE
  8
_0-0_計極細
  6
CONTINUOUS
 62
    2
 10
1061.4337498566863
 20
679.43908616188662
 11
1068.4337498566863
 21
679.43908616188662
  0
LINE
  8
_0-0_計極細
  6
CONTINUOUS
 62
    2
 10
1061.4337498566863
 20
684.43908616188662
 11
1068.4337498566863
 21
684.43908616188662
  0
LINE
  8
_0-0_計極細
  6
CONTINUOUS
 62
    2
 10
1051.4337498566863
 20
679.43908616188662
 11
1058.4337498566863
 21
679.43908616188662
  0
LINE
  8
_0-0_計極細
  6
CONTINUOUS
 62
    2
 10
1051.4337498566863
 20
684.43908616188662
 11
1058.4337498566863
 21
684.43908616188662
  0
LINE
  8
_0-0_計極細
  6
CONTINUOUS
 62
    2
 10
1041.4337498566863
 20
679.43908616188662
 11
1048.4337498566863
 21
679.43908616188662
  0
LINE
  8
_0-0_計極細
  6
CONTINUOUS
 62
    2
 10
1041.4337498566863
 20
684.43908616188662
 11
1048.4337498566863
 21
684.43908616188662
  0
LINE
  8
_0-0_計極細
  6
CONTINUOUS
 62
    2
 10
1031.4337498566863
 20
679.43908616188662
 11
1038.4337498566863
 21
679.43908616188662
  0
LINE
  8
_0-0_計極細
  6
CONTINUOUS
 62
    2
 10
1031.4337498566863
 20
684.43908616188662
 11
1038.4337498566863
 21
684.43908616188662
  0
LINE
  8
_0-0_計極細
  6
CONTINUOUS
 62
    2
 10
1021.4337498566863
 20
679.43908616188662
 11
1028.4337498566863
 21
679.43908616188662
  0
LINE
  8
_0-0_計極細
  6
CONTINUOUS
 62
    2
 10
1021.4337498566863
 20
684.43908616188662
 11
1028.4337498566863
 21
684.43908616188662
  0
LINE
  8
_0-0_計極細
  6
CONTINUOUS
 62
    2
 10
1011.4337498566863
 20
679.43908616188662
 11
1018.4337498566863
 21
679.43908616188662
  0
LINE
  8
_0-0_計極細
  6
CONTINUOUS
 62
    2
 10
1011.4337498566863
 20
684.43908616188662
 11
1018.4337498566863
 21
684.43908616188662
  0
LINE
  8
_0-0_計極細
  6
CONTINUOUS
 62
    2
 10
1001.4337498566863
 20
679.43908616188662
 11
1008.4337498566863
 21
679.43908616188662
  0
LINE
  8
_0-0_計極細
  6
CONTINUOUS
 62
    2
 10
1001.4337498566863
 20
684.43908616188662
 11
1008.4337498566863
 21
684.43908616188662
  0
LINE
  8
_0-0_計極細
  6
CONTINUOUS
 62
    2
 10
991.43374985668629
 20
679.43908616188662
 11
998.43374985668629
 21
679.43908616188662
  0
LINE
  8
_0-0_計極細
  6
CONTINUOUS
 62
    2
 10
991.43374985668629
 20
684.43908616188662
 11
998.43374985668629
 21
684.43908616188662
  0
LINE
  8
_0-0_計極細
  6
CONTINUOUS
 62
    2
 10
981.43374985668629
 20
679.43908616188662
 11
988.43374985668629
 21
679.43908616188662
  0
LINE
  8
_0-0_計極細
  6
CONTINUOUS
 62
    2
 10
981.43374985668629
 20
684.43908616188662
 11
988.43374985668629
 21
684.43908616188662
  0
LINE
  8
_0-0_計極細
  6
CONTINUOUS
 62
    2
 10
971.43374985668629
 20
679.43908616188662
 11
978.43374985668629
 21
679.43908616188662
  0
LINE
  8
_0-0_計極細
  6
CONTINUOUS
 62
    2
 10
971.43374985668629
 20
684.43908616188662
 11
978.43374985668629
 21
684.43908616188662
  0
LINE
  8
_0-0_計極細
  6
CONTINUOUS
 62
    2
 10
961.43374985668629
 20
679.43908616188662
 11
968.43374985668629
 21
679.43908616188662
  0
LINE
  8
_0-0_計極細
  6
CONTINUOUS
 62
    2
 10
961.43374985668629
 20
684.43908616188662
 11
968.43374985668629
 21
684.43908616188662
  0
LINE
  8
_0-0_計極細
  6
CONTINUOUS
 62
    2
 10
951.43374985668629
 20
679.43908616188662
 11
958.43374985668629
 21
679.43908616188662
  0
LINE
  8
_0-0_計極細
  6
CONTINUOUS
 62
    2
 10
951.43374985668629
 20
684.43908616188662
 11
958.43374985668629
 21
684.43908616188662
  0
LINE
  8
_0-0_計極細
  6
CONTINUOUS
 62
    2
 10
941.43374985668629
 20
679.43908616188662
 11
948.43374985668629
 21
679.43908616188662
  0
LINE
  8
_0-0_計極細
  6
CONTINUOUS
 62
    2
 10
941.43374985668629
 20
684.43908616188662
 11
948.43374985668629
 21
684.43908616188662
  0
LINE
  8
_0-0_計極細
  6
CONTINUOUS
 62
    2
 10
931.43374985668629
 20
679.43908616188662
 11
938.43374985668629
 21
679.43908616188662
  0
LINE
  8
_0-0_計極細
  6
CONTINUOUS
 62
    2
 10
931.43374985668629
 20
684.43908616188662
 11
938.43374985668629
 21
684.43908616188662
  0
LINE
  8
_0-0_計極細
  6
CONTINUOUS
 62
    2
 10
921.43374985668629
 20
679.43908616188662
 11
928.43374985668629
 21
679.43908616188662
  0
LINE
  8
_0-0_計極細
  6
CONTINUOUS
 62
    2
 10
921.43374985668629
 20
684.43908616188662
 11
928.43374985668629
 21
684.43908616188662
  0
LINE
  8
_0-0_計極細
  6
CONTINUOUS
 62
    2
 10
911.43374985668629
 20
679.43908616188662
 11
918.43374985668629
 21
679.43908616188662
  0
LINE
  8
_0-0_計極細
  6
CONTINUOUS
 62
    2
 10
911.43374985668629
 20
684.43908616188662
 11
918.43374985668629
 21
684.43908616188662
  0
LINE
  8
_0-0_計極細
  6
CONTINUOUS
 62
    2
 10
901.43374985668629
 20
679.43908616188662
 11
908.43374985668629
 21
679.43908616188662
  0
LINE
  8
_0-0_計極細
  6
CONTINUOUS
 62
    2
 10
901.43374985668629
 20
684.43908616188662
 11
908.43374985668629
 21
684.43908616188662
  0
LINE
  8
_0-0_計極細
  6
CONTINUOUS
 62
    2
 10
891.43374985668629
 20
679.43908616188662
 11
898.43374985668629
 21
679.43908616188662
  0
LINE
  8
_0-0_計極細
  6
CONTINUOUS
 62
    2
 10
891.43374985668629
 20
684.43908616188662
 11
898.43374985668629
 21
684.43908616188662
  0
LINE
  8
_0-0_計極細
  6
CONTINUOUS
 62
    2
 10
881.43374985668629
 20
679.43908616188662
 11
888.43374985668629
 21
679.43908616188662
  0
LINE
  8
_0-0_計極細
  6
CONTINUOUS
 62
    2
 10
881.43374985668629
 20
684.43908616188662
 11
888.43374985668629
 21
684.43908616188662
  0
LINE
  8
_0-0_計極細
  6
CONTINUOUS
 62
    2
 10
871.43374985668629
 20
679.43908616188662
 11
878.43374985668629
 21
679.43908616188662
  0
LINE
  8
_0-0_計極細
  6
CONTINUOUS
 62
    2
 10
871.43374985668629
 20
684.43908616188662
 11
878.43374985668629
 21
684.43908616188662
  0
LINE
  8
_0-0_計極細
  6
CONTINUOUS
 62
    2
 10
861.43374985668629
 20
679.43908616188662
 11
868.43374985668629
 21
679.43908616188662
  0
LINE
  8
_0-0_計極細
  6
CONTINUOUS
 62
    2
 10
861.43374985668629
 20
684.43908616188662
 11
868.43374985668629
 21
684.43908616188662
  0
LINE
  8
_0-0_計極細
  6
CONTINUOUS
 62
    2
 10
851.43374985668629
 20
679.43908616188662
 11
858.43374985668629
 21
679.43908616188662
  0
LINE
  8
_0-0_計極細
  6
CONTINUOUS
 62
    2
 10
851.43374985668629
 20
684.43908616188662
 11
858.43374985668629
 21
684.43908616188662
  0
LINE
  8
_0-0_計極細
  6
CONTINUOUS
 62
    2
 10
841.43374985668629
 20
679.43908616188662
 11
848.43374985668629
 21
679.43908616188662
  0
LINE
  8
_0-0_計極細
  6
CONTINUOUS
 62
    2
 10
841.43374985668629
 20
684.43908616188662
 11
848.43374985668629
 21
684.43908616188662
  0
LINE
  8
_0-0_計極細
  6
CONTINUOUS
 62
    2
 10
831.43374985668629
 20
679.43908616188662
 11
838.43374985668629
 21
679.43908616188662
  0
LINE
  8
_0-0_計極細
  6
CONTINUOUS
 62
    2
 10
831.43374985668629
 20
684.43908616188662
 11
838.43374985668629
 21
684.43908616188662
  0
LINE
  8
_0-0_計極細
  6
CONTINUOUS
 62
    2
 10
821.43374985668629
 20
679.43908616188662
 11
828.43374985668629
 21
679.43908616188662
  0
LINE
  8
_0-0_計極細
  6
CONTINUOUS
 62
    2
 10
821.43374985668629
 20
684.43908616188662
 11
828.43374985668629
 21
684.43908616188662
  0
LINE
  8
_0-0_計極細
  6
CONTINUOUS
 62
    2
 10
811.43374985668629
 20
679.43908616188662
 11
818.43374985668629
 21
679.43908616188662
  0
LINE
  8
_0-0_計極細
  6
CONTINUOUS
 62
    2
 10
811.43374985668629
 20
684.43908616188662
 11
818.43374985668629
 21
684.43908616188662
  0
LINE
  8
_0-0_計極細
  6
CONTINUOUS
 62
    2
 10
801.43374985668629
 20
679.43908616188662
 11
808.43374985668629
 21
679.43908616188662
  0
LINE
  8
_0-0_計極細
  6
CONTINUOUS
 62
    2
 10
801.43374985668629
 20
684.43908616188662
 11
808.43374985668629
 21
684.43908616188662
  0
LINE
  8
_0-0_計極細
  6
CONTINUOUS
 62
    2
 10
791.43374985668629
 20
679.43908616188662
 11
798.43374985668629
 21
679.43908616188662
  0
LINE
  8
_0-0_計極細
  6
CONTINUOUS
 62
    2
 10
791.43374985668629
 20
684.43908616188662
 11
798.43374985668629
 21
684.43908616188662
  0
LINE
  8
_0-0_計極細
  6
CONTINUOUS
 62
    2
 10
781.43374985668629
 20
679.43908616188662
 11
788.43374985668629
 21
679.43908616188662
  0
LINE
  8
_0-0_計極細
  6
CONTINUOUS
 62
    2
 10
781.43374985668629
 20
684.43908616188662
 11
788.43374985668629
 21
684.43908616188662
  0
LINE
  8
_0-0_計極細
  6
CONTINUOUS
 62
    2
 10
771.43374985668629
 20
679.43908616188662
 11
778.43374985668629
 21
679.43908616188662
  0
LINE
  8
_0-0_計極細
  6
CONTINUOUS
 62
    2
 10
771.43374985668629
 20
684.43908616188662
 11
778.43374985668629
 21
684.43908616188662
  0
LINE
  8
_0-0_計極細
  6
CONTINUOUS
 62
    2
 10
761.43374985668629
 20
679.43908616188662
 11
768.43374985668629
 21
679.43908616188662
  0
LINE
  8
_0-0_計極細
  6
CONTINUOUS
 62
    2
 10
761.43374985668629
 20
684.43908616188662
 11
768.43374985668629
 21
684.43908616188662
  0
LINE
  8
_0-0_計極細
  6
CONTINUOUS
 62
    2
 10
751.43374985668629
 20
679.43908616188662
 11
758.43374985668629
 21
679.43908616188662
  0
LINE
  8
_0-0_計極細
  6
CONTINUOUS
 62
    2
 10
751.43374985668629
 20
684.43908616188662
 11
758.43374985668629
 21
684.43908616188662
  0
LINE
  8
_0-0_計極細
  6
CONTINUOUS
 62
    2
 10
741.43374985668629
 20
679.43908616188662
 11
748.43374985668629
 21
679.43908616188662
  0
LINE
  8
_0-0_計極細
  6
CONTINUOUS
 62
    2
 10
741.43374985668629
 20
684.43908616188662
 11
748.43374985668629
 21
684.43908616188662
  0
LINE
  8
_0-0_計極細
  6
CONTINUOUS
 62
    2
 10
731.43374985668629
 20
679.43908616188662
 11
738.43374985668629
 21
679.43908616188662
  0
LINE
  8
_0-0_計極細
  6
CONTINUOUS
 62
    2
 10
731.43374985668629
 20
684.43908616188662
 11
738.43374985668629
 21
684.43908616188662
  0
LINE
  8
_0-0_計極細
  6
CONTINUOUS
 62
    2
 10
721.43374985668629
 20
679.43908616188662
 11
728.43374985668629
 21
679.43908616188662
  0
LINE
  8
_0-0_計極細
  6
CONTINUOUS
 62
    2
 10
721.43374985668629
 20
684.43908616188662
 11
728.43374985668629
 21
684.43908616188662
  0
LINE
  8
_0-0_計極細
  6
CONTINUOUS
 62
    2
 10
711.43374985668629
 20
679.43908616188662
 11
718.43374985668629
 21
679.43908616188662
  0
LINE
  8
_0-0_計極細
  6
CONTINUOUS
 62
    2
 10
711.43374985668629
 20
684.43908616188662
 11
718.43374985668629
 21
684.43908616188662
  0
LINE
  8
_0-0_計極細
  6
CONTINUOUS
 62
    2
 10
701.43374985668629
 20
679.43908616188662
 11
708.43374985668629
 21
679.43908616188662
  0
LINE
  8
_0-0_計極細
  6
CONTINUOUS
 62
    2
 10
701.43374985668629
 20
684.43908616188662
 11
708.43374985668629
 21
684.43908616188662
  0
LINE
  8
_0-0_計極細
  6
CONTINUOUS
 62
    2
 10
691.43374985668629
 20
679.43908616188662
 11
698.43374985668629
 21
679.43908616188662
  0
LINE
  8
_0-0_計極細
  6
CONTINUOUS
 62
    2
 10
691.43374985668629
 20
684.43908616188662
 11
698.43374985668629
 21
684.43908616188662
  0
LINE
  8
_0-0_計極細
  6
CONTINUOUS
 62
    2
 10
681.43374985668629
 20
679.43908616188662
 11
688.43374985668629
 21
679.43908616188662
  0
LINE
  8
_0-0_計極細
  6
CONTINUOUS
 62
    2
 10
681.43374985668629
 20
684.43908616188662
 11
688.43374985668629
 21
684.43908616188662
  0
LINE
  8
_0-0_計極細
  6
CONTINUOUS
 62
    2
 10
671.43374985668629
 20
679.43908616188662
 11
678.43374985668629
 21
679.43908616188662
  0
LINE
  8
_0-0_計極細
  6
CONTINUOUS
 62
    2
 10
671.43374985668629
 20
684.43908616188662
 11
678.43374985668629
 21
684.43908616188662
  0
LINE
  8
_0-0_計極細
  6
CONTINUOUS
 62
    2
 10
661.43374985668629
 20
679.43908616188662
 11
668.43374985668629
 21
679.43908616188662
  0
LINE
  8
_0-0_計極細
  6
CONTINUOUS
 62
    2
 10
661.43374985668629
 20
684.43908616188662
 11
668.43374985668629
 21
684.43908616188662
  0
LINE
  8
_0-0_計極細
  6
CONTINUOUS
 62
    2
 10
651.43374985668629
 20
679.43908616188662
 11
658.43374985668629
 21
679.43908616188662
  0
LINE
  8
_0-0_計極細
  6
CONTINUOUS
 62
    2
 10
651.43374985668629
 20
684.43908616188662
 11
658.43374985668629
 21
684.43908616188662
  0
LINE
  8
_0-0_計極細
  6
CONTINUOUS
 62
    2
 10
641.43374985668629
 20
679.43908616188662
 11
648.43374985668629
 21
679.43908616188662
  0
LINE
  8
_0-0_計極細
  6
CONTINUOUS
 62
    2
 10
641.43374985668629
 20
684.43908616188662
 11
648.43374985668629
 21
684.43908616188662
  0
LINE
  8
_0-0_計極細
  6
CONTINUOUS
 62
    2
 10
631.43374985668629
 20
679.43908616188662
 11
638.43374985668629
 21
679.43908616188662
  0
LINE
  8
_0-0_計極細
  6
CONTINUOUS
 62
    2
 10
631.43374985668629
 20
684.43908616188662
 11
638.43374985668629
 21
684.43908616188662
  0
LINE
  8
_0-0_計極細
  6
CONTINUOUS
 62
    2
 10
621.43374985668629
 20
679.43908616188662
 11
628.43374985668629
 21
679.43908616188662
  0
LINE
  8
_0-0_計極細
  6
CONTINUOUS
 62
    2
 10
621.43374985668629
 20
684.43908616188662
 11
628.43374985668629
 21
684.43908616188662
  0
LINE
  8
_0-0_計極細
  6
CONTINUOUS
 62
    2
 10
611.43374985668629
 20
679.43908616188662
 11
618.43374985668629
 21
679.43908616188662
  0
LINE
  8
_0-0_計極細
  6
CONTINUOUS
 62
    2
 10
611.43374985668629
 20
684.43908616188662
 11
618.43374985668629
 21
684.43908616188662
  0
LINE
  8
_0-0_計極細
  6
CONTINUOUS
 62
    2
 10
601.43374985668629
 20
679.43908616188662
 11
608.43374985668629
 21
679.43908616188662
  0
LINE
  8
_0-0_計極細
  6
CONTINUOUS
 62
    2
 10
601.43374985668629
 20
684.43908616188662
 11
608.43374985668629
 21
684.43908616188662
  0
LINE
  8
_0-0_計極細
  6
CONTINUOUS
 62
    2
 10
591.43374985668629
 20
679.43908616188662
 11
598.43374985668629
 21
679.43908616188662
  0
LINE
  8
_0-0_計極細
  6
CONTINUOUS
 62
    2
 10
591.43374985668629
 20
684.43908616188662
 11
598.43374985668629
 21
684.43908616188662
  0
LINE
  8
_0-0_計極細
  6
CONTINUOUS
 62
    2
 10
581.43374985668629
 20
679.43908616188662
 11
588.43374985668629
 21
679.43908616188662
  0
LINE
  8
_0-0_計極細
  6
CONTINUOUS
 62
    2
 10
581.43374985668629
 20
684.43908616188662
 11
588.43374985668629
 21
684.43908616188662
  0
LINE
  8
_0-0_計極細
  6
CONTINUOUS
 62
    2
 10
571.43374985668629
 20
679.43908616188662
 11
578.43374985668629
 21
679.43908616188662
  0
LINE
  8
_0-0_計極細
  6
CONTINUOUS
 62
    2
 10
571.43374985668629
 20
684.43908616188662
 11
578.43374985668629
 21
684.43908616188662
  0
LINE
  8
_0-0_計極細
  6
CONTINUOUS
 62
    2
 10
561.43374985668629
 20
679.43908616188662
 11
568.43374985668629
 21
679.43908616188662
  0
LINE
  8
_0-0_計極細
  6
CONTINUOUS
 62
    2
 10
561.43374985668629
 20
684.43908616188662
 11
568.43374985668629
 21
684.43908616188662
  0
LINE
  8
_0-0_計極細
  6
CONTINUOUS
 62
    2
 10
551.43374985668629
 20
679.43908616188662
 11
558.43374985668629
 21
679.43908616188662
  0
LINE
  8
_0-0_計極細
  6
CONTINUOUS
 62
    2
 10
551.43374985668629
 20
684.43908616188662
 11
558.43374985668629
 21
684.43908616188662
  0
LINE
  8
_0-0_計極細
  6
CONTINUOUS
 62
    2
 10
541.43374985668629
 20
679.43908616188662
 11
548.43374985668629
 21
679.43908616188662
  0
LINE
  8
_0-0_計極細
  6
CONTINUOUS
 62
    2
 10
541.43374985668629
 20
684.43908616188662
 11
548.43374985668629
 21
684.43908616188662
  0
LINE
  8
_0-0_計極細
  6
CONTINUOUS
 62
    2
 10
531.43374985668629
 20
679.43908616188662
 11
538.43374985668629
 21
679.43908616188662
  0
LINE
  8
_0-0_計極細
  6
CONTINUOUS
 62
    2
 10
531.43374985668629
 20
684.43908616188662
 11
538.43374985668629
 21
684.43908616188662
  0
LINE
  8
_0-0_計極細
  6
CONTINUOUS
 62
    2
 10
521.43374985668629
 20
679.43908616188662
 11
528.43374985668629
 21
679.43908616188662
  0
LINE
  8
_0-0_計極細
  6
CONTINUOUS
 62
    2
 10
521.43374985668629
 20
684.43908616188662
 11
528.43374985668629
 21
684.43908616188662
  0
LINE
  8
_0-0_計極細
  6
CONTINUOUS
 62
    2
 10
511.43374985668629
 20
679.43908616188662
 11
518.43374985668629
 21
679.43908616188662
  0
LINE
  8
_0-0_計極細
  6
CONTINUOUS
 62
    2
 10
511.43374985668629
 20
684.43908616188662
 11
518.43374985668629
 21
684.43908616188662
  0
LINE
  8
_0-0_計極細
  6
CONTINUOUS
 62
    2
 10
501.43374985668629
 20
679.43908616188662
 11
508.43374985668629
 21
679.43908616188662
  0
LINE
  8
_0-0_計極細
  6
CONTINUOUS
 62
    2
 10
501.43374985668629
 20
684.43908616188662
 11
508.43374985668629
 21
684.43908616188662
  0
LINE
  8
_0-0_計極細
  6
CONTINUOUS
 62
    2
 10
491.43374985668629
 20
679.43908616188662
 11
498.43374985668629
 21
679.43908616188662
  0
LINE
  8
_0-0_計極細
  6
CONTINUOUS
 62
    2
 10
491.43374985668629
 20
684.43908616188662
 11
498.43374985668629
 21
684.43908616188662
  0
LINE
  8
_0-0_計極細
  6
CONTINUOUS
 62
    2
 10
481.43374985668629
 20
679.43908616188662
 11
488.43374985668629
 21
679.43908616188662
  0
LINE
  8
_0-0_計極細
  6
CONTINUOUS
 62
    2
 10
481.43374985668629
 20
684.43908616188662
 11
488.43374985668629
 21
684.43908616188662
  0
LINE
  8
_0-0_計極細
  6
CONTINUOUS
 62
    2
 10
471.43374985668629
 20
679.43908616188662
 11
478.43374985668629
 21
679.43908616188662
  0
LINE
  8
_0-0_計極細
  6
CONTINUOUS
 62
    2
 10
471.43374985668629
 20
684.43908616188662
 11
478.43374985668629
 21
684.43908616188662
  0
LINE
  8
_0-0_計極細
  6
CONTINUOUS
 62
    2
 10
461.43374985668629
 20
679.43908616188662
 11
468.43374985668629
 21
679.43908616188662
  0
LINE
  8
_0-0_計極細
  6
CONTINUOUS
 62
    2
 10
461.43374985668629
 20
684.43908616188662
 11
468.43374985668629
 21
684.43908616188662
  0
LINE
  8
_0-0_計極細
  6
CONTINUOUS
 62
    2
 10
451.43374985668629
 20
679.43908616188662
 11
458.43374985668629
 21
679.43908616188662
  0
LINE
  8
_0-0_計極細
  6
CONTINUOUS
 62
    2
 10
451.43374985668629
 20
684.43908616188662
 11
458.43374985668629
 21
684.43908616188662
  0
LINE
  8
_0-0_計極細
  6
CONTINUOUS
 62
    2
 10
441.43374985668629
 20
679.43908616188662
 11
448.43374985668629
 21
679.43908616188662
  0
LINE
  8
_0-0_計極細
  6
CONTINUOUS
 62
    2
 10
441.43374985668629
 20
684.43908616188662
 11
448.43374985668629
 21
684.43908616188662
  0
LINE
  8
_0-0_計極細
  6
CONTINUOUS
 62
    2
 10
431.43374985668629
 20
679.43908616188662
 11
438.43374985668629
 21
679.43908616188662
  0
LINE
  8
_0-0_計極細
  6
CONTINUOUS
 62
    2
 10
431.43374985668629
 20
684.43908616188662
 11
438.43374985668629
 21
684.43908616188662
  0
LINE
  8
_0-0_計極細
  6
CONTINUOUS
 62
    2
 10
421.43374985668629
 20
679.43908616188662
 11
428.43374985668629
 21
679.43908616188662
  0
LINE
  8
_0-0_計極細
  6
CONTINUOUS
 62
    2
 10
421.43374985668629
 20
684.43908616188662
 11
428.43374985668629
 21
684.43908616188662
  0
LINE
  8
_0-0_計極細
  6
CONTINUOUS
 62
    2
 10
411.43374985668629
 20
679.43908616188662
 11
418.43374985668629
 21
679.43908616188662
  0
LINE
  8
_0-0_計極細
  6
CONTINUOUS
 62
    2
 10
411.43374985668629
 20
684.43908616188662
 11
418.43374985668629
 21
684.43908616188662
  0
LINE
  8
_0-0_計極細
  6
CONTINUOUS
 62
    2
 10
401.43374985668629
 20
679.43908616188662
 11
408.43374985668629
 21
679.43908616188662
  0
LINE
  8
_0-0_計極細
  6
CONTINUOUS
 62
    2
 10
401.43374985668629
 20
684.43908616188662
 11
408.43374985668629
 21
684.43908616188662
  0
LINE
  8
_0-0_計極細
  6
CONTINUOUS
 62
    2
 10
391.43374985668629
 20
679.43908616188662
 11
398.43374985668629
 21
679.43908616188662
  0
LINE
  8
_0-0_計極細
  6
CONTINUOUS
 62
    2
 10
391.43374985668629
 20
684.43908616188662
 11
398.43374985668629
 21
684.43908616188662
  0
LINE
  8
_0-0_計極細
  6
CONTINUOUS
 62
    2
 10
381.43374985668629
 20
679.43908616188662
 11
388.43374985668629
 21
679.43908616188662
  0
LINE
  8
_0-0_計極細
  6
CONTINUOUS
 62
    2
 10
381.43374985668629
 20
684.43908616188662
 11
388.43374985668629
 21
684.43908616188662
  0
LINE
  8
_0-0_計極細
  6
CONTINUOUS
 62
    2
 10
371.43374985668629
 20
679.43908616188662
 11
378.43374985668629
 21
679.43908616188662
  0
LINE
  8
_0-0_計極細
  6
CONTINUOUS
 62
    2
 10
371.43374985668629
 20
684.43908616188662
 11
378.43374985668629
 21
684.43908616188662
  0
LINE
  8
_0-0_計極細
  6
CONTINUOUS
 62
    2
 10
361.43374985668629
 20
679.43908616188662
 11
368.43374985668629
 21
679.43908616188662
  0
LINE
  8
_0-0_計極細
  6
CONTINUOUS
 62
    2
 10
361.43374985668629
 20
684.43908616188662
 11
368.43374985668629
 21
684.43908616188662
  0
LINE
  8
_0-0_計極細
  6
CONTINUOUS
 62
    2
 10
351.43374985668629
 20
679.43908616188662
 11
358.43374985668629
 21
679.43908616188662
  0
LINE
  8
_0-0_計極細
  6
CONTINUOUS
 62
    2
 10
351.43374985668629
 20
684.43908616188662
 11
358.43374985668629
 21
684.43908616188662
  0
LINE
  8
_0-0_計極細
  6
CONTINUOUS
 62
    2
 10
341.43374985668629
 20
679.43908616188662
 11
348.43374985668629
 21
679.43908616188662
  0
LINE
  8
_0-0_計極細
  6
CONTINUOUS
 62
    2
 10
341.43374985668629
 20
684.43908616188662
 11
348.43374985668629
 21
684.43908616188662
  0
LINE
  8
_0-0_計極細
  6
CONTINUOUS
 62
    2
 10
331.43374985668629
 20
679.43908616188662
 11
338.43374985668629
 21
679.43908616188662
  0
LINE
  8
_0-0_計極細
  6
CONTINUOUS
 62
    2
 10
331.43374985668629
 20
684.43908616188662
 11
338.43374985668629
 21
684.43908616188662
  0
LINE
  8
_0-0_計極細
  6
CONTINUOUS
 62
    2
 10
321.43374985668629
 20
679.43908616188662
 11
328.43374985668629
 21
679.43908616188662
  0
LINE
  8
_0-0_計極細
  6
CONTINUOUS
 62
    2
 10
321.43374985668629
 20
684.43908616188662
 11
328.43374985668629
 21
684.43908616188662
  0
LINE
  8
_0-0_計極細
  6
CONTINUOUS
 62
    2
 10
311.43374985668629
 20
679.43908616188662
 11
318.43374985668629
 21
679.43908616188662
  0
LINE
  8
_0-0_計極細
  6
CONTINUOUS
 62
    2
 10
311.43374985668629
 20
684.43908616188662
 11
318.43374985668629
 21
684.43908616188662
  0
LINE
  8
_0-0_計極細
  6
CONTINUOUS
 62
    2
 10
301.43374985668629
 20
679.43908616188662
 11
308.43374985668629
 21
679.43908616188662
  0
LINE
  8
_0-0_計極細
  6
CONTINUOUS
 62
    2
 10
301.43374985668629
 20
684.43908616188662
 11
308.43374985668629
 21
684.43908616188662
  0
LINE
  8
_0-0_計極細
  6
CONTINUOUS
 62
    2
 10
291.43374985668629
 20
679.43908616188662
 11
298.43374985668629
 21
679.43908616188662
  0
LINE
  8
_0-0_計極細
  6
CONTINUOUS
 62
    2
 10
291.43374985668629
 20
684.43908616188662
 11
298.43374985668629
 21
684.43908616188662
  0
LINE
  8
_0-0_計極細
  6
CONTINUOUS
 62
    2
 10
281.43374985668629
 20
679.43908616188662
 11
288.43374985668629
 21
679.43908616188662
  0
LINE
  8
_0-0_計極細
  6
CONTINUOUS
 62
    2
 10
281.43374985668629
 20
684.43908616188662
 11
288.43374985668629
 21
684.43908616188662
  0
LINE
  8
_0-0_計極細
  6
CONTINUOUS
 62
    2
 10
271.43374985668629
 20
679.43908616188662
 11
278.43374985668629
 21
679.43908616188662
  0
LINE
  8
_0-0_計極細
  6
CONTINUOUS
 62
    2
 10
271.43374985668629
 20
684.43908616188662
 11
278.43374985668629
 21
684.43908616188662
  0
LINE
  8
_0-0_計極細
  6
CONTINUOUS
 62
    2
 10
261.43374985668629
 20
679.43908616188662
 11
268.43374985668629
 21
679.43908616188662
  0
LINE
  8
_0-0_計極細
  6
CONTINUOUS
 62
    2
 10
261.43374985668629
 20
684.43908616188662
 11
268.43374985668629
 21
684.43908616188662
  0
LINE
  8
_0-0_計極細
  6
CONTINUOUS
 62
    2
 10
251.43374985668629
 20
679.43908616188662
 11
258.43374985668629
 21
679.43908616188662
  0
LINE
  8
_0-0_計極細
  6
CONTINUOUS
 62
    2
 10
251.43374985668629
 20
684.43908616188662
 11
258.43374985668629
 21
684.43908616188662
  0
LINE
  8
_0-0_計極細
  6
CONTINUOUS
 62
    2
 10
231.43374985668629
 20
679.43908616188662
 11
238.43374985668632
 21
679.43908616188662
  0
LINE
  8
_0-0_計極細
  6
CONTINUOUS
 62
    2
 10
231.43374985668629
 20
684.43908616188662
 11
238.43374985668632
 21
684.43908616188662
  0
LINE
  8
_0-0_計極細
  6
CONTINUOUS
 62
    2
 10
241.43374985668629
 20
679.43908616188662
 11
248.43374985668632
 21
679.43908616188662
  0
LINE
  8
_0-0_計極細
  6
CONTINUOUS
 62
    2
 10
241.43374985668629
 20
684.43908616188662
 11
248.43374985668632
 21
684.43908616188662
  0
LINE
  8
_0-1_計細線
  6
CONTINUOUS
 62
    3
 10
1221.4337498566863
 20
778.93908616188753
 11
228.43374985668632
 21
778.93908616188753
  0
LINE
  8
_0-1_計細線
  6
CONTINUOUS
 62
    3
 10
228.43374985668632
 20
778.93908616188753
 11
228.43374985668632
 21
781.93908616188764
  0
LINE
  8
_0-1_計細線
  6
CONTINUOUS
 62
    3
 10
228.43374985668632
 20
781.93908616188764
 11
1221.4337498566863
 21
781.93908616188764
  0
LINE
  8
_0-1_計細線
  6
CONTINUOUS
 62
    3
 10
1221.4337498566863
 20
781.93908616188764
 11
1221.4337498566863
 21
778.93908616188753
  0
LINE
  8
_0-1_計細線
  6
CONTINUOUS
 62
    3
 10
1218.4337498566863
 20
756.93908616188753
 11
1211.4337498566863
 21
756.93908616188753
  0
LINE
  8
_0-1_計細線
  6
CONTINUOUS
 62
    3
 10
1208.4337498566863
 20
756.93908616188753
 11
1201.4337498566863
 21
756.93908616188753
  0
LINE
  8
_0-1_計細線
  6
CONTINUOUS
 62
    3
 10
1198.4337498566863
 20
756.93908616188753
 11
1191.4337498566863
 21
756.93908616188753
  0
LINE
  8
_0-1_計細線
  6
CONTINUOUS
 62
    3
 10
1188.4337498566863
 20
756.93908616188753
 11
1181.4337498566863
 21
756.93908616188753
  0
LINE
  8
_0-1_計細線
  6
CONTINUOUS
 62
    3
 10
1178.4337498566863
 20
756.93908616188753
 11
1171.4337498566863
 21
756.93908616188753
  0
LINE
  8
_0-1_計細線
  6
CONTINUOUS
 62
    3
 10
1168.4337498566863
 20
756.93908616188753
 11
1161.4337498566863
 21
756.93908616188753
  0
LINE
  8
_0-1_計細線
  6
CONTINUOUS
 62
    3
 10
1158.4337498566863
 20
756.93908616188753
 11
1151.4337498566863
 21
756.93908616188753
  0
LINE
  8
_0-1_計細線
  6
CONTINUOUS
 62
    3
 10
1148.4337498566863
 20
756.93908616188753
 11
1141.4337498566863
 21
756.93908616188753
  0
LINE
  8
_0-1_計細線
  6
CONTINUOUS
 62
    3
 10
1138.4337498566863
 20
756.93908616188753
 11
1131.4337498566863
 21
756.93908616188753
  0
LINE
  8
_0-1_計細線
  6
CONTINUOUS
 62
    3
 10
1128.4337498566863
 20
756.93908616188753
 11
1121.4337498566863
 21
756.93908616188753
  0
LINE
  8
_0-1_計細線
  6
CONTINUOUS
 62
    3
 10
1118.4337498566863
 20
756.93908616188753
 11
1111.4337498566863
 21
756.93908616188753
  0
LINE
  8
_0-1_計細線
  6
CONTINUOUS
 62
    3
 10
1108.4337498566863
 20
756.93908616188753
 11
1101.4337498566863
 21
756.93908616188753
  0
LINE
  8
_0-1_計細線
  6
CONTINUOUS
 62
    3
 10
1098.4337498566863
 20
756.93908616188753
 11
1091.4337498566863
 21
756.93908616188753
  0
LINE
  8
_0-1_計細線
  6
CONTINUOUS
 62
    3
 10
1088.4337498566863
 20
756.93908616188753
 11
1081.4337498566863
 21
756.93908616188753
  0
LINE
  8
_0-1_計細線
  6
CONTINUOUS
 62
    3
 10
1078.4337498566863
 20
756.93908616188753
 11
1071.4337498566863
 21
756.93908616188753
  0
LINE
  8
_0-1_計細線
  6
CONTINUOUS
 62
    3
 10
1068.4337498566863
 20
756.93908616188753
 11
1061.4337498566863
 21
756.93908616188753
  0
LINE
  8
_0-1_計細線
  6
CONTINUOUS
 62
    3
 10
1058.4337498566863
 20
756.93908616188753
 11
1051.4337498566863
 21
756.93908616188753
  0
LINE
  8
_0-1_計細線
  6
CONTINUOUS
 62
    3
 10
1048.4337498566863
 20
756.93908616188753
 11
1041.4337498566863
 21
756.93908616188753
  0
LINE
  8
_0-1_計細線
  6
CONTINUOUS
 62
    3
 10
1038.4337498566863
 20
756.93908616188753
 11
1031.4337498566863
 21
756.93908616188753
  0
LINE
  8
_0-1_計細線
  6
CONTINUOUS
 62
    3
 10
1028.4337498566863
 20
756.93908616188753
 11
1021.4337498566863
 21
756.93908616188753
  0
LINE
  8
_0-1_計細線
  6
CONTINUOUS
 62
    3
 10
1018.4337498566863
 20
756.93908616188753
 11
1011.4337498566863
 21
756.93908616188753
  0
LINE
  8
_0-1_計細線
  6
CONTINUOUS
 62
    3
 10
1008.4337498566863
 20
756.93908616188753
 11
1001.4337498566863
 21
756.93908616188753
  0
LINE
  8
_0-1_計細線
  6
CONTINUOUS
 62
    3
 10
998.43374985668629
 20
756.93908616188753
 11
991.43374985668629
 21
756.93908616188753
  0
LINE
  8
_0-1_計細線
  6
CONTINUOUS
 62
    3
 10
988.43374985668629
 20
756.93908616188753
 11
981.43374985668629
 21
756.93908616188753
  0
LINE
  8
_0-1_計細線
  6
CONTINUOUS
 62
    3
 10
978.43374985668629
 20
756.93908616188753
 11
971.43374985668629
 21
756.93908616188753
  0
LINE
  8
_0-1_計細線
  6
CONTINUOUS
 62
    3
 10
968.43374985668629
 20
756.93908616188753
 11
961.43374985668629
 21
756.93908616188753
  0
LINE
  8
_0-1_計細線
  6
CONTINUOUS
 62
    3
 10
958.43374985668629
 20
756.93908616188753
 11
951.43374985668629
 21
756.93908616188753
  0
LINE
  8
_0-1_計細線
  6
CONTINUOUS
 62
    3
 10
948.43374985668629
 20
756.93908616188753
 11
941.43374985668629
 21
756.93908616188753
  0
LINE
  8
_0-1_計細線
  6
CONTINUOUS
 62
    3
 10
938.43374985668629
 20
756.93908616188753
 11
931.43374985668629
 21
756.93908616188753
  0
LINE
  8
_0-1_計細線
  6
CONTINUOUS
 62
    3
 10
928.43374985668629
 20
756.93908616188753
 11
921.43374985668629
 21
756.93908616188753
  0
LINE
  8
_0-1_計細線
  6
CONTINUOUS
 62
    3
 10
918.43374985668629
 20
756.93908616188753
 11
911.43374985668629
 21
756.93908616188753
  0
LINE
  8
_0-1_計細線
  6
CONTINUOUS
 62
    3
 10
908.43374985668629
 20
756.93908616188753
 11
901.43374985668629
 21
756.93908616188753
  0
LINE
  8
_0-1_計細線
  6
CONTINUOUS
 62
    3
 10
898.43374985668629
 20
756.93908616188753
 11
891.43374985668629
 21
756.93908616188753
  0
LINE
  8
_0-1_計細線
  6
CONTINUOUS
 62
    3
 10
888.43374985668629
 20
756.93908616188753
 11
881.43374985668629
 21
756.93908616188753
  0
LINE
  8
_0-1_計細線
  6
CONTINUOUS
 62
    3
 10
878.43374985668629
 20
756.93908616188753
 11
871.43374985668629
 21
756.93908616188753
  0
LINE
  8
_0-1_計細線
  6
CONTINUOUS
 62
    3
 10
868.43374985668629
 20
756.93908616188753
 11
861.43374985668629
 21
756.93908616188753
  0
LINE
  8
_0-1_計細線
  6
CONTINUOUS
 62
    3
 10
858.43374985668629
 20
756.93908616188753
 11
851.43374985668629
 21
756.93908616188753
  0
LINE
  8
_0-1_計細線
  6
CONTINUOUS
 62
    3
 10
848.43374985668629
 20
756.93908616188753
 11
841.43374985668629
 21
756.93908616188753
  0
LINE
  8
_0-1_計細線
  6
CONTINUOUS
 62
    3
 10
838.43374985668629
 20
756.93908616188753
 11
831.43374985668629
 21
756.93908616188753
  0
LINE
  8
_0-1_計細線
  6
CONTINUOUS
 62
    3
 10
828.43374985668629
 20
756.93908616188753
 11
821.43374985668629
 21
756.93908616188753
  0
LINE
  8
_0-1_計細線
  6
CONTINUOUS
 62
    3
 10
818.43374985668629
 20
756.93908616188753
 11
811.43374985668629
 21
756.93908616188753
  0
LINE
  8
_0-1_計細線
  6
CONTINUOUS
 62
    3
 10
808.43374985668629
 20
756.93908616188753
 11
801.43374985668629
 21
756.93908616188753
  0
LINE
  8
_0-1_計細線
  6
CONTINUOUS
 62
    3
 10
798.43374985668629
 20
756.93908616188753
 11
791.43374985668629
 21
756.93908616188753
  0
LINE
  8
_0-1_計細線
  6
CONTINUOUS
 62
    3
 10
788.43374985668629
 20
756.93908616188753
 11
781.43374985668629
 21
756.93908616188753
  0
LINE
  8
_0-1_計細線
  6
CONTINUOUS
 62
    3
 10
778.43374985668629
 20
756.93908616188753
 11
771.43374985668629
 21
756.93908616188753
  0
LINE
  8
_0-1_計細線
  6
CONTINUOUS
 62
    3
 10
768.43374985668629
 20
756.93908616188753
 11
761.43374985668629
 21
756.93908616188753
  0
LINE
  8
_0-1_計細線
  6
CONTINUOUS
 62
    3
 10
758.43374985668629
 20
756.93908616188753
 11
751.43374985668629
 21
756.93908616188753
  0
LINE
  8
_0-1_計細線
  6
CONTINUOUS
 62
    3
 10
748.43374985668629
 20
756.93908616188753
 11
741.43374985668629
 21
756.93908616188753
  0
LINE
  8
_0-1_計細線
  6
CONTINUOUS
 62
    3
 10
738.43374985668629
 20
756.93908616188753
 11
731.43374985668629
 21
756.93908616188753
  0
LINE
  8
_0-1_計細線
  6
CONTINUOUS
 62
    3
 10
728.43374985668629
 20
756.93908616188753
 11
721.43374985668629
 21
756.93908616188753
  0
LINE
  8
_0-1_計細線
  6
CONTINUOUS
 62
    3
 10
718.43374985668629
 20
756.93908616188753
 11
711.43374985668629
 21
756.93908616188753
  0
LINE
  8
_0-1_計細線
  6
CONTINUOUS
 62
    3
 10
708.43374985668629
 20
756.93908616188753
 11
701.43374985668629
 21
756.93908616188753
  0
LINE
  8
_0-1_計細線
  6
CONTINUOUS
 62
    3
 10
698.43374985668629
 20
756.93908616188753
 11
691.43374985668629
 21
756.93908616188753
  0
LINE
  8
_0-1_計細線
  6
CONTINUOUS
 62
    3
 10
688.43374985668629
 20
756.93908616188753
 11
681.43374985668629
 21
756.93908616188753
  0
LINE
  8
_0-1_計細線
  6
CONTINUOUS
 62
    3
 10
678.43374985668629
 20
756.93908616188753
 11
671.43374985668629
 21
756.93908616188753
  0
LINE
  8
_0-1_計細線
  6
CONTINUOUS
 62
    3
 10
668.43374985668629
 20
756.93908616188753
 11
661.43374985668629
 21
756.93908616188753
  0
LINE
  8
_0-1_計細線
  6
CONTINUOUS
 62
    3
 10
658.43374985668629
 20
756.93908616188753
 11
651.43374985668629
 21
756.93908616188753
  0
LINE
  8
_0-1_計細線
  6
CONTINUOUS
 62
    3
 10
648.43374985668629
 20
756.93908616188753
 11
641.43374985668629
 21
756.93908616188753
  0
LINE
  8
_0-1_計細線
  6
CONTINUOUS
 62
    3
 10
638.43374985668629
 20
756.93908616188753
 11
631.43374985668629
 21
756.93908616188753
  0
LINE
  8
_0-1_計細線
  6
CONTINUOUS
 62
    3
 10
628.43374985668629
 20
756.93908616188753
 11
621.43374985668629
 21
756.93908616188753
  0
LINE
  8
_0-1_計細線
  6
CONTINUOUS
 62
    3
 10
618.43374985668629
 20
756.93908616188753
 11
611.43374985668629
 21
756.93908616188753
  0
LINE
  8
_0-1_計細線
  6
CONTINUOUS
 62
    3
 10
608.43374985668629
 20
756.93908616188753
 11
601.43374985668629
 21
756.93908616188753
  0
LINE
  8
_0-1_計細線
  6
CONTINUOUS
 62
    3
 10
598.43374985668629
 20
756.93908616188753
 11
591.43374985668629
 21
756.93908616188753
  0
LINE
  8
_0-1_計細線
  6
CONTINUOUS
 62
    3
 10
588.43374985668629
 20
756.93908616188753
 11
581.43374985668629
 21
756.93908616188753
  0
LINE
  8
_0-1_計細線
  6
CONTINUOUS
 62
    3
 10
578.43374985668629
 20
756.93908616188753
 11
571.43374985668629
 21
756.93908616188753
  0
LINE
  8
_0-1_計細線
  6
CONTINUOUS
 62
    3
 10
568.43374985668629
 20
756.93908616188753
 11
561.43374985668629
 21
756.93908616188753
  0
LINE
  8
_0-1_計細線
  6
CONTINUOUS
 62
    3
 10
558.43374985668629
 20
756.93908616188753
 11
551.43374985668629
 21
756.93908616188753
  0
LINE
  8
_0-1_計細線
  6
CONTINUOUS
 62
    3
 10
548.43374985668629
 20
756.93908616188753
 11
541.43374985668629
 21
756.93908616188753
  0
LINE
  8
_0-1_計細線
  6
CONTINUOUS
 62
    3
 10
538.43374985668629
 20
756.93908616188753
 11
531.43374985668629
 21
756.93908616188753
  0
LINE
  8
_0-1_計細線
  6
CONTINUOUS
 62
    3
 10
528.43374985668629
 20
756.93908616188753
 11
521.43374985668629
 21
756.93908616188753
  0
LINE
  8
_0-1_計細線
  6
CONTINUOUS
 62
    3
 10
518.43374985668629
 20
756.93908616188753
 11
511.43374985668629
 21
756.93908616188753
  0
LINE
  8
_0-1_計細線
  6
CONTINUOUS
 62
    3
 10
508.43374985668629
 20
756.93908616188753
 11
501.43374985668629
 21
756.93908616188753
  0
LINE
  8
_0-1_計細線
  6
CONTINUOUS
 62
    3
 10
498.43374985668629
 20
756.93908616188753
 11
491.43374985668629
 21
756.93908616188753
  0
LINE
  8
_0-1_計細線
  6
CONTINUOUS
 62
    3
 10
488.43374985668629
 20
756.93908616188753
 11
481.43374985668629
 21
756.93908616188753
  0
LINE
  8
_0-1_計細線
  6
CONTINUOUS
 62
    3
 10
478.43374985668629
 20
756.93908616188753
 11
471.43374985668629
 21
756.93908616188753
  0
LINE
  8
_0-1_計細線
  6
CONTINUOUS
 62
    3
 10
468.43374985668629
 20
756.93908616188753
 11
461.43374985668629
 21
756.93908616188753
  0
LINE
  8
_0-1_計細線
  6
CONTINUOUS
 62
    3
 10
458.43374985668629
 20
756.93908616188753
 11
451.43374985668629
 21
756.93908616188753
  0
LINE
  8
_0-1_計細線
  6
CONTINUOUS
 62
    3
 10
448.43374985668629
 20
756.93908616188753
 11
441.43374985668629
 21
756.93908616188753
  0
LINE
  8
_0-1_計細線
  6
CONTINUOUS
 62
    3
 10
438.43374985668629
 20
756.93908616188753
 11
431.43374985668629
 21
756.93908616188753
  0
LINE
  8
_0-1_計細線
  6
CONTINUOUS
 62
    3
 10
428.43374985668629
 20
756.93908616188753
 11
421.43374985668629
 21
756.93908616188753
  0
LINE
  8
_0-1_計細線
  6
CONTINUOUS
 62
    3
 10
418.43374985668629
 20
756.93908616188753
 11
411.43374985668629
 21
756.93908616188753
  0
LINE
  8
_0-1_計細線
  6
CONTINUOUS
 62
    3
 10
408.43374985668629
 20
756.93908616188753
 11
401.43374985668629
 21
756.93908616188753
  0
LINE
  8
_0-1_計細線
  6
CONTINUOUS
 62
    3
 10
398.43374985668629
 20
756.93908616188753
 11
391.43374985668629
 21
756.93908616188753
  0
LINE
  8
_0-1_計細線
  6
CONTINUOUS
 62
    3
 10
388.43374985668629
 20
756.93908616188753
 11
381.43374985668629
 21
756.93908616188753
  0
LINE
  8
_0-1_計細線
  6
CONTINUOUS
 62
    3
 10
378.43374985668629
 20
756.93908616188753
 11
371.43374985668629
 21
756.93908616188753
  0
LINE
  8
_0-1_計細線
  6
CONTINUOUS
 62
    3
 10
368.43374985668629
 20
756.93908616188753
 11
361.43374985668629
 21
756.93908616188753
  0
LINE
  8
_0-1_計細線
  6
CONTINUOUS
 62
    3
 10
358.43374985668629
 20
756.93908616188753
 11
351.43374985668629
 21
756.93908616188753
  0
LINE
  8
_0-1_計細線
  6
CONTINUOUS
 62
    3
 10
348.43374985668629
 20
756.93908616188753
 11
341.43374985668629
 21
756.93908616188753
  0
LINE
  8
_0-1_計細線
  6
CONTINUOUS
 62
    3
 10
338.43374985668629
 20
756.93908616188753
 11
331.43374985668629
 21
756.93908616188753
  0
LINE
  8
_0-1_計細線
  6
CONTINUOUS
 62
    3
 10
328.43374985668629
 20
756.93908616188753
 11
321.43374985668629
 21
756.93908616188753
  0
LINE
  8
_0-1_計細線
  6
CONTINUOUS
 62
    3
 10
318.43374985668629
 20
756.93908616188753
 11
311.43374985668629
 21
756.93908616188753
  0
LINE
  8
_0-1_計細線
  6
CONTINUOUS
 62
    3
 10
308.43374985668629
 20
756.93908616188753
 11
301.43374985668629
 21
756.93908616188753
  0
LINE
  8
_0-1_計細線
  6
CONTINUOUS
 62
    3
 10
298.43374985668629
 20
756.93908616188753
 11
291.43374985668629
 21
756.93908616188753
  0
LINE
  8
_0-1_計細線
  6
CONTINUOUS
 62
    3
 10
288.43374985668629
 20
756.93908616188753
 11
281.43374985668629
 21
756.93908616188753
  0
LINE
  8
_0-1_計細線
  6
CONTINUOUS
 62
    3
 10
278.43374985668629
 20
756.93908616188753
 11
271.43374985668629
 21
756.93908616188753
  0
LINE
  8
_0-1_計細線
  6
CONTINUOUS
 62
    3
 10
268.43374985668629
 20
756.93908616188753
 11
261.43374985668629
 21
756.93908616188753
  0
LINE
  8
_0-1_計細線
  6
CONTINUOUS
 62
    3
 10
258.43374985668629
 20
756.93908616188753
 11
251.43374985668629
 21
756.93908616188753
  0
LINE
  8
_0-1_計細線
  6
CONTINUOUS
 62
    3
 10
248.43374985668632
 20
756.93908616188753
 11
241.43374985668629
 21
756.93908616188753
  0
LINE
  8
_0-1_計細線
  6
CONTINUOUS
 62
    3
 10
238.43374985668632
 20
756.93908616188753
 11
231.43374985668629
 21
756.93908616188753
  0
LINE
  8
_0-1_計細線
  6
CONTINUOUS
 62
    3
 10
228.43374985668632
 20
756.93908616188753
 11
200.43374985668635
 21
756.93908616188753
  0
LINE
  8
_0-1_計細線
  6
CONTINUOUS
 62
    3
 10
1221.4337498566863
 20
756.93908616188753
 11
1249.4337498566865
 21
756.93908616188753
  0
LINE
  8
_0-1_計細線
  6
CONTINUOUS
 62
    3
 10
201.74584224221121
 20
783.93908616188753
 11
1250.7458422422112
 21
783.93908616188753
  0
LINE
  8
_0-1_計細線
  6
CONTINUOUS
 62
    3
 10
200.43374985668635
 20
786.93908616188764
 11
1249.4337498566865
 21
786.93908616188764
  0
ARC
  8
_0-0_計極細
  6
CONTINUOUS
 62
    2
 10
1236.4433687998753
 20
779.4390861618831
 40
15.000000000036371
 50
330.00000000009993
 51
29.999999999930402
  0
ARC
  8
_0-0_計極細
  6
CONTINUOUS
 62
    2
 10
1262.424130913442
 20
764.4390861618989
 40
14.999999999996563
 50
150.00000000001793
 51
210.00000000005798
  0
ARC
  8
_0-0_計極細
  6
CONTINUOUS
 62
    2
 10
187.44336879992872
 20
779.43908616189117
 40
14.999999999993854
 50
329.99999999997038
 51
30.000000000005667
  0
ARC
  8
_0-0_計極細
  6
CONTINUOUS
 62
    2
 10
213.42413091343744
 20
764.43908616189117
 40
14.999999999988354
 50
149.99999999998181
 51
210.00000000004107
  0
LINE
  8
_0-1_計細線
  6
CONTINUOUS
 62
    3
 10
1221.4337498566863
 20
584.93908616188708
 11
228.43374985668632
 21
584.93908616188708
  0
LINE
  8
_0-1_計細線
  6
CONTINUOUS
 62
    3
 10
228.43374985668632
 20
584.93908616188708
 11
228.43374985668632
 21
581.93908616188708
  0
LINE
  8
_0-1_計細線
  6
CONTINUOUS
 62
    3
 10
228.43374985668632
 20
581.93908616188708
 11
1221.4337498566863
 21
581.93908616188708
  0
LINE
  8
_0-1_計細線
  6
CONTINUOUS
 62
    3
 10
1221.4337498566863
 20
581.93908616188708
 11
1221.4337498566863
 21
584.93908616188708
  0
LINE
  8
_0-1_計細線
  6
CONTINUOUS
 62
    3
 10
1218.4337498566863
 20
606.93908616188662
 11
1211.4337498566863
 21
606.93908616188662
  0
LINE
  8
_0-1_計細線
  6
CONTINUOUS
 62
    3
 10
1208.4337498566863
 20
606.93908616188662
 11
1201.4337498566863
 21
606.93908616188662
  0
LINE
  8
_0-1_計細線
  6
CONTINUOUS
 62
    3
 10
1198.4337498566863
 20
606.93908616188662
 11
1191.4337498566863
 21
606.93908616188662
  0
LINE
  8
_0-1_計細線
  6
CONTINUOUS
 62
    3
 10
1188.4337498566863
 20
606.93908616188662
 11
1181.4337498566863
 21
606.93908616188662
  0
LINE
  8
_0-1_計細線
  6
CONTINUOUS
 62
    3
 10
1178.4337498566863
 20
606.93908616188662
 11
1171.4337498566863
 21
606.93908616188662
  0
LINE
  8
_0-1_計細線
  6
CONTINUOUS
 62
    3
 10
1168.4337498566863
 20
606.93908616188662
 11
1161.4337498566863
 21
606.93908616188662
  0
LINE
  8
_0-1_計細線
  6
CONTINUOUS
 62
    3
 10
1158.4337498566863
 20
606.93908616188662
 11
1151.4337498566863
 21
606.93908616188662
  0
LINE
  8
_0-1_計細線
  6
CONTINUOUS
 62
    3
 10
1148.4337498566863
 20
606.93908616188662
 11
1141.4337498566863
 21
606.93908616188662
  0
LINE
  8
_0-1_計細線
  6
CONTINUOUS
 62
    3
 10
1138.4337498566863
 20
606.93908616188662
 11
1131.4337498566863
 21
606.93908616188662
  0
LINE
  8
_0-1_計細線
  6
CONTINUOUS
 62
    3
 10
1128.4337498566863
 20
606.93908616188662
 11
1121.4337498566863
 21
606.93908616188662
  0
LINE
  8
_0-1_計細線
  6
CONTINUOUS
 62
    3
 10
1118.4337498566863
 20
606.93908616188662
 11
1111.4337498566863
 21
606.93908616188662
  0
LINE
  8
_0-1_計細線
  6
CONTINUOUS
 62
    3
 10
1108.4337498566863
 20
606.93908616188662
 11
1101.4337498566863
 21
606.93908616188662
  0
LINE
  8
_0-1_計細線
  6
CONTINUOUS
 62
    3
 10
1098.4337498566863
 20
606.93908616188662
 11
1091.4337498566863
 21
606.93908616188662
  0
LINE
  8
_0-1_計細線
  6
CONTINUOUS
 62
    3
 10
1088.4337498566863
 20
606.93908616188662
 11
1081.4337498566863
 21
606.93908616188662
  0
LINE
  8
_0-1_計細線
  6
CONTINUOUS
 62
    3
 10
1078.4337498566863
 20
606.93908616188662
 11
1071.4337498566863
 21
606.93908616188662
  0
LINE
  8
_0-1_計細線
  6
CONTINUOUS
 62
    3
 10
1068.4337498566863
 20
606.93908616188662
 11
1061.4337498566863
 21
606.93908616188662
  0
LINE
  8
_0-1_計細線
  6
CONTINUOUS
 62
    3
 10
1058.4337498566863
 20
606.93908616188662
 11
1051.4337498566863
 21
606.93908616188662
  0
LINE
  8
_0-1_計細線
  6
CONTINUOUS
 62
    3
 10
1048.4337498566863
 20
606.93908616188662
 11
1041.4337498566863
 21
606.93908616188662
  0
LINE
  8
_0-1_計細線
  6
CONTINUOUS
 62
    3
 10
1038.4337498566863
 20
606.93908616188662
 11
1031.4337498566863
 21
606.93908616188662
  0
LINE
  8
_0-1_計細線
  6
CONTINUOUS
 62
    3
 10
1028.4337498566863
 20
606.93908616188662
 11
1021.4337498566863
 21
606.93908616188662
  0
LINE
  8
_0-1_計細線
  6
CONTINUOUS
 62
    3
 10
1018.4337498566863
 20
606.93908616188662
 11
1011.4337498566863
 21
606.93908616188662
  0
LINE
  8
_0-1_計細線
  6
CONTINUOUS
 62
    3
 10
1008.4337498566863
 20
606.93908616188662
 11
1001.4337498566863
 21
606.93908616188662
  0
LINE
  8
_0-1_計細線
  6
CONTINUOUS
 62
    3
 10
998.43374985668629
 20
606.93908616188662
 11
991.43374985668629
 21
606.93908616188662
  0
LINE
  8
_0-1_計細線
  6
CONTINUOUS
 62
    3
 10
988.43374985668629
 20
606.93908616188662
 11
981.43374985668629
 21
606.93908616188662
  0
LINE
  8
_0-1_計細線
  6
CONTINUOUS
 62
    3
 10
978.43374985668629
 20
606.93908616188662
 11
971.43374985668629
 21
606.93908616188662
  0
LINE
  8
_0-1_計細線
  6
CONTINUOUS
 62
    3
 10
968.43374985668629
 20
606.93908616188662
 11
961.43374985668629
 21
606.93908616188662
  0
LINE
  8
_0-1_計細線
  6
CONTINUOUS
 62
    3
 10
958.43374985668629
 20
606.93908616188662
 11
951.43374985668629
 21
606.93908616188662
  0
LINE
  8
_0-1_計細線
  6
CONTINUOUS
 62
    3
 10
948.43374985668629
 20
606.93908616188662
 11
941.43374985668629
 21
606.93908616188662
  0
LINE
  8
_0-1_計細線
  6
CONTINUOUS
 62
    3
 10
938.43374985668629
 20
606.93908616188662
 11
931.43374985668629
 21
606.93908616188662
  0
LINE
  8
_0-1_計細線
  6
CONTINUOUS
 62
    3
 10
928.43374985668629
 20
606.93908616188662
 11
921.43374985668629
 21
606.93908616188662
  0
LINE
  8
_0-1_計細線
  6
CONTINUOUS
 62
    3
 10
918.43374985668629
 20
606.93908616188662
 11
911.43374985668629
 21
606.93908616188662
  0
LINE
  8
_0-1_計細線
  6
CONTINUOUS
 62
    3
 10
908.43374985668629
 20
606.93908616188662
 11
901.43374985668629
 21
606.93908616188662
  0
LINE
  8
_0-1_計細線
  6
CONTINUOUS
 62
    3
 10
898.43374985668629
 20
606.93908616188662
 11
891.43374985668629
 21
606.93908616188662
  0
LINE
  8
_0-1_計細線
  6
CONTINUOUS
 62
    3
 10
888.43374985668629
 20
606.93908616188662
 11
881.43374985668629
 21
606.93908616188662
  0
LINE
  8
_0-1_計細線
  6
CONTINUOUS
 62
    3
 10
878.43374985668629
 20
606.93908616188662
 11
871.43374985668629
 21
606.93908616188662
  0
LINE
  8
_0-1_計細線
  6
CONTINUOUS
 62
    3
 10
868.43374985668629
 20
606.93908616188662
 11
861.43374985668629
 21
606.93908616188662
  0
LINE
  8
_0-1_計細線
  6
CONTINUOUS
 62
    3
 10
858.43374985668629
 20
606.93908616188662
 11
851.43374985668629
 21
606.93908616188662
  0
LINE
  8
_0-1_計細線
  6
CONTINUOUS
 62
    3
 10
848.43374985668629
 20
606.93908616188662
 11
841.43374985668629
 21
606.93908616188662
  0
LINE
  8
_0-1_計細線
  6
CONTINUOUS
 62
    3
 10
838.43374985668629
 20
606.93908616188662
 11
831.43374985668629
 21
606.93908616188662
  0
LINE
  8
_0-1_計細線
  6
CONTINUOUS
 62
    3
 10
828.43374985668629
 20
606.93908616188662
 11
821.43374985668629
 21
606.93908616188662
  0
LINE
  8
_0-1_計細線
  6
CONTINUOUS
 62
    3
 10
818.43374985668629
 20
606.93908616188662
 11
811.43374985668629
 21
606.93908616188662
  0
LINE
  8
_0-1_計細線
  6
CONTINUOUS
 62
    3
 10
808.43374985668629
 20
606.93908616188662
 11
801.43374985668629
 21
606.93908616188662
  0
LINE
  8
_0-1_計細線
  6
CONTINUOUS
 62
    3
 10
798.43374985668629
 20
606.93908616188662
 11
791.43374985668629
 21
606.93908616188662
  0
LINE
  8
_0-1_計細線
  6
CONTINUOUS
 62
    3
 10
788.43374985668629
 20
606.93908616188662
 11
781.43374985668629
 21
606.93908616188662
  0
LINE
  8
_0-1_計細線
  6
CONTINUOUS
 62
    3
 10
778.43374985668629
 20
606.93908616188662
 11
771.43374985668629
 21
606.93908616188662
  0
LINE
  8
_0-1_計細線
  6
CONTINUOUS
 62
    3
 10
768.43374985668629
 20
606.93908616188662
 11
761.43374985668629
 21
606.93908616188662
  0
LINE
  8
_0-1_計細線
  6
CONTINUOUS
 62
    3
 10
758.43374985668629
 20
606.93908616188662
 11
751.43374985668629
 21
606.93908616188662
  0
LINE
  8
_0-1_計細線
  6
CONTINUOUS
 62
    3
 10
748.43374985668629
 20
606.93908616188662
 11
741.43374985668629
 21
606.93908616188662
  0
LINE
  8
_0-1_計細線
  6
CONTINUOUS
 62
    3
 10
738.43374985668629
 20
606.93908616188662
 11
731.43374985668629
 21
606.93908616188662
  0
LINE
  8
_0-1_計細線
  6
CONTINUOUS
 62
    3
 10
728.43374985668629
 20
606.93908616188662
 11
721.43374985668629
 21
606.93908616188662
  0
LINE
  8
_0-1_計細線
  6
CONTINUOUS
 62
    3
 10
718.43374985668629
 20
606.93908616188662
 11
711.43374985668629
 21
606.93908616188662
  0
LINE
  8
_0-1_計細線
  6
CONTINUOUS
 62
    3
 10
708.43374985668629
 20
606.93908616188662
 11
701.43374985668629
 21
606.93908616188662
  0
LINE
  8
_0-1_計細線
  6
CONTINUOUS
 62
    3
 10
698.43374985668629
 20
606.93908616188662
 11
691.43374985668629
 21
606.93908616188662
  0
LINE
  8
_0-1_計細線
  6
CONTINUOUS
 62
    3
 10
688.43374985668629
 20
606.93908616188662
 11
681.43374985668629
 21
606.93908616188662
  0
LINE
  8
_0-1_計細線
  6
CONTINUOUS
 62
    3
 10
678.43374985668629
 20
606.93908616188662
 11
671.43374985668629
 21
606.93908616188662
  0
LINE
  8
_0-1_計細線
  6
CONTINUOUS
 62
    3
 10
668.43374985668629
 20
606.93908616188662
 11
661.43374985668629
 21
606.93908616188662
  0
LINE
  8
_0-1_計細線
  6
CONTINUOUS
 62
    3
 10
658.43374985668629
 20
606.93908616188662
 11
651.43374985668629
 21
606.93908616188662
  0
LINE
  8
_0-1_計細線
  6
CONTINUOUS
 62
    3
 10
648.43374985668629
 20
606.93908616188662
 11
641.43374985668629
 21
606.93908616188662
  0
LINE
  8
_0-1_計細線
  6
CONTINUOUS
 62
    3
 10
638.43374985668629
 20
606.93908616188662
 11
631.43374985668629
 21
606.93908616188662
  0
LINE
  8
_0-1_計細線
  6
CONTINUOUS
 62
    3
 10
628.43374985668629
 20
606.93908616188662
 11
621.43374985668629
 21
606.93908616188662
  0
LINE
  8
_0-1_計細線
  6
CONTINUOUS
 62
    3
 10
618.43374985668629
 20
606.93908616188662
 11
611.43374985668629
 21
606.93908616188662
  0
LINE
  8
_0-1_計細線
  6
CONTINUOUS
 62
    3
 10
608.43374985668629
 20
606.93908616188662
 11
601.43374985668629
 21
606.93908616188662
  0
LINE
  8
_0-1_計細線
  6
CONTINUOUS
 62
    3
 10
598.43374985668629
 20
606.93908616188662
 11
591.43374985668629
 21
606.93908616188662
  0
LINE
  8
_0-1_計細線
  6
CONTINUOUS
 62
    3
 10
588.43374985668629
 20
606.93908616188662
 11
581.43374985668629
 21
606.93908616188662
  0
LINE
  8
_0-1_計細線
  6
CONTINUOUS
 62
    3
 10
578.43374985668629
 20
606.93908616188662
 11
571.43374985668629
 21
606.93908616188662
  0
LINE
  8
_0-1_計細線
  6
CONTINUOUS
 62
    3
 10
568.43374985668629
 20
606.93908616188662
 11
561.43374985668629
 21
606.93908616188662
  0
LINE
  8
_0-1_計細線
  6
CONTINUOUS
 62
    3
 10
558.43374985668629
 20
606.93908616188662
 11
551.43374985668629
 21
606.93908616188662
  0
LINE
  8
_0-1_計細線
  6
CONTINUOUS
 62
    3
 10
548.43374985668629
 20
606.93908616188662
 11
541.43374985668629
 21
606.93908616188662
  0
LINE
  8
_0-1_計細線
  6
CONTINUOUS
 62
    3
 10
538.43374985668629
 20
606.93908616188662
 11
531.43374985668629
 21
606.93908616188662
  0
LINE
  8
_0-1_計細線
  6
CONTINUOUS
 62
    3
 10
528.43374985668629
 20
606.93908616188662
 11
521.43374985668629
 21
606.93908616188662
  0
LINE
  8
_0-1_計細線
  6
CONTINUOUS
 62
    3
 10
518.43374985668629
 20
606.93908616188662
 11
511.43374985668629
 21
606.93908616188662
  0
LINE
  8
_0-1_計細線
  6
CONTINUOUS
 62
    3
 10
508.43374985668629
 20
606.93908616188662
 11
501.43374985668629
 21
606.93908616188662
  0
LINE
  8
_0-1_計細線
  6
CONTINUOUS
 62
    3
 10
498.43374985668629
 20
606.93908616188662
 11
491.43374985668629
 21
606.93908616188662
  0
LINE
  8
_0-1_計細線
  6
CONTINUOUS
 62
    3
 10
488.43374985668629
 20
606.93908616188662
 11
481.43374985668629
 21
606.93908616188662
  0
LINE
  8
_0-1_計細線
  6
CONTINUOUS
 62
    3
 10
478.43374985668629
 20
606.93908616188662
 11
471.43374985668629
 21
606.93908616188662
  0
LINE
  8
_0-1_計細線
  6
CONTINUOUS
 62
    3
 10
468.43374985668629
 20
606.93908616188662
 11
461.43374985668629
 21
606.93908616188662
  0
LINE
  8
_0-1_計細線
  6
CONTINUOUS
 62
    3
 10
458.43374985668629
 20
606.93908616188662
 11
451.43374985668629
 21
606.93908616188662
  0
LINE
  8
_0-1_計細線
  6
CONTINUOUS
 62
    3
 10
448.43374985668629
 20
606.93908616188662
 11
441.43374985668629
 21
606.93908616188662
  0
LINE
  8
_0-1_計細線
  6
CONTINUOUS
 62
    3
 10
438.43374985668629
 20
606.93908616188662
 11
431.43374985668629
 21
606.93908616188662
  0
LINE
  8
_0-1_計細線
  6
CONTINUOUS
 62
    3
 10
428.43374985668629
 20
606.93908616188662
 11
421.43374985668629
 21
606.93908616188662
  0
LINE
  8
_0-1_計細線
  6
CONTINUOUS
 62
    3
 10
418.43374985668629
 20
606.93908616188662
 11
411.43374985668629
 21
606.93908616188662
  0
LINE
  8
_0-1_計細線
  6
CONTINUOUS
 62
    3
 10
408.43374985668629
 20
606.93908616188662
 11
401.43374985668629
 21
606.93908616188662
  0
LINE
  8
_0-1_計細線
  6
CONTINUOUS
 62
    3
 10
398.43374985668629
 20
606.93908616188662
 11
391.43374985668629
 21
606.93908616188662
  0
LINE
  8
_0-1_計細線
  6
CONTINUOUS
 62
    3
 10
388.43374985668629
 20
606.93908616188662
 11
381.43374985668629
 21
606.93908616188662
  0
LINE
  8
_0-1_計細線
  6
CONTINUOUS
 62
    3
 10
378.43374985668629
 20
606.93908616188662
 11
371.43374985668629
 21
606.93908616188662
  0
LINE
  8
_0-1_計細線
  6
CONTINUOUS
 62
    3
 10
368.43374985668629
 20
606.93908616188662
 11
361.43374985668629
 21
606.93908616188662
  0
LINE
  8
_0-1_計細線
  6
CONTINUOUS
 62
    3
 10
358.43374985668629
 20
606.93908616188662
 11
351.43374985668629
 21
606.93908616188662
  0
LINE
  8
_0-1_計細線
  6
CONTINUOUS
 62
    3
 10
348.43374985668629
 20
606.93908616188662
 11
341.43374985668629
 21
606.93908616188662
  0
LINE
  8
_0-1_計細線
  6
CONTINUOUS
 62
    3
 10
338.43374985668629
 20
606.93908616188662
 11
331.43374985668629
 21
606.93908616188662
  0
LINE
  8
_0-1_計細線
  6
CONTINUOUS
 62
    3
 10
328.43374985668629
 20
606.93908616188662
 11
321.43374985668629
 21
606.93908616188662
  0
LINE
  8
_0-1_計細線
  6
CONTINUOUS
 62
    3
 10
318.43374985668629
 20
606.93908616188662
 11
311.43374985668629
 21
606.93908616188662
  0
LINE
  8
_0-1_計細線
  6
CONTINUOUS
 62
    3
 10
308.43374985668629
 20
606.93908616188662
 11
301.43374985668629
 21
606.93908616188662
  0
LINE
  8
_0-1_計細線
  6
CONTINUOUS
 62
    3
 10
298.43374985668629
 20
606.93908616188662
 11
291.43374985668629
 21
606.93908616188662
  0
LINE
  8
_0-1_計細線
  6
CONTINUOUS
 62
    3
 10
288.43374985668629
 20
606.93908616188662
 11
281.43374985668629
 21
606.93908616188662
  0
LINE
  8
_0-1_計細線
  6
CONTINUOUS
 62
    3
 10
278.43374985668629
 20
606.93908616188662
 11
271.43374985668629
 21
606.93908616188662
  0
LINE
  8
_0-1_計細線
  6
CONTINUOUS
 62
    3
 10
268.43374985668629
 20
606.93908616188662
 11
261.43374985668629
 21
606.93908616188662
  0
LINE
  8
_0-1_計細線
  6
CONTINUOUS
 62
    3
 10
258.43374985668629
 20
606.93908616188662
 11
251.43374985668629
 21
606.93908616188662
  0
LINE
  8
_0-1_計細線
  6
CONTINUOUS
 62
    3
 10
248.43374985668632
 20
606.93908616188662
 11
241.43374985668629
 21
606.93908616188662
  0
LINE
  8
_0-1_計細線
  6
CONTINUOUS
 62
    3
 10
238.43374985668632
 20
606.93908616188662
 11
231.43374985668629
 21
606.93908616188662
  0
LINE
  8
_0-1_計細線
  6
CONTINUOUS
 62
    3
 10
199.12165747116092
 20
579.93908616188708
 11
1248.1216574711605
 21
579.93908616188708
  0
LINE
  8
_0-1_計細線
  6
CONTINUOUS
 62
    3
 10
200.43374985668635
 20
576.93908616188708
 11
1249.4337498566865
 21
576.93908616188708
  0
LINE
  8
_0-1_計細線
  6
CONTINUOUS
 62
    3
 10
1221.4337498566863
 20
606.93908616188799
 11
1249.4337498566865
 21
606.93908616188662
  0
LINE
  8
_0-1_計細線
  6
CONTINUOUS
 62
    3
 10
228.43374985668632
 20
606.93908616188799
 11
200.43374985668635
 21
606.93908616188799
  0
ARC
  8
_0-0_計極細
  6
CONTINUOUS
 62
    2
 10
1236.4433687999333
 20
599.4390861618898
 40
14.999999999989658
 50
329.99999999996317
 51
30.00000000001284
  0
ARC
  8
_0-0_計極細
  6
CONTINUOUS
 62
    2
 10
1262.4241309134129
 20
584.43908616189481
 40
14.999999999969544
 50
149.99999999994964
 51
210.00000000010303
  0
ARC
  8
_0-0_計極細
  6
CONTINUOUS
 62
    2
 10
187.44336879994336
 20
599.43908616188628
 40
14.999999999979083
 50
329.99999999995606
 51
30.000000000047088
  0
LINE
  8
_0-5_寸法線
  6
CONTINUOUS
 62
    7
 10
621.46713653040911
 20
578.31706851132037
 11
626.46713654153348
 21
569.65681447989869
  0
LINE
  8
_0-5_寸法線
  6
CONTINUOUS
 62
    7
 10
621.46713653040911
 20
578.31706851132037
 11
621.46713654325458
 21
568.31706851132037
  0
LINE
  8
_0-5_寸法線
  6
CONTINUOUS
 62
    7
 10
621.46713653040911
 20
578.31706851132037
 11
633.30850608787455
 21
534.12447591872797
  0
LINE
  8
_0-5_寸法線
  6
CONTINUOUS
 62
    7
 10
633.30850608787455
 20
534.12447591872797
 11
741.30850608787443
 21
534.12447591872797
  0
TEXT
  8
_0-5_寸法線
 62
    7
 10
633.30850608787455
 20
534.72447591872799
 40
15
 41
0.8000000000000001
 50
0
  1
ＳＵＳアングル受枠
  0
LINE
  8
_0-5_寸法線
  6
CONTINUOUS
 62
    7
 10
829.55110930224487
 20
621.29578965970256
 11
834.55110930224487
 21
612.63553562185825
  0
LINE
  8
_0-5_寸法線
  6
CONTINUOUS
 62
    7
 10
829.55110930224487
 20
621.29578965970256
 11
829.55110930224487
 21
611.29578965970256
  0
LINE
  8
_0-5_寸法線
  6
CONTINUOUS
 62
    7
 10
829.55110930224487
 20
621.29578965970256
 11
852.90859242229885
 21
534.12447591872797
  0
LINE
  8
_0-5_寸法線
  6
CONTINUOUS
 62
    7
 10
852.90859242229885
 20
534.12447591872797
 11
987.34760463741861
 21
534.12447591872797
  0
TEXT
  8
_0-5_寸法線
 62
    7
 10
855.34760463741873
 20
534.12447591872797
 40
15
 41
0.8000000000000001
 50
0
  1
ステンレスグレーチング
  0
ARC
  8
_0-0_計極細
  6
CONTINUOUS
 62
    2
 10
213.42413091342428
 20
584.43908616188628
 40
14.999999999974561
 50
149.99999999994213
 51
210.00000000004974
  0
LINE
  8
_0-1_計細線
  6
CONTINUOUS
 62
    3
 10
241.43374985668629
 20
778.93908616188753
 11
238.43374985668632
 21
778.93908616188753
  0
LINE
  8
_0-1_計細線
  6
CONTINUOUS
 62
    3
 10
238.43374985668632
 20
778.93908616188753
 11
238.43374985668632
 21
584.93908616188708
  0
LINE
  8
_0-1_計細線
  6
CONTINUOUS
 62
    3
 10
238.43374985668632
 20
584.93908616188708
 11
241.43374985668629
 21
584.93908616188708
  0
LINE
  8
_0-1_計細線
  6
CONTINUOUS
 62
    3
 10
241.43374985668629
 20
584.93908616188708
 11
241.43374985668629
 21
778.93908616188753
  0
LINE
  8
_0-1_計細線
  6
CONTINUOUS
 62
    3
 10
231.43374985668629
 20
778.93908616188753
 11
228.43374985668632
 21
778.93908616188753
  0
LINE
  8
_0-1_計細線
  6
CONTINUOUS
 62
    3
 10
228.43374985668632
 20
778.93908616188753
 11
228.43374985668632
 21
584.93908616188708
  0
LINE
  8
_0-1_計細線
  6
CONTINUOUS
 62
    3
 10
228.43374985668632
 20
584.93908616188708
 11
231.43374985668629
 21
584.93908616188708
  0
LINE
  8
_0-1_計細線
  6
CONTINUOUS
 62
    3
 10
231.43374985668629
 20
584.93908616188708
 11
231.43374985668629
 21
778.93908616188753
  0
LINE
  8
_0-1_計細線
  6
CONTINUOUS
 62
    3
 10
251.43374985668629
 20
778.93908616188753
 11
248.43374985668632
 21
778.93908616188753
  0
LINE
  8
_0-1_計細線
  6
CONTINUOUS
 62
    3
 10
248.43374985668632
 20
778.93908616188753
 11
248.43374985668632
 21
584.93908616188708
  0
LINE
  8
_0-1_計細線
  6
CONTINUOUS
 62
    3
 10
248.43374985668632
 20
584.93908616188708
 11
251.43374985668629
 21
584.93908616188708
  0
LINE
  8
_0-1_計細線
  6
CONTINUOUS
 62
    3
 10
251.43374985668629
 20
584.93908616188708
 11
251.43374985668629
 21
778.93908616188753
  0
LINE
  8
_0-1_計細線
  6
CONTINUOUS
 62
    3
 10
261.43374985668629
 20
778.93908616188753
 11
258.43374985668629
 21
778.93908616188753
  0
LINE
  8
_0-1_計細線
  6
CONTINUOUS
 62
    3
 10
258.43374985668629
 20
778.93908616188753
 11
258.43374985668629
 21
584.93908616188708
  0
LINE
  8
_0-1_計細線
  6
CONTINUOUS
 62
    3
 10
258.43374985668629
 20
584.93908616188708
 11
261.43374985668629
 21
584.93908616188708
  0
LINE
  8
_0-1_計細線
  6
CONTINUOUS
 62
    3
 10
261.43374985668629
 20
584.93908616188708
 11
261.43374985668629
 21
778.93908616188753
  0
LINE
  8
_0-1_計細線
  6
CONTINUOUS
 62
    3
 10
271.43374985668629
 20
778.93908616188753
 11
268.43374985668629
 21
778.93908616188753
  0
LINE
  8
_0-1_計細線
  6
CONTINUOUS
 62
    3
 10
268.43374985668629
 20
778.93908616188753
 11
268.43374985668629
 21
584.93908616188708
  0
LINE
  8
_0-1_計細線
  6
CONTINUOUS
 62
    3
 10
268.43374985668629
 20
584.93908616188708
 11
271.43374985668629
 21
584.93908616188708
  0
LINE
  8
_0-1_計細線
  6
CONTINUOUS
 62
    3
 10
271.43374985668629
 20
584.93908616188708
 11
271.43374985668629
 21
778.93908616188753
  0
LINE
  8
_0-1_計細線
  6
CONTINUOUS
 62
    3
 10
281.43374985668629
 20
778.93908616188753
 11
278.43374985668629
 21
778.93908616188753
  0
LINE
  8
_0-1_計細線
  6
CONTINUOUS
 62
    3
 10
278.43374985668629
 20
778.93908616188753
 11
278.43374985668629
 21
584.93908616188708
  0
LINE
  8
_0-1_計細線
  6
CONTINUOUS
 62
    3
 10
278.43374985668629
 20
584.93908616188708
 11
281.43374985668629
 21
584.93908616188708
  0
LINE
  8
_0-1_計細線
  6
CONTINUOUS
 62
    3
 10
281.43374985668629
 20
584.93908616188708
 11
281.43374985668629
 21
778.93908616188753
  0
LINE
  8
_0-1_計細線
  6
CONTINUOUS
 62
    3
 10
291.43374985668629
 20
778.93908616188753
 11
288.43374985668629
 21
778.93908616188753
  0
LINE
  8
_0-1_計細線
  6
CONTINUOUS
 62
    3
 10
288.43374985668629
 20
778.93908616188753
 11
288.43374985668629
 21
584.93908616188708
  0
LINE
  8
_0-1_計細線
  6
CONTINUOUS
 62
    3
 10
288.43374985668629
 20
584.93908616188708
 11
291.43374985668629
 21
584.93908616188708
  0
LINE
  8
_0-1_計細線
  6
CONTINUOUS
 62
    3
 10
291.43374985668629
 20
584.93908616188708
 11
291.43374985668629
 21
778.93908616188753
  0
LINE
  8
_0-1_計細線
  6
CONTINUOUS
 62
    3
 10
301.43374985668629
 20
778.93908616188753
 11
298.43374985668629
 21
778.93908616188753
  0
LINE
  8
_0-1_計細線
  6
CONTINUOUS
 62
    3
 10
298.43374985668629
 20
778.93908616188753
 11
298.43374985668629
 21
584.93908616188708
  0
LINE
  8
_0-1_計細線
  6
CONTINUOUS
 62
    3
 10
298.43374985668629
 20
584.93908616188708
 11
301.43374985668629
 21
584.93908616188708
  0
LINE
  8
_0-1_計細線
  6
CONTINUOUS
 62
    3
 10
301.43374985668629
 20
584.93908616188708
 11
301.43374985668629
 21
778.93908616188753
  0
LINE
  8
_0-1_計細線
  6
CONTINUOUS
 62
    3
 10
311.43374985668629
 20
778.93908616188753
 11
308.43374985668629
 21
778.93908616188753
  0
LINE
  8
_0-1_計細線
  6
CONTINUOUS
 62
    3
 10
308.43374985668629
 20
778.93908616188753
 11
308.43374985668629
 21
584.93908616188708
  0
LINE
  8
_0-1_計細線
  6
CONTINUOUS
 62
    3
 10
308.43374985668629
 20
584.93908616188708
 11
311.43374985668629
 21
584.93908616188708
  0
LINE
  8
_0-1_計細線
  6
CONTINUOUS
 62
    3
 10
311.43374985668629
 20
584.93908616188708
 11
311.43374985668629
 21
778.93908616188753
  0
LINE
  8
_0-1_計細線
  6
CONTINUOUS
 62
    3
 10
321.43374985668629
 20
778.93908616188753
 11
318.43374985668629
 21
778.93908616188753
  0
LINE
  8
_0-1_計細線
  6
CONTINUOUS
 62
    3
 10
318.43374985668629
 20
778.93908616188753
 11
318.43374985668629
 21
584.93908616188708
  0
LINE
  8
_0-1_計細線
  6
CONTINUOUS
 62
    3
 10
318.43374985668629
 20
584.93908616188708
 11
321.43374985668629
 21
584.93908616188708
  0
LINE
  8
_0-1_計細線
  6
CONTINUOUS
 62
    3
 10
321.43374985668629
 20
584.93908616188708
 11
321.43374985668629
 21
778.93908616188753
  0
LINE
  8
_0-1_計細線
  6
CONTINUOUS
 62
    3
 10
331.43374985668629
 20
778.93908616188753
 11
328.43374985668629
 21
778.93908616188753
  0
LINE
  8
_0-1_計細線
  6
CONTINUOUS
 62
    3
 10
328.43374985668629
 20
778.93908616188753
 11
328.43374985668629
 21
584.93908616188708
  0
LINE
  8
_0-1_計細線
  6
CONTINUOUS
 62
    3
 10
328.43374985668629
 20
584.93908616188708
 11
331.43374985668629
 21
584.93908616188708
  0
LINE
  8
_0-1_計細線
  6
CONTINUOUS
 62
    3
 10
331.43374985668629
 20
584.93908616188708
 11
331.43374985668629
 21
778.93908616188753
  0
LINE
  8
_0-1_計細線
  6
CONTINUOUS
 62
    3
 10
341.43374985668629
 20
778.93908616188753
 11
338.43374985668629
 21
778.93908616188753
  0
LINE
  8
_0-1_計細線
  6
CONTINUOUS
 62
    3
 10
338.43374985668629
 20
778.93908616188753
 11
338.43374985668629
 21
584.93908616188708
  0
LINE
  8
_0-1_計細線
  6
CONTINUOUS
 62
    3
 10
338.43374985668629
 20
584.93908616188708
 11
341.43374985668629
 21
584.93908616188708
  0
LINE
  8
_0-1_計細線
  6
CONTINUOUS
 62
    3
 10
341.43374985668629
 20
584.93908616188708
 11
341.43374985668629
 21
778.93908616188753
  0
LINE
  8
_0-1_計細線
  6
CONTINUOUS
 62
    3
 10
351.43374985668629
 20
778.93908616188753
 11
348.43374985668629
 21
778.93908616188753
  0
LINE
  8
_0-1_計細線
  6
CONTINUOUS
 62
    3
 10
348.43374985668629
 20
778.93908616188753
 11
348.43374985668629
 21
584.93908616188708
  0
LINE
  8
_0-1_計細線
  6
CONTINUOUS
 62
    3
 10
348.43374985668629
 20
584.93908616188708
 11
351.43374985668629
 21
584.93908616188708
  0
LINE
  8
_0-1_計細線
  6
CONTINUOUS
 62
    3
 10
351.43374985668629
 20
584.93908616188708
 11
351.43374985668629
 21
778.93908616188753
  0
LINE
  8
_0-1_計細線
  6
CONTINUOUS
 62
    3
 10
361.43374985668629
 20
778.93908616188753
 11
358.43374985668629
 21
778.93908616188753
  0
LINE
  8
_0-1_計細線
  6
CONTINUOUS
 62
    3
 10
358.43374985668629
 20
778.93908616188753
 11
358.43374985668629
 21
584.93908616188708
  0
LINE
  8
_0-1_計細線
  6
CONTINUOUS
 62
    3
 10
358.43374985668629
 20
584.93908616188708
 11
361.43374985668629
 21
584.93908616188708
  0
LINE
  8
_0-1_計細線
  6
CONTINUOUS
 62
    3
 10
361.43374985668629
 20
584.93908616188708
 11
361.43374985668629
 21
778.93908616188753
  0
LINE
  8
_0-1_計細線
  6
CONTINUOUS
 62
    3
 10
371.43374985668629
 20
778.93908616188753
 11
368.43374985668629
 21
778.93908616188753
  0
LINE
  8
_0-1_計細線
  6
CONTINUOUS
 62
    3
 10
368.43374985668629
 20
778.93908616188753
 11
368.43374985668629
 21
584.93908616188708
  0
LINE
  8
_0-1_計細線
  6
CONTINUOUS
 62
    3
 10
368.43374985668629
 20
584.93908616188708
 11
371.43374985668629
 21
584.93908616188708
  0
LINE
  8
_0-1_計細線
  6
CONTINUOUS
 62
    3
 10
371.43374985668629
 20
584.93908616188708
 11
371.43374985668629
 21
778.93908616188753
  0
LINE
  8
_0-1_計細線
  6
CONTINUOUS
 62
    3
 10
381.43374985668629
 20
778.93908616188753
 11
378.43374985668629
 21
778.93908616188753
  0
LINE
  8
_0-1_計細線
  6
CONTINUOUS
 62
    3
 10
378.43374985668629
 20
778.93908616188753
 11
378.43374985668629
 21
584.93908616188708
  0
LINE
  8
_0-1_計細線
  6
CONTINUOUS
 62
    3
 10
378.43374985668629
 20
584.93908616188708
 11
381.43374985668629
 21
584.93908616188708
  0
LINE
  8
_0-1_計細線
  6
CONTINUOUS
 62
    3
 10
381.43374985668629
 20
584.93908616188708
 11
381.43374985668629
 21
778.93908616188753
  0
LINE
  8
_0-1_計細線
  6
CONTINUOUS
 62
    3
 10
391.43374985668629
 20
778.93908616188753
 11
388.43374985668629
 21
778.93908616188753
  0
LINE
  8
_0-1_計細線
  6
CONTINUOUS
 62
    3
 10
388.43374985668629
 20
778.93908616188753
 11
388.43374985668629
 21
584.93908616188708
  0
LINE
  8
_0-1_計細線
  6
CONTINUOUS
 62
    3
 10
388.43374985668629
 20
584.93908616188708
 11
391.43374985668629
 21
584.93908616188708
  0
LINE
  8
_0-1_計細線
  6
CONTINUOUS
 62
    3
 10
391.43374985668629
 20
584.93908616188708
 11
391.43374985668629
 21
778.93908616188753
  0
LINE
  8
_0-1_計細線
  6
CONTINUOUS
 62
    3
 10
401.43374985668629
 20
778.93908616188753
 11
398.43374985668629
 21
778.93908616188753
  0
LINE
  8
_0-1_計細線
  6
CONTINUOUS
 62
    3
 10
398.43374985668629
 20
778.93908616188753
 11
398.43374985668629
 21
584.93908616188708
  0
LINE
  8
_0-1_計細線
  6
CONTINUOUS
 62
    3
 10
398.43374985668629
 20
584.93908616188708
 11
401.43374985668629
 21
584.93908616188708
  0
LINE
  8
_0-1_計細線
  6
CONTINUOUS
 62
    3
 10
401.43374985668629
 20
584.93908616188708
 11
401.43374985668629
 21
778.93908616188753
  0
LINE
  8
_0-1_計細線
  6
CONTINUOUS
 62
    3
 10
411.43374985668629
 20
778.93908616188753
 11
408.43374985668629
 21
778.93908616188753
  0
LINE
  8
_0-1_計細線
  6
CONTINUOUS
 62
    3
 10
408.43374985668629
 20
778.93908616188753
 11
408.43374985668629
 21
584.93908616188708
  0
LINE
  8
_0-1_計細線
  6
CONTINUOUS
 62
    3
 10
408.43374985668629
 20
584.93908616188708
 11
411.43374985668629
 21
584.93908616188708
  0
LINE
  8
_0-1_計細線
  6
CONTINUOUS
 62
    3
 10
411.43374985668629
 20
584.93908616188708
 11
411.43374985668629
 21
778.93908616188753
  0
LINE
  8
_0-1_計細線
  6
CONTINUOUS
 62
    3
 10
421.43374985668629
 20
778.93908616188753
 11
418.43374985668629
 21
778.93908616188753
  0
LINE
  8
_0-1_計細線
  6
CONTINUOUS
 62
    3
 10
418.43374985668629
 20
778.93908616188753
 11
418.43374985668629
 21
584.93908616188708
  0
LINE
  8
_0-1_計細線
  6
CONTINUOUS
 62
    3
 10
418.43374985668629
 20
584.93908616188708
 11
421.43374985668629
 21
584.93908616188708
  0
LINE
  8
_0-1_計細線
  6
CONTINUOUS
 62
    3
 10
421.43374985668629
 20
584.93908616188708
 11
421.43374985668629
 21
778.93908616188753
  0
LINE
  8
_0-1_計細線
  6
CONTINUOUS
 62
    3
 10
431.43374985668629
 20
778.93908616188753
 11
428.43374985668629
 21
778.93908616188753
  0
LINE
  8
_0-1_計細線
  6
CONTINUOUS
 62
    3
 10
428.43374985668629
 20
778.93908616188753
 11
428.43374985668629
 21
584.93908616188708
  0
LINE
  8
_0-1_計細線
  6
CONTINUOUS
 62
    3
 10
428.43374985668629
 20
584.93908616188708
 11
431.43374985668629
 21
584.93908616188708
  0
LINE
  8
_0-1_計細線
  6
CONTINUOUS
 62
    3
 10
431.43374985668629
 20
584.93908616188708
 11
431.43374985668629
 21
778.93908616188753
  0
LINE
  8
_0-1_計細線
  6
CONTINUOUS
 62
    3
 10
441.43374985668629
 20
778.93908616188753
 11
438.43374985668629
 21
778.93908616188753
  0
LINE
  8
_0-1_計細線
  6
CONTINUOUS
 62
    3
 10
438.43374985668629
 20
778.93908616188753
 11
438.43374985668629
 21
584.93908616188708
  0
LINE
  8
_0-1_計細線
  6
CONTINUOUS
 62
    3
 10
438.43374985668629
 20
584.93908616188708
 11
441.43374985668629
 21
584.93908616188708
  0
LINE
  8
_0-1_計細線
  6
CONTINUOUS
 62
    3
 10
441.43374985668629
 20
584.93908616188708
 11
441.43374985668629
 21
778.93908616188753
  0
LINE
  8
_0-1_計細線
  6
CONTINUOUS
 62
    3
 10
451.43374985668629
 20
778.93908616188753
 11
448.43374985668629
 21
778.93908616188753
  0
LINE
  8
_0-1_計細線
  6
CONTINUOUS
 62
    3
 10
448.43374985668629
 20
778.93908616188753
 11
448.43374985668629
 21
584.93908616188708
  0
LINE
  8
_0-1_計細線
  6
CONTINUOUS
 62
    3
 10
448.43374985668629
 20
584.93908616188708
 11
451.43374985668629
 21
584.93908616188708
  0
LINE
  8
_0-1_計細線
  6
CONTINUOUS
 62
    3
 10
451.43374985668629
 20
584.93908616188708
 11
451.43374985668629
 21
778.93908616188753
  0
LINE
  8
_0-1_計細線
  6
CONTINUOUS
 62
    3
 10
461.43374985668629
 20
778.93908616188753
 11
458.43374985668629
 21
778.93908616188753
  0
LINE
  8
_0-1_計細線
  6
CONTINUOUS
 62
    3
 10
458.43374985668629
 20
778.93908616188753
 11
458.43374985668629
 21
584.93908616188708
  0
LINE
  8
_0-1_計細線
  6
CONTINUOUS
 62
    3
 10
458.43374985668629
 20
584.93908616188708
 11
461.43374985668629
 21
584.93908616188708
  0
LINE
  8
_0-1_計細線
  6
CONTINUOUS
 62
    3
 10
461.43374985668629
 20
584.93908616188708
 11
461.43374985668629
 21
778.93908616188753
  0
LINE
  8
_0-1_計細線
  6
CONTINUOUS
 62
    3
 10
471.43374985668629
 20
778.93908616188753
 11
468.43374985668629
 21
778.93908616188753
  0
LINE
  8
_0-1_計細線
  6
CONTINUOUS
 62
    3
 10
468.43374985668629
 20
778.93908616188753
 11
468.43374985668629
 21
584.93908616188708
  0
LINE
  8
_0-1_計細線
  6
CONTINUOUS
 62
    3
 10
468.43374985668629
 20
584.93908616188708
 11
471.43374985668629
 21
584.93908616188708
  0
LINE
  8
_0-1_計細線
  6
CONTINUOUS
 62
    3
 10
471.43374985668629
 20
584.93908616188708
 11
471.43374985668629
 21
778.93908616188753
  0
LINE
  8
_0-1_計細線
  6
CONTINUOUS
 62
    3
 10
481.43374985668629
 20
778.93908616188753
 11
478.43374985668629
 21
778.93908616188753
  0
LINE
  8
_0-1_計細線
  6
CONTINUOUS
 62
    3
 10
478.43374985668629
 20
778.93908616188753
 11
478.43374985668629
 21
584.93908616188708
  0
LINE
  8
_0-1_計細線
  6
CONTINUOUS
 62
    3
 10
478.43374985668629
 20
584.93908616188708
 11
481.43374985668629
 21
584.93908616188708
  0
LINE
  8
_0-1_計細線
  6
CONTINUOUS
 62
    3
 10
481.43374985668629
 20
584.93908616188708
 11
481.43374985668629
 21
778.93908616188753
  0
LINE
  8
_0-1_計細線
  6
CONTINUOUS
 62
    3
 10
491.43374985668629
 20
778.93908616188753
 11
488.43374985668629
 21
778.93908616188753
  0
LINE
  8
_0-1_計細線
  6
CONTINUOUS
 62
    3
 10
488.43374985668629
 20
778.93908616188753
 11
488.43374985668629
 21
584.93908616188708
  0
LINE
  8
_0-1_計細線
  6
CONTINUOUS
 62
    3
 10
488.43374985668629
 20
584.93908616188708
 11
491.43374985668629
 21
584.93908616188708
  0
LINE
  8
_0-1_計細線
  6
CONTINUOUS
 62
    3
 10
491.43374985668629
 20
584.93908616188708
 11
491.43374985668629
 21
778.93908616188753
  0
LINE
  8
_0-1_計細線
  6
CONTINUOUS
 62
    3
 10
501.43374985668629
 20
778.93908616188753
 11
498.43374985668629
 21
778.93908616188753
  0
LINE
  8
_0-1_計細線
  6
CONTINUOUS
 62
    3
 10
498.43374985668629
 20
778.93908616188753
 11
498.43374985668629
 21
584.93908616188708
  0
LINE
  8
_0-1_計細線
  6
CONTINUOUS
 62
    3
 10
498.43374985668629
 20
584.93908616188708
 11
501.43374985668629
 21
584.93908616188708
  0
LINE
  8
_0-1_計細線
  6
CONTINUOUS
 62
    3
 10
501.43374985668629
 20
584.93908616188708
 11
501.43374985668629
 21
778.93908616188753
  0
LINE
  8
_0-1_計細線
  6
CONTINUOUS
 62
    3
 10
511.43374985668629
 20
778.93908616188753
 11
508.43374985668629
 21
778.93908616188753
  0
LINE
  8
_0-1_計細線
  6
CONTINUOUS
 62
    3
 10
508.43374985668629
 20
778.93908616188753
 11
508.43374985668629
 21
584.93908616188708
  0
LINE
  8
_0-1_計細線
  6
CONTINUOUS
 62
    3
 10
508.43374985668629
 20
584.93908616188708
 11
511.43374985668629
 21
584.93908616188708
  0
LINE
  8
_0-1_計細線
  6
CONTINUOUS
 62
    3
 10
511.43374985668629
 20
584.93908616188708
 11
511.43374985668629
 21
778.93908616188753
  0
LINE
  8
_0-1_計細線
  6
CONTINUOUS
 62
    3
 10
521.43374985668629
 20
778.93908616188753
 11
518.43374985668629
 21
778.93908616188753
  0
LINE
  8
_0-1_計細線
  6
CONTINUOUS
 62
    3
 10
518.43374985668629
 20
778.93908616188753
 11
518.43374985668629
 21
584.93908616188708
  0
LINE
  8
_0-1_計細線
  6
CONTINUOUS
 62
    3
 10
518.43374985668629
 20
584.93908616188708
 11
521.43374985668629
 21
584.93908616188708
  0
LINE
  8
_0-1_計細線
  6
CONTINUOUS
 62
    3
 10
521.43374985668629
 20
584.93908616188708
 11
521.43374985668629
 21
778.93908616188753
  0
LINE
  8
_0-1_計細線
  6
CONTINUOUS
 62
    3
 10
531.43374985668629
 20
778.93908616188753
 11
528.43374985668629
 21
778.93908616188753
  0
LINE
  8
_0-1_計細線
  6
CONTINUOUS
 62
    3
 10
528.43374985668629
 20
778.93908616188753
 11
528.43374985668629
 21
584.93908616188708
  0
LINE
  8
_0-1_計細線
  6
CONTINUOUS
 62
    3
 10
528.43374985668629
 20
584.93908616188708
 11
531.43374985668629
 21
584.93908616188708
  0
LINE
  8
_0-1_計細線
  6
CONTINUOUS
 62
    3
 10
531.43374985668629
 20
584.93908616188708
 11
531.43374985668629
 21
778.93908616188753
  0
LINE
  8
_0-1_計細線
  6
CONTINUOUS
 62
    3
 10
541.43374985668629
 20
778.93908616188753
 11
538.43374985668629
 21
778.93908616188753
  0
LINE
  8
_0-1_計細線
  6
CONTINUOUS
 62
    3
 10
538.43374985668629
 20
778.93908616188753
 11
538.43374985668629
 21
584.93908616188708
  0
LINE
  8
_0-1_計細線
  6
CONTINUOUS
 62
    3
 10
538.43374985668629
 20
584.93908616188708
 11
541.43374985668629
 21
584.93908616188708
  0
LINE
  8
_0-1_計細線
  6
CONTINUOUS
 62
    3
 10
541.43374985668629
 20
584.93908616188708
 11
541.43374985668629
 21
778.93908616188753
  0
LINE
  8
_0-1_計細線
  6
CONTINUOUS
 62
    3
 10
551.43374985668629
 20
778.93908616188753
 11
548.43374985668629
 21
778.93908616188753
  0
LINE
  8
_0-1_計細線
  6
CONTINUOUS
 62
    3
 10
548.43374985668629
 20
778.93908616188753
 11
548.43374985668629
 21
584.93908616188708
  0
LINE
  8
_0-1_計細線
  6
CONTINUOUS
 62
    3
 10
548.43374985668629
 20
584.93908616188708
 11
551.43374985668629
 21
584.93908616188708
  0
LINE
  8
_0-1_計細線
  6
CONTINUOUS
 62
    3
 10
551.43374985668629
 20
584.93908616188708
 11
551.43374985668629
 21
778.93908616188753
  0
LINE
  8
_0-1_計細線
  6
CONTINUOUS
 62
    3
 10
561.43374985668629
 20
778.93908616188753
 11
558.43374985668629
 21
778.93908616188753
  0
LINE
  8
_0-1_計細線
  6
CONTINUOUS
 62
    3
 10
558.43374985668629
 20
778.93908616188753
 11
558.43374985668629
 21
584.93908616188708
  0
LINE
  8
_0-1_計細線
  6
CONTINUOUS
 62
    3
 10
558.43374985668629
 20
584.93908616188708
 11
561.43374985668629
 21
584.93908616188708
  0
LINE
  8
_0-1_計細線
  6
CONTINUOUS
 62
    3
 10
561.43374985668629
 20
584.93908616188708
 11
561.43374985668629
 21
778.93908616188753
  0
LINE
  8
_0-1_計細線
  6
CONTINUOUS
 62
    3
 10
571.43374985668629
 20
778.93908616188753
 11
568.43374985668629
 21
778.93908616188753
  0
LINE
  8
_0-1_計細線
  6
CONTINUOUS
 62
    3
 10
568.43374985668629
 20
778.93908616188753
 11
568.43374985668629
 21
584.93908616188708
  0
LINE
  8
_0-1_計細線
  6
CONTINUOUS
 62
    3
 10
568.43374985668629
 20
584.93908616188708
 11
571.43374985668629
 21
584.93908616188708
  0
LINE
  8
_0-1_計細線
  6
CONTINUOUS
 62
    3
 10
571.43374985668629
 20
584.93908616188708
 11
571.43374985668629
 21
778.93908616188753
  0
LINE
  8
_0-1_計細線
  6
CONTINUOUS
 62
    3
 10
581.43374985668629
 20
778.93908616188753
 11
578.43374985668629
 21
778.93908616188753
  0
LINE
  8
_0-1_計細線
  6
CONTINUOUS
 62
    3
 10
578.43374985668629
 20
778.93908616188753
 11
578.43374985668629
 21
584.93908616188708
  0
LINE
  8
_0-1_計細線
  6
CONTINUOUS
 62
    3
 10
578.43374985668629
 20
584.93908616188708
 11
581.43374985668629
 21
584.93908616188708
  0
LINE
  8
_0-1_計細線
  6
CONTINUOUS
 62
    3
 10
581.43374985668629
 20
584.93908616188708
 11
581.43374985668629
 21
778.93908616188753
  0
LINE
  8
_0-1_計細線
  6
CONTINUOUS
 62
    3
 10
591.43374985668629
 20
778.93908616188753
 11
588.43374985668629
 21
778.93908616188753
  0
LINE
  8
_0-1_計細線
  6
CONTINUOUS
 62
    3
 10
588.43374985668629
 20
778.93908616188753
 11
588.43374985668629
 21
584.93908616188708
  0
LINE
  8
_0-1_計細線
  6
CONTINUOUS
 62
    3
 10
588.43374985668629
 20
584.93908616188708
 11
591.43374985668629
 21
584.93908616188708
  0
LINE
  8
_0-1_計細線
  6
CONTINUOUS
 62
    3
 10
591.43374985668629
 20
584.93908616188708
 11
591.43374985668629
 21
778.93908616188753
  0
LINE
  8
_0-1_計細線
  6
CONTINUOUS
 62
    3
 10
601.43374985668629
 20
778.93908616188753
 11
598.43374985668629
 21
778.93908616188753
  0
LINE
  8
_0-1_計細線
  6
CONTINUOUS
 62
    3
 10
598.43374985668629
 20
778.93908616188753
 11
598.43374985668629
 21
584.93908616188708
  0
LINE
  8
_0-1_計細線
  6
CONTINUOUS
 62
    3
 10
598.43374985668629
 20
584.93908616188708
 11
601.43374985668629
 21
584.93908616188708
  0
LINE
  8
_0-1_計細線
  6
CONTINUOUS
 62
    3
 10
601.43374985668629
 20
584.93908616188708
 11
601.43374985668629
 21
778.93908616188753
  0
LINE
  8
_0-1_計細線
  6
CONTINUOUS
 62
    3
 10
611.43374985668629
 20
778.93908616188753
 11
608.43374985668629
 21
778.93908616188753
  0
LINE
  8
_0-1_計細線
  6
CONTINUOUS
 62
    3
 10
608.43374985668629
 20
778.93908616188753
 11
608.43374985668629
 21
584.93908616188708
  0
LINE
  8
_0-1_計細線
  6
CONTINUOUS
 62
    3
 10
608.43374985668629
 20
584.93908616188708
 11
611.43374985668629
 21
584.93908616188708
  0
LINE
  8
_0-1_計細線
  6
CONTINUOUS
 62
    3
 10
611.43374985668629
 20
584.93908616188708
 11
611.43374985668629
 21
778.93908616188753
  0
LINE
  8
_0-1_計細線
  6
CONTINUOUS
 62
    3
 10
621.43374985668629
 20
778.93908616188753
 11
618.43374985668629
 21
778.93908616188753
  0
LINE
  8
_0-1_計細線
  6
CONTINUOUS
 62
    3
 10
618.43374985668629
 20
778.93908616188753
 11
618.43374985668629
 21
584.93908616188708
  0
LINE
  8
_0-1_計細線
  6
CONTINUOUS
 62
    3
 10
618.43374985668629
 20
584.93908616188708
 11
621.43374985668629
 21
584.93908616188708
  0
LINE
  8
_0-1_計細線
  6
CONTINUOUS
 62
    3
 10
621.43374985668629
 20
584.93908616188708
 11
621.43374985668629
 21
778.93908616188753
  0
LINE
  8
_0-1_計細線
  6
CONTINUOUS
 62
    3
 10
631.43374985668629
 20
778.93908616188753
 11
628.43374985668629
 21
778.93908616188753
  0
LINE
  8
_0-1_計細線
  6
CONTINUOUS
 62
    3
 10
628.43374985668629
 20
778.93908616188753
 11
628.43374985668629
 21
584.93908616188708
  0
LINE
  8
_0-1_計細線
  6
CONTINUOUS
 62
    3
 10
628.43374985668629
 20
584.93908616188708
 11
631.43374985668629
 21
584.93908616188708
  0
LINE
  8
_0-1_計細線
  6
CONTINUOUS
 62
    3
 10
631.43374985668629
 20
584.93908616188708
 11
631.43374985668629
 21
778.93908616188753
  0
LINE
  8
_0-1_計細線
  6
CONTINUOUS
 62
    3
 10
641.43374985668629
 20
778.93908616188753
 11
638.43374985668629
 21
778.93908616188753
  0
LINE
  8
_0-1_計細線
  6
CONTINUOUS
 62
    3
 10
638.43374985668629
 20
778.93908616188753
 11
638.43374985668629
 21
584.93908616188708
  0
LINE
  8
_0-1_計細線
  6
CONTINUOUS
 62
    3
 10
638.43374985668629
 20
584.93908616188708
 11
641.43374985668629
 21
584.93908616188708
  0
LINE
  8
_0-1_計細線
  6
CONTINUOUS
 62
    3
 10
641.43374985668629
 20
584.93908616188708
 11
641.43374985668629
 21
778.93908616188753
  0
LINE
  8
_0-1_計細線
  6
CONTINUOUS
 62
    3
 10
651.43374985668629
 20
778.93908616188753
 11
648.43374985668629
 21
778.93908616188753
  0
LINE
  8
_0-1_計細線
  6
CONTINUOUS
 62
    3
 10
648.43374985668629
 20
778.93908616188753
 11
648.43374985668629
 21
584.93908616188708
  0
LINE
  8
_0-1_計細線
  6
CONTINUOUS
 62
    3
 10
648.43374985668629
 20
584.93908616188708
 11
651.43374985668629
 21
584.93908616188708
  0
LINE
  8
_0-1_計細線
  6
CONTINUOUS
 62
    3
 10
651.43374985668629
 20
584.93908616188708
 11
651.43374985668629
 21
778.93908616188753
  0
LINE
  8
_0-1_計細線
  6
CONTINUOUS
 62
    3
 10
661.43374985668629
 20
778.93908616188753
 11
658.43374985668629
 21
778.93908616188753
  0
LINE
  8
_0-1_計細線
  6
CONTINUOUS
 62
    3
 10
658.43374985668629
 20
778.93908616188753
 11
658.43374985668629
 21
584.93908616188708
  0
LINE
  8
_0-1_計細線
  6
CONTINUOUS
 62
    3
 10
658.43374985668629
 20
584.93908616188708
 11
661.43374985668629
 21
584.93908616188708
  0
LINE
  8
_0-1_計細線
  6
CONTINUOUS
 62
    3
 10
661.43374985668629
 20
584.93908616188708
 11
661.43374985668629
 21
778.93908616188753
  0
LINE
  8
_0-1_計細線
  6
CONTINUOUS
 62
    3
 10
671.43374985668629
 20
778.93908616188753
 11
668.43374985668629
 21
778.93908616188753
  0
LINE
  8
_0-1_計細線
  6
CONTINUOUS
 62
    3
 10
668.43374985668629
 20
778.93908616188753
 11
668.43374985668629
 21
584.93908616188708
  0
LINE
  8
_0-1_計細線
  6
CONTINUOUS
 62
    3
 10
668.43374985668629
 20
584.93908616188708
 11
671.43374985668629
 21
584.93908616188708
  0
LINE
  8
_0-1_計細線
  6
CONTINUOUS
 62
    3
 10
671.43374985668629
 20
584.93908616188708
 11
671.43374985668629
 21
778.93908616188753
  0
LINE
  8
_0-1_計細線
  6
CONTINUOUS
 62
    3
 10
681.43374985668629
 20
778.93908616188753
 11
678.43374985668629
 21
778.93908616188753
  0
LINE
  8
_0-1_計細線
  6
CONTINUOUS
 62
    3
 10
678.43374985668629
 20
778.93908616188753
 11
678.43374985668629
 21
584.93908616188708
  0
LINE
  8
_0-1_計細線
  6
CONTINUOUS
 62
    3
 10
678.43374985668629
 20
584.93908616188708
 11
681.43374985668629
 21
584.93908616188708
  0
LINE
  8
_0-1_計細線
  6
CONTINUOUS
 62
    3
 10
681.43374985668629
 20
584.93908616188708
 11
681.43374985668629
 21
778.93908616188753
  0
LINE
  8
_0-1_計細線
  6
CONTINUOUS
 62
    3
 10
691.43374985668629
 20
778.93908616188753
 11
688.43374985668629
 21
778.93908616188753
  0
LINE
  8
_0-1_計細線
  6
CONTINUOUS
 62
    3
 10
688.43374985668629
 20
778.93908616188753
 11
688.43374985668629
 21
584.93908616188708
  0
LINE
  8
_0-1_計細線
  6
CONTINUOUS
 62
    3
 10
688.43374985668629
 20
584.93908616188708
 11
691.43374985668629
 21
584.93908616188708
  0
LINE
  8
_0-1_計細線
  6
CONTINUOUS
 62
    3
 10
691.43374985668629
 20
584.93908616188708
 11
691.43374985668629
 21
778.93908616188753
  0
LINE
  8
_0-1_計細線
  6
CONTINUOUS
 62
    3
 10
701.43374985668629
 20
778.93908616188753
 11
698.43374985668629
 21
778.93908616188753
  0
LINE
  8
_0-1_計細線
  6
CONTINUOUS
 62
    3
 10
698.43374985668629
 20
778.93908616188753
 11
698.43374985668629
 21
584.93908616188708
  0
LINE
  8
_0-1_計細線
  6
CONTINUOUS
 62
    3
 10
698.43374985668629
 20
584.93908616188708
 11
701.43374985668629
 21
584.93908616188708
  0
LINE
  8
_0-1_計細線
  6
CONTINUOUS
 62
    3
 10
701.43374985668629
 20
584.93908616188708
 11
701.43374985668629
 21
778.93908616188753
  0
LINE
  8
_0-1_計細線
  6
CONTINUOUS
 62
    3
 10
711.43374985668629
 20
778.93908616188753
 11
708.43374985668629
 21
778.93908616188753
  0
LINE
  8
_0-1_計細線
  6
CONTINUOUS
 62
    3
 10
708.43374985668629
 20
778.93908616188753
 11
708.43374985668629
 21
584.93908616188708
  0
LINE
  8
_0-1_計細線
  6
CONTINUOUS
 62
    3
 10
708.43374985668629
 20
584.93908616188708
 11
711.43374985668629
 21
584.93908616188708
  0
LINE
  8
_0-1_計細線
  6
CONTINUOUS
 62
    3
 10
711.43374985668629
 20
584.93908616188708
 11
711.43374985668629
 21
778.93908616188753
  0
LINE
  8
_0-1_計細線
  6
CONTINUOUS
 62
    3
 10
721.43374985668629
 20
778.93908616188753
 11
718.43374985668629
 21
778.93908616188753
  0
LINE
  8
_0-1_計細線
  6
CONTINUOUS
 62
    3
 10
718.43374985668629
 20
778.93908616188753
 11
718.43374985668629
 21
584.93908616188708
  0
LINE
  8
_0-1_計細線
  6
CONTINUOUS
 62
    3
 10
718.43374985668629
 20
584.93908616188708
 11
721.43374985668629
 21
584.93908616188708
  0
LINE
  8
_0-1_計細線
  6
CONTINUOUS
 62
    3
 10
721.43374985668629
 20
584.93908616188708
 11
721.43374985668629
 21
778.93908616188753
  0
LINE
  8
_0-1_計細線
  6
CONTINUOUS
 62
    3
 10
731.43374985668629
 20
778.93908616188753
 11
728.43374985668629
 21
778.93908616188753
  0
LINE
  8
_0-1_計細線
  6
CONTINUOUS
 62
    3
 10
728.43374985668629
 20
778.93908616188753
 11
728.43374985668629
 21
584.93908616188708
  0
LINE
  8
_0-1_計細線
  6
CONTINUOUS
 62
    3
 10
728.43374985668629
 20
584.93908616188708
 11
731.43374985668629
 21
584.93908616188708
  0
LINE
  8
_0-1_計細線
  6
CONTINUOUS
 62
    3
 10
731.43374985668629
 20
584.93908616188708
 11
731.43374985668629
 21
778.93908616188753
  0
LINE
  8
_0-1_計細線
  6
CONTINUOUS
 62
    3
 10
741.43374985668629
 20
778.93908616188753
 11
738.43374985668629
 21
778.93908616188753
  0
LINE
  8
_0-1_計細線
  6
CONTINUOUS
 62
    3
 10
738.43374985668629
 20
778.93908616188753
 11
738.43374985668629
 21
584.93908616188708
  0
LINE
  8
_0-1_計細線
  6
CONTINUOUS
 62
    3
 10
738.43374985668629
 20
584.93908616188708
 11
741.43374985668629
 21
584.93908616188708
  0
LINE
  8
_0-1_計細線
  6
CONTINUOUS
 62
    3
 10
741.43374985668629
 20
584.93908616188708
 11
741.43374985668629
 21
778.93908616188753
  0
LINE
  8
_0-1_計細線
  6
CONTINUOUS
 62
    3
 10
751.43374985668629
 20
778.93908616188753
 11
748.43374985668629
 21
778.93908616188753
  0
LINE
  8
_0-1_計細線
  6
CONTINUOUS
 62
    3
 10
748.43374985668629
 20
778.93908616188753
 11
748.43374985668629
 21
584.93908616188708
  0
LINE
  8
_0-1_計細線
  6
CONTINUOUS
 62
    3
 10
748.43374985668629
 20
584.93908616188708
 11
751.43374985668629
 21
584.93908616188708
  0
LINE
  8
_0-1_計細線
  6
CONTINUOUS
 62
    3
 10
751.43374985668629
 20
584.93908616188708
 11
751.43374985668629
 21
778.93908616188753
  0
LINE
  8
_0-1_計細線
  6
CONTINUOUS
 62
    3
 10
761.43374985668629
 20
778.93908616188753
 11
758.43374985668629
 21
778.93908616188753
  0
LINE
  8
_0-1_計細線
  6
CONTINUOUS
 62
    3
 10
758.43374985668629
 20
778.93908616188753
 11
758.43374985668629
 21
584.93908616188708
  0
LINE
  8
_0-1_計細線
  6
CONTINUOUS
 62
    3
 10
758.43374985668629
 20
584.93908616188708
 11
761.43374985668629
 21
584.93908616188708
  0
LINE
  8
_0-1_計細線
  6
CONTINUOUS
 62
    3
 10
761.43374985668629
 20
584.93908616188708
 11
761.43374985668629
 21
778.93908616188753
  0
LINE
  8
_0-1_計細線
  6
CONTINUOUS
 62
    3
 10
771.43374985668629
 20
778.93908616188753
 11
768.43374985668629
 21
778.93908616188753
  0
LINE
  8
_0-1_計細線
  6
CONTINUOUS
 62
    3
 10
768.43374985668629
 20
778.93908616188753
 11
768.43374985668629
 21
584.93908616188708
  0
LINE
  8
_0-1_計細線
  6
CONTINUOUS
 62
    3
 10
768.43374985668629
 20
584.93908616188708
 11
771.43374985668629
 21
584.93908616188708
  0
LINE
  8
_0-1_計細線
  6
CONTINUOUS
 62
    3
 10
771.43374985668629
 20
584.93908616188708
 11
771.43374985668629
 21
778.93908616188753
  0
LINE
  8
_0-1_計細線
  6
CONTINUOUS
 62
    3
 10
781.43374985668629
 20
778.93908616188753
 11
778.43374985668629
 21
778.93908616188753
  0
LINE
  8
_0-1_計細線
  6
CONTINUOUS
 62
    3
 10
778.43374985668629
 20
778.93908616188753
 11
778.43374985668629
 21
584.93908616188708
  0
LINE
  8
_0-1_計細線
  6
CONTINUOUS
 62
    3
 10
778.43374985668629
 20
584.93908616188708
 11
781.43374985668629
 21
584.93908616188708
  0
LINE
  8
_0-1_計細線
  6
CONTINUOUS
 62
    3
 10
781.43374985668629
 20
584.93908616188708
 11
781.43374985668629
 21
778.93908616188753
  0
LINE
  8
_0-1_計細線
  6
CONTINUOUS
 62
    3
 10
791.43374985668629
 20
778.93908616188753
 11
788.43374985668629
 21
778.93908616188753
  0
LINE
  8
_0-1_計細線
  6
CONTINUOUS
 62
    3
 10
788.43374985668629
 20
778.93908616188753
 11
788.43374985668629
 21
584.93908616188708
  0
LINE
  8
_0-1_計細線
  6
CONTINUOUS
 62
    3
 10
788.43374985668629
 20
584.93908616188708
 11
791.43374985668629
 21
584.93908616188708
  0
LINE
  8
_0-1_計細線
  6
CONTINUOUS
 62
    3
 10
791.43374985668629
 20
584.93908616188708
 11
791.43374985668629
 21
778.93908616188753
  0
LINE
  8
_0-1_計細線
  6
CONTINUOUS
 62
    3
 10
801.43374985668629
 20
778.93908616188753
 11
798.43374985668629
 21
778.93908616188753
  0
LINE
  8
_0-1_計細線
  6
CONTINUOUS
 62
    3
 10
798.43374985668629
 20
778.93908616188753
 11
798.43374985668629
 21
584.93908616188708
  0
LINE
  8
_0-1_計細線
  6
CONTINUOUS
 62
    3
 10
798.43374985668629
 20
584.93908616188708
 11
801.43374985668629
 21
584.93908616188708
  0
LINE
  8
_0-1_計細線
  6
CONTINUOUS
 62
    3
 10
801.43374985668629
 20
584.93908616188708
 11
801.43374985668629
 21
778.93908616188753
  0
LINE
  8
_0-1_計細線
  6
CONTINUOUS
 62
    3
 10
811.43374985668629
 20
778.93908616188753
 11
808.43374985668629
 21
778.93908616188753
  0
LINE
  8
_0-1_計細線
  6
CONTINUOUS
 62
    3
 10
808.43374985668629
 20
778.93908616188753
 11
808.43374985668629
 21
584.93908616188708
  0
LINE
  8
_0-1_計細線
  6
CONTINUOUS
 62
    3
 10
808.43374985668629
 20
584.93908616188708
 11
811.43374985668629
 21
584.93908616188708
  0
LINE
  8
_0-1_計細線
  6
CONTINUOUS
 62
    3
 10
811.43374985668629
 20
584.93908616188708
 11
811.43374985668629
 21
778.93908616188753
  0
LINE
  8
_0-1_計細線
  6
CONTINUOUS
 62
    3
 10
821.43374985668629
 20
778.93908616188753
 11
818.43374985668629
 21
778.93908616188753
  0
LINE
  8
_0-1_計細線
  6
CONTINUOUS
 62
    3
 10
818.43374985668629
 20
778.93908616188753
 11
818.43374985668629
 21
584.93908616188708
  0
LINE
  8
_0-1_計細線
  6
CONTINUOUS
 62
    3
 10
818.43374985668629
 20
584.93908616188708
 11
821.43374985668629
 21
584.93908616188708
  0
LINE
  8
_0-1_計細線
  6
CONTINUOUS
 62
    3
 10
821.43374985668629
 20
584.93908616188708
 11
821.43374985668629
 21
778.93908616188753
  0
LINE
  8
_0-1_計細線
  6
CONTINUOUS
 62
    3
 10
831.43374985668629
 20
778.93908616188753
 11
828.43374985668629
 21
778.93908616188753
  0
LINE
  8
_0-1_計細線
  6
CONTINUOUS
 62
    3
 10
828.43374985668629
 20
778.93908616188753
 11
828.43374985668629
 21
584.93908616188708
  0
LINE
  8
_0-1_計細線
  6
CONTINUOUS
 62
    3
 10
828.43374985668629
 20
584.93908616188708
 11
831.43374985668629
 21
584.93908616188708
  0
LINE
  8
_0-1_計細線
  6
CONTINUOUS
 62
    3
 10
831.43374985668629
 20
584.93908616188708
 11
831.43374985668629
 21
778.93908616188753
  0
LINE
  8
_0-1_計細線
  6
CONTINUOUS
 62
    3
 10
841.43374985668629
 20
778.93908616188753
 11
838.43374985668629
 21
778.93908616188753
  0
LINE
  8
_0-1_計細線
  6
CONTINUOUS
 62
    3
 10
838.43374985668629
 20
778.93908616188753
 11
838.43374985668629
 21
584.93908616188708
  0
LINE
  8
_0-1_計細線
  6
CONTINUOUS
 62
    3
 10
838.43374985668629
 20
584.93908616188708
 11
841.43374985668629
 21
584.93908616188708
  0
LINE
  8
_0-1_計細線
  6
CONTINUOUS
 62
    3
 10
841.43374985668629
 20
584.93908616188708
 11
841.43374985668629
 21
778.93908616188753
  0
LINE
  8
_0-1_計細線
  6
CONTINUOUS
 62
    3
 10
851.43374985668629
 20
778.93908616188753
 11
848.43374985668629
 21
778.93908616188753
  0
LINE
  8
_0-1_計細線
  6
CONTINUOUS
 62
    3
 10
848.43374985668629
 20
778.93908616188753
 11
848.43374985668629
 21
584.93908616188708
  0
LINE
  8
_0-1_計細線
  6
CONTINUOUS
 62
    3
 10
848.43374985668629
 20
584.93908616188708
 11
851.43374985668629
 21
584.93908616188708
  0
LINE
  8
_0-1_計細線
  6
CONTINUOUS
 62
    3
 10
851.43374985668629
 20
584.93908616188708
 11
851.43374985668629
 21
778.93908616188753
  0
LINE
  8
_0-1_計細線
  6
CONTINUOUS
 62
    3
 10
861.43374985668629
 20
778.93908616188753
 11
858.43374985668629
 21
778.93908616188753
  0
LINE
  8
_0-1_計細線
  6
CONTINUOUS
 62
    3
 10
858.43374985668629
 20
778.93908616188753
 11
858.43374985668629
 21
584.93908616188708
  0
LINE
  8
_0-1_計細線
  6
CONTINUOUS
 62
    3
 10
858.43374985668629
 20
584.93908616188708
 11
861.43374985668629
 21
584.93908616188708
  0
LINE
  8
_0-1_計細線
  6
CONTINUOUS
 62
    3
 10
861.43374985668629
 20
584.93908616188708
 11
861.43374985668629
 21
778.93908616188753
  0
LINE
  8
_0-1_計細線
  6
CONTINUOUS
 62
    3
 10
871.43374985668629
 20
778.93908616188753
 11
868.43374985668629
 21
778.93908616188753
  0
LINE
  8
_0-1_計細線
  6
CONTINUOUS
 62
    3
 10
868.43374985668629
 20
778.93908616188753
 11
868.43374985668629
 21
584.93908616188708
  0
LINE
  8
_0-1_計細線
  6
CONTINUOUS
 62
    3
 10
868.43374985668629
 20
584.93908616188708
 11
871.43374985668629
 21
584.93908616188708
  0
LINE
  8
_0-1_計細線
  6
CONTINUOUS
 62
    3
 10
871.43374985668629
 20
584.93908616188708
 11
871.43374985668629
 21
778.93908616188753
  0
LINE
  8
_0-1_計細線
  6
CONTINUOUS
 62
    3
 10
881.43374985668629
 20
778.93908616188753
 11
878.43374985668629
 21
778.93908616188753
  0
LINE
  8
_0-1_計細線
  6
CONTINUOUS
 62
    3
 10
878.43374985668629
 20
778.93908616188753
 11
878.43374985668629
 21
584.93908616188708
  0
LINE
  8
_0-1_計細線
  6
CONTINUOUS
 62
    3
 10
878.43374985668629
 20
584.93908616188708
 11
881.43374985668629
 21
584.93908616188708
  0
LINE
  8
_0-1_計細線
  6
CONTINUOUS
 62
    3
 10
881.43374985668629
 20
584.93908616188708
 11
881.43374985668629
 21
778.93908616188753
  0
LINE
  8
_0-1_計細線
  6
CONTINUOUS
 62
    3
 10
891.43374985668629
 20
778.93908616188753
 11
888.43374985668629
 21
778.93908616188753
  0
LINE
  8
_0-1_計細線
  6
CONTINUOUS
 62
    3
 10
888.43374985668629
 20
778.93908616188753
 11
888.43374985668629
 21
584.93908616188708
  0
LINE
  8
_0-1_計細線
  6
CONTINUOUS
 62
    3
 10
888.43374985668629
 20
584.93908616188708
 11
891.43374985668629
 21
584.93908616188708
  0
LINE
  8
_0-1_計細線
  6
CONTINUOUS
 62
    3
 10
891.43374985668629
 20
584.93908616188708
 11
891.43374985668629
 21
778.93908616188753
  0
LINE
  8
_0-1_計細線
  6
CONTINUOUS
 62
    3
 10
901.43374985668629
 20
778.93908616188753
 11
898.43374985668629
 21
778.93908616188753
  0
LINE
  8
_0-1_計細線
  6
CONTINUOUS
 62
    3
 10
898.43374985668629
 20
778.93908616188753
 11
898.43374985668629
 21
584.93908616188708
  0
LINE
  8
_0-1_計細線
  6
CONTINUOUS
 62
    3
 10
898.43374985668629
 20
584.93908616188708
 11
901.43374985668629
 21
584.93908616188708
  0
LINE
  8
_0-1_計細線
  6
CONTINUOUS
 62
    3
 10
901.43374985668629
 20
584.93908616188708
 11
901.43374985668629
 21
778.93908616188753
  0
LINE
  8
_0-1_計細線
  6
CONTINUOUS
 62
    3
 10
911.43374985668629
 20
778.93908616188753
 11
908.43374985668629
 21
778.93908616188753
  0
LINE
  8
_0-1_計細線
  6
CONTINUOUS
 62
    3
 10
908.43374985668629
 20
778.93908616188753
 11
908.43374985668629
 21
584.93908616188708
  0
LINE
  8
_0-1_計細線
  6
CONTINUOUS
 62
    3
 10
908.43374985668629
 20
584.93908616188708
 11
911.43374985668629
 21
584.93908616188708
  0
LINE
  8
_0-1_計細線
  6
CONTINUOUS
 62
    3
 10
911.43374985668629
 20
584.93908616188708
 11
911.43374985668629
 21
778.93908616188753
  0
LINE
  8
_0-1_計細線
  6
CONTINUOUS
 62
    3
 10
921.43374985668629
 20
778.93908616188753
 11
918.43374985668629
 21
778.93908616188753
  0
LINE
  8
_0-1_計細線
  6
CONTINUOUS
 62
    3
 10
918.43374985668629
 20
778.93908616188753
 11
918.43374985668629
 21
584.93908616188708
  0
LINE
  8
_0-1_計細線
  6
CONTINUOUS
 62
    3
 10
918.43374985668629
 20
584.93908616188708
 11
921.43374985668629
 21
584.93908616188708
  0
LINE
  8
_0-1_計細線
  6
CONTINUOUS
 62
    3
 10
921.43374985668629
 20
584.93908616188708
 11
921.43374985668629
 21
778.93908616188753
  0
LINE
  8
_0-1_計細線
  6
CONTINUOUS
 62
    3
 10
931.43374985668629
 20
778.93908616188753
 11
928.43374985668629
 21
778.93908616188753
  0
LINE
  8
_0-1_計細線
  6
CONTINUOUS
 62
    3
 10
928.43374985668629
 20
778.93908616188753
 11
928.43374985668629
 21
584.93908616188708
  0
LINE
  8
_0-1_計細線
  6
CONTINUOUS
 62
    3
 10
928.43374985668629
 20
584.93908616188708
 11
931.43374985668629
 21
584.93908616188708
  0
LINE
  8
_0-1_計細線
  6
CONTINUOUS
 62
    3
 10
931.43374985668629
 20
584.93908616188708
 11
931.43374985668629
 21
778.93908616188753
  0
LINE
  8
_0-1_計細線
  6
CONTINUOUS
 62
    3
 10
941.43374985668629
 20
778.93908616188753
 11
938.43374985668629
 21
778.93908616188753
  0
LINE
  8
_0-1_計細線
  6
CONTINUOUS
 62
    3
 10
938.43374985668629
 20
778.93908616188753
 11
938.43374985668629
 21
584.93908616188708
  0
LINE
  8
_0-1_計細線
  6
CONTINUOUS
 62
    3
 10
938.43374985668629
 20
584.93908616188708
 11
941.43374985668629
 21
584.93908616188708
  0
LINE
  8
_0-1_計細線
  6
CONTINUOUS
 62
    3
 10
941.43374985668629
 20
584.93908616188708
 11
941.43374985668629
 21
778.93908616188753
  0
LINE
  8
_0-1_計細線
  6
CONTINUOUS
 62
    3
 10
951.43374985668629
 20
778.93908616188753
 11
948.43374985668629
 21
778.93908616188753
  0
LINE
  8
_0-1_計細線
  6
CONTINUOUS
 62
    3
 10
948.43374985668629
 20
778.93908616188753
 11
948.43374985668629
 21
584.93908616188708
  0
LINE
  8
_0-1_計細線
  6
CONTINUOUS
 62
    3
 10
948.43374985668629
 20
584.93908616188708
 11
951.43374985668629
 21
584.93908616188708
  0
LINE
  8
_0-1_計細線
  6
CONTINUOUS
 62
    3
 10
951.43374985668629
 20
584.93908616188708
 11
951.43374985668629
 21
778.93908616188753
  0
LINE
  8
_0-1_計細線
  6
CONTINUOUS
 62
    3
 10
961.43374985668629
 20
778.93908616188753
 11
958.43374985668629
 21
778.93908616188753
  0
LINE
  8
_0-1_計細線
  6
CONTINUOUS
 62
    3
 10
958.43374985668629
 20
778.93908616188753
 11
958.43374985668629
 21
584.93908616188708
  0
LINE
  8
_0-1_計細線
  6
CONTINUOUS
 62
    3
 10
958.43374985668629
 20
584.93908616188708
 11
961.43374985668629
 21
584.93908616188708
  0
LINE
  8
_0-1_計細線
  6
CONTINUOUS
 62
    3
 10
961.43374985668629
 20
584.93908616188708
 11
961.43374985668629
 21
778.93908616188753
  0
LINE
  8
_0-1_計細線
  6
CONTINUOUS
 62
    3
 10
971.43374985668629
 20
778.93908616188753
 11
968.43374985668629
 21
778.93908616188753
  0
LINE
  8
_0-1_計細線
  6
CONTINUOUS
 62
    3
 10
968.43374985668629
 20
778.93908616188753
 11
968.43374985668629
 21
584.93908616188708
  0
LINE
  8
_0-1_計細線
  6
CONTINUOUS
 62
    3
 10
968.43374985668629
 20
584.93908616188708
 11
971.43374985668629
 21
584.93908616188708
  0
LINE
  8
_0-1_計細線
  6
CONTINUOUS
 62
    3
 10
971.43374985668629
 20
584.93908616188708
 11
971.43374985668629
 21
778.93908616188753
  0
LINE
  8
_0-1_計細線
  6
CONTINUOUS
 62
    3
 10
981.43374985668629
 20
778.93908616188753
 11
978.43374985668629
 21
778.93908616188753
  0
LINE
  8
_0-1_計細線
  6
CONTINUOUS
 62
    3
 10
978.43374985668629
 20
778.93908616188753
 11
978.43374985668629
 21
584.93908616188708
  0
LINE
  8
_0-1_計細線
  6
CONTINUOUS
 62
    3
 10
978.43374985668629
 20
584.93908616188708
 11
981.43374985668629
 21
584.93908616188708
  0
LINE
  8
_0-1_計細線
  6
CONTINUOUS
 62
    3
 10
981.43374985668629
 20
584.93908616188708
 11
981.43374985668629
 21
778.93908616188753
  0
LINE
  8
_0-1_計細線
  6
CONTINUOUS
 62
    3
 10
991.43374985668629
 20
778.93908616188753
 11
988.43374985668629
 21
778.93908616188753
  0
LINE
  8
_0-1_計細線
  6
CONTINUOUS
 62
    3
 10
988.43374985668629
 20
778.93908616188753
 11
988.43374985668629
 21
584.93908616188708
  0
LINE
  8
_0-1_計細線
  6
CONTINUOUS
 62
    3
 10
988.43374985668629
 20
584.93908616188708
 11
991.43374985668629
 21
584.93908616188708
  0
LINE
  8
_0-1_計細線
  6
CONTINUOUS
 62
    3
 10
991.43374985668629
 20
584.93908616188708
 11
991.43374985668629
 21
778.93908616188753
  0
LINE
  8
_0-1_計細線
  6
CONTINUOUS
 62
    3
 10
1001.4337498566863
 20
778.93908616188753
 11
998.43374985668629
 21
778.93908616188753
  0
LINE
  8
_0-1_計細線
  6
CONTINUOUS
 62
    3
 10
998.43374985668629
 20
778.93908616188753
 11
998.43374985668629
 21
584.93908616188708
  0
LINE
  8
_0-1_計細線
  6
CONTINUOUS
 62
    3
 10
998.43374985668629
 20
584.93908616188708
 11
1001.4337498566863
 21
584.93908616188708
  0
LINE
  8
_0-1_計細線
  6
CONTINUOUS
 62
    3
 10
1001.4337498566863
 20
584.93908616188708
 11
1001.4337498566863
 21
778.93908616188753
  0
LINE
  8
_0-1_計細線
  6
CONTINUOUS
 62
    3
 10
1011.4337498566863
 20
778.93908616188753
 11
1008.4337498566863
 21
778.93908616188753
  0
LINE
  8
_0-1_計細線
  6
CONTINUOUS
 62
    3
 10
1008.4337498566863
 20
778.93908616188753
 11
1008.4337498566863
 21
584.93908616188708
  0
LINE
  8
_0-1_計細線
  6
CONTINUOUS
 62
    3
 10
1008.4337498566863
 20
584.93908616188708
 11
1011.4337498566863
 21
584.93908616188708
  0
LINE
  8
_0-1_計細線
  6
CONTINUOUS
 62
    3
 10
1011.4337498566863
 20
584.93908616188708
 11
1011.4337498566863
 21
778.93908616188753
  0
LINE
  8
_0-1_計細線
  6
CONTINUOUS
 62
    3
 10
1021.4337498566863
 20
778.93908616188753
 11
1018.4337498566863
 21
778.93908616188753
  0
LINE
  8
_0-1_計細線
  6
CONTINUOUS
 62
    3
 10
1018.4337498566863
 20
778.93908616188753
 11
1018.4337498566863
 21
584.93908616188708
  0
LINE
  8
_0-1_計細線
  6
CONTINUOUS
 62
    3
 10
1018.4337498566863
 20
584.93908616188708
 11
1021.4337498566863
 21
584.93908616188708
  0
LINE
  8
_0-1_計細線
  6
CONTINUOUS
 62
    3
 10
1021.4337498566863
 20
584.93908616188708
 11
1021.4337498566863
 21
778.93908616188753
  0
LINE
  8
_0-1_計細線
  6
CONTINUOUS
 62
    3
 10
1031.4337498566863
 20
778.93908616188753
 11
1028.4337498566863
 21
778.93908616188753
  0
LINE
  8
_0-1_計細線
  6
CONTINUOUS
 62
    3
 10
1028.4337498566863
 20
778.93908616188753
 11
1028.4337498566863
 21
584.93908616188708
  0
LINE
  8
_0-1_計細線
  6
CONTINUOUS
 62
    3
 10
1028.4337498566863
 20
584.93908616188708
 11
1031.4337498566863
 21
584.93908616188708
  0
LINE
  8
_0-1_計細線
  6
CONTINUOUS
 62
    3
 10
1031.4337498566863
 20
584.93908616188708
 11
1031.4337498566863
 21
778.93908616188753
  0
LINE
  8
_0-1_計細線
  6
CONTINUOUS
 62
    3
 10
1041.4337498566863
 20
778.93908616188753
 11
1038.4337498566863
 21
778.93908616188753
  0
LINE
  8
_0-1_計細線
  6
CONTINUOUS
 62
    3
 10
1038.4337498566863
 20
778.93908616188753
 11
1038.4337498566863
 21
584.93908616188708
  0
LINE
  8
_0-1_計細線
  6
CONTINUOUS
 62
    3
 10
1038.4337498566863
 20
584.93908616188708
 11
1041.4337498566863
 21
584.93908616188708
  0
LINE
  8
_0-1_計細線
  6
CONTINUOUS
 62
    3
 10
1041.4337498566863
 20
584.93908616188708
 11
1041.4337498566863
 21
778.93908616188753
  0
LINE
  8
_0-1_計細線
  6
CONTINUOUS
 62
    3
 10
1051.4337498566863
 20
778.93908616188753
 11
1048.4337498566863
 21
778.93908616188753
  0
LINE
  8
_0-1_計細線
  6
CONTINUOUS
 62
    3
 10
1048.4337498566863
 20
778.93908616188753
 11
1048.4337498566863
 21
584.93908616188708
  0
LINE
  8
_0-1_計細線
  6
CONTINUOUS
 62
    3
 10
1048.4337498566863
 20
584.93908616188708
 11
1051.4337498566863
 21
584.93908616188708
  0
LINE
  8
_0-1_計細線
  6
CONTINUOUS
 62
    3
 10
1051.4337498566863
 20
584.93908616188708
 11
1051.4337498566863
 21
778.93908616188753
  0
LINE
  8
_0-1_計細線
  6
CONTINUOUS
 62
    3
 10
1061.4337498566863
 20
778.93908616188753
 11
1058.4337498566863
 21
778.93908616188753
  0
LINE
  8
_0-1_計細線
  6
CONTINUOUS
 62
    3
 10
1058.4337498566863
 20
778.93908616188753
 11
1058.4337498566863
 21
584.93908616188708
  0
LINE
  8
_0-1_計細線
  6
CONTINUOUS
 62
    3
 10
1058.4337498566863
 20
584.93908616188708
 11
1061.4337498566863
 21
584.93908616188708
  0
LINE
  8
_0-1_計細線
  6
CONTINUOUS
 62
    3
 10
1061.4337498566863
 20
584.93908616188708
 11
1061.4337498566863
 21
778.93908616188753
  0
LINE
  8
_0-1_計細線
  6
CONTINUOUS
 62
    3
 10
1071.4337498566863
 20
778.93908616188753
 11
1068.4337498566863
 21
778.93908616188753
  0
LINE
  8
_0-1_計細線
  6
CONTINUOUS
 62
    3
 10
1068.4337498566863
 20
778.93908616188753
 11
1068.4337498566863
 21
584.93908616188708
  0
LINE
  8
_0-1_計細線
  6
CONTINUOUS
 62
    3
 10
1068.4337498566863
 20
584.93908616188708
 11
1071.4337498566863
 21
584.93908616188708
  0
LINE
  8
_0-1_計細線
  6
CONTINUOUS
 62
    3
 10
1071.4337498566863
 20
584.93908616188708
 11
1071.4337498566863
 21
778.93908616188753
  0
LINE
  8
_0-1_計細線
  6
CONTINUOUS
 62
    3
 10
1081.4337498566863
 20
778.93908616188753
 11
1078.4337498566863
 21
778.93908616188753
  0
LINE
  8
_0-1_計細線
  6
CONTINUOUS
 62
    3
 10
1078.4337498566863
 20
778.93908616188753
 11
1078.4337498566863
 21
584.93908616188708
  0
LINE
  8
_0-1_計細線
  6
CONTINUOUS
 62
    3
 10
1078.4337498566863
 20
584.93908616188708
 11
1081.4337498566863
 21
584.93908616188708
  0
LINE
  8
_0-1_計細線
  6
CONTINUOUS
 62
    3
 10
1081.4337498566863
 20
584.93908616188708
 11
1081.4337498566863
 21
778.93908616188753
  0
LINE
  8
_0-1_計細線
  6
CONTINUOUS
 62
    3
 10
1091.4337498566863
 20
778.93908616188753
 11
1088.4337498566863
 21
778.93908616188753
  0
LINE
  8
_0-1_計細線
  6
CONTINUOUS
 62
    3
 10
1088.4337498566863
 20
778.93908616188753
 11
1088.4337498566863
 21
584.93908616188708
  0
LINE
  8
_0-1_計細線
  6
CONTINUOUS
 62
    3
 10
1088.4337498566863
 20
584.93908616188708
 11
1091.4337498566863
 21
584.93908616188708
  0
LINE
  8
_0-1_計細線
  6
CONTINUOUS
 62
    3
 10
1091.4337498566863
 20
584.93908616188708
 11
1091.4337498566863
 21
778.93908616188753
  0
LINE
  8
_0-1_計細線
  6
CONTINUOUS
 62
    3
 10
1101.4337498566863
 20
778.93908616188753
 11
1098.4337498566863
 21
778.93908616188753
  0
LINE
  8
_0-1_計細線
  6
CONTINUOUS
 62
    3
 10
1098.4337498566863
 20
778.93908616188753
 11
1098.4337498566863
 21
584.93908616188708
  0
LINE
  8
_0-1_計細線
  6
CONTINUOUS
 62
    3
 10
1098.4337498566863
 20
584.93908616188708
 11
1101.4337498566863
 21
584.93908616188708
  0
LINE
  8
_0-1_計細線
  6
CONTINUOUS
 62
    3
 10
1101.4337498566863
 20
584.93908616188708
 11
1101.4337498566863
 21
778.93908616188753
  0
LINE
  8
_0-1_計細線
  6
CONTINUOUS
 62
    3
 10
1111.4337498566863
 20
778.93908616188753
 11
1108.4337498566863
 21
778.93908616188753
  0
LINE
  8
_0-1_計細線
  6
CONTINUOUS
 62
    3
 10
1108.4337498566863
 20
778.93908616188753
 11
1108.4337498566863
 21
584.93908616188708
  0
LINE
  8
_0-1_計細線
  6
CONTINUOUS
 62
    3
 10
1108.4337498566863
 20
584.93908616188708
 11
1111.4337498566863
 21
584.93908616188708
  0
LINE
  8
_0-1_計細線
  6
CONTINUOUS
 62
    3
 10
1111.4337498566863
 20
584.93908616188708
 11
1111.4337498566863
 21
778.93908616188753
  0
LINE
  8
_0-1_計細線
  6
CONTINUOUS
 62
    3
 10
1121.4337498566863
 20
778.93908616188753
 11
1118.4337498566863
 21
778.93908616188753
  0
LINE
  8
_0-1_計細線
  6
CONTINUOUS
 62
    3
 10
1118.4337498566863
 20
778.93908616188753
 11
1118.4337498566863
 21
584.93908616188708
  0
LINE
  8
_0-1_計細線
  6
CONTINUOUS
 62
    3
 10
1118.4337498566863
 20
584.93908616188708
 11
1121.4337498566863
 21
584.93908616188708
  0
LINE
  8
_0-1_計細線
  6
CONTINUOUS
 62
    3
 10
1121.4337498566863
 20
584.93908616188708
 11
1121.4337498566863
 21
778.93908616188753
  0
LINE
  8
_0-1_計細線
  6
CONTINUOUS
 62
    3
 10
1131.4337498566863
 20
778.93908616188753
 11
1128.4337498566863
 21
778.93908616188753
  0
LINE
  8
_0-1_計細線
  6
CONTINUOUS
 62
    3
 10
1128.4337498566863
 20
778.93908616188753
 11
1128.4337498566863
 21
584.93908616188708
  0
LINE
  8
_0-1_計細線
  6
CONTINUOUS
 62
    3
 10
1128.4337498566863
 20
584.93908616188708
 11
1131.4337498566863
 21
584.93908616188708
  0
LINE
  8
_0-1_計細線
  6
CONTINUOUS
 62
    3
 10
1131.4337498566863
 20
584.93908616188708
 11
1131.4337498566863
 21
778.93908616188753
  0
LINE
  8
_0-1_計細線
  6
CONTINUOUS
 62
    3
 10
1141.4337498566863
 20
778.93908616188753
 11
1138.4337498566863
 21
778.93908616188753
  0
LINE
  8
_0-1_計細線
  6
CONTINUOUS
 62
    3
 10
1138.4337498566863
 20
778.93908616188753
 11
1138.4337498566863
 21
584.93908616188708
  0
LINE
  8
_0-1_計細線
  6
CONTINUOUS
 62
    3
 10
1138.4337498566863
 20
584.93908616188708
 11
1141.4337498566863
 21
584.93908616188708
  0
LINE
  8
_0-1_計細線
  6
CONTINUOUS
 62
    3
 10
1141.4337498566863
 20
584.93908616188708
 11
1141.4337498566863
 21
778.93908616188753
  0
LINE
  8
_0-1_計細線
  6
CONTINUOUS
 62
    3
 10
1151.4337498566863
 20
778.93908616188753
 11
1148.4337498566863
 21
778.93908616188753
  0
LINE
  8
_0-1_計細線
  6
CONTINUOUS
 62
    3
 10
1148.4337498566863
 20
778.93908616188753
 11
1148.4337498566863
 21
584.93908616188708
  0
LINE
  8
_0-1_計細線
  6
CONTINUOUS
 62
    3
 10
1148.4337498566863
 20
584.93908616188708
 11
1151.4337498566863
 21
584.93908616188708
  0
LINE
  8
_0-1_計細線
  6
CONTINUOUS
 62
    3
 10
1151.4337498566863
 20
584.93908616188708
 11
1151.4337498566863
 21
778.93908616188753
  0
LINE
  8
_0-1_計細線
  6
CONTINUOUS
 62
    3
 10
1161.4337498566863
 20
778.93908616188753
 11
1158.4337498566863
 21
778.93908616188753
  0
LINE
  8
_0-1_計細線
  6
CONTINUOUS
 62
    3
 10
1158.4337498566863
 20
778.93908616188753
 11
1158.4337498566863
 21
584.93908616188708
  0
LINE
  8
_0-1_計細線
  6
CONTINUOUS
 62
    3
 10
1158.4337498566863
 20
584.93908616188708
 11
1161.4337498566863
 21
584.93908616188708
  0
LINE
  8
_0-1_計細線
  6
CONTINUOUS
 62
    3
 10
1161.4337498566863
 20
584.93908616188708
 11
1161.4337498566863
 21
778.93908616188753
  0
LINE
  8
_0-1_計細線
  6
CONTINUOUS
 62
    3
 10
1171.4337498566863
 20
778.93908616188753
 11
1168.4337498566863
 21
778.93908616188753
  0
LINE
  8
_0-1_計細線
  6
CONTINUOUS
 62
    3
 10
1168.4337498566863
 20
778.93908616188753
 11
1168.4337498566863
 21
584.93908616188708
  0
LINE
  8
_0-1_計細線
  6
CONTINUOUS
 62
    3
 10
1168.4337498566863
 20
584.93908616188708
 11
1171.4337498566863
 21
584.93908616188708
  0
LINE
  8
_0-1_計細線
  6
CONTINUOUS
 62
    3
 10
1171.4337498566863
 20
584.93908616188708
 11
1171.4337498566863
 21
778.93908616188753
  0
LINE
  8
_0-1_計細線
  6
CONTINUOUS
 62
    3
 10
1181.4337498566863
 20
778.93908616188753
 11
1178.4337498566863
 21
778.93908616188753
  0
LINE
  8
_0-1_計細線
  6
CONTINUOUS
 62
    3
 10
1178.4337498566863
 20
778.93908616188753
 11
1178.4337498566863
 21
584.93908616188708
  0
LINE
  8
_0-1_計細線
  6
CONTINUOUS
 62
    3
 10
1178.4337498566863
 20
584.93908616188708
 11
1181.4337498566863
 21
584.93908616188708
  0
LINE
  8
_0-1_計細線
  6
CONTINUOUS
 62
    3
 10
1181.4337498566863
 20
584.93908616188708
 11
1181.4337498566863
 21
778.93908616188753
  0
LINE
  8
_0-1_計細線
  6
CONTINUOUS
 62
    3
 10
1191.4337498566863
 20
778.93908616188753
 11
1188.4337498566863
 21
778.93908616188753
  0
LINE
  8
_0-1_計細線
  6
CONTINUOUS
 62
    3
 10
1188.4337498566863
 20
778.93908616188753
 11
1188.4337498566863
 21
584.93908616188708
  0
LINE
  8
_0-1_計細線
  6
CONTINUOUS
 62
    3
 10
1188.4337498566863
 20
584.93908616188708
 11
1191.4337498566863
 21
584.93908616188708
  0
LINE
  8
_0-1_計細線
  6
CONTINUOUS
 62
    3
 10
1191.4337498566863
 20
584.93908616188708
 11
1191.4337498566863
 21
778.93908616188753
  0
LINE
  8
_0-1_計細線
  6
CONTINUOUS
 62
    3
 10
1201.4337498566863
 20
778.93908616188753
 11
1198.4337498566863
 21
778.93908616188753
  0
LINE
  8
_0-1_計細線
  6
CONTINUOUS
 62
    3
 10
1198.4337498566863
 20
778.93908616188753
 11
1198.4337498566863
 21
584.93908616188708
  0
LINE
  8
_0-1_計細線
  6
CONTINUOUS
 62
    3
 10
1198.4337498566863
 20
584.93908616188708
 11
1201.4337498566863
 21
584.93908616188708
  0
LINE
  8
_0-1_計細線
  6
CONTINUOUS
 62
    3
 10
1201.4337498566863
 20
584.93908616188708
 11
1201.4337498566863
 21
778.93908616188753
  0
LINE
  8
_0-1_計細線
  6
CONTINUOUS
 62
    3
 10
1211.4337498566863
 20
778.93908616188753
 11
1208.4337498566863
 21
778.93908616188753
  0
LINE
  8
_0-1_計細線
  6
CONTINUOUS
 62
    3
 10
1208.4337498566863
 20
778.93908616188753
 11
1208.4337498566863
 21
584.93908616188708
  0
LINE
  8
_0-1_計細線
  6
CONTINUOUS
 62
    3
 10
1208.4337498566863
 20
584.93908616188708
 11
1211.4337498566863
 21
584.93908616188708
  0
LINE
  8
_0-1_計細線
  6
CONTINUOUS
 62
    3
 10
1211.4337498566863
 20
584.93908616188708
 11
1211.4337498566863
 21
778.93908616188753
  0
LINE
  8
_0-1_計細線
  6
CONTINUOUS
 62
    3
 10
1221.4337498566863
 20
778.93908616188753
 11
1218.4337498566863
 21
778.93908616188753
  0
LINE
  8
_0-1_計細線
  6
CONTINUOUS
 62
    3
 10
1218.4337498566863
 20
778.93908616188753
 11
1218.4337498566863
 21
584.93908616188708
  0
LINE
  8
_0-1_計細線
  6
CONTINUOUS
 62
    3
 10
1218.4337498566863
 20
584.93908616188708
 11
1221.4337498566863
 21
584.93908616188708
  0
LINE
  8
_0-1_計細線
  6
CONTINUOUS
 62
    3
 10
1221.4337498566863
 20
584.93908616188708
 11
1221.4337498566863
 21
778.93908616188753
  0
LINE
  8
_0-5_寸法線
  6
CONTINUOUS
 62
    7
 10
1261.4433687999117
 20
576.93908616188708
 11
1341.3456878509119
 21
576.93908616188708
  0
LINE
  8
_0-5_寸法線
  6
CONTINUOUS
 62
    7
 10
1336.3456878509119
 20
576.93908616188708
 11
1333.7574973998867
 21
586.59834442477779
  0
LINE
  8
_0-5_寸法線
  6
CONTINUOUS
 62
    7
 10
1336.3456878509119
 20
576.93908616188708
 11
1338.9338783019368
 21
586.59834442477779
  0
LINE
  8
_0-5_寸法線
  6
CONTINUOUS
 62
    7
 10
1261.4433687999117
 20
786.93908616188708
 11
1341.3456878509119
 21
786.93908616188708
  0
LINE
  8
_0-5_寸法線
  6
CONTINUOUS
 62
    7
 10
1336.3456878509119
 20
786.93908616188708
 11
1338.9338783019368
 21
777.27982789899647
  0
LINE
  8
_0-5_寸法線
  6
CONTINUOUS
 62
    7
 10
1336.3456878509119
 20
786.93908616188708
 11
1333.7574973998867
 21
777.27982789899647
  0
LINE
  8
_0-5_寸法線
  6
CONTINUOUS
 62
    7
 10
1336.3456878509119
 20
576.93908616188708
 11
1336.3456878509119
 21
786.93908616188708
  0
TEXT
  8
_0-5_寸法線
 62
    7
 10
1336.3456878509119
 20
670.68908616188708
 40
15
 41
1
 50
90
  1
210
  0
LINE
  8
_0-5_寸法線
  6
CONTINUOUS
 62
    7
 10
188.4241309134498
 20
576.93908616188719
 11
143.42413091344929
 21
576.93908616188753
  0
LINE
  8
_0-5_寸法線
  6
CONTINUOUS
 62
    7
 10
148.42413091344929
 20
576.93908616188753
 11
145.83594046242411
 21
586.59834442477836
  0
LINE
  8
_0-5_寸法線
  6
CONTINUOUS
 62
    7
 10
148.42413091344929
 20
576.93908616188753
 11
151.0123213644745
 21
586.59834442477836
  0
LINE
  8
_0-5_寸法線
  6
CONTINUOUS
 62
    7
 10
188.4241309134498
 20
606.9390861618881
 11
143.42413091344929
 21
606.93908616188855
  0
LINE
  8
_0-5_寸法線
  6
CONTINUOUS
 62
    7
 10
148.42413091344929
 20
606.93908616188855
 11
151.01232136447442
 21
597.27982789899772
  0
LINE
  8
_0-5_寸法線
  6
CONTINUOUS
 62
    7
 10
148.42413091344929
 20
606.93908616188855
 11
145.83594046242405
 21
597.27982789899772
  0
LINE
  8
_0-5_寸法線
  6
CONTINUOUS
 62
    7
 10
148.42413091344929
 20
576.93908616188753
 11
148.42413091344929
 21
606.93908616188855
  0
TEXT
  8
_0-5_寸法線
 62
    7
 10
148.42413091344929
 20
584.43908616188799
 40
15
 41
1
 50
90
  1
30
  0
LINE
  8
_0-5_寸法線
  6
CONTINUOUS
 62
    7
 10
148.42413091344929
 20
606.93908616188855
 11
145.83594046242411
 21
616.59834442477916
  0
LINE
  8
_0-5_寸法線
  6
CONTINUOUS
 62
    7
 10
148.42413091344929
 20
606.93908616188855
 11
151.0123213644745
 21
616.59834442477916
  0
LINE
  8
_0-5_寸法線
  6
CONTINUOUS
 62
    7
 10
188.4241309134498
 20
756.93908616188764
 11
143.42413091344929
 21
756.9390861618881
  0
LINE
  8
_0-5_寸法線
  6
CONTINUOUS
 62
    7
 10
148.42413091344929
 20
756.9390861618881
 11
151.01232136447442
 21
747.27982789899727
  0
LINE
  8
_0-5_寸法線
  6
CONTINUOUS
 62
    7
 10
148.42413091344929
 20
756.9390861618881
 11
145.83594046242405
 21
747.27982789899727
  0
LINE
  8
_0-5_寸法線
  6
CONTINUOUS
 62
    7
 10
148.42413091344929
 20
606.93908616188855
 11
148.42413091344929
 21
756.9390861618881
  0
TEXT
  8
_0-5_寸法線
 62
    7
 10
148.42413091344923
 20
670.6890861618881
 40
15
 41
1
 50
89.999999999999815
  1
150
  0
LINE
  8
_0-5_寸法線
  6
CONTINUOUS
 62
    7
 10
148.42413091344929
 20
756.9390861618881
 11
145.83594046242411
 21
766.5983444247787
  0
LINE
  8
_0-5_寸法線
  6
CONTINUOUS
 62
    7
 10
148.42413091344929
 20
756.9390861618881
 11
151.0123213644745
 21
766.5983444247787
  0
LINE
  8
_0-5_寸法線
  6
CONTINUOUS
 62
    7
 10
188.4241309134498
 20
786.93908616188764
 11
143.42413091344929
 21
786.9390861618881
  0
LINE
  8
_0-5_寸法線
  6
CONTINUOUS
 62
    7
 10
148.42413091344929
 20
786.9390861618881
 11
151.01232136447442
 21
777.27982789899727
  0
LINE
  8
_0-5_寸法線
  6
CONTINUOUS
 62
    7
 10
148.42413091344929
 20
786.9390861618881
 11
145.83594046242405
 21
777.27982789899727
  0
LINE
  8
_0-5_寸法線
  6
CONTINUOUS
 62
    7
 10
148.42413091344929
 20
756.9390861618881
 11
148.42413091344929
 21
786.9390861618881
  0
TEXT
  8
_0-5_寸法線
 62
    7
 10
148.42413091344929
 20
764.4390861618881
 40
15
 41
1
 50
90
  1
30
  0
LINE
  8
_0-5_寸法線
  6
CONTINUOUS
 62
    7
 10
228.43374985668632
 20
796.93908616188764
 11
228.43374985668632
 21
841.93908616188764
  0
LINE
  8
_0-5_寸法線
  6
CONTINUOUS
 62
    7
 10
228.43374985668632
 20
836.93908616188764
 11
238.09300811957698
 21
839.52727661291283
  0
LINE
  8
_0-5_寸法線
  6
CONTINUOUS
 62
    7
 10
228.43374985668632
 20
836.93908616188764
 11
238.09300811957698
 21
834.35089571086235
  0
LINE
  8
_0-5_寸法線
  6
CONTINUOUS
 62
    7
 10
1221.4337498566863
 20
796.93908616188764
 11
1221.433749856687
 21
841.93908616188764
  0
LINE
  8
_0-5_寸法線
  6
CONTINUOUS
 62
    7
 10
1221.433749856687
 20
836.93908616188764
 11
1211.774491593796
 21
834.35089571086235
  0
LINE
  8
_0-5_寸法線
  6
CONTINUOUS
 62
    7
 10
1221.433749856687
 20
836.93908616188764
 11
1211.774491593796
 21
839.52727661291283
  0
LINE
  8
_0-5_寸法線
  6
CONTINUOUS
 62
    7
 10
228.43374985668632
 20
836.93908616188764
 11
1221.433749856687
 21
836.93908616188764
  0
TEXT
  8
_0-5_寸法線
 62
    7
 10
713.6837498566864
 20
836.93908616188764
 40
15
 41
1
 50
0
  1
993
  0
TEXT
  8
_0-5_寸法線
 62
    7
 10
633.30850608787455
 20
519.12447591872797
 40
15
 41
0.8000000000000001
 50
0
  1
ＧＳＬ－２０
  0
TEXT
  8
_0-5_寸法線
 62
    7
 10
852.90859242229885
 20
519.12447591872797
 40
15
 41
0.8000000000000001
 50
0
  1
ＧＳＦＪ－２０Ｗ２００
  0
TEXT
  8
_0-7_枠細線
 62
    5
 10
965.50000000000011
 20
110
 40
20
 41
0.6
 50
0
  1
ＧＳＦＪ－２０Ｗ２００
  0
TEXT
  8
_0-7_枠細線
 62
    5
 10
965.49999999999966
 20
70
 40
20.000000000000004
 41
0.5999999999999997
 50
0
  1
表面形状については記号表参照のこと
  0
LINE
  8
_0-7_枠細線
  6
CONTINUOUS
 62
    5
 10
1409.4018171150183
 20
328.47321710336234
 11
1409.4018171150183
 21
223.47321710336274
  0
TEXT
  8
_0-7_枠細線
 62
    5
 10
1318.4018171150192
 20
308.47321710336234
 40
15.000000000000002
 41
0.8
 50
0
  1
ノンスリップ
  0
TEXT
  8
_0-7_枠細線
 62
    5
 10
1330.4018171150185
 20
283.47321710336234
 40
15.000000000000002
 41
0.8
 50
0
  1
品番－Ｄ
  0
LINE
  8
_0-7_枠細線
  6
CONTINUOUS
 62
    5
 10
1299.4018171150178
 20
328.47321710336234
 11
1299.4018171150178
 21
223.47321710336274
  0
TEXT
  8
_0-7_枠細線
 62
    5
 10
1220.4018171150178
 20
308.4732171033624
 40
15.000000000000002
 41
0.8
 50
0
  1
プレーン
  0
TEXT
  8
_0-7_枠細線
 62
    5
 10
1220.4018171150185
 20
283.47321710336234
 40
15.000000000000002
 41
0.8
 50
0
  1
品番－Ｆ
  0
TEXT
  8
_0-7_枠細線
 62
    5
 10
1140.4018171150183
 20
308.47321710336234
 40
15.000000000000002
 41
0.8
 50
0
  1
タ イ プ
  0
LINE
  8
_0-7_枠細線
  6
CONTINUOUS
 62
    5
 10
1139.4018171150174
 20
278.47321710336234
 11
1409.4018171150183
 21
278.47321710336234
  0
LINE
  8
_0-7_枠細線
  6
CONTINUOUS
 62
    5
 10
1139.4018171150174
 20
303.47321710336234
 11
1409.4018171150183
 21
303.47321710336234
  0
LINE
  8
_0-7_枠細線
  6
CONTINUOUS
 62
    5
 10
1139.4018171150174
 20
328.47321710336234
 11
1409.4018171150183
 21
328.47321710336234
  0
LINE
  8
_0-7_枠細線
  6
CONTINUOUS
 62
    5
 10
1139.4018171150174
 20
223.47321710336274
 11
1409.4018171150183
 21
223.47321710336274
  0
LINE
  8
_0-7_枠細線
  6
CONTINUOUS
 62
    5
 10
1189.4018171150183
 20
328.47321710336234
 11
1189.4018171150183
 21
223.47321710336274
  0
LINE
  8
_0-7_枠細線
  6
CONTINUOUS
 62
    5
 10
1139.4018171150174
 20
328.47321710336234
 11
1139.4018171150174
 21
223.47321710336274
  0
TEXT
  8
_0-7_枠細線
 62
    5
 10
1140.4018171150183
 20
243.47321710336257
 40
15.000000000000002
 41
0.8
 50
0
  1
表面形状
  0
TEXT
  8
_0-7_枠細線
 62
    5
 10
1147.1760284558286
 20
330.9732171033624
 40
17.500000000000004
 41
0.7999999999999996
 50
0
  1
記号表
  0
TEXT
  8
_0-7_枠細線
 62
    5
 10
1140.4018171150183
 20
283.47321710336246
 40
15.000000000000002
 41
0.8
 50
0
  1
記　　号
  0
ARC
  8
_0-7_枠細線
  6
CONTINUOUS
 62
    5
 10
1285.5023462775741
 20
245.17647202943709
 40
8.5903566658075761
 50
317.56162900000447
 51
42.438370999995371
  0
ARC
  8
_0-7_枠細線
  6
CONTINUOUS
 62
    5
 10
1190.621859620396
 20
245.17647202943709
 40
8.5903566658076702
 50
317.56162899999947
 51
42.43837100000087
  0
ARC
  8
_0-7_枠細線
  6
CONTINUOUS
 62
    5
 10
1203.3012879524622
 20
256.76996202827797
 40
8.5903566658076702
 50
137.56162899999987
 51
222.43837100000292
  0
ARC
  8
_0-7_枠細線
  6
CONTINUOUS
 62
    5
 10
1298.1817746096403
 20
256.76996202827797
 40
8.5903566658075761
 50
137.56162899999941
 51
222.4383710000034
  0
LINE
  8
_0-7_枠細線
  6
CONTINUOUS
 62
    5
 10
1194.8814809446508
 20
258.47321702885716
 11
1289.7619676018294
 21
258.47321702885716
  0
LINE
  8
_0-7_枠細線
  6
CONTINUOUS
 62
    5
 10
1293.9221532853853
 20
243.47321702885765
 11
1199.0416666282072
 21
243.47321702885765
  0
ARC
  8
_0-7_枠細線
  6
CONTINUOUS
 62
    5
 10
1301.122215453679
 20
245.17647202943706
 40
8.5903566658075761
 50
317.5616290000001
 51
42.438371000001837
  0
ARC
  8
_0-7_枠細線
  6
CONTINUOUS
 62
    5
 10
1313.8016437857441
 20
256.76996202827786
 40
8.5903566658075761
 50
137.56162900000044
 51
222.43837100000019
  0
ARC
  8
_0-7_枠細線
  6
CONTINUOUS
 62
    5
 10
1396.0027021108588
 20
245.17647202943706
 40
8.5903566658075761
 50
317.56162899999799
 51
42.438371000001837
  0
ARC
  8
_0-7_枠細線
  6
CONTINUOUS
 62
    5
 10
1408.6821304429236
 20
256.76996202827786
 40
8.5903566658075761
 50
137.56162900000146
 51
222.43837100000019
  0
LINE
  8
_0-7_枠細線
  6
CONTINUOUS
 62
    5
 10
1305.3818367779329
 20
258.47321702885711
 11
1400.2623234351113
 21
258.47321702885711
  0
LINE
  8
_0-7_枠細線
  6
CONTINUOUS
 62
    5
 10
1404.4225091186672
 20
243.47321702885762
 11
1309.5420224614893
 21
243.47321702885762
  0
LINE
  8
_0-7_枠細線
  6
CONTINUOUS
 62
    5
 10
1305.319542326198
 20
258.12944077976692
 11
1319.975766077107
 21
243.47321702885773
  0
LINE
  8
_0-7_枠細線
  6
CONTINUOUS
 62
    5
 10
1315.5823677949058
 20
258.47321702885711
 11
1330.5823677949052
 21
243.47321702885773
  0
LINE
  8
_0-7_枠細線
  6
CONTINUOUS
 62
    5
 10
1326.1889695127043
 20
258.47321702885711
 11
1341.1889695127034
 21
243.47321702885773
  0
LINE
  8
_0-7_枠細線
  6
CONTINUOUS
 62
    5
 10
1336.7955712305022
 20
258.47321702885711
 11
1351.7955712305015
 21
243.47321702885773
  0
LINE
  8
_0-7_枠細線
  6
CONTINUOUS
 62
    5
 10
1347.4021729483002
 20
258.47321702885711
 11
1362.4021729482997
 21
243.47321702885762
  0
LINE
  8
_0-7_枠細線
  6
CONTINUOUS
 62
    5
 10
1358.0087746660984
 20
258.47321702885711
 11
1373.0087746660977
 21
243.47321702885762
  0
LINE
  8
_0-7_枠細線
  6
CONTINUOUS
 62
    5
 10
1368.6153763838965
 20
258.47321702885711
 11
1383.6153763838959
 21
243.47321702885762
  0
LINE
  8
_0-7_枠細線
  6
CONTINUOUS
 62
    5
 10
1379.2219781016945
 20
258.47321702885711
 11
1394.2219781016943
 21
243.47321702885762
  0
LINE
  8
_0-7_枠細線
  6
CONTINUOUS
 62
    5
 10
1389.8285798194929
 20
258.47321702885711
 11
1404.4848035704022
 21
243.81699327794757
  0
LINE
  8
_0-7_枠細線
  6
CONTINUOUS
 62
    5
 10
1400.4351815372913
 20
243.47321702885762
 11
1404.3132122249604
 21
247.3512477165265
  0
LINE
  8
_0-7_枠細線
  6
CONTINUOUS
 62
    5
 10
1389.8285798194931
 20
243.47321702885762
 11
1400.502099021217
 21
254.14673623058133
  0
LINE
  8
_0-7_枠細線
  6
CONTINUOUS
 62
    5
 10
1379.2219781016952
 20
243.47321702885762
 11
1394.2219781016945
 21
258.47321702885711
  0
LINE
  8
_0-7_枠細線
  6
CONTINUOUS
 62
    5
 10
1368.6153763838968
 20
243.47321702885762
 11
1383.6153763838965
 21
258.47321702885711
  0
LINE
  8
_0-7_枠細線
  6
CONTINUOUS
 62
    5
 10
1358.0087746660988
 20
243.47321702885773
 11
1373.0087746660979
 21
258.47321702885711
  0
LINE
  8
_0-7_枠細線
  6
CONTINUOUS
 62
    5
 10
1347.4021729483004
 20
243.47321702885773
 11
1362.4021729482999
 21
258.47321702885711
  0
LINE
  8
_0-7_枠細線
  6
CONTINUOUS
 62
    5
 10
1336.7955712305022
 20
243.47321702885773
 11
1351.7955712305015
 21
258.47321702885711
  0
LINE
  8
_0-7_枠細線
  6
CONTINUOUS
 62
    5
 10
1326.1889695127038
 20
243.47321702885773
 11
1341.1889695127034
 21
258.47321702885711
  0
LINE
  8
_0-7_枠細線
  6
CONTINUOUS
 62
    5
 10
1315.5823677949056
 20
243.47321702885773
 11
1330.5823677949052
 21
258.47321702885711
  0
LINE
  8
_0-7_枠細線
  6
CONTINUOUS
 62
    5
 10
1309.3022468753834
 20
247.79969782713346
 11
1319.975766077107
 21
258.47321702885711
  0
LINE
  8
_0-7_枠細線
  6
CONTINUOUS
 62
    5
 10
1305.4911336716398
 20
254.59518634118811
 11
1309.369164359309
 21
258.47321702885711
  0
LINE
  8
_0-a_極細3
  6
CONTINUOUS
 62
    7
 10
649.26399358833351
 20
248.2347729347812
 11
645.43066025500013
 21
248.2347729347812
  0
LINE
  8
_0-a_極細3
  6
CONTINUOUS
 62
    7
 10
649.26399358833351
 20
251.56810626811466
 11
645.43066025500013
 21
251.56810626811466
  0
LINE
  8
_0-a_極細3
  6
CONTINUOUS
 62
    7
 10
649.26399358833351
 20
244.90143960144817
 11
645.43066025500013
 21
244.90143960144817
  0
LINE
  8
_0-a_極細3
  6
CONTINUOUS
 62
    7
 10
649.26399358833351
 20
254.90143960144817
 11
645.43066025500013
 21
254.90143960144817
  0
LINE
  8
_0-a_極細3
  6
CONTINUOUS
 62
    7
 10
645.43066025500013
 20
221.56810626811466
 11
649.26399358833351
 21
221.56810626811466
  0
LINE
  8
_0-a_極細3
  6
CONTINUOUS
 62
    7
 10
649.26399358833351
 20
271.56810626811466
 11
645.43066025500013
 21
271.56810626811466
  0
LINE
  8
_0-b_細線3
  6
CONTINUOUS
 62
    7
 10
645.43066025500013
 20
274.90143960144815
 11
645.43066025500013
 21
216.56810626811466
  0
LINE
  8
_0-b_細線3
  6
CONTINUOUS
 62
    7
 10
645.43066025500013
 20
216.56810626811466
 11
649.26399358833351
 21
216.56810626811466
  0
LINE
  8
_0-b_細線3
  6
CONTINUOUS
 62
    7
 10
649.26399358833351
 20
216.56810626811466
 11
649.26399358833351
 21
274.90143960144815
  0
LINE
  8
_0-b_細線3
  6
CONTINUOUS
 62
    7
 10
649.26399358833351
 20
274.90143960144815
 11
645.43066025500013
 21
274.90143960144815
  0
LINE
  8
_0-7_枠細線
  6
CONTINUOUS
 62
    5
 10
668.34986168157297
 20
252.63018959760194
 11
660.84986168157297
 21
267.63018959760194
  0
LINE
  8
_0-7_枠細線
  6
CONTINUOUS
 62
    5
 10
653.34986168157297
 20
252.63018959760194
 11
668.34986168157297
 21
252.63018959760194
  0
LINE
  8
_0-7_枠細線
  6
CONTINUOUS
 62
    5
 10
660.84986168157297
 20
267.63018959760194
 11
653.34986168157297
 21
252.63018959760194
  0
TEXT
  8
_0-7_枠細線
 62
    5
 10
655.71501294972109
 20
252.3231873522214
 40
12.5
 41
0.8
 50
0
  1
１
  0
LINE
  8
_0-a_極細3
  6
CONTINUOUS
 62
    7
 10
291.59732643683867
 20
248.23477241719414
 11
295.43065977017199
 21
248.23477241719414
  0
LINE
  8
_0-a_極細3
  6
CONTINUOUS
 62
    7
 10
291.59732643683867
 20
251.56810575052759
 11
295.43065977017199
 21
251.56810575052759
  0
LINE
  8
_0-a_極細3
  6
CONTINUOUS
 62
    7
 10
291.59732643683867
 20
244.90143908386108
 11
295.43065977017199
 21
244.90143908386108
  0
LINE
  8
_0-a_極細3
  6
CONTINUOUS
 62
    7
 10
291.59732643683867
 20
254.90143908386108
 11
295.43065977017199
 21
254.90143908386108
  0
LINE
  8
_0-a_極細3
  6
CONTINUOUS
 62
    7
 10
295.43065977017199
 20
221.56810575052759
 11
291.59732643683867
 21
221.56810575052759
  0
LINE
  8
_0-a_極細3
  6
CONTINUOUS
 62
    7
 10
291.59732643683867
 20
271.56810575052759
 11
295.43065977017199
 21
271.56810575052759
  0
LINE
  8
_0-b_細線3
  6
CONTINUOUS
 62
    7
 10
295.43065977017199
 20
274.90143908386108
 11
295.43065977017199
 21
216.56810575052759
  0
LINE
  8
_0-b_細線3
  6
CONTINUOUS
 62
    7
 10
295.43065977017199
 20
216.56810575052759
 11
291.59732643683867
 21
216.56810575052759
  0
LINE
  8
_0-b_細線3
  6
CONTINUOUS
 62
    7
 10
291.59732643683867
 20
216.56810575052759
 11
291.59732643683867
 21
274.90143908386108
  0
LINE
  8
_0-b_細線3
  6
CONTINUOUS
 62
    7
 10
291.59732643683867
 20
274.90143908386108
 11
295.43065977017199
 21
274.90143908386108
  0
LINE
  8
_0-d_寸法3
  6
CONTINUOUS
 62
    7
 10
281.59732643683867
 20
254.90143908386113
 11
239.48062869158269
 21
254.90143908386113
  0
LINE
  8
_0-d_寸法3
  6
CONTINUOUS
 62
    7
 10
244.48062869158269
 20
254.90143908386108
 11
247.06881914260791
 21
245.24218082097039
  0
LINE
  8
_0-d_寸法3
  6
CONTINUOUS
 62
    7
 10
244.48062869158269
 20
254.90143908386108
 11
241.89243824055751
 21
245.24218082097042
  0
LINE
  8
_0-d_寸法3
  6
CONTINUOUS
 62
    7
 10
281.59732643683867
 20
216.56810575052762
 11
239.48062869158269
 21
216.56810575052762
  0
LINE
  8
_0-d_寸法3
  6
CONTINUOUS
 62
    7
 10
244.48062869158269
 20
216.56810575052759
 11
241.89243824055751
 21
226.22736401341828
  0
LINE
  8
_0-d_寸法3
  6
CONTINUOUS
 62
    7
 10
244.48062869158269
 20
216.56810575052759
 11
247.06881914260791
 21
226.22736401341828
  0
LINE
  8
_0-d_寸法3
  6
CONTINUOUS
 62
    7
 10
244.48062869158269
 20
254.90143908386108
 11
244.48062869158269
 21
216.56810575052759
  0
TEXT
  8
_0-d_寸法3
 62
    7
 10
244.48062869158269
 20
228.23477241719445
 40
15
 41
1
 50
90
  1
23
  0
LINE
  8
_0-d_寸法3
  6
CONTINUOUS
 62
    7
 10
285.43065977017199
 20
293.23477269126789
 11
239.48062869158221
 21
293.23477269126784
  0
LINE
  8
_0-d_寸法3
  6
CONTINUOUS
 62
    7
 10
244.48062869158221
 20
293.23477269126784
 11
247.06881914260742
 21
283.57551442837712
  0
LINE
  8
_0-d_寸法3
  6
CONTINUOUS
 62
    7
 10
244.48062869158221
 20
293.23477269126784
 11
241.892438240557
 21
283.57551442837718
  0
LINE
  8
_0-d_寸法3
  6
CONTINUOUS
 62
    7
 10
281.59732643683867
 20
254.90143908386099
 11
239.48062869158269
 21
254.90143908386057
  0
LINE
  8
_0-d_寸法3
  6
CONTINUOUS
 62
    7
 10
244.48062869158269
 20
254.90143908386059
 11
241.89243824055751
 21
264.56069734675128
  0
LINE
  8
_0-d_寸法3
  6
CONTINUOUS
 62
    7
 10
244.48062869158269
 20
254.90143908386059
 11
247.06881914260791
 21
264.56069734675128
  0
LINE
  8
_0-d_寸法3
  6
CONTINUOUS
 62
    7
 10
244.48062869158221
 20
293.23477269126784
 11
244.48062869158269
 21
254.90143908386059
  0
TEXT
  8
_0-d_寸法3
 62
    7
 10
244.48062869158269
 20
266.56810588756423
 40
15
 41
1
 50
90
  1
23
  0
LINE
  8
_0-7_枠細線
  6
CONTINUOUS
 62
    5
 10
1425
 20
907.5
 11
890
 21
907.5
  0
LINE
  8
_0-7_枠細線
  6
CONTINUOUS
 62
    5
 10
915
 20
908.94233397174708
 11
907.5
 21
923.94233397174708
  0
LINE
  8
_0-7_枠細線
  6
CONTINUOUS
 62
    5
 10
900
 20
908.94233397174708
 11
915
 21
908.94233397174708
  0
LINE
  8
_0-7_枠細線
  6
CONTINUOUS
 62
    5
 10
907.5
 20
923.94233397174708
 11
900
 21
908.94233397174708
  0
TEXT
  8
_0-7_枠細線
 62
    5
 10
902.36515126814822
 20
908.63533172636653
 40
12.5
 41
0.8
 50
0
  1
１
  0
TEXT
  8
_0-7_枠細線
 62
    5
 10
1180
 20
910
 40
12.5
 41
0.7199999999999999
 50
0
  1
２０１９．０９．０１
  0
TEXT
  8
_0-7_枠細線
 62
    5
 10
938.85037037037023
 20
910
 40
12.500000000000002
 41
1
 50
0
  1
アンカー材質･厚み変更
  0
LINE
  8
_0-7_枠細線
  6
CONTINUOUS
 62
    5
 10
890
 20
907.5
 11
890
 21
959.99999999999909
  0
LINE
  8
_0-7_枠細線
  6
CONTINUOUS
 62
    5
 10
925
 20
907.5
 11
925
 21
959.99999999999943
  0
LINE
  8
_0-7_枠細線
  6
CONTINUOUS
 62
    5
 10
1175
 20
907.5
 11
1175
 21
959.99999999999943
  0
LINE
  8
_0-7_枠細線
  6
CONTINUOUS
 62
    5
 10
1275
 20
907.5
 11
1275
 21
959.99999999999943
  0
LINE
  8
_0-9_枠極太
  6
CONTINUOUS
 62
    5
 10
60
 20
60
 11
60
 21
960
  0
LINE
  8
_0-9_枠極太
  6
CONTINUOUS
 62
    5
 10
60
 20
960
 11
1425
 21
960
  0
LINE
  8
_0-9_枠極太
  6
CONTINUOUS
 62
    5
 10
1425
 20
960
 11
1425
 21
60
  0
LINE
  8
_0-9_枠極太
  6
CONTINUOUS
 62
    5
 10
1425
 20
60
 11
60
 21
60
  0
LINE
  8
_0-5_寸法線
  6
CONTINUOUS
 62
    7
 10
1261.4433687999117
 20
576.93908616188708
 11
1306.3456878509119
 21
576.93908616188708
  0
LINE
  8
_0-5_寸法線
  6
CONTINUOUS
 62
    7
 10
1301.3456878509119
 20
576.93908616188708
 11
1303.9338783019368
 21
567.27982789899647
  0
LINE
  8
_0-5_寸法線
  6
CONTINUOUS
 62
    7
 10
1301.3456878509119
 20
576.93908616188708
 11
1298.7574973998867
 21
567.27982789899647
  0
LINE
  8
_0-5_寸法線
  6
CONTINUOUS
 62
    7
 10
1261.4433687999117
 20
579.93908616188708
 11
1306.3456878509119
 21
579.93908616188708
  0
CIRCLE
  8
_0-5_寸法線
  6
CONTINUOUS
 62
    1
 10
1301.3456878509119
 20
579.93908616188708
 40
1.5000000000000002
  0
LINE
  8
_0-5_寸法線
  6
CONTINUOUS
 62
    7
 10
1301.3456878509119
 20
551.93908616188708
 11
1301.3456878509119
 21
579.93908616188708
  0
TEXT
  8
_0-5_寸法線
 62
    7
 10
1301.3456878509119
 20
556.81790490450794
 40
15
 41
1
 50
90
  1
3
  0
LINE
  8
_0-5_寸法線
  6
CONTINUOUS
 62
    7
 10
1261.4433687999117
 20
581.93908616188708
 11
1306.3456878509119
 21
581.93908616188708
  0
LINE
  8
_0-5_寸法線
  6
CONTINUOUS
 62
    7
 10
1301.3456878509119
 20
579.93908616188708
 11
1301.3456878509119
 21
581.93908616188708
  0
TEXT
  8
_0-5_寸法線
 62
    7
 10
1322.1605672259659
 20
579.49530981635576
 40
15
 41
1
 50
90
  1
2
  0
LINE
  8
_0-5_寸法線
  6
CONTINUOUS
 62
    7
 10
1301.3456878509119
 20
581.93908616188708
 11
1298.7574973998867
 21
591.59834442477779
  0
LINE
  8
_0-5_寸法線
  6
CONTINUOUS
 62
    7
 10
1301.3456878509119
 20
581.93908616188708
 11
1303.9338783019368
 21
591.59834442477779
  0
LINE
  8
_0-5_寸法線
  6
CONTINUOUS
 62
    7
 10
1261.4433687999117
 20
781.93908616188708
 11
1306.3456878509119
 21
781.93908616188708
  0
LINE
  8
_0-5_寸法線
  6
CONTINUOUS
 62
    7
 10
1301.3456878509119
 20
781.93908616188708
 11
1303.9338783019368
 21
772.27982789899647
  0
LINE
  8
_0-5_寸法線
  6
CONTINUOUS
 62
    7
 10
1301.3456878509119
 20
781.93908616188708
 11
1298.7574973998867
 21
772.27982789899647
  0
LINE
  8
_0-5_寸法線
  6
CONTINUOUS
 62
    7
 10
1301.3456878509119
 20
581.93908616188708
 11
1301.3456878509119
 21
781.93908616188708
  0
TEXT
  8
_0-5_寸法線
 62
    7
 10
1301.3456878509119
 20
670.68908616188708
 40
15
 41
1
 50
90
  1
200
  0
LINE
  8
_0-5_寸法線
  6
CONTINUOUS
 62
    7
 10
1261.4433687999117
 20
783.93908616188753
 11
1306.3456878509119
 21
783.93908616188753
  0
CIRCLE
  8
_0-5_寸法線
  6
CONTINUOUS
 62
    1
 10
1301.3456878509119
 20
783.93908616188753
 40
1.5000000000000002
  0
LINE
  8
_0-5_寸法線
  6
CONTINUOUS
 62
    7
 10
1301.3456878509119
 20
781.93908616188708
 11
1301.3456878509119
 21
783.93908616188753
  0
TEXT
  8
_0-5_寸法線
 62
    7
 10
1321.975602237196
 20
776.59741489408532
 40
15
 41
1
 50
90
  1
2
  0
LINE
  8
_0-5_寸法線
  6
CONTINUOUS
 62
    7
 10
1261.4433687999117
 20
786.93908616188708
 11
1306.3456878509119
 21
786.93908616188708
  0
LINE
  8
_0-5_寸法線
  6
CONTINUOUS
 62
    7
 10
1301.3456878509119
 20
786.93908616188708
 11
1298.7574973998867
 21
796.59834442477791
  0
LINE
  8
_0-5_寸法線
  6
CONTINUOUS
 62
    7
 10
1301.3456878509119
 20
786.93908616188708
 11
1303.9338783019368
 21
796.59834442477791
  0
LINE
  8
_0-5_寸法線
  6
CONTINUOUS
 62
    7
 10
1301.3456878509119
 20
783.93908616188753
 11
1301.3456878509119
 21
811.93908616188708
  0
TEXT
  8
_0-5_寸法線
 62
    7
 10
1301.3456878509119
 20
799.16521092369953
 40
15
 41
1
 50
90
  1
3
  0
LINE
  8
_0-d_寸法3
  6
CONTINUOUS
 62
    7
 10
295.43065977017199
 20
378.23477269126784
 11
285.77140150728127
 21
375.64658224024265
  0
LINE
  8
_0-d_寸法3
  6
CONTINUOUS
 62
    7
 10
295.43065977017199
 20
378.23477269126784
 11
285.77140150728133
 21
380.82296314229313
  0
LINE
  8
_0-d_寸法3
  6
CONTINUOUS
 62
    7
 10
300.43065977017199
 20
297.40143935793435
 11
300.43065977017199
 21
383.23477269126784
  0
CIRCLE
  8
_0-d_寸法3
  6
CONTINUOUS
 62
    1
 10
300.43065977017199
 20
378.23477269126784
 40
1.5000000000000002
  0
LINE
  8
_0-d_寸法3
  6
CONTINUOUS
 62
    7
 10
270.43065977017199
 20
378.23477269126784
 11
300.43065977017199
 21
378.23477269126784
  0
TEXT
  8
_0-d_寸法3
 62
    7
 10
274.28599182624879
 20
378.23477269126784
 40
15
 41
1
 50
0
  1
3
  0
LINE
  8
_0-d_寸法3
  6
CONTINUOUS
 62
    7
 10
303.76399310350507
 20
294.90143768959001
 11
303.76399310350507
 21
383.23477269126784
  0
LINE
  8
_0-d_寸法3
  6
CONTINUOUS
 62
    7
 10
300.43065977017199
 20
378.23477269126784
 11
303.76399310350507
 21
378.23477269126784
  0
TEXT
  8
_0-d_寸法3
 62
    7
 10
298.3473264368385
 20
378.23477269126784
 40
15
 41
1
 50
0
  1
2
  0
LINE
  8
_0-d_寸法3
  6
CONTINUOUS
 62
    7
 10
303.76399310350507
 20
378.23477269126784
 11
313.42325136639573
 21
380.82296314229302
  0
LINE
  8
_0-d_寸法3
  6
CONTINUOUS
 62
    7
 10
303.76399310350507
 20
378.23477269126784
 11
313.42325136639573
 21
375.64658224024265
  0
LINE
  8
_0-d_寸法3
  6
CONTINUOUS
 62
    7
 10
637.09732643683856
 20
294.90143768959001
 11
637.09732643683856
 21
383.23477269126784
  0
LINE
  8
_0-d_寸法3
  6
CONTINUOUS
 62
    7
 10
637.09732643683856
 20
378.23477269126784
 11
627.43806817394784
 21
375.64658224024265
  0
LINE
  8
_0-d_寸法3
  6
CONTINUOUS
 62
    7
 10
637.09732643683856
 20
378.23477269126784
 11
627.43806817394784
 21
380.82296314229313
  0
LINE
  8
_0-d_寸法3
  6
CONTINUOUS
 62
    7
 10
303.76399310350507
 20
378.23477269126784
 11
637.09732643683856
 21
378.23477269126784
  0
TEXT
  8
_0-d_寸法3
 62
    7
 10
459.18065977017199
 20
378.23477269126784
 40
15
 41
1
 50
0
  1
200
  0
LINE
  8
_0-d_寸法3
  6
CONTINUOUS
 62
    7
 10
640.43065977017159
 20
297.40143935793435
 11
640.43065977017159
 21
383.23477269126784
  0
CIRCLE
  8
_0-d_寸法3
  6
CONTINUOUS
 62
    1
 10
640.43065977017159
 20
378.23477269126784
 40
1.5000000000000002
  0
LINE
  8
_0-d_寸法3
  6
CONTINUOUS
 62
    7
 10
637.09732643683856
 20
378.23477269126784
 11
640.43065977017159
 21
378.23477269126784
  0
TEXT
  8
_0-d_寸法3
 62
    7
 10
635.01399310350507
 20
378.23477269126784
 40
15
 41
1
 50
0
  1
2
  0
LINE
  8
_0-d_寸法3
  6
CONTINUOUS
 62
    7
 10
645.43065977017159
 20
378.23477269126784
 11
655.0899180330623
 21
380.82296314229296
  0
LINE
  8
_0-d_寸法3
  6
CONTINUOUS
 62
    7
 10
645.43065977017159
 20
378.23477269126784
 11
655.0899180330623
 21
375.64658224024265
  0
LINE
  8
_0-d_寸法3
  6
CONTINUOUS
 62
    7
 10
640.43065977017159
 20
378.23477269126784
 11
670.43065977017159
 21
378.23477269126784
  0
TEXT
  8
_0-d_寸法3
 62
    7
 10
659.3899091322794
 20
378.23477269126784
 40
15
 41
1
 50
0
  1
3
  0
ENDSEC
  0
EOF
