  0
SECTION
  2
HEADER
  9
$ACADVER
  1
AC1009
  9
$INSBASE
 10
0
 20
0
 30
0
  9
$EXTMIN
 10
0
 20
0
  9
$EXTMAX
 10
1485
 20
1050
  9
$LIMMIN
 10
0
 20
0
  9
$LIMMAX
 10
1485
 20
1050
  9
$LTSCALE
 40
5
  0
ENDSEC
  0
SECTION
  2
TABLES
  0
TABLE
  2
LTYPE
 70
     9
  0
LTYPE
  2
CONTINUOUS
 70
    64
  3
実線
 72
    65
 73
     0
 40
0.0
  0
LTYPE
  2
DASHED1
 70
    64
  3
--  --  --  --  --  --  --  --  
 72
    65
 73
     2
 40
2.5
 49
1.25
 49
-1.25
  0
LTYPE
  2
DASHED2
 70
    64
  3
----    ----    ----    ----    
 72
    65
 73
     2
 40
5.0
 49
2.5
 49
-2.5
  0
LTYPE
  2
DASHED3
 70
    64
  3
------  ------  ------  ------  
 72
    65
 73
     2
 40
5.0
 49
3.75
 49
-1.25
  0
LTYPE
  2
CENTER1
 70
    64
  3
----- - ----- - ----- - ----- - 
 72
    65
 73
     4
 40
10.0
 49
6.25
 49
-1.25
 49
1.25
 49
-1.25
  0
LTYPE
  2
CENTER2
 70
    64
  3
----------  --  ----------  --  
 72
    65
 73
     4
 40
20.0
 49
12.5
 49
-2.5
 49
2.5
 49
-2.5
  0
LTYPE
  2
PHANTOM1
 70
    64
  3
--- - - --- - - --- - - --- - - 
 72
    65
 73
     6
 40
10.0
 49
3.25
 49
-1.25
 49
1.25
 49
-1.25
 49
1.25
 49
-1.25
  0
LTYPE
  2
PHANTOM2
 70
    64
  3
--------  -  -  --------  -  -  
 72
    65
 73
     6
 40
20.0
 49
10.0
 49
-2.5
 49
1.25
 49
-2.5
 49
1.25
 49
-2.5
  0
LTYPE
  2
DOT
 70
    64
  3
-   -   -   -   -   -   -   -   
 72
    65
 73
     2
 40
2.5
 49
0.625
 49
-1.875
  0
LTYPE
  2
DUMMY
 70
    64
  3
ダミー
 72
    65
 73
     0
 40
0.0
  0
LTYPE
  2
RAND1
 70
    64
  3
ランダム線1
 72
    65
 73
     4
 40
10.0
 49
1.0
 49
-2.0
 49
3.0
 49
-4.0
  0
LTYPE
  2
RAND2
 70
    64
  3
ランダム線2
 72
    65
 73
     4
 40
14.0
 49
2.0
 49
-3.0
 49
4.0
 49
-5.0
  0
LTYPE
  2
RAND3
 70
    64
  3
ランダム線3
 72
    65
 73
     4
 40
18.0
 49
3.0
 49
-4.0
 49
5.0
 49
-6.0
  0
LTYPE
  2
RAND4
 70
    64
  3
ランダム線4
 72
    65
 73
     4
 40
22.0
 49
4.0
 49
-5.0
 49
6.0
 49
-7.0
  0
LTYPE
  2
RAND5
 70
    64
  3
ランダム線5
 72
    65
 73
     4
 40
26.0
 49
5.0
 49
-6.0
 49
7.0
 49
-8.0
  0
LTYPE
  2
LONG1
 70
    64
  3
----------  --  ----------  --  
 72
    65
 73
     4
 40
40.0
 49
32.5
 49
-2.5
 49
2.5
 49
-2.5
  0
LTYPE
  2
LONG2
 70
    64
  3
--------  -  -  --------  -  -  
 72
    65
 73
     6
 40
40.0
 49
30.0
 49
-2.5
 49
1.25
 49
-2.5
 49
1.25
 49
-2.5
  0
LTYPE
  2
LONG3
 70
    64
  3
+++++++++++++++..+++++++++++++++
 72
    65
 73
     2
 40
40.0
 49
37.5
 49
-2.5
  0
LTYPE
  2
LONG4
 70
    64
  3
+++++++++++++++..+++++++++++++++
 72
    65
 73
     2
 40
80.0
 49
75.0
 49
-5.0
  0
LTYPE
  2
LONG5
 70
    64
  3
----------  --  ----------  --  
 72
    65
 73
     4
 40
60.0
 49
37.5
 49
-7.5
 49
7.5
 49
-7.5
  0
LTYPE
  2
dashed
 70
   64
  3
-------   -------------   ------
 72
   65
 73
    2
 40
7.5
 49
6
 49
-1.5
  0
LTYPE
  2
dashed_spaced
 70
   64
  3
----        --------        ----
 72
   65
 73
    2
 40
12
 49
6
 49
-6
  0
LTYPE
  2
long_dashed_dotted
 70
   64
  3
------------- --- --------------
 72
   65
 73
    4
 40
15.25
 49
12
 49
-1.5
 49
0.25
 49
-1.5
  0
LTYPE
  2
long_dashed_double-dotted
 70
   64
  3
----------- --- --- ------------
 72
   65
 73
    6
 40
17
 49
12
 49
-1.5
 49
0.25
 49
-1.5
 49
0.25
 49
-1.5
  0
LTYPE
  2
long_dashed_triplicate-dotted
 70
   64
  3
--------- --- --- --- ----------
 72
   65
 73
    8
 40
18.75
 49
12
 49
-1.5
 49
0.25
 49
-1.5
 49
0.25
 49
-1.5
 49
0.25
 49
-1.5
  0
LTYPE
  2
dotted
 70
   64
  3
   -       -       -       -    
 72
   65
 73
    2
 40
1.75
 49
0.25
 49
-1.5
  0
LTYPE
  2
chain
 70
   64
  3
-------------- -- --------------
 72
   65
 73
    4
 40
18.5
 49
12
 49
-1.5
 49
3.5
 49
-1.5
  0
LTYPE
  2
chain_double_dash
 70
   64
  3
------------ -- -- -------------
 72
   65
 73
    6
 40
23.5
 49
12
 49
-1.5
 49
3.5
 49
-1.5
 49
3.5
 49
-1.5
  0
LTYPE
  2
dashed_dotted
 70
   64
  3
-----------     -     ----------
 72
   65
 73
    4
 40
9.25
 49
6
 49
-1.5
 49
0.25
 49
-1.5
  0
LTYPE
  2
double-dashed_dotted
 70
   64
  3
------   -----------   -   -----
 72
   65
 73
    6
 40
16.75
 49
6
 49
-1.5
 49
6
 49
-1.5
 49
0.25
 49
-1.5
  0
LTYPE
  2
dashed_double-dotted
 70
   64
  3
---------    -    -    ---------
 72
   65
 73
    6
 40
11
 49
6
 49
-1.5
 49
0.25
 49
-1.5
 49
0.25
 49
-1.5
  0
LTYPE
  2
double-dashed_double-dotted
 70
   64
  3
-----   ---------   -   -   ----
 72
   65
 73
    8
 40
18.5
 49
6
 49
-1.5
 49
6
 49
-1.5
 49
0.25
 49
-1.5
 49
0.25
 49
-1.5
  0
LTYPE
  2
dashed_triplicate-dotted
 70
   64
  3
-------    -    -    -    ------
 72
   65
 73
    8
 40
12.75
 49
6
 49
-1.5
 49
0.25
 49
-1.5
 49
0.25
 49
-1.5
 49
0.25
 49
-1.5
  0
LTYPE
  2
double-dashed_triplicate-dotted
 70
   64
  3
-----  ---------  -  -  -  -----
 72
   65
 73
   10
 40
20.25
 49
6
 49
-1.5
 49
6
 49
-1.5
 49
0.25
 49
-1.5
 49
0.25
 49
-1.5
 49
0.25
 49
-1.5
  0
LTYPE
  2
undefined
 70
   64
  3
--------------------------------
 72
   65
 73
    0
 40
0
  0
ENDTAB
  0
TABLE
  2
STYLE
  5
3
100
AcDbSymbolTable
 70
     1
  0
STYLE
  5
10
100
AcDbSymbolTableRecord
100
AcDbTextStyleTableRecord
  2
STANDARD
 70
     0
 40
0.0
 41
1.0
 50
0.0
 71
     0
 42
0.2
  3
txt
  4
bigfont.shx
  0
STYLE
  5
26
100
AcDbSymbolTableRecord
100
AcDbTextStyleTableRecord
  2
TATEGAKI
 70
    68
 40
0.0
 41
1.0
 50
0.0
 71
     0
 42
1.0
  3
txt
  4
bigfont.shx
  0
ENDTAB
  0
TABLE
  2
LAYER
 70
   10
  0
LAYER
  2
_0-0_計極細
 70
   64
 62
    7
  6
CONTINUOUS
  0
LAYER
  2
_0-1_計細線
 70
   64
 62
    7
  6
CONTINUOUS
  0
LAYER
  2
_0-5_寸法線
 70
   64
 62
    7
  6
CONTINUOUS
  0
LAYER
  2
_0-7_枠細線
 70
   64
 62
    7
  6
CONTINUOUS
  0
LAYER
  2
_0-8_枠中線
 70
   64
 62
    7
  6
CONTINUOUS
  0
LAYER
  2
_0-9_枠極太
 70
   64
 62
    7
  6
CONTINUOUS
  0
LAYER
  2
_0-a_極細3
 70
   64
 62
    7
  6
CONTINUOUS
  0
LAYER
  2
_0-b_細線3
 70
   64
 62
    7
  6
CONTINUOUS
  0
LAYER
  2
_0-d_寸法3
 70
   64
 62
    7
  6
CONTINUOUS
  0
LAYER
  2
ADD_LINE
 70
   64
 62
    7
  6
CONTINUOUS
  0
ENDTAB
  0
ENDSEC
  0
SECTION
  2
BLOCKS
  0
ENDSEC
  0
SECTION
  2
ENTITIES
  0
LINE
  8
ADD_LINE
  6
DOT
 62
    7
 10
944.58010550089307
 20
684.86665508896044
 11
944.58010550089307
 21
649.86665508896056
  0
LINE
  8
ADD_LINE
  6
DOT
 62
    7
 10
1359.180105500893
 20
684.86665508896044
 11
1359.180105500893
 21
649.86665508896056
  0
LINE
  8
_0-7_枠細線
  6
CONTINUOUS
 62
    5
 10
1425
 20
907.5
 11
890
 21
907.5
  0
LINE
  8
_0-7_枠細線
  6
CONTINUOUS
 62
    5
 10
1425
 20
942.5
 11
890
 21
942.5
  0
TEXT
  8
_0-7_枠細線
 62
    5
 10
895
 20
945
 40
12.5
 41
1
 50
0
  1
記号
  0
TEXT
  8
_0-7_枠細線
 62
    5
 10
996.875
 20
945
 40
12.5
 41
1
 50
0
  1
訂　 正　 記　 事
  0
TEXT
  8
_0-7_枠細線
 62
    5
 10
1181.25
 20
945
 40
12.5
 41
1
 50
0
  1
訂 正 年 月 日
  0
TEXT
  8
_0-7_枠細線
 62
    5
 10
1306.25
 20
945
 40
12.5
 41
1
 50
0
  1
備　　　　　考
  0
LINE
  8
_0-7_枠細線
  6
CONTINUOUS
 62
    5
 10
1185
 20
180
 11
1185
 21
100
  0
TEXT
  8
_0-7_枠細線
 62
    5
 10
937.5
 20
97.5
 40
17.5
 41
1
 50
0
  1
備考
  7
TATEGAKI
  0
TEXT
  8
_0-7_枠細線
 62
    5
 10
937.5
 20
137.5
 40
17.5
 41
1
 50
0
  1
品番
  7
TATEGAKI
  0
TEXT
  8
_0-7_枠細線
 62
    5
 10
937.5
 20
177.5
 40
17.5
 41
1
 50
0
  1
品名
  7
TATEGAKI
  0
LINE
  8
_0-7_枠細線
  6
CONTINUOUS
 62
    5
 10
1185
 20
140
 11
925
 21
140
  0
LINE
  8
_0-7_枠細線
  6
CONTINUOUS
 62
    5
 10
950
 20
180
 11
950
 21
60
  0
LINE
  8
_0-8_枠中線
  6
CONTINUOUS
 62
    5
 10
1425
 20
180
 11
925
 21
180
  0
LINE
  8
_0-8_枠中線
  6
CONTINUOUS
 62
    5
 10
925
 20
180
 11
925
 21
60
  0
LINE
  8
_0-7_枠細線
  6
CONTINUOUS
 62
    5
 10
1245
 20
180
 11
1245
 21
60
  0
TEXT
  8
_0-7_枠細線
 62
    5
 10
1192.5
 20
160
 40
15
 41
1
 50
0
  1
縮　尺
  0
LINE
  8
_0-7_枠細線
  6
CONTINUOUS
 62
    5
 10
1185
 20
155
 11
1245
 21
155
  0
LINE
  8
_0-7_枠細線
  6
CONTINUOUS
 62
    5
 10
1245
 20
100
 11
925
 21
100
  0
LINE
  8
_0-7_枠細線
  6
CONTINUOUS
 62
    5
 10
1425
 20
90
 11
1245
 21
90
  0
LINE
  8
_0-7_枠細線
  6
CONTINUOUS
 62
    5
 10
1245
 20
120
 11
1425
 21
120
  0
LINE
  8
_0-7_枠細線
  6
CONTINUOUS
 62
    5
 10
1425
 20
140
 11
1245
 21
140
  0
TEXT
  8
_0-7_枠細線
 62
    5
 10
1255
 20
147.5
 40
25
 41
0.8
 50
0
  1
株式会社シマブン
  0
TEXT
  8
_0-7_枠細線
 62
    5
 10
1252.5
 20
60
 40
15
 41
1
 50
0
  1
年月日
  0
TEXT
  8
_0-7_枠細線
 62
    5
 10
1252.5
 20
75
 40
15
 41
1
 50
0
  1
作　成
  0
TEXT
  8
_0-7_枠細線
 62
    5
 10
1256.25
 20
122.5
 40
15
 41
1
 50
0
  1
承 認
  0
LINE
  8
_0-7_枠細線
  6
CONTINUOUS
 62
    5
 10
1305
 20
140
 11
1305
 21
60
  0
TEXT
  8
_0-7_枠細線
 62
    5
 10
1316.25
 20
122.5
 40
15
 41
1
 50
0
  1
検 図
  0
LINE
  8
_0-7_枠細線
  6
CONTINUOUS
 62
    5
 10
1365
 20
140
 11
1365
 21
90
  0
TEXT
  8
_0-7_枠細線
 62
    5
 10
1375
 20
95
 40
20
 41
1
 50
0
  1
藤戸
  0
TEXT
  8
_0-7_枠細線
 62
    5
 10
1376.25
 20
122.5
 40
15
 41
1
 50
0
  1
設 計
  0
TEXT
  8
_0-7_枠細線
 62
    5
 10
1255
 20
95
 40
20
 41
1
 50
0
  1
隠塚
  0
TEXT
  8
_0-7_枠細線
 62
    5
 10
1315
 20
95
 40
20
 41
1
 50
0
  1
渋田
  0
TEXT
  8
_0-7_枠細線
 62
    5
 10
1193.9999999999998
 20
117.5
 40
20
 41
0.7000000000000001
 50
0
  1
１：５
  0
LINE
  8
_0-1_計細線
  6
CONTINUOUS
 62
    3
 10
643.86751290833899
 20
393.86665508896112
 11
646.86751290833899
 21
393.86665508896112
  0
LINE
  8
_0-1_計細線
  6
CONTINUOUS
 62
    3
 10
646.86751290833899
 20
393.86665508896112
 11
646.86751290833899
 21
787.86665508896078
  0
LINE
  8
_0-1_計細線
  6
CONTINUOUS
 62
    3
 10
646.86751290833899
 20
787.86665508896078
 11
643.86751290833899
 21
787.86665508896078
  0
LINE
  8
_0-1_計細線
  6
CONTINUOUS
 62
    3
 10
643.86751290833899
 20
787.86665508896078
 11
643.86751290833899
 21
393.86665508896112
  0
LINE
  8
_0-1_計細線
  6
CONTINUOUS
 62
    3
 10
638.36751290833899
 20
393.86665508896112
 11
635.36751290833899
 21
393.86665508896112
  0
LINE
  8
_0-1_計細線
  6
CONTINUOUS
 62
    3
 10
635.36751290833899
 20
393.86665508896112
 11
635.36751290833899
 21
787.86665508896078
  0
LINE
  8
_0-1_計細線
  6
CONTINUOUS
 62
    3
 10
635.36751290833899
 20
787.86665508896078
 11
638.36751290833899
 21
787.86665508896078
  0
LINE
  8
_0-1_計細線
  6
CONTINUOUS
 62
    3
 10
638.36751290833899
 20
787.86665508896078
 11
638.36751290833899
 21
393.86665508896112
  0
LINE
  8
_0-1_計細線
  6
CONTINUOUS
 62
    3
 10
628.36751290833899
 20
393.86665508896112
 11
625.36751290833899
 21
393.86665508896112
  0
LINE
  8
_0-1_計細線
  6
CONTINUOUS
 62
    3
 10
625.36751290833899
 20
393.86665508896112
 11
625.36751290833899
 21
787.86665508896078
  0
LINE
  8
_0-1_計細線
  6
CONTINUOUS
 62
    3
 10
625.36751290833899
 20
787.86665508896078
 11
628.36751290833899
 21
787.86665508896078
  0
LINE
  8
_0-1_計細線
  6
CONTINUOUS
 62
    3
 10
628.36751290833899
 20
787.86665508896078
 11
628.36751290833899
 21
393.86665508896112
  0
LINE
  8
_0-1_計細線
  6
CONTINUOUS
 62
    3
 10
618.36751290833899
 20
393.86665508896112
 11
615.36751290833899
 21
393.86665508896112
  0
LINE
  8
_0-1_計細線
  6
CONTINUOUS
 62
    3
 10
615.36751290833899
 20
393.86665508896112
 11
615.36751290833899
 21
787.86665508896078
  0
LINE
  8
_0-1_計細線
  6
CONTINUOUS
 62
    3
 10
615.36751290833899
 20
787.86665508896078
 11
618.36751290833899
 21
787.86665508896078
  0
LINE
  8
_0-1_計細線
  6
CONTINUOUS
 62
    3
 10
618.36751290833899
 20
787.86665508896078
 11
618.36751290833899
 21
393.86665508896112
  0
LINE
  8
_0-1_計細線
  6
CONTINUOUS
 62
    3
 10
608.36751290833899
 20
393.86665508896112
 11
605.36751290833899
 21
393.86665508896112
  0
LINE
  8
_0-1_計細線
  6
CONTINUOUS
 62
    3
 10
605.36751290833899
 20
393.86665508896112
 11
605.36751290833899
 21
787.86665508896078
  0
LINE
  8
_0-1_計細線
  6
CONTINUOUS
 62
    3
 10
605.36751290833899
 20
787.86665508896078
 11
608.36751290833899
 21
787.86665508896078
  0
LINE
  8
_0-1_計細線
  6
CONTINUOUS
 62
    3
 10
608.36751290833899
 20
787.86665508896078
 11
608.36751290833899
 21
393.86665508896112
  0
LINE
  8
_0-1_計細線
  6
CONTINUOUS
 62
    3
 10
598.36751290833899
 20
393.86665508896112
 11
595.36751290833899
 21
393.86665508896112
  0
LINE
  8
_0-1_計細線
  6
CONTINUOUS
 62
    3
 10
595.36751290833899
 20
393.86665508896112
 11
595.36751290833899
 21
787.86665508896078
  0
LINE
  8
_0-1_計細線
  6
CONTINUOUS
 62
    3
 10
595.36751290833899
 20
787.86665508896078
 11
598.36751290833899
 21
787.86665508896078
  0
LINE
  8
_0-1_計細線
  6
CONTINUOUS
 62
    3
 10
598.36751290833899
 20
787.86665508896078
 11
598.36751290833899
 21
393.86665508896112
  0
LINE
  8
_0-1_計細線
  6
CONTINUOUS
 62
    3
 10
588.36751290833899
 20
393.86665508896112
 11
585.36751290833899
 21
393.86665508896112
  0
LINE
  8
_0-1_計細線
  6
CONTINUOUS
 62
    3
 10
585.36751290833899
 20
393.86665508896112
 11
585.36751290833899
 21
787.86665508896078
  0
LINE
  8
_0-1_計細線
  6
CONTINUOUS
 62
    3
 10
585.36751290833899
 20
787.86665508896078
 11
588.36751290833899
 21
787.86665508896078
  0
LINE
  8
_0-1_計細線
  6
CONTINUOUS
 62
    3
 10
588.36751290833899
 20
787.86665508896078
 11
588.36751290833899
 21
393.86665508896112
  0
LINE
  8
_0-1_計細線
  6
CONTINUOUS
 62
    3
 10
578.36751290833899
 20
393.86665508896112
 11
575.36751290833899
 21
393.86665508896112
  0
LINE
  8
_0-1_計細線
  6
CONTINUOUS
 62
    3
 10
575.36751290833899
 20
393.86665508896112
 11
575.36751290833899
 21
787.86665508896078
  0
LINE
  8
_0-1_計細線
  6
CONTINUOUS
 62
    3
 10
575.36751290833899
 20
787.86665508896078
 11
578.36751290833899
 21
787.86665508896078
  0
LINE
  8
_0-1_計細線
  6
CONTINUOUS
 62
    3
 10
578.36751290833899
 20
787.86665508896078
 11
578.36751290833899
 21
393.86665508896112
  0
LINE
  8
_0-1_計細線
  6
CONTINUOUS
 62
    3
 10
568.36751290833899
 20
393.86665508896112
 11
565.36751290833899
 21
393.86665508896112
  0
LINE
  8
_0-1_計細線
  6
CONTINUOUS
 62
    3
 10
565.36751290833899
 20
393.86665508896112
 11
565.36751290833899
 21
787.86665508896078
  0
LINE
  8
_0-1_計細線
  6
CONTINUOUS
 62
    3
 10
565.36751290833899
 20
787.86665508896078
 11
568.36751290833899
 21
787.86665508896078
  0
LINE
  8
_0-1_計細線
  6
CONTINUOUS
 62
    3
 10
568.36751290833899
 20
787.86665508896078
 11
568.36751290833899
 21
393.86665508896112
  0
LINE
  8
_0-1_計細線
  6
CONTINUOUS
 62
    3
 10
558.36751290833899
 20
393.86665508896112
 11
555.36751290833899
 21
393.86665508896112
  0
LINE
  8
_0-1_計細線
  6
CONTINUOUS
 62
    3
 10
555.36751290833899
 20
393.86665508896112
 11
555.36751290833899
 21
787.86665508896078
  0
LINE
  8
_0-1_計細線
  6
CONTINUOUS
 62
    3
 10
555.36751290833899
 20
787.86665508896078
 11
558.36751290833899
 21
787.86665508896078
  0
LINE
  8
_0-1_計細線
  6
CONTINUOUS
 62
    3
 10
558.36751290833899
 20
787.86665508896078
 11
558.36751290833899
 21
393.86665508896112
  0
LINE
  8
_0-1_計細線
  6
CONTINUOUS
 62
    3
 10
548.36751290833899
 20
393.86665508896112
 11
545.36751290833899
 21
393.86665508896112
  0
LINE
  8
_0-1_計細線
  6
CONTINUOUS
 62
    3
 10
545.36751290833899
 20
393.86665508896112
 11
545.36751290833899
 21
787.86665508896078
  0
LINE
  8
_0-1_計細線
  6
CONTINUOUS
 62
    3
 10
545.36751290833899
 20
787.86665508896078
 11
548.36751290833899
 21
787.86665508896078
  0
LINE
  8
_0-1_計細線
  6
CONTINUOUS
 62
    3
 10
548.36751290833899
 20
787.86665508896078
 11
548.36751290833899
 21
393.86665508896112
  0
LINE
  8
_0-1_計細線
  6
CONTINUOUS
 62
    3
 10
538.36751290833899
 20
393.86665508896112
 11
535.36751290833899
 21
393.86665508896112
  0
LINE
  8
_0-1_計細線
  6
CONTINUOUS
 62
    3
 10
535.36751290833899
 20
393.86665508896112
 11
535.36751290833899
 21
787.86665508896078
  0
LINE
  8
_0-1_計細線
  6
CONTINUOUS
 62
    3
 10
535.36751290833899
 20
787.86665508896078
 11
538.36751290833899
 21
787.86665508896078
  0
LINE
  8
_0-1_計細線
  6
CONTINUOUS
 62
    3
 10
538.36751290833899
 20
787.86665508896078
 11
538.36751290833899
 21
393.86665508896112
  0
LINE
  8
_0-1_計細線
  6
CONTINUOUS
 62
    3
 10
528.36751290833899
 20
393.86665508896112
 11
525.36751290833899
 21
393.86665508896112
  0
LINE
  8
_0-1_計細線
  6
CONTINUOUS
 62
    3
 10
525.36751290833899
 20
393.86665508896112
 11
525.36751290833899
 21
787.86665508896078
  0
LINE
  8
_0-1_計細線
  6
CONTINUOUS
 62
    3
 10
525.36751290833899
 20
787.86665508896078
 11
528.36751290833899
 21
787.86665508896078
  0
LINE
  8
_0-1_計細線
  6
CONTINUOUS
 62
    3
 10
528.36751290833899
 20
787.86665508896078
 11
528.36751290833899
 21
393.86665508896112
  0
LINE
  8
_0-1_計細線
  6
CONTINUOUS
 62
    3
 10
518.36751290833899
 20
393.86665508896112
 11
515.36751290833899
 21
393.86665508896112
  0
LINE
  8
_0-1_計細線
  6
CONTINUOUS
 62
    3
 10
515.36751290833899
 20
393.86665508896112
 11
515.36751290833899
 21
787.86665508896078
  0
LINE
  8
_0-1_計細線
  6
CONTINUOUS
 62
    3
 10
515.36751290833899
 20
787.86665508896078
 11
518.36751290833899
 21
787.86665508896078
  0
LINE
  8
_0-1_計細線
  6
CONTINUOUS
 62
    3
 10
518.36751290833899
 20
787.86665508896078
 11
518.36751290833899
 21
393.86665508896112
  0
LINE
  8
_0-1_計細線
  6
CONTINUOUS
 62
    3
 10
508.36751290833899
 20
393.86665508896112
 11
505.36751290833905
 21
393.86665508896112
  0
LINE
  8
_0-1_計細線
  6
CONTINUOUS
 62
    3
 10
505.36751290833905
 20
393.86665508896112
 11
505.36751290833905
 21
787.86665508896078
  0
LINE
  8
_0-1_計細線
  6
CONTINUOUS
 62
    3
 10
505.36751290833905
 20
787.86665508896078
 11
508.36751290833899
 21
787.86665508896078
  0
LINE
  8
_0-1_計細線
  6
CONTINUOUS
 62
    3
 10
508.36751290833899
 20
787.86665508896078
 11
508.36751290833899
 21
393.86665508896112
  0
LINE
  8
_0-1_計細線
  6
CONTINUOUS
 62
    3
 10
498.36751290833899
 20
393.86665508896112
 11
495.36751290833905
 21
393.86665508896112
  0
LINE
  8
_0-1_計細線
  6
CONTINUOUS
 62
    3
 10
495.36751290833905
 20
393.86665508896112
 11
495.36751290833905
 21
787.86665508896078
  0
LINE
  8
_0-1_計細線
  6
CONTINUOUS
 62
    3
 10
495.36751290833905
 20
787.86665508896078
 11
498.36751290833899
 21
787.86665508896078
  0
LINE
  8
_0-1_計細線
  6
CONTINUOUS
 62
    3
 10
498.36751290833899
 20
787.86665508896078
 11
498.36751290833899
 21
393.86665508896112
  0
LINE
  8
_0-1_計細線
  6
CONTINUOUS
 62
    3
 10
488.36751290833899
 20
393.86665508896112
 11
485.36751290833905
 21
393.86665508896112
  0
LINE
  8
_0-1_計細線
  6
CONTINUOUS
 62
    3
 10
485.36751290833905
 20
393.86665508896112
 11
485.36751290833905
 21
787.86665508896078
  0
LINE
  8
_0-1_計細線
  6
CONTINUOUS
 62
    3
 10
485.36751290833905
 20
787.86665508896078
 11
488.36751290833899
 21
787.86665508896078
  0
LINE
  8
_0-1_計細線
  6
CONTINUOUS
 62
    3
 10
488.36751290833899
 20
787.86665508896078
 11
488.36751290833899
 21
393.86665508896112
  0
LINE
  8
_0-1_計細線
  6
CONTINUOUS
 62
    3
 10
478.36751290833899
 20
393.86665508896112
 11
475.36751290833905
 21
393.86665508896112
  0
LINE
  8
_0-1_計細線
  6
CONTINUOUS
 62
    3
 10
475.36751290833905
 20
393.86665508896112
 11
475.36751290833905
 21
787.86665508896078
  0
LINE
  8
_0-1_計細線
  6
CONTINUOUS
 62
    3
 10
475.36751290833905
 20
787.86665508896078
 11
478.36751290833899
 21
787.86665508896078
  0
LINE
  8
_0-1_計細線
  6
CONTINUOUS
 62
    3
 10
478.36751290833899
 20
787.86665508896078
 11
478.36751290833899
 21
393.86665508896112
  0
LINE
  8
_0-1_計細線
  6
CONTINUOUS
 62
    3
 10
468.36751290833899
 20
393.86665508896112
 11
465.36751290833905
 21
393.86665508896112
  0
LINE
  8
_0-1_計細線
  6
CONTINUOUS
 62
    3
 10
465.36751290833905
 20
393.86665508896112
 11
465.36751290833905
 21
787.86665508896078
  0
LINE
  8
_0-1_計細線
  6
CONTINUOUS
 62
    3
 10
465.36751290833905
 20
787.86665508896078
 11
468.36751290833899
 21
787.86665508896078
  0
LINE
  8
_0-1_計細線
  6
CONTINUOUS
 62
    3
 10
468.36751290833899
 20
787.86665508896078
 11
468.36751290833899
 21
393.86665508896112
  0
LINE
  8
_0-1_計細線
  6
CONTINUOUS
 62
    3
 10
458.36751290833899
 20
393.86665508896112
 11
455.36751290833905
 21
393.86665508896112
  0
LINE
  8
_0-1_計細線
  6
CONTINUOUS
 62
    3
 10
455.36751290833905
 20
393.86665508896112
 11
455.36751290833905
 21
787.86665508896078
  0
LINE
  8
_0-1_計細線
  6
CONTINUOUS
 62
    3
 10
455.36751290833905
 20
787.86665508896078
 11
458.36751290833899
 21
787.86665508896078
  0
LINE
  8
_0-1_計細線
  6
CONTINUOUS
 62
    3
 10
458.36751290833899
 20
787.86665508896078
 11
458.36751290833899
 21
393.86665508896112
  0
LINE
  8
_0-1_計細線
  6
CONTINUOUS
 62
    3
 10
448.36751290833899
 20
393.86665508896112
 11
445.36751290833905
 21
393.86665508896112
  0
LINE
  8
_0-1_計細線
  6
CONTINUOUS
 62
    3
 10
445.36751290833905
 20
393.86665508896112
 11
445.36751290833905
 21
787.86665508896078
  0
LINE
  8
_0-1_計細線
  6
CONTINUOUS
 62
    3
 10
445.36751290833905
 20
787.86665508896078
 11
448.36751290833899
 21
787.86665508896078
  0
LINE
  8
_0-1_計細線
  6
CONTINUOUS
 62
    3
 10
448.36751290833899
 20
787.86665508896078
 11
448.36751290833899
 21
393.86665508896112
  0
LINE
  8
_0-1_計細線
  6
CONTINUOUS
 62
    3
 10
438.36751290833899
 20
393.86665508896112
 11
435.36751290833905
 21
393.86665508896112
  0
LINE
  8
_0-1_計細線
  6
CONTINUOUS
 62
    3
 10
435.36751290833905
 20
393.86665508896112
 11
435.36751290833905
 21
787.86665508896078
  0
LINE
  8
_0-1_計細線
  6
CONTINUOUS
 62
    3
 10
435.36751290833905
 20
787.86665508896078
 11
438.36751290833899
 21
787.86665508896078
  0
LINE
  8
_0-1_計細線
  6
CONTINUOUS
 62
    3
 10
438.36751290833899
 20
787.86665508896078
 11
438.36751290833899
 21
393.86665508896112
  0
LINE
  8
_0-1_計細線
  6
CONTINUOUS
 62
    3
 10
428.36751290833899
 20
393.86665508896112
 11
425.36751290833905
 21
393.86665508896112
  0
LINE
  8
_0-1_計細線
  6
CONTINUOUS
 62
    3
 10
425.36751290833905
 20
393.86665508896112
 11
425.36751290833905
 21
787.86665508896078
  0
LINE
  8
_0-1_計細線
  6
CONTINUOUS
 62
    3
 10
425.36751290833905
 20
787.86665508896078
 11
428.36751290833899
 21
787.86665508896078
  0
LINE
  8
_0-1_計細線
  6
CONTINUOUS
 62
    3
 10
428.36751290833899
 20
787.86665508896078
 11
428.36751290833899
 21
393.86665508896112
  0
LINE
  8
_0-1_計細線
  6
CONTINUOUS
 62
    3
 10
418.36751290833899
 20
393.86665508896112
 11
415.36751290833905
 21
393.86665508896112
  0
LINE
  8
_0-1_計細線
  6
CONTINUOUS
 62
    3
 10
415.36751290833905
 20
393.86665508896112
 11
415.36751290833905
 21
787.86665508896078
  0
LINE
  8
_0-1_計細線
  6
CONTINUOUS
 62
    3
 10
415.36751290833905
 20
787.86665508896078
 11
418.36751290833899
 21
787.86665508896078
  0
LINE
  8
_0-1_計細線
  6
CONTINUOUS
 62
    3
 10
418.36751290833899
 20
787.86665508896078
 11
418.36751290833899
 21
393.86665508896112
  0
LINE
  8
_0-1_計細線
  6
CONTINUOUS
 62
    3
 10
408.36751290833899
 20
393.86665508896112
 11
405.36751290833905
 21
393.86665508896112
  0
LINE
  8
_0-1_計細線
  6
CONTINUOUS
 62
    3
 10
405.36751290833905
 20
393.86665508896112
 11
405.36751290833905
 21
787.86665508896078
  0
LINE
  8
_0-1_計細線
  6
CONTINUOUS
 62
    3
 10
405.36751290833905
 20
787.86665508896078
 11
408.36751290833899
 21
787.86665508896078
  0
LINE
  8
_0-1_計細線
  6
CONTINUOUS
 62
    3
 10
408.36751290833899
 20
787.86665508896078
 11
408.36751290833899
 21
393.86665508896112
  0
LINE
  8
_0-1_計細線
  6
CONTINUOUS
 62
    3
 10
398.36751290833899
 20
393.86665508896112
 11
395.36751290833905
 21
393.86665508896112
  0
LINE
  8
_0-1_計細線
  6
CONTINUOUS
 62
    3
 10
395.36751290833905
 20
393.86665508896112
 11
395.36751290833905
 21
787.86665508896078
  0
LINE
  8
_0-1_計細線
  6
CONTINUOUS
 62
    3
 10
395.36751290833905
 20
787.86665508896078
 11
398.36751290833899
 21
787.86665508896078
  0
LINE
  8
_0-1_計細線
  6
CONTINUOUS
 62
    3
 10
398.36751290833899
 20
787.86665508896078
 11
398.36751290833899
 21
393.86665508896112
  0
LINE
  8
_0-1_計細線
  6
CONTINUOUS
 62
    3
 10
388.36751290833899
 20
393.86665508896112
 11
385.36751290833905
 21
393.86665508896112
  0
LINE
  8
_0-1_計細線
  6
CONTINUOUS
 62
    3
 10
385.36751290833905
 20
393.86665508896112
 11
385.36751290833905
 21
787.86665508896078
  0
LINE
  8
_0-1_計細線
  6
CONTINUOUS
 62
    3
 10
385.36751290833905
 20
787.86665508896078
 11
388.36751290833899
 21
787.86665508896078
  0
LINE
  8
_0-1_計細線
  6
CONTINUOUS
 62
    3
 10
388.36751290833899
 20
787.86665508896078
 11
388.36751290833899
 21
393.86665508896112
  0
LINE
  8
_0-1_計細線
  6
CONTINUOUS
 62
    3
 10
378.36751290833899
 20
393.86665508896112
 11
375.36751290833899
 21
393.86665508896112
  0
LINE
  8
_0-1_計細線
  6
CONTINUOUS
 62
    3
 10
375.36751290833899
 20
393.86665508896112
 11
375.36751290833899
 21
787.86665508896078
  0
LINE
  8
_0-1_計細線
  6
CONTINUOUS
 62
    3
 10
375.36751290833899
 20
787.86665508896078
 11
378.36751290833899
 21
787.86665508896078
  0
LINE
  8
_0-1_計細線
  6
CONTINUOUS
 62
    3
 10
378.36751290833899
 20
787.86665508896078
 11
378.36751290833899
 21
393.86665508896112
  0
LINE
  8
_0-1_計細線
  6
CONTINUOUS
 62
    3
 10
368.36751290833899
 20
393.86665508896112
 11
365.36751290833899
 21
393.86665508896112
  0
LINE
  8
_0-1_計細線
  6
CONTINUOUS
 62
    3
 10
365.36751290833899
 20
393.86665508896112
 11
365.36751290833899
 21
787.86665508896078
  0
LINE
  8
_0-1_計細線
  6
CONTINUOUS
 62
    3
 10
365.36751290833899
 20
787.86665508896078
 11
368.36751290833899
 21
787.86665508896078
  0
LINE
  8
_0-1_計細線
  6
CONTINUOUS
 62
    3
 10
368.36751290833899
 20
787.86665508896078
 11
368.36751290833899
 21
393.86665508896112
  0
LINE
  8
_0-1_計細線
  6
CONTINUOUS
 62
    3
 10
358.36751290833899
 20
393.86665508896112
 11
355.36751290833899
 21
393.86665508896112
  0
LINE
  8
_0-1_計細線
  6
CONTINUOUS
 62
    3
 10
355.36751290833899
 20
393.86665508896112
 11
355.36751290833899
 21
787.86665508896078
  0
LINE
  8
_0-1_計細線
  6
CONTINUOUS
 62
    3
 10
355.36751290833899
 20
787.86665508896078
 11
358.36751290833899
 21
787.86665508896078
  0
LINE
  8
_0-1_計細線
  6
CONTINUOUS
 62
    3
 10
358.36751290833899
 20
787.86665508896078
 11
358.36751290833899
 21
393.86665508896112
  0
LINE
  8
_0-1_計細線
  6
CONTINUOUS
 62
    3
 10
348.36751290833899
 20
393.86665508896112
 11
345.36751290833899
 21
393.86665508896112
  0
LINE
  8
_0-1_計細線
  6
CONTINUOUS
 62
    3
 10
345.36751290833899
 20
393.86665508896112
 11
345.36751290833899
 21
787.86665508896078
  0
LINE
  8
_0-1_計細線
  6
CONTINUOUS
 62
    3
 10
345.36751290833899
 20
787.86665508896078
 11
348.36751290833899
 21
787.86665508896078
  0
LINE
  8
_0-1_計細線
  6
CONTINUOUS
 62
    3
 10
348.36751290833899
 20
787.86665508896078
 11
348.36751290833899
 21
393.86665508896112
  0
LINE
  8
_0-1_計細線
  6
CONTINUOUS
 62
    3
 10
338.36751290833899
 20
393.86665508896112
 11
335.36751290833899
 21
393.86665508896112
  0
LINE
  8
_0-1_計細線
  6
CONTINUOUS
 62
    3
 10
335.36751290833899
 20
393.86665508896112
 11
335.36751290833899
 21
787.86665508896078
  0
LINE
  8
_0-1_計細線
  6
CONTINUOUS
 62
    3
 10
335.36751290833899
 20
787.86665508896078
 11
338.36751290833899
 21
787.86665508896078
  0
LINE
  8
_0-1_計細線
  6
CONTINUOUS
 62
    3
 10
338.36751290833899
 20
787.86665508896078
 11
338.36751290833899
 21
393.86665508896112
  0
LINE
  8
_0-1_計細線
  6
CONTINUOUS
 62
    3
 10
328.36751290833899
 20
393.86665508896112
 11
325.36751290833899
 21
393.86665508896112
  0
LINE
  8
_0-1_計細線
  6
CONTINUOUS
 62
    3
 10
325.36751290833899
 20
393.86665508896112
 11
325.36751290833899
 21
787.86665508896078
  0
LINE
  8
_0-1_計細線
  6
CONTINUOUS
 62
    3
 10
325.36751290833899
 20
787.86665508896078
 11
328.36751290833899
 21
787.86665508896078
  0
LINE
  8
_0-1_計細線
  6
CONTINUOUS
 62
    3
 10
328.36751290833899
 20
787.86665508896078
 11
328.36751290833899
 21
393.86665508896112
  0
LINE
  8
_0-1_計細線
  6
CONTINUOUS
 62
    3
 10
318.36751290833899
 20
393.86665508896112
 11
315.36751290833905
 21
393.86665508896112
  0
LINE
  8
_0-1_計細線
  6
CONTINUOUS
 62
    3
 10
315.36751290833905
 20
393.86665508896112
 11
315.36751290833905
 21
787.86665508896078
  0
LINE
  8
_0-1_計細線
  6
CONTINUOUS
 62
    3
 10
315.36751290833905
 20
787.86665508896078
 11
318.36751290833899
 21
787.86665508896078
  0
LINE
  8
_0-1_計細線
  6
CONTINUOUS
 62
    3
 10
318.36751290833899
 20
787.86665508896078
 11
318.36751290833899
 21
393.86665508896112
  0
LINE
  8
_0-1_計細線
  6
CONTINUOUS
 62
    3
 10
308.36751290833899
 20
393.86665508896112
 11
305.36751290833905
 21
393.86665508896112
  0
LINE
  8
_0-1_計細線
  6
CONTINUOUS
 62
    3
 10
305.36751290833905
 20
393.86665508896112
 11
305.36751290833905
 21
787.86665508896078
  0
LINE
  8
_0-1_計細線
  6
CONTINUOUS
 62
    3
 10
305.36751290833905
 20
787.86665508896078
 11
308.36751290833899
 21
787.86665508896078
  0
LINE
  8
_0-1_計細線
  6
CONTINUOUS
 62
    3
 10
308.36751290833899
 20
787.86665508896078
 11
308.36751290833899
 21
393.86665508896112
  0
LINE
  8
_0-1_計細線
  6
CONTINUOUS
 62
    3
 10
298.36751290833899
 20
393.86665508896112
 11
295.36751290833905
 21
393.86665508896112
  0
LINE
  8
_0-1_計細線
  6
CONTINUOUS
 62
    3
 10
295.36751290833905
 20
393.86665508896112
 11
295.36751290833905
 21
787.86665508896078
  0
LINE
  8
_0-1_計細線
  6
CONTINUOUS
 62
    3
 10
295.36751290833905
 20
787.86665508896078
 11
298.36751290833899
 21
787.86665508896078
  0
LINE
  8
_0-1_計細線
  6
CONTINUOUS
 62
    3
 10
298.36751290833899
 20
787.86665508896078
 11
298.36751290833899
 21
393.86665508896112
  0
LINE
  8
_0-1_計細線
  6
CONTINUOUS
 62
    3
 10
288.36751290833899
 20
393.86665508896112
 11
285.36751290833905
 21
393.86665508896112
  0
LINE
  8
_0-1_計細線
  6
CONTINUOUS
 62
    3
 10
285.36751290833905
 20
393.86665508896112
 11
285.36751290833905
 21
787.86665508896078
  0
LINE
  8
_0-1_計細線
  6
CONTINUOUS
 62
    3
 10
285.36751290833905
 20
787.86665508896078
 11
288.36751290833899
 21
787.86665508896078
  0
LINE
  8
_0-1_計細線
  6
CONTINUOUS
 62
    3
 10
288.36751290833899
 20
787.86665508896078
 11
288.36751290833899
 21
393.86665508896112
  0
LINE
  8
_0-1_計細線
  6
CONTINUOUS
 62
    3
 10
278.36751290833899
 20
393.86665508896112
 11
275.36751290833905
 21
393.86665508896112
  0
LINE
  8
_0-1_計細線
  6
CONTINUOUS
 62
    3
 10
275.36751290833905
 20
393.86665508896112
 11
275.36751290833905
 21
787.86665508896078
  0
LINE
  8
_0-1_計細線
  6
CONTINUOUS
 62
    3
 10
275.36751290833905
 20
787.86665508896078
 11
278.36751290833899
 21
787.86665508896078
  0
LINE
  8
_0-1_計細線
  6
CONTINUOUS
 62
    3
 10
278.36751290833899
 20
787.86665508896078
 11
278.36751290833899
 21
393.86665508896112
  0
LINE
  8
_0-1_計細線
  6
CONTINUOUS
 62
    3
 10
249.86751290833899
 20
393.86665508896112
 11
246.86751290833897
 21
393.86665508896112
  0
LINE
  8
_0-1_計細線
  6
CONTINUOUS
 62
    3
 10
246.86751290833897
 20
393.86665508896112
 11
246.86751290833897
 21
787.86665508896078
  0
LINE
  8
_0-1_計細線
  6
CONTINUOUS
 62
    3
 10
246.86751290833897
 20
787.86665508896078
 11
249.86751290833899
 21
787.86665508896078
  0
LINE
  8
_0-1_計細線
  6
CONTINUOUS
 62
    3
 10
249.86751290833899
 20
787.86665508896078
 11
249.86751290833899
 21
393.86665508896112
  0
LINE
  8
_0-1_計細線
  6
CONTINUOUS
 62
    3
 10
268.36751290833899
 20
393.86665508896112
 11
265.36751290833905
 21
393.86665508896112
  0
LINE
  8
_0-1_計細線
  6
CONTINUOUS
 62
    3
 10
265.36751290833905
 20
393.86665508896112
 11
265.36751290833905
 21
787.86665508896078
  0
LINE
  8
_0-1_計細線
  6
CONTINUOUS
 62
    3
 10
265.36751290833905
 20
787.86665508896078
 11
268.36751290833899
 21
787.86665508896078
  0
LINE
  8
_0-1_計細線
  6
CONTINUOUS
 62
    3
 10
268.36751290833899
 20
787.86665508896078
 11
268.36751290833899
 21
393.86665508896112
  0
LINE
  8
_0-1_計細線
  6
CONTINUOUS
 62
    3
 10
258.36751290833899
 20
393.86665508896112
 11
255.36751290833905
 21
393.86665508896112
  0
LINE
  8
_0-1_計細線
  6
CONTINUOUS
 62
    3
 10
255.36751290833905
 20
393.86665508896112
 11
255.36751290833905
 21
787.86665508896078
  0
LINE
  8
_0-1_計細線
  6
CONTINUOUS
 62
    3
 10
255.36751290833905
 20
787.86665508896078
 11
258.36751290833899
 21
787.86665508896078
  0
LINE
  8
_0-1_計細線
  6
CONTINUOUS
 62
    3
 10
258.36751290833899
 20
787.86665508896078
 11
258.36751290833899
 21
393.86665508896112
  0
LINE
  8
_0-1_計細線
  6
CONTINUOUS
 62
    3
 10
648.86751290833899
 20
792.86665508896078
 11
244.86751290833899
 21
792.86665508896078
  0
LINE
  8
_0-1_計細線
  6
CONTINUOUS
 62
    3
 10
244.86751290833899
 20
792.86665508896078
 11
244.86751290833899
 21
388.86665508896112
  0
LINE
  8
_0-1_計細線
  6
CONTINUOUS
 62
    3
 10
244.86751290833899
 20
388.86665508896112
 11
648.86751290833899
 21
388.86665508896112
  0
LINE
  8
_0-1_計細線
  6
CONTINUOUS
 62
    3
 10
648.86751290833899
 20
388.86665508896112
 11
648.86751290833899
 21
792.86665508896078
  0
LINE
  8
_0-1_計細線
  6
CONTINUOUS
 62
    3
 10
646.86751290833899
 20
393.86665508896112
 11
246.86751290833897
 21
393.86665508896112
  0
LINE
  8
_0-1_計細線
  6
CONTINUOUS
 62
    3
 10
246.86751290833897
 20
393.86665508896112
 11
246.86751290833897
 21
390.86665508896118
  0
LINE
  8
_0-1_計細線
  6
CONTINUOUS
 62
    3
 10
246.86751290833897
 20
390.86665508896118
 11
646.86751290833899
 21
390.86665508896118
  0
LINE
  8
_0-1_計細線
  6
CONTINUOUS
 62
    3
 10
646.86751290833899
 20
390.86665508896118
 11
646.86751290833899
 21
393.86665508896112
  0
LINE
  8
_0-1_計細線
  6
CONTINUOUS
 62
    3
 10
646.86751290833899
 20
790.86665508896078
 11
246.86751290833897
 21
790.86665508896078
  0
LINE
  8
_0-1_計細線
  6
CONTINUOUS
 62
    3
 10
246.86751290833897
 20
790.86665508896078
 11
246.86751290833897
 21
787.86665508896078
  0
LINE
  8
_0-1_計細線
  6
CONTINUOUS
 62
    3
 10
246.86751290833897
 20
787.86665508896078
 11
646.86751290833899
 21
787.86665508896078
  0
LINE
  8
_0-1_計細線
  6
CONTINUOUS
 62
    3
 10
646.86751290833899
 20
787.86665508896078
 11
646.86751290833899
 21
790.86665508896078
  0
LINE
  8
_0-1_計細線
  6
CONTINUOUS
 62
    3
 10
651.86751290833899
 20
795.86665508896078
 11
241.86751290833897
 21
795.86665508896078
  0
LINE
  8
_0-1_計細線
  6
CONTINUOUS
 62
    3
 10
241.86751290833897
 20
795.86665508896078
 11
241.86751290833897
 21
385.86665508896118
  0
LINE
  8
_0-1_計細線
  6
CONTINUOUS
 62
    3
 10
241.86751290833897
 20
385.86665508896118
 11
651.86751290833899
 21
385.86665508896118
  0
LINE
  8
_0-1_計細線
  6
CONTINUOUS
 62
    3
 10
651.86751290833899
 20
385.86665508896118
 11
651.86751290833899
 21
795.86665508896078
  0
LINE
  8
_0-0_計極細
  6
CONTINUOUS
 62
    2
 10
643.86751290833899
 20
488.36665508896118
 11
638.36751290833899
 21
488.36665508896118
  0
LINE
  8
_0-0_計極細
  6
CONTINUOUS
 62
    2
 10
643.86751290833899
 20
493.36665508896118
 11
638.36751290833899
 21
493.36665508896118
  0
LINE
  8
_0-0_計極細
  6
CONTINUOUS
 62
    2
 10
643.86751290833899
 20
588.36665508896067
 11
638.36751290833899
 21
588.36665508896067
  0
LINE
  8
_0-0_計極細
  6
CONTINUOUS
 62
    2
 10
643.86751290833899
 20
593.36665508896067
 11
638.36751290833899
 21
593.36665508896067
  0
LINE
  8
_0-0_計極細
  6
CONTINUOUS
 62
    2
 10
643.86751290833899
 20
693.36665508896078
 11
638.36751290833899
 21
693.36665508896078
  0
LINE
  8
_0-0_計極細
  6
CONTINUOUS
 62
    2
 10
643.86751290833899
 20
688.36665508896078
 11
638.36751290833899
 21
688.36665508896078
  0
LINE
  8
_0-0_計極細
  6
CONTINUOUS
 62
    2
 10
628.36751290833899
 20
488.36665508896118
 11
635.36751290833899
 21
488.36665508896118
  0
LINE
  8
_0-0_計極細
  6
CONTINUOUS
 62
    2
 10
628.36751290833899
 20
493.36665508896118
 11
635.36751290833899
 21
493.36665508896118
  0
LINE
  8
_0-0_計極細
  6
CONTINUOUS
 62
    2
 10
628.36751290833899
 20
588.36665508896067
 11
635.36751290833899
 21
588.36665508896067
  0
LINE
  8
_0-0_計極細
  6
CONTINUOUS
 62
    2
 10
628.36751290833899
 20
593.36665508896067
 11
635.36751290833899
 21
593.36665508896067
  0
LINE
  8
_0-0_計極細
  6
CONTINUOUS
 62
    2
 10
628.36751290833899
 20
693.36665508896078
 11
635.36751290833899
 21
693.36665508896078
  0
LINE
  8
_0-0_計極細
  6
CONTINUOUS
 62
    2
 10
628.36751290833899
 20
688.36665508896078
 11
635.36751290833899
 21
688.36665508896078
  0
LINE
  8
_0-0_計極細
  6
CONTINUOUS
 62
    2
 10
618.36751290833899
 20
488.36665508896118
 11
625.36751290833899
 21
488.36665508896118
  0
LINE
  8
_0-0_計極細
  6
CONTINUOUS
 62
    2
 10
618.36751290833899
 20
493.36665508896118
 11
625.36751290833899
 21
493.36665508896118
  0
LINE
  8
_0-0_計極細
  6
CONTINUOUS
 62
    2
 10
618.36751290833899
 20
588.36665508896067
 11
625.36751290833899
 21
588.36665508896067
  0
LINE
  8
_0-0_計極細
  6
CONTINUOUS
 62
    2
 10
618.36751290833899
 20
593.36665508896067
 11
625.36751290833899
 21
593.36665508896067
  0
LINE
  8
_0-0_計極細
  6
CONTINUOUS
 62
    2
 10
618.36751290833899
 20
693.36665508896078
 11
625.36751290833899
 21
693.36665508896078
  0
LINE
  8
_0-0_計極細
  6
CONTINUOUS
 62
    2
 10
618.36751290833899
 20
688.36665508896078
 11
625.36751290833899
 21
688.36665508896078
  0
LINE
  8
_0-0_計極細
  6
CONTINUOUS
 62
    2
 10
608.36751290833899
 20
488.36665508896118
 11
615.36751290833899
 21
488.36665508896118
  0
LINE
  8
_0-0_計極細
  6
CONTINUOUS
 62
    2
 10
608.36751290833899
 20
493.36665508896118
 11
615.36751290833899
 21
493.36665508896118
  0
LINE
  8
_0-0_計極細
  6
CONTINUOUS
 62
    2
 10
608.36751290833899
 20
588.36665508896067
 11
615.36751290833899
 21
588.36665508896067
  0
LINE
  8
_0-0_計極細
  6
CONTINUOUS
 62
    2
 10
608.36751290833899
 20
593.36665508896067
 11
615.36751290833899
 21
593.36665508896067
  0
LINE
  8
_0-0_計極細
  6
CONTINUOUS
 62
    2
 10
608.36751290833899
 20
693.36665508896078
 11
615.36751290833899
 21
693.36665508896078
  0
LINE
  8
_0-0_計極細
  6
CONTINUOUS
 62
    2
 10
608.36751290833899
 20
688.36665508896078
 11
615.36751290833899
 21
688.36665508896078
  0
LINE
  8
_0-0_計極細
  6
CONTINUOUS
 62
    2
 10
598.36751290833899
 20
488.36665508896118
 11
605.36751290833899
 21
488.36665508896118
  0
LINE
  8
_0-0_計極細
  6
CONTINUOUS
 62
    2
 10
598.36751290833899
 20
493.36665508896118
 11
605.36751290833899
 21
493.36665508896118
  0
LINE
  8
_0-0_計極細
  6
CONTINUOUS
 62
    2
 10
598.36751290833899
 20
588.36665508896067
 11
605.36751290833899
 21
588.36665508896067
  0
LINE
  8
_0-0_計極細
  6
CONTINUOUS
 62
    2
 10
598.36751290833899
 20
593.36665508896067
 11
605.36751290833899
 21
593.36665508896067
  0
LINE
  8
_0-0_計極細
  6
CONTINUOUS
 62
    2
 10
598.36751290833899
 20
693.36665508896078
 11
605.36751290833899
 21
693.36665508896078
  0
LINE
  8
_0-0_計極細
  6
CONTINUOUS
 62
    2
 10
598.36751290833899
 20
688.36665508896078
 11
605.36751290833899
 21
688.36665508896078
  0
LINE
  8
_0-0_計極細
  6
CONTINUOUS
 62
    2
 10
588.36751290833899
 20
488.36665508896118
 11
595.36751290833899
 21
488.36665508896118
  0
LINE
  8
_0-0_計極細
  6
CONTINUOUS
 62
    2
 10
588.36751290833899
 20
493.36665508896118
 11
595.36751290833899
 21
493.36665508896118
  0
LINE
  8
_0-0_計極細
  6
CONTINUOUS
 62
    2
 10
588.36751290833899
 20
588.36665508896067
 11
595.36751290833899
 21
588.36665508896067
  0
LINE
  8
_0-0_計極細
  6
CONTINUOUS
 62
    2
 10
588.36751290833899
 20
593.36665508896067
 11
595.36751290833899
 21
593.36665508896067
  0
LINE
  8
_0-0_計極細
  6
CONTINUOUS
 62
    2
 10
588.36751290833899
 20
693.36665508896078
 11
595.36751290833899
 21
693.36665508896078
  0
LINE
  8
_0-0_計極細
  6
CONTINUOUS
 62
    2
 10
588.36751290833899
 20
688.36665508896078
 11
595.36751290833899
 21
688.36665508896078
  0
LINE
  8
_0-0_計極細
  6
CONTINUOUS
 62
    2
 10
578.36751290833899
 20
488.36665508896118
 11
585.36751290833899
 21
488.36665508896118
  0
LINE
  8
_0-0_計極細
  6
CONTINUOUS
 62
    2
 10
578.36751290833899
 20
493.36665508896118
 11
585.36751290833899
 21
493.36665508896118
  0
LINE
  8
_0-0_計極細
  6
CONTINUOUS
 62
    2
 10
578.36751290833899
 20
588.36665508896067
 11
585.36751290833899
 21
588.36665508896067
  0
LINE
  8
_0-0_計極細
  6
CONTINUOUS
 62
    2
 10
578.36751290833899
 20
593.36665508896067
 11
585.36751290833899
 21
593.36665508896067
  0
LINE
  8
_0-0_計極細
  6
CONTINUOUS
 62
    2
 10
578.36751290833899
 20
693.36665508896078
 11
585.36751290833899
 21
693.36665508896078
  0
LINE
  8
_0-0_計極細
  6
CONTINUOUS
 62
    2
 10
578.36751290833899
 20
688.36665508896078
 11
585.36751290833899
 21
688.36665508896078
  0
LINE
  8
_0-0_計極細
  6
CONTINUOUS
 62
    2
 10
568.36751290833899
 20
488.36665508896118
 11
575.36751290833899
 21
488.36665508896118
  0
LINE
  8
_0-0_計極細
  6
CONTINUOUS
 62
    2
 10
568.36751290833899
 20
493.36665508896118
 11
575.36751290833899
 21
493.36665508896118
  0
LINE
  8
_0-0_計極細
  6
CONTINUOUS
 62
    2
 10
568.36751290833899
 20
588.36665508896067
 11
575.36751290833899
 21
588.36665508896067
  0
LINE
  8
_0-0_計極細
  6
CONTINUOUS
 62
    2
 10
568.36751290833899
 20
593.36665508896067
 11
575.36751290833899
 21
593.36665508896067
  0
LINE
  8
_0-0_計極細
  6
CONTINUOUS
 62
    2
 10
568.36751290833899
 20
693.36665508896078
 11
575.36751290833899
 21
693.36665508896078
  0
LINE
  8
_0-0_計極細
  6
CONTINUOUS
 62
    2
 10
568.36751290833899
 20
688.36665508896078
 11
575.36751290833899
 21
688.36665508896078
  0
LINE
  8
_0-0_計極細
  6
CONTINUOUS
 62
    2
 10
558.36751290833899
 20
488.36665508896118
 11
565.36751290833899
 21
488.36665508896118
  0
LINE
  8
_0-0_計極細
  6
CONTINUOUS
 62
    2
 10
558.36751290833899
 20
493.36665508896118
 11
565.36751290833899
 21
493.36665508896118
  0
LINE
  8
_0-0_計極細
  6
CONTINUOUS
 62
    2
 10
558.36751290833899
 20
588.36665508896067
 11
565.36751290833899
 21
588.36665508896067
  0
LINE
  8
_0-0_計極細
  6
CONTINUOUS
 62
    2
 10
558.36751290833899
 20
593.36665508896067
 11
565.36751290833899
 21
593.36665508896067
  0
LINE
  8
_0-0_計極細
  6
CONTINUOUS
 62
    2
 10
558.36751290833899
 20
693.36665508896078
 11
565.36751290833899
 21
693.36665508896078
  0
LINE
  8
_0-0_計極細
  6
CONTINUOUS
 62
    2
 10
558.36751290833899
 20
688.36665508896078
 11
565.36751290833899
 21
688.36665508896078
  0
LINE
  8
_0-0_計極細
  6
CONTINUOUS
 62
    2
 10
548.36751290833899
 20
488.36665508896118
 11
555.36751290833899
 21
488.36665508896118
  0
LINE
  8
_0-0_計極細
  6
CONTINUOUS
 62
    2
 10
548.36751290833899
 20
493.36665508896118
 11
555.36751290833899
 21
493.36665508896118
  0
LINE
  8
_0-0_計極細
  6
CONTINUOUS
 62
    2
 10
548.36751290833899
 20
588.36665508896067
 11
555.36751290833899
 21
588.36665508896067
  0
LINE
  8
_0-0_計極細
  6
CONTINUOUS
 62
    2
 10
548.36751290833899
 20
593.36665508896067
 11
555.36751290833899
 21
593.36665508896067
  0
LINE
  8
_0-0_計極細
  6
CONTINUOUS
 62
    2
 10
548.36751290833899
 20
693.36665508896078
 11
555.36751290833899
 21
693.36665508896078
  0
LINE
  8
_0-0_計極細
  6
CONTINUOUS
 62
    2
 10
548.36751290833899
 20
688.36665508896078
 11
555.36751290833899
 21
688.36665508896078
  0
LINE
  8
_0-0_計極細
  6
CONTINUOUS
 62
    2
 10
538.36751290833899
 20
488.36665508896118
 11
545.36751290833899
 21
488.36665508896118
  0
LINE
  8
_0-0_計極細
  6
CONTINUOUS
 62
    2
 10
538.36751290833899
 20
493.36665508896118
 11
545.36751290833899
 21
493.36665508896118
  0
LINE
  8
_0-0_計極細
  6
CONTINUOUS
 62
    2
 10
538.36751290833899
 20
588.36665508896067
 11
545.36751290833899
 21
588.36665508896067
  0
LINE
  8
_0-0_計極細
  6
CONTINUOUS
 62
    2
 10
538.36751290833899
 20
593.36665508896067
 11
545.36751290833899
 21
593.36665508896067
  0
LINE
  8
_0-0_計極細
  6
CONTINUOUS
 62
    2
 10
538.36751290833899
 20
693.36665508896078
 11
545.36751290833899
 21
693.36665508896078
  0
LINE
  8
_0-0_計極細
  6
CONTINUOUS
 62
    2
 10
538.36751290833899
 20
688.36665508896078
 11
545.36751290833899
 21
688.36665508896078
  0
LINE
  8
_0-0_計極細
  6
CONTINUOUS
 62
    2
 10
528.36751290833899
 20
488.36665508896118
 11
535.36751290833899
 21
488.36665508896118
  0
LINE
  8
_0-0_計極細
  6
CONTINUOUS
 62
    2
 10
528.36751290833899
 20
493.36665508896118
 11
535.36751290833899
 21
493.36665508896118
  0
LINE
  8
_0-0_計極細
  6
CONTINUOUS
 62
    2
 10
528.36751290833899
 20
588.36665508896067
 11
535.36751290833899
 21
588.36665508896067
  0
LINE
  8
_0-0_計極細
  6
CONTINUOUS
 62
    2
 10
528.36751290833899
 20
593.36665508896067
 11
535.36751290833899
 21
593.36665508896067
  0
LINE
  8
_0-0_計極細
  6
CONTINUOUS
 62
    2
 10
528.36751290833899
 20
693.36665508896078
 11
535.36751290833899
 21
693.36665508896078
  0
LINE
  8
_0-0_計極細
  6
CONTINUOUS
 62
    2
 10
528.36751290833899
 20
688.36665508896078
 11
535.36751290833899
 21
688.36665508896078
  0
LINE
  8
_0-0_計極細
  6
CONTINUOUS
 62
    2
 10
518.36751290833899
 20
488.36665508896118
 11
525.36751290833899
 21
488.36665508896118
  0
LINE
  8
_0-0_計極細
  6
CONTINUOUS
 62
    2
 10
518.36751290833899
 20
493.36665508896118
 11
525.36751290833899
 21
493.36665508896118
  0
LINE
  8
_0-0_計極細
  6
CONTINUOUS
 62
    2
 10
518.36751290833899
 20
588.36665508896067
 11
525.36751290833899
 21
588.36665508896067
  0
LINE
  8
_0-0_計極細
  6
CONTINUOUS
 62
    2
 10
518.36751290833899
 20
593.36665508896067
 11
525.36751290833899
 21
593.36665508896067
  0
LINE
  8
_0-0_計極細
  6
CONTINUOUS
 62
    2
 10
518.36751290833899
 20
693.36665508896078
 11
525.36751290833899
 21
693.36665508896078
  0
LINE
  8
_0-0_計極細
  6
CONTINUOUS
 62
    2
 10
518.36751290833899
 20
688.36665508896078
 11
525.36751290833899
 21
688.36665508896078
  0
LINE
  8
_0-0_計極細
  6
CONTINUOUS
 62
    2
 10
508.36751290833899
 20
488.36665508896118
 11
515.36751290833899
 21
488.36665508896118
  0
LINE
  8
_0-0_計極細
  6
CONTINUOUS
 62
    2
 10
508.36751290833899
 20
493.36665508896118
 11
515.36751290833899
 21
493.36665508896118
  0
LINE
  8
_0-0_計極細
  6
CONTINUOUS
 62
    2
 10
508.36751290833899
 20
588.36665508896067
 11
515.36751290833899
 21
588.36665508896067
  0
LINE
  8
_0-0_計極細
  6
CONTINUOUS
 62
    2
 10
508.36751290833899
 20
593.36665508896067
 11
515.36751290833899
 21
593.36665508896067
  0
LINE
  8
_0-0_計極細
  6
CONTINUOUS
 62
    2
 10
508.36751290833899
 20
693.36665508896078
 11
515.36751290833899
 21
693.36665508896078
  0
LINE
  8
_0-0_計極細
  6
CONTINUOUS
 62
    2
 10
508.36751290833899
 20
688.36665508896078
 11
515.36751290833899
 21
688.36665508896078
  0
LINE
  8
_0-0_計極細
  6
CONTINUOUS
 62
    2
 10
498.36751290833899
 20
488.36665508896118
 11
505.36751290833905
 21
488.36665508896118
  0
LINE
  8
_0-0_計極細
  6
CONTINUOUS
 62
    2
 10
498.36751290833899
 20
493.36665508896118
 11
505.36751290833905
 21
493.36665508896118
  0
LINE
  8
_0-0_計極細
  6
CONTINUOUS
 62
    2
 10
498.36751290833899
 20
588.36665508896067
 11
505.36751290833905
 21
588.36665508896067
  0
LINE
  8
_0-0_計極細
  6
CONTINUOUS
 62
    2
 10
498.36751290833899
 20
593.36665508896067
 11
505.36751290833905
 21
593.36665508896067
  0
LINE
  8
_0-0_計極細
  6
CONTINUOUS
 62
    2
 10
498.36751290833899
 20
693.36665508896078
 11
505.36751290833905
 21
693.36665508896078
  0
LINE
  8
_0-0_計極細
  6
CONTINUOUS
 62
    2
 10
498.36751290833899
 20
688.36665508896078
 11
505.36751290833905
 21
688.36665508896078
  0
LINE
  8
_0-0_計極細
  6
CONTINUOUS
 62
    2
 10
488.36751290833899
 20
488.36665508896118
 11
495.36751290833905
 21
488.36665508896118
  0
LINE
  8
_0-0_計極細
  6
CONTINUOUS
 62
    2
 10
488.36751290833899
 20
493.36665508896118
 11
495.36751290833905
 21
493.36665508896118
  0
LINE
  8
_0-0_計極細
  6
CONTINUOUS
 62
    2
 10
488.36751290833899
 20
588.36665508896067
 11
495.36751290833905
 21
588.36665508896067
  0
LINE
  8
_0-0_計極細
  6
CONTINUOUS
 62
    2
 10
488.36751290833899
 20
593.36665508896067
 11
495.36751290833905
 21
593.36665508896067
  0
LINE
  8
_0-0_計極細
  6
CONTINUOUS
 62
    2
 10
488.36751290833899
 20
693.36665508896078
 11
495.36751290833905
 21
693.36665508896078
  0
LINE
  8
_0-0_計極細
  6
CONTINUOUS
 62
    2
 10
488.36751290833899
 20
688.36665508896078
 11
495.36751290833905
 21
688.36665508896078
  0
LINE
  8
_0-0_計極細
  6
CONTINUOUS
 62
    2
 10
478.36751290833899
 20
488.36665508896118
 11
485.36751290833905
 21
488.36665508896118
  0
LINE
  8
_0-0_計極細
  6
CONTINUOUS
 62
    2
 10
478.36751290833899
 20
493.36665508896118
 11
485.36751290833905
 21
493.36665508896118
  0
LINE
  8
_0-0_計極細
  6
CONTINUOUS
 62
    2
 10
478.36751290833899
 20
588.36665508896067
 11
485.36751290833905
 21
588.36665508896067
  0
LINE
  8
_0-0_計極細
  6
CONTINUOUS
 62
    2
 10
478.36751290833899
 20
593.36665508896067
 11
485.36751290833905
 21
593.36665508896067
  0
LINE
  8
_0-0_計極細
  6
CONTINUOUS
 62
    2
 10
478.36751290833899
 20
693.36665508896078
 11
485.36751290833905
 21
693.36665508896078
  0
LINE
  8
_0-0_計極細
  6
CONTINUOUS
 62
    2
 10
478.36751290833899
 20
688.36665508896078
 11
485.36751290833905
 21
688.36665508896078
  0
LINE
  8
_0-0_計極細
  6
CONTINUOUS
 62
    2
 10
468.36751290833899
 20
488.36665508896118
 11
475.36751290833905
 21
488.36665508896118
  0
LINE
  8
_0-0_計極細
  6
CONTINUOUS
 62
    2
 10
468.36751290833899
 20
493.36665508896118
 11
475.36751290833905
 21
493.36665508896118
  0
LINE
  8
_0-0_計極細
  6
CONTINUOUS
 62
    2
 10
468.36751290833899
 20
588.36665508896067
 11
475.36751290833905
 21
588.36665508896067
  0
LINE
  8
_0-0_計極細
  6
CONTINUOUS
 62
    2
 10
468.36751290833899
 20
593.36665508896067
 11
475.36751290833905
 21
593.36665508896067
  0
LINE
  8
_0-0_計極細
  6
CONTINUOUS
 62
    2
 10
468.36751290833899
 20
693.36665508896078
 11
475.36751290833905
 21
693.36665508896078
  0
LINE
  8
_0-0_計極細
  6
CONTINUOUS
 62
    2
 10
468.36751290833899
 20
688.36665508896078
 11
475.36751290833905
 21
688.36665508896078
  0
LINE
  8
_0-0_計極細
  6
CONTINUOUS
 62
    2
 10
458.36751290833899
 20
488.36665508896118
 11
465.36751290833905
 21
488.36665508896118
  0
LINE
  8
_0-0_計極細
  6
CONTINUOUS
 62
    2
 10
458.36751290833899
 20
493.36665508896118
 11
465.36751290833905
 21
493.36665508896118
  0
LINE
  8
_0-0_計極細
  6
CONTINUOUS
 62
    2
 10
458.36751290833899
 20
588.36665508896067
 11
465.36751290833905
 21
588.36665508896067
  0
LINE
  8
_0-0_計極細
  6
CONTINUOUS
 62
    2
 10
458.36751290833899
 20
593.36665508896067
 11
465.36751290833905
 21
593.36665508896067
  0
LINE
  8
_0-0_計極細
  6
CONTINUOUS
 62
    2
 10
458.36751290833899
 20
693.36665508896078
 11
465.36751290833905
 21
693.36665508896078
  0
LINE
  8
_0-0_計極細
  6
CONTINUOUS
 62
    2
 10
458.36751290833899
 20
688.36665508896078
 11
465.36751290833905
 21
688.36665508896078
  0
LINE
  8
_0-0_計極細
  6
CONTINUOUS
 62
    2
 10
448.36751290833899
 20
488.36665508896118
 11
455.36751290833905
 21
488.36665508896118
  0
LINE
  8
_0-0_計極細
  6
CONTINUOUS
 62
    2
 10
448.36751290833899
 20
493.36665508896118
 11
455.36751290833905
 21
493.36665508896118
  0
LINE
  8
_0-0_計極細
  6
CONTINUOUS
 62
    2
 10
448.36751290833899
 20
588.36665508896067
 11
455.36751290833905
 21
588.36665508896067
  0
LINE
  8
_0-0_計極細
  6
CONTINUOUS
 62
    2
 10
448.36751290833899
 20
593.36665508896067
 11
455.36751290833905
 21
593.36665508896067
  0
LINE
  8
_0-0_計極細
  6
CONTINUOUS
 62
    2
 10
448.36751290833899
 20
693.36665508896078
 11
455.36751290833905
 21
693.36665508896078
  0
LINE
  8
_0-0_計極細
  6
CONTINUOUS
 62
    2
 10
448.36751290833899
 20
688.36665508896078
 11
455.36751290833905
 21
688.36665508896078
  0
LINE
  8
_0-0_計極細
  6
CONTINUOUS
 62
    2
 10
438.36751290833899
 20
488.36665508896118
 11
445.36751290833905
 21
488.36665508896118
  0
LINE
  8
_0-0_計極細
  6
CONTINUOUS
 62
    2
 10
438.36751290833899
 20
493.36665508896118
 11
445.36751290833905
 21
493.36665508896118
  0
LINE
  8
_0-0_計極細
  6
CONTINUOUS
 62
    2
 10
438.36751290833899
 20
588.36665508896067
 11
445.36751290833905
 21
588.36665508896067
  0
LINE
  8
_0-0_計極細
  6
CONTINUOUS
 62
    2
 10
438.36751290833899
 20
593.36665508896067
 11
445.36751290833905
 21
593.36665508896067
  0
LINE
  8
_0-0_計極細
  6
CONTINUOUS
 62
    2
 10
438.36751290833899
 20
693.36665508896078
 11
445.36751290833905
 21
693.36665508896078
  0
LINE
  8
_0-0_計極細
  6
CONTINUOUS
 62
    2
 10
438.36751290833899
 20
688.36665508896078
 11
445.36751290833905
 21
688.36665508896078
  0
LINE
  8
_0-0_計極細
  6
CONTINUOUS
 62
    2
 10
428.36751290833899
 20
488.36665508896118
 11
435.36751290833905
 21
488.36665508896118
  0
LINE
  8
_0-0_計極細
  6
CONTINUOUS
 62
    2
 10
428.36751290833899
 20
493.36665508896118
 11
435.36751290833905
 21
493.36665508896118
  0
LINE
  8
_0-0_計極細
  6
CONTINUOUS
 62
    2
 10
428.36751290833899
 20
588.36665508896067
 11
435.36751290833905
 21
588.36665508896067
  0
LINE
  8
_0-0_計極細
  6
CONTINUOUS
 62
    2
 10
428.36751290833899
 20
593.36665508896067
 11
435.36751290833905
 21
593.36665508896067
  0
LINE
  8
_0-0_計極細
  6
CONTINUOUS
 62
    2
 10
428.36751290833899
 20
693.36665508896078
 11
435.36751290833905
 21
693.36665508896078
  0
LINE
  8
_0-0_計極細
  6
CONTINUOUS
 62
    2
 10
428.36751290833899
 20
688.36665508896078
 11
435.36751290833905
 21
688.36665508896078
  0
LINE
  8
_0-0_計極細
  6
CONTINUOUS
 62
    2
 10
418.36751290833899
 20
488.36665508896118
 11
425.36751290833905
 21
488.36665508896118
  0
LINE
  8
_0-0_計極細
  6
CONTINUOUS
 62
    2
 10
418.36751290833899
 20
493.36665508896118
 11
425.36751290833905
 21
493.36665508896118
  0
LINE
  8
_0-0_計極細
  6
CONTINUOUS
 62
    2
 10
418.36751290833899
 20
588.36665508896067
 11
425.36751290833905
 21
588.36665508896067
  0
LINE
  8
_0-0_計極細
  6
CONTINUOUS
 62
    2
 10
418.36751290833899
 20
593.36665508896067
 11
425.36751290833905
 21
593.36665508896067
  0
LINE
  8
_0-0_計極細
  6
CONTINUOUS
 62
    2
 10
418.36751290833899
 20
693.36665508896078
 11
425.36751290833905
 21
693.36665508896078
  0
LINE
  8
_0-0_計極細
  6
CONTINUOUS
 62
    2
 10
418.36751290833899
 20
688.36665508896078
 11
425.36751290833905
 21
688.36665508896078
  0
LINE
  8
_0-0_計極細
  6
CONTINUOUS
 62
    2
 10
408.36751290833899
 20
488.36665508896118
 11
415.36751290833905
 21
488.36665508896118
  0
LINE
  8
_0-0_計極細
  6
CONTINUOUS
 62
    2
 10
408.36751290833899
 20
493.36665508896118
 11
415.36751290833905
 21
493.36665508896118
  0
LINE
  8
_0-0_計極細
  6
CONTINUOUS
 62
    2
 10
408.36751290833899
 20
588.36665508896067
 11
415.36751290833905
 21
588.36665508896067
  0
LINE
  8
_0-0_計極細
  6
CONTINUOUS
 62
    2
 10
408.36751290833899
 20
593.36665508896067
 11
415.36751290833905
 21
593.36665508896067
  0
LINE
  8
_0-0_計極細
  6
CONTINUOUS
 62
    2
 10
408.36751290833899
 20
693.36665508896078
 11
415.36751290833905
 21
693.36665508896078
  0
LINE
  8
_0-0_計極細
  6
CONTINUOUS
 62
    2
 10
408.36751290833899
 20
688.36665508896078
 11
415.36751290833905
 21
688.36665508896078
  0
LINE
  8
_0-0_計極細
  6
CONTINUOUS
 62
    2
 10
398.36751290833899
 20
488.36665508896118
 11
405.36751290833905
 21
488.36665508896118
  0
LINE
  8
_0-0_計極細
  6
CONTINUOUS
 62
    2
 10
398.36751290833899
 20
493.36665508896118
 11
405.36751290833905
 21
493.36665508896118
  0
LINE
  8
_0-0_計極細
  6
CONTINUOUS
 62
    2
 10
398.36751290833899
 20
588.36665508896067
 11
405.36751290833905
 21
588.36665508896067
  0
LINE
  8
_0-0_計極細
  6
CONTINUOUS
 62
    2
 10
398.36751290833899
 20
593.36665508896067
 11
405.36751290833905
 21
593.36665508896067
  0
LINE
  8
_0-0_計極細
  6
CONTINUOUS
 62
    2
 10
398.36751290833899
 20
693.36665508896078
 11
405.36751290833905
 21
693.36665508896078
  0
LINE
  8
_0-0_計極細
  6
CONTINUOUS
 62
    2
 10
398.36751290833899
 20
688.36665508896078
 11
405.36751290833905
 21
688.36665508896078
  0
LINE
  8
_0-0_計極細
  6
CONTINUOUS
 62
    2
 10
388.36751290833899
 20
488.36665508896118
 11
395.36751290833905
 21
488.36665508896118
  0
LINE
  8
_0-0_計極細
  6
CONTINUOUS
 62
    2
 10
388.36751290833899
 20
493.36665508896118
 11
395.36751290833905
 21
493.36665508896118
  0
LINE
  8
_0-0_計極細
  6
CONTINUOUS
 62
    2
 10
388.36751290833899
 20
588.36665508896067
 11
395.36751290833905
 21
588.36665508896067
  0
LINE
  8
_0-0_計極細
  6
CONTINUOUS
 62
    2
 10
388.36751290833899
 20
593.36665508896067
 11
395.36751290833905
 21
593.36665508896067
  0
LINE
  8
_0-0_計極細
  6
CONTINUOUS
 62
    2
 10
388.36751290833899
 20
693.36665508896078
 11
395.36751290833905
 21
693.36665508896078
  0
LINE
  8
_0-0_計極細
  6
CONTINUOUS
 62
    2
 10
388.36751290833899
 20
688.36665508896078
 11
395.36751290833905
 21
688.36665508896078
  0
LINE
  8
_0-0_計極細
  6
CONTINUOUS
 62
    2
 10
378.36751290833899
 20
488.36665508896118
 11
385.36751290833905
 21
488.36665508896118
  0
LINE
  8
_0-0_計極細
  6
CONTINUOUS
 62
    2
 10
378.36751290833899
 20
493.36665508896118
 11
385.36751290833905
 21
493.36665508896118
  0
LINE
  8
_0-0_計極細
  6
CONTINUOUS
 62
    2
 10
378.36751290833899
 20
588.36665508896067
 11
385.36751290833905
 21
588.36665508896067
  0
LINE
  8
_0-0_計極細
  6
CONTINUOUS
 62
    2
 10
378.36751290833899
 20
593.36665508896067
 11
385.36751290833905
 21
593.36665508896067
  0
LINE
  8
_0-0_計極細
  6
CONTINUOUS
 62
    2
 10
378.36751290833899
 20
693.36665508896078
 11
385.36751290833905
 21
693.36665508896078
  0
LINE
  8
_0-0_計極細
  6
CONTINUOUS
 62
    2
 10
378.36751290833899
 20
688.36665508896078
 11
385.36751290833905
 21
688.36665508896078
  0
LINE
  8
_0-0_計極細
  6
CONTINUOUS
 62
    2
 10
368.36751290833899
 20
488.36665508896118
 11
375.36751290833899
 21
488.36665508896118
  0
LINE
  8
_0-0_計極細
  6
CONTINUOUS
 62
    2
 10
368.36751290833899
 20
493.36665508896118
 11
375.36751290833899
 21
493.36665508896118
  0
LINE
  8
_0-0_計極細
  6
CONTINUOUS
 62
    2
 10
368.36751290833899
 20
588.36665508896067
 11
375.36751290833899
 21
588.36665508896067
  0
LINE
  8
_0-0_計極細
  6
CONTINUOUS
 62
    2
 10
368.36751290833899
 20
593.36665508896067
 11
375.36751290833899
 21
593.36665508896067
  0
LINE
  8
_0-0_計極細
  6
CONTINUOUS
 62
    2
 10
368.36751290833899
 20
693.36665508896078
 11
375.36751290833899
 21
693.36665508896078
  0
LINE
  8
_0-0_計極細
  6
CONTINUOUS
 62
    2
 10
368.36751290833899
 20
688.36665508896078
 11
375.36751290833899
 21
688.36665508896078
  0
LINE
  8
_0-0_計極細
  6
CONTINUOUS
 62
    2
 10
358.36751290833899
 20
488.36665508896118
 11
365.36751290833899
 21
488.36665508896118
  0
LINE
  8
_0-0_計極細
  6
CONTINUOUS
 62
    2
 10
358.36751290833899
 20
493.36665508896118
 11
365.36751290833899
 21
493.36665508896118
  0
LINE
  8
_0-0_計極細
  6
CONTINUOUS
 62
    2
 10
358.36751290833899
 20
588.36665508896067
 11
365.36751290833899
 21
588.36665508896067
  0
LINE
  8
_0-0_計極細
  6
CONTINUOUS
 62
    2
 10
358.36751290833899
 20
593.36665508896067
 11
365.36751290833899
 21
593.36665508896067
  0
LINE
  8
_0-0_計極細
  6
CONTINUOUS
 62
    2
 10
358.36751290833899
 20
693.36665508896078
 11
365.36751290833899
 21
693.36665508896078
  0
LINE
  8
_0-0_計極細
  6
CONTINUOUS
 62
    2
 10
358.36751290833899
 20
688.36665508896078
 11
365.36751290833899
 21
688.36665508896078
  0
LINE
  8
_0-0_計極細
  6
CONTINUOUS
 62
    2
 10
348.36751290833899
 20
488.36665508896118
 11
355.36751290833899
 21
488.36665508896118
  0
LINE
  8
_0-0_計極細
  6
CONTINUOUS
 62
    2
 10
348.36751290833899
 20
493.36665508896118
 11
355.36751290833899
 21
493.36665508896118
  0
LINE
  8
_0-0_計極細
  6
CONTINUOUS
 62
    2
 10
348.36751290833899
 20
588.36665508896067
 11
355.36751290833899
 21
588.36665508896067
  0
LINE
  8
_0-0_計極細
  6
CONTINUOUS
 62
    2
 10
348.36751290833899
 20
593.36665508896067
 11
355.36751290833899
 21
593.36665508896067
  0
LINE
  8
_0-0_計極細
  6
CONTINUOUS
 62
    2
 10
348.36751290833899
 20
693.36665508896078
 11
355.36751290833899
 21
693.36665508896078
  0
LINE
  8
_0-0_計極細
  6
CONTINUOUS
 62
    2
 10
348.36751290833899
 20
688.36665508896078
 11
355.36751290833899
 21
688.36665508896078
  0
LINE
  8
_0-0_計極細
  6
CONTINUOUS
 62
    2
 10
338.36751290833899
 20
488.36665508896118
 11
345.36751290833899
 21
488.36665508896118
  0
LINE
  8
_0-0_計極細
  6
CONTINUOUS
 62
    2
 10
338.36751290833899
 20
493.36665508896118
 11
345.36751290833899
 21
493.36665508896118
  0
LINE
  8
_0-0_計極細
  6
CONTINUOUS
 62
    2
 10
338.36751290833899
 20
588.36665508896067
 11
345.36751290833899
 21
588.36665508896067
  0
LINE
  8
_0-0_計極細
  6
CONTINUOUS
 62
    2
 10
338.36751290833899
 20
593.36665508896067
 11
345.36751290833899
 21
593.36665508896067
  0
LINE
  8
_0-0_計極細
  6
CONTINUOUS
 62
    2
 10
338.36751290833899
 20
693.36665508896078
 11
345.36751290833899
 21
693.36665508896078
  0
LINE
  8
_0-0_計極細
  6
CONTINUOUS
 62
    2
 10
338.36751290833899
 20
688.36665508896078
 11
345.36751290833899
 21
688.36665508896078
  0
LINE
  8
_0-0_計極細
  6
CONTINUOUS
 62
    2
 10
328.36751290833899
 20
488.36665508896118
 11
335.36751290833899
 21
488.36665508896118
  0
LINE
  8
_0-0_計極細
  6
CONTINUOUS
 62
    2
 10
328.36751290833899
 20
493.36665508896118
 11
335.36751290833899
 21
493.36665508896118
  0
LINE
  8
_0-0_計極細
  6
CONTINUOUS
 62
    2
 10
328.36751290833899
 20
588.36665508896067
 11
335.36751290833899
 21
588.36665508896067
  0
LINE
  8
_0-0_計極細
  6
CONTINUOUS
 62
    2
 10
328.36751290833899
 20
593.36665508896067
 11
335.36751290833899
 21
593.36665508896067
  0
LINE
  8
_0-0_計極細
  6
CONTINUOUS
 62
    2
 10
328.36751290833899
 20
693.36665508896078
 11
335.36751290833899
 21
693.36665508896078
  0
LINE
  8
_0-0_計極細
  6
CONTINUOUS
 62
    2
 10
328.36751290833899
 20
688.36665508896078
 11
335.36751290833899
 21
688.36665508896078
  0
LINE
  8
_0-0_計極細
  6
CONTINUOUS
 62
    2
 10
318.36751290833899
 20
488.36665508896118
 11
325.36751290833899
 21
488.36665508896118
  0
LINE
  8
_0-0_計極細
  6
CONTINUOUS
 62
    2
 10
318.36751290833899
 20
493.36665508896118
 11
325.36751290833899
 21
493.36665508896118
  0
LINE
  8
_0-0_計極細
  6
CONTINUOUS
 62
    2
 10
318.36751290833899
 20
588.36665508896067
 11
325.36751290833899
 21
588.36665508896067
  0
LINE
  8
_0-0_計極細
  6
CONTINUOUS
 62
    2
 10
318.36751290833899
 20
593.36665508896067
 11
325.36751290833899
 21
593.36665508896067
  0
LINE
  8
_0-0_計極細
  6
CONTINUOUS
 62
    2
 10
318.36751290833899
 20
693.36665508896078
 11
325.36751290833899
 21
693.36665508896078
  0
LINE
  8
_0-0_計極細
  6
CONTINUOUS
 62
    2
 10
318.36751290833899
 20
688.36665508896078
 11
325.36751290833899
 21
688.36665508896078
  0
LINE
  8
_0-0_計極細
  6
CONTINUOUS
 62
    2
 10
308.36751290833899
 20
488.36665508896118
 11
315.36751290833905
 21
488.36665508896118
  0
LINE
  8
_0-0_計極細
  6
CONTINUOUS
 62
    2
 10
308.36751290833899
 20
493.36665508896118
 11
315.36751290833905
 21
493.36665508896118
  0
LINE
  8
_0-0_計極細
  6
CONTINUOUS
 62
    2
 10
308.36751290833899
 20
588.36665508896067
 11
315.36751290833905
 21
588.36665508896067
  0
LINE
  8
_0-0_計極細
  6
CONTINUOUS
 62
    2
 10
308.36751290833899
 20
593.36665508896067
 11
315.36751290833905
 21
593.36665508896067
  0
LINE
  8
_0-0_計極細
  6
CONTINUOUS
 62
    2
 10
308.36751290833899
 20
693.36665508896078
 11
315.36751290833905
 21
693.36665508896078
  0
LINE
  8
_0-0_計極細
  6
CONTINUOUS
 62
    2
 10
308.36751290833899
 20
688.36665508896078
 11
315.36751290833905
 21
688.36665508896078
  0
LINE
  8
_0-0_計極細
  6
CONTINUOUS
 62
    2
 10
298.36751290833899
 20
488.36665508896118
 11
305.36751290833905
 21
488.36665508896118
  0
LINE
  8
_0-0_計極細
  6
CONTINUOUS
 62
    2
 10
298.36751290833899
 20
493.36665508896118
 11
305.36751290833905
 21
493.36665508896118
  0
LINE
  8
_0-0_計極細
  6
CONTINUOUS
 62
    2
 10
298.36751290833899
 20
588.36665508896067
 11
305.36751290833905
 21
588.36665508896067
  0
LINE
  8
_0-0_計極細
  6
CONTINUOUS
 62
    2
 10
298.36751290833899
 20
593.36665508896067
 11
305.36751290833905
 21
593.36665508896067
  0
LINE
  8
_0-0_計極細
  6
CONTINUOUS
 62
    2
 10
298.36751290833899
 20
693.36665508896078
 11
305.36751290833905
 21
693.36665508896078
  0
LINE
  8
_0-0_計極細
  6
CONTINUOUS
 62
    2
 10
298.36751290833899
 20
688.36665508896078
 11
305.36751290833905
 21
688.36665508896078
  0
LINE
  8
_0-0_計極細
  6
CONTINUOUS
 62
    2
 10
288.36751290833899
 20
488.36665508896118
 11
295.36751290833905
 21
488.36665508896118
  0
LINE
  8
_0-0_計極細
  6
CONTINUOUS
 62
    2
 10
288.36751290833899
 20
493.36665508896118
 11
295.36751290833905
 21
493.36665508896118
  0
LINE
  8
_0-0_計極細
  6
CONTINUOUS
 62
    2
 10
288.36751290833899
 20
588.36665508896067
 11
295.36751290833905
 21
588.36665508896067
  0
LINE
  8
_0-0_計極細
  6
CONTINUOUS
 62
    2
 10
288.36751290833899
 20
593.36665508896067
 11
295.36751290833905
 21
593.36665508896067
  0
LINE
  8
_0-0_計極細
  6
CONTINUOUS
 62
    2
 10
288.36751290833899
 20
693.36665508896078
 11
295.36751290833905
 21
693.36665508896078
  0
LINE
  8
_0-0_計極細
  6
CONTINUOUS
 62
    2
 10
288.36751290833899
 20
688.36665508896078
 11
295.36751290833905
 21
688.36665508896078
  0
LINE
  8
_0-0_計極細
  6
CONTINUOUS
 62
    2
 10
278.36751290833899
 20
488.36665508896118
 11
285.36751290833905
 21
488.36665508896118
  0
LINE
  8
_0-0_計極細
  6
CONTINUOUS
 62
    2
 10
278.36751290833899
 20
493.36665508896118
 11
285.36751290833905
 21
493.36665508896118
  0
LINE
  8
_0-0_計極細
  6
CONTINUOUS
 62
    2
 10
278.36751290833899
 20
588.36665508896067
 11
285.36751290833905
 21
588.36665508896067
  0
LINE
  8
_0-0_計極細
  6
CONTINUOUS
 62
    2
 10
278.36751290833899
 20
593.36665508896067
 11
285.36751290833905
 21
593.36665508896067
  0
LINE
  8
_0-0_計極細
  6
CONTINUOUS
 62
    2
 10
278.36751290833899
 20
693.36665508896078
 11
285.36751290833905
 21
693.36665508896078
  0
LINE
  8
_0-0_計極細
  6
CONTINUOUS
 62
    2
 10
278.36751290833899
 20
688.36665508896078
 11
285.36751290833905
 21
688.36665508896078
  0
LINE
  8
_0-0_計極細
  6
CONTINUOUS
 62
    2
 10
268.36751290833899
 20
488.36665508896118
 11
275.36751290833905
 21
488.36665508896118
  0
LINE
  8
_0-0_計極細
  6
CONTINUOUS
 62
    2
 10
268.36751290833899
 20
493.36665508896118
 11
275.36751290833905
 21
493.36665508896118
  0
LINE
  8
_0-0_計極細
  6
CONTINUOUS
 62
    2
 10
268.36751290833899
 20
588.36665508896067
 11
275.36751290833905
 21
588.36665508896067
  0
LINE
  8
_0-0_計極細
  6
CONTINUOUS
 62
    2
 10
268.36751290833899
 20
593.36665508896067
 11
275.36751290833905
 21
593.36665508896067
  0
LINE
  8
_0-0_計極細
  6
CONTINUOUS
 62
    2
 10
268.36751290833899
 20
693.36665508896078
 11
275.36751290833905
 21
693.36665508896078
  0
LINE
  8
_0-0_計極細
  6
CONTINUOUS
 62
    2
 10
268.36751290833899
 20
688.36665508896078
 11
275.36751290833905
 21
688.36665508896078
  0
LINE
  8
_0-0_計極細
  6
CONTINUOUS
 62
    2
 10
249.86751290833899
 20
488.36665508896118
 11
255.36751290833905
 21
488.36665508896118
  0
LINE
  8
_0-0_計極細
  6
CONTINUOUS
 62
    2
 10
249.86751290833899
 20
493.36665508896118
 11
255.36751290833905
 21
493.36665508896118
  0
LINE
  8
_0-0_計極細
  6
CONTINUOUS
 62
    2
 10
249.86751290833899
 20
588.36665508896067
 11
255.36751290833905
 21
588.36665508896067
  0
LINE
  8
_0-0_計極細
  6
CONTINUOUS
 62
    2
 10
249.86751290833899
 20
593.36665508896067
 11
255.36751290833905
 21
593.36665508896067
  0
LINE
  8
_0-0_計極細
  6
CONTINUOUS
 62
    2
 10
249.86751290833899
 20
693.36665508896078
 11
255.36751290833905
 21
693.36665508896078
  0
LINE
  8
_0-0_計極細
  6
CONTINUOUS
 62
    2
 10
249.86751290833899
 20
688.36665508896078
 11
255.36751290833905
 21
688.36665508896078
  0
LINE
  8
_0-0_計極細
  6
CONTINUOUS
 62
    2
 10
258.36751290833899
 20
488.36665508896118
 11
265.36751290833905
 21
488.36665508896118
  0
LINE
  8
_0-0_計極細
  6
CONTINUOUS
 62
    2
 10
258.36751290833899
 20
493.36665508896118
 11
265.36751290833905
 21
493.36665508896118
  0
LINE
  8
_0-0_計極細
  6
CONTINUOUS
 62
    2
 10
258.36751290833899
 20
588.36665508896067
 11
265.36751290833905
 21
588.36665508896067
  0
LINE
  8
_0-0_計極細
  6
CONTINUOUS
 62
    2
 10
258.36751290833899
 20
593.36665508896067
 11
265.36751290833905
 21
593.36665508896067
  0
LINE
  8
_0-0_計極細
  6
CONTINUOUS
 62
    2
 10
258.36751290833899
 20
693.36665508896078
 11
265.36751290833905
 21
693.36665508896078
  0
LINE
  8
_0-0_計極細
  6
CONTINUOUS
 62
    2
 10
258.36751290833899
 20
688.36665508896078
 11
265.36751290833905
 21
688.36665508896078
  0
LINE
  8
_0-0_計極細
  6
CENTER2
 62
    2
 10
224.56956469043533
 20
590.8666550889609
 11
668.16853371309423
 21
590.8666550889609
  0
LINE
  8
_0-5_寸法線
  6
CONTINUOUS
 62
    7
 10
241.86751290833905
 20
805.86665508896078
 11
241.86751290833925
 21
920.86665508896078
  0
LINE
  8
_0-5_寸法線
  6
CONTINUOUS
 62
    7
 10
241.86751290833925
 20
915.86665508896078
 11
251.52677117122991
 21
918.45484553998585
  0
LINE
  8
_0-5_寸法線
  6
CONTINUOUS
 62
    7
 10
241.86751290833925
 20
915.86665508896078
 11
251.52677117122991
 21
913.27846463793549
  0
LINE
  8
_0-5_寸法線
  6
CONTINUOUS
 62
    7
 10
651.86751290833899
 20
805.86665508896078
 11
651.86751290833922
 21
920.86665508896078
  0
LINE
  8
_0-5_寸法線
  6
CONTINUOUS
 62
    7
 10
651.86751290833922
 20
915.86665508896078
 11
642.20825464544862
 21
913.27846463793549
  0
LINE
  8
_0-5_寸法線
  6
CONTINUOUS
 62
    7
 10
651.86751290833922
 20
915.86665508896078
 11
642.20825464544862
 21
918.45484553998585
  0
LINE
  8
_0-5_寸法線
  6
CONTINUOUS
 62
    7
 10
241.86751290833925
 20
915.86665508896078
 11
651.86751290833922
 21
915.86665508896078
  0
TEXT
  8
_0-5_寸法線
 62
    7
 10
439.36751290833922
 20
915.86665508896078
 40
15
 41
1
 50
0
  1
Ｗ
  0
LINE
  8
_0-5_寸法線
  6
CONTINUOUS
 62
    7
 10
246.86751290833905
 20
805.86665508896078
 11
246.86751290833911
 21
850.86665508896078
  0
LINE
  8
_0-5_寸法線
  6
CONTINUOUS
 62
    7
 10
246.86751290833911
 20
845.86665508896078
 11
256.52677117122977
 21
848.45484553998585
  0
LINE
  8
_0-5_寸法線
  6
CONTINUOUS
 62
    7
 10
246.86751290833911
 20
845.86665508896078
 11
256.52677117122977
 21
843.27846463793549
  0
LINE
  8
_0-5_寸法線
  6
CONTINUOUS
 62
    7
 10
646.86751290833899
 20
805.86665508896078
 11
646.86751290833899
 21
850.86665508896078
  0
LINE
  8
_0-5_寸法線
  6
CONTINUOUS
 62
    7
 10
646.86751290833899
 20
845.86665508896078
 11
637.20825464544828
 21
843.27846463793549
  0
LINE
  8
_0-5_寸法線
  6
CONTINUOUS
 62
    7
 10
646.86751290833899
 20
845.86665508896078
 11
637.20825464544828
 21
848.45484553998585
  0
LINE
  8
_0-5_寸法線
  6
CONTINUOUS
 62
    7
 10
246.86751290833911
 20
845.86665508896078
 11
646.86751290833899
 21
845.86665508896078
  0
TEXT
  8
_0-5_寸法線
 62
    7
 10
439.36751290833911
 20
845.86665508896078
 40
15
 41
1
 50
0
  1
Ｌ
  0
LINE
  8
_0-5_寸法線
  6
CONTINUOUS
 62
    7
 10
231.86751290833897
 20
385.86665508896118
 11
116.86751290833897
 21
385.86665508896152
  0
LINE
  8
_0-5_寸法線
  6
CONTINUOUS
 62
    7
 10
121.86751290833897
 20
385.86665508896152
 11
119.27932245731384
 21
395.52591335185218
  0
LINE
  8
_0-5_寸法線
  6
CONTINUOUS
 62
    7
 10
121.86751290833897
 20
385.86665508896152
 11
124.45570335936424
 21
395.52591335185218
  0
LINE
  8
_0-5_寸法線
  6
CONTINUOUS
 62
    7
 10
231.86751290833897
 20
795.86665508896078
 11
116.86751290833897
 21
795.86665508896101
  0
LINE
  8
_0-5_寸法線
  6
CONTINUOUS
 62
    7
 10
121.86751290833897
 20
795.86665508896101
 11
124.45570335936424
 21
786.20739682607041
  0
LINE
  8
_0-5_寸法線
  6
CONTINUOUS
 62
    7
 10
121.86751290833897
 20
795.86665508896101
 11
119.27932245731384
 21
786.20739682607041
  0
LINE
  8
_0-5_寸法線
  6
CONTINUOUS
 62
    7
 10
121.86751290833897
 20
385.86665508896152
 11
121.86751290833897
 21
795.86665508896101
  0
TEXT
  8
_0-5_寸法線
 62
    7
 10
121.86751290833897
 20
583.36665508896124
 40
15
 41
1
 50
89.99999999999973
  1
Ｗ
  0
LINE
  8
_0-5_寸法線
  6
CONTINUOUS
 62
    7
 10
231.86751290833897
 20
390.86665508896118
 11
186.86751290833897
 21
390.86665508896135
  0
LINE
  8
_0-5_寸法線
  6
CONTINUOUS
 62
    7
 10
191.86751290833897
 20
390.86665508896135
 11
189.27932245731384
 21
400.52591335185195
  0
LINE
  8
_0-5_寸法線
  6
CONTINUOUS
 62
    7
 10
191.86751290833897
 20
390.86665508896135
 11
194.45570335936424
 21
400.52591335185195
  0
LINE
  8
_0-5_寸法線
  6
CONTINUOUS
 62
    7
 10
231.86751290833897
 20
790.86665508896078
 11
186.86751290833897
 21
790.8666550889609
  0
LINE
  8
_0-5_寸法線
  6
CONTINUOUS
 62
    7
 10
191.86751290833897
 20
790.8666550889609
 11
194.45570335936418
 21
781.20739682607007
  0
LINE
  8
_0-5_寸法線
  6
CONTINUOUS
 62
    7
 10
191.86751290833897
 20
790.8666550889609
 11
189.27932245731375
 21
781.20739682607007
  0
LINE
  8
_0-5_寸法線
  6
CONTINUOUS
 62
    7
 10
191.86751290833897
 20
390.86665508896135
 11
191.86751290833897
 21
790.8666550889609
  0
TEXT
  8
_0-5_寸法線
 62
    7
 10
191.86751290833897
 20
583.36665508896101
 40
15
 41
1
 50
90
  1
Ａ
  0
LINE
  8
_0-5_寸法線
  6
CONTINUOUS
 62
    7
 10
231.86751290833897
 20
385.86665508896118
 11
151.86751290833897
 21
385.86665508896147
  0
LINE
  8
_0-5_寸法線
  6
CONTINUOUS
 62
    7
 10
156.86751290833897
 20
385.86665508896147
 11
159.45570335936418
 21
376.20739682607075
  0
LINE
  8
_0-5_寸法線
  6
CONTINUOUS
 62
    7
 10
156.86751290833897
 20
385.86665508896147
 11
154.27932245731375
 21
376.20739682607075
  0
LINE
  8
_0-5_寸法線
  6
CONTINUOUS
 62
    7
 10
231.86751290833897
 20
388.86665508896124
 11
151.86751290833897
 21
388.86665508896147
  0
LINE
  8
_0-5_寸法線
  6
CONTINUOUS
 62
    7
 10
156.86751290833897
 20
360.86665508896141
 11
156.86751290833897
 21
388.86665508896147
  0
TEXT
  8
_0-5_寸法線
 62
    7
 10
156.86751290833897
 20
367.14264947845066
 40
15
 41
1
 50
90
  1
3
  0
LINE
  8
_0-5_寸法線
  6
CONTINUOUS
 62
    7
 10
156.86751290833897
 20
388.86665508896147
 11
154.27932245731384
 21
398.52591335185207
  0
LINE
  8
_0-5_寸法線
  6
CONTINUOUS
 62
    7
 10
156.86751290833897
 20
388.86665508896147
 11
159.45570335936424
 21
398.52591335185207
  0
LINE
  8
_0-5_寸法線
  6
CONTINUOUS
 62
    7
 10
231.86751290833897
 20
792.86665508896078
 11
151.86751290833897
 21
792.8666550889609
  0
LINE
  8
_0-5_寸法線
  6
CONTINUOUS
 62
    7
 10
156.86751290833897
 20
792.8666550889609
 11
159.45570335936418
 21
783.20739682607029
  0
LINE
  8
_0-5_寸法線
  6
CONTINUOUS
 62
    7
 10
156.86751290833897
 20
792.8666550889609
 11
154.27932245731375
 21
783.20739682607029
  0
LINE
  8
_0-5_寸法線
  6
CONTINUOUS
 62
    7
 10
156.86751290833897
 20
388.86665508896147
 11
156.86751290833897
 21
792.8666550889609
  0
TEXT
  8
_0-5_寸法線
 62
    7
 10
156.86751290833897
 20
575.86665508896112
 40
15
 41
1
 50
89.999999999999872
  1
Ｗ-6
  0
LINE
  8
_0-5_寸法線
  6
CONTINUOUS
 62
    7
 10
231.86751290833897
 20
795.86665508896078
 11
151.86751290833897
 21
795.8666550889609
  0
LINE
  8
_0-5_寸法線
  6
CONTINUOUS
 62
    7
 10
156.86751290833897
 20
795.8666550889609
 11
154.27932245731384
 21
805.52591335185173
  0
LINE
  8
_0-5_寸法線
  6
CONTINUOUS
 62
    7
 10
156.86751290833897
 20
795.8666550889609
 11
159.45570335936424
 21
805.52591335185173
  0
LINE
  8
_0-5_寸法線
  6
CONTINUOUS
 62
    7
 10
156.86751290833897
 20
792.8666550889609
 11
156.86751290833897
 21
820.8666550889609
  0
TEXT
  8
_0-5_寸法線
 62
    7
 10
156.86751290833897
 20
804.9055575717266
 40
15
 41
1
 50
90
  1
3
  0
LINE
  8
_0-5_寸法線
  6
CONTINUOUS
 62
    7
 10
650.3704655832347
 20
521.35596909436231
 11
657.44153339510024
 21
528.42703690622773
  0
LINE
  8
_0-5_寸法線
  6
CONTINUOUS
 62
    7
 10
650.3704655832347
 20
521.35596909436231
 11
660.02972384612553
 21
523.94415954538749
  0
LINE
  8
_0-5_寸法線
  6
CONTINUOUS
 62
    7
 10
650.3704655832347
 20
521.35596909436231
 11
691.77046558323491
 21
545.25827023881288
  0
LINE
  8
_0-5_寸法線
  6
CONTINUOUS
 62
    7
 10
691.77046558323491
 20
545.25827023881288
 11
799.77046558323491
 21
545.25827023881288
  0
TEXT
  8
_0-5_寸法線
 62
    7
 10
691.77046558323491
 20
545.25827023881288
 40
15
 41
0.8000000000000001
 50
0
  1
ＳＵＳアングル受枠
  0
LINE
  8
_0-5_寸法線
  6
CONTINUOUS
 62
    7
 10
626.83510207157474
 20
636.90954934127524
 11
633.90616988344027
 21
643.98061715314066
  0
LINE
  8
_0-5_寸法線
  6
CONTINUOUS
 62
    7
 10
626.83510207157474
 20
636.90954934127524
 11
636.49436033446545
 21
639.49773979230042
  0
LINE
  8
_0-5_寸法線
  6
CONTINUOUS
 62
    7
 10
626.83510207157474
 20
636.90954934127524
 11
691.77046558323491
 21
674.39999894465836
  0
LINE
  8
_0-5_寸法線
  6
CONTINUOUS
 62
    7
 10
691.77046558323491
 20
674.39999894465836
 11
823.77046558323502
 21
674.39999894465836
  0
TEXT
  8
_0-5_寸法線
 62
    7
 10
691.77046558323491
 20
674.39999894465836
 40
15
 41
0.8000000000000001
 50
0
  1
ステンレスグレーチング
  0
TEXT
  8
_0-7_枠細線
 62
    5
 10
1309.9999999999998
 20
67.499999999999929
 40
15.000000000000009
 41
0.6666666666666665
 50
0
  1
２０１１年０７月０４日
  0
ARC
  8
_0-b_細線3
  6
CONTINUOUS
 62
    7
 10
270.93130876245289
 20
213.84861090228611
 40
14.236111111113132
 50
65.81048584598031
 51
114.1895141540197
  0
ARC
  8
_0-b_細線3
  6
CONTINUOUS
 62
    7
 10
270.93130876245289
 20
222.32083312451238
 40
14.236111111113132
 50
245.81048584597985
 51
294.18951415401943
  0
ARC
  8
_0-b_細線3
  6
CONTINUOUS
 62
    7
 10
287.59797542911951
 20
213.84861090228611
 40
14.236111111113132
 50
65.81048584598031
 51
114.18951415401928
  0
ARC
  8
_0-b_細線3
  6
CONTINUOUS
 62
    7
 10
287.59797542911951
 20
222.32083312451238
 40
14.236111111113132
 50
245.81048584598025
 51
294.18951415401943
  0
ARC
  8
_0-b_細線3
  6
CONTINUOUS
 62
    7
 10
304.26464209578626
 20
213.84861090228611
 40
14.236111111113132
 50
65.810485845980722
 51
114.1895141540197
  0
ARC
  8
_0-b_細線3
  6
CONTINUOUS
 62
    7
 10
304.26464209578626
 20
222.32083312451238
 40
14.236111111113132
 50
245.81048584597985
 51
294.18951415401904
  0
ARC
  8
_0-b_細線3
  6
CONTINUOUS
 62
    7
 10
320.93130876245289
 20
213.84861090228611
 40
14.236111111113132
 50
65.81048584598031
 51
114.1895141540197
  0
ARC
  8
_0-b_細線3
  6
CONTINUOUS
 62
    7
 10
320.93130876245289
 20
222.32083312451238
 40
14.236111111113132
 50
245.81048584597985
 51
294.18951415401943
  0
ARC
  8
_0-b_細線3
  6
CONTINUOUS
 62
    7
 10
337.59797542911951
 20
213.84861090228611
 40
14.236111111113132
 50
65.81048584598031
 51
114.18951415401928
  0
ARC
  8
_0-b_細線3
  6
CONTINUOUS
 62
    7
 10
337.59797542911951
 20
222.32083312451238
 40
14.236111111113132
 50
245.81048584598025
 51
294.18951415401943
  0
LINE
  8
_0-d_寸法3
  6
CONTINUOUS
 62
    7
 10
312.59797542911951
 20
241.41805534673264
 11
312.59797542911951
 21
286.41805534673261
  0
LINE
  8
_0-d_寸法3
  6
CONTINUOUS
 62
    7
 10
312.59797542911951
 20
281.41805534673261
 11
322.25723369201029
 21
284.0062457977578
  0
LINE
  8
_0-d_寸法3
  6
CONTINUOUS
 62
    7
 10
312.59797542911951
 20
281.41805534673261
 11
322.25723369201029
 21
278.82986489570743
  0
LINE
  8
_0-d_寸法3
  6
CONTINUOUS
 62
    7
 10
329.26464209578626
 20
241.41805534673264
 11
329.26464209578631
 21
286.41805534673261
  0
LINE
  8
_0-d_寸法3
  6
CONTINUOUS
 62
    7
 10
329.26464209578631
 20
281.41805534673261
 11
319.6053838328956
 21
278.82986489570743
  0
LINE
  8
_0-d_寸法3
  6
CONTINUOUS
 62
    7
 10
329.26464209578631
 20
281.41805534673261
 11
319.60538383289565
 21
284.00624579775786
  0
LINE
  8
_0-d_寸法3
  6
CONTINUOUS
 62
    7
 10
312.59797542911951
 20
281.41805534673261
 11
329.26464209578631
 21
281.41805534673261
  0
TEXT
  8
_0-d_寸法3
 62
    7
 10
313.431308762453
 20
281.41805534673261
 40
15
 41
1
 50
0
  1
10
  0
LINE
  8
_0-d_寸法3
  6
CONTINUOUS
 62
    7
 10
329.26464209578631
 20
281.41805534673261
 11
338.92390035867709
 21
284.00624579775774
  0
LINE
  8
_0-d_寸法3
  6
CONTINUOUS
 62
    7
 10
329.26464209578631
 20
281.41805534673261
 11
338.92390035867697
 21
278.82986489570737
  0
LINE
  8
_0-d_寸法3
  6
CONTINUOUS
 62
    7
 10
345.93130876245289
 20
241.41805534673264
 11
345.93130876245289
 21
286.41805534673261
  0
LINE
  8
_0-d_寸法3
  6
CONTINUOUS
 62
    7
 10
345.93130876245289
 20
281.41805534673261
 11
336.27205049956217
 21
278.82986489570743
  0
LINE
  8
_0-d_寸法3
  6
CONTINUOUS
 62
    7
 10
345.93130876245289
 20
281.41805534673261
 11
336.27205049956223
 21
284.00624579775786
  0
LINE
  8
_0-d_寸法3
  6
CONTINUOUS
 62
    7
 10
329.26464209578631
 20
281.41805534673261
 11
345.93130876245289
 21
281.41805534673261
  0
TEXT
  8
_0-d_寸法3
 62
    7
 10
330.09797542911963
 20
281.41805534673261
 40
15
 41
1
 50
0
  1
10
  0
LINE
  8
_0-d_寸法3
  6
CONTINUOUS
 62
    7
 10
260.09797542911951
 20
241.41805534673264
 11
260.09797542911951
 21
286.41805534673261
  0
LINE
  8
_0-d_寸法3
  6
CONTINUOUS
 62
    7
 10
260.09797542911951
 20
281.41805534673261
 11
250.43871716622888
 21
278.82986489570743
  0
LINE
  8
_0-d_寸法3
  6
CONTINUOUS
 62
    7
 10
260.09797542911951
 20
281.41805534673261
 11
250.43871716622888
 21
284.00624579775786
  0
LINE
  8
_0-d_寸法3
  6
CONTINUOUS
 62
    7
 10
265.09797542911951
 20
241.41805534673264
 11
265.09797542911951
 21
286.41805534673261
  0
CIRCLE
  8
_0-d_寸法3
  6
CONTINUOUS
 62
    1
 10
265.09797542911951
 20
281.41805534673261
 40
1.5000000000000002
  0
LINE
  8
_0-d_寸法3
  6
CONTINUOUS
 62
    7
 10
235.09797542911954
 20
281.41805534673261
 11
265.09797542911951
 21
281.41805534673261
  0
TEXT
  8
_0-d_寸法3
 62
    7
 10
247.35584922884192
 20
281.41805534673261
 40
15
 41
1
 50
0
  1
3
  0
LINE
  8
_0-d_寸法3
  6
CONTINUOUS
 62
    7
 10
276.76464209578614
 20
241.41805534673264
 11
276.76464209578626
 21
286.41805534673261
  0
LINE
  8
_0-d_寸法3
  6
CONTINUOUS
 62
    7
 10
276.76464209578626
 20
281.41805534673261
 11
286.42390035867692
 21
284.00624579775774
  0
LINE
  8
_0-d_寸法3
  6
CONTINUOUS
 62
    7
 10
276.76464209578626
 20
281.41805534673261
 11
286.42390035867692
 21
278.82986489570737
  0
LINE
  8
_0-d_寸法3
  6
CONTINUOUS
 62
    7
 10
265.09797542911951
 20
281.41805534673261
 11
301.76464209578626
 21
281.41805534673261
  0
TEXT
  8
_0-d_寸法3
 62
    7
 10
279.65609614242032
 20
281.41805534673261
 40
15
 41
1
 50
0
  1
7
  0
TEXT
  8
_0-7_枠細線
 62
    5
 10
366.62546759064583
 20
115.70578772854788
 40
20.000000000000004
 41
0.5999999999999999
 50
0
  1
Ｓ＝１：３
  0
TEXT
  8
_0-7_枠細線
 62
    5
 10
960.5
 20
158.74999999999994
 40
20.000000000000007
 41
0.5249999999999998
 50
0
  1
Ｆバー ステンレスグレーチングＨ１５タイプ
  0
LINE
  8
_0-b_細線3
  6
CONTINUOUS
 62
    7
 10
265.09797542911951
 20
206.41805534673267
 11
265.09797542911951
 21
231.41805534673264
  0
LINE
  8
_0-b_細線3
  6
CONTINUOUS
 62
    7
 10
265.09797542911951
 20
231.41805534673264
 11
260.09797542911951
 21
231.41805534673264
  0
LINE
  8
_0-b_細線3
  6
CONTINUOUS
 62
    7
 10
260.09797542911951
 20
231.41805534673264
 11
260.09797542911951
 21
206.41805534673267
  0
LINE
  8
_0-b_細線3
  6
CONTINUOUS
 62
    7
 10
260.09797542911951
 20
206.41805534673267
 11
265.09797542911951
 21
206.41805534673267
  0
LINE
  8
_0-b_細線3
  6
CONTINUOUS
 62
    7
 10
281.76464209578626
 20
206.41805534673267
 11
281.76464209578626
 21
231.41805534673264
  0
LINE
  8
_0-b_細線3
  6
CONTINUOUS
 62
    7
 10
281.76464209578626
 20
231.41805534673264
 11
276.76464209578626
 21
231.41805534673264
  0
LINE
  8
_0-b_細線3
  6
CONTINUOUS
 62
    7
 10
276.76464209578626
 20
231.41805534673264
 11
276.76464209578626
 21
206.41805534673267
  0
LINE
  8
_0-b_細線3
  6
CONTINUOUS
 62
    7
 10
276.76464209578626
 20
206.41805534673267
 11
281.76464209578626
 21
206.41805534673267
  0
LINE
  8
_0-b_細線3
  6
CONTINUOUS
 62
    7
 10
298.43130876245289
 20
206.41805534673267
 11
298.43130876245289
 21
231.41805534673264
  0
LINE
  8
_0-b_細線3
  6
CONTINUOUS
 62
    7
 10
298.43130876245289
 20
231.41805534673264
 11
293.43130876245289
 21
231.41805534673264
  0
LINE
  8
_0-b_細線3
  6
CONTINUOUS
 62
    7
 10
293.43130876245289
 20
231.41805534673264
 11
293.43130876245289
 21
206.41805534673267
  0
LINE
  8
_0-b_細線3
  6
CONTINUOUS
 62
    7
 10
293.43130876245289
 20
206.41805534673267
 11
298.43130876245289
 21
206.41805534673267
  0
LINE
  8
_0-b_細線3
  6
CONTINUOUS
 62
    7
 10
315.09797542911951
 20
206.41805534673267
 11
315.09797542911951
 21
231.41805534673264
  0
LINE
  8
_0-b_細線3
  6
CONTINUOUS
 62
    7
 10
315.09797542911951
 20
231.41805534673264
 11
310.09797542911951
 21
231.41805534673264
  0
LINE
  8
_0-b_細線3
  6
CONTINUOUS
 62
    7
 10
310.09797542911951
 20
231.41805534673264
 11
310.09797542911951
 21
206.41805534673267
  0
LINE
  8
_0-b_細線3
  6
CONTINUOUS
 62
    7
 10
310.09797542911951
 20
206.41805534673267
 11
315.09797542911951
 21
206.41805534673267
  0
LINE
  8
_0-b_細線3
  6
CONTINUOUS
 62
    7
 10
331.76464209578626
 20
206.41805534673267
 11
331.76464209578626
 21
231.41805534673264
  0
LINE
  8
_0-b_細線3
  6
CONTINUOUS
 62
    7
 10
331.76464209578626
 20
231.41805534673264
 11
326.76464209578626
 21
231.41805534673264
  0
LINE
  8
_0-b_細線3
  6
CONTINUOUS
 62
    7
 10
326.76464209578626
 20
231.41805534673264
 11
326.76464209578626
 21
206.41805534673267
  0
LINE
  8
_0-b_細線3
  6
CONTINUOUS
 62
    7
 10
326.76464209578626
 20
206.41805534673267
 11
331.76464209578626
 21
206.41805534673267
  0
LINE
  8
_0-b_細線3
  6
CONTINUOUS
 62
    7
 10
348.43130876245289
 20
206.41805534673267
 11
348.43130876245289
 21
231.41805534673264
  0
LINE
  8
_0-b_細線3
  6
CONTINUOUS
 62
    7
 10
348.43130876245289
 20
231.41805534673264
 11
343.43130876245289
 21
231.41805534673264
  0
LINE
  8
_0-b_細線3
  6
CONTINUOUS
 62
    7
 10
343.43130876245289
 20
231.41805534673264
 11
343.43130876245289
 21
206.41805534673267
  0
LINE
  8
_0-b_細線3
  6
CONTINUOUS
 62
    7
 10
343.43130876245289
 20
206.41805534673267
 11
348.43130876245289
 21
206.41805534673267
  0
LINE
  8
_0-b_細線3
  6
CONTINUOUS
 62
    7
 10
280.59797542556339
 20
206.41805534673267
 11
286.26464209222979
 21
206.41805534673267
  0
CIRCLE
  8
_0-0_計極細
  6
CONTINUOUS
 62
    2
 10
1368.8769158456487
 20
682.58592356117856
 40
0.3318518518518431
  0
CIRCLE
  8
_0-0_計極細
  6
CONTINUOUS
 62
    2
 10
1400.076915845648
 20
682.02592356117862
 40
0.3318518518518431
  0
CIRCLE
  8
_0-0_計極細
  6
CONTINUOUS
 62
    2
 10
1410.156915845648
 20
682.02592356117862
 40
0.3318518518518431
  0
LINE
  8
_0-0_計極細
  6
CONTINUOUS
 62
    2
 10
1402.953588741075
 20
683.86665508896067
 11
1409.9535883650015
 21
690.86665471288734
  0
LINE
  8
_0-0_計極細
  6
CONTINUOUS
 62
    2
 10
1390.2256666797168
 20
683.86665508896067
 11
1397.2256664032127
 21
690.86665481245632
  0
LINE
  8
_0-0_計極細
  6
CONTINUOUS
 62
    2
 10
1377.4977446183593
 20
683.86665508896067
 11
1384.4977444414239
 21
690.86665491202541
  0
LINE
  8
_0-0_計極細
  6
CONTINUOUS
 62
    2
 10
1364.7698225570014
 20
683.86665508896067
 11
1371.7698224796354
 21
690.86665501159473
  0
LINE
  8
_0-0_計極細
  6
DASHED2
 62
    2
 10
1409.3175497717539
 20
683.86665508896067
 11
1415.3867537879619
 21
689.93585910516867
  0
LINE
  8
_0-0_計極細
  6
DASHED2
 62
    2
 10
1396.5896277103959
 20
683.86665508896067
 11
1403.5896273841072
 21
690.86665476267194
  0
LINE
  8
_0-0_計極細
  6
DASHED2
 62
    2
 10
1383.861705649038
 20
683.86665508896067
 11
1390.8617054223187
 21
690.86665486224081
  0
LINE
  8
_0-0_計極細
  6
DASHED2
 62
    2
 10
1371.1337835876802
 20
683.86665508896067
 11
1378.1337834605297
 21
690.86665496181001
  0
LINE
  8
_0-0_計極細
  6
DASHED2
 62
    2
 10
1361.8801055008928
 20
687.3408990635312
 11
1365.4058614987409
 21
690.86665506137922
  0
LINE
  8
_0-0_計極細
  6
CONTINUOUS
 62
    2
 10
1361.8801055008928
 20
686.06810685739549
 11
1359.6786537324581
 21
683.86665508896067
  0
LINE
  8
_0-0_計極細
  6
CONTINUOUS
 62
    2
 10
1361.8801055008928
 20
688.61369126966679
 11
1357.1330693201867
 21
683.86665508896067
  0
LINE
  8
_0-0_計極細
  6
CONTINUOUS
 62
    2
 10
1356.880105500893
 20
686.15927568193842
 11
1361.587484907915
 21
690.86665508896078
  0
LINE
  8
_0-0_計極細
  6
CONTINUOUS
 62
    2
 10
1356.880105500893
 20
688.70486009421029
 11
1359.0419004956434
 21
690.86665508896078
  0
LINE
  8
_0-0_計極細
  6
CONTINUOUS
 62
    2
 10
1361.880105500893
 20
689.96106176325748
 11
1360.9745121751896
 21
690.86665508896078
  0
LINE
  8
_0-0_計極細
  6
CONTINUOUS
 62
    2
 10
1361.880105500893
 20
687.41547735098595
 11
1358.4289277629182
 21
690.86665508896078
  0
LINE
  8
_0-0_計極細
  6
CONTINUOUS
 62
    2
 10
1361.880105500893
 20
684.86989293871397
 11
1356.880105500893
 21
689.8698929387142
  0
LINE
  8
_0-0_計極細
  6
CONTINUOUS
 62
    2
 10
1360.3377589383749
 20
683.86665508896067
 11
1356.880105500893
 21
687.32430852644279
  0
LINE
  8
_0-0_計極細
  6
CONTINUOUS
 62
    2
 10
1357.7921745261037
 20
683.86665508896067
 11
1356.880105500893
 21
684.77872411417093
  0
LINE
  8
_0-0_計極細
  6
CONTINUOUS
 62
    2
 10
1356.880105500893
 20
690.36665508896044
 11
1356.880105500893
 21
690.86665508896078
  0
LINE
  8
_0-0_計極細
  6
CONTINUOUS
 62
    2
 10
1356.880105500893
 20
690.86665508896078
 11
1361.880105500893
 21
690.86665508896078
  0
LINE
  8
_0-0_計極細
  6
CONTINUOUS
 62
    2
 10
1356.880105500893
 20
683.86665508896067
 11
1415.3867537879619
 21
683.86665508896067
  0
LINE
  8
_0-0_計極細
  6
CONTINUOUS
 62
    2
 10
1361.880105500893
 20
690.86665508896078
 11
1415.3867537879619
 21
690.86665508896078
  0
LINE
  8
_0-0_計極細
  6
CONTINUOUS
 62
    2
 10
1361.880105500893
 20
690.86665508896078
 11
1361.880105500893
 21
683.86665508896067
  0
CIRCLE
  8
_0-0_計極細
  6
CONTINUOUS
 62
    2
 10
938.85024917898352
 20
681.84203467228986
 40
0.3318518518518431
  0
LINE
  8
_0-0_計極細
  6
CONTINUOUS
 62
    2
 10
936.57891369431456
 20
683.86665508528426
 11
941.88010550089291
 21
689.16784689186238
  0
LINE
  8
_0-0_計極細
  6
CONTINUOUS
 62
    2
 10
923.85099162413007
 20
683.86665507645739
 11
930.85099163663313
 21
690.86665508896078
  0
LINE
  8
_0-0_計極細
  6
CONTINUOUS
 62
    2
 10
911.12306955394524
 20
683.86665506763052
 11
918.12306957527528
 21
690.86665508896078
  0
LINE
  8
_0-0_計極細
  6
CONTINUOUS
 62
    2
 10
898.39514748376075
 20
683.86665505880387
 11
905.39514751391721
 21
690.86665508896078
  0
LINE
  8
_0-0_計極細
  6
CONTINUOUS
 62
    2
 10
888.37345721382417
 20
686.5728868502249
 11
892.66722545255959
 21
690.86665508896078
  0
LINE
  8
_0-0_計極細
  6
DASHED2
 62
    2
 10
930.21495265922226
 20
683.86665508087071
 11
937.21495266731222
 21
690.8666550889609
  0
LINE
  8
_0-0_計極細
  6
DASHED2
 62
    2
 10
917.48703058903743
 20
683.86665507204407
 11
924.48703060595437
 21
690.86665508896078
  0
LINE
  8
_0-0_計極細
  6
DASHED2
 62
    2
 10
904.75910851885317
 20
683.86665506321742
 11
911.7591085445963
 21
690.86665508896078
  0
LINE
  8
_0-0_計極細
  6
DASHED2
 62
    2
 10
892.03118644866834
 20
683.86665505439055
 11
899.03118648323834
 21
690.86665508896078
  0
LINE
  8
_0-0_計極細
  6
CONTINUOUS
 62
    2
 10
946.76125134707718
 20
683.86665508896067
 11
946.88010550089291
 21
683.98550924277629
  0
LINE
  8
_0-0_計極細
  6
CONTINUOUS
 62
    2
 10
944.21566693480588
 20
683.86665508896067
 11
946.88010550089302
 21
686.5310936550477
  0
LINE
  8
_0-0_計極細
  6
CONTINUOUS
 62
    2
 10
941.88010550089291
 20
684.07667806731934
 11
946.88010550089302
 21
689.07667806731934
  0
LINE
  8
_0-0_計極細
  6
CONTINUOUS
 62
    2
 10
941.88010550089291
 20
686.62226247959086
 11
946.12449811026249
 21
690.86665508896078
  0
LINE
  8
_0-0_計極細
  6
CONTINUOUS
 62
    2
 10
941.88010550089291
 20
689.16784689186238
 11
943.5789136979912
 21
690.86665508896078
  0
LINE
  8
_0-0_計極細
  6
CONTINUOUS
 62
    2
 10
946.88010550089302
 20
689.49807496560561
 11
945.51152537753808
 21
690.86665508896078
  0
LINE
  8
_0-0_計極細
  6
CONTINUOUS
 62
    2
 10
946.88010550089302
 20
686.95249055333375
 11
942.96594096526621
 21
690.86665508896078
  0
LINE
  8
_0-0_計極細
  6
CONTINUOUS
 62
    2
 10
941.88010550089291
 20
689.40690614106256
 11
946.88010550089302
 21
684.40690614106234
  0
LINE
  8
_0-0_計極細
  6
CONTINUOUS
 62
    2
 10
941.88010550089291
 20
686.8613217287907
 11
944.87477214072283
 21
683.86665508896067
  0
LINE
  8
_0-0_計極細
  6
CONTINUOUS
 62
    2
 10
941.88010550089291
 20
684.3157373165194
 11
942.32918772845153
 21
683.86665508896067
  0
LINE
  8
_0-0_計極細
  6
CONTINUOUS
 62
    2
 10
946.88010550089302
 20
690.36665508896044
 11
946.88010550089302
 21
690.86665508896078
  0
LINE
  8
_0-0_計極細
  6
CONTINUOUS
 62
    2
 10
946.88010550089302
 20
690.86665508896078
 11
941.88010550089291
 21
690.86665508896078
  0
LINE
  8
_0-0_計極細
  6
CONTINUOUS
 62
    2
 10
946.88010550089302
 20
683.86665508896067
 11
888.37345721382417
 21
683.86665508896067
  0
LINE
  8
_0-0_計極細
  6
CONTINUOUS
 62
    2
 10
941.88010550089291
 20
690.86665508896078
 11
888.37345721382417
 21
690.86665508896078
  0
LINE
  8
_0-0_計極細
  6
CONTINUOUS
 62
    2
 10
941.88010550089291
 20
690.86665508896078
 11
941.88010550089291
 21
683.86665508896067
  0
LINE
  8
_0-0_計極細
  6
CENTER1
 62
    2
 10
951.88010550089291
 20
682.86665508896067
 11
1351.8801055008928
 21
682.86665508896067
  0
LINE
  8
_0-1_計細線
  6
CONTINUOUS
 62
    3
 10
954.88010550089314
 20
690.86665508896078
 11
1348.8801055008926
 21
690.86665508896135
  0
ARC
  8
_0-1_計細線
  6
CONTINUOUS
 62
    3
 10
1251.8801055008926
 20
682.86665508896124
 40
5.25
 50
114.03943363457158
 51
245.96056636541496
  0
ARC
  8
_0-1_計細線
  6
CONTINUOUS
 62
    3
 10
1251.8801055008926
 20
682.86665508896124
 40
5.25
 50
294.03943363458887
 51
65.960566365428065
  0
ARC
  8
_0-1_計細線
  6
CONTINUOUS
 62
    3
 10
1251.880105500898
 20
679.36665508899625
 40
1.4999999999947704
 50
179.99999999999983
 51
359.99999999999966
  0
LINE
  8
_0-1_計細線
  6
CONTINUOUS
 62
    3
 10
1253.3801055008926
 20
686.36665508896112
 11
1253.3801055008926
 21
679.36665508896112
  0
ARC
  8
_0-1_計細線
  6
CONTINUOUS
 62
    3
 10
1251.880105500898
 20
686.36665508891838
 40
1.5000000000052296
 50
0
 51
179.99999999999983
  0
LINE
  8
_0-1_計細線
  6
CONTINUOUS
 62
    3
 10
1250.3801055008926
 20
679.36665508896112
 11
1250.3801055008926
 21
686.36665508896112
  0
ARC
  8
_0-1_計細線
  6
CONTINUOUS
 62
    3
 10
1251.8801055008748
 20
679.36665508903491
 40
2.500000000017963
 50
179.99999999999983
 51
359.99999999999966
  0
LINE
  8
_0-1_計細線
  6
CONTINUOUS
 62
    3
 10
1254.3801055008926
 20
686.36665508896112
 11
1254.3801055008926
 21
679.36665508896112
  0
ARC
  8
_0-1_計細線
  6
CONTINUOUS
 62
    3
 10
1251.8801055008748
 20
686.36665508894157
 40
2.4999999999820375
 50
0
 51
179.99999999999983
  0
LINE
  8
_0-1_計細線
  6
CONTINUOUS
 62
    3
 10
1249.3801055008926
 20
679.36665508896112
 11
1249.3801055008926
 21
686.36665508896112
  0
ARC
  8
_0-1_計細線
  6
CONTINUOUS
 62
    3
 10
1151.8801055008926
 20
682.86665508896112
 40
5.25
 50
114.03943363457158
 51
245.96056636541496
  0
ARC
  8
_0-1_計細線
  6
CONTINUOUS
 62
    3
 10
1151.8801055008926
 20
682.86665508896112
 40
5.25
 50
294.03943363458887
 51
65.960566365428065
  0
ARC
  8
_0-1_計細線
  6
CONTINUOUS
 62
    3
 10
1151.8801055008589
 20
679.36665508895703
 40
1.5000000000336513
 50
179.99999999999983
 51
359.99999999999966
  0
LINE
  8
_0-1_計細線
  6
CONTINUOUS
 62
    3
 10
1153.3801055008926
 20
686.36665508896101
 11
1153.3801055008926
 21
679.36665508896101
  0
ARC
  8
_0-1_計細線
  6
CONTINUOUS
 62
    3
 10
1151.880105500898
 20
686.36665508899614
 40
1.5000000000052296
 50
0
 51
179.99999999999983
  0
LINE
  8
_0-1_計細線
  6
CONTINUOUS
 62
    3
 10
1150.3801055008926
 20
679.36665508896101
 11
1150.3801055008926
 21
686.36665508896101
  0
ARC
  8
_0-1_計細線
  6
CONTINUOUS
 62
    3
 10
1151.8801055008748
 20
679.3666550889883
 40
2.500000000017963
 50
179.99999999999983
 51
359.99999999999966
  0
LINE
  8
_0-1_計細線
  6
CONTINUOUS
 62
    3
 10
1154.3801055008926
 20
686.36665508896101
 11
1154.3801055008926
 21
679.36665508896101
  0
ARC
  8
_0-1_計細線
  6
CONTINUOUS
 62
    3
 10
1151.880105500898
 20
686.36665508896476
 40
2.5000000000052296
 50
0
 51
179.99999999999983
  0
LINE
  8
_0-1_計細線
  6
CONTINUOUS
 62
    3
 10
1149.3801055008926
 20
679.36665508896101
 11
1149.3801055008926
 21
686.36665508896101
  0
ARC
  8
_0-1_計細線
  6
CONTINUOUS
 62
    3
 10
1051.8801055009053
 20
679.36665508896499
 40
2.4999999999876081
 50
179.99999999999983
 51
359.99999999999966
  0
LINE
  8
_0-1_計細線
  6
CONTINUOUS
 62
    3
 10
1054.380105500893
 20
686.3666550889609
 11
1054.380105500893
 21
679.3666550889609
  0
ARC
  8
_0-1_計細線
  6
CONTINUOUS
 62
    3
 10
1051.8801055008935
 20
686.36665508895351
 40
2.5000000000005684
 50
0
 51
179.99999999999983
  0
LINE
  8
_0-1_計細線
  6
CONTINUOUS
 62
    3
 10
1049.380105500893
 20
679.3666550889609
 11
1049.380105500893
 21
686.3666550889609
  0
ARC
  8
_0-1_計細線
  6
CONTINUOUS
 62
    3
 10
1051.8801055008594
 20
679.36665508895669
 40
1.5000000000337652
 50
179.99999999999983
 51
359.99999999999966
  0
LINE
  8
_0-1_計細線
  6
CONTINUOUS
 62
    3
 10
1053.380105500893
 20
686.3666550889609
 11
1053.380105500893
 21
679.3666550889609
  0
ARC
  8
_0-1_計細線
  6
CONTINUOUS
 62
    3
 10
1051.880105500898
 20
686.3666550889568
 40
1.5000000000050022
 50
0
 51
179.99999999999983
  0
LINE
  8
_0-1_計細線
  6
CONTINUOUS
 62
    3
 10
1050.380105500893
 20
679.3666550889609
 11
1050.380105500893
 21
686.3666550889609
  0
ARC
  8
_0-1_計細線
  6
CONTINUOUS
 62
    3
 10
1051.880105500893
 20
682.86665508896078
 40
5.25
 50
294.03943363458433
 51
65.960566365428065
  0
ARC
  8
_0-1_計細線
  6
CONTINUOUS
 62
    3
 10
1051.880105500893
 20
682.86665508896078
 40
5.25
 50
114.03943363457158
 51
245.96056636541044
  0
CIRCLE
  8
_0-0_計極細
  6
CONTINUOUS
 62
    2
 10
1374.2724714012045
 20
661.16814578340097
 40
0.3318518518518431
  0
LINE
  8
_0-0_計極細
  6
CONTINUOUS
 62
    2
 10
1371.880105500893
 20
654.31799189794992
 11
1380.880105500893
 21
654.31799189794992
  0
LINE
  8
_0-0_計極細
  6
CENTER1
 62
    2
 10
1376.3801055008933
 20
622.90061091828863
 11
1376.3801055008933
 21
656.88342399671558
  0
LINE
  8
_0-0_計極細
  6
CONTINUOUS
 62
    2
 10
1380.880105500893
 20
654.31799189794992
 11
1380.880105500893
 21
627.86665508896033
  0
LINE
  8
_0-0_計極細
  6
CONTINUOUS
 62
    2
 10
1371.880105500893
 20
627.86665508896033
 11
1371.880105500893
 21
654.31799189794992
  0
LINE
  8
_0-0_計極細
  6
CENTER1
 62
    2
 10
1387.5764971133456
 20
645.94211455598133
 11
1349.1578848238057
 21
659.92534584700229
  0
LINE
  8
_0-0_計極細
  6
CONTINUOUS
 62
    2
 10
1383.0641464331843
 20
642.79567578646243
 11
1349.9895395389758
 21
654.8338482060102
  0
LINE
  8
_0-0_計極細
  6
CONTINUOUS
 62
    2
 10
1386.1423277231154
 20
651.25290937353589
 11
1353.0677208289067
 21
663.29108179308355
  0
LINE
  8
_0-0_計極細
  6
CONTINUOUS
 62
    2
 10
1353.0677208289067
 20
663.29108179308355
 11
1349.9895395389758
 21
654.8338482060102
  0
LINE
  8
_0-0_計極細
  6
CONTINUOUS
 62
    2
 10
1383.0641464331843
 20
642.79567578646243
 11
1386.1423277231154
 21
651.25290937353589
  0
CIRCLE
  8
_0-0_計極細
  6
CONTINUOUS
 62
    2
 10
1332.6402491789822
 20
621.27796059821583
 40
1.0953188836088352
  0
CIRCLE
  8
_0-0_計極細
  6
CONTINUOUS
 62
    2
 10
1330.8713602900932
 20
664.85129393154932
 40
1.0953188836088352
  0
CIRCLE
  8
_0-0_計極細
  6
CONTINUOUS
 62
    2
 10
1331.2546936234271
 20
625.27925689451229
 40
0.3318518518518431
  0
CIRCLE
  8
_0-0_計極細
  6
CONTINUOUS
 62
    2
 10
1330.470743006143
 20
648.83259022784546
 40
0.3318518518518431
  0
LINE
  8
_0-0_計極細
  6
CONTINUOUS
 62
    2
 10
1326.880105500893
 20
672.86665508896033
 11
1326.880105500893
 21
612.12169491209272
  0
LINE
  8
_0-0_計極細
  6
CONTINUOUS
 62
    2
 10
1327.3801055008928
 20
672.86665508896033
 11
1326.880105500893
 21
672.86665508896033
  0
CIRCLE
  8
_0-0_計極細
  6
CONTINUOUS
 62
    2
 10
1381.6769158456484
 20
680.19462726488246
 40
1.0953188836088352
  0
CIRCLE
  8
_0-0_計極細
  6
CONTINUOUS
 62
    2
 10
1335.4539528826865
 20
643.75737068732724
 40
0.3318518518518431
  0
CIRCLE
  8
_0-0_計極細
  6
CONTINUOUS
 62
    2
 10
1335.3339528826862
 20
658.13070402066057
 40
0.3318518518518431
  0
CIRCLE
  8
_0-0_計極細
  6
CONTINUOUS
 62
    2
 10
1394.2126980934856
 20
629.35239582970087
 40
1.0953188836088352
  0
CIRCLE
  8
_0-0_計極細
  6
CONTINUOUS
 62
    2
 10
1366.4535825123151
 20
635.46462726488278
 40
1.0953188836088352
  0
CIRCLE
  8
_0-0_計極細
  6
CONTINUOUS
 62
    2
 10
1345.3335825123156
 20
648.90462726488272
 40
1.0953188836088352
  0
CIRCLE
  8
_0-0_計極細
  6
CONTINUOUS
 62
    2
 10
1339.2002491789824
 20
630.98462726488276
 40
1.0953188836088352
  0
CIRCLE
  8
_0-0_計極細
  6
CONTINUOUS
 62
    2
 10
1381.4369158456484
 20
657.71462726488255
 40
1.0953188836088352
  0
CIRCLE
  8
_0-0_計極細
  6
CONTINUOUS
 62
    2
 10
1362.2369158456486
 20
676.91462726488214
 40
1.0953188836088352
  0
CIRCLE
  8
_0-0_計極細
  6
CONTINUOUS
 62
    2
 10
1395.4902491789815
 20
672.96796059821543
 40
1.0953188836088352
  0
CIRCLE
  8
_0-0_計極細
  6
CONTINUOUS
 62
    2
 10
1404.8769158456478
 20
682.24796059821574
 40
1.0953188836088352
  0
CIRCLE
  8
_0-0_計極細
  6
CONTINUOUS
 62
    2
 10
1407.7569158456479
 20
673.98592356117865
 40
0.3318518518518431
  0
CIRCLE
  8
_0-0_計極細
  6
CONTINUOUS
 62
    2
 10
1389.9969158456483
 20
661.26592356117885
 40
0.3318518518518431
  0
CIRCLE
  8
_0-0_計極細
  6
CONTINUOUS
 62
    2
 10
1381.5969158456483
 20
665.58592356117867
 40
0.3318518518518431
  0
CIRCLE
  8
_0-0_計極細
  6
CONTINUOUS
 62
    2
 10
1392.3969158456484
 20
652.86592356117865
 40
0.3318518518518431
  0
CIRCLE
  8
_0-0_計極細
  6
CONTINUOUS
 62
    2
 10
1393.3569158456485
 20
640.38592356117886
 40
0.3318518518518431
  0
CIRCLE
  8
_0-0_計極細
  6
CONTINUOUS
 62
    2
 10
1389.0369158456483
 20
631.98592356117933
 40
0.3318518518518431
  0
CIRCLE
  8
_0-0_計極細
  6
CONTINUOUS
 62
    2
 10
1365.5169158456486
 20
663.90592356117838
 40
0.3318518518518431
  0
CIRCLE
  8
_0-0_計極細
  6
CONTINUOUS
 62
    2
 10
1367.3435825123156
 20
640.15925689451228
 40
0.3318518518518431
  0
CIRCLE
  8
_0-0_計極細
  6
CONTINUOUS
 62
    2
 10
1367.8235825123152
 20
631.35925689451233
 40
0.3318518518518431
  0
CIRCLE
  8
_0-0_計極細
  6
CONTINUOUS
 62
    2
 10
1351.6635825123153
 20
631.19925689451236
 40
0.3318518518518431
  0
CIRCLE
  8
_0-0_計極細
  6
CONTINUOUS
 62
    2
 10
1336.463582512316
 20
616.15925689451251
 40
0.3318518518518431
  0
CIRCLE
  8
_0-0_計極細
  6
CONTINUOUS
 62
    2
 10
1342.0635825123156
 20
626.8792568945122
 40
0.3318518518518431
  0
CIRCLE
  8
_0-0_計極細
  6
CONTINUOUS
 62
    2
 10
1352.7635825123157
 20
640.85925689451233
 40
0.3318518518518431
  0
CIRCLE
  8
_0-0_計極細
  6
CONTINUOUS
 62
    2
 10
1342.2435825123157
 20
651.07259022784535
 40
0.3318518518518431
  0
CIRCLE
  8
_0-0_計極細
  6
CONTINUOUS
 62
    2
 10
1344.6969158456488
 20
666.05925689451215
 40
0.3318518518518431
  0
LINE
  8
_0-0_計極細
  6
CONTINUOUS
 62
    2
 10
1401.8541069496491
 20
612.12169491209272
 11
1415.3867538128864
 21
625.65434177533041
  0
LINE
  8
_0-0_計極細
  6
CONTINUOUS
 62
    2
 10
1359.4277000784562
 20
612.12169491209272
 11
1375.1726602553233
 21
627.86665508896033
  0
LINE
  8
_0-0_計極細
  6
CONTINUOUS
 62
    2
 10
1396.8801055008933
 20
649.57410033453004
 11
1415.3867537884153
 21
668.08074862205206
  0
LINE
  8
_0-0_計極細
  6
CONTINUOUS
 62
    2
 10
1397.6114662625296
 20
612.12169491209272
 11
1415.3867538104394
 21
629.8969824600025
  0
LINE
  8
_0-0_計極細
  6
CONTINUOUS
 62
    2
 10
1355.1850593913366
 20
612.12169491209272
 11
1370.9300195682042
 21
627.86665508896033
  0
LINE
  8
_0-0_計極細
  6
CONTINUOUS
 62
    2
 10
1396.8801055008933
 20
653.81674102164936
 11
1411.9300194604739
 21
668.86665498123011
  0
LINE
  8
_0-0_計極細
  6
CONTINUOUS
 62
    2
 10
1393.3688255754103
 20
612.12169491209272
 11
1415.3867538079919
 21
634.13962314467437
  0
LINE
  8
_0-0_計極細
  6
CONTINUOUS
 62
    2
 10
1350.9424187042173
 20
612.12169491209272
 11
1366.6873788810847
 21
627.86665508896033
  0
LINE
  8
_0-0_計極細
  6
CONTINUOUS
 62
    2
 10
1396.8801055008933
 20
658.05938170876834
 11
1407.6873788037244
 21
668.86665501159985
  0
LINE
  8
_0-0_計極細
  6
CONTINUOUS
 62
    2
 10
1346.880105500893
 20
627.86665508896033
 11
1346.880105500893
 21
612.12169491209272
  0
LINE
  8
_0-0_計極細
  6
CONTINUOUS
 62
    2
 10
1396.8801055008933
 20
668.86665508896021
 11
1415.3867537879619
 21
668.86665508896021
  0
LINE
  8
_0-0_計極細
  6
CONTINUOUS
 62
    2
 10
1346.880105500893
 20
627.86665508896033
 11
1396.8801055008933
 21
627.86665508896033
  0
LINE
  8
_0-0_計極細
  6
CONTINUOUS
 62
    2
 10
1396.8801055008933
 20
668.86665508896021
 11
1396.8801055008933
 21
627.86665508896033
  0
ARC
  8
_0-1_計細線
  6
CONTINUOUS
 62
    3
 10
1353.8801055008933
 20
675.86665508896033
 40
3.0000000000000004
 50
269.99999999999977
 51
359.99999999999966
  0
LINE
  8
_0-1_計細線
  6
CONTINUOUS
 62
    3
 10
1356.880105500893
 20
675.86665508896033
 11
1356.880105500893
 21
690.36665508896044
  0
LINE
  8
_0-1_計細線
  6
CONTINUOUS
 62
    3
 10
1353.8801055008933
 20
672.86665508896033
 11
1327.3801055008928
 21
672.86665508896033
  0
LINE
  8
_0-1_計細線
  6
CONTINUOUS
 62
    3
 10
1326.880105500893
 20
673.36665508896021
 11
1327.3801055008928
 21
672.86665508896033
  0
LINE
  8
_0-1_計細線
  6
CONTINUOUS
 62
    3
 10
1326.880105500893
 20
675.36665508896033
 11
1326.880105500893
 21
673.36665508896021
  0
LINE
  8
_0-1_計細線
  6
CONTINUOUS
 62
    3
 10
1327.3801055008928
 20
675.86665508896033
 11
1326.880105500893
 21
675.36665508896033
  0
LINE
  8
_0-1_計細線
  6
CONTINUOUS
 62
    3
 10
1353.8801055008933
 20
675.86665508896033
 11
1327.3801055008928
 21
675.86665508896033
  0
LINE
  8
_0-1_計細線
  6
CONTINUOUS
 62
    3
 10
1356.3801055008933
 20
690.86665508896078
 11
1356.880105500893
 21
690.36665508896044
  0
LINE
  8
_0-1_計細線
  6
CONTINUOUS
 62
    3
 10
1354.380105500893
 20
690.86665508896078
 11
1356.3801055008933
 21
690.86665508896078
  0
LINE
  8
_0-1_計細線
  6
CONTINUOUS
 62
    3
 10
1353.8801055008933
 20
690.36665508896044
 11
1354.380105500893
 21
690.86665508896078
  0
LINE
  8
_0-1_計細線
  6
CONTINUOUS
 62
    3
 10
1353.8801055008933
 20
675.86665508896033
 11
1353.8801055008933
 21
690.36665508896044
  0
LINE
  8
_0-1_計細線
  6
CONTINUOUS
 62
    3
 10
1347.880105503199
 20
675.86665508896033
 11
1344.480105503199
 21
675.86665508896033
  0
LINE
  8
_0-1_計細線
  6
CONTINUOUS
 62
    3
 10
1331.0801055030274
 20
675.86665508896033
 11
1327.6801055030271
 21
675.86665508896033
  0
LINE
  8
_0-0_計極細
  6
CENTER1
 62
    2
 10
927.38010550089314
 20
622.90061091828863
 11
927.38010550089314
 21
656.88342399671558
  0
LINE
  8
_0-0_計極細
  6
CONTINUOUS
 62
    2
 10
922.88010550089314
 20
654.31799189794992
 11
922.88010550089314
 21
627.86665508896033
  0
LINE
  8
_0-0_計極細
  6
CONTINUOUS
 62
    2
 10
931.88010550089302
 20
654.31799189794992
 11
922.88010550089314
 21
654.31799189794992
  0
LINE
  8
_0-0_計極細
  6
CONTINUOUS
 62
    2
 10
931.88010550089302
 20
627.86665508896033
 11
931.88010550089302
 21
654.31799189794992
  0
LINE
  8
_0-0_計極細
  6
CENTER1
 62
    2
 10
916.18371388844048
 20
645.94211455598133
 11
954.60232617797999
 21
659.92534584700229
  0
LINE
  8
_0-0_計極細
  6
CONTINUOUS
 62
    2
 10
920.69606456860186
 20
642.79567578646243
 11
953.77067146281047
 21
654.8338482060102
  0
LINE
  8
_0-0_計極細
  6
CONTINUOUS
 62
    2
 10
917.61788327867066
 20
651.25290937353589
 11
950.69249017287973
 21
663.29108179308355
  0
LINE
  8
_0-0_計極細
  6
CONTINUOUS
 62
    2
 10
950.69249017287973
 20
663.29108179308355
 11
953.77067146281047
 21
654.8338482060102
  0
LINE
  8
_0-0_計極細
  6
CONTINUOUS
 62
    2
 10
920.69606456860186
 20
642.79567578646243
 11
917.61788327867066
 21
651.25290937353589
  0
CIRCLE
  8
_0-0_計極細
  6
CONTINUOUS
 62
    2
 10
965.53024917898085
 20
651.80796059821637
 40
1.0953188836088352
  0
CIRCLE
  8
_0-0_計極細
  6
CONTINUOUS
 62
    2
 10
972.9524714012058
 20
616.85505871905468
 40
0.3318518518518431
  0
CIRCLE
  8
_0-0_計極細
  6
CONTINUOUS
 62
    2
 10
972.15247140120539
 20
630.44870133895654
 40
0.3318518518518431
  0
CIRCLE
  8
_0-0_計極細
  6
CONTINUOUS
 62
    2
 10
972.74764501231573
 20
663.2746272648825
 40
1.0953188836088352
  0
LINE
  8
_0-0_計極細
  6
CONTINUOUS
 62
    2
 10
976.88010550089302
 20
672.86665508896033
 11
976.88010550089302
 21
612.12169491209272
  0
LINE
  8
_0-0_計極細
  6
CONTINUOUS
 62
    2
 10
976.38010550089291
 20
672.86665508896033
 11
976.88010550089302
 21
672.86665508896033
  0
CIRCLE
  8
_0-0_計極細
  6
CONTINUOUS
 62
    2
 10
893.19472963347494
 20
681.88796059821561
 40
1.0953188836088352
  0
CIRCLE
  8
_0-0_計極細
  6
CONTINUOUS
 62
    2
 10
965.86358251231627
 20
619.67462726488282
 40
1.0953188836088352
  0
CIRCLE
  8
_0-0_計極細
  6
CONTINUOUS
 62
    2
 10
962.9835825123165
 20
630.87462726488275
 40
1.0953188836088352
  0
CIRCLE
  8
_0-0_計極細
  6
CONTINUOUS
 62
    2
 10
941.3969158456498
 20
633.03462726488283
 40
1.0953188836088352
  0
CIRCLE
  8
_0-0_計極細
  6
CONTINUOUS
 62
    2
 10
909.47691584565018
 20
640.71462726488278
 40
1.0953188836088352
  0
CIRCLE
  8
_0-0_計極細
  6
CONTINUOUS
 62
    2
 10
921.23691584565017
 20
663.51462726488239
 40
1.0953188836088352
  0
CIRCLE
  8
_0-0_計極細
  6
CONTINUOUS
 62
    2
 10
905.31297735812245
 20
681.35239582970121
 40
1.0953188836088352
  0
CIRCLE
  8
_0-0_計極細
  6
CONTINUOUS
 62
    2
 10
936.37024917898339
 20
677.19462726488234
 40
1.0953188836088352
  0
CIRCLE
  8
_0-0_計極細
  6
CONTINUOUS
 62
    2
 10
948.5435825123169
 20
664.00425689451197
 40
0.3318518518518431
  0
CIRCLE
  8
_0-0_計極細
  6
CONTINUOUS
 62
    2
 10
969.69024917898309
 20
646.16425689451205
 40
0.3318518518518431
  0
CIRCLE
  8
_0-0_計極細
  6
CONTINUOUS
 62
    2
 10
969.37024917898327
 20
656.93759022784536
 40
0.3318518518518431
  0
CIRCLE
  8
_0-0_計極細
  6
CONTINUOUS
 62
    2
 10
960.30358251231689
 20
662.91092356117872
 40
0.3318518518518431
  0
CIRCLE
  8
_0-0_計極細
  6
CONTINUOUS
 62
    2
 10
951.45024917898343
 20
642.43092356117904
 40
0.3318518518518431
  0
CIRCLE
  8
_0-0_計極細
  6
CONTINUOUS
 62
    2
 10
961.45024917898343
 20
616.26203467229004
 40
0.3318518518518431
  0
CIRCLE
  8
_0-0_計極細
  6
CONTINUOUS
 62
    2
 10
965.61024917898351
 20
625.22203467228996
 40
0.3318518518518431
  0
CIRCLE
  8
_0-0_計極細
  6
CONTINUOUS
 62
    2
 10
957.39691584565003
 20
634.18203467228989
 40
0.3318518518518431
  0
CIRCLE
  8
_0-0_計極細
  6
CONTINUOUS
 62
    2
 10
949.61024917898339
 20
632.26203467229004
 40
0.3318518518518431
  0
CIRCLE
  8
_0-0_計極細
  6
CONTINUOUS
 62
    2
 10
937.66358251231691
 20
631.62203467229017
 40
0.3318518518518431
  0
CIRCLE
  8
_0-0_計極細
  6
CONTINUOUS
 62
    2
 10
936.06358251231711
 20
638.66203467228991
 40
0.3318518518518431
  0
CIRCLE
  8
_0-0_計極細
  6
CONTINUOUS
 62
    2
 10
942.7835825123168
 20
641.96870133895675
 40
0.3318518518518431
  0
CIRCLE
  8
_0-0_計極細
  6
CONTINUOUS
 62
    2
 10
919.20358251231687
 20
631.2353680056234
 40
0.3318518518518431
  0
CIRCLE
  8
_0-0_計極細
  6
CONTINUOUS
 62
    2
 10
915.47024917898386
 20
636.3553680056234
 40
0.3318518518518431
  0
CIRCLE
  8
_0-0_計極細
  6
CONTINUOUS
 62
    2
 10
910.24358251231683
 20
632.30203467229001
 40
0.3318518518518431
  0
CIRCLE
  8
_0-0_計極細
  6
CONTINUOUS
 62
    2
 10
913.65691584565025
 20
643.0753680056232
 40
0.3318518518518431
  0
CIRCLE
  8
_0-0_計極細
  6
CONTINUOUS
 62
    2
 10
921.89691584565048
 20
654.96870133895652
 40
0.3318518518518431
  0
CIRCLE
  8
_0-0_計極細
  6
CONTINUOUS
 62
    2
 10
930.75024917898361
 20
663.0753680056232
 40
0.3318518518518431
  0
CIRCLE
  8
_0-0_計極細
  6
CONTINUOUS
 62
    2
 10
938.32358251231676
 20
666.48870133895628
 40
0.3318518518518431
  0
CIRCLE
  8
_0-0_計極細
  6
CONTINUOUS
 62
    2
 10
923.28358251231691
 20
668.72870133895663
 40
0.3318518518518431
  0
CIRCLE
  8
_0-0_計極細
  6
CONTINUOUS
 62
    2
 10
911.01691584565049
 20
669.47536800562307
 40
0.3318518518518431
  0
CIRCLE
  8
_0-0_計極細
  6
CONTINUOUS
 62
    2
 10
927.33024917898342
 20
676.81536800562287
 40
0.3318518518518431
  0
CIRCLE
  8
_0-0_計極細
  6
CONTINUOUS
 62
    2
 10
942.26358251231682
 20
677.13536800562315
 40
0.3318518518518431
  0
CIRCLE
  8
_0-0_計極細
  6
CONTINUOUS
 62
    2
 10
906.85024917898386
 20
673.82870133895653
 40
0.3318518518518431
  0
CIRCLE
  8
_0-0_計極細
  6
CONTINUOUS
 62
    2
 10
892.91247140120618
 20
672.01536800562326
 40
0.3318518518518431
  0
CIRCLE
  8
_0-0_計極細
  6
CONTINUOUS
 62
    2
 10
899.11098991972449
 20
677.98870133895639
 40
0.3318518518518431
  0
LINE
  8
_0-0_計極細
  6
CONTINUOUS
 62
    2
 10
934.42692076189917
 20
612.1216949819551
 11
950.17188086890451
 21
627.86665508896033
  0
LINE
  8
_0-0_計極細
  6
CONTINUOUS
 62
    2
 10
892.00051402271424
 20
612.12169511396303
 11
907.74547399771177
 21
627.86665508896033
  0
LINE
  8
_0-0_計極細
  6
CONTINUOUS
 62
    2
 10
888.37345721382417
 20
650.92104517626569
 11
906.3190671265188
 21
668.86665508896021
  0
LINE
  8
_0-0_計極細
  6
CONTINUOUS
 62
    2
 10
930.18428008798071
 20
612.12169499515574
 11
945.92924018178519
 21
627.86665508896033
  0
LINE
  8
_0-0_計極細
  6
CONTINUOUS
 62
    2
 10
888.37345721382417
 20
612.73727899219227
 11
906.88010550089291
 21
631.2439272792609
  0
LINE
  8
_0-0_計極細
  6
CONTINUOUS
 62
    2
 10
888.37345721382417
 20
655.16368586338501
 11
902.07642643939948
 21
668.86665508896021
  0
LINE
  8
_0-0_計極細
  6
CONTINUOUS
 62
    2
 10
925.94163941406237
 20
612.12169500835648
 11
941.68659949466587
 21
627.86665508896033
  0
LINE
  8
_0-0_計極細
  6
CONTINUOUS
 62
    2
 10
888.37345721382417
 20
616.97991967931114
 11
906.88010550089291
 21
635.48656796638033
  0
LINE
  8
_0-0_計極細
  6
CONTINUOUS
 62
    2
 10
888.37345721382417
 20
659.4063265505041
 11
897.83378575228028
 21
668.86665508896021
  0
LINE
  8
_0-0_計極細
  6
CONTINUOUS
 62
    2
 10
956.88010550089291
 20
627.86665508896033
 11
956.88010550089291
 21
612.12169491209272
  0
LINE
  8
_0-0_計極細
  6
CONTINUOUS
 62
    2
 10
906.88010550089291
 20
668.86665508896021
 11
888.37345721382417
 21
668.86665508896021
  0
LINE
  8
_0-0_計極細
  6
CONTINUOUS
 62
    2
 10
956.88010550089291
 20
627.86665508896033
 11
906.88010550089291
 21
627.86665508896033
  0
LINE
  8
_0-0_計極細
  6
CONTINUOUS
 62
    2
 10
906.88010550089291
 20
668.86665508896021
 11
906.88010550089291
 21
627.86665508896033
  0
ARC
  8
_0-1_計細線
  6
CONTINUOUS
 62
    3
 10
949.88010550089314
 20
675.86665508896033
 40
3.0000000000000004
 50
179.99999999999983
 51
269.99999999999977
  0
LINE
  8
_0-1_計細線
  6
CONTINUOUS
 62
    3
 10
946.88010550089302
 20
675.86665508896033
 11
946.88010550089302
 21
690.36665508896044
  0
LINE
  8
_0-1_計細線
  6
CONTINUOUS
 62
    3
 10
949.88010550089314
 20
672.86665508896033
 11
976.38010550089291
 21
672.86665508896033
  0
LINE
  8
_0-1_計細線
  6
CONTINUOUS
 62
    3
 10
976.88010550089302
 20
673.36665508896021
 11
976.38010550089291
 21
672.86665508896033
  0
LINE
  8
_0-1_計細線
  6
CONTINUOUS
 62
    3
 10
976.88010550089302
 20
675.36665508896033
 11
976.88010550089302
 21
673.36665508896021
  0
LINE
  8
_0-1_計細線
  6
CONTINUOUS
 62
    3
 10
976.38010550089291
 20
675.86665508896033
 11
976.88010550089302
 21
675.36665508896033
  0
LINE
  8
_0-1_計細線
  6
CONTINUOUS
 62
    3
 10
949.88010550089314
 20
675.86665508896033
 11
976.38010550089291
 21
675.86665508896033
  0
LINE
  8
_0-1_計細線
  6
CONTINUOUS
 62
    3
 10
947.3801055008928
 20
690.86665508896078
 11
946.88010550089302
 21
690.36665508896044
  0
LINE
  8
_0-1_計細線
  6
CONTINUOUS
 62
    3
 10
949.38010550089291
 20
690.86665508896078
 11
947.3801055008928
 21
690.86665508896078
  0
LINE
  8
_0-1_計細線
  6
CONTINUOUS
 62
    3
 10
949.88010550089314
 20
690.36665508896044
 11
949.38010550089291
 21
690.86665508896078
  0
LINE
  8
_0-1_計細線
  6
CONTINUOUS
 62
    3
 10
949.88010550089314
 20
675.86665508896033
 11
949.88010550089314
 21
690.36665508896044
  0
LINE
  8
_0-1_計細線
  6
CONTINUOUS
 62
    3
 10
959.28010549944588
 20
675.86665508896033
 11
955.88010549944579
 21
675.86665508896033
  0
LINE
  8
_0-1_計細線
  6
CONTINUOUS
 62
    3
 10
972.68010549875908
 20
675.86665508896033
 11
976.08010549875894
 21
675.86665508896033
  0
LINE
  8
_0-5_寸法線
  6
CONTINUOUS
 62
    7
 10
946.88010550089302
 20
639.86665508896056
 11
946.88010550089291
 21
575.54415513684978
  0
LINE
  8
_0-5_寸法線
  6
CONTINUOUS
 62
    7
 10
946.88010550089291
 20
580.54415513684978
 11
956.53936376378351
 21
583.13234558787497
  0
LINE
  8
_0-5_寸法線
  6
CONTINUOUS
 62
    7
 10
946.88010550089291
 20
580.54415513684978
 11
956.53936376378351
 21
577.9559646858246
  0
LINE
  8
_0-5_寸法線
  6
CONTINUOUS
 62
    7
 10
976.88010550089302
 20
602.12169491209272
 11
976.88010550089291
 21
575.54415513684978
  0
LINE
  8
_0-5_寸法線
  6
CONTINUOUS
 62
    7
 10
976.88010550089291
 20
580.54415513684978
 11
967.22084723800208
 21
577.9559646858246
  0
LINE
  8
_0-5_寸法線
  6
CONTINUOUS
 62
    7
 10
976.88010550089291
 20
580.54415513684978
 11
967.22084723800208
 21
583.13234558787497
  0
LINE
  8
_0-5_寸法線
  6
CONTINUOUS
 62
    7
 10
946.88010550089291
 20
580.54415513684978
 11
976.88010550089291
 21
580.54415513684978
  0
TEXT
  8
_0-5_寸法線
 62
    7
 10
954.38010550089291
 20
580.54415513684978
 40
15
 41
1
 50
0
  1
30
  0
LINE
  8
_0-5_寸法線
  6
CONTINUOUS
 62
    7
 10
976.88010550089291
 20
580.54415513684978
 11
986.53936376378351
 21
583.13234558787497
  0
LINE
  8
_0-5_寸法線
  6
CONTINUOUS
 62
    7
 10
976.88010550089291
 20
580.54415513684978
 11
986.53936376378351
 21
577.95596468582448
  0
LINE
  8
_0-5_寸法線
  6
CONTINUOUS
 62
    7
 10
1326.880105500893
 20
602.12169491209272
 11
1326.8801055008928
 21
575.54415513684978
  0
LINE
  8
_0-5_寸法線
  6
CONTINUOUS
 62
    7
 10
1326.8801055008928
 20
580.54415513684978
 11
1317.2208472380021
 21
577.9559646858246
  0
LINE
  8
_0-5_寸法線
  6
CONTINUOUS
 62
    7
 10
1326.8801055008928
 20
580.54415513684978
 11
1317.2208472380021
 21
583.13234558787497
  0
LINE
  8
_0-5_寸法線
  6
CONTINUOUS
 62
    7
 10
976.88010550089291
 20
580.54415513684978
 11
1326.8801055008928
 21
580.54415513684978
  0
TEXT
  8
_0-5_寸法線
 62
    7
 10
1144.3801055008928
 20
580.54415513684978
 40
15
 41
1
 50
0
  1
Ｂ
  0
LINE
  8
_0-5_寸法線
  6
CONTINUOUS
 62
    7
 10
1326.8801055008928
 20
580.54415513684978
 11
1336.5393637637837
 21
583.13234558787497
  0
LINE
  8
_0-5_寸法線
  6
CONTINUOUS
 62
    7
 10
1326.8801055008928
 20
580.54415513684978
 11
1336.5393637637837
 21
577.95596468582448
  0
LINE
  8
_0-5_寸法線
  6
CONTINUOUS
 62
    7
 10
1356.880105500893
 20
639.86665508896056
 11
1356.8801055008928
 21
575.54415513684978
  0
LINE
  8
_0-5_寸法線
  6
CONTINUOUS
 62
    7
 10
1356.8801055008928
 20
580.54415513684978
 11
1347.2208472380021
 21
577.9559646858246
  0
LINE
  8
_0-5_寸法線
  6
CONTINUOUS
 62
    7
 10
1356.8801055008928
 20
580.54415513684978
 11
1347.2208472380021
 21
583.13234558787497
  0
LINE
  8
_0-5_寸法線
  6
CONTINUOUS
 62
    7
 10
1326.8801055008928
 20
580.54415513684978
 11
1356.8801055008928
 21
580.54415513684978
  0
TEXT
  8
_0-5_寸法線
 62
    7
 10
1334.3801055008928
 20
580.54415513684978
 40
15
 41
1
 50
0
  1
30
  0
LINE
  8
_0-0_計極細
  6
CENTER1
 62
    2
 10
1151.880105500893
 20
669.5551796564904
 11
1151.880105500893
 21
702.62517965649477
  0
LINE
  8
_0-1_計細線
  6
CONTINUOUS
 62
    3
 10
1348.8801055008926
 20
675.86665508896101
 11
1348.8801055008926
 21
690.86665508896135
  0
LINE
  8
_0-1_計細線
  6
CONTINUOUS
 62
    3
 10
1348.8801055008926
 20
690.86665508896135
 11
1351.8801055008928
 21
690.86665508896135
  0
LINE
  8
_0-1_計細線
  6
CONTINUOUS
 62
    3
 10
1351.8801055008928
 20
690.86665508896135
 11
1351.8801055008928
 21
675.86665508896101
  0
LINE
  8
_0-1_計細線
  6
CONTINUOUS
 62
    3
 10
1351.8801055008928
 20
675.86665508896101
 11
1348.8801055008926
 21
675.86665508896101
  0
LINE
  8
_0-1_計細線
  6
CONTINUOUS
 62
    3
 10
954.88010550089314
 20
675.86665508896033
 11
954.88010550089314
 21
690.86665508896078
  0
LINE
  8
_0-1_計細線
  6
CONTINUOUS
 62
    3
 10
954.88010550089314
 20
690.86665508896078
 11
951.88010550089302
 21
690.86665508896078
  0
LINE
  8
_0-1_計細線
  6
CONTINUOUS
 62
    3
 10
951.88010550089302
 20
690.86665508896078
 11
951.88010550089302
 21
675.86665508896033
  0
LINE
  8
_0-1_計細線
  6
CONTINUOUS
 62
    3
 10
951.88010550089302
 20
675.86665508896033
 11
954.88010550089314
 21
675.86665508896033
  0
LINE
  8
_0-1_計細線
  6
CONTINUOUS
 62
    3
 10
954.88010550089314
 20
675.86665508896033
 11
1348.8801055008926
 21
675.86665508896101
  0
LINE
  8
_0-5_寸法線
  6
CONTINUOUS
 62
    7
 10
1144.2196610697033
 20
682.29453118582614
 11
1116.4805524894136
 21
705.57040696473382
  0
LINE
  8
_0-5_寸法線
  6
CONTINUOUS
 62
    7
 10
1120.3107747050085
 20
702.35646891630108
 11
1117.7225842539833
 21
712.0157271791918
  0
LINE
  8
_0-5_寸法線
  6
CONTINUOUS
 62
    7
 10
1120.3107747050085
 20
702.35646891630108
 11
1122.8989651560337
 21
712.0157271791918
  0
LINE
  8
_0-5_寸法線
  6
CONTINUOUS
 62
    7
 10
1144.2196610697033
 20
697.29453118582637
 11
1116.4805524894136
 21
720.57040696473427
  0
LINE
  8
_0-5_寸法線
  6
CONTINUOUS
 62
    7
 10
1120.3107747050085
 20
717.35646891630142
 11
1122.8989651560337
 21
707.69721065341071
  0
LINE
  8
_0-5_寸法線
  6
CONTINUOUS
 62
    7
 10
1120.3107747050085
 20
717.35646891630142
 11
1117.7225842539833
 21
707.69721065341071
  0
LINE
  8
_0-5_寸法線
  6
CONTINUOUS
 62
    7
 10
1120.3107747050085
 20
702.35646891630108
 11
1120.3107747050085
 21
717.35646891630142
  0
TEXT
  8
_0-5_寸法線
 62
    7
 10
1120.3107747050085
 20
702.30332443300927
 40
15
 41
1
 50
90
  1
15
  0
LINE
  8
_0-5_寸法線
  6
CONTINUOUS
 62
    7
 10
946.88010550089302
 20
700.36665508896044
 11
946.88010550089348
 21
850.86665508896078
  0
LINE
  8
_0-5_寸法線
  6
CONTINUOUS
 62
    7
 10
946.88010550089348
 20
845.86665508896078
 11
956.53936376378408
 21
848.45484553998585
  0
LINE
  8
_0-5_寸法線
  6
CONTINUOUS
 62
    7
 10
946.88010550089348
 20
845.86665508896078
 11
956.53936376378408
 21
843.27846463793549
  0
LINE
  8
_0-5_寸法線
  6
CONTINUOUS
 62
    7
 10
1356.8801055008935
 20
700.36665508896044
 11
1356.8801055008939
 21
850.86665508896078
  0
LINE
  8
_0-5_寸法線
  6
CONTINUOUS
 62
    7
 10
1356.8801055008939
 20
845.86665508896078
 11
1347.220847238003
 21
843.27846463793549
  0
LINE
  8
_0-5_寸法線
  6
CONTINUOUS
 62
    7
 10
1356.8801055008939
 20
845.86665508896078
 11
1347.220847238003
 21
848.45484553998585
  0
LINE
  8
_0-5_寸法線
  6
CONTINUOUS
 62
    7
 10
946.88010550089348
 20
845.86665508896078
 11
1356.8801055008939
 21
845.86665508896078
  0
TEXT
  8
_0-5_寸法線
 62
    7
 10
1144.3801055008933
 20
845.86665508896078
 40
15
 41
1
 50
0
  1
Ｗ
  0
LINE
  8
_0-5_寸法線
  6
CONTINUOUS
 62
    7
 10
946.88010550089314
 20
810.86665508896078
 11
937.22084723800253
 21
808.27846463793549
  0
LINE
  8
_0-5_寸法線
  6
CONTINUOUS
 62
    7
 10
946.88010550089314
 20
810.86665508896078
 11
937.22084723800253
 21
813.45484553998585
  0
LINE
  8
_0-5_寸法線
  6
CONTINUOUS
 62
    7
 10
949.88010550089314
 20
700.36665508896044
 11
949.88010550089314
 21
815.86665508896078
  0
LINE
  8
_0-5_寸法線
  6
CONTINUOUS
 62
    7
 10
921.88010550089314
 20
810.86665508896078
 11
949.88010550089314
 21
810.86665508896078
  0
TEXT
  8
_0-5_寸法線
 62
    7
 10
932.14016323990847
 20
810.86665508896078
 40
15
 41
1
 50
0
  1
3
  0
LINE
  8
_0-5_寸法線
  6
CONTINUOUS
 62
    7
 10
949.88010550089314
 20
810.86665508896078
 11
959.53936376378397
 21
813.45484553998585
  0
LINE
  8
_0-5_寸法線
  6
CONTINUOUS
 62
    7
 10
949.88010550089314
 20
810.86665508896078
 11
959.53936376378397
 21
808.27846463793549
  0
LINE
  8
_0-5_寸法線
  6
CONTINUOUS
 62
    7
 10
1353.8801055008935
 20
700.36665508896044
 11
1353.8801055008937
 21
815.86665508896078
  0
LINE
  8
_0-5_寸法線
  6
CONTINUOUS
 62
    7
 10
1353.8801055008937
 20
810.86665508896078
 11
1344.220847238003
 21
808.27846463793549
  0
LINE
  8
_0-5_寸法線
  6
CONTINUOUS
 62
    7
 10
1353.8801055008937
 20
810.86665508896078
 11
1344.220847238003
 21
813.45484553998585
  0
LINE
  8
_0-5_寸法線
  6
CONTINUOUS
 62
    7
 10
949.88010550089314
 20
810.86665508896078
 11
1353.8801055008937
 21
810.86665508896078
  0
TEXT
  8
_0-5_寸法線
 62
    7
 10
1136.8801055008935
 20
810.86665508896078
 40
15
 41
1
 50
0
  1
Ｗ-6
  0
LINE
  8
_0-5_寸法線
  6
CONTINUOUS
 62
    7
 10
1356.8801055008939
 20
810.86665508896078
 11
1366.5393637637844
 21
813.45484553998585
  0
LINE
  8
_0-5_寸法線
  6
CONTINUOUS
 62
    7
 10
1356.8801055008939
 20
810.86665508896078
 11
1366.5393637637844
 21
808.27846463793549
  0
LINE
  8
_0-5_寸法線
  6
CONTINUOUS
 62
    7
 10
1353.8801055008937
 20
810.86665508896078
 11
1381.8801055008939
 21
810.86665508896078
  0
TEXT
  8
_0-5_寸法線
 62
    7
 10
1365.8438669436132
 20
810.86665508896078
 40
15
 41
1
 50
0
  1
3
  0
LINE
  8
_0-5_寸法線
  6
CONTINUOUS
 62
    7
 10
1351.880105500893
 20
700.36665508896124
 11
1351.880105500893
 21
780.86665508896078
  0
LINE
  8
_0-5_寸法線
  6
CONTINUOUS
 62
    7
 10
1351.880105500893
 20
775.86665508896078
 11
1342.2208472380023
 21
773.27846463793549
  0
LINE
  8
_0-5_寸法線
  6
CONTINUOUS
 62
    7
 10
1351.880105500893
 20
775.86665508896078
 11
1342.2208472380023
 21
778.45484553998585
  0
LINE
  8
_0-5_寸法線
  6
CONTINUOUS
 62
    7
 10
951.88010550089359
 20
700.36665508896044
 11
951.88010550089359
 21
780.86665508896078
  0
LINE
  8
_0-5_寸法線
  6
CONTINUOUS
 62
    7
 10
951.88010550089359
 20
775.86665508896078
 11
961.53936376378419
 21
778.45484553998585
  0
LINE
  8
_0-5_寸法線
  6
CONTINUOUS
 62
    7
 10
951.88010550089359
 20
775.86665508896078
 11
961.53936376378419
 21
773.27846463793549
  0
LINE
  8
_0-5_寸法線
  6
CONTINUOUS
 62
    7
 10
1351.880105500893
 20
775.86665508896078
 11
951.88010550089359
 21
775.86665508896078
  0
TEXT
  8
_0-5_寸法線
 62
    7
 10
1144.3801055008933
 20
775.86665508895976
 40
15
 41
1
 50
0
  1
Ａ
  0
LINE
  8
_0-5_寸法線
  6
CONTINUOUS
 62
    7
 10
951.88010550089302
 20
700.86665508896078
 11
951.88010550089314
 21
745.86665508896078
  0
LINE
  8
_0-5_寸法線
  6
CONTINUOUS
 62
    7
 10
951.88010550089314
 20
740.86665508896078
 11
961.53936376378397
 21
743.45484553998585
  0
LINE
  8
_0-5_寸法線
  6
CONTINUOUS
 62
    7
 10
951.88010550089314
 20
740.86665508896078
 11
961.53936376378397
 21
738.27846463793549
  0
LINE
  8
_0-5_寸法線
  6
CONTINUOUS
 62
    7
 10
1351.8801055008928
 20
700.86665508896078
 11
1351.8801055008928
 21
745.86665508896078
  0
LINE
  8
_0-5_寸法線
  6
CONTINUOUS
 62
    7
 10
1351.8801055008928
 20
740.86665508896078
 11
1342.2208472380019
 21
738.27846463793549
  0
LINE
  8
_0-5_寸法線
  6
CONTINUOUS
 62
    7
 10
1351.8801055008928
 20
740.86665508896078
 11
1342.2208472380019
 21
743.45484553998585
  0
LINE
  8
_0-5_寸法線
  6
CONTINUOUS
 62
    7
 10
951.88010550089314
 20
740.86665508896078
 11
1351.8801055008928
 21
740.86665508896078
  0
TEXT
  8
_0-5_寸法線
 62
    7
 10
1144.3801055008928
 20
740.86665508896078
 40
15
 41
1
 50
0
  1
Ｐ
  0
ARC
  8
_0-a_極細3
  6
CONTINUOUS
 62
    7
 10
275.06640902797471
 20
227.06882754097805
 40
21.070607518177617
 50
150.03871396148168
 51
205.2381040238788
  0
ARC
  8
_0-a_極細3
  6
CONTINUOUS
 62
    7
 10
236.94783880009695
 20
209.10061648582115
 40
21.070607518177617
 50
330.03871396148202
 51
25.238104023878375
  0
ARC
  8
_0-a_極細3
  6
CONTINUOUS
 62
    7
 10
376.07098949476676
 20
227.06882754097805
 40
21.070607518177617
 50
150.03871396148168
 51
205.2381040238788
  0
ARC
  8
_0-a_極細3
  6
CONTINUOUS
 62
    7
 10
337.95241926688902
 20
209.10061648582115
 40
21.070607518177617
 50
330.03871396148202
 51
25.238104023878375
  0
LINE
  8
_0-b_細線3
  6
CONTINUOUS
 62
    7
 10
254.4495538197055
 20
231.41805534673264
 11
355.45413428649761
 21
231.41805534673264
  0
LINE
  8
_0-b_細線3
  6
CONTINUOUS
 62
    7
 10
257.84698631668562
 20
206.41805534673267
 11
358.85156678347767
 21
206.41805534673267
  0
ARC
  8
_0-b_細線3
  6
CONTINUOUS
 62
    7
 10
255.51464209578626
 20
219.05694423562025
 40
9.0277777777790185
 50
59.489762593888869
 51
99.564391257544031
  0
ARC
  8
_0-b_細線3
  6
CONTINUOUS
 62
    7
 10
255.51464209578626
 20
217.11249979117753
 40
9.0277777777790185
 50
286.03250273367439
 51
300.51023740611078
  0
ARC
  8
_0-b_細線3
  6
CONTINUOUS
 62
    7
 10
354.2646420957862
 20
222.32083312451238
 40
14.236111111113132
 50
245.81048584598025
 51
289.52283577552919
  0
ARC
  8
_0-b_細線3
  6
CONTINUOUS
 62
    7
 10
354.2646420957862
 20
213.84861090228611
 40
14.236111111113132
 50
86.942707399406814
 51
114.18951415401928
  0
LINE
  8
_0-a_極細3
  6
CENTER1
 62
    7
 10
250.15806431946208
 20
218.08472201339924
 11
363.57150739216468
 21
218.08472201339924
  0
TEXT
  8
_0-7_枠細線
 62
    5
 10
261.67649784147761
 20
115.70578772854788
 40
25.000000000000007
 41
0.8
 50
0
  1
側面詳細
  0
TEXT
  8
_0-7_枠細線
 62
    5
 10
1005.9999999999991
 20
422.76107767489867
 40
15
 41
0.8000000000000001
 50
0
  1
品　　番
  0
TEXT
  8
_0-7_枠細線
 62
    5
 10
943.99999999999966
 20
422.76107767489867
 40
15
 41
0.8000000000000001
 50
0
  1
Ｂ
  0
TEXT
  8
_0-7_枠細線
 62
    5
 10
931.9601466049329
 20
447.76107767489867
 40
17.5
 41
1
 50
0
  1
品番寸法表
  0
TEXT
  8
_0-7_枠細線
 62
    5
 10
1153.9999999999982
 20
422.76107767489867
 40
15
 41
0.8000000000000001
 50
0
  1
Ｌ
  0
TEXT
  8
_0-7_枠細線
 62
    5
 10
1103.9999999999989
 20
422.76107767489867
 40
15
 41
0.8000000000000001
 50
0
  1
Ａ
  0
TEXT
  8
_0-7_枠細線
 62
    5
 10
938.74999999999989
 20
372.76107767489907
 40
15
 41
1
 50
0
  1
300
  0
TEXT
  8
_0-7_枠細線
 62
    5
 10
938.74999999999989
 20
347.7610776748989
 40
15
 41
1
 50
0
  1
350
  0
TEXT
  8
_0-7_枠細線
 62
    5
 10
938.74999999999989
 20
322.76107767489884
 40
15
 41
1
 50
0
  1
400
  0
TEXT
  8
_0-7_枠細線
 62
    5
 10
938.74999999999989
 20
397.7610776748989
 40
15
 41
1
 50
0
  1
250
  0
TEXT
  8
_0-7_枠細線
 62
    5
 10
938.74999999999989
 20
297.7610776748989
 40
15
 41
1
 50
0
  1
450
  0
TEXT
  8
_0-7_枠細線
 62
    5
 10
1302.999999999995
 20
417.76107767489867
 40
12.5
 41
0.9600000000000001
 50
0
  1
重量
  0
TEXT
  8
_0-7_枠細線
 62
    5
 10
1253.9999999999964
 20
422.76107767489867
 40
15
 41
0.8000000000000001
 50
0
  1
Ｗ
  0
TEXT
  8
_0-7_枠細線
 62
    5
 10
1290.9999999999955
 20
430.26107767489867
 40
12.5
 41
0.9600000000000001
 50
0
  1
ｸﾞﾚｰﾁﾝｸﾞ
  0
LINE
  8
_0-7_枠細線
  6
CONTINUOUS
 62
    5
 10
925
 20
442.76107767489867
 11
1404.9999999999941
 21
442.76107767489867
  0
LINE
  8
_0-7_枠細線
  6
CONTINUOUS
 62
    5
 10
925
 20
417.76107767489867
 11
1404.9999999999941
 21
417.76107767489867
  0
TEXT
  8
_0-7_枠細線
 62
    5
 10
1203.999999999997
 20
422.76107767489867
 40
15
 41
0.8000000000000001
 50
0
  1
Ｐ
  0
TEXT
  8
_0-7_枠細線
 62
    5
 10
1352.6814814814761
 20
422.76107767489867
 40
15
 41
0.8000000000000001
 50
0
  1
適用荷重
  0
LINE
  8
_0-7_枠細線
  6
CONTINUOUS
 62
    5
 10
925
 20
317.76107767489867
 11
1344.9999999999952
 21
317.76107767489867
  0
LINE
  8
_0-7_枠細線
  6
CONTINUOUS
 62
    5
 10
925
 20
392.76107767489884
 11
1344.9999999999952
 21
392.76107767489884
  0
LINE
  8
_0-7_枠細線
  6
CONTINUOUS
 62
    5
 10
925
 20
367.7610776748989
 11
1344.9999999999952
 21
367.7610776748989
  0
LINE
  8
_0-7_枠細線
  6
CONTINUOUS
 62
    5
 10
925
 20
342.76107767489884
 11
1344.9999999999952
 21
342.76107767489884
  0
LINE
  8
_0-7_枠細線
  6
CONTINUOUS
 62
    5
 10
925
 20
267.76107767489867
 11
1344.9999999999952
 21
267.76107767489867
  0
LINE
  8
_0-7_枠細線
  6
CONTINUOUS
 62
    5
 10
925
 20
292.76107767489879
 11
1344.9999999999952
 21
292.76107767489879
  0
TEXT
  8
_0-7_枠細線
 62
    5
 10
938.74999999999989
 20
272.76107767489879
 40
15
 41
1
 50
0
  1
500
  0
TEXT
  8
_0-7_枠細線
 62
    5
 10
938.74999999999989
 20
247.7610776748989
 40
15
 41
1
 50
0
  1
550
  0
LINE
  8
_0-7_枠細線
  6
CONTINUOUS
 62
    5
 10
925
 20
217.7610776748989
 11
1404.9999999999941
 21
217.7610776748989
  0
LINE
  8
_0-7_枠細線
  6
CONTINUOUS
 62
    5
 10
925
 20
442.76107767489867
 11
925
 21
217.7610776748989
  0
LINE
  8
_0-7_枠細線
  6
CONTINUOUS
 62
    5
 10
974.99999999999943
 20
442.76107767489867
 11
974.99999999999943
 21
217.7610776748989
  0
LINE
  8
_0-7_枠細線
  6
CONTINUOUS
 62
    5
 10
1084.9999999999995
 20
442.76107767489867
 11
1084.9999999999995
 21
217.7610776748989
  0
LINE
  8
_0-7_枠細線
  6
CONTINUOUS
 62
    5
 10
1134.9999999999986
 20
442.76107767489867
 11
1134.9999999999986
 21
217.7610776748989
  0
LINE
  8
_0-7_枠細線
  6
CONTINUOUS
 62
    5
 10
1184.9999999999977
 20
442.76107767489867
 11
1184.9999999999977
 21
217.7610776748989
  0
LINE
  8
_0-7_枠細線
  6
CONTINUOUS
 62
    5
 10
1344.9999999999952
 20
442.76107767489867
 11
1344.9999999999952
 21
217.7610776748989
  0
LINE
  8
_0-7_枠細線
  6
CONTINUOUS
 62
    5
 10
1284.9999999999959
 20
442.76107767489867
 11
1284.9999999999959
 21
217.7610776748989
  0
LINE
  8
_0-7_枠細線
  6
CONTINUOUS
 62
    5
 10
1234.9999999999968
 20
442.76107767489867
 11
1234.9999999999968
 21
217.7610776748989
  0
LINE
  8
_0-7_枠細線
  6
CONTINUOUS
 62
    5
 10
1404.9999999999941
 20
442.76107767489867
 11
1404.9999999999941
 21
217.7610776748989
  0
LINE
  8
_0-7_枠細線
  6
CONTINUOUS
 62
    5
 10
925
 20
242.76107767489879
 11
1344.9999999999952
 21
242.76107767489879
  0
TEXT
  8
_0-7_枠細線
 62
    5
 10
1352.877777777778
 20
320.83801419444774
 40
15
 41
1
 50
0
  1
歩道用
  0
TEXT
  8
_0-7_枠細線
 62
    5
 10
1340.8777777777775
 20
300.83801419444768
 40
15
 41
0.7666666666666667
 50
0
  1
（5.0kN/㎡）
  0
TEXT
  8
_0-7_枠細線
 62
    5
 10
938.74999999999989
 20
222.76107767489904
 40
15
 41
1
 50
0
  1
600
  0
TEXT
  8
_0-7_枠細線
 62
    5
 10
1098.7499999999995
 20
397.7610776748989
 40
15
 41
1
 50
0
  1
300
  0
TEXT
  8
_0-7_枠細線
 62
    5
 10
1098.7499999999995
 20
372.76107767489907
 40
15
 41
1
 50
0
  1
350
  0
TEXT
  8
_0-7_枠細線
 62
    5
 10
1098.7499999999995
 20
347.7610776748989
 40
15
 41
1
 50
0
  1
400
  0
TEXT
  8
_0-7_枠細線
 62
    5
 10
1098.7499999999995
 20
322.76107767489884
 40
15
 41
1
 50
0
  1
450
  0
TEXT
  8
_0-7_枠細線
 62
    5
 10
1148.7499999999984
 20
397.7610776748989
 40
15
 41
1
 50
0
  1
300
  0
TEXT
  8
_0-7_枠細線
 62
    5
 10
1148.7499999999984
 20
372.76107767489907
 40
15
 41
1
 50
0
  1
350
  0
TEXT
  8
_0-7_枠細線
 62
    5
 10
1148.7499999999984
 20
347.7610776748989
 40
15
 41
1
 50
0
  1
400
  0
TEXT
  8
_0-7_枠細線
 62
    5
 10
1148.7499999999984
 20
322.76107767489884
 40
15
 41
1
 50
0
  1
450
  0
TEXT
  8
_0-7_枠細線
 62
    5
 10
1098.7499999999995
 20
297.7610776748989
 40
15
 41
1
 50
0
  1
500
  0
TEXT
  8
_0-7_枠細線
 62
    5
 10
1098.7499999999995
 20
272.76107767489907
 40
15
 41
1
 50
0
  1
550
  0
TEXT
  8
_0-7_枠細線
 62
    5
 10
1098.7499999999995
 20
247.7610776748989
 40
15
 41
1
 50
0
  1
600
  0
TEXT
  8
_0-7_枠細線
 62
    5
 10
1098.7499999999995
 20
222.76107767489879
 40
15
 41
1
 50
0
  1
650
  0
TEXT
  8
_0-7_枠細線
 62
    5
 10
1148.7499999999984
 20
297.7610776748989
 40
15
 41
1
 50
0
  1
500
  0
TEXT
  8
_0-7_枠細線
 62
    5
 10
1148.7499999999984
 20
272.76107767489907
 40
15
 41
1
 50
0
  1
550
  0
TEXT
  8
_0-7_枠細線
 62
    5
 10
1148.7499999999984
 20
247.7610776748989
 40
15
 41
1
 50
0
  1
600
  0
TEXT
  8
_0-7_枠細線
 62
    5
 10
1148.7499999999984
 20
222.76107767489879
 40
15
 41
1
 50
0
  1
650
  0
TEXT
  8
_0-7_枠細線
 62
    5
 10
1248.7499999999964
 20
397.7610776748989
 40
15
 41
1
 50
0
  1
310
  0
TEXT
  8
_0-7_枠細線
 62
    5
 10
1248.7499999999964
 20
372.76107767489907
 40
15
 41
1
 50
0
  1
360
  0
TEXT
  8
_0-7_枠細線
 62
    5
 10
1248.7499999999964
 20
347.7610776748989
 40
15
 41
1
 50
0
  1
410
  0
TEXT
  8
_0-7_枠細線
 62
    5
 10
1248.7499999999964
 20
322.76107767489884
 40
15
 41
1
 50
0
  1
460
  0
TEXT
  8
_0-7_枠細線
 62
    5
 10
1248.7499999999964
 20
297.7610776748989
 40
15
 41
1
 50
0
  1
510
  0
TEXT
  8
_0-7_枠細線
 62
    5
 10
1248.7499999999964
 20
272.76107767489907
 40
15
 41
1
 50
0
  1
560
  0
TEXT
  8
_0-7_枠細線
 62
    5
 10
1248.7499999999964
 20
247.7610776748989
 40
15
 41
1
 50
0
  1
610
  0
TEXT
  8
_0-7_枠細線
 62
    5
 10
1248.7499999999964
 20
222.76107767489879
 40
15
 41
1
 50
0
  1
660
  0
TEXT
  8
_0-7_枠細線
 62
    5
 10
1296.2499999999955
 20
397.7610776748989
 40
15
 41
1
 50
0
  1
3.6kg
  0
TEXT
  8
_0-7_枠細線
 62
    5
 10
1296.2499999999955
 20
372.76107767489907
 40
15
 41
1
 50
0
  1
4.9kg
  0
TEXT
  8
_0-7_枠細線
 62
    5
 10
1296.2499999999955
 20
347.7610776748989
 40
15
 41
1
 50
0
  1
6.3kg
  0
TEXT
  8
_0-7_枠細線
 62
    5
 10
1296.2499999999955
 20
322.76107767489884
 40
15
 41
1
 50
0
  1
7.9kg
  0
TEXT
  8
_0-7_枠細線
 62
    5
 10
1296.2499999999955
 20
297.7610776748989
 40
15
 41
1
 50
0
  1
9.7kg
  0
TEXT
  8
_0-7_枠細線
 62
    5
 10
1292.4999999999955
 20
272.76107767489907
 40
15
 41
1
 50
0
  1
11.8kg
  0
TEXT
  8
_0-7_枠細線
 62
    5
 10
1292.4999999999955
 20
247.7610776748989
 40
15
 41
1
 50
0
  1
13.9kg
  0
TEXT
  8
_0-7_枠細線
 62
    5
 10
1292.4999999999955
 20
222.76107767489879
 40
15
 41
1
 50
0
  1
16.4kg
  0
TEXT
  8
_0-7_枠細線
 62
    5
 10
1187.4999999999973
 20
397.7610776748989
 40
15
 41
1
 50
0
  1
100×3
  0
TEXT
  8
_0-7_枠細線
 62
    5
 10
1187.4999999999973
 20
347.76107767489913
 40
15
 41
1
 50
0
  1
100×4
  0
TEXT
  8
_0-7_枠細線
 62
    5
 10
1188.999999999997
 20
329.96401320301976
 40
12.000000000000002
 41
1
 50
0
  1
端75×2
  0
TEXT
  8
_0-7_枠細線
 62
    5
 10
1197.9999999999968
 20
379.96401320301976
 40
12.000000000000002
 41
1
 50
0
  1
端75
  0
TEXT
  8
_0-7_枠細線
 62
    5
 10
1191.9999999999977
 20
367.32906121399361
 40
12.000000000000002
 41
1
 50
0
  1
100×2
  0
TEXT
  8
_0-7_枠細線
 62
    5
 10
1188.999999999997
 20
279.96401320301976
 40
12.000000000000002
 41
1
 50
0
  1
端75×2
  0
TEXT
  8
_0-7_枠細線
 62
    5
 10
1188.999999999997
 20
229.96401320301976
 40
12.000000000000002
 41
1
 50
0
  1
端75×2
  0
TEXT
  8
_0-7_枠細線
 62
    5
 10
1191.9999999999977
 20
217.32906121399364
 40
12.000000000000002
 41
1
 50
0
  1
100×5
  0
TEXT
  8
_0-7_枠細線
 62
    5
 10
1187.4999999999973
 20
247.7610776748989
 40
15
 41
1
 50
0
  1
100×6
  0
TEXT
  8
_0-7_枠細線
 62
    5
 10
1191.9999999999977
 20
267.32906121399361
 40
12.000000000000002
 41
1
 50
0
  1
100×4
  0
TEXT
  8
_0-7_枠細線
 62
    5
 10
1187.4999999999973
 20
297.7610776748989
 40
15
 41
1
 50
0
  1
100×5
  0
TEXT
  8
_0-7_枠細線
 62
    5
 10
1191.9999999999977
 20
317.32906121399361
 40
12.000000000000002
 41
1
 50
0
  1
100×3
  0
TEXT
  8
_0-5_寸法線
 62
    7
 10
691.77046558323491
 20
530.25827023881288
 40
15
 41
0.8000000000000001
 50
0
  1
ＧＳＬ－１５
  0
LINE
  8
_0-7_枠細線
  6
CONTINUOUS
 62
    5
 10
1425
 20
925
 11
890
 21
925
  0
TEXT
  8
_0-7_枠細線
 62
    5
 10
992.49999999999943
 20
397.76107767489867
 40
15
 41
1
 50
0
  1
GSF-15K300
  0
TEXT
  8
_0-7_枠細線
 62
    5
 10
992.49999999999943
 20
372.76107767489884
 40
15
 41
1
 50
0
  1
GSF-15K350
  0
TEXT
  8
_0-7_枠細線
 62
    5
 10
992.49999999999943
 20
347.7610776748989
 40
15
 41
1
 50
0
  1
GSF-15K400
  0
TEXT
  8
_0-7_枠細線
 62
    5
 10
992.49999999999943
 20
322.76107767489884
 40
15
 41
1
 50
0
  1
GSF-15K450
  0
TEXT
  8
_0-7_枠細線
 62
    5
 10
992.49999999999943
 20
297.76107767489867
 40
15
 41
1
 50
0
  1
GSF-15K500
  0
TEXT
  8
_0-7_枠細線
 62
    5
 10
992.49999999999943
 20
272.76107767489879
 40
15
 41
1
 50
0
  1
GSF-15K550
  0
TEXT
  8
_0-7_枠細線
 62
    5
 10
992.49999999999943
 20
247.7610776748989
 40
15
 41
1
 50
0
  1
GSF-15K600
  0
TEXT
  8
_0-7_枠細線
 62
    5
 10
992.49999999999943
 20
222.76107767489879
 40
15
 41
1
 50
0
  1
GSF-15K650
  0
TEXT
  8
_0-7_枠細線
 62
    5
 10
938.85037037037023
 20
927.5
 40
12.500000000000002
 41
1
 50
0
  1
品番変更
  0
TEXT
  8
_0-7_枠細線
 62
    5
 10
960.5
 20
109.99999999999993
 40
20.000000000000007
 41
0.5999999999999998
 50
0
  1
ＧＳＦ－１５Ｋ３００～６５０
  0
TEXT
  8
_0-7_枠細線
 62
    5
 10
1180
 20
927.5
 40
12.5
 41
0.7199999999999999
 50
0
  1
２０１５．０４．０１
  0
TEXT
  8
_0-7_枠細線
 62
    5
 10
965.49999999999966
 20
70
 40
20.000000000000004
 41
0.5999999999999997
 50
0
  1
表面形状については記号表参照のこと
  0
TEXT
  8
_0-7_枠細線
 62
    5
 10
1128.5
 20
141.25
 40
20.000000000000007
 41
0.5999999999999998
 50
0
  1
集水マス
  0
LINE
  8
_0-7_枠細線
  6
CONTINUOUS
 62
    5
 10
875
 20
180
 11
875
 21
75.000000000000426
  0
TEXT
  8
_0-7_枠細線
 62
    5
 10
784.00000000000091
 20
160
 40
15.000000000000002
 41
0.8
 50
0
  1
ノンスリップ
  0
TEXT
  8
_0-7_枠細線
 62
    5
 10
796.00000000000023
 20
135.00000000000006
 40
15.000000000000002
 41
0.8
 50
0
  1
品番－Ｄ
  0
LINE
  8
_0-7_枠細線
  6
CONTINUOUS
 62
    5
 10
764.99999999999955
 20
180
 11
764.99999999999955
 21
75.000000000000426
  0
TEXT
  8
_0-7_枠細線
 62
    5
 10
685.99999999999955
 20
160.00000000000014
 40
15.000000000000002
 41
0.8
 50
0
  1
プレーン
  0
TEXT
  8
_0-7_枠細線
 62
    5
 10
686.00000000000023
 20
135.00000000000006
 40
15.000000000000002
 41
0.8
 50
0
  1
品番－Ｆ
  0
TEXT
  8
_0-7_枠細線
 62
    5
 10
605.99999999999977
 20
160
 40
15.000000000000002
 41
0.8
 50
0
  1
タ イ プ
  0
LINE
  8
_0-7_枠細線
  6
CONTINUOUS
 62
    5
 10
604.99999999999909
 20
130.00000000000006
 11
875
 21
130.00000000000006
  0
LINE
  8
_0-7_枠細線
  6
CONTINUOUS
 62
    5
 10
604.99999999999909
 20
155
 11
875
 21
155
  0
LINE
  8
_0-7_枠細線
  6
CONTINUOUS
 62
    5
 10
604.99999999999909
 20
180
 11
875
 21
180
  0
LINE
  8
_0-7_枠細線
  6
CONTINUOUS
 62
    5
 10
604.99999999999909
 20
75.000000000000426
 11
875
 21
75.000000000000426
  0
LINE
  8
_0-7_枠細線
  6
CONTINUOUS
 62
    5
 10
655
 20
180
 11
655
 21
75.000000000000426
  0
LINE
  8
_0-7_枠細線
  6
CONTINUOUS
 62
    5
 10
604.99999999999909
 20
180
 11
604.99999999999909
 21
75.000000000000426
  0
TEXT
  8
_0-7_枠細線
 62
    5
 10
605.99999999999977
 20
95.000000000000284
 40
15.000000000000002
 41
0.8
 50
0
  1
表面形状
  0
TEXT
  8
_0-7_枠細線
 62
    5
 10
612.77421134081033
 20
182.50000000000014
 40
17.500000000000004
 41
0.7999999999999996
 50
0
  1
記号表
  0
TEXT
  8
_0-7_枠細線
 62
    5
 10
605.99999999999977
 20
135.00000000000014
 40
15.000000000000002
 41
0.8
 50
0
  1
記　　号
  0
ARC
  8
_0-7_枠細線
  6
CONTINUOUS
 62
    5
 10
751.10052916255586
 20
96.70325492607482
 40
8.5903566658075761
 50
317.56162900000447
 51
42.438370999995371
  0
ARC
  8
_0-7_枠細線
  6
CONTINUOUS
 62
    5
 10
656.22004250537771
 20
96.70325492607482
 40
8.5903566658076702
 50
317.56162899999947
 51
42.43837100000087
  0
ARC
  8
_0-7_枠細線
  6
CONTINUOUS
 62
    5
 10
668.89947083744391
 20
108.29674492491563
 40
8.5903566658076702
 50
137.56162899999987
 51
222.43837100000292
  0
ARC
  8
_0-7_枠細線
  6
CONTINUOUS
 62
    5
 10
763.77995749462184
 20
108.29674492491563
 40
8.5903566658075761
 50
137.56162899999941
 51
222.4383710000034
  0
LINE
  8
_0-7_枠細線
  6
CONTINUOUS
 62
    5
 10
660.4796638296325
 20
109.9999999254949
 11
755.36015048681111
 21
109.9999999254949
  0
LINE
  8
_0-7_枠細線
  6
CONTINUOUS
 62
    5
 10
759.52033617036705
 20
94.999999925495331
 11
664.63984951318889
 21
94.999999925495331
  0
ARC
  8
_0-7_枠細線
  6
CONTINUOUS
 62
    5
 10
766.72039833866074
 20
96.703254926074749
 40
8.5903566658075761
 50
317.5616290000001
 51
42.438371000001837
  0
ARC
  8
_0-7_枠細線
  6
CONTINUOUS
 62
    5
 10
779.39982667072582
 20
108.29674492491556
 40
8.5903566658075761
 50
137.56162900000044
 51
222.43837100000019
  0
ARC
  8
_0-7_枠細線
  6
CONTINUOUS
 62
    5
 10
861.60088499584037
 20
96.703254926074749
 40
8.5903566658075761
 50
317.56162899999799
 51
42.438371000001837
  0
ARC
  8
_0-7_枠細線
  6
CONTINUOUS
 62
    5
 10
874.28031332790533
 20
108.29674492491556
 40
8.5903566658075761
 50
137.56162900000146
 51
222.43837100000019
  0
LINE
  8
_0-7_枠細線
  6
CONTINUOUS
 62
    5
 10
770.98001966291451
 20
109.99999992549483
 11
865.86050632009301
 21
109.99999992549483
  0
LINE
  8
_0-7_枠細線
  6
CONTINUOUS
 62
    5
 10
870.02069200364895
 20
94.999999925495331
 11
775.14020534647091
 21
94.999999925495331
  0
LINE
  8
_0-7_枠細線
  6
CONTINUOUS
 62
    5
 10
770.91772521117969
 20
109.65622367640464
 11
785.57394896208871
 21
94.999999925495402
  0
LINE
  8
_0-7_枠細線
  6
CONTINUOUS
 62
    5
 10
781.18055067988757
 20
109.99999992549483
 11
796.18055067988689
 21
94.999999925495402
  0
LINE
  8
_0-7_枠細線
  6
CONTINUOUS
 62
    5
 10
791.78715239768576
 20
109.99999992549483
 11
806.78715239768508
 21
94.999999925495402
  0
LINE
  8
_0-7_枠細線
  6
CONTINUOUS
 62
    5
 10
802.39375411548394
 20
109.99999992549483
 11
817.39375411548338
 21
94.999999925495402
  0
LINE
  8
_0-7_枠細線
  6
CONTINUOUS
 62
    5
 10
813.0003558332819
 20
109.99999992549483
 11
828.00035583328122
 21
94.999999925495331
  0
LINE
  8
_0-7_枠細線
  6
CONTINUOUS
 62
    5
 10
823.60695755108009
 20
109.99999992549483
 11
838.6069575510794
 21
94.999999925495331
  0
LINE
  8
_0-7_枠細線
  6
CONTINUOUS
 62
    5
 10
834.21355926887827
 20
109.99999992549483
 11
849.2135592688777
 21
94.999999925495331
  0
LINE
  8
_0-7_枠細線
  6
CONTINUOUS
 62
    5
 10
844.82016098667623
 20
109.99999992549483
 11
859.82016098667589
 21
94.999999925495331
  0
LINE
  8
_0-7_枠細線
  6
CONTINUOUS
 62
    5
 10
855.42676270447441
 20
109.99999992549483
 11
870.08298645538389
 21
95.343776174585244
  0
LINE
  8
_0-7_枠細線
  6
CONTINUOUS
 62
    5
 10
866.03336442227317
 20
94.999999925495331
 11
869.91139510994185
 21
98.878030613164185
  0
LINE
  8
_0-7_枠細線
  6
CONTINUOUS
 62
    5
 10
855.42676270447487
 20
94.999999925495331
 11
866.10028190619869
 21
105.67351912721904
  0
LINE
  8
_0-7_枠細線
  6
CONTINUOUS
 62
    5
 10
844.82016098667668
 20
94.999999925495331
 11
859.82016098667623
 21
109.99999992549483
  0
LINE
  8
_0-7_枠細線
  6
CONTINUOUS
 62
    5
 10
834.2135592688785
 20
94.999999925495331
 11
849.21355926887816
 21
109.99999992549483
  0
LINE
  8
_0-7_枠細線
  6
CONTINUOUS
 62
    5
 10
823.60695755108043
 20
94.999999925495402
 11
838.60695755107963
 21
109.99999992549483
  0
LINE
  8
_0-7_枠細線
  6
CONTINUOUS
 62
    5
 10
813.00035583328224
 20
94.999999925495402
 11
828.00035583328156
 21
109.99999992549483
  0
LINE
  8
_0-7_枠細線
  6
CONTINUOUS
 62
    5
 10
802.39375411548383
 20
94.999999925495402
 11
817.39375411548338
 21
109.99999992549483
  0
LINE
  8
_0-7_枠細線
  6
CONTINUOUS
 62
    5
 10
791.78715239768565
 20
94.999999925495402
 11
806.78715239768508
 21
109.99999992549483
  0
LINE
  8
_0-7_枠細線
  6
CONTINUOUS
 62
    5
 10
781.18055067988735
 20
94.999999925495402
 11
796.18055067988689
 21
109.99999992549483
  0
LINE
  8
_0-7_枠細線
  6
CONTINUOUS
 62
    5
 10
774.90042976036489
 20
99.326480723771127
 11
785.57394896208871
 21
109.99999992549483
  0
LINE
  8
_0-7_枠細線
  6
CONTINUOUS
 62
    5
 10
771.08931655662161
 20
106.12196923782584
 11
774.96734724429064
 21
109.99999992549483
  0
LINE
  8
_0-d_寸法3
  6
CONTINUOUS
 62
    7
 10
244.44955381970559
 20
231.41805534673267
 11
207.59797542911954
 21
231.41805534673267
  0
LINE
  8
_0-d_寸法3
  6
CONTINUOUS
 62
    7
 10
212.59797542911954
 20
231.41805534673264
 11
215.18616588014476
 21
221.75879708384196
  0
LINE
  8
_0-d_寸法3
  6
CONTINUOUS
 62
    7
 10
212.59797542911954
 20
231.41805534673264
 11
210.00978497809433
 21
221.75879708384196
  0
LINE
  8
_0-d_寸法3
  6
CONTINUOUS
 62
    7
 10
247.84698631668562
 20
206.41805534673267
 11
207.59797542911954
 21
206.41805534673267
  0
LINE
  8
_0-d_寸法3
  6
CONTINUOUS
 62
    7
 10
212.59797542911954
 20
206.41805534673267
 11
210.00978497809427
 21
216.07731360962333
  0
LINE
  8
_0-d_寸法3
  6
CONTINUOUS
 62
    7
 10
212.59797542911954
 20
206.41805534673267
 11
215.18616588014467
 21
216.07731360962333
  0
LINE
  8
_0-d_寸法3
  6
CONTINUOUS
 62
    7
 10
212.59797542911954
 20
231.41805534673264
 11
212.59797542911954
 21
206.41805534673267
  0
TEXT
  8
_0-d_寸法3
 62
    7
 10
212.59797542911954
 20
211.41805534673273
 40
15
 41
1
 50
90
  1
15
  0
LINE
  8
_0-1_計細線
  6
CONTINUOUS
 62
    3
 10
1356.880105500893
 20
684.86665508896044
 11
1356.880105500893
 21
649.86665508896056
  0
LINE
  8
_0-1_計細線
  6
CONTINUOUS
 62
    3
 10
1356.880105500893
 20
649.86665508896056
 11
1359.180105500893
 21
649.86665508896056
  0
LINE
  8
_0-1_計細線
  6
CONTINUOUS
 62
    3
 10
1359.180105500893
 20
649.86665508896056
 11
1359.180105500893
 21
684.86665508896044
  0
LINE
  8
_0-1_計細線
  6
CONTINUOUS
 62
    3
 10
1359.180105500893
 20
684.86665508896044
 11
1356.880105500893
 21
684.86665508896044
  0
LINE
  8
_0-0_計極細
  6
CONTINUOUS
 62
    2
 10
1359.180105500893
 20
668.86665508896056
 11
1356.880105500893
 21
668.86665508896056
  0
LINE
  8
_0-0_計極細
  6
CONTINUOUS
 62
    2
 10
1359.180105500893
 20
670.86665508896067
 11
1356.880105500893
 21
670.86665508896067
  0
LINE
  8
_0-0_計極細
  6
CONTINUOUS
 62
    2
 10
1359.180105500893
 20
666.86665508896044
 11
1356.880105500893
 21
666.86665508896044
  0
LINE
  8
_0-0_計極細
  6
CONTINUOUS
 62
    2
 10
1359.180105500893
 20
672.86665508896033
 11
1356.880105500893
 21
672.86665508896033
  0
LINE
  8
_0-0_計極細
  6
CONTINUOUS
 62
    2
 10
1356.880105500893
 20
652.86665508896067
 11
1359.180105500893
 21
652.86665508896067
  0
LINE
  8
_0-0_計極細
  6
CONTINUOUS
 62
    2
 10
1359.180105500893
 20
682.86665508896067
 11
1356.880105500893
 21
682.86665508896067
  0
LINE
  8
_0-1_計細線
  6
CONTINUOUS
 62
    3
 10
946.88010550089302
 20
684.86665508896044
 11
946.88010550089302
 21
649.86665508896056
  0
LINE
  8
_0-1_計細線
  6
CONTINUOUS
 62
    3
 10
946.88010550089302
 20
649.86665508896056
 11
944.58010550089307
 21
649.86665508896056
  0
LINE
  8
_0-1_計細線
  6
CONTINUOUS
 62
    3
 10
944.58010550089307
 20
649.86665508896056
 11
944.58010550089307
 21
684.86665508896044
  0
LINE
  8
_0-1_計細線
  6
CONTINUOUS
 62
    3
 10
944.58010550089307
 20
684.86665508896044
 11
946.88010550089302
 21
684.86665508896044
  0
LINE
  8
_0-0_計極細
  6
CONTINUOUS
 62
    2
 10
944.58010550089307
 20
668.86665508896056
 11
946.88010550089302
 21
668.86665508896056
  0
LINE
  8
_0-0_計極細
  6
CONTINUOUS
 62
    2
 10
944.58010550089307
 20
670.86665508896067
 11
946.88010550089302
 21
670.86665508896067
  0
LINE
  8
_0-0_計極細
  6
CONTINUOUS
 62
    2
 10
944.58010550089307
 20
666.86665508896044
 11
946.88010550089302
 21
666.86665508896044
  0
LINE
  8
_0-0_計極細
  6
CONTINUOUS
 62
    2
 10
944.58010550089307
 20
672.86665508896033
 11
946.88010550089302
 21
672.86665508896033
  0
LINE
  8
_0-0_計極細
  6
CONTINUOUS
 62
    2
 10
946.88010550089302
 20
652.86665508896067
 11
944.58010550089307
 21
652.86665508896067
  0
LINE
  8
_0-0_計極細
  6
CONTINUOUS
 62
    2
 10
944.58010550089307
 20
682.86665508896067
 11
946.88010550089302
 21
682.86665508896067
  0
LINE
  8
_0-5_寸法線
  6
CONTINUOUS
 62
    7
 10
934.58010550089307
 20
672.86665508896033
 11
857.64681167569961
 21
672.86665508896067
  0
LINE
  8
_0-5_寸法線
  6
CONTINUOUS
 62
    7
 10
862.64681167569961
 20
672.86665508896067
 11
865.23500212672491
 21
663.20739682606995
  0
LINE
  8
_0-5_寸法線
  6
CONTINUOUS
 62
    7
 10
862.64681167569961
 20
672.86665508896067
 11
860.05862122467443
 21
663.20739682606995
  0
LINE
  8
_0-5_寸法線
  6
CONTINUOUS
 62
    7
 10
934.58010550089307
 20
649.86665508896056
 11
857.64681167569961
 21
649.8666550889609
  0
LINE
  8
_0-5_寸法線
  6
CONTINUOUS
 62
    7
 10
862.64681167569961
 20
649.8666550889609
 11
860.05862122467443
 21
659.52591335185161
  0
LINE
  8
_0-5_寸法線
  6
CONTINUOUS
 62
    7
 10
862.64681167569961
 20
649.8666550889609
 11
865.23500212672491
 21
659.52591335185161
  0
LINE
  8
_0-5_寸法線
  6
CONTINUOUS
 62
    7
 10
862.64681167569961
 20
672.86665508896067
 11
862.64681167569961
 21
649.8666550889609
  0
TEXT
  8
_0-5_寸法線
 62
    7
 10
862.64681167569961
 20
653.8666550889609
 40
15
 41
1
 50
90
  1
23
  0
LINE
  8
_0-5_寸法線
  6
CONTINUOUS
 62
    7
 10
878.37345721382417
 20
690.86665508896078
 11
857.64681167569961
 21
690.86665508896078
  0
LINE
  8
_0-5_寸法線
  6
CONTINUOUS
 62
    7
 10
862.64681167569961
 20
690.86665508896078
 11
865.23500212672491
 21
681.20739682606995
  0
LINE
  8
_0-5_寸法線
  6
CONTINUOUS
 62
    7
 10
862.64681167569961
 20
690.86665508896078
 11
860.05862122467443
 21
681.20739682606995
  0
LINE
  8
_0-5_寸法線
  6
CONTINUOUS
 62
    7
 10
934.58010550089307
 20
672.86665508896033
 11
857.64681167569961
 21
672.86665508896067
  0
LINE
  8
_0-5_寸法線
  6
CONTINUOUS
 62
    7
 10
862.64681167569961
 20
672.86665508896067
 11
860.05862122467443
 21
682.52591335185139
  0
LINE
  8
_0-5_寸法線
  6
CONTINUOUS
 62
    7
 10
862.64681167569961
 20
672.86665508896067
 11
865.23500212672491
 21
682.52591335185139
  0
LINE
  8
_0-5_寸法線
  6
CONTINUOUS
 62
    7
 10
862.64681167569961
 20
690.86665508896078
 11
862.64681167569961
 21
672.86665508896067
  0
TEXT
  8
_0-5_寸法線
 62
    7
 10
862.64681167569961
 20
674.3666550889609
 40
15
 41
1
 50
90
  1
18
  0
LINE
  8
_0-7_枠細線
  6
CONTINUOUS
 62
    5
 10
1377.2331687015544
 20
666.44853416330238
 11
1369.7331687015544
 21
681.44853416330238
  0
LINE
  8
_0-7_枠細線
  6
CONTINUOUS
 62
    5
 10
1362.2331687015544
 20
666.44853416330238
 11
1377.2331687015544
 21
666.44853416330238
  0
LINE
  8
_0-7_枠細線
  6
CONTINUOUS
 62
    5
 10
1369.7331687015544
 20
681.44853416330238
 11
1362.2331687015544
 21
666.44853416330238
  0
TEXT
  8
_0-7_枠細線
 62
    5
 10
1364.5983199697023
 20
666.14153191792184
 40
12.5
 41
0.8
 50
0
  1
１
  0
LINE
  8
_0-9_枠極太
  6
CONTINUOUS
 62
    5
 10
60
 20
60
 11
60
 21
960
  0
LINE
  8
_0-9_枠極太
  6
CONTINUOUS
 62
    5
 10
60
 20
960
 11
1425
 21
960
  0
LINE
  8
_0-9_枠極太
  6
CONTINUOUS
 62
    5
 10
1425
 20
960
 11
1425
 21
60
  0
LINE
  8
_0-9_枠極太
  6
CONTINUOUS
 62
    5
 10
1425
 20
60
 11
60
 21
60
  0
LINE
  8
_0-7_枠細線
  6
CONTINUOUS
 62
    5
 10
890
 20
907.5
 11
890
 21
959.99999999999943
  0
LINE
  8
_0-7_枠細線
  6
CONTINUOUS
 62
    5
 10
925
 20
907.5
 11
925
 21
959.99999999999943
  0
LINE
  8
_0-7_枠細線
  6
CONTINUOUS
 62
    5
 10
1175
 20
907.5
 11
1175
 21
959.99999999999943
  0
LINE
  8
_0-7_枠細線
  6
CONTINUOUS
 62
    5
 10
1275
 20
907.5
 11
1275
 21
959.99999999999943
  0
LINE
  8
_0-7_枠細線
  6
CONTINUOUS
 62
    5
 10
915
 20
908.94233397174708
 11
907.5
 21
923.94233397174708
  0
LINE
  8
_0-7_枠細線
  6
CONTINUOUS
 62
    5
 10
900
 20
908.94233397174708
 11
915
 21
908.94233397174708
  0
LINE
  8
_0-7_枠細線
  6
CONTINUOUS
 62
    5
 10
907.5
 20
923.94233397174708
 11
900
 21
908.94233397174708
  0
TEXT
  8
_0-7_枠細線
 62
    5
 10
902.36515126814822
 20
908.63533172636653
 40
12.5
 41
0.8
 50
0
  1
１
  0
TEXT
  8
_0-7_枠細線
 62
    5
 10
1180
 20
910
 40
12.5
 41
0.7199999999999999
 50
0
  1
２０１９．０９．０１
  0
TEXT
  8
_0-7_枠細線
 62
    5
 10
938.85037037037023
 20
910
 40
12.500000000000002
 41
1
 50
0
  1
アンカー材質･厚み変更
  0
TEXT
  8
_0-7_枠細線
 62
    5
 10
1102.4937244021676
 20
534.41804577218284
 40
25.000000000000007
 41
0.8
 50
0
  1
断面詳細図
  0
TEXT
  8
_0-7_枠細線
 62
    5
 10
1228.6196905926781
 20
536.16723101605885
 40
20.000000000000004
 41
0.5999999999999999
 50
0
  1
Ｓ＝１：５
  0
LINE
  8
_0-5_寸法線
  6
CONTINUOUS
 62
    7
 10
241.86751290833897
 20
805.86665508896078
 11
241.86751290833911
 21
885.86665508896078
  0
LINE
  8
_0-5_寸法線
  6
CONTINUOUS
 62
    7
 10
241.86751290833911
 20
880.86665508896078
 11
232.20825464544845
 21
878.27846463793549
  0
LINE
  8
_0-5_寸法線
  6
CONTINUOUS
 62
    7
 10
241.86751290833911
 20
880.86665508896078
 11
232.20825464544845
 21
883.45484553998585
  0
LINE
  8
_0-5_寸法線
  6
CONTINUOUS
 62
    7
 10
244.86751290833899
 20
805.86665508896078
 11
244.86751290833908
 21
885.86665508896078
  0
LINE
  8
_0-5_寸法線
  6
CONTINUOUS
 62
    7
 10
216.86751290833911
 20
880.86665508896078
 11
244.86751290833908
 21
880.86665508896078
  0
TEXT
  8
_0-5_寸法線
 62
    7
 10
220.57467594427564
 20
880.86665508896078
 40
15
 41
1
 50
0
  1
3
  0
LINE
  8
_0-5_寸法線
  6
CONTINUOUS
 62
    7
 10
244.86751290833908
 20
880.86665508896078
 11
254.52677117122983
 21
883.45484553998585
  0
LINE
  8
_0-5_寸法線
  6
CONTINUOUS
 62
    7
 10
244.86751290833908
 20
880.86665508896078
 11
254.52677117122974
 21
878.27846463793549
  0
LINE
  8
_0-5_寸法線
  6
CONTINUOUS
 62
    7
 10
648.86751290833899
 20
805.86665508896078
 11
648.86751290833911
 21
885.86665508896078
  0
LINE
  8
_0-5_寸法線
  6
CONTINUOUS
 62
    7
 10
648.86751290833911
 20
880.86665508896078
 11
639.20825464544839
 21
878.27846463793549
  0
LINE
  8
_0-5_寸法線
  6
CONTINUOUS
 62
    7
 10
648.86751290833911
 20
880.86665508896078
 11
639.20825464544839
 21
883.45484553998585
  0
LINE
  8
_0-5_寸法線
  6
CONTINUOUS
 62
    7
 10
244.86751290833908
 20
880.86665508896078
 11
648.86751290833911
 21
880.86665508896078
  0
TEXT
  8
_0-5_寸法線
 62
    7
 10
431.86751290833911
 20
880.86665508896078
 40
15
 41
1
 50
0
  1
Ｗ-6
  0
LINE
  8
_0-5_寸法線
  6
CONTINUOUS
 62
    7
 10
651.86751290833899
 20
805.86665508896078
 11
651.86751290833911
 21
885.86665508896078
  0
LINE
  8
_0-5_寸法線
  6
CONTINUOUS
 62
    7
 10
651.86751290833911
 20
880.86665508896078
 11
661.52677117122994
 21
883.45484553998585
  0
LINE
  8
_0-5_寸法線
  6
CONTINUOUS
 62
    7
 10
651.86751290833911
 20
880.86665508896078
 11
661.52677117122994
 21
878.27846463793549
  0
LINE
  8
_0-5_寸法線
  6
CONTINUOUS
 62
    7
 10
648.86751290833911
 20
880.86665508896078
 11
676.86751290833911
 21
880.86665508896078
  0
TEXT
  8
_0-5_寸法線
 62
    7
 10
666.0101143553386
 20
880.86665508896078
 40
15
 41
1
 50
0
  1
3
  0
ENDSEC
  0
EOF
