  0
SECTION
  2
HEADER
  9
$ACADVER
  1
AC1009
  9
$INSBASE
 10
0
 20
0
 30
0
  9
$EXTMIN
 10
0
 20
0
  9
$EXTMAX
 10
2970
 20
2100
  9
$LIMMIN
 10
0
 20
0
  9
$LIMMAX
 10
2970
 20
2100
  9
$LTSCALE
 40
10
  0
ENDSEC
  0
SECTION
  2
TABLES
  0
TABLE
  2
LTYPE
 70
     9
  0
LTYPE
  2
CONTINUOUS
 70
    64
  3
実線
 72
    65
 73
     0
 40
0.0
  0
LTYPE
  2
DASHED1
 70
    64
  3
--  --  --  --  --  --  --  --  
 72
    65
 73
     2
 40
2.5
 49
1.25
 49
-1.25
  0
LTYPE
  2
DASHED2
 70
    64
  3
----    ----    ----    ----    
 72
    65
 73
     2
 40
5.0
 49
2.5
 49
-2.5
  0
LTYPE
  2
DASHED3
 70
    64
  3
------  ------  ------  ------  
 72
    65
 73
     2
 40
5.0
 49
3.75
 49
-1.25
  0
LTYPE
  2
CENTER1
 70
    64
  3
----- - ----- - ----- - ----- - 
 72
    65
 73
     4
 40
10.0
 49
6.25
 49
-1.25
 49
1.25
 49
-1.25
  0
LTYPE
  2
CENTER2
 70
    64
  3
----------  --  ----------  --  
 72
    65
 73
     4
 40
20.0
 49
12.5
 49
-2.5
 49
2.5
 49
-2.5
  0
LTYPE
  2
PHANTOM1
 70
    64
  3
--- - - --- - - --- - - --- - - 
 72
    65
 73
     6
 40
10.0
 49
3.25
 49
-1.25
 49
1.25
 49
-1.25
 49
1.25
 49
-1.25
  0
LTYPE
  2
PHANTOM2
 70
    64
  3
--------  -  -  --------  -  -  
 72
    65
 73
     6
 40
20.0
 49
10.0
 49
-2.5
 49
1.25
 49
-2.5
 49
1.25
 49
-2.5
  0
LTYPE
  2
DOT
 70
    64
  3
-   -   -   -   -   -   -   -   
 72
    65
 73
     2
 40
2.5
 49
0.625
 49
-1.875
  0
LTYPE
  2
DUMMY
 70
    64
  3
ダミー
 72
    65
 73
     0
 40
0.0
  0
LTYPE
  2
RAND1
 70
    64
  3
ランダム線1
 72
    65
 73
     4
 40
10.0
 49
1.0
 49
-2.0
 49
3.0
 49
-4.0
  0
LTYPE
  2
RAND2
 70
    64
  3
ランダム線2
 72
    65
 73
     4
 40
14.0
 49
2.0
 49
-3.0
 49
4.0
 49
-5.0
  0
LTYPE
  2
RAND3
 70
    64
  3
ランダム線3
 72
    65
 73
     4
 40
18.0
 49
3.0
 49
-4.0
 49
5.0
 49
-6.0
  0
LTYPE
  2
RAND4
 70
    64
  3
ランダム線4
 72
    65
 73
     4
 40
22.0
 49
4.0
 49
-5.0
 49
6.0
 49
-7.0
  0
LTYPE
  2
RAND5
 70
    64
  3
ランダム線5
 72
    65
 73
     4
 40
26.0
 49
5.0
 49
-6.0
 49
7.0
 49
-8.0
  0
LTYPE
  2
LONG1
 70
    64
  3
----------  --  ----------  --  
 72
    65
 73
     4
 40
40.0
 49
32.5
 49
-2.5
 49
2.5
 49
-2.5
  0
LTYPE
  2
LONG2
 70
    64
  3
--------  -  -  --------  -  -  
 72
    65
 73
     6
 40
40.0
 49
30.0
 49
-2.5
 49
1.25
 49
-2.5
 49
1.25
 49
-2.5
  0
LTYPE
  2
LONG3
 70
    64
  3
+++++++++++++++..+++++++++++++++
 72
    65
 73
     2
 40
40.0
 49
37.5
 49
-2.5
  0
LTYPE
  2
LONG4
 70
    64
  3
+++++++++++++++..+++++++++++++++
 72
    65
 73
     2
 40
80.0
 49
75.0
 49
-5.0
  0
LTYPE
  2
LONG5
 70
    64
  3
----------  --  ----------  --  
 72
    65
 73
     4
 40
60.0
 49
37.5
 49
-7.5
 49
7.5
 49
-7.5
  0
LTYPE
  2
dashed
 70
   64
  3
-------   -------------   ------
 72
   65
 73
    2
 40
7.5
 49
6
 49
-1.5
  0
LTYPE
  2
dashed_spaced
 70
   64
  3
----        --------        ----
 72
   65
 73
    2
 40
12
 49
6
 49
-6
  0
LTYPE
  2
long_dashed_dotted
 70
   64
  3
------------- --- --------------
 72
   65
 73
    4
 40
15.25
 49
12
 49
-1.5
 49
0.25
 49
-1.5
  0
LTYPE
  2
long_dashed_double-dotted
 70
   64
  3
----------- --- --- ------------
 72
   65
 73
    6
 40
17
 49
12
 49
-1.5
 49
0.25
 49
-1.5
 49
0.25
 49
-1.5
  0
LTYPE
  2
long_dashed_triplicate-dotted
 70
   64
  3
--------- --- --- --- ----------
 72
   65
 73
    8
 40
18.75
 49
12
 49
-1.5
 49
0.25
 49
-1.5
 49
0.25
 49
-1.5
 49
0.25
 49
-1.5
  0
LTYPE
  2
dotted
 70
   64
  3
   -       -       -       -    
 72
   65
 73
    2
 40
1.75
 49
0.25
 49
-1.5
  0
LTYPE
  2
chain
 70
   64
  3
-------------- -- --------------
 72
   65
 73
    4
 40
18.5
 49
12
 49
-1.5
 49
3.5
 49
-1.5
  0
LTYPE
  2
chain_double_dash
 70
   64
  3
------------ -- -- -------------
 72
   65
 73
    6
 40
23.5
 49
12
 49
-1.5
 49
3.5
 49
-1.5
 49
3.5
 49
-1.5
  0
LTYPE
  2
dashed_dotted
 70
   64
  3
-----------     -     ----------
 72
   65
 73
    4
 40
9.25
 49
6
 49
-1.5
 49
0.25
 49
-1.5
  0
LTYPE
  2
double-dashed_dotted
 70
   64
  3
------   -----------   -   -----
 72
   65
 73
    6
 40
16.75
 49
6
 49
-1.5
 49
6
 49
-1.5
 49
0.25
 49
-1.5
  0
LTYPE
  2
dashed_double-dotted
 70
   64
  3
---------    -    -    ---------
 72
   65
 73
    6
 40
11
 49
6
 49
-1.5
 49
0.25
 49
-1.5
 49
0.25
 49
-1.5
  0
LTYPE
  2
double-dashed_double-dotted
 70
   64
  3
-----   ---------   -   -   ----
 72
   65
 73
    8
 40
18.5
 49
6
 49
-1.5
 49
6
 49
-1.5
 49
0.25
 49
-1.5
 49
0.25
 49
-1.5
  0
LTYPE
  2
dashed_triplicate-dotted
 70
   64
  3
-------    -    -    -    ------
 72
   65
 73
    8
 40
12.75
 49
6
 49
-1.5
 49
0.25
 49
-1.5
 49
0.25
 49
-1.5
 49
0.25
 49
-1.5
  0
LTYPE
  2
double-dashed_triplicate-dotted
 70
   64
  3
-----  ---------  -  -  -  -----
 72
   65
 73
   10
 40
20.25
 49
6
 49
-1.5
 49
6
 49
-1.5
 49
0.25
 49
-1.5
 49
0.25
 49
-1.5
 49
0.25
 49
-1.5
  0
LTYPE
  2
undefined
 70
   64
  3
--------------------------------
 72
   65
 73
    0
 40
0
  0
ENDTAB
  0
TABLE
  2
STYLE
  5
3
100
AcDbSymbolTable
 70
     1
  0
STYLE
  5
10
100
AcDbSymbolTableRecord
100
AcDbTextStyleTableRecord
  2
STANDARD
 70
     0
 40
0.0
 41
1.0
 50
0.0
 71
     0
 42
0.2
  3
txt
  4
bigfont.shx
  0
STYLE
  5
26
100
AcDbSymbolTableRecord
100
AcDbTextStyleTableRecord
  2
TATEGAKI
 70
    68
 40
0.0
 41
1.0
 50
0.0
 71
     0
 42
1.0
  3
txt
  4
bigfont.shx
  0
ENDTAB
  0
TABLE
  2
LAYER
 70
    9
  0
LAYER
  2
_0-0_計極細
 70
   64
 62
    7
  6
CONTINUOUS
  0
LAYER
  2
_0-1_計細線
 70
   64
 62
    7
  6
CONTINUOUS
  0
LAYER
  2
_0-5_寸法線
 70
   64
 62
    7
  6
CONTINUOUS
  0
LAYER
  2
_0-7_枠細線
 70
   64
 62
    7
  6
CONTINUOUS
  0
LAYER
  2
_0-8_枠中線
 70
   64
 62
    7
  6
CONTINUOUS
  0
LAYER
  2
_1-2_極細2
 70
   64
 62
    7
  6
CONTINUOUS
  0
LAYER
  2
_1-3_細線2
 70
   64
 62
    7
  6
CONTINUOUS
  0
LAYER
  2
_1-5_寸法2
 70
   64
 62
    7
  6
CONTINUOUS
  0
LAYER
  2
ADD_LINE
 70
   64
 62
    7
  6
CONTINUOUS
  0
ENDTAB
  0
ENDSEC
  0
SECTION
  2
BLOCKS
  0
ENDSEC
  0
SECTION
  2
ENTITIES
  0
LINE
  8
_0-8_枠中線
  6
CONTINUOUS
 62
    5
 10
120
 20
120
 11
120
 21
1920
  0
LINE
  8
_0-8_枠中線
  6
CONTINUOUS
 62
    5
 10
120
 20
1920
 11
2850
 21
1920
  0
LINE
  8
_0-8_枠中線
  6
CONTINUOUS
 62
    5
 10
2850
 20
1920
 11
2850
 21
120
  0
LINE
  8
_0-8_枠中線
  6
CONTINUOUS
 62
    5
 10
2850
 20
120
 11
120
 21
120
  0
LINE
  8
_0-7_枠細線
  6
CONTINUOUS
 62
    5
 10
2370
 20
360
 11
2370
 21
200
  0
TEXT
  8
_0-7_枠細線
 62
    5
 10
1875
 20
195
 40
35
 41
1
 50
0
  1
備考
  7
TATEGAKI
  0
TEXT
  8
_0-7_枠細線
 62
    5
 10
1875
 20
275
 40
35
 41
1
 50
0
  1
品番
  7
TATEGAKI
  0
TEXT
  8
_0-7_枠細線
 62
    5
 10
1875
 20
355
 40
35
 41
1
 50
0
  1
品名
  7
TATEGAKI
  0
LINE
  8
_0-7_枠細線
  6
CONTINUOUS
 62
    5
 10
2370
 20
280
 11
1850
 21
280
  0
LINE
  8
_0-7_枠細線
  6
CONTINUOUS
 62
    5
 10
1900
 20
360
 11
1900
 21
120
  0
LINE
  8
_0-8_枠中線
  6
CONTINUOUS
 62
    5
 10
2850
 20
360
 11
1850
 21
360
  0
LINE
  8
_0-8_枠中線
  6
CONTINUOUS
 62
    5
 10
1850
 20
360
 11
1850
 21
120
  0
LINE
  8
_0-7_枠細線
  6
CONTINUOUS
 62
    5
 10
2490
 20
360
 11
2490
 21
120
  0
TEXT
  8
_0-7_枠細線
 62
    5
 10
2385
 20
320
 40
30
 41
1
 50
0
  1
縮　尺
  0
LINE
  8
_0-7_枠細線
  6
CONTINUOUS
 62
    5
 10
2370
 20
310
 11
2490
 21
310
  0
LINE
  8
_0-7_枠細線
  6
CONTINUOUS
 62
    5
 10
2490
 20
200
 11
1850
 21
200
  0
LINE
  8
_0-7_枠細線
  6
CONTINUOUS
 62
    5
 10
2850
 20
180
 11
2490
 21
180
  0
LINE
  8
_0-7_枠細線
  6
CONTINUOUS
 62
    5
 10
2490
 20
240
 11
2850
 21
240
  0
LINE
  8
_0-7_枠細線
  6
CONTINUOUS
 62
    5
 10
2850
 20
280
 11
2490
 21
280
  0
TEXT
  8
_0-7_枠細線
 62
    5
 10
2510
 20
295
 40
50
 41
0.8
 50
0
  1
株式会社シマブン
  0
TEXT
  8
_0-7_枠細線
 62
    5
 10
2505
 20
120
 40
30
 41
1
 50
0
  1
年月日
  0
TEXT
  8
_0-7_枠細線
 62
    5
 10
2505
 20
150
 40
30
 41
1
 50
0
  1
作　成
  0
TEXT
  8
_0-7_枠細線
 62
    5
 10
2512.5
 20
245
 40
30
 41
1
 50
0
  1
承 認
  0
LINE
  8
_0-7_枠細線
  6
CONTINUOUS
 62
    5
 10
2610
 20
280
 11
2610
 21
120
  0
TEXT
  8
_0-7_枠細線
 62
    5
 10
2632.5
 20
245
 40
30
 41
1
 50
0
  1
検 図
  0
LINE
  8
_0-7_枠細線
  6
CONTINUOUS
 62
    5
 10
2730
 20
280
 11
2730
 21
180
  0
TEXT
  8
_0-7_枠細線
 62
    5
 10
2752.5
 20
245
 40
30
 41
1
 50
0
  1
設 計
  0
LINE
  8
_0-7_枠細線
  6
CONTINUOUS
 62
    5
 10
2850
 20
1885
 11
1780
 21
1885
  0
TEXT
  8
_0-7_枠細線
 62
    5
 10
1790
 20
1889.9999999999995
 40
25
 41
1
 50
0
  1
記号
  0
TEXT
  8
_0-7_枠細線
 62
    5
 10
1993.75
 20
1890
 40
25
 41
1
 50
0
  1
訂　 正　 記　 事
  0
TEXT
  8
_0-7_枠細線
 62
    5
 10
2362.5
 20
1890
 40
25
 41
1
 50
0
  1
訂 正 年 月 日
  0
TEXT
  8
_0-7_枠細線
 62
    5
 10
2612.5
 20
1890
 40
25
 41
1
 50
0
  1
備　　　　　考
  0
LINE
  8
_0-7_枠細線
  6
CONTINUOUS
 62
    5
 10
2850
 20
1850
 11
1780
 21
1850
  0
TEXT
  8
_0-7_枠細線
 62
    5
 10
2750
 20
190
 40
40
 41
1
 50
0
  1
藤戸
  0
LINE
  8
_0-7_枠細線
  6
CONTINUOUS
 62
    5
 10
1780
 20
1850
 11
1780
 21
1919.9999999999989
  0
LINE
  8
_0-7_枠細線
  6
CONTINUOUS
 62
    5
 10
1850
 20
1850
 11
1850
 21
1919.9999999999989
  0
LINE
  8
_0-7_枠細線
  6
CONTINUOUS
 62
    5
 10
2350
 20
1850
 11
2350
 21
1920
  0
LINE
  8
_0-7_枠細線
  6
CONTINUOUS
 62
    5
 10
2550
 20
1850
 11
2550
 21
1919.9999999999989
  0
TEXT
  8
_0-7_枠細線
 62
    5
 10
2510
 20
190
 40
40
 41
1
 50
0
  1
大野
  0
TEXT
  8
_0-7_枠細線
 62
    5
 10
2630
 20
190
 40
40
 41
1
 50
0
  1
深川
  0
TEXT
  8
_0-7_枠細線
 62
    5
 10
2620
 20
135
 40
30
 41
0.6666666666666666
 50
0
  1
２０１５年０４月０１日
  0
LINE
  8
_1-3_細線2
  6
CONTINUOUS
 62
    4
 10
627.21480702578731
 20
561.70045163252723
 11
627.21480702578731
 21
552.70045163266786
  0
LINE
  8
_1-3_細線2
  6
CONTINUOUS
 62
    4
 10
309.71480734328725
 20
561.70045163252712
 11
338.99604378558678
 21
561.70045163252712
  0
LINE
  8
_1-3_細線2
  6
CONTINUOUS
 62
    4
 10
338.99604378558678
 20
561.70045163252723
 11
351.71480730128837
 21
537.69891679428247
  0
LINE
  8
_1-3_細線2
  6
CONTINUOUS
 62
    4
 10
309.71480734328725
 20
561.70045163252723
 11
309.71480734328725
 21
552.70045163266786
  0
ARC
  8
_1-3_細線2
  6
CONTINUOUS
 62
    4
 10
351.85422730114783
 20
577.20045163242253
 40
7.4999999924999994
 50
7.1889771515926633
 51
89.999999999999915
  0
LINE
  8
_1-3_細線2
  6
CONTINUOUS
 62
    4
 10
351.85422730114783
 20
584.70045163234749
 11
307.21480734578722
 21
584.70045163234749
  0
LINE
  8
_1-3_細線2
  6
CONTINUOUS
 62
    4
 10
468.46480718453734
 20
584.70045163234749
 11
351.85422730114783
 21
584.70045163234749
  0
LINE
  8
_1-3_細線2
  6
CONTINUOUS
 62
    4
 10
359.29526825761729
 20
578.13901935594572
 11
368.4648072845373
 21
505.1872428260009
  0
LINE
  8
_1-3_細線2
  6
CONTINUOUS
 62
    4
 10
368.4648072845373
 20
505.1872428260009
 11
368.4648072845373
 21
463.70045163355826
  0
LINE
  8
_1-3_細線2
  6
CONTINUOUS
 62
    4
 10
324.71480732828741
 20
537.70045163281793
 11
338.46480731453698
 21
537.70045163281793
  0
LINE
  8
_1-3_細線2
  6
CONTINUOUS
 62
    4
 10
338.46480731453698
 20
537.70045163281793
 11
338.46480731453698
 21
487.70045163331787
  0
LINE
  8
_1-3_細線2
  6
CONTINUOUS
 62
    4
 10
351.71480730128837
 20
487.70045163331787
 11
338.46480731453698
 21
487.70045163331787
  0
LINE
  8
_1-3_細線2
  6
CONTINUOUS
 62
    4
 10
351.71480730128837
 20
537.69891679428247
 11
351.71480730128837
 21
487.70045163331787
  0
LINE
  8
_1-3_細線2
  6
CONTINUOUS
 62
    4
 10
351.71480730128837
 20
487.70045163331787
 11
351.71480730128837
 21
378.68513830107531
  0
ARC
  8
_1-3_細線2
  6
CONTINUOUS
 62
    4
 10
324.71480732828741
 20
552.70045163266786
 40
14.999999984999999
 50
179.99999999999983
 51
269.99999999999977
  0
LINE
  8
_1-3_細線2
  6
CONTINUOUS
 62
    4
 10
351.71480730128837
 20
562.20045163257259
 11
351.71480730128837
 21
537.70045163281793
  0
LINE
  8
_1-3_細線2
  6
CONTINUOUS
 62
    4
 10
356.71480729628843
 20
487.70045163331787
 11
351.71480730128837
 21
487.70045163331787
  0
LINE
  8
_1-3_細線2
  6
CONTINUOUS
 62
    4
 10
628.46480702453709
 20
572.20045163247255
 11
628.46480702453709
 21
566.70045163252712
  0
ARC
  8
_1-3_細線2
  6
CONTINUOUS
 62
    4
 10
612.21480704078749
 20
552.70045163266786
 40
14.999999984999999
 50
269.99999999999977
 51
359.99999999999966
  0
LINE
  8
_1-3_細線2
  6
CONTINUOUS
 62
    4
 10
583.46480706953741
 20
537.70045163281793
 11
583.46480706953741
 21
487.70045163331787
  0
LINE
  8
_1-3_細線2
  6
CONTINUOUS
 62
    4
 10
598.46480705453757
 20
537.70045163281793
 11
598.46480705453757
 21
487.70045163331787
  0
LINE
  8
_1-3_細線2
  6
CONTINUOUS
 62
    4
 10
629.71480702328734
 20
572.20045163247255
 11
629.71480702328734
 21
584.70045163234749
  0
LINE
  8
_1-3_細線2
  6
CONTINUOUS
 62
    4
 10
446.22771387344119
 20
491.9290449666093
 11
451.63578720136769
 21
492.71603829993455
  0
LINE
  8
_1-3_細線2
  6
CONTINUOUS
 62
    4
 10
457.17189386249686
 20
493.28249829992887
 11
462.79390052354046
 21
493.6241049665914
  0
LINE
  8
_1-3_細線2
  6
CONTINUOUS
 62
    4
 10
451.63578720136769
 20
492.71603829993455
 11
457.17189386249686
 21
493.28249829992887
  0
LINE
  8
_1-3_細線2
  6
CONTINUOUS
 62
    4
 10
462.79390052354046
 20
493.6241049665914
 11
468.45902051787607
 21
493.73826496659007
  0
LINE
  8
_1-3_細線2
  6
CONTINUOUS
 62
    4
 10
435.95902055037573
 20
489.7190316332983
 11
440.98883387868
 21
490.92749829995159
  0
LINE
  8
_1-3_細線2
  6
CONTINUOUS
 62
    4
 10
431.17655388849289
 20
488.31282496664517
 11
435.95902055037573
 21
489.7190316332983
  0
LINE
  8
_1-3_細線2
  6
CONTINUOUS
 62
    4
 10
418.66613390100156
 20
483.02189830003158
 11
422.49708056384065
 21
484.95147163334536
  0
LINE
  8
_1-3_細線2
  6
CONTINUOUS
 62
    4
 10
409.54902057678669
 20
476.41681163343083
 11
412.16737390750211
 21
478.73826496673973
  0
LINE
  8
_1-3_細線2
  6
CONTINUOUS
 62
    4
 10
415.21414057112156
 20
480.94555830005191
 11
418.66613390100156
 21
483.02189830003158
  0
LINE
  8
_1-3_細線2
  6
CONTINUOUS
 62
    4
 10
412.16737390750211
 20
478.73826496673973
 11
415.21414057112156
 21
480.94555830005191
  0
LINE
  8
_1-3_細線2
  6
CONTINUOUS
 62
    4
 10
422.49708056384065
 20
484.95147163334536
 11
426.67782722632381
 21
486.71959829999395
  0
LINE
  8
_1-3_細線2
  6
CONTINUOUS
 62
    4
 10
426.67782722632381
 20
486.71959829999395
 11
431.17655388849289
 21
488.31282496664517
  0
LINE
  8
_1-3_細線2
  6
CONTINUOUS
 62
    4
 10
468.46480718453734
 20
493.70045163325858
 11
368.4648072845373
 21
493.70045163325858
  0
LINE
  8
_1-3_細線2
  6
CONTINUOUS
 62
    4
 10
440.98883387868
 20
490.92749829995159
 11
446.22771387344119
 21
491.9290449666093
  0
LINE
  8
_1-3_細線2
  6
CONTINUOUS
 62
    4
 10
483.46480716953738
 20
537.70045163281793
 11
483.46480716953738
 21
487.70045163331787
  0
ARC
  8
_1-3_細線2
  6
CONTINUOUS
 62
    4
 10
351.85422730114783
 20
577.20045163242253
 40
4.9999999950000014
 50
7.1641169999944312
 51
89.999999999999915
  0
ARC
  8
_1-3_細線2
  6
CONTINUOUS
 62
    4
 10
341.71480731128827
 20
562.20045163257259
 40
9.9999999900000027
 50
0
 51
89.999999999999915
  0
LINE
  8
_1-3_細線2
  6
CONTINUOUS
 62
    4
 10
308.46480734453706
 20
572.20045163247255
 11
308.46480734453706
 21
566.70045163252712
  0
LINE
  8
_1-3_細線2
  6
CONTINUOUS
 62
    4
 10
350.6450939690248
 20
566.70045163252712
 11
308.46480734453706
 21
566.70045163252712
  0
LINE
  8
_1-3_細線2
  6
CONTINUOUS
 62
    4
 10
341.71480731128827
 20
572.20045163247255
 11
307.21480734578722
 21
572.20045163247255
  0
LINE
  8
_1-3_細線2
  6
CONTINUOUS
 62
    4
 10
351.85422730114783
 20
582.20045163237251
 11
307.21480734578722
 21
582.20045163237251
  0
LINE
  8
_1-3_細線2
  6
CONTINUOUS
 62
    4
 10
362.86980062346333
 20
549.70045163269765
 11
360.35013395931901
 21
549.70045163269765
  0
LINE
  8
_1-3_細線2
  6
CONTINUOUS
 62
    4
 10
351.71480730128837
 20
547.20045163272266
 11
356.71480729628843
 21
547.20045163272266
  0
LINE
  8
_1-3_細線2
  6
CONTINUOUS
 62
    4
 10
351.71480730128837
 20
537.70045163281793
 11
356.71480729628843
 21
537.70045163281793
  0
LINE
  8
_1-3_細線2
  6
CONTINUOUS
 62
    4
 10
356.81519396285438
 20
577.82401163241525
 11
360.35013395931901
 21
549.70045163269765
  0
LINE
  8
_1-3_細線2
  6
CONTINUOUS
 62
    4
 10
307.21480734578722
 20
572.20045163247255
 11
307.21480734578722
 21
584.70045163234749
  0
LINE
  8
_1-3_細線2
  6
CONTINUOUS
 62
    4
 10
468.46480718453734
 20
537.70045163281793
 11
612.21480704078749
 21
537.70045163281793
  0
LINE
  8
_1-3_細線2
  6
CONTINUOUS
 62
    4
 10
468.46480718453734
 20
487.70045163331787
 11
598.46480705453757
 21
487.70045163331787
  0
LINE
  8
_1-3_細線2
  6
CONTINUOUS
 62
    4
 10
468.46480718453734
 20
584.70045163234749
 11
629.71480702328734
 21
584.70045163234749
  0
LINE
  8
_1-3_細線2
  6
CONTINUOUS
 62
    4
 10
468.46480718453734
 20
572.20045163247255
 11
629.71480702328734
 21
572.20045163247255
  0
LINE
  8
_1-3_細線2
  6
CONTINUOUS
 62
    4
 10
468.46480718453734
 20
566.70045163252712
 11
628.46480702453709
 21
566.70045163252712
  0
LINE
  8
_1-3_細線2
  6
CONTINUOUS
 62
    4
 10
585.17527373449354
 20
378.64560496774061
 11
580.17334040616277
 21
373.64367830112514
  0
LINE
  8
_1-3_細線2
  6
CONTINUOUS
 62
    4
 10
405.67384724732591
 20
471.50283830014632
 11
407.37900057895644
 21
473.99887163345483
  0
LINE
  8
_1-3_細線2
  6
CONTINUOUS
 62
    4
 10
404.44652058188893
 20
468.94771163350555
 11
405.67384724732591
 21
471.50283830014632
  0
LINE
  8
_1-3_細線2
  6
CONTINUOUS
 62
    4
 10
385.96480726703749
 20
469.8509916334956
 11
385.96480726703749
 21
463.70045163355826
  0
LINE
  8
_1-3_細線2
  6
CONTINUOUS
 62
    4
 10
403.45902058287578
 20
463.7382649668898
 11
403.70636724929653
 21
466.35293830019805
  0
LINE
  8
_1-3_細線2
  6
CONTINUOUS
 62
    4
 10
403.70636724929653
 20
466.35293830019805
 11
404.44652058188893
 21
468.94771163350555
  0
LINE
  8
_1-3_細線2
  6
CONTINUOUS
 62
    4
 10
468.46480718453734
 20
463.70045163355826
 11
368.4648072845373
 21
463.70045163355826
  0
LINE
  8
_1-3_細線2
  6
CONTINUOUS
 62
    4
 10
468.46480718453734
 20
448.70045163370833
 11
368.4648072845373
 21
448.70045163370833
  0
LINE
  8
_1-3_細線2
  6
CONTINUOUS
 62
    4
 10
368.4648072845373
 20
448.70045163370833
 11
368.4648072845373
 21
373.70045163445837
  0
LINE
  8
_1-3_細線2
  6
CONTINUOUS
 62
    4
 10
351.75434063458101
 20
378.64560496774061
 11
356.75627396291179
 21
373.64367830112514
  0
LINE
  8
_1-3_細線2
  6
CONTINUOUS
 62
    4
 10
468.46480718453734
 20
373.70045163445837
 11
356.71480729628843
 21
373.70045163445837
  0
LINE
  8
_1-3_細線2
  6
CONTINUOUS
 62
    4
 10
468.46480718453734
 20
378.70045163440835
 11
585.21480706778618
 21
378.70045163440835
  0
LINE
  8
_1-3_細線2
  6
CONTINUOUS
 62
    4
 10
468.46480718453734
 20
373.70045163445837
 11
580.21480707278613
 21
373.70045163445837
  0
LINE
  8
_1-3_細線2
  6
CONTINUOUS
 62
    4
 10
356.71480729628843
 20
547.20045163272266
 11
356.71480729628843
 21
373.70045163445837
  0
LINE
  8
_1-3_細線2
  6
CONTINUOUS
 62
    4
 10
580.21480707278613
 20
487.70045163331787
 11
580.21480707278613
 21
373.70045163445837
  0
LINE
  8
_1-3_細線2
  6
CONTINUOUS
 62
    4
 10
585.21480706778618
 20
487.70045163331787
 11
585.21480706778618
 21
378.68513830107531
  0
ARC
  8
_1-3_細線2
  6
CONTINUOUS
 62
    4
 10
360.96480729203722
 20
469.8509916334956
 40
24.999999974999998
 50
0
 51
72.549879000004736
  0
LINE
  8
_1-3_細線2
  6
CONTINUOUS
 62
    4
 10
407.37900057895644
 20
473.99887163345483
 11
409.54902057678669
 21
476.41681163343083
  0
LINE
  8
_1-2_極細2
  6
CONTINUOUS
 62
    2
 10
747.88184023845292
 20
617.03795829869182
 11
686.14832696685403
 21
555.30444496597397
  0
LINE
  8
_1-2_極細2
  6
CONTINUOUS
 62
    2
 10
743.16779357649898
 20
621.75200496530942
 11
681.43428030490031
 21
560.01849163259499
  0
LINE
  8
_1-2_極細2
  6
CONTINUOUS
 62
    2
 10
268.96702071736786
 20
622.8446316319671
 11
207.23350744576891
 21
561.11111829924926
  0
LINE
  8
_1-2_極細2
  6
CONTINUOUS
 62
    2
 10
273.68106737932152
 20
618.13058496534609
 11
211.9475541077199
 21
556.39707829929739
  0
LINE
  8
_1-2_極細2
  6
CONTINUOUS
 62
    2
 10
590.96480718453734
 20
561.70045163252712
 11
468.46480718453734
 21
561.70045163252712
  0
LINE
  8
_1-2_極細2
  6
CONTINUOUS
 62
    2
 10
590.96480718453734
 20
566.70045163252712
 11
468.46480718453734
 21
566.70045163252712
  0
LINE
  8
_1-2_極細2
  6
CONTINUOUS
 62
    2
 10
628.46480718453734
 20
566.70045163252712
 11
590.96480718453734
 21
566.70045163252712
  0
LINE
  8
_1-2_極細2
  6
CONTINUOUS
 62
    2
 10
628.46480718453734
 20
561.70045163252712
 11
590.96480718453734
 21
561.70045163252712
  0
LINE
  8
_1-2_極細2
  6
CONTINUOUS
 62
    2
 10
590.96480718453734
 20
561.70045163252712
 11
590.96480718453734
 21
566.70045163252712
  0
LINE
  8
_1-2_極細2
  6
CONTINUOUS
 62
    2
 10
638.46480718453734
 20
595.20045163252848
 11
468.46480718453734
 21
595.20045163252848
  0
ARC
  8
_1-2_極細2
  6
CONTINUOUS
 62
    2
 10
638.46480718453734
 20
587.70045163252848
 40
7.5
 50
89.999999999999915
 51
179.99999999999983
  0
LINE
  8
_1-2_極細2
  6
CONTINUOUS
 62
    2
 10
630.96480718453734
 20
569.20045163252712
 11
630.96480718453734
 21
587.70045163252848
  0
ARC
  8
_1-2_極細2
  6
CONTINUOUS
 62
    2
 10
628.46480718453734
 20
569.20045163252712
 40
7.5
 50
269.99999999999977
 51
359.99999999999966
  0
LINE
  8
_1-2_極細2
  6
CONTINUOUS
 62
    2
 10
635.96480718453734
 20
587.70045163252848
 11
635.96480718453734
 21
569.20045163252712
  0
ARC
  8
_1-2_極細2
  6
CONTINUOUS
 62
    2
 10
638.46480718453734
 20
587.70045163252848
 40
2.5
 50
89.999999999999915
 51
179.99999999999983
  0
ARC
  8
_1-2_極細2
  6
CONTINUOUS
 62
    2
 10
628.46480718453734
 20
569.20045163252712
 40
2.5
 50
269.99999999999977
 51
359.99999999999966
  0
LINE
  8
_1-2_極細2
  6
CONTINUOUS
 62
    2
 10
716.61624027000403
 20
595.20045163252848
 11
638.46480718453734
 21
595.20045163252848
  0
LINE
  8
_1-2_極細2
  6
CONTINUOUS
 62
    2
 10
711.61624027495395
 20
590.20045163252848
 11
638.46480718453734
 21
590.20045163252848
  0
LINE
  8
_1-2_極細2
  6
CONTINUOUS
 62
    2
 10
308.46480718453734
 20
566.70045163252712
 11
345.96480718453734
 21
566.70045163252712
  0
LINE
  8
_1-2_極細2
  6
CONTINUOUS
 62
    2
 10
308.46480718453734
 20
561.70045163252712
 11
345.96480718453734
 21
561.70045163252712
  0
LINE
  8
_1-2_極細2
  6
CONTINUOUS
 62
    2
 10
345.96480718453734
 20
561.70045163252712
 11
345.96480718453734
 21
566.70045163252712
  0
ARC
  8
_1-2_極細2
  6
CONTINUOUS
 62
    2
 10
298.46480718453734
 20
587.70045163252848
 40
7.5
 50
0
 51
89.999999999999915
  0
LINE
  8
_1-2_極細2
  6
CONTINUOUS
 62
    2
 10
305.96480718453734
 20
569.20045163252712
 11
305.96480718453734
 21
587.70045163252848
  0
ARC
  8
_1-2_極細2
  6
CONTINUOUS
 62
    2
 10
308.46480718453734
 20
569.20045163252712
 40
7.5
 50
179.99999999999983
 51
269.99999999999977
  0
LINE
  8
_1-2_極細2
  6
CONTINUOUS
 62
    2
 10
300.96480718453734
 20
587.70045163252848
 11
300.96480718453734
 21
569.20045163252712
  0
ARC
  8
_1-2_極細2
  6
CONTINUOUS
 62
    2
 10
298.46480718453734
 20
587.70045163252848
 40
2.5
 50
0
 51
89.999999999999915
  0
ARC
  8
_1-2_極細2
  6
CONTINUOUS
 62
    2
 10
308.46480718453734
 20
569.20045163252712
 40
2.5
 50
179.99999999999983
 51
269.99999999999977
  0
LINE
  8
_1-2_極細2
  6
CONTINUOUS
 62
    2
 10
250.75093159295463
 20
595.20045163252848
 11
298.46480718453734
 21
595.20045163252848
  0
LINE
  8
_1-2_極細2
  6
CONTINUOUS
 62
    2
 10
245.75093105794906
 20
590.20045163252848
 11
298.46480718453734
 21
590.20045163252848
  0
LINE
  8
_1-2_極細2
  6
CONTINUOUS
 62
    2
 10
709.58792847001575
 20
590.20045163252894
 11
714.58792847001519
 21
595.20045163252848
  0
LINE
  8
_1-2_極細2
  6
CONTINUOUS
 62
    2
 10
705.34528778289632
 20
590.2004516325286
 11
710.34528778289598
 21
595.20045163252848
  0
LINE
  8
_1-2_極細2
  6
CONTINUOUS
 62
    2
 10
701.10264709577723
 20
590.20045163252894
 11
706.10264709577677
 21
595.20045163252848
  0
LINE
  8
_1-2_極細2
  6
CONTINUOUS
 62
    2
 10
696.86000640865757
 20
590.2004516325286
 11
701.86000640865757
 21
595.20045163252848
  0
LINE
  8
_1-2_極細2
  6
CONTINUOUS
 62
    2
 10
692.61736572153882
 20
590.20045163252894
 11
697.61736572153836
 21
595.2004516325286
  0
LINE
  8
_1-2_極細2
  6
CONTINUOUS
 62
    2
 10
688.37472503441916
 20
590.2004516325286
 11
693.37472503441916
 21
595.20045163252848
  0
LINE
  8
_1-2_極細2
  6
CONTINUOUS
 62
    2
 10
684.13208434729995
 20
590.20045163252894
 11
689.13208434729995
 21
595.2004516325286
  0
LINE
  8
_1-2_極細2
  6
CONTINUOUS
 62
    2
 10
679.88944366018075
 20
590.2004516325286
 11
684.88944366018075
 21
595.20045163252848
  0
LINE
  8
_1-2_極細2
  6
CONTINUOUS
 62
    2
 10
675.64680297306154
 20
590.20045163252894
 11
680.64680297306154
 21
595.2004516325286
  0
LINE
  8
_1-2_極細2
  6
CONTINUOUS
 62
    2
 10
671.40416228594233
 20
590.2004516325286
 11
676.40416228594222
 21
595.20045163252848
  0
LINE
  8
_1-2_極細2
  6
CONTINUOUS
 62
    2
 10
667.16152159882313
 20
590.20045163252894
 11
672.1615215988229
 21
595.2004516325286
  0
LINE
  8
_1-2_極細2
  6
CONTINUOUS
 62
    2
 10
662.91888091170381
 20
590.20045163252894
 11
667.91888091170381
 21
595.2004516325286
  0
LINE
  8
_1-2_極細2
  6
CONTINUOUS
 62
    2
 10
630.44138404733587
 20
561.96559545527998
 11
635.69966336178459
 21
567.22387476972904
  0
LINE
  8
_1-2_極細2
  6
CONTINUOUS
 62
    2
 10
658.67624022458472
 20
590.20045163252894
 11
663.67624022458449
 21
595.2004516325286
  0
LINE
  8
_1-2_極細2
  6
CONTINUOUS
 62
    2
 10
625.93359953746415
 20
561.70045163252723
 11
635.96480718453768
 21
571.73165927960088
  0
LINE
  8
_1-2_極細2
  6
CONTINUOUS
 62
    2
 10
654.4335995374654
 20
590.2004516325286
 11
659.4335995374654
 21
595.20045163252848
  0
LINE
  8
_1-2_極細2
  6
CONTINUOUS
 62
    2
 10
621.69095885034437
 20
561.70045163252712
 11
626.69095885034437
 21
566.70045163252712
  0
LINE
  8
_1-2_極細2
  6
CONTINUOUS
 62
    2
 10
630.96480718453734
 20
570.9742999667202
 11
635.96480718453734
 21
575.9742999667202
  0
LINE
  8
_1-2_極細2
  6
CONTINUOUS
 62
    2
 10
650.19095885034631
 20
590.20045163252894
 11
655.19095885034574
 21
595.2004516325286
  0
LINE
  8
_1-2_極細2
  6
CONTINUOUS
 62
    2
 10
617.44831816322517
 20
561.70045163252723
 11
622.44831816322517
 21
566.70045163252723
  0
LINE
  8
_1-2_極細2
  6
CONTINUOUS
 62
    2
 10
630.96480718453768
 20
575.21694065383963
 11
635.96480718453734
 21
580.2169406538394
  0
LINE
  8
_1-2_極細2
  6
CONTINUOUS
 62
    2
 10
645.94831816322699
 20
590.2004516325286
 11
650.94831816322653
 21
595.20045163252848
  0
LINE
  8
_1-2_極細2
  6
CONTINUOUS
 62
    2
 10
613.20567747610596
 20
561.70045163252712
 11
618.20567747610596
 21
566.70045163252712
  0
LINE
  8
_1-2_極細2
  6
CONTINUOUS
 62
    2
 10
630.96480718453734
 20
579.45958134095861
 11
635.96480718453768
 21
584.45958134095861
  0
LINE
  8
_1-2_極細2
  6
CONTINUOUS
 62
    2
 10
641.70567747610767
 20
590.20045163252894
 11
646.70567747610733
 21
595.2004516325286
  0
LINE
  8
_1-2_極細2
  6
CONTINUOUS
 62
    2
 10
608.96303678898676
 20
561.70045163252723
 11
613.96303678898676
 21
566.70045163252757
  0
LINE
  8
_1-2_極細2
  6
CONTINUOUS
 62
    2
 10
630.96480718453768
 20
583.70222202807804
 11
636.47019873343311
 21
589.20761357697324
  0
LINE
  8
_1-2_極細2
  6
CONTINUOUS
 62
    2
 10
636.95764524009269
 20
589.69506008363305
 11
642.46303678898812
 21
595.2004516325286
  0
LINE
  8
_1-2_極細2
  6
CONTINUOUS
 62
    2
 10
604.72039610186755
 20
561.70045163252712
 11
609.72039610186755
 21
566.70045163252723
  0
LINE
  8
_1-2_極細2
  6
CONTINUOUS
 62
    2
 10
630.9689261271476
 20
587.94898165780728
 11
638.21627715925899
 21
595.19633268991834
  0
LINE
  8
_1-2_極細2
  6
CONTINUOUS
 62
    2
 10
600.47775541474834
 20
561.70045163252723
 11
605.47775541474834
 21
566.70045163252723
  0
LINE
  8
_1-2_極細2
  6
CONTINUOUS
 62
    2
 10
596.23511472762914
 20
561.70045163252712
 11
601.23511472762914
 21
566.70045163252712
  0
LINE
  8
_1-2_極細2
  6
CONTINUOUS
 62
    2
 10
591.99247404050993
 20
561.70045163252723
 11
596.99247404050993
 21
566.70045163252723
  0
LINE
  8
_1-2_極細2
  6
CONTINUOUS
 62
    2
 10
590.96480718453734
 20
564.91542546367418
 11
592.74983335339073
 21
566.70045163252712
  0
LINE
  8
_1-2_極細2
  6
CONTINUOUS
 62
    2
 10
587.74983335338959
 20
561.70045163252712
 11
590.96480718453734
 21
564.91542546367486
  0
LINE
  8
_1-2_極細2
  6
CONTINUOUS
 62
    2
 10
583.50719266627038
 20
561.70045163252723
 11
588.50719266627038
 21
566.70045163252723
  0
LINE
  8
_1-2_極細2
  6
CONTINUOUS
 62
    2
 10
579.26455197915118
 20
561.70045163252712
 11
584.26455197915118
 21
566.70045163252712
  0
LINE
  8
_1-2_極細2
  6
CONTINUOUS
 62
    2
 10
575.02191129203197
 20
561.70045163252723
 11
580.02191129203197
 21
566.70045163252757
  0
LINE
  8
_1-2_極細2
  6
CONTINUOUS
 62
    2
 10
570.77927060491277
 20
561.70045163252723
 11
575.77927060491277
 21
566.70045163252723
  0
LINE
  8
_1-2_極細2
  6
CONTINUOUS
 62
    2
 10
566.53662991779356
 20
561.70045163252723
 11
571.53662991779356
 21
566.70045163252723
  0
LINE
  8
_1-2_極細2
  6
CONTINUOUS
 62
    2
 10
562.29398923067436
 20
561.70045163252712
 11
567.29398923067436
 21
566.70045163252723
  0
LINE
  8
_1-2_極細2
  6
CONTINUOUS
 62
    2
 10
558.05134854355515
 20
561.70045163252723
 11
563.05134854355515
 21
566.70045163252723
  0
LINE
  8
_1-2_極細2
  6
CONTINUOUS
 62
    2
 10
553.80870785643594
 20
561.70045163252712
 11
558.80870785643594
 21
566.70045163252712
  0
LINE
  8
_1-2_極細2
  6
CONTINUOUS
 62
    2
 10
549.56606716931651
 20
561.70045163252757
 11
554.56606716931674
 21
566.70045163252757
  0
LINE
  8
_1-2_極細2
  6
CONTINUOUS
 62
    2
 10
545.32342648219753
 20
561.70045163252723
 11
550.32342648219753
 21
566.70045163252723
  0
LINE
  8
_1-2_極細2
  6
CONTINUOUS
 62
    2
 10
541.0807857950781
 20
561.70045163252723
 11
546.0807857950781
 21
566.70045163252757
  0
LINE
  8
_1-2_極細2
  6
CONTINUOUS
 62
    2
 10
536.83814510795855
 20
561.70045163252723
 11
541.83814510795912
 21
566.70045163252723
  0
LINE
  8
_1-2_極細2
  6
CONTINUOUS
 62
    2
 10
532.59550442083969
 20
561.70045163252723
 11
537.59550442083969
 21
566.70045163252723
  0
LINE
  8
_1-2_極細2
  6
CONTINUOUS
 62
    2
 10
528.35286373372014
 20
561.70045163252712
 11
533.35286373372014
 21
566.70045163252723
  0
LINE
  8
_1-2_極細2
  6
CONTINUOUS
 62
    2
 10
524.11022304660094
 20
561.70045163252712
 11
529.11022304660128
 21
566.70045163252723
  0
LINE
  8
_1-2_極細2
  6
CONTINUOUS
 62
    2
 10
519.86758235948173
 20
561.70045163252723
 11
524.86758235948173
 21
566.70045163252723
  0
LINE
  8
_1-2_極細2
  6
CONTINUOUS
 62
    2
 10
515.62494167236252
 20
561.70045163252712
 11
520.62494167236252
 21
566.70045163252723
  0
LINE
  8
_1-2_極細2
  6
CONTINUOUS
 62
    2
 10
511.38230098524332
 20
561.70045163252723
 11
516.38230098524332
 21
566.70045163252723
  0
LINE
  8
_1-2_極細2
  6
CONTINUOUS
 62
    2
 10
507.13966029812411
 20
561.70045163252712
 11
512.13966029812411
 21
566.70045163252712
  0
LINE
  8
_1-2_極細2
  6
CONTINUOUS
 62
    2
 10
502.89701961100491
 20
561.70045163252723
 11
507.89701961100491
 21
566.70045163252723
  0
LINE
  8
_1-2_極細2
  6
CONTINUOUS
 62
    2
 10
498.65437892388559
 20
561.70045163252712
 11
503.65437892388559
 21
566.70045163252712
  0
LINE
  8
_1-2_極細2
  6
CONTINUOUS
 62
    2
 10
494.41173823676621
 20
561.70045163252712
 11
499.41173823676621
 21
566.70045163252723
  0
LINE
  8
_1-2_極細2
  6
CONTINUOUS
 62
    2
 10
490.16909754964718
 20
561.70045163252712
 11
495.16909754964718
 21
566.70045163252723
  0
LINE
  8
_1-2_極細2
  6
CONTINUOUS
 62
    2
 10
485.9264568625278
 20
561.70045163252723
 11
490.9264568625278
 21
566.70045163252723
  0
LINE
  8
_1-2_極細2
  6
CONTINUOUS
 62
    2
 10
481.68381617540831
 20
561.70045163252712
 11
486.68381617540831
 21
566.70045163252712
  0
LINE
  8
_1-2_極細2
  6
CONTINUOUS
 62
    2
 10
477.4411754882891
 20
561.70045163252723
 11
482.44117548828939
 21
566.70045163252723
  0
LINE
  8
_1-2_極細2
  6
CONTINUOUS
 62
    2
 10
473.1985348011699
 20
561.70045163252712
 11
478.1985348011699
 21
566.70045163252712
  0
LINE
  8
_1-2_極細2
  6
CONTINUOUS
 62
    2
 10
468.95589411405069
 20
561.70045163252712
 11
473.95589411405069
 21
566.70045163252723
  0
LINE
  8
_1-2_極細2
  6
CONTINUOUS
 62
    2
 10
468.46480718453762
 20
565.45200539013308
 11
469.71325342693149
 21
566.70045163252723
  0
LINE
  8
_1-2_極細2
  6
CONTINUOUS
 62
    2
 10
345.91931418759032
 20
561.70045163252723
 11
345.96480718453762
 21
561.74594462947448
  0
LINE
  8
_1-2_極細2
  6
CONTINUOUS
 62
    2
 10
341.676673500471
 20
561.70045163252723
 11
345.96480718453762
 21
565.9885853165938
  0
LINE
  8
_1-2_極細2
  6
CONTINUOUS
 62
    2
 10
337.43403281335162
 20
561.70045163252712
 11
342.43403281335162
 21
566.70045163252723
  0
LINE
  8
_1-2_極細2
  6
CONTINUOUS
 62
    2
 10
333.19139212623259
 20
561.70045163252712
 11
338.19139212623259
 21
566.70045163252723
  0
LINE
  8
_1-2_極細2
  6
CONTINUOUS
 62
    2
 10
328.94875143911321
 20
561.70045163252712
 11
333.94875143911321
 21
566.70045163252712
  0
LINE
  8
_1-2_極細2
  6
CONTINUOUS
 62
    2
 10
324.70611075199417
 20
561.70045163252723
 11
329.70611075199417
 21
566.70045163252723
  0
LINE
  8
_1-2_極細2
  6
CONTINUOUS
 62
    2
 10
320.4634700648748
 20
561.70045163252723
 11
325.4634700648748
 21
566.70045163252723
  0
LINE
  8
_1-2_極細2
  6
CONTINUOUS
 62
    2
 10
316.22082937775559
 20
561.70045163252723
 11
321.22082937775576
 21
566.70045163252723
  0
LINE
  8
_1-2_極細2
  6
CONTINUOUS
 62
    2
 10
311.97818869063639
 20
561.70045163252723
 11
316.97818869063639
 21
566.70045163252723
  0
LINE
  8
_1-2_極細2
  6
CONTINUOUS
 62
    2
 10
307.76798857457322
 20
561.73289220358356
 11
312.73554800351718
 21
566.70045163252723
  0
LINE
  8
_1-2_極細2
  6
CONTINUOUS
 62
    2
 10
304.57840315099065
 20
562.78594746711974
 11
308.49290731639769
 21
566.70045163252723
  0
LINE
  8
_1-2_極細2
  6
CONTINUOUS
 62
    2
 10
302.37398288778365
 20
564.8241678910324
 11
306.06154606893642
 21
568.51173107218506
  0
LINE
  8
_1-2_極細2
  6
CONTINUOUS
 62
    2
 10
301.09839273924581
 20
567.79121842961354
 11
305.96480718453734
 21
572.65763287490563
  0
LINE
  8
_1-2_極細2
  6
CONTINUOUS
 62
    2
 10
300.96480718453734
 20
571.90027356202449
 11
305.96480718453734
 21
576.90027356202449
  0
LINE
  8
_1-2_極細2
  6
CONTINUOUS
 62
    2
 10
300.96480718453734
 20
576.14291424914404
 11
305.96480718453762
 21
581.14291424914404
  0
LINE
  8
_1-2_極細2
  6
CONTINUOUS
 62
    2
 10
300.96480718453734
 20
580.38555493626313
 11
305.96480718453762
 21
585.38555493626313
  0
LINE
  8
_1-2_極細2
  6
CONTINUOUS
 62
    2
 10
300.96480718453762
 20
584.62819562338245
 11
305.76341685025159
 21
589.42680528909648
  0
LINE
  8
_1-2_極細2
  6
CONTINUOUS
 62
    2
 10
300.7676108082623
 20
588.67363993422623
 11
304.39108144469031
 21
592.29711057065447
  0
LINE
  8
_1-2_極細2
  6
CONTINUOUS
 62
    2
 10
298.05178181944541
 20
590.20045163252894
 11
302.10766414985801
 21
594.25633396294165
  0
LINE
  8
_1-2_極細2
  6
CONTINUOUS
 62
    2
 10
293.80914113232592
 20
590.20045163252894
 11
298.80157641630007
 21
595.19288691650274
  0
LINE
  8
_1-2_極細2
  6
CONTINUOUS
 62
    2
 10
289.56650044520688
 20
590.20045163252894
 11
294.56650044520688
 21
595.2004516325286
  0
LINE
  8
_1-2_極細2
  6
CONTINUOUS
 62
    2
 10
285.32385975808751
 20
590.20045163252894
 11
290.32385975808751
 21
595.2004516325286
  0
LINE
  8
_1-2_極細2
  6
CONTINUOUS
 62
    2
 10
281.08121907096847
 20
590.20045163252894
 11
286.08121907096847
 21
595.2004516325286
  0
LINE
  8
_1-2_極細2
  6
CONTINUOUS
 62
    2
 10
276.8385783838491
 20
590.2004516325286
 11
281.8385783838491
 21
595.2004516325286
  0
LINE
  8
_1-2_極細2
  6
CONTINUOUS
 62
    2
 10
272.59593769673006
 20
590.20045163252894
 11
277.59593769672989
 21
595.20045163252894
  0
LINE
  8
_1-2_極細2
  6
CONTINUOUS
 62
    2
 10
268.35329700961069
 20
590.2004516325286
 11
273.3532970096104
 21
595.2004516325286
  0
LINE
  8
_1-2_極細2
  6
CONTINUOUS
 62
    2
 10
264.11065632249148
 20
590.2004516325286
 11
269.1106563224912
 21
595.2004516325286
  0
LINE
  8
_1-2_極細2
  6
CONTINUOUS
 62
    2
 10
259.86801563537199
 20
590.2004516325286
 11
264.86801563537199
 21
595.2004516325286
  0
LINE
  8
_1-2_極細2
  6
CONTINUOUS
 62
    2
 10
255.62537494825278
 20
590.2004516325286
 11
260.62537494825278
 21
595.2004516325286
  0
LINE
  8
_1-2_極細2
  6
CONTINUOUS
 62
    2
 10
251.38273426113344
 20
590.2004516325286
 11
256.38273426113346
 21
595.20045163252848
  0
LINE
  8
_1-2_極細2
  6
CONTINUOUS
 62
    2
 10
247.14009357401423
 20
590.20045163252894
 11
252.14009357401423
 21
595.2004516325286
  0
LINE
  8
_1-2_極細2
  6
CONTINUOUS
 62
    2
 10
338.46480731453698
 20
491.49460751795732
 11
342.25896319917626
 21
487.70045163331787
  0
LINE
  8
_1-2_極細2
  6
CONTINUOUS
 62
    2
 10
338.46480731453698
 20
495.73724820507636
 11
346.50160388629547
 21
487.70045163331787
  0
LINE
  8
_1-2_極細2
  6
CONTINUOUS
 62
    2
 10
338.46480731453698
 20
499.97988889219573
 11
350.74424457341479
 21
487.70045163331787
  0
LINE
  8
_1-2_極細2
  6
CONTINUOUS
 62
    2
 10
338.46480731453698
 20
504.22252957931505
 11
351.71480730128837
 21
490.97252959256366
  0
LINE
  8
_1-2_極細2
  6
CONTINUOUS
 62
    2
 10
338.46480731453698
 20
508.46517026643426
 11
351.71480730128837
 21
495.21517027968275
  0
LINE
  8
_1-2_極細2
  6
CONTINUOUS
 62
    2
 10
338.46480731453698
 20
512.70781095355346
 11
351.71480730128837
 21
499.45781096680207
  0
LINE
  8
_1-2_極細2
  6
CONTINUOUS
 62
    2
 10
338.46480731453698
 20
516.95045164067301
 11
351.71480730128837
 21
503.70045165392156
  0
LINE
  8
_1-2_極細2
  6
CONTINUOUS
 62
    2
 10
310.03362413323191
 20
549.62427550909752
 11
321.63863120471706
 21
538.01926843761237
  0
LINE
  8
_1-2_極細2
  6
CONTINUOUS
 62
    2
 10
338.46480731453698
 20
521.19309232779233
 11
351.71480730128837
 21
507.94309234104094
  0
LINE
  8
_1-2_極細2
  6
CONTINUOUS
 62
    2
 10
309.71480734328725
 20
554.18573298616184
 11
326.20008868338505
 21
537.70045164606358
  0
LINE
  8
_1-2_極細2
  6
CONTINUOUS
 62
    2
 10
338.46480731453698
 20
525.43573301491153
 11
351.71480730128837
 21
512.18573302816014
  0
LINE
  8
_1-2_極細2
  6
CONTINUOUS
 62
    2
 10
309.71480734328725
 20
558.42837367328116
 11
330.4427293750864
 21
537.70045164148178
  0
LINE
  8
_1-2_極細2
  6
CONTINUOUS
 62
    2
 10
338.46480731453698
 20
529.67837370203085
 11
351.71480730128837
 21
516.42837371527946
  0
LINE
  8
_1-2_極細2
  6
CONTINUOUS
 62
    2
 10
310.68537007116038
 20
561.70045163252712
 11
334.68537006678758
 21
537.70045163689974
  0
LINE
  8
_1-2_極細2
  6
CONTINUOUS
 62
    2
 10
338.46480731453698
 20
533.92101438915006
 11
351.71480730128837
 21
520.67101440239867
  0
LINE
  8
_1-2_極細2
  6
CONTINUOUS
 62
    2
 10
314.92801075827958
 20
561.70045163252712
 11
351.71480730128837
 21
524.91365508951822
  0
LINE
  8
_1-2_極細2
  6
CONTINUOUS
 62
    2
 10
319.17065144539879
 20
561.70045163252712
 11
351.71480730128837
 21
529.15629577663731
  0
LINE
  8
_1-2_極細2
  6
CONTINUOUS
 62
    2
 10
323.413292132518
 20
561.70045163252712
 11
351.71480730128837
 21
533.39893646375663
  0
LINE
  8
_1-2_極細2
  6
CONTINUOUS
 62
    2
 10
327.65593281963731
 20
561.70045163252712
 11
351.71480730128837
 21
537.64157715087595
  0
LINE
  8
_1-2_極細2
  6
CONTINUOUS
 62
    2
 10
331.89857350675652
 20
561.70045163252712
 11
346.99683042351126
 21
546.60219471577238
  0
LINE
  8
_1-2_極細2
  6
CONTINUOUS
 62
    2
 10
336.14121419387573
 20
561.70045163252712
 11
342.21421611369635
 21
555.62744971270649
  0
LINE
  8
_1-2_極細2
  6
CONTINUOUS
 62
    2
 10
348.8691362552338
 20
487.70045163331787
 11
351.71480730128837
 21
490.54612267937244
  0
LINE
  8
_1-2_極細2
  6
CONTINUOUS
 62
    2
 10
344.62649556811442
 20
487.70045163331787
 11
351.71480730128837
 21
494.78876336649182
  0
LINE
  8
_1-2_極細2
  6
CONTINUOUS
 62
    2
 10
340.38385488099522
 20
487.70045163331787
 11
351.71480730128837
 21
499.03140405361086
  0
LINE
  8
_1-2_極細2
  6
CONTINUOUS
 62
    2
 10
338.46480731453698
 20
490.02404475397884
 11
351.71480730128837
 21
503.27404474073023
  0
LINE
  8
_1-2_極細2
  6
CONTINUOUS
 62
    2
 10
338.46480731453698
 20
494.26668544109816
 11
351.71480730128837
 21
507.51668542784944
  0
LINE
  8
_1-2_極細2
  6
CONTINUOUS
 62
    2
 10
338.46480731453698
 20
498.50932612821765
 11
351.71480730128837
 21
511.75932611496864
  0
LINE
  8
_1-2_極細2
  6
CONTINUOUS
 62
    2
 10
338.46480731453698
 20
502.75196681533686
 11
351.71480730128837
 21
516.00196680208796
  0
LINE
  8
_1-2_極細2
  6
CONTINUOUS
 62
    2
 10
338.46480731453698
 20
506.99460750245606
 11
351.71480730128837
 21
520.24460748920717
  0
LINE
  8
_1-2_極細2
  6
CONTINUOUS
 62
    2
 10
338.46480731453698
 20
511.23724818957544
 11
351.71480730128837
 21
524.48724817632637
  0
LINE
  8
_1-2_極細2
  6
CONTINUOUS
 62
    2
 10
338.46480731453698
 20
515.47988887669464
 11
351.71480730128837
 21
528.72988886344592
  0
LINE
  8
_1-2_極細2
  6
CONTINUOUS
 62
    2
 10
338.46480731453698
 20
519.72252956381385
 11
351.71480730128837
 21
532.97252955056501
  0
LINE
  8
_1-2_極細2
  6
CONTINUOUS
 62
    2
 10
338.46480731453698
 20
523.96517025093317
 11
351.71480730128837
 21
537.21517023768433
  0
LINE
  8
_1-2_極細2
  6
CONTINUOUS
 62
    2
 10
338.46480731453698
 20
528.20781093805238
 11
350.41284387316381
 21
540.15584749667914
  0
LINE
  8
_1-2_極細2
  6
CONTINUOUS
 62
    2
 10
338.46480731453698
 20
532.45045162517158
 11
348.94332575919225
 21
542.92897006982685
  0
LINE
  8
_1-2_極細2
  6
CONTINUOUS
 62
    2
 10
338.46480731453698
 20
536.69309231229113
 11
347.47380764522063
 21
545.70209264297455
  0
LINE
  8
_1-2_極細2
  6
CONTINUOUS
 62
    2
 10
335.22952595143863
 20
537.70045163631198
 11
346.00428953124919
 21
548.47521521612225
  0
LINE
  8
_1-2_極細2
  6
CONTINUOUS
 62
    2
 10
330.98688526890146
 20
537.70045164089402
 11
344.53477141727763
 21
551.24833778927018
  0
LINE
  8
_1-2_極細2
  6
CONTINUOUS
 62
    2
 10
326.7442445863644
 20
537.70045164547605
 11
343.06525330330601
 21
554.02146036241777
  0
LINE
  8
_1-2_極細2
  6
CONTINUOUS
 62
    2
 10
322.645082175666
 20
537.84392992189714
 11
341.59573518933456
 21
556.79458293556536
  0
LINE
  8
_1-2_極細2
  6
CONTINUOUS
 62
    2
 10
319.27867482686383
 20
538.72016326021412
 11
340.126217075363
 21
559.56770550871329
  0
LINE
  8
_1-2_極細2
  6
CONTINUOUS
 62
    2
 10
316.47931239319291
 20
540.16344151366275
 11
338.01632251205746
 21
561.70045163252712
  0
LINE
  8
_1-2_極細2
  6
CONTINUOUS
 62
    2
 10
314.13768371920401
 20
542.06445352679316
 11
333.77368182493842
 21
561.70045163252712
  0
LINE
  8
_1-2_極細2
  6
CONTINUOUS
 62
    2
 10
312.22465394950575
 20
544.39406444421388
 11
329.53104113781905
 21
561.70045163252712
  0
LINE
  8
_1-2_極細2
  6
CONTINUOUS
 62
    2
 10
310.76769837538666
 20
547.17974955721411
 11
325.28840045069984
 21
561.70045163252712
  0
LINE
  8
_1-2_極細2
  6
CONTINUOUS
 62
    2
 10
309.87300382645276
 20
550.52769569539964
 11
321.04575976358035
 21
561.70045163252712
  0
LINE
  8
_1-2_極細2
  6
CONTINUOUS
 62
    2
 10
309.71480734328725
 20
554.61213989935322
 11
316.80311907646114
 21
561.70045163252712
  0
LINE
  8
_1-2_極細2
  6
CONTINUOUS
 62
    2
 10
309.71480734328725
 20
558.85478058647232
 11
312.56047838934182
 21
561.70045163252712
  0
LINE
  8
_1-2_極細2
  6
CONTINUOUS
 62
    2
 10
349.43236709537462
 20
566.70045163252723
 11
350.20921187791231
 21
567.47729641506498
  0
LINE
  8
_1-2_極細2
  6
CONTINUOUS
 62
    2
 10
348.01815353300117
 20
566.70045163252723
 11
349.6298238118149
 21
568.31212191134114
  0
LINE
  8
_1-2_極細2
  6
CONTINUOUS
 62
    2
 10
346.60393997062829
 20
566.70045163252723
 11
348.97776411147322
 21
569.07427577337216
  0
LINE
  8
_1-2_極細2
  6
CONTINUOUS
 62
    2
 10
345.18972640825541
 20
566.70045163252723
 11
348.25473466798644
 21
569.76545989225815
  0
LINE
  8
_1-2_極細2
  6
CONTINUOUS
 62
    2
 10
343.77551284588253
 20
566.70045163252723
 11
347.46024877350737
 21
570.38518756015208
  0
LINE
  8
_1-2_極細2
  6
CONTINUOUS
 62
    2
 10
342.36129928350891
 20
566.70045163252723
 11
346.59155378393893
 21
570.93070613295708
  0
LINE
  8
_1-2_極細2
  6
CONTINUOUS
 62
    2
 10
340.94708572113603
 20
566.70045163252723
 11
345.64317001229756
 21
571.39653592368859
  0
LINE
  8
_1-2_極細2
  6
CONTINUOUS
 62
    2
 10
339.53287215876315
 20
566.70045163252723
 11
344.60584868517958
 21
571.77342815894349
  0
LINE
  8
_1-2_極細2
  6
CONTINUOUS
 62
    2
 10
338.11865859639028
 20
566.70045163252723
 11
343.46441299821976
 21
572.04620603435706
  0
LINE
  8
_1-2_極細2
  6
CONTINUOUS
 62
    2
 10
336.704445034017
 20
566.70045163252723
 11
342.1930048365009
 21
572.18901143501046
  0
LINE
  8
_1-2_極細2
  6
CONTINUOUS
 62
    2
 10
335.29023147164412
 20
566.70045163252723
 11
340.7902314619547
 21
572.20045162283782
  0
LINE
  8
_1-2_極細2
  6
CONTINUOUS
 62
    2
 10
333.87601790927124
 20
566.70045163252723
 11
339.37601789998752
 21
572.20045162324368
  0
LINE
  8
_1-2_極細2
  6
CONTINUOUS
 62
    2
 10
332.46180434689836
 20
566.70045163252723
 11
337.9618043380205
 21
572.20045162364943
  0
LINE
  8
_1-2_極細2
  6
CONTINUOUS
 62
    2
 10
331.04759078452491
 20
566.70045163252723
 11
336.54759077605308
 21
572.2004516240554
  0
LINE
  8
_1-2_極細2
  6
CONTINUOUS
 62
    2
 10
329.63337722215203
 20
566.70045163252723
 11
335.13337721408607
 21
572.20045162446115
  0
LINE
  8
_1-2_極細2
  6
CONTINUOUS
 62
    2
 10
328.21916365977916
 20
566.70045163252723
 11
333.71916365211905
 21
572.2004516248669
  0
LINE
  8
_1-2_極細2
  6
CONTINUOUS
 62
    2
 10
326.80495009740628
 20
566.70045163252723
 11
332.30495009015129
 21
572.20045162527276
  0
LINE
  8
_1-2_極細2
  6
CONTINUOUS
 62
    2
 10
325.39073653503283
 20
566.70045163252723
 11
330.89073652818445
 21
572.20045162567862
  0
LINE
  8
_1-2_極細2
  6
CONTINUOUS
 62
    2
 10
323.97652297265995
 20
566.70045163252723
 11
329.47652296621743
 21
572.20045162608449
  0
LINE
  8
_1-2_極細2
  6
CONTINUOUS
 62
    2
 10
322.56230941028707
 20
566.70045163252723
 11
328.06230940424985
 21
572.20045162649035
  0
LINE
  8
_1-2_極細2
  6
CONTINUOUS
 62
    2
 10
321.14809584791419
 20
566.70045163252723
 11
326.64809584228283
 21
572.20045162689621
  0
LINE
  8
_1-2_極細2
  6
CONTINUOUS
 62
    2
 10
319.73388228554057
 20
566.70045163252723
 11
325.23388228031581
 21
572.20045162730207
  0
LINE
  8
_1-2_極細2
  6
CONTINUOUS
 62
    2
 10
318.31966872316769
 20
566.70045163252723
 11
323.81966871834805
 21
572.20045162770759
  0
LINE
  8
_1-2_極細2
  6
CONTINUOUS
 62
    2
 10
316.90545516079482
 20
566.70045163252723
 11
322.40545515638104
 21
572.20045162811346
  0
LINE
  8
_1-2_極細2
  6
CONTINUOUS
 62
    2
 10
315.49124159842194
 20
566.70045163252723
 11
320.99124159441402
 21
572.20045162851932
  0
LINE
  8
_1-2_極細2
  6
CONTINUOUS
 62
    2
 10
314.07702803604866
 20
566.70045163252723
 11
319.57702803244661
 21
572.20045162892507
  0
LINE
  8
_1-2_極細2
  6
CONTINUOUS
 62
    2
 10
312.66281447367578
 20
566.70045163252723
 11
318.16281447047959
 21
572.20045162933093
  0
LINE
  8
_1-2_極細2
  6
CONTINUOUS
 62
    2
 10
311.2486009113029
 20
566.70045163252723
 11
316.74860090851257
 21
572.20045162973679
  0
LINE
  8
_1-2_極細2
  6
CONTINUOUS
 62
    2
 10
309.83438734893002
 20
566.70045163252723
 11
315.33438734654499
 21
572.20045163014265
  0
LINE
  8
_1-2_極細2
  6
CONTINUOUS
 62
    2
 10
308.46480734453706
 20
566.74508519050778
 11
313.92017378457797
 21
572.20045163054829
  0
LINE
  8
_1-2_極細2
  6
CONTINUOUS
 62
    2
 10
308.46480734453706
 20
568.15929875288066
 11
312.50596022261078
 21
572.20045163095438
  0
LINE
  8
_1-2_極細2
  6
CONTINUOUS
 62
    2
 10
308.46480734453706
 20
569.57351231525365
 11
311.09174666064337
 21
572.20045163136001
  0
LINE
  8
_1-2_極細2
  6
CONTINUOUS
 62
    2
 10
308.46480734453706
 20
570.98772587762687
 11
309.67753309867635
 21
572.20045163176565
  0
LINE
  8
_1-2_極細2
  6
CONTINUOUS
 62
    2
 10
350.59857502372597
 20
566.79160301664297
 11
346.30595869535841
 21
571.0842193450103
  0
LINE
  8
_1-2_極細2
  6
CONTINUOUS
 62
    2
 10
349.27551284546826
 20
566.70045163252723
 11
344.05262092423402
 21
571.92334355376147
  0
LINE
  8
_1-2_極細2
  6
CONTINUOUS
 62
    2
 10
347.86129928309538
 20
566.70045163252723
 11
342.38369490166508
 21
572.17805601395753
  0
LINE
  8
_1-2_極細2
  6
CONTINUOUS
 62
    2
 10
346.4470857207225
 20
566.70045163252723
 11
340.94708573045682
 21
572.2004516227928
  0
LINE
  8
_1-2_極細2
  6
CONTINUOUS
 62
    2
 10
345.03287215834962
 20
566.70045163252723
 11
339.53287216767808
 21
572.20045162319866
  0
LINE
  8
_1-2_極細2
  6
CONTINUOUS
 62
    2
 10
343.61865859597674
 20
566.70045163252723
 11
338.11865860489934
 21
572.20045162360452
  0
LINE
  8
_1-2_極細2
  6
CONTINUOUS
 62
    2
 10
342.20444503360386
 20
566.70045163252723
 11
336.7044450421206
 21
572.20045162401016
  0
LINE
  8
_1-2_極細2
  6
CONTINUOUS
 62
    2
 10
340.79023147123098
 20
566.70045163252723
 11
335.29023147934186
 21
572.20045162441602
  0
LINE
  8
_1-2_極細2
  6
CONTINUOUS
 62
    2
 10
339.3760179088581
 20
566.70045163252723
 11
333.87601791656311
 21
572.20045162482211
  0
LINE
  8
_1-2_極細2
  6
CONTINUOUS
 62
    2
 10
337.96180434648448
 20
566.70045163252723
 11
332.46180435378437
 21
572.20045162522774
  0
LINE
  8
_1-2_極細2
  6
CONTINUOUS
 62
    2
 10
336.54759078411161
 20
566.70045163252723
 11
331.04759079100563
 21
572.20045162563338
  0
LINE
  8
_1-2_極細2
  6
CONTINUOUS
 62
    2
 10
335.13337722173873
 20
566.70045163252723
 11
329.63337722822689
 21
572.20045162603947
  0
LINE
  8
_1-2_極細2
  6
CONTINUOUS
 62
    2
 10
333.71916365936585
 20
566.70045163252723
 11
328.21916366544815
 21
572.2004516264451
  0
LINE
  8
_1-2_極細2
  6
CONTINUOUS
 62
    2
 10
332.30495009699297
 20
566.70045163252723
 11
326.80495010266941
 21
572.20045162685096
  0
LINE
  8
_1-2_極細2
  6
CONTINUOUS
 62
    2
 10
330.89073653462009
 20
566.70045163252723
 11
325.39073653989067
 21
572.20045162725683
  0
LINE
  8
_1-2_極細2
  6
CONTINUOUS
 62
    2
 10
329.47652297224721
 20
566.70045163252723
 11
323.97652297711193
 21
572.20045162766269
  0
LINE
  8
_1-2_極細2
  6
CONTINUOUS
 62
    2
 10
328.06230940987433
 20
566.70045163252723
 11
322.56230941433319
 21
572.20045162806855
  0
LINE
  8
_1-2_極細2
  6
CONTINUOUS
 62
    2
 10
326.64809584750105
 20
566.70045163252723
 11
321.14809585155444
 21
572.2004516284743
  0
LINE
  8
_1-2_極細2
  6
CONTINUOUS
 62
    2
 10
325.23388228512817
 20
566.70045163252723
 11
319.7338822887757
 21
572.20045162888027
  0
LINE
  8
_1-2_極細2
  6
CONTINUOUS
 62
    2
 10
323.8196687227553
 20
566.70045163252723
 11
318.31966872599639
 21
572.20045162928591
  0
LINE
  8
_1-2_極細2
  6
CONTINUOUS
 62
    2
 10
322.40545516038242
 20
566.70045163252723
 11
316.90545516321822
 21
572.20045162969177
  0
LINE
  8
_1-2_極細2
  6
CONTINUOUS
 62
    2
 10
320.99124159800954
 20
566.70045163252723
 11
315.49124160043874
 21
572.20045163009763
  0
LINE
  8
_1-2_極細2
  6
CONTINUOUS
 62
    2
 10
319.57702803563666
 20
566.70045163252723
 11
314.07702803766
 21
572.20045163050349
  0
LINE
  8
_1-2_極細2
  6
CONTINUOUS
 62
    2
 10
318.16281447326378
 20
566.70045163252723
 11
312.66281447488126
 21
572.20045163090936
  0
LINE
  8
_1-2_極細2
  6
CONTINUOUS
 62
    2
 10
316.7486009108909
 20
566.70045163252723
 11
311.24860091210269
 21
572.20045163131522
  0
LINE
  8
_1-2_極細2
  6
CONTINUOUS
 62
    2
 10
315.33438734851745
 20
566.70045163252723
 11
309.83438734932395
 21
572.20045163172074
  0
LINE
  8
_1-2_極細2
  6
CONTINUOUS
 62
    2
 10
313.92017378614457
 20
566.70045163252723
 11
308.46480734453706
 21
572.15581807413491
  0
LINE
  8
_1-2_極細2
  6
CONTINUOUS
 62
    2
 10
312.50596022377169
 20
566.70045163252723
 11
308.46480734453706
 21
570.74160451176169
  0
LINE
  8
_1-2_極細2
  6
CONTINUOUS
 62
    2
 10
311.09174666139882
 20
566.70045163252723
 11
308.46480734453706
 21
569.32739094938881
  0
LINE
  8
_1-2_極細2
  6
CONTINUOUS
 62
    2
 10
309.67753309902594
 20
566.70045163252723
 11
308.46480734453706
 21
567.91317738701582
  0
LINE
  8
_1-2_極細2
  6
CONTINUOUS
 62
    2
 10
627.73919372220405
 20
566.70045163252723
 11
628.46480702453789
 21
567.42606493486107
  0
LINE
  8
_1-2_極細2
  6
CONTINUOUS
 62
    2
 10
626.32498015983117
 20
566.70045163252723
 11
628.46480702453789
 21
568.84027849723395
  0
LINE
  8
_1-2_極細2
  6
CONTINUOUS
 62
    2
 10
624.91076659745829
 20
566.70045163252723
 11
628.46480702453789
 21
570.25449205960717
  0
LINE
  8
_1-2_極細2
  6
CONTINUOUS
 62
    2
 10
623.49655303508541
 20
566.70045163252723
 11
628.46480702453789
 21
571.66870562198005
  0
LINE
  8
_1-2_極細2
  6
CONTINUOUS
 62
    2
 10
622.08233947271196
 20
566.70045163252723
 11
627.58233947265751
 21
572.20045163247255
  0
LINE
  8
_1-2_極細2
  6
CONTINUOUS
 62
    2
 10
620.66812591033909
 20
566.70045163252723
 11
626.16812591028463
 21
572.20045163247255
  0
LINE
  8
_1-2_極細2
  6
CONTINUOUS
 62
    2
 10
619.25391234796621
 20
566.70045163252723
 11
624.75391234791095
 21
572.20045163247255
  0
LINE
  8
_1-2_極細2
  6
CONTINUOUS
 62
    2
 10
617.83969878559333
 20
566.70045163252723
 11
623.33969878553808
 21
572.20045163247255
  0
LINE
  8
_1-2_極細2
  6
CONTINUOUS
 62
    2
 10
616.42548522321988
 20
566.70045163252723
 11
621.9254852231652
 21
572.20045163247255
  0
LINE
  8
_1-2_極細2
  6
CONTINUOUS
 62
    2
 10
615.011271660847
 20
566.70045163252723
 11
620.51127166079198
 21
572.20045163247255
  0
LINE
  8
_1-2_極細2
  6
CONTINUOUS
 62
    2
 10
613.59705809847412
 20
566.70045163252723
 11
619.0970580984191
 21
572.20045163247255
  0
LINE
  8
_1-2_極細2
  6
CONTINUOUS
 62
    2
 10
612.18284453610124
 20
566.70045163252723
 11
617.68284453604622
 21
572.20045163247255
  0
LINE
  8
_1-2_極細2
  6
CONTINUOUS
 62
    2
 10
610.76863097372757
 20
566.70045163252723
 11
616.26863097367334
 21
572.20045163247255
  0
LINE
  8
_1-2_極細2
  6
CONTINUOUS
 62
    2
 10
609.35441741135469
 20
566.70045163252723
 11
614.85441741130046
 21
572.20045163247255
  0
LINE
  8
_1-2_極細2
  6
CONTINUOUS
 62
    2
 10
607.94020384898181
 20
566.70045163252723
 11
613.44020384892701
 21
572.20045163247255
  0
LINE
  8
_1-2_極細2
  6
CONTINUOUS
 62
    2
 10
606.52599028660893
 20
566.70045163252723
 11
612.02599028655413
 21
572.20045163247255
  0
LINE
  8
_1-2_極細2
  6
CONTINUOUS
 62
    2
 10
605.11177672423571
 20
566.70045163252723
 11
610.61177672418125
 21
572.20045163247255
  0
LINE
  8
_1-2_極細2
  6
CONTINUOUS
 62
    2
 10
603.69756316186283
 20
566.70045163252723
 11
609.19756316180838
 21
572.20045163247255
  0
LINE
  8
_1-2_極細2
  6
CONTINUOUS
 62
    2
 10
602.28334959948995
 20
566.70045163252723
 11
607.78334959943493
 21
572.20045163247255
  0
LINE
  8
_1-2_極細2
  6
CONTINUOUS
 62
    2
 10
600.86913603711707
 20
566.70045163252723
 11
606.36913603706205
 21
572.20045163247255
  0
LINE
  8
_1-2_極細2
  6
CONTINUOUS
 62
    2
 10
599.4549224747434
 20
566.70045163252723
 11
604.95492247468917
 21
572.20045163247255
  0
LINE
  8
_1-2_極細2
  6
CONTINUOUS
 62
    2
 10
598.04070891237052
 20
566.70045163252723
 11
603.54070891231629
 21
572.20045163247255
  0
LINE
  8
_1-2_極細2
  6
CONTINUOUS
 62
    2
 10
596.62649534999764
 20
566.70045163252723
 11
602.12649534994262
 21
572.20045163247255
  0
LINE
  8
_1-2_極細2
  6
CONTINUOUS
 62
    2
 10
595.21228178762476
 20
566.70045163252723
 11
600.71228178756974
 21
572.20045163247255
  0
LINE
  8
_1-2_極細2
  6
CONTINUOUS
 62
    2
 10
593.79806822525154
 20
566.70045163252723
 11
599.29806822519686
 21
572.20045163247255
  0
LINE
  8
_1-2_極細2
  6
CONTINUOUS
 62
    2
 10
592.38385466287866
 20
566.70045163252723
 11
597.88385466282398
 21
572.20045163247255
  0
LINE
  8
_1-2_極細2
  6
CONTINUOUS
 62
    2
 10
590.96964110050578
 20
566.70045163252723
 11
596.46964110045076
 21
572.20045163247255
  0
LINE
  8
_1-2_極細2
  6
CONTINUOUS
 62
    2
 10
589.5554275381329
 20
566.70045163252723
 11
595.05542753807788
 21
572.20045163247255
  0
LINE
  8
_1-2_極細2
  6
CONTINUOUS
 62
    2
 10
588.14121397575923
 20
566.70045163252723
 11
593.641213975705
 21
572.20045163247255
  0
LINE
  8
_1-2_極細2
  6
CONTINUOUS
 62
    2
 10
586.72700041338635
 20
566.70045163252723
 11
592.22700041333212
 21
572.20045163247255
  0
LINE
  8
_1-2_極細2
  6
CONTINUOUS
 62
    2
 10
585.31278685101347
 20
566.70045163252723
 11
590.81278685095845
 21
572.20045163247255
  0
LINE
  8
_1-2_極細2
  6
CONTINUOUS
 62
    2
 10
583.89857328864059
 20
566.70045163252723
 11
589.39857328858557
 21
572.20045163247255
  0
LINE
  8
_1-2_極細2
  6
CONTINUOUS
 62
    2
 10
582.48435972626737
 20
566.70045163252723
 11
587.98435972621269
 21
572.20045163247255
  0
LINE
  8
_1-2_極細2
  6
CONTINUOUS
 62
    2
 10
581.07014616389449
 20
566.70045163252723
 11
586.57014616383981
 21
572.20045163247255
  0
LINE
  8
_1-2_極細2
  6
CONTINUOUS
 62
    2
 10
579.65593260152161
 20
566.70045163252723
 11
585.15593260146659
 21
572.20045163247255
  0
LINE
  8
_1-2_極細2
  6
CONTINUOUS
 62
    2
 10
578.24171903914873
 20
566.70045163252723
 11
583.74171903909371
 21
572.20045163247255
  0
LINE
  8
_1-2_極細2
  6
CONTINUOUS
 62
    2
 10
576.82750547677506
 20
566.70045163252723
 11
582.32750547672083
 21
572.20045163247255
  0
LINE
  8
_1-2_極細2
  6
CONTINUOUS
 62
    2
 10
575.41329191440218
 20
566.70045163252723
 11
580.91329191434795
 21
572.20045163247255
  0
LINE
  8
_1-2_極細2
  6
CONTINUOUS
 62
    2
 10
573.9990783520293
 20
566.70045163252723
 11
579.49907835197428
 21
572.20045163247255
  0
LINE
  8
_1-2_極細2
  6
CONTINUOUS
 62
    2
 10
572.58486478965642
 20
566.70045163252723
 11
578.0848647896014
 21
572.20045163247255
  0
LINE
  8
_1-2_極細2
  6
CONTINUOUS
 62
    2
 10
571.1706512272832
 20
566.70045163252723
 11
576.67065122722852
 21
572.20045163247255
  0
LINE
  8
_1-2_極細2
  6
CONTINUOUS
 62
    2
 10
569.75643766491032
 20
566.70045163252723
 11
575.25643766485564
 21
572.20045163247255
  0
LINE
  8
_1-2_極細2
  6
CONTINUOUS
 62
    2
 10
568.34222410253744
 20
566.70045163252723
 11
573.84222410248242
 21
572.20045163247255
  0
LINE
  8
_1-2_極細2
  6
CONTINUOUS
 62
    2
 10
566.92801054016456
 20
566.70045163252723
 11
572.42801054010954
 21
572.20045163247255
  0
LINE
  8
_1-2_極細2
  6
CONTINUOUS
 62
    2
 10
565.51379697779112
 20
566.70045163252723
 11
571.01379697773666
 21
572.20045163247255
  0
LINE
  8
_1-2_極細2
  6
CONTINUOUS
 62
    2
 10
564.09958341541824
 20
566.70045163252723
 11
569.59958341536378
 21
572.20045163247255
  0
LINE
  8
_1-2_極細2
  6
CONTINUOUS
 62
    2
 10
562.68536985304536
 20
566.70045163252723
 11
568.18536985299011
 21
572.20045163247255
  0
LINE
  8
_1-2_極細2
  6
CONTINUOUS
 62
    2
 10
561.27115629067248
 20
566.70045163252723
 11
566.77115629061723
 21
572.20045163247255
  0
LINE
  8
_1-2_極細2
  6
CONTINUOUS
 62
    2
 10
559.85694272829903
 20
566.70045163252723
 11
565.35694272824435
 21
572.20045163247255
  0
LINE
  8
_1-2_極細2
  6
CONTINUOUS
 62
    2
 10
558.44272916592615
 20
566.70045163252723
 11
563.94272916587147
 21
572.20045163247255
  0
LINE
  8
_1-2_極細2
  6
CONTINUOUS
 62
    2
 10
557.02851560355327
 20
566.70045163252723
 11
562.52851560349825
 21
572.20045163247255
  0
LINE
  8
_1-2_極細2
  6
CONTINUOUS
 62
    2
 10
555.61430204118039
 20
566.70045163252723
 11
561.11430204112537
 21
572.20045163247255
  0
LINE
  8
_1-2_極細2
  6
CONTINUOUS
 62
    2
 10
554.20008847880672
 20
566.70045163252723
 11
559.70008847875249
 21
572.20045163247255
  0
LINE
  8
_1-2_極細2
  6
CONTINUOUS
 62
    2
 10
552.78587491643384
 20
566.70045163252723
 11
558.28587491637961
 21
572.20045163247255
  0
LINE
  8
_1-2_極細2
  6
CONTINUOUS
 62
    2
 10
551.37166135406096
 20
566.70045163252723
 11
556.87166135400616
 21
572.20045163247255
  0
LINE
  8
_1-2_極細2
  6
CONTINUOUS
 62
    2
 10
549.95744779168808
 20
566.70045163252723
 11
555.45744779163329
 21
572.20045163247255
  0
LINE
  8
_1-2_極細2
  6
CONTINUOUS
 62
    2
 10
548.54323422931486
 20
566.70045163252723
 11
554.04323422926041
 21
572.20045163247255
  0
LINE
  8
_1-2_極細2
  6
CONTINUOUS
 62
    2
 10
547.12902066694198
 20
566.70045163252723
 11
552.62902066688753
 21
572.20045163247255
  0
LINE
  8
_1-2_極細2
  6
CONTINUOUS
 62
    2
 10
545.7148071045691
 20
566.70045163252723
 11
551.21480710451408
 21
572.20045163247255
  0
LINE
  8
_1-2_極細2
  6
CONTINUOUS
 62
    2
 10
544.30059354219622
 20
566.70045163252723
 11
549.8005935421412
 21
572.20045163247255
  0
LINE
  8
_1-2_極細2
  6
CONTINUOUS
 62
    2
 10
542.88637997982255
 20
566.70045163252723
 11
548.38637997976832
 21
572.20045163247255
  0
LINE
  8
_1-2_極細2
  6
CONTINUOUS
 62
    2
 10
541.47216641744967
 20
566.70045163252723
 11
546.97216641739544
 21
572.20045163247255
  0
LINE
  8
_1-2_極細2
  6
CONTINUOUS
 62
    2
 10
540.05795285507679
 20
566.70045163252723
 11
545.55795285502177
 21
572.20045163247255
  0
LINE
  8
_1-2_極細2
  6
CONTINUOUS
 62
    2
 10
538.64373929270391
 20
566.70045163252723
 11
544.14373929264889
 21
572.20045163247255
  0
LINE
  8
_1-2_極細2
  6
CONTINUOUS
 62
    2
 10
537.22952573033069
 20
566.70045163252723
 11
542.72952573027601
 21
572.20045163247255
  0
LINE
  8
_1-2_極細2
  6
CONTINUOUS
 62
    2
 10
535.81531216795781
 20
566.70045163252723
 11
541.31531216790313
 21
572.20045163247255
  0
LINE
  8
_1-2_極細2
  6
CONTINUOUS
 62
    2
 10
534.40109860558493
 20
566.70045163252723
 11
539.90109860552991
 21
572.20045163247255
  0
LINE
  8
_1-2_極細2
  6
CONTINUOUS
 62
    2
 10
532.98688504321206
 20
566.70045163252723
 11
538.48688504315703
 21
572.20045163247255
  0
LINE
  8
_1-2_極細2
  6
CONTINUOUS
 62
    2
 10
531.57267148083838
 20
566.70045163252723
 11
537.07267148078415
 21
572.20045163247255
  0
LINE
  8
_1-2_極細2
  6
CONTINUOUS
 62
    2
 10
530.1584579184655
 20
566.70045163252723
 11
535.65845791841127
 21
572.20045163247255
  0
LINE
  8
_1-2_極細2
  6
CONTINUOUS
 62
    2
 10
528.74424435609262
 20
566.70045163252723
 11
534.2442443560376
 21
572.20045163247255
  0
LINE
  8
_1-2_極細2
  6
CONTINUOUS
 62
    2
 10
527.33003079371974
 20
566.70045163252723
 11
532.83003079366472
 21
572.20045163247255
  0
LINE
  8
_1-2_極細2
  6
CONTINUOUS
 62
    2
 10
525.91581723134652
 20
566.70045163252723
 11
531.41581723129184
 21
572.20045163247255
  0
LINE
  8
_1-2_極細2
  6
CONTINUOUS
 62
    2
 10
524.50160366897364
 20
566.70045163252723
 11
530.00160366891896
 21
572.20045163247255
  0
LINE
  8
_1-2_極細2
  6
CONTINUOUS
 62
    2
 10
523.08739010660076
 20
566.70045163252723
 11
528.58739010654574
 21
572.20045163247255
  0
LINE
  8
_1-2_極細2
  6
CONTINUOUS
 62
    2
 10
521.67317654422789
 20
566.70045163252723
 11
527.17317654417286
 21
572.20045163247255
  0
LINE
  8
_1-2_極細2
  6
CONTINUOUS
 62
    2
 10
520.25896298185421
 20
566.70045163252723
 11
525.75896298179998
 21
572.20045163247255
  0
LINE
  8
_1-2_極細2
  6
CONTINUOUS
 62
    2
 10
518.84474941948133
 20
566.70045163252723
 11
524.3447494194271
 21
572.20045163247255
  0
LINE
  8
_1-2_極細2
  6
CONTINUOUS
 62
    2
 10
517.43053585710845
 20
566.70045163252723
 11
522.93053585705343
 21
572.20045163247255
  0
LINE
  8
_1-2_極細2
  6
CONTINUOUS
 62
    2
 10
516.01632229473557
 20
566.70045163252723
 11
521.51632229468055
 21
572.20045163247255
  0
LINE
  8
_1-2_極細2
  6
CONTINUOUS
 62
    2
 10
514.60210873236235
 20
566.70045163252723
 11
520.10210873230767
 21
572.20045163247255
  0
LINE
  8
_1-2_極細2
  6
CONTINUOUS
 62
    2
 10
513.18789516998947
 20
566.70045163252723
 11
518.68789516993479
 21
572.20045163247255
  0
LINE
  8
_1-2_極細2
  6
CONTINUOUS
 62
    2
 10
511.77368160761648
 20
566.70045163252723
 11
517.27368160756157
 21
572.20045163247255
  0
LINE
  8
_1-2_極細2
  6
CONTINUOUS
 62
    2
 10
510.3594680452436
 20
566.70045163252723
 11
515.85946804518869
 21
572.20045163247255
  0
LINE
  8
_1-2_極細2
  6
CONTINUOUS
 62
    2
 10
508.94525448287027
 20
566.70045163252723
 11
514.44525448281581
 21
572.20045163247255
  0
LINE
  8
_1-2_極細2
  6
CONTINUOUS
 62
    2
 10
507.53104092049739
 20
566.70045163252723
 11
513.03104092044293
 21
572.20045163247255
  0
LINE
  8
_1-2_極細2
  6
CONTINUOUS
 62
    2
 10
506.11682735812451
 20
566.70045163252723
 11
511.6168273580692
 21
572.20045163247255
  0
LINE
  8
_1-2_極細2
  6
CONTINUOUS
 62
    2
 10
504.70261379575163
 20
566.70045163252723
 11
510.20261379569632
 21
572.20045163247255
  0
LINE
  8
_1-2_極細2
  6
CONTINUOUS
 62
    2
 10
503.28840023337807
 20
566.70045163252723
 11
508.78840023332344
 21
572.20045163247255
  0
LINE
  8
_1-2_極細2
  6
CONTINUOUS
 62
    2
 10
501.87418667100519
 20
566.70045163252723
 11
507.37418667095056
 21
572.20045163247255
  0
LINE
  8
_1-2_極細2
  6
CONTINUOUS
 62
    2
 10
500.45997310863231
 20
566.70045163252723
 11
505.95997310857729
 21
572.20045163247255
  0
LINE
  8
_1-2_極細2
  6
CONTINUOUS
 62
    2
 10
499.04575954625943
 20
566.70045163252723
 11
504.54575954620441
 21
572.20045163247255
  0
LINE
  8
_1-2_極細2
  6
CONTINUOUS
 62
    2
 10
497.63154598388581
 20
566.70045163252723
 11
503.13154598383153
 21
572.20045163247255
  0
LINE
  8
_1-2_極細2
  6
CONTINUOUS
 62
    2
 10
496.21733242151294
 20
566.70045163252723
 11
501.71733242145865
 21
572.20045163247255
  0
LINE
  8
_1-2_極細2
  6
CONTINUOUS
 62
    2
 10
494.80311885914006
 20
566.70045163252723
 11
500.30311885908532
 21
572.20045163247255
  0
LINE
  8
_1-2_極細2
  6
CONTINUOUS
 62
    2
 10
493.38890529676718
 20
566.70045163252723
 11
498.88890529671244
 21
572.20045163247255
  0
LINE
  8
_1-2_極細2
  6
CONTINUOUS
 62
    2
 10
491.9746917343939
 20
566.70045163252723
 11
497.47469173433956
 21
572.20045163247255
  0
LINE
  8
_1-2_極細2
  6
CONTINUOUS
 62
    2
 10
490.56047817202102
 20
566.70045163252723
 11
496.06047817196668
 21
572.20045163247255
  0
LINE
  8
_1-2_極細2
  6
CONTINUOUS
 62
    2
 10
489.14626460964814
 20
566.70045163252723
 11
494.64626460959312
 21
572.20045163247255
  0
LINE
  8
_1-2_極細2
  6
CONTINUOUS
 62
    2
 10
487.73205104727526
 20
566.70045163252723
 11
493.23205104722024
 21
572.20045163247255
  0
LINE
  8
_1-2_極細2
  6
CONTINUOUS
 62
    2
 10
486.31783748490164
 20
566.70045163252723
 11
491.81783748484736
 21
572.20045163247255
  0
LINE
  8
_1-2_極細2
  6
CONTINUOUS
 62
    2
 10
484.90362392252877
 20
566.70045163252723
 11
490.40362392247448
 21
572.20045163247255
  0
LINE
  8
_1-2_極細2
  6
CONTINUOUS
 62
    2
 10
483.48941036015589
 20
566.70045163252723
 11
488.98941036010086
 21
572.20045163247255
  0
LINE
  8
_1-2_極細2
  6
CONTINUOUS
 62
    2
 10
482.07519679778301
 20
566.70045163252723
 11
487.57519679772798
 21
572.20045163247255
  0
LINE
  8
_1-2_極細2
  6
CONTINUOUS
 62
    2
 10
480.66098323540984
 20
566.70045163252723
 11
486.1609832353551
 21
572.20045163247255
  0
LINE
  8
_1-2_極細2
  6
CONTINUOUS
 62
    2
 10
479.24676967303697
 20
566.70045163252723
 11
484.74676967298223
 21
572.20045163247255
  0
LINE
  8
_1-2_極細2
  6
CONTINUOUS
 62
    2
 10
477.83255611066409
 20
566.70045163252723
 11
483.33255611060895
 21
572.20045163247255
  0
LINE
  8
_1-2_極細2
  6
CONTINUOUS
 62
    2
 10
476.41834254829121
 20
566.70045163252723
 11
481.91834254823607
 21
572.20045163247255
  0
LINE
  8
_1-2_極細2
  6
CONTINUOUS
 62
    2
 10
475.00412898591748
 20
566.70045163252723
 11
480.50412898586319
 21
572.20045163247255
  0
LINE
  8
_1-2_極細2
  6
CONTINUOUS
 62
    2
 10
473.5899154235446
 20
566.70045163252723
 11
479.08991542349031
 21
572.20045163247255
  0
LINE
  8
_1-2_極細2
  6
CONTINUOUS
 62
    2
 10
472.17570186117172
 20
566.70045163252723
 11
477.67570186111669
 21
572.20045163247255
  0
LINE
  8
_1-2_極細2
  6
CONTINUOUS
 62
    2
 10
470.76148829879884
 20
566.70045163252723
 11
476.26148829874381
 21
572.20045163247255
  0
LINE
  8
_1-2_極細2
  6
CONTINUOUS
 62
    2
 10
469.34727473642556
 20
566.70045163252723
 11
474.84727473637093
 21
572.20045163247255
  0
LINE
  8
_1-2_極細2
  6
CONTINUOUS
 62
    2
 10
468.46480718453734
 20
567.23219764301177
 11
473.43306117399806
 21
572.20045163247255
  0
LINE
  8
_1-2_極細2
  6
CONTINUOUS
 62
    2
 10
468.46480718453734
 20
568.64641120538465
 11
472.01884761162489
 21
572.20045163247255
  0
LINE
  8
_1-2_極細2
  6
CONTINUOUS
 62
    2
 10
468.46480718453734
 20
570.06062476775787
 11
470.60463404925201
 21
572.20045163247255
  0
LINE
  8
_1-2_極細2
  6
CONTINUOUS
 62
    2
 10
468.46480718453734
 20
571.47483833013075
 11
469.19042048687913
 21
572.20045163247255
  0
LINE
  8
_1-2_極細2
  6
CONTINUOUS
 62
    2
 10
628.46480702453789
 20
571.47483833013871
 11
627.73919372220405
 21
572.20045163247255
  0
LINE
  8
_1-2_極細2
  6
CONTINUOUS
 62
    2
 10
628.46480702453789
 20
570.06062476776583
 11
626.32498015983117
 21
572.20045163247255
  0
LINE
  8
_1-2_極細2
  6
CONTINUOUS
 62
    2
 10
628.46480702453789
 20
568.64641120539261
 11
624.91076659745829
 21
572.20045163247255
  0
LINE
  8
_1-2_極細2
  6
CONTINUOUS
 62
    2
 10
628.46480702453789
 20
567.23219764301973
 11
623.49655303508484
 21
572.20045163247255
  0
LINE
  8
_1-2_極細2
  6
CONTINUOUS
 62
    2
 10
627.58233947265751
 20
566.70045163252723
 11
622.08233947271196
 21
572.20045163247255
  0
LINE
  8
_1-2_極細2
  6
CONTINUOUS
 62
    2
 10
626.16812591028463
 20
566.70045163252723
 11
620.66812591033909
 21
572.20045163247255
  0
LINE
  8
_1-2_極細2
  6
CONTINUOUS
 62
    2
 10
624.75391234791175
 20
566.70045163252723
 11
619.25391234796621
 21
572.20045163247255
  0
LINE
  8
_1-2_極細2
  6
CONTINUOUS
 62
    2
 10
623.33969878553808
 20
566.70045163252723
 11
617.83969878559333
 21
572.20045163247255
  0
LINE
  8
_1-2_極細2
  6
CONTINUOUS
 62
    2
 10
621.9254852231652
 20
566.70045163252723
 11
616.42548522322045
 21
572.20045163247255
  0
LINE
  8
_1-2_極細2
  6
CONTINUOUS
 62
    2
 10
620.51127166079232
 20
566.70045163252723
 11
615.01127166084757
 21
572.20045163247255
  0
LINE
  8
_1-2_極細2
  6
CONTINUOUS
 62
    2
 10
619.09705809841944
 20
566.70045163252723
 11
613.59705809847469
 21
572.20045163247255
  0
LINE
  8
_1-2_極細2
  6
CONTINUOUS
 62
    2
 10
617.68284453604656
 20
566.70045163252723
 11
612.18284453610124
 21
572.20045163247255
  0
LINE
  8
_1-2_極細2
  6
CONTINUOUS
 62
    2
 10
616.26863097367368
 20
566.70045163252723
 11
610.76863097372836
 21
572.20045163247255
  0
LINE
  8
_1-2_極細2
  6
CONTINUOUS
 62
    2
 10
614.8544174113008
 20
566.70045163252723
 11
609.35441741135548
 21
572.20045163247255
  0
LINE
  8
_1-2_極細2
  6
CONTINUOUS
 62
    2
 10
613.44020384892792
 20
566.70045163252723
 11
607.94020384898261
 21
572.20045163247255
  0
LINE
  8
_1-2_極細2
  6
CONTINUOUS
 62
    2
 10
612.0259902865547
 20
566.70045163252723
 11
606.52599028660973
 21
572.20045163247255
  0
LINE
  8
_1-2_極細2
  6
CONTINUOUS
 62
    2
 10
610.61177672418182
 20
566.70045163252723
 11
605.11177672423685
 21
572.20045163247255
  0
LINE
  8
_1-2_極細2
  6
CONTINUOUS
 62
    2
 10
609.19756316180894
 20
566.70045163252723
 11
603.69756316186397
 21
572.20045163247255
  0
LINE
  8
_1-2_極細2
  6
CONTINUOUS
 62
    2
 10
607.78334959943606
 20
566.70045163252723
 11
602.28334959949109
 21
572.20045163247255
  0
LINE
  8
_1-2_極細2
  6
CONTINUOUS
 62
    2
 10
606.36913603706319
 20
566.70045163252723
 11
600.86913603711741
 21
572.20045163247255
  0
LINE
  8
_1-2_極細2
  6
CONTINUOUS
 62
    2
 10
604.95492247469031
 20
566.70045163252723
 11
599.45492247474454
 21
572.20045163247255
  0
LINE
  8
_1-2_極細2
  6
CONTINUOUS
 62
    2
 10
603.54070891231743
 20
566.70045163252723
 11
598.04070891237166
 21
572.20045163247255
  0
LINE
  8
_1-2_極細2
  6
CONTINUOUS
 62
    2
 10
602.12649534994455
 20
566.70045163252723
 11
596.62649534999878
 21
572.20045163247255
  0
LINE
  8
_1-2_極細2
  6
CONTINUOUS
 62
    2
 10
600.7122817875711
 20
566.70045163252723
 11
595.2122817876259
 21
572.20045163247255
  0
LINE
  8
_1-2_極細2
  6
CONTINUOUS
 62
    2
 10
599.29806822519822
 20
566.70045163252723
 11
593.79806822525302
 21
572.20045163247255
  0
LINE
  8
_1-2_極細2
  6
CONTINUOUS
 62
    2
 10
597.88385466282534
 20
566.70045163252723
 11
592.38385466288014
 21
572.20045163247255
  0
LINE
  8
_1-2_極細2
  6
CONTINUOUS
 62
    2
 10
596.46964110045246
 20
566.70045163252723
 11
590.96964110050726
 21
572.20045163247255
  0
LINE
  8
_1-2_極細2
  6
CONTINUOUS
 62
    2
 10
595.05542753807958
 20
566.70045163252723
 11
589.55542753813404
 21
572.20045163247255
  0
LINE
  8
_1-2_極細2
  6
CONTINUOUS
 62
    2
 10
593.64121397570671
 20
566.70045163252723
 11
588.14121397576116
 21
572.20045163247255
  0
LINE
  8
_1-2_極細2
  6
CONTINUOUS
 62
    2
 10
592.22700041333383
 20
566.70045163252723
 11
586.72700041338828
 21
572.20045163247255
  0
LINE
  8
_1-2_極細2
  6
CONTINUOUS
 62
    2
 10
590.81278685096095
 20
566.70045163252723
 11
585.3127868510154
 21
572.20045163247255
  0
LINE
  8
_1-2_極細2
  6
CONTINUOUS
 62
    2
 10
589.3985732885875
 20
566.70045163252723
 11
583.89857328864252
 21
572.20045163247255
  0
LINE
  8
_1-2_極細2
  6
CONTINUOUS
 62
    2
 10
587.98435972621462
 20
566.70045163252723
 11
582.48435972626964
 21
572.20045163247255
  0
LINE
  8
_1-2_極細2
  6
CONTINUOUS
 62
    2
 10
586.57014616384174
 20
566.70045163252723
 11
581.07014616389677
 21
572.20045163247255
  0
LINE
  8
_1-2_極細2
  6
CONTINUOUS
 62
    2
 10
585.15593260146886
 20
566.70045163252723
 11
579.65593260152389
 21
572.20045163247255
  0
LINE
  8
_1-2_極細2
  6
CONTINUOUS
 62
    2
 10
583.74171903909598
 20
566.70045163252723
 11
578.24171903915021
 21
572.20045163247255
  0
LINE
  8
_1-2_極細2
  6
CONTINUOUS
 62
    2
 10
582.3275054767231
 20
566.70045163252723
 11
576.82750547677733
 21
572.20045163247255
  0
LINE
  8
_1-2_極細2
  6
CONTINUOUS
 62
    2
 10
580.91329191435022
 20
566.70045163252723
 11
575.41329191440445
 21
572.20045163247255
  0
LINE
  8
_1-2_極細2
  6
CONTINUOUS
 62
    2
 10
579.49907835197735
 20
566.70045163252723
 11
573.99907835203157
 21
572.20045163247255
  0
LINE
  8
_1-2_極細2
  6
CONTINUOUS
 62
    2
 10
578.08486478960367
 20
566.70045163252723
 11
572.5848647896587
 21
572.20045163247255
  0
LINE
  8
_1-2_極細2
  6
CONTINUOUS
 62
    2
 10
576.67065122723079
 20
566.70045163252723
 11
571.17065122728582
 21
572.20045163247255
  0
LINE
  8
_1-2_極細2
  6
CONTINUOUS
 62
    2
 10
575.25643766485791
 20
566.70045163252723
 11
569.75643766491294
 21
572.20045163247255
  0
LINE
  8
_1-2_極細2
  6
CONTINUOUS
 62
    2
 10
573.84222410248503
 20
566.70045163252723
 11
568.34222410254006
 21
572.20045163247255
  0
LINE
  8
_1-2_極細2
  6
CONTINUOUS
 62
    2
 10
572.42801054011215
 20
566.70045163252723
 11
566.92801054016684
 21
572.20045163247255
  0
LINE
  8
_1-2_極細2
  6
CONTINUOUS
 62
    2
 10
571.01379697773928
 20
566.70045163252723
 11
565.51379697779396
 21
572.20045163247255
  0
LINE
  8
_1-2_極細2
  6
CONTINUOUS
 62
    2
 10
569.5995834153664
 20
566.70045163252723
 11
564.09958341542108
 21
572.20045163247255
  0
LINE
  8
_1-2_極細2
  6
CONTINUOUS
 62
    2
 10
568.18536985299352
 20
566.70045163252723
 11
562.6853698530482
 21
572.20045163247255
  0
LINE
  8
_1-2_極細2
  6
CONTINUOUS
 62
    2
 10
566.7711562906203
 20
566.70045163252723
 11
561.27115629067532
 21
572.20045163247255
  0
LINE
  8
_1-2_極細2
  6
CONTINUOUS
 62
    2
 10
565.35694272824742
 20
566.70045163252723
 11
559.85694272830244
 21
572.20045163247255
  0
LINE
  8
_1-2_極細2
  6
CONTINUOUS
 62
    2
 10
563.94272916587454
 20
566.70045163252723
 11
558.44272916592956
 21
572.20045163247255
  0
LINE
  8
_1-2_極細2
  6
CONTINUOUS
 62
    2
 10
562.52851560350166
 20
566.70045163252723
 11
557.02851560355668
 21
572.20045163247255
  0
LINE
  8
_1-2_極細2
  6
CONTINUOUS
 62
    2
 10
561.11430204112878
 20
566.70045163252723
 11
555.61430204118301
 21
572.20045163247255
  0
LINE
  8
_1-2_極細2
  6
CONTINUOUS
 62
    2
 10
559.7000884787559
 20
566.70045163252723
 11
554.20008847881013
 21
572.20045163247255
  0
LINE
  8
_1-2_極細2
  6
CONTINUOUS
 62
    2
 10
558.28587491638302
 20
566.70045163252723
 11
552.78587491643725
 21
572.20045163247255
  0
LINE
  8
_1-2_極細2
  6
CONTINUOUS
 62
    2
 10
556.87166135401014
 20
566.70045163252723
 11
551.37166135406437
 21
572.20045163247255
  0
LINE
  8
_1-2_極細2
  6
CONTINUOUS
 62
    2
 10
555.45744779163647
 20
566.70045163252723
 11
549.95744779169149
 21
572.20045163247255
  0
LINE
  8
_1-2_極細2
  6
CONTINUOUS
 62
    2
 10
554.04323422926359
 20
566.70045163252723
 11
548.54323422931861
 21
572.20045163247255
  0
LINE
  8
_1-2_極細2
  6
CONTINUOUS
 62
    2
 10
552.62902066689071
 20
566.70045163252723
 11
547.12902066694573
 21
572.20045163247255
  0
LINE
  8
_1-2_極細2
  6
CONTINUOUS
 62
    2
 10
551.21480710451783
 20
566.70045163252723
 11
545.71480710457286
 21
572.20045163247255
  0
LINE
  8
_1-2_極細2
  6
CONTINUOUS
 62
    2
 10
549.80059354214495
 20
566.70045163252723
 11
544.30059354219964
 21
572.20045163247255
  0
LINE
  8
_1-2_極細2
  6
CONTINUOUS
 62
    2
 10
548.38637997977207
 20
566.70045163252723
 11
542.88637997982676
 21
572.20045163247255
  0
LINE
  8
_1-2_極細2
  6
CONTINUOUS
 62
    2
 10
546.97216641739919
 20
566.70045163252723
 11
541.47216641745388
 21
572.20045163247255
  0
LINE
  8
_1-2_極細2
  6
CONTINUOUS
 62
    2
 10
545.55795285502631
 20
566.70045163252723
 11
540.057952855081
 21
572.20045163247255
  0
LINE
  8
_1-2_極細2
  6
CONTINUOUS
 62
    2
 10
544.14373929265309
 20
566.70045163252723
 11
538.64373929270812
 21
572.20045163247255
  0
LINE
  8
_1-2_極細2
  6
CONTINUOUS
 62
    2
 10
542.72952573028022
 20
566.70045163252723
 11
537.22952573033524
 21
572.20045163247255
  0
LINE
  8
_1-2_極細2
  6
CONTINUOUS
 62
    2
 10
541.31531216790734
 20
566.70045163252723
 11
535.81531216796236
 21
572.20045163247255
  0
LINE
  8
_1-2_極細2
  6
CONTINUOUS
 62
    2
 10
539.90109860553446
 20
566.70045163252723
 11
534.40109860558948
 21
572.20045163247255
  0
LINE
  8
_1-2_極細2
  6
CONTINUOUS
 62
    2
 10
538.48688504316158
 20
566.70045163252723
 11
532.98688504321581
 21
572.20045163247255
  0
LINE
  8
_1-2_極細2
  6
CONTINUOUS
 62
    2
 10
537.0726714807887
 20
566.70045163252723
 11
531.57267148084293
 21
572.20045163247255
  0
LINE
  8
_1-2_極細2
  6
CONTINUOUS
 62
    2
 10
535.65845791841582
 20
566.70045163252723
 11
530.15845791847005
 21
572.20045163247255
  0
LINE
  8
_1-2_極細2
  6
CONTINUOUS
 62
    2
 10
534.24424435604294
 20
566.70045163252723
 11
528.74424435609717
 21
572.20045163247255
  0
LINE
  8
_1-2_極細2
  6
CONTINUOUS
 62
    2
 10
532.83003079366927
 20
566.70045163252723
 11
527.33003079372429
 21
572.20045163247255
  0
LINE
  8
_1-2_極細2
  6
CONTINUOUS
 62
    2
 10
531.41581723129639
 20
566.70045163252723
 11
525.91581723135141
 21
572.20045163247255
  0
LINE
  8
_1-2_極細2
  6
CONTINUOUS
 62
    2
 10
530.00160366892351
 20
566.70045163252723
 11
524.50160366897853
 21
572.20045163247255
  0
LINE
  8
_1-2_極細2
  6
CONTINUOUS
 62
    2
 10
528.58739010655063
 20
566.70045163252723
 11
523.08739010660565
 21
572.20045163247255
  0
LINE
  8
_1-2_極細2
  6
CONTINUOUS
 62
    2
 10
527.17317654417775
 20
566.70045163252723
 11
521.67317654423243
 21
572.20045163247255
  0
LINE
  8
_1-2_極細2
  6
CONTINUOUS
 62
    2
 10
525.75896298180487
 20
566.70045163252723
 11
520.25896298185955
 21
572.20045163247255
  0
LINE
  8
_1-2_極細2
  6
CONTINUOUS
 62
    2
 10
524.34474941943199
 20
566.70045163252723
 11
518.84474941948667
 21
572.20045163247255
  0
LINE
  8
_1-2_極細2
  6
CONTINUOUS
 62
    2
 10
522.93053585705911
 20
566.70045163252723
 11
517.4305358571138
 21
572.20045163247255
  0
LINE
  8
_1-2_極細2
  6
CONTINUOUS
 62
    2
 10
521.51632229468589
 20
566.70045163252723
 11
516.01632229474092
 21
572.20045163247255
  0
LINE
  8
_1-2_極細2
  6
CONTINUOUS
 62
    2
 10
520.10210873231301
 20
566.70045163252723
 11
514.60210873236804
 21
572.20045163247255
  0
LINE
  8
_1-2_極細2
  6
CONTINUOUS
 62
    2
 10
518.68789516994013
 20
566.70045163252723
 11
513.18789516999516
 21
572.20045163247255
  0
LINE
  8
_1-2_極細2
  6
CONTINUOUS
 62
    2
 10
517.27368160756726
 20
566.70045163252723
 11
511.77368160762217
 21
572.20045163247255
  0
LINE
  8
_1-2_極細2
  6
CONTINUOUS
 62
    2
 10
515.85946804519438
 20
566.70045163252723
 11
510.35946804524883
 21
572.20045163247255
  0
LINE
  8
_1-2_極細2
  6
CONTINUOUS
 62
    2
 10
514.4452544828215
 20
566.70045163252723
 11
508.94525448287595
 21
572.20045163247255
  0
LINE
  8
_1-2_極細2
  6
CONTINUOUS
 62
    2
 10
513.03104092044862
 20
566.70045163252723
 11
507.53104092050307
 21
572.20045163247255
  0
LINE
  8
_1-2_極細2
  6
CONTINUOUS
 62
    2
 10
511.61682735807562
 20
566.70045163252723
 11
506.11682735813019
 21
572.20045163247255
  0
LINE
  8
_1-2_極細2
  6
CONTINUOUS
 62
    2
 10
510.20261379570201
 20
566.70045163252723
 11
504.70261379575732
 21
572.20045163247255
  0
LINE
  8
_1-2_極細2
  6
CONTINUOUS
 62
    2
 10
508.78840023332913
 20
566.70045163252723
 11
503.28840023338444
 21
572.20045163247255
  0
LINE
  8
_1-2_極細2
  6
CONTINUOUS
 62
    2
 10
507.37418667095625
 20
566.70045163252723
 11
501.87418667101156
 21
572.20045163247255
  0
LINE
  8
_1-2_極細2
  6
CONTINUOUS
 62
    2
 10
505.95997310858337
 20
566.70045163252723
 11
500.45997310863868
 21
572.20045163247255
  0
LINE
  8
_1-2_極細2
  6
CONTINUOUS
 62
    2
 10
504.54575954621049
 20
566.70045163252723
 11
499.04575954626512
 21
572.20045163247255
  0
LINE
  8
_1-2_極細2
  6
CONTINUOUS
 62
    2
 10
503.13154598383761
 20
566.70045163252723
 11
497.63154598389224
 21
572.20045163247255
  0
LINE
  8
_1-2_極細2
  6
CONTINUOUS
 62
    2
 10
501.71733242146473
 20
566.70045163252723
 11
496.21733242151936
 21
572.20045163247255
  0
LINE
  8
_1-2_極細2
  6
CONTINUOUS
 62
    2
 10
500.30311885909185
 20
566.70045163252723
 11
494.80311885914648
 21
572.20045163247255
  0
LINE
  8
_1-2_極細2
  6
CONTINUOUS
 62
    2
 10
498.88890529671858
 20
566.70045163252723
 11
493.3889052967736
 21
572.20045163247255
  0
LINE
  8
_1-2_極細2
  6
CONTINUOUS
 62
    2
 10
497.4746917343457
 20
566.70045163252723
 11
491.97469173440072
 21
572.20045163247255
  0
LINE
  8
_1-2_極細2
  6
CONTINUOUS
 62
    2
 10
496.06047817197282
 20
566.70045163252723
 11
490.56047817202784
 21
572.20045163247255
  0
LINE
  8
_1-2_極細2
  6
CONTINUOUS
 62
    2
 10
494.64626460959994
 20
566.70045163252723
 11
489.14626460965496
 21
572.20045163247255
  0
LINE
  8
_1-2_極細2
  6
CONTINUOUS
 62
    2
 10
493.23205104722706
 20
566.70045163252723
 11
487.73205104728135
 21
572.20045163247255
  0
LINE
  8
_1-2_極細2
  6
CONTINUOUS
 62
    2
 10
491.81783748485418
 20
566.70045163252723
 11
486.31783748490847
 21
572.20045163247255
  0
LINE
  8
_1-2_極細2
  6
CONTINUOUS
 62
    2
 10
490.4036239224813
 20
566.70045163252723
 11
484.90362392253559
 21
572.20045163247255
  0
LINE
  8
_1-2_極細2
  6
CONTINUOUS
 62
    2
 10
488.98941036010842
 20
566.70045163252723
 11
483.48941036016271
 21
572.20045163247255
  0
LINE
  8
_1-2_極細2
  6
CONTINUOUS
 62
    2
 10
487.57519679773509
 20
566.70045163252723
 11
482.07519679778983
 21
572.20045163247255
  0
LINE
  8
_1-2_極細2
  6
CONTINUOUS
 62
    2
 10
486.16098323536221
 20
566.70045163252723
 11
480.66098323541695
 21
572.20045163247255
  0
LINE
  8
_1-2_極細2
  6
CONTINUOUS
 62
    2
 10
484.74676967298933
 20
566.70045163252723
 11
479.24676967304407
 21
572.20045163247255
  0
LINE
  8
_1-2_極細2
  6
CONTINUOUS
 62
    2
 10
483.33255611061645
 20
566.70045163252723
 11
477.83255611067119
 21
572.20045163247255
  0
LINE
  8
_1-2_極細2
  6
CONTINUOUS
 62
    2
 10
481.91834254824357
 20
566.70045163252723
 11
476.41834254829791
 21
572.20045163247255
  0
LINE
  8
_1-2_極細2
  6
CONTINUOUS
 62
    2
 10
480.50412898587069
 20
566.70045163252723
 11
475.00412898592504
 21
572.20045163247255
  0
LINE
  8
_1-2_極細2
  6
CONTINUOUS
 62
    2
 10
479.08991542349781
 20
566.70045163252723
 11
473.58991542355216
 21
572.20045163247255
  0
LINE
  8
_1-2_極細2
  6
CONTINUOUS
 62
    2
 10
477.67570186112494
 20
566.70045163252723
 11
472.17570186117928
 21
572.20045163247255
  0
LINE
  8
_1-2_極細2
  6
CONTINUOUS
 62
    2
 10
476.26148829875137
 20
566.70045163252723
 11
470.7614882988064
 21
572.20045163247255
  0
LINE
  8
_1-2_極細2
  6
CONTINUOUS
 62
    2
 10
474.84727473637849
 20
566.70045163252723
 11
469.34727473643352
 21
572.20045163247255
  0
LINE
  8
_1-2_極細2
  6
CONTINUOUS
 62
    2
 10
473.43306117400562
 20
566.70045163252723
 11
468.46480718453734
 21
571.66870562199597
  0
LINE
  8
_1-2_極細2
  6
CONTINUOUS
 62
    2
 10
472.01884761163274
 20
566.70045163252723
 11
468.46480718453734
 21
570.25449205962309
  0
LINE
  8
_1-2_極細2
  6
CONTINUOUS
 62
    2
 10
470.60463404925986
 20
566.70045163252723
 11
468.46480718453734
 21
568.84027849724987
  0
LINE
  8
_1-2_極細2
  6
CONTINUOUS
 62
    2
 10
469.19042048688698
 20
566.70045163252723
 11
468.46480718453734
 21
567.42606493487699
  0
LINE
  8
_1-2_極細2
  6
CONTINUOUS
 62
    2
 10
464.65582444343653
 20
448.70045163370833
 11
468.46480718453734
 21
452.50943437480913
  0
LINE
  8
_1-2_極細2
  6
CONTINUOUS
 62
    2
 10
457.584756631571
 20
448.70045163370833
 11
468.46480718453734
 21
459.58050218667466
  0
LINE
  8
_1-2_極細2
  6
CONTINUOUS
 62
    2
 10
450.51368881970575
 20
448.70045163370833
 11
465.51368881955568
 21
463.70045163355826
  0
LINE
  8
_1-2_極細2
  6
CONTINUOUS
 62
    2
 10
368.44262100858987
 20
373.70045163445837
 11
368.4648072845377
 21
373.72263791040655
  0
LINE
  8
_1-2_極細2
  6
CONTINUOUS
 62
    2
 10
443.44262100783993
 20
448.70045163370833
 11
458.44262100768987
 21
463.70045163355826
  0
LINE
  8
_1-2_極細2
  6
CONTINUOUS
 62
    2
 10
361.37155319672434
 20
373.70045163445837
 11
368.4648072845377
 21
380.79370572227208
  0
LINE
  8
_1-2_極細2
  6
CONTINUOUS
 62
    2
 10
436.3715531959744
 20
448.70045163370833
 11
451.37155319582433
 21
463.70045163355826
  0
LINE
  8
_1-2_極細2
  6
CONTINUOUS
 62
    2
 10
356.71480729628843
 20
376.114773545888
 11
368.4648072845377
 21
387.86477353413761
  0
LINE
  8
_1-2_極細2
  6
CONTINUOUS
 62
    2
 10
429.30048538410887
 20
448.70045163370833
 11
444.3004853839588
 21
463.70045163355826
  0
LINE
  8
_1-2_極細2
  6
CONTINUOUS
 62
    2
 10
356.71480729628843
 20
383.18584135775353
 11
368.4648072845377
 21
394.93584134600314
  0
LINE
  8
_1-2_極細2
  6
CONTINUOUS
 62
    2
 10
422.22941757224334
 20
448.70045163370833
 11
437.22941757209327
 21
463.70045163355826
  0
LINE
  8
_1-2_極細2
  6
CONTINUOUS
 62
    2
 10
356.71480729628843
 20
390.25690916961906
 11
368.4648072845377
 21
402.00690915786868
  0
LINE
  8
_1-2_極細2
  6
CONTINUOUS
 62
    2
 10
415.15834976037809
 20
448.70045163370833
 11
430.15834976022802
 21
463.70045163355826
  0
LINE
  8
_1-2_極細2
  6
CONTINUOUS
 62
    2
 10
356.71480729628843
 20
397.3279769814846
 11
368.4648072845377
 21
409.07797696973421
  0
LINE
  8
_1-2_極細2
  6
CONTINUOUS
 62
    2
 10
408.08728194851227
 20
448.70045163370833
 11
423.0872819483622
 21
463.70045163355826
  0
LINE
  8
_1-2_極細2
  6
CONTINUOUS
 62
    2
 10
356.71480729628843
 20
404.39904479335013
 11
368.4648072845377
 21
416.14904478159974
  0
LINE
  8
_1-2_極細2
  6
CONTINUOUS
 62
    2
 10
401.01621413664674
 20
448.70045163370833
 11
416.01621413649667
 21
463.70045163355826
  0
LINE
  8
_1-2_極細2
  6
CONTINUOUS
 62
    2
 10
356.71480729628843
 20
411.47011260521566
 11
368.4648072845377
 21
423.22011259346527
  0
LINE
  8
_1-2_極細2
  6
CONTINUOUS
 62
    2
 10
393.94514632478121
 20
448.70045163370833
 11
408.94514632463114
 21
463.70045163355826
  0
LINE
  8
_1-2_極細2
  6
CONTINUOUS
 62
    2
 10
356.71480729628843
 20
418.54118041708119
 11
368.4648072845377
 21
430.29118040533081
  0
LINE
  8
_1-2_極細2
  6
CONTINUOUS
 62
    2
 10
386.87407851291567
 20
448.70045163370833
 11
401.87407851276561
 21
463.70045163355826
  0
LINE
  8
_1-2_極細2
  6
CONTINUOUS
 62
    2
 10
356.71480729628843
 20
425.61224822894673
 11
368.4648072845377
 21
437.36224821719634
  0
LINE
  8
_1-2_極細2
  6
CONTINUOUS
 62
    2
 10
379.80301070105031
 20
448.70045163370833
 11
394.80301070090024
 21
463.70045163355826
  0
LINE
  8
_1-2_極細2
  6
CONTINUOUS
 62
    2
 10
356.71480729628843
 20
432.68331604081226
 11
368.4648072845377
 21
444.43331602906187
  0
LINE
  8
_1-2_極細2
  6
CONTINUOUS
 62
    2
 10
372.73194288918461
 20
448.70045163370833
 11
387.73194288903454
 21
463.70045163355826
  0
LINE
  8
_1-2_極細2
  6
CONTINUOUS
 62
    2
 10
356.71480729628843
 20
439.75438385267779
 11
380.66087507716918
 21
463.70045163355826
  0
LINE
  8
_1-2_極細2
  6
CONTINUOUS
 62
    2
 10
356.71480729628843
 20
446.82545166454332
 11
373.58980726530348
 21
463.70045163355826
  0
LINE
  8
_1-2_極細2
  6
CONTINUOUS
 62
    2
 10
356.71480729628843
 20
453.89651947640886
 11
368.4648072845377
 21
465.64651946465847
  0
LINE
  8
_1-2_極細2
  6
CONTINUOUS
 62
    2
 10
356.71480729628843
 20
460.96758728827439
 11
368.4648072845377
 21
472.717587276524
  0
LINE
  8
_1-2_極細2
  6
CONTINUOUS
 62
    2
 10
356.71480729628843
 20
468.03865510013992
 11
368.4648072845377
 21
479.78865508838953
  0
LINE
  8
_1-2_極細2
  6
CONTINUOUS
 62
    2
 10
356.71480729628843
 20
475.10972291200545
 11
368.4648072845377
 21
486.85972290025506
  0
LINE
  8
_1-2_極細2
  6
CONTINUOUS
 62
    2
 10
356.71480729628843
 20
482.18079072387098
 11
368.4648072845377
 21
493.9307907121206
  0
LINE
  8
_1-2_極細2
  6
CONTINUOUS
 62
    2
 10
356.71480729628843
 20
489.25185853573652
 11
368.4648072845377
 21
501.00185852398613
  0
LINE
  8
_1-2_極細2
  6
CONTINUOUS
 62
    2
 10
356.71480729628843
 20
496.32292634760205
 11
368.14259632891066
 21
507.75071538022462
  0
LINE
  8
_1-2_極細2
  6
CONTINUOUS
 62
    2
 10
356.71480729628843
 20
503.39399415946758
 11
367.35305183826017
 21
514.0322387014395
  0
LINE
  8
_1-2_極細2
  6
CONTINUOUS
 62
    2
 10
356.71480729628843
 20
510.46506197133311
 11
366.56350734760952
 21
520.31376202265437
  0
LINE
  8
_1-2_極細2
  6
CONTINUOUS
 62
    2
 10
356.71480729628843
 20
517.5361297831987
 11
365.77396285695886
 21
526.59528534386925
  0
LINE
  8
_1-2_極細2
  6
CONTINUOUS
 62
    2
 10
356.71480729628843
 20
524.60719759506424
 11
364.9844183663082
 21
532.87680866508413
  0
LINE
  8
_1-2_極細2
  6
CONTINUOUS
 62
    2
 10
356.71480729628843
 20
531.67826540692977
 11
364.19487387565755
 21
539.158331986299
  0
LINE
  8
_1-2_極細2
  6
CONTINUOUS
 62
    2
 10
356.71480729628843
 20
538.7493332187953
 11
363.40532938500672
 21
545.43985530751388
  0
LINE
  8
_1-2_極細2
  6
CONTINUOUS
 62
    2
 10
356.71480729628843
 20
545.82040103066083
 11
360.59485789832524
 21
549.70045163269765
  0
LINE
  8
_1-2_極細2
  6
CONTINUOUS
 62
    2
 10
351.71480730128837
 20
547.89146884752631
 11
359.58791477683394
 21
555.76457632307188
  0
LINE
  8
_1-2_極細2
  6
CONTINUOUS
 62
    2
 10
351.71480730128837
 20
554.96253665939184
 11
358.79837009123935
 21
562.04609944934305
  0
LINE
  8
_1-2_極細2
  6
CONTINUOUS
 62
    2
 10
351.71480730128837
 20
562.03360447125738
 11
358.00882540564533
 21
568.32762257561421
  0
LINE
  8
_1-2_極細2
  6
CONTINUOUS
 62
    2
 10
350.16226490011917
 20
567.55212988195353
 11
357.21928072005073
 21
574.60914570188538
  0
LINE
  8
_1-2_極細2
  6
CONTINUOUS
 62
    2
 10
346.51312434009458
 20
570.9740571337943
 11
355.80458809518677
 21
580.26552088888684
  0
LINE
  8
_1-2_極細2
  6
CONTINUOUS
 62
    2
 10
340.66845102690695
 20
572.20045163247255
 11
350.66845102198829
 21
582.200451627554
  0
LINE
  8
_1-2_極細2
  6
CONTINUOUS
 62
    2
 10
333.59738321504142
 20
572.20045163247255
 11
343.59738321090703
 21
582.20045162833821
  0
LINE
  8
_1-2_極細2
  6
CONTINUOUS
 62
    2
 10
326.52631540317589
 20
572.20045163247255
 11
336.52631539982553
 21
582.2004516291222
  0
LINE
  8
_1-2_極細2
  6
CONTINUOUS
 62
    2
 10
319.45524759131035
 20
572.20045163247255
 11
329.45524758874444
 21
582.2004516299063
  0
LINE
  8
_1-2_極細2
  6
CONTINUOUS
 62
    2
 10
312.38417977944482
 20
572.20045163247255
 11
322.38417977766278
 21
582.20045163069017
  0
LINE
  8
_1-2_極細2
  6
CONTINUOUS
 62
    2
 10
307.21480734578722
 20
574.10214701068048
 11
315.31311196658112
 21
582.20045163147461
  0
LINE
  8
_1-2_極細2
  6
CONTINUOUS
 62
    2
 10
307.21480734578722
 20
581.17321482254602
 11
308.24204415550003
 21
582.20045163225848
  0
LINE
  8
_1-2_極細2
  6
CONTINUOUS
 62
    2
 10
468.46480718453734
 20
460.96506202082963
 11
465.72941757180814
 21
463.70045163355826
  0
LINE
  8
_1-2_極細2
  6
CONTINUOUS
 62
    2
 10
357.5641051078178
 20
571.8657640975498
 11
347.22941757743217
 21
582.20045162793542
  0
LINE
  8
_1-2_極細2
  6
CONTINUOUS
 62
    2
 10
468.46480718453734
 20
453.89399420896439
 11
458.65834975994346
 21
463.70045163355826
  0
LINE
  8
_1-2_極細2
  6
CONTINUOUS
 62
    2
 10
358.58066481806463
 20
563.77813657543743
 11
340.15834976478277
 21
582.20045162871941
  0
LINE
  8
_1-2_極細2
  6
CONTINUOUS
 62
    2
 10
466.58728194792775
 20
448.70045163370833
 11
451.58728194807782
 21
463.70045163355826
  0
LINE
  8
_1-2_極細2
  6
CONTINUOUS
 62
    2
 10
359.59722452831147
 20
555.69050905332517
 11
351.60422260086506
 21
563.68351098077119
  0
LINE
  8
_1-2_極細2
  6
CONTINUOUS
 62
    2
 10
343.19786665948686
 20
572.08986692214967
 11
333.0872819521332
 21
582.2004516295035
  0
LINE
  8
_1-2_極細2
  6
CONTINUOUS
 62
    2
 10
459.51621413606222
 20
448.70045163370833
 11
444.51621413621228
 21
463.70045163355826
  0
LINE
  8
_1-2_極細2
  6
CONTINUOUS
 62
    2
 10
363.49568728113854
 20
544.72097848863291
 11
351.71480730128837
 21
556.50185846848308
  0
LINE
  8
_1-2_極細2
  6
CONTINUOUS
 62
    2
 10
336.0162141372989
 20
572.20045163247255
 11
326.01621413948396
 21
582.20045163028772
  0
LINE
  8
_1-2_極細2
  6
CONTINUOUS
 62
    2
 10
452.44514632419668
 20
448.70045163370833
 11
437.44514632434675
 21
463.70045163355826
  0
LINE
  8
_1-2_極細2
  6
CONTINUOUS
 62
    2
 10
364.51224666822185
 20
536.63335128968356
 11
356.71480729628843
 21
544.43079066161715
  0
LINE
  8
_1-2_極細2
  6
CONTINUOUS
 62
    2
 10
353.94514632518326
 20
547.20045163272266
 11
351.71480730128837
 21
549.43079065661755
  0
LINE
  8
_1-2_極細2
  6
CONTINUOUS
 62
    2
 10
328.94514632543337
 20
572.20045163247255
 11
318.94514632683399
 21
582.20045163107193
  0
LINE
  8
_1-2_極細2
  6
CONTINUOUS
 62
    2
 10
445.37407851233115
 20
448.70045163370833
 11
430.37407851248122
 21
463.70045163355826
  0
LINE
  8
_1-2_極細2
  6
CONTINUOUS
 62
    2
 10
365.52880605530606
 20
528.54572409073421
 11
356.71480729628843
 21
537.35972284975162
  0
LINE
  8
_1-2_極細2
  6
CONTINUOUS
 62
    2
 10
321.87407851356784
 20
572.20045163247255
 11
311.87407851418442
 21
582.20045163185591
  0
LINE
  8
_1-2_極細2
  6
CONTINUOUS
 62
    2
 10
438.30301070046573
 20
448.70045163370833
 11
423.3030107006158
 21
463.70045163355826
  0
LINE
  8
_1-2_極細2
  6
CONTINUOUS
 62
    2
 10
366.54536544238954
 20
520.45809689178498
 11
356.71480729628843
 21
530.28865503788643
  0
LINE
  8
_1-2_極細2
  6
CONTINUOUS
 62
    2
 10
314.80301070170231
 20
572.20045163247255
 11
307.21480734578722
 21
579.78865498838786
  0
LINE
  8
_1-2_極細2
  6
CONTINUOUS
 62
    2
 10
431.23194288860049
 20
448.70045163370833
 11
416.23194288875055
 21
463.70045163355826
  0
LINE
  8
_1-2_極細2
  6
CONTINUOUS
 62
    2
 10
367.56192482947358
 20
512.37046969283574
 11
356.71480729628843
 21
523.2175872260209
  0
LINE
  8
_1-2_極細2
  6
CONTINUOUS
 62
    2
 10
307.73194288983677
 20
572.20045163247255
 11
307.21480734578722
 21
572.71758717652233
  0
LINE
  8
_1-2_極細2
  6
CONTINUOUS
 62
    2
 10
424.16087507673495
 20
448.70045163370833
 11
409.16087507688502
 21
463.70045163355826
  0
LINE
  8
_1-2_極細2
  6
CONTINUOUS
 62
    2
 10
368.4648072845377
 20
504.39651942590586
 11
356.71480729628843
 21
516.14651941415536
  0
LINE
  8
_1-2_極細2
  6
CONTINUOUS
 62
    2
 10
417.08980726486971
 20
448.70045163370833
 11
402.08980726501977
 21
463.70045163355826
  0
LINE
  8
_1-2_極細2
  6
CONTINUOUS
 62
    2
 10
368.4648072845377
 20
497.3254516140405
 11
356.71480729628843
 21
509.07545160228977
  0
LINE
  8
_1-2_極細2
  6
CONTINUOUS
 62
    2
 10
410.01873945300389
 20
448.70045163370833
 11
395.01873945315396
 21
463.70045163355826
  0
LINE
  8
_1-2_極細2
  6
CONTINUOUS
 62
    2
 10
368.4648072845377
 20
490.25438380217497
 11
356.71480729628843
 21
502.00438379042424
  0
LINE
  8
_1-2_極細2
  6
CONTINUOUS
 62
    2
 10
402.94767164113836
 20
448.70045163370833
 11
387.94767164128859
 21
463.70045163355826
  0
LINE
  8
_1-2_極細2
  6
CONTINUOUS
 62
    2
 10
368.4648072845377
 20
483.18331599030944
 11
356.71480729628843
 21
494.93331597855899
  0
LINE
  8
_1-2_極細2
  6
CONTINUOUS
 62
    2
 10
395.87660382927282
 20
448.70045163370833
 11
380.87660382942289
 21
463.70045163355826
  0
LINE
  8
_1-2_極細2
  6
CONTINUOUS
 62
    2
 10
368.4648072845377
 20
476.11224817844391
 11
356.71480729628843
 21
487.86224816669346
  0
LINE
  8
_1-2_極細2
  6
CONTINUOUS
 62
    2
 10
388.80553601740803
 20
448.70045163370833
 11
373.8055360175581
 21
463.70045163355826
  0
LINE
  8
_1-2_極細2
  6
CONTINUOUS
 62
    2
 10
368.4648072845377
 20
469.04118036657837
 11
356.71480729628843
 21
480.79118035482793
  0
LINE
  8
_1-2_極細2
  6
CONTINUOUS
 62
    2
 10
381.7344682055425
 20
448.70045163370833
 11
356.71480729628843
 21
473.7201125429624
  0
LINE
  8
_1-2_極細2
  6
CONTINUOUS
 62
    2
 10
374.66340039367697
 20
448.70045163370833
 11
356.71480729628843
 21
466.64904473109686
  0
LINE
  8
_1-2_極細2
  6
CONTINUOUS
 62
    2
 10
368.4648072845377
 20
447.82797693098178
 11
356.71480729628843
 21
459.57797691923179
  0
LINE
  8
_1-2_極細2
  6
CONTINUOUS
 62
    2
 10
368.4648072845377
 20
440.75690911911624
 11
356.71480729628843
 21
452.5069091073658
  0
LINE
  8
_1-2_極細2
  6
CONTINUOUS
 62
    2
 10
368.4648072845377
 20
433.68584130725111
 11
356.71480729628843
 21
445.43584129550072
  0
LINE
  8
_1-2_極細2
  6
CONTINUOUS
 62
    2
 10
368.4648072845377
 20
426.61477349538558
 11
356.71480729628843
 21
438.36477348363519
  0
LINE
  8
_1-2_極細2
  6
CONTINUOUS
 62
    2
 10
368.4648072845377
 20
419.54370568352005
 11
356.71480729628843
 21
431.29370567176966
  0
LINE
  8
_1-2_極細2
  6
CONTINUOUS
 62
    2
 10
368.4648072845377
 20
412.47263787165451
 11
356.71480729628843
 21
424.22263785990413
  0
LINE
  8
_1-2_極細2
  6
CONTINUOUS
 62
    2
 10
368.4648072845377
 20
405.40157005978898
 11
356.71480729628843
 21
417.15157004803859
  0
LINE
  8
_1-2_極細2
  6
CONTINUOUS
 62
    2
 10
368.4648072845377
 20
398.33050224792373
 11
356.71480729628843
 21
410.08050223617306
  0
LINE
  8
_1-2_極細2
  6
CONTINUOUS
 62
    2
 10
368.4648072845377
 20
391.25943443605792
 11
356.71480729628843
 21
403.00943442430753
  0
LINE
  8
_1-2_極細2
  6
CONTINUOUS
 62
    2
 10
368.4648072845377
 20
384.18836662419267
 11
356.71480729628843
 21
395.938366612442
  0
LINE
  8
_1-2_極細2
  6
CONTINUOUS
 62
    2
 10
368.4648072845377
 20
377.11729881232714
 11
356.71480729628843
 21
388.86729880057646
  0
LINE
  8
_1-2_極細2
  6
CONTINUOUS
 62
    2
 10
364.81058665054081
 20
373.70045163445837
 11
356.71480729628843
 21
381.79623098871133
  0
LINE
  8
_1-2_極細2
  6
CONTINUOUS
 62
    2
 10
357.73951883867585
 20
373.70045163445837
 11
356.71480729628843
 21
374.7251631768458
  0
LINE
  8
_1-2_極細2
  6
CONTINUOUS
 62
    2
 10
360.30754487032982
 20
550.03928516551218
 11
362.54587033822691
 21
552.27761063340938
  0
LINE
  8
_1-2_極細2
  6
CONTINUOUS
 62
    2
 10
359.51799983793353
 20
556.32080794498142
 11
361.75632584757682
 21
558.55913395462437
  0
LINE
  8
_1-2_極細2
  6
CONTINUOUS
 62
    2
 10
358.72845480553724
 20
562.60233072445067
 11
360.96678135692599
 21
564.84065727583925
  0
LINE
  8
_1-2_極細2
  6
CONTINUOUS
 62
    2
 10
357.93890977314095
 20
568.88385350391991
 11
360.17723686627551
 21
571.12218059705447
  0
LINE
  8
_1-2_極細2
  6
CONTINUOUS
 62
    2
 10
357.14936474074466
 20
575.16537628338881
 11
359.38769237562468
 21
577.40370391826923
  0
LINE
  8
_1-2_極細2
  6
CONTINUOUS
 62
    2
 10
355.51695856677998
 20
580.60403792128966
 11
357.28551752192675
 21
582.37259687643643
  0
LINE
  8
_1-2_極細2
  6
CONTINUOUS
 62
    2
 10
350.04230446599695
 20
582.20045163237251
 11
352.51329070097626
 21
584.67143786735187
  0
LINE
  8
_1-2_極細2
  6
CONTINUOUS
 62
    2
 10
342.97123665413142
 20
582.20045163237251
 11
345.47123664774335
 21
584.70045162598444
  0
LINE
  8
_1-2_極細2
  6
CONTINUOUS
 62
    2
 10
335.90016884226588
 20
582.20045163237251
 11
338.40016883705374
 21
584.70045162716042
  0
LINE
  8
_1-2_極細2
  6
CONTINUOUS
 62
    2
 10
328.82910103040035
 20
582.20045163237251
 11
331.32910102636447
 21
584.70045162833662
  0
LINE
  8
_1-2_極細2
  6
CONTINUOUS
 62
    2
 10
321.75803321853482
 20
582.20045163237251
 11
324.25803321567486
 21
584.7004516295126
  0
LINE
  8
_1-2_極細2
  6
CONTINUOUS
 62
    2
 10
314.68696540666929
 20
582.20045163237251
 11
317.18696540498559
 21
584.7004516306888
  0
LINE
  8
_1-2_極細2
  6
CONTINUOUS
 62
    2
 10
307.61589759480376
 20
582.20045163237251
 11
310.11589759429597
 21
584.70045163186501
  0
LINE
  8
_1-5_寸法2
  6
CONTINUOUS
 62
    7
 10
390.48419781632947
 20
484.41468176929902
 11
380.48419790082932
 21
467.09417364482425
  0
LINE
  8
_1-5_寸法2
  6
CONTINUOUS
 62
    7
 10
390.48419781632947
 20
484.41468176929902
 11
373.16368978942677
 21
474.41468168479923
  0
LINE
  8
_1-5_寸法2
  6
CONTINUOUS
 62
    7
 10
390.48419781632947
 20
484.41468176929902
 11
328.38833406347237
 21
422.31881741056031
  0
LINE
  8
_1-5_寸法2
  6
CONTINUOUS
 62
    7
 10
328.38833406347237
 20
422.31881741056031
 11
184.38833406347243
 21
422.31881741056031
  0
TEXT
  8
_1-5_寸法2
 62
    7
 10
184.38833406347243
 20
422.31881741056031
 40
30
 41
0.8000000000000001
 50
0
  1
ストレーナー
  0
LINE
  8
_1-5_寸法2
  6
CONTINUOUS
 62
    7
 10
563.8201098816794
 20
406.09537029067042
 11
578.69192853003312
 21
392.72267385014374
  0
LINE
  8
_1-5_寸法2
  6
CONTINUOUS
 62
    7
 10
563.8201098816794
 20
406.09537029067042
 11
570.0131344113654
 21
387.07836613189954
  0
LINE
  8
_1-5_寸法2
  6
CONTINUOUS
 62
    7
 10
563.8201098816794
 20
406.09537029067042
 11
649.92396843735082
 21
273.70045163445837
  0
LINE
  8
_1-5_寸法2
  6
CONTINUOUS
 62
    7
 10
649.92396843735082
 20
273.70045163445837
 11
721.92396843735082
 21
273.70045163445837
  0
TEXT
  8
_1-5_寸法2
 62
    7
 10
649.92396843735082
 20
273.70045163445837
 40
30
 41
0.8000000000000001
 50
0
  1
排水口
  0
LINE
  8
_1-5_寸法2
  6
CONTINUOUS
 62
    7
 10
618.7406527047799
 20
551.56486066886646
 11
637.44750318026661
 21
544.4899935119663
  0
LINE
  8
_1-5_寸法2
  6
CONTINUOUS
 62
    7
 10
618.7406527047799
 20
551.56486066886646
 11
631.40382686289831
 21
536.08442074484742
  0
LINE
  8
_1-5_寸法2
  6
CONTINUOUS
 62
    7
 10
618.7406527047799
 20
551.56486066886646
 11
706.10808933012891
 21
488.74695137572274
  0
LINE
  8
_1-5_寸法2
  6
CONTINUOUS
 62
    7
 10
706.10808933012891
 20
488.74695137572274
 11
850.10808933012879
 21
488.74695137572274
  0
TEXT
  8
_1-5_寸法2
 62
    7
 10
706.10808933012891
 20
488.74695137572274
 40
30
 41
0.8000000000000001
 50
0
  1
ロックナット
  0
LINE
  8
_1-5_寸法2
  6
CONTINUOUS
 62
    7
 10
617.05416501615389
 20
570.157558550207
 11
621.57309012153883
 21
589.64035393207973
  0
LINE
  8
_1-5_寸法2
  6
CONTINUOUS
 62
    7
 10
617.05416501615389
 20
570.157558550207
 11
630.70906664615279
 21
584.77069173495045
  0
LINE
  8
_1-5_寸法2
  6
CONTINUOUS
 62
    7
 10
617.05416501615389
 20
570.157558550207
 11
685.21480706778607
 21
698.03378496554751
  0
LINE
  8
_1-5_寸法2
  6
CONTINUOUS
 62
    7
 10
685.21480706778607
 20
698.03378496554751
 11
781.21480706778607
 21
698.03378496554751
  0
TEXT
  8
_1-5_寸法2
 62
    7
 10
685.21480706778607
 20
698.03378496554751
 40
30
 41
0.8000000000000001
 50
0
  1
パッキン
  0
LINE
  8
_1-5_寸法2
  6
CONTINUOUS
 62
    7
 10
351.7148073012882
 20
358.68513830107531
 11
351.71480730128764
 21
263.70045163445837
  0
LINE
  8
_1-5_寸法2
  6
CONTINUOUS
 62
    7
 10
351.71480730128764
 20
273.70045163445837
 11
371.03332382706895
 21
278.8768325365088
  0
LINE
  8
_1-5_寸法2
  6
CONTINUOUS
 62
    7
 10
351.71480730128764
 20
273.70045163445837
 11
371.03332382706895
 21
268.52407073240784
  0
LINE
  8
_1-5_寸法2
  6
CONTINUOUS
 62
    7
 10
585.21480706778584
 20
358.68513830107531
 11
585.21480706778561
 21
263.70045163445837
  0
LINE
  8
_1-5_寸法2
  6
CONTINUOUS
 62
    7
 10
585.21480706778561
 20
273.70045163445837
 11
565.89629054200429
 21
268.52407073240795
  0
LINE
  8
_1-5_寸法2
  6
CONTINUOUS
 62
    7
 10
585.21480706778561
 20
273.70045163445837
 11
565.89629054200429
 21
278.8768325365088
  0
LINE
  8
_1-5_寸法2
  6
CONTINUOUS
 62
    7
 10
351.71480730128764
 20
273.70045163445837
 11
585.21480706778561
 21
273.70045163445837
  0
TEXT
  8
_1-5_寸法2
 62
    7
 10
438.46480718453648
 20
273.70045163445837
 40
30
 41
1
 50
0
  1
46.7
  0
LINE
  8
_1-2_極細2
  6
CENTER1
 62
    2
 10
468.46480718453734
 20
623.04741829863019
 11
468.46480718453734
 21
349.74419830136384
  0
LINE
  8
_1-5_寸法2
  6
CONTINUOUS
 62
    7
 10
600.21480707278613
 20
373.70045163445837
 11
695.21480706778607
 21
373.70045163445781
  0
LINE
  8
_1-5_寸法2
  6
CONTINUOUS
 62
    7
 10
685.21480706778607
 20
373.70045163445798
 11
680.03842616573581
 21
393.01896816023941
  0
LINE
  8
_1-5_寸法2
  6
CONTINUOUS
 62
    7
 10
685.21480706778607
 20
373.70045163445798
 11
690.39118796983655
 21
393.01896816023941
  0
LINE
  8
_1-5_寸法2
  6
CONTINUOUS
 62
    7
 10
618.46480705453757
 20
487.7004516333177
 11
695.21480706778607
 21
487.70045163331736
  0
LINE
  8
_1-5_寸法2
  6
CONTINUOUS
 62
    7
 10
685.21480706778607
 20
487.70045163331747
 11
690.39118796983655
 21
468.38193510753604
  0
LINE
  8
_1-5_寸法2
  6
CONTINUOUS
 62
    7
 10
685.21480706778607
 20
487.70045163331747
 11
680.03842616573581
 21
468.38193510753604
  0
LINE
  8
_1-5_寸法2
  6
CONTINUOUS
 62
    7
 10
685.21480706778607
 20
373.70045163445798
 11
685.21480706778607
 21
487.70045163331747
  0
TEXT
  8
_1-5_寸法2
 62
    7
 10
685.21480706778607
 20
415.70045163388772
 40
30
 41
1
 50
90
  1
23
  0
LINE
  8
_1-5_寸法2
  6
CONTINUOUS
 62
    7
 10
345.96480718453734
 20
615.2004516325286
 11
345.96480718453762
 21
678.70045233654469
  0
LINE
  8
_1-5_寸法2
  6
CONTINUOUS
 62
    7
 10
345.96480718453762
 20
668.70045233654469
 11
365.28332371031894
 21
673.87683323859505
  0
LINE
  8
_1-5_寸法2
  6
CONTINUOUS
 62
    7
 10
345.96480718453762
 20
668.70045233654469
 11
365.28332371031894
 21
663.52407143449443
  0
LINE
  8
_1-5_寸法2
  6
CONTINUOUS
 62
    7
 10
590.96480718453745
 20
615.2004516325286
 11
590.96480718453768
 21
678.70045233654469
  0
LINE
  8
_1-5_寸法2
  6
CONTINUOUS
 62
    7
 10
590.96480718453768
 20
668.70045233654469
 11
571.64629065875613
 21
663.52407143449443
  0
LINE
  8
_1-5_寸法2
  6
CONTINUOUS
 62
    7
 10
590.96480718453768
 20
668.70045233654469
 11
571.64629065875624
 21
673.87683323859517
  0
LINE
  8
_1-5_寸法2
  6
CONTINUOUS
 62
    7
 10
345.96480718453762
 20
668.70045233654469
 11
590.96480718453768
 21
668.70045233654469
  0
TEXT
  8
_1-5_寸法2
 62
    7
 10
397.21480718453762
 20
668.70045233654469
 40
30
 41
1
 50
0
  1
φ49___±0.5
  0
LINE
  8
_1-5_寸法2
  6
CONTINUOUS
 62
    7
 10
305.96480718453734
 20
615.20045163252848
 11
305.96480718453762
 21
748.70045233654469
  0
LINE
  8
_1-5_寸法2
  6
CONTINUOUS
 62
    7
 10
305.96480718453762
 20
738.70045233654469
 11
325.28332371031894
 21
743.87683323859505
  0
LINE
  8
_1-5_寸法2
  6
CONTINUOUS
 62
    7
 10
305.96480718453762
 20
738.70045233654469
 11
325.28332371031894
 21
733.52407143449443
  0
LINE
  8
_1-5_寸法2
  6
CONTINUOUS
 62
    7
 10
630.96480718453734
 20
615.20045163252848
 11
630.96480718453768
 21
748.70045233654469
  0
LINE
  8
_1-5_寸法2
  6
CONTINUOUS
 62
    7
 10
630.96480718453768
 20
738.70045233654469
 11
611.64629065875613
 21
733.52407143449443
  0
LINE
  8
_1-5_寸法2
  6
CONTINUOUS
 62
    7
 10
630.96480718453768
 20
738.70045233654469
 11
611.64629065875624
 21
743.87683323859517
  0
LINE
  8
_1-5_寸法2
  6
CONTINUOUS
 62
    7
 10
305.96480718453762
 20
738.70045233654469
 11
630.96480718453768
 21
738.70045233654469
  0
TEXT
  8
_1-5_寸法2
 62
    7
 10
397.21480718453762
 20
738.70045233654469
 40
30
 41
1
 50
0
  1
φ65___±0.3
  0
TEXT
  8
_0-7_枠細線
 62
    5
 10
371.47257194243934
 20
791.20847300878097
 40
40
 41
0.8000000000000002
 50
0
  1
排水部詳細図
  0
TEXT
  8
_0-7_枠細線
 62
    5
 10
591.01666118764228
 20
791.20847300878097
 40
40
 41
0.6000000000000003
 50
0
  1
Ｓ＝１：２
  0
LINE
  8
_0-0_計極細
  6
CONTINUOUS
 62
    2
 10
1279.9488250653503
 20
1093.4320820248827
 11
1305.9488252895644
 21
1093.4320820248827
  0
LINE
  8
_0-0_計極細
  6
CONTINUOUS
 62
    2
 10
1320.3488249834002
 20
1093.4320820248827
 11
1346.3488251418903
 21
1093.4320820248827
  0
LINE
  8
_0-1_計細線
  6
CONTINUOUS
 62
    3
 10
1344.8988250336006
 20
1088.5320820248826
 11
1344.8988250336006
 21
1086.7320820249106
  0
LINE
  8
_0-1_計細線
  6
CONTINUOUS
 62
    3
 10
1307.1488252895663
 20
1106.2320820248842
 11
1305.148825289566
 21
1104.2320820248842
  0
LINE
  8
_0-1_計細線
  6
CONTINUOUS
 62
    3
 10
1305.148825289566
 20
1094.2320820248842
 11
1305.148825289566
 21
1104.2320820248842
  0
LINE
  8
_0-1_計細線
  6
CONTINUOUS
 62
    3
 10
1321.1488249834047
 20
1104.2320820248842
 11
1319.1488249834047
 21
1106.2320820248842
  0
LINE
  8
_0-1_計細線
  6
CONTINUOUS
 62
    3
 10
1321.1488249834047
 20
1094.2320820248842
 11
1321.1488249834047
 21
1104.2320820248842
  0
LINE
  8
_0-1_計細線
  6
CONTINUOUS
 62
    3
 10
1307.1488252895663
 20
1090.2320820248842
 11
1305.148825289566
 21
1088.2320820248842
  0
LINE
  8
_0-1_計細線
  6
CONTINUOUS
 62
    3
 10
1307.1488252895663
 20
1092.2320820248842
 11
1307.1488252895663
 21
1090.2320820248842
  0
LINE
  8
_0-1_計細線
  6
CONTINUOUS
 62
    3
 10
1305.148825289566
 20
1094.2320820248842
 11
1307.1488252895663
 21
1092.2320820248842
  0
LINE
  8
_0-1_計細線
  6
CONTINUOUS
 62
    3
 10
1319.1488249834047
 20
1090.2320820248842
 11
1321.1488249834047
 21
1088.2320820248842
  0
LINE
  8
_0-1_計細線
  6
CONTINUOUS
 62
    3
 10
1319.1488249834047
 20
1092.2320820248842
 11
1319.1488249834047
 21
1090.2320820248842
  0
LINE
  8
_0-1_計細線
  6
CONTINUOUS
 62
    3
 10
1321.1488249834047
 20
1094.2320820248842
 11
1319.1488249834047
 21
1092.2320820248842
  0
LINE
  8
_0-1_計細線
  6
CONTINUOUS
 62
    3
 10
1305.148825289566
 20
1088.2320820248842
 11
1305.148825289566
 21
1074.2320820248842
  0
ARC
  8
_0-1_計細線
  6
CONTINUOUS
 62
    3
 10
1308.148825289566
 20
1074.2320820248842
 40
3.0000000000000004
 50
179.99999999999983
 51
269.99999999999977
  0
LINE
  8
_0-1_計細線
  6
CONTINUOUS
 62
    3
 10
1308.148825289566
 20
1071.2320820248842
 11
1318.1488249834047
 21
1071.2320820248842
  0
LINE
  8
_0-1_計細線
  6
CONTINUOUS
 62
    3
 10
1321.1488249834047
 20
1088.2320820248842
 11
1321.1488249834047
 21
1074.2320820248842
  0
ARC
  8
_0-1_計細線
  6
CONTINUOUS
 62
    3
 10
1318.1488249834047
 20
1074.2320820248842
 40
3.0000000000000004
 50
269.99999999999977
 51
359.99999999999966
  0
LINE
  8
_0-1_計細線
  6
CONTINUOUS
 62
    3
 10
1346.3488251418903
 20
1094.2320820248824
 11
1346.3488251418903
 21
1090.0320820248826
  0
LINE
  8
_0-1_計細線
  6
CONTINUOUS
 62
    3
 10
1279.9488250653503
 20
1094.2320820248824
 11
1279.9488250653503
 21
1090.0320820248826
  0
LINE
  8
_0-1_計細線
  6
CONTINUOUS
 62
    3
 10
1344.8488251418903
 20
1088.5320820248826
 11
1320.8488249834054
 21
1088.5320820248826
  0
LINE
  8
_0-1_計細線
  6
CONTINUOUS
 62
    3
 10
1281.4488250653503
 20
1088.5320820248826
 11
1305.4488252895644
 21
1088.5320820248826
  0
ARC
  8
_0-1_計細線
  6
CONTINUOUS
 62
    3
 10
1281.4488250653503
 20
1090.0320820248826
 40
1.5000000000000002
 50
179.99999999999983
 51
269.99999999999977
  0
ARC
  8
_0-1_計細線
  6
CONTINUOUS
 62
    3
 10
1344.8488251418903
 20
1090.0320820248826
 40
1.5000000000000002
 50
269.99999999999977
 51
359.99999999999966
  0
ARC
  8
_0-1_計細線
  6
CONTINUOUS
 62
    3
 10
1341.8988250366001
 20
1086.7320820249106
 40
2.9999999969999998
 50
269.99999999999977
 51
359.99999999999966
  0
LINE
  8
_0-0_計極細
  6
CONTINUOUS
 62
    2
 10
1336.1488250423499
 20
1083.7320820249406
 11
1336.1488250423499
 21
1073.7320820250407
  0
LINE
  8
_0-1_計細線
  6
CONTINUOUS
 62
    3
 10
1339.1488250393504
 20
1083.7320820249406
 11
1339.1488250393504
 21
1073.7320820250407
  0
LINE
  8
_0-1_計細線
  6
CONTINUOUS
 62
    3
 10
1321.1488249834019
 20
1083.7320820249406
 11
1341.8988250366001
 21
1083.7320820249406
  0
LINE
  8
_0-1_計細線
  6
CONTINUOUS
 62
    3
 10
1321.1488249834019
 20
1073.7320820250407
 11
1339.1488250393504
 21
1073.7320820250407
  0
LINE
  8
_0-1_計細線
  6
CONTINUOUS
 62
    3
 10
1281.3988250971008
 20
1088.5320820248826
 11
1281.3988250971008
 21
1086.7320820249106
  0
ARC
  8
_0-1_計細線
  6
CONTINUOUS
 62
    3
 10
1284.3988250941002
 20
1086.7320820249106
 40
2.9999999969999998
 50
179.99999999999983
 51
269.99999999999977
  0
LINE
  8
_0-0_計極細
  6
CONTINUOUS
 62
    2
 10
1290.1488250883503
 20
1083.7320820249406
 11
1290.1488250883503
 21
1073.7320820250407
  0
LINE
  8
_0-1_計細線
  6
CONTINUOUS
 62
    3
 10
1287.1488250913499
 20
1083.7320820249406
 11
1287.1488250913499
 21
1073.7320820250407
  0
LINE
  8
_0-1_計細線
  6
CONTINUOUS
 62
    3
 10
1305.1488251472992
 20
1083.7320820249406
 11
1284.3988250941002
 21
1083.7320820249406
  0
LINE
  8
_0-1_計細線
  6
CONTINUOUS
 62
    3
 10
1305.1488251472992
 20
1073.7320820250407
 11
1287.1488250913499
 21
1073.7320820250407
  0
LINE
  8
_0-0_計極細
  6
CONTINUOUS
 62
    2
 10
1313.148825065351
 20
1050.2290193582076
 11
1336.4988250420001
 21
1050.2290193582076
  0
LINE
  8
_0-1_計細線
  6
CONTINUOUS
 62
    3
 10
1313.148825065351
 20
1049.2320820248833
 11
1335.4988250430006
 21
1049.2320820248833
  0
LINE
  8
_0-0_計極細
  6
CONTINUOUS
 62
    2
 10
1335.4988250430006
 20
1073.7320820250407
 11
1335.4988250430006
 21
1049.2320820248833
  0
LINE
  8
_0-1_計細線
  6
CONTINUOUS
 62
    3
 10
1336.4988250420001
 20
1073.7320820250407
 11
1336.4988250420001
 21
1050.2290193582076
  0
LINE
  8
_0-0_計極細
  6
CONTINUOUS
 62
    2
 10
1313.148825065351
 20
1050.2290193582076
 11
1289.7988250887011
 21
1050.2290193582076
  0
LINE
  8
_0-1_計細線
  6
CONTINUOUS
 62
    3
 10
1313.148825065351
 20
1049.2320820248833
 11
1290.7988250877017
 21
1049.2320820248833
  0
LINE
  8
_0-0_計極細
  6
CONTINUOUS
 62
    2
 10
1290.7988250877017
 20
1073.7320820250407
 11
1290.7988250877017
 21
1049.2320820248833
  0
LINE
  8
_0-1_計細線
  6
CONTINUOUS
 62
    3
 10
1289.7988250887011
 20
1073.7320820250407
 11
1289.7988250887011
 21
1050.2290193582076
  0
LINE
  8
_0-1_計細線
  6
CONTINUOUS
 62
    3
 10
1336.4988250420001
 20
1050.2290193582076
 11
1335.4988250430006
 21
1049.2320820248833
  0
LINE
  8
_0-1_計細線
  6
CONTINUOUS
 62
    3
 10
1289.7988250887011
 20
1050.2290193582076
 11
1290.7988250877017
 21
1049.2320820248833
  0
LINE
  8
_0-5_寸法線
  6
CONTINUOUS
 62
    7
 10
1294.4200070028774
 20
1059.1298191218484
 11
1289.1783163024909
 21
1039.8289207333933
  0
LINE
  8
_0-5_寸法線
  6
CONTINUOUS
 62
    7
 10
1294.4200070028774
 20
1059.1298191218484
 11
1280.2301205033345
 21
1045.0355961517771
  0
LINE
  8
_0-5_寸法線
  6
CONTINUOUS
 62
    7
 10
1294.4200070028774
 20
1059.1298191218484
 11
1268.4103330815542
 21
1014.4295764106478
  0
LINE
  8
_0-5_寸法線
  6
CONTINUOUS
 62
    7
 10
1268.4103330815542
 20
1014.4295764106478
 11
1196.4103330815542
 21
1014.4295764106478
  0
TEXT
  8
_0-5_寸法線
 62
    7
 10
1196.4103330815542
 20
1014.4295764106478
 40
30
 41
0.7999999999999999
 50
0
  1
排水口
  0
LINE
  8
_0-1_計細線
  6
CONTINUOUS
 62
    3
 10
342.14882528956605
 20
1094.2320820248829
 11
325.44882506535117
 21
1094.2320820248829
  0
LINE
  8
_0-1_計細線
  6
CONTINUOUS
 62
    3
 10
325.44882506535117
 20
1094.2320820248829
 11
325.44882506535117
 21
1106.2320820248829
  0
LINE
  8
_0-1_計細線
  6
CONTINUOUS
 62
    3
 10
344.1488252895661
 20
1106.2320820248842
 11
342.14882528956605
 21
1104.2320820248842
  0
LINE
  8
_0-1_計細線
  6
CONTINUOUS
 62
    3
 10
342.14882528956605
 20
1094.2320820248842
 11
342.14882528956605
 21
1104.2320820248842
  0
LINE
  8
_0-1_計細線
  6
CONTINUOUS
 62
    3
 10
358.14882498340467
 20
1104.2320820248842
 11
356.14882498340478
 21
1106.2320820248842
  0
LINE
  8
_0-1_計細線
  6
CONTINUOUS
 62
    3
 10
358.14882498340467
 20
1094.2320820248842
 11
358.14882498340467
 21
1104.2320820248842
  0
LINE
  8
_0-1_計細線
  6
CONTINUOUS
 62
    3
 10
344.1488252895661
 20
1090.2320820248842
 11
342.14882528956605
 21
1088.2320820248842
  0
LINE
  8
_0-1_計細線
  6
CONTINUOUS
 62
    3
 10
344.1488252895661
 20
1092.2320820248842
 11
344.1488252895661
 21
1090.2320820248842
  0
LINE
  8
_0-1_計細線
  6
CONTINUOUS
 62
    3
 10
342.14882528956605
 20
1094.2320820248842
 11
344.1488252895661
 21
1092.2320820248842
  0
LINE
  8
_0-1_計細線
  6
CONTINUOUS
 62
    3
 10
356.14882498340478
 20
1090.2320820248842
 11
358.14882498340467
 21
1088.2320820248842
  0
LINE
  8
_0-1_計細線
  6
CONTINUOUS
 62
    3
 10
356.14882498340478
 20
1092.2320820248842
 11
356.14882498340478
 21
1090.2320820248842
  0
LINE
  8
_0-1_計細線
  6
CONTINUOUS
 62
    3
 10
358.14882498340467
 20
1094.2320820248842
 11
356.14882498340478
 21
1092.2320820248842
  0
LINE
  8
_0-1_計細線
  6
CONTINUOUS
 62
    3
 10
342.14882528956605
 20
1088.2320820248842
 11
342.14882528956605
 21
1074.2320820248842
  0
ARC
  8
_0-1_計細線
  6
CONTINUOUS
 62
    3
 10
345.14882528956605
 20
1074.2320820248842
 40
3.0000000000000004
 50
179.99999999999983
 51
269.99999999999977
  0
LINE
  8
_0-1_計細線
  6
CONTINUOUS
 62
    3
 10
345.14882528956605
 20
1071.2320820248842
 11
355.14882498340467
 21
1071.2320820248842
  0
LINE
  8
_0-1_計細線
  6
CONTINUOUS
 62
    3
 10
358.14882498340467
 20
1088.2320820248842
 11
358.14882498340467
 21
1074.2320820248842
  0
ARC
  8
_0-1_計細線
  6
CONTINUOUS
 62
    3
 10
355.14882498340467
 20
1074.2320820248842
 40
3.0000000000000004
 50
269.99999999999977
 51
359.99999999999966
  0
LINE
  8
_0-0_計極細
  6
CENTER1
 62
    2
 10
350.14882506535116
 20
1117.873455890272
 11
350.14882506535116
 21
1062.6033380540289
  0
LINE
  8
_0-5_寸法線
  6
CONTINUOUS
 62
    7
 10
357.48526118412713
 20
1072.3969389219105
 11
372.72706616924143
 21
1059.4475226881282
  0
LINE
  8
_0-5_寸法線
  6
CONTINUOUS
 62
    7
 10
357.48526118412713
 20
1072.3969389219105
 11
364.21034338387329
 21
1053.561513006719
  0
LINE
  8
_0-5_寸法線
  6
CONTINUOUS
 62
    7
 10
357.48526118412713
 20
1072.3969389219105
 11
385.1071867311029
 21
1032.4295764106478
  0
LINE
  8
_0-5_寸法線
  6
CONTINUOUS
 62
    7
 10
385.1071867311029
 20
1032.4295764106478
 11
481.10718673110296
 21
1032.4295764106478
  0
TEXT
  8
_0-5_寸法線
 62
    7
 10
385.1071867311029
 20
1032.4295764106478
 40
30
 41
0.7999999999999999
 50
0
  1
アンカー
  0
LINE
  8
_0-1_計細線
  6
CONTINUOUS
 62
    3
 10
2300.8488250653509
 20
1094.2320820248829
 11
2284.1488249834047
 21
1094.2320820248829
  0
LINE
  8
_0-1_計細線
  6
CONTINUOUS
 62
    3
 10
2300.8488250653509
 20
1106.2320820248829
 11
2300.8488250653509
 21
1094.2320820248829
  0
LINE
  8
_0-1_計細線
  6
CONTINUOUS
 62
    3
 10
2270.148825289566
 20
1106.2320820248842
 11
2268.148825289566
 21
1104.2320820248842
  0
LINE
  8
_0-1_計細線
  6
CONTINUOUS
 62
    3
 10
2268.148825289566
 20
1094.2320820248842
 11
2268.148825289566
 21
1104.2320820248842
  0
LINE
  8
_0-1_計細線
  6
CONTINUOUS
 62
    3
 10
2284.1488249834047
 20
1104.2320820248842
 11
2282.1488249834047
 21
1106.2320820248842
  0
LINE
  8
_0-1_計細線
  6
CONTINUOUS
 62
    3
 10
2284.1488249834047
 20
1094.2320820248842
 11
2284.1488249834047
 21
1104.2320820248842
  0
LINE
  8
_0-1_計細線
  6
CONTINUOUS
 62
    3
 10
2270.148825289566
 20
1090.2320820248842
 11
2268.148825289566
 21
1088.2320820248842
  0
LINE
  8
_0-1_計細線
  6
CONTINUOUS
 62
    3
 10
2270.148825289566
 20
1092.2320820248842
 11
2270.148825289566
 21
1090.2320820248842
  0
LINE
  8
_0-1_計細線
  6
CONTINUOUS
 62
    3
 10
2268.148825289566
 20
1094.2320820248842
 11
2270.148825289566
 21
1092.2320820248842
  0
LINE
  8
_0-1_計細線
  6
CONTINUOUS
 62
    3
 10
2282.1488249834047
 20
1090.2320820248842
 11
2284.1488249834047
 21
1088.2320820248842
  0
LINE
  8
_0-1_計細線
  6
CONTINUOUS
 62
    3
 10
2282.1488249834047
 20
1092.2320820248842
 11
2282.1488249834047
 21
1090.2320820248842
  0
LINE
  8
_0-1_計細線
  6
CONTINUOUS
 62
    3
 10
2284.1488249834047
 20
1094.2320820248842
 11
2282.1488249834047
 21
1092.2320820248842
  0
LINE
  8
_0-1_計細線
  6
CONTINUOUS
 62
    3
 10
2268.148825289566
 20
1088.2320820248842
 11
2268.148825289566
 21
1074.2320820248842
  0
ARC
  8
_0-1_計細線
  6
CONTINUOUS
 62
    3
 10
2271.148825289566
 20
1074.2320820248842
 40
3.0000000000000004
 50
179.99999999999983
 51
269.99999999999977
  0
LINE
  8
_0-1_計細線
  6
CONTINUOUS
 62
    3
 10
2271.148825289566
 20
1071.2320820248842
 11
2281.1488249834047
 21
1071.2320820248842
  0
LINE
  8
_0-1_計細線
  6
CONTINUOUS
 62
    3
 10
2284.1488249834047
 20
1088.2320820248842
 11
2284.1488249834047
 21
1074.2320820248842
  0
ARC
  8
_0-1_計細線
  6
CONTINUOUS
 62
    3
 10
2281.1488249834047
 20
1074.2320820248842
 40
3.0000000000000004
 50
269.99999999999977
 51
359.99999999999966
  0
LINE
  8
_0-0_計極細
  6
CENTER1
 62
    2
 10
2276.148825065351
 20
1117.873455890272
 11
2276.148825065351
 21
1062.6033380540289
  0
LINE
  8
_0-1_計細線
  6
CONTINUOUS
 62
    3
 10
315.14882506535105
 20
1114.2320820248829
 11
315.14882506535105
 21
1106.2320820248829
  0
LINE
  8
_0-1_計細線
  6
CONTINUOUS
 62
    3
 10
315.14882506535105
 20
1106.2320820248829
 11
2311.148825065351
 21
1106.2320820248829
  0
LINE
  8
_0-1_計細線
  6
CONTINUOUS
 62
    3
 10
2311.148825065351
 20
1106.2320820248829
 11
2311.148825065351
 21
1114.2320820248829
  0
LINE
  8
_0-1_計細線
  6
CONTINUOUS
 62
    3
 10
2311.148825065351
 20
1114.2320820248829
 11
315.14882506535105
 21
1114.2320820248829
  0
LINE
  8
_0-5_寸法線
  6
CONTINUOUS
 62
    7
 10
1289.7988250887008
 20
1030.2290193582076
 11
1289.798825088699
 21
939.23208202488343
  0
LINE
  8
_0-5_寸法線
  6
CONTINUOUS
 62
    7
 10
1289.7988250886992
 20
949.23208202488343
 11
1309.1173416144807
 21
954.40846292693379
  0
LINE
  8
_0-5_寸法線
  6
CONTINUOUS
 62
    7
 10
1289.7988250886992
 20
949.23208202488343
 11
1309.1173416144807
 21
944.05570112283294
  0
LINE
  8
_0-5_寸法線
  6
CONTINUOUS
 62
    7
 10
1336.4988250419997
 20
1030.2290193582076
 11
1336.4988250419981
 21
939.23208202488343
  0
LINE
  8
_0-5_寸法線
  6
CONTINUOUS
 62
    7
 10
1336.4988250419983
 20
949.23208202488343
 11
1317.1803085162171
 21
944.05570112283294
  0
LINE
  8
_0-5_寸法線
  6
CONTINUOUS
 62
    7
 10
1336.4988250419983
 20
949.23208202488343
 11
1317.1803085162171
 21
954.40846292693379
  0
LINE
  8
_0-5_寸法線
  6
CONTINUOUS
 62
    7
 10
1289.7988250886992
 20
949.23208202488343
 11
1336.4988250419983
 21
949.23208202488343
  0
TEXT
  8
_0-5_寸法線
 62
    7
 10
1283.1488250653492
 20
949.23208202488343
 40
30
 41
1
 50
0
  1
46.7
  0
LINE
  8
_0-5_寸法線
  6
CONTINUOUS
 62
    7
 10
1359.1488250393504
 20
1073.7320820250407
 11
1456.3488251418903
 21
1073.7320820250402
  0
LINE
  8
_0-5_寸法線
  6
CONTINUOUS
 62
    7
 10
1446.3488251418903
 20
1073.7320820250402
 11
1451.5252060439409
 21
1054.4135654992588
  0
LINE
  8
_0-5_寸法線
  6
CONTINUOUS
 62
    7
 10
1446.3488251418903
 20
1073.7320820250402
 11
1441.1724442398397
 21
1054.4135654992588
  0
LINE
  8
_0-5_寸法線
  6
CONTINUOUS
 62
    7
 10
1359.1488250393504
 20
1114.2320820248829
 11
1456.3488251418903
 21
1114.2320820248824
  0
LINE
  8
_0-5_寸法線
  6
CONTINUOUS
 62
    7
 10
1446.3488251418903
 20
1114.2320820248824
 11
1441.1724442398399
 21
1133.5505985506638
  0
LINE
  8
_0-5_寸法線
  6
CONTINUOUS
 62
    7
 10
1446.3488251418903
 20
1114.2320820248824
 11
1451.5252060439409
 21
1133.5505985506638
  0
LINE
  8
_0-5_寸法線
  6
CONTINUOUS
 62
    7
 10
1446.3488251418903
 20
1023.7320820250403
 11
1446.3488251418903
 21
1164.2320820248824
  0
TEXT
  8
_0-5_寸法線
 62
    7
 10
1446.3488251418903
 20
1022.6528896189881
 40
30
 41
1
 50
90
  1
42
  0
LINE
  8
_0-5_寸法線
  6
CONTINUOUS
 62
    7
 10
2320.8488250653509
 20
1094.2320820248829
 11
2491.148825065351
 21
1094.2320820248824
  0
LINE
  8
_0-5_寸法線
  6
CONTINUOUS
 62
    7
 10
2481.148825065351
 20
1094.2320820248824
 11
2486.3252059674014
 21
1074.913565499101
  0
LINE
  8
_0-5_寸法線
  6
CONTINUOUS
 62
    7
 10
2481.148825065351
 20
1094.2320820248824
 11
2475.9724441633007
 21
1074.913565499101
  0
LINE
  8
_0-5_寸法線
  6
CONTINUOUS
 62
    7
 10
2331.148825065351
 20
1114.2320820248829
 11
2491.148825065351
 21
1114.2320820248824
  0
LINE
  8
_0-5_寸法線
  6
CONTINUOUS
 62
    7
 10
2481.148825065351
 20
1114.2320820248824
 11
2475.9724441633007
 21
1133.5505985506638
  0
LINE
  8
_0-5_寸法線
  6
CONTINUOUS
 62
    7
 10
2481.148825065351
 20
1114.2320820248824
 11
2486.3252059674014
 21
1133.5505985506638
  0
LINE
  8
_0-5_寸法線
  6
CONTINUOUS
 62
    7
 10
2481.148825065351
 20
1044.2320820248824
 11
2481.148825065351
 21
1164.2320820248824
  0
TEXT
  8
_0-5_寸法線
 62
    7
 10
2481.148825065351
 20
1120.451196118853
 40
30
 41
1
 50
90
  1
20
  0
LINE
  8
_0-5_寸法線
  6
CONTINUOUS
 62
    7
 10
2331.148825065351
 20
1106.2320820248842
 11
2421.148825065351
 21
1106.2320820248838
  0
LINE
  8
_0-5_寸法線
  6
CONTINUOUS
 62
    7
 10
2411.148825065351
 20
1106.2320820248838
 11
2416.3252059674014
 21
1086.9135654991023
  0
LINE
  8
_0-5_寸法線
  6
CONTINUOUS
 62
    7
 10
2411.148825065351
 20
1106.2320820248838
 11
2405.9724441633007
 21
1086.9135654991023
  0
LINE
  8
_0-5_寸法線
  6
CONTINUOUS
 62
    7
 10
2331.148825065351
 20
1114.2320820248829
 11
2421.148825065351
 21
1114.2320820248824
  0
LINE
  8
_0-5_寸法線
  6
CONTINUOUS
 62
    7
 10
2411.148825065351
 20
1114.2320820248824
 11
2405.9724441633007
 21
1133.5505985506638
  0
LINE
  8
_0-5_寸法線
  6
CONTINUOUS
 62
    7
 10
2411.148825065351
 20
1114.2320820248824
 11
2416.3252059674014
 21
1133.5505985506638
  0
LINE
  8
_0-5_寸法線
  6
CONTINUOUS
 62
    7
 10
2411.148825065351
 20
1076.2320820248838
 11
2411.148825065351
 21
1144.2320820248824
  0
TEXT
  8
_0-5_寸法線
 62
    7
 10
2411.148825065351
 20
1123.2330545543568
 40
30
 41
1
 50
90
  1
8
  0
TEXT
  8
_0-7_枠細線
 62
    5
 10
2374
 20
235
 40
40
 41
0.7
 50
0
  1
１：１０
  0
LINE
  8
_0-1_計細線
  6
CONTINUOUS
 62
    3
 10
825.64882528956616
 20
1106.2320820248842
 11
823.64882528956616
 21
1104.2320820248842
  0
LINE
  8
_0-1_計細線
  6
CONTINUOUS
 62
    3
 10
823.64882528956616
 20
1094.2320820248842
 11
823.64882528956616
 21
1104.2320820248842
  0
LINE
  8
_0-1_計細線
  6
CONTINUOUS
 62
    3
 10
839.64882498340467
 20
1104.2320820248842
 11
837.64882498340467
 21
1106.2320820248842
  0
LINE
  8
_0-1_計細線
  6
CONTINUOUS
 62
    3
 10
839.64882498340467
 20
1094.2320820248842
 11
839.64882498340467
 21
1104.2320820248842
  0
LINE
  8
_0-1_計細線
  6
CONTINUOUS
 62
    3
 10
825.64882528956616
 20
1090.2320820248842
 11
823.64882528956616
 21
1088.2320820248842
  0
LINE
  8
_0-1_計細線
  6
CONTINUOUS
 62
    3
 10
825.64882528956616
 20
1092.2320820248842
 11
825.64882528956616
 21
1090.2320820248842
  0
LINE
  8
_0-1_計細線
  6
CONTINUOUS
 62
    3
 10
823.64882528956616
 20
1094.2320820248842
 11
825.64882528956616
 21
1092.2320820248842
  0
LINE
  8
_0-1_計細線
  6
CONTINUOUS
 62
    3
 10
837.64882498340467
 20
1090.2320820248842
 11
839.64882498340467
 21
1088.2320820248842
  0
LINE
  8
_0-1_計細線
  6
CONTINUOUS
 62
    3
 10
837.64882498340467
 20
1092.2320820248842
 11
837.64882498340467
 21
1090.2320820248842
  0
LINE
  8
_0-1_計細線
  6
CONTINUOUS
 62
    3
 10
839.64882498340467
 20
1094.2320820248842
 11
837.64882498340467
 21
1092.2320820248842
  0
LINE
  8
_0-1_計細線
  6
CONTINUOUS
 62
    3
 10
823.64882528956616
 20
1088.2320820248842
 11
823.64882528956616
 21
1074.2320820248842
  0
ARC
  8
_0-1_計細線
  6
CONTINUOUS
 62
    3
 10
826.64882528956605
 20
1074.2320820248842
 40
3.0000000000000004
 50
179.99999999999983
 51
269.99999999999977
  0
LINE
  8
_0-1_計細線
  6
CONTINUOUS
 62
    3
 10
826.64882528956605
 20
1071.2320820248842
 11
836.64882498340478
 21
1071.2320820248842
  0
LINE
  8
_0-1_計細線
  6
CONTINUOUS
 62
    3
 10
839.64882498340467
 20
1088.2320820248842
 11
839.64882498340467
 21
1074.2320820248842
  0
ARC
  8
_0-1_計細線
  6
CONTINUOUS
 62
    3
 10
836.64882498340478
 20
1074.2320820248842
 40
3.0000000000000004
 50
269.99999999999977
 51
359.99999999999966
  0
LINE
  8
_0-0_計極細
  6
CENTER1
 62
    2
 10
831.64882506535105
 20
1117.873455890272
 11
831.64882506535105
 21
1062.6033380540289
  0
LINE
  8
_0-1_計細線
  6
CONTINUOUS
 62
    3
 10
1788.6488252895663
 20
1106.2320820248842
 11
1786.648825289566
 21
1104.2320820248842
  0
LINE
  8
_0-1_計細線
  6
CONTINUOUS
 62
    3
 10
1786.648825289566
 20
1094.2320820248842
 11
1786.648825289566
 21
1104.2320820248842
  0
LINE
  8
_0-1_計細線
  6
CONTINUOUS
 62
    3
 10
1802.6488249834049
 20
1104.2320820248842
 11
1800.6488249834047
 21
1106.2320820248842
  0
LINE
  8
_0-1_計細線
  6
CONTINUOUS
 62
    3
 10
1802.6488249834049
 20
1094.2320820248842
 11
1802.6488249834049
 21
1104.2320820248842
  0
LINE
  8
_0-1_計細線
  6
CONTINUOUS
 62
    3
 10
1788.6488252895663
 20
1090.2320820248842
 11
1786.648825289566
 21
1088.2320820248842
  0
LINE
  8
_0-1_計細線
  6
CONTINUOUS
 62
    3
 10
1788.6488252895663
 20
1092.2320820248842
 11
1788.6488252895663
 21
1090.2320820248842
  0
LINE
  8
_0-1_計細線
  6
CONTINUOUS
 62
    3
 10
1786.648825289566
 20
1094.2320820248842
 11
1788.6488252895663
 21
1092.2320820248842
  0
LINE
  8
_0-1_計細線
  6
CONTINUOUS
 62
    3
 10
1800.6488249834047
 20
1090.2320820248842
 11
1802.6488249834049
 21
1088.2320820248842
  0
LINE
  8
_0-1_計細線
  6
CONTINUOUS
 62
    3
 10
1800.6488249834047
 20
1092.2320820248842
 11
1800.6488249834047
 21
1090.2320820248842
  0
LINE
  8
_0-1_計細線
  6
CONTINUOUS
 62
    3
 10
1802.6488249834049
 20
1094.2320820248842
 11
1800.6488249834047
 21
1092.2320820248842
  0
LINE
  8
_0-1_計細線
  6
CONTINUOUS
 62
    3
 10
1786.648825289566
 20
1088.2320820248842
 11
1786.648825289566
 21
1074.2320820248842
  0
ARC
  8
_0-1_計細線
  6
CONTINUOUS
 62
    3
 10
1789.6488252895663
 20
1074.2320820248842
 40
3.0000000000000004
 50
179.99999999999983
 51
269.99999999999977
  0
LINE
  8
_0-1_計細線
  6
CONTINUOUS
 62
    3
 10
1789.6488252895663
 20
1071.2320820248842
 11
1799.6488249834047
 21
1071.2320820248842
  0
LINE
  8
_0-1_計細線
  6
CONTINUOUS
 62
    3
 10
1802.6488249834049
 20
1088.2320820248842
 11
1802.6488249834049
 21
1074.2320820248842
  0
ARC
  8
_0-1_計細線
  6
CONTINUOUS
 62
    3
 10
1799.6488249834047
 20
1074.2320820248842
 40
3.0000000000000004
 50
269.99999999999977
 51
359.99999999999966
  0
LINE
  8
_0-0_計極細
  6
CENTER1
 62
    2
 10
1794.648825065351
 20
1117.873455890272
 11
1794.648825065351
 21
1062.6033380540289
  0
LINE
  8
_0-5_寸法線
  6
CONTINUOUS
 62
    7
 10
315.14882506535116
 20
1134.2320820248829
 11
315.14882506535105
 21
1224.2320820248829
  0
LINE
  8
_0-5_寸法線
  6
CONTINUOUS
 62
    7
 10
315.14882506535105
 20
1214.2320820248829
 11
334.46734159113248
 21
1219.4084629269332
  0
LINE
  8
_0-5_寸法線
  6
CONTINUOUS
 62
    7
 10
315.14882506535105
 20
1214.2320820248829
 11
334.46734159113248
 21
1209.0557011228325
  0
LINE
  8
_0-5_寸法線
  6
CONTINUOUS
 62
    7
 10
350.14882506535116
 20
1134.2320820248829
 11
350.14882506535116
 21
1224.2320820248829
  0
LINE
  8
_0-5_寸法線
  6
CONTINUOUS
 62
    7
 10
350.14882506535116
 20
1214.2320820248829
 11
330.83030853956973
 21
1209.0557011228325
  0
LINE
  8
_0-5_寸法線
  6
CONTINUOUS
 62
    7
 10
350.14882506535116
 20
1214.2320820248829
 11
330.83030853956984
 21
1219.4084629269332
  0
LINE
  8
_0-5_寸法線
  6
CONTINUOUS
 62
    7
 10
315.14882506535105
 20
1214.2320820248829
 11
350.14882506535116
 21
1214.2320820248829
  0
TEXT
  8
_0-5_寸法線
 62
    7
 10
317.64882506535105
 20
1214.2320820248829
 40
30
 41
1
 50
0
  1
35
  0
LINE
  8
_0-5_寸法線
  6
CONTINUOUS
 62
    7
 10
350.14882506535116
 20
1214.2320820248829
 11
369.46734159113248
 21
1219.4084629269332
  0
LINE
  8
_0-5_寸法線
  6
CONTINUOUS
 62
    7
 10
350.14882506535116
 20
1214.2320820248829
 11
369.46734159113248
 21
1209.0557011228323
  0
LINE
  8
_0-5_寸法線
  6
CONTINUOUS
 62
    7
 10
831.64882506535105
 20
1134.2320820248829
 11
831.64882506535105
 21
1224.2320820248829
  0
LINE
  8
_0-5_寸法線
  6
CONTINUOUS
 62
    7
 10
831.64882506535105
 20
1214.2320820248829
 11
812.33030853956961
 21
1209.0557011228325
  0
LINE
  8
_0-5_寸法線
  6
CONTINUOUS
 62
    7
 10
831.64882506535105
 20
1214.2320820248829
 11
812.33030853956973
 21
1219.4084629269332
  0
LINE
  8
_0-5_寸法線
  6
CONTINUOUS
 62
    7
 10
350.14882506535116
 20
1214.2320820248829
 11
831.64882506535105
 21
1214.2320820248829
  0
TEXT
  8
_0-5_寸法線
 62
    7
 10
553.39882506535105
 20
1214.2320820248829
 40
30
 41
1
 50
0
  1
481.5
  0
LINE
  8
_0-5_寸法線
  6
CONTINUOUS
 62
    7
 10
831.64882506535105
 20
1214.2320820248829
 11
850.96734159113248
 21
1219.4084629269332
  0
LINE
  8
_0-5_寸法線
  6
CONTINUOUS
 62
    7
 10
831.64882506535105
 20
1214.2320820248829
 11
850.96734159113237
 21
1209.0557011228323
  0
LINE
  8
_0-5_寸法線
  6
CONTINUOUS
 62
    7
 10
1313.148825065351
 20
1134.2320820248829
 11
1313.148825065351
 21
1224.2320820248829
  0
LINE
  8
_0-5_寸法線
  6
CONTINUOUS
 62
    7
 10
1313.148825065351
 20
1214.2320820248829
 11
1293.8303085395696
 21
1209.0557011228325
  0
LINE
  8
_0-5_寸法線
  6
CONTINUOUS
 62
    7
 10
1313.148825065351
 20
1214.2320820248829
 11
1293.8303085395696
 21
1219.4084629269332
  0
LINE
  8
_0-5_寸法線
  6
CONTINUOUS
 62
    7
 10
831.64882506535105
 20
1214.2320820248829
 11
1313.148825065351
 21
1214.2320820248829
  0
TEXT
  8
_0-5_寸法線
 62
    7
 10
1034.898825065351
 20
1214.2320820248829
 40
30
 41
1
 50
0
  1
481.5
  0
LINE
  8
_0-5_寸法線
  6
CONTINUOUS
 62
    7
 10
1313.148825065351
 20
1214.2320820248829
 11
1332.4673415911325
 21
1219.4084629269332
  0
LINE
  8
_0-5_寸法線
  6
CONTINUOUS
 62
    7
 10
1313.148825065351
 20
1214.2320820248829
 11
1332.4673415911325
 21
1209.0557011228323
  0
LINE
  8
_0-5_寸法線
  6
CONTINUOUS
 62
    7
 10
1794.648825065351
 20
1134.2320820248829
 11
1794.648825065351
 21
1224.2320820248829
  0
LINE
  8
_0-5_寸法線
  6
CONTINUOUS
 62
    7
 10
1794.648825065351
 20
1214.2320820248829
 11
1775.3303085395696
 21
1209.0557011228325
  0
LINE
  8
_0-5_寸法線
  6
CONTINUOUS
 62
    7
 10
1794.648825065351
 20
1214.2320820248829
 11
1775.3303085395696
 21
1219.4084629269332
  0
LINE
  8
_0-5_寸法線
  6
CONTINUOUS
 62
    7
 10
1313.148825065351
 20
1214.2320820248829
 11
1794.648825065351
 21
1214.2320820248829
  0
TEXT
  8
_0-5_寸法線
 62
    7
 10
1516.398825065351
 20
1214.2320820248829
 40
30
 41
1
 50
0
  1
481.5
  0
LINE
  8
_0-5_寸法線
  6
CONTINUOUS
 62
    7
 10
1794.648825065351
 20
1214.2320820248829
 11
1813.9673415911327
 21
1219.4084629269332
  0
LINE
  8
_0-5_寸法線
  6
CONTINUOUS
 62
    7
 10
1794.648825065351
 20
1214.2320820248829
 11
1813.9673415911327
 21
1209.0557011228323
  0
LINE
  8
_0-5_寸法線
  6
CONTINUOUS
 62
    7
 10
2276.148825065351
 20
1134.2320820248829
 11
2276.148825065351
 21
1224.2320820248829
  0
LINE
  8
_0-5_寸法線
  6
CONTINUOUS
 62
    7
 10
2276.148825065351
 20
1214.2320820248829
 11
2256.8303085395696
 21
1209.0557011228325
  0
LINE
  8
_0-5_寸法線
  6
CONTINUOUS
 62
    7
 10
2276.148825065351
 20
1214.2320820248829
 11
2256.8303085395696
 21
1219.4084629269332
  0
LINE
  8
_0-5_寸法線
  6
CONTINUOUS
 62
    7
 10
1794.648825065351
 20
1214.2320820248829
 11
2276.148825065351
 21
1214.2320820248829
  0
TEXT
  8
_0-5_寸法線
 62
    7
 10
1997.8988250653513
 20
1214.2320820248829
 40
30
 41
1
 50
0
  1
481.5
  0
LINE
  8
_0-5_寸法線
  6
CONTINUOUS
 62
    7
 10
2276.148825065351
 20
1214.2320820248829
 11
2295.4673415911329
 21
1219.4084629269332
  0
LINE
  8
_0-5_寸法線
  6
CONTINUOUS
 62
    7
 10
2276.148825065351
 20
1214.2320820248829
 11
2295.4673415911329
 21
1209.0557011228323
  0
LINE
  8
_0-5_寸法線
  6
CONTINUOUS
 62
    7
 10
2311.148825065351
 20
1134.2320820248829
 11
2311.148825065351
 21
1224.2320820248829
  0
LINE
  8
_0-5_寸法線
  6
CONTINUOUS
 62
    7
 10
2311.148825065351
 20
1214.2320820248829
 11
2291.8303085395696
 21
1209.0557011228325
  0
LINE
  8
_0-5_寸法線
  6
CONTINUOUS
 62
    7
 10
2311.148825065351
 20
1214.2320820248829
 11
2291.8303085395696
 21
1219.4084629269332
  0
LINE
  8
_0-5_寸法線
  6
CONTINUOUS
 62
    7
 10
2276.148825065351
 20
1214.2320820248829
 11
2311.148825065351
 21
1214.2320820248829
  0
TEXT
  8
_0-5_寸法線
 62
    7
 10
2278.648825065351
 20
1214.2320820248829
 40
30
 41
1
 50
0
  1
35
  0
LINE
  8
_0-1_計細線
  6
CONTINUOUS
 62
    3
 10
1305.148825289566
 20
1094.2320820248829
 11
839.6488249834033
 21
1094.2320820248829
  0
LINE
  8
_0-1_計細線
  6
CONTINUOUS
 62
    3
 10
823.64882528956741
 20
1094.2320820248829
 11
358.14882498340467
 21
1094.2320820248829
  0
LINE
  8
_0-1_計細線
  6
CONTINUOUS
 62
    3
 10
2268.148825289567
 20
1094.2320820248829
 11
1802.6488249834049
 21
1094.2320820248829
  0
LINE
  8
_0-1_計細線
  6
CONTINUOUS
 62
    3
 10
1786.6488252895674
 20
1094.2320820248829
 11
1321.1488249834047
 21
1094.2320820248829
  0
TEXT
  8
_0-7_枠細線
 62
    5
 10
1931.0000000000002
 20
220
 40
40
 41
0.6
 50
0
  1
ＧＳＧ－１５Ｌ２０００Ｔ
  0
TEXT
  8
_0-7_枠細線
 62
    5
 10
1931.0000000000002
 20
300
 40
40
 41
0.6
 50
0
  1
玄関排水ユニット取外し具付
  0
TEXT
  8
_0-7_枠細線
 62
    5
 10
1417.1738253761355
 20
791.20847300878097
 40
40
 41
0.8
 50
0
  1
Ａ－Ａ’断面図
  0
TEXT
  8
_0-7_枠細線
 62
    5
 10
1668.7179146213384
 20
791.20847300878097
 40
40
 41
0.6000000000000002
 50
0
  1
Ｓ＝１：２
  0
LINE
  8
_1-2_極細2
  6
CENTER1
 62
    2
 10
1535.0000000000002
 20
555.78102435746609
 11
1535.0000000000002
 21
389.59397399775366
  0
LINE
  8
_1-2_極細2
  6
CONTINUOUS
 62
    2
 10
1175
 20
485.20045163252883
 11
1175
 21
525.2004516325286
  0
LINE
  8
_1-2_極細2
  6
CONTINUOUS
 62
    2
 10
1178.5000000000005
 20
485.20045163252803
 11
1178.4999999999982
 21
521.70045163252848
  0
LINE
  8
_1-2_極細2
  6
CONTINUOUS
 62
    2
 10
1175
 20
485.20045163252883
 11
1178.5000000000005
 21
485.20045163252883
  0
LINE
  8
_1-2_極細2
  6
CONTINUOUS
 62
    2
 10
1226.500000000002
 20
425.20045163252803
 11
1226.500000000002
 21
521.7004516325278
  0
LINE
  8
_1-2_極細2
  6
CONTINUOUS
 62
    2
 10
1230
 20
428.7004516325286
 11
1230
 21
525.2004516325286
  0
LINE
  8
_1-2_極細2
  6
CONTINUOUS
 62
    2
 10
1178.5000000000005
 20
521.7004516325278
 11
1226.500000000002
 21
521.7004516325278
  0
LINE
  8
_1-2_極細2
  6
CONTINUOUS
 62
    2
 10
1175
 20
525.2004516325286
 11
1230
 21
525.2004516325286
  0
LINE
  8
_1-5_寸法2
  6
CONTINUOUS
 62
    7
 10
1206.500000000002
 20
425.20045163252809
 11
1055
 21
425.20045163252848
  0
LINE
  8
_1-5_寸法2
  6
CONTINUOUS
 62
    7
 10
1075
 20
425.20045163252837
 11
1069.8236190979496
 21
444.5189681583098
  0
LINE
  8
_1-5_寸法2
  6
CONTINUOUS
 62
    7
 10
1075
 20
425.20045163252837
 11
1080.1763809020504
 21
444.5189681583098
  0
LINE
  8
_1-5_寸法2
  6
CONTINUOUS
 62
    7
 10
1155
 20
485.20045163252888
 11
1055
 21
485.20045163252945
  0
LINE
  8
_1-5_寸法2
  6
CONTINUOUS
 62
    7
 10
1075
 20
485.20045163252928
 11
1080.1763809020504
 21
465.8819351067479
  0
LINE
  8
_1-5_寸法2
  6
CONTINUOUS
 62
    7
 10
1075
 20
485.20045163252928
 11
1069.8236190979494
 21
465.88193510674796
  0
LINE
  8
_1-5_寸法2
  6
CONTINUOUS
 62
    7
 10
1075
 20
425.20045163252837
 11
1075
 21
485.20045163252928
  0
TEXT
  8
_1-5_寸法2
 62
    7
 10
1075
 20
440.20045163252939
 40
30
 41
1
 50
90
  1
12
  0
LINE
  8
_1-5_寸法2
  6
CONTINUOUS
 62
    7
 10
1075
 20
485.20045163252928
 11
1069.8236190979496
 21
504.51896815831071
  0
LINE
  8
_1-5_寸法2
  6
CONTINUOUS
 62
    7
 10
1075
 20
485.20045163252928
 11
1080.1763809020504
 21
504.51896815831071
  0
LINE
  8
_1-5_寸法2
  6
CONTINUOUS
 62
    7
 10
1155
 20
525.2004516325286
 11
1055
 21
525.20045163252871
  0
LINE
  8
_1-5_寸法2
  6
CONTINUOUS
 62
    7
 10
1075
 20
525.20045163252871
 11
1080.1763809020504
 21
505.88193510674733
  0
LINE
  8
_1-5_寸法2
  6
CONTINUOUS
 62
    7
 10
1075
 20
525.20045163252871
 11
1069.8236190979494
 21
505.88193510674739
  0
LINE
  8
_1-5_寸法2
  6
CONTINUOUS
 62
    7
 10
1075
 20
485.20045163252928
 11
1075
 21
525.20045163252871
  0
TEXT
  8
_1-5_寸法2
 62
    7
 10
1075
 20
497.70045163252917
 40
30
 41
1
 50
90
  1
8
  0
LINE
  8
_1-5_寸法2
  6
CONTINUOUS
 62
    7
 10
1175
 20
545.2004516325286
 11
1175
 21
688.70045233654469
  0
LINE
  8
_1-5_寸法2
  6
CONTINUOUS
 62
    7
 10
1175
 20
668.70045233654469
 11
1194.3185165257814
 21
673.87683323859494
  0
LINE
  8
_1-5_寸法2
  6
CONTINUOUS
 62
    7
 10
1175
 20
668.70045233654469
 11
1194.3185165257814
 21
663.52407143449432
  0
LINE
  8
_1-5_寸法2
  6
CONTINUOUS
 62
    7
 10
1230
 20
545.2004516325286
 11
1230
 21
688.70045233654469
  0
LINE
  8
_1-5_寸法2
  6
CONTINUOUS
 62
    7
 10
1230
 20
668.70045233654469
 11
1210.6814834742186
 21
663.52407143449432
  0
LINE
  8
_1-5_寸法2
  6
CONTINUOUS
 62
    7
 10
1230
 20
668.70045233654469
 11
1210.6814834742186
 21
673.87683323859505
  0
LINE
  8
_1-5_寸法2
  6
CONTINUOUS
 62
    7
 10
1175
 20
668.70045233654469
 11
1230
 21
668.70045233654469
  0
TEXT
  8
_1-5_寸法2
 62
    7
 10
1187.5
 20
668.70045233654469
 40
30
 41
1
 50
0
  1
11
  0
LINE
  8
_1-3_細線2
  6
CONTINUOUS
 62
    4
 10
1322.2499999999989
 20
508.20045163252814
 11
1360.2499999999995
 21
508.20045163252814
  0
LINE
  8
_1-3_細線2
  6
CONTINUOUS
 62
    4
 10
1360.2499999999995
 20
508.20045163252814
 11
1360.2499999999995
 21
434.20045163252871
  0
LINE
  8
_1-3_細線2
  6
CONTINUOUS
 62
    4
 10
1366.2499999999998
 20
508.20045163252848
 11
1366.2499999999998
 21
434.20045163252871
  0
ARC
  8
_1-3_細線2
  6
CONTINUOUS
 62
    4
 10
1360.2499999999995
 20
508.20045163252848
 40
6.0000000000000009
 50
0
 51
89.999999999999915
  0
LINE
  8
_1-3_細線2
  6
CONTINUOUS
 62
    4
 10
1322.2499999999986
 20
514.20045163252871
 11
1360.2499999999995
 21
514.20045163252871
  0
ARC
  8
_1-3_細線2
  6
CONTINUOUS
 62
    4
 10
1322.2499999999986
 20
508.20045163252848
 40
6.0000000000000009
 50
89.999999999999915
 51
179.99999999999983
  0
LINE
  8
_1-3_細線2
  6
CONTINUOUS
 62
    4
 10
1360.2499999999995
 20
434.20045163252871
 11
1366.2499999999998
 21
434.20045163252871
  0
LINE
  8
_1-3_細線2
  6
CONTINUOUS
 62
    4
 10
1316.2499999999986
 20
484.20045092851274
 11
1322.25
 21
484.2004509285124
  0
LINE
  8
_1-3_細線2
  6
CONTINUOUS
 62
    4
 10
1322.2499999999989
 20
508.20045163252814
 11
1322.25
 21
484.20045092851274
  0
LINE
  8
_1-3_細線2
  6
CONTINUOUS
 62
    4
 10
1316.2499999999986
 20
508.20045163252848
 11
1316.2499999999986
 21
484.20045092851274
  0
LINE
  8
_1-3_細線2
  6
CONTINUOUS
 62
    4
 10
1288.7500000000027
 20
441.95045092851296
 11
1360.2500000000018
 21
441.95045092851296
  0
LINE
  8
_1-3_細線2
  6
CONTINUOUS
 62
    4
 10
1288.7500000000027
 20
476.45045092851296
 11
1360.2500000000018
 21
476.45045092851296
  0
LINE
  8
_1-3_細線2
  6
CONTINUOUS
 62
    4
 10
1282.750000000005
 20
508.20045163252814
 11
1282.750000000005
 21
434.20045163252871
  0
LINE
  8
_1-3_細線2
  6
CONTINUOUS
 62
    4
 10
1244.7500000000055
 20
508.20045163252814
 11
1282.750000000005
 21
508.20045163252814
  0
LINE
  8
_1-3_細線2
  6
CONTINUOUS
 62
    4
 10
1288.7500000000027
 20
508.20045163252848
 11
1288.7500000000027
 21
434.20045163252871
  0
ARC
  8
_1-3_細線2
  6
CONTINUOUS
 62
    4
 10
1282.750000000003
 20
508.20045163252848
 40
6.0000000000000009
 50
0
 51
89.999999999999915
  0
LINE
  8
_1-3_細線2
  6
CONTINUOUS
 62
    4
 10
1244.7500000000036
 20
514.20045163252871
 11
1282.750000000003
 21
514.20045163252871
  0
ARC
  8
_1-3_細線2
  6
CONTINUOUS
 62
    4
 10
1244.7500000000036
 20
508.20045163252848
 40
6.0000000000000009
 50
89.999999999999915
 51
179.99999999999983
  0
LINE
  8
_1-3_細線2
  6
CONTINUOUS
 62
    4
 10
1282.750000000005
 20
434.20045163252871
 11
1288.7500000000027
 21
434.20045163252871
  0
LINE
  8
_1-3_細線2
  6
CONTINUOUS
 62
    4
 10
1238.7500000000041
 20
484.20045092851274
 11
1244.7500000000055
 21
484.2004509285124
  0
LINE
  8
_1-3_細線2
  6
CONTINUOUS
 62
    4
 10
1244.7500000000055
 20
508.20045163252814
 11
1244.7500000000055
 21
484.20045092851274
  0
LINE
  8
_1-3_細線2
  6
CONTINUOUS
 62
    4
 10
1238.7500000000041
 20
508.20045163252848
 11
1238.7500000000041
 21
484.20045092851274
  0
LINE
  8
_1-2_極細2
  6
CONTINUOUS
 62
    2
 10
1330.0000000000009
 20
434.20045163252871
 11
1330.0000000000009
 21
431.2004516325286
  0
LINE
  8
_1-2_極細2
  6
CONTINUOUS
 62
    2
 10
1332.5000000000009
 20
434.20045163252871
 11
1332.5000000000009
 21
431.2004516325286
  0
LINE
  8
_1-2_極細2
  6
CONTINUOUS
 62
    2
 10
1330.0000000000009
 20
432
 11
1332.5000000000005
 21
432
  0
LINE
  8
_1-2_極細2
  6
CONTINUOUS
 62
    2
 10
1330.0000000000009
 20
433.00000000000006
 11
1332.5000000000005
 21
433.00000000000006
  0
LINE
  8
_1-2_極細2
  6
CONTINUOUS
 62
    2
 10
1330.0000000000009
 20
434.00000000000006
 11
1332.5000000000005
 21
434.00000000000006
  0
LINE
  8
_1-2_極細2
  6
CONTINUOUS
 62
    2
 10
1336.25
 20
431.2004516325286
 11
1336.25
 21
428.7004516325286
  0
LINE
  8
_1-2_極細2
  6
CONTINUOUS
 62
    2
 10
1336.2500000000009
 20
436.70045163252871
 11
1336.25
 21
434.20045163252837
  0
LINE
  8
_1-2_極細2
  6
CONTINUOUS
 62
    2
 10
1301.2500000000011
 20
431.2004516325286
 11
1301.25
 21
428.7004516325286
  0
LINE
  8
_1-2_極細2
  6
CONTINUOUS
 62
    2
 10
1301.2500000000009
 20
436.70045163252871
 11
1301.2500000000011
 21
434.20045163252871
  0
LINE
  8
_1-2_極細2
  6
CONTINUOUS
 62
    2
 10
1305.0000000000009
 20
434.20045163252871
 11
1305.0000000000009
 21
431.2004516325286
  0
LINE
  8
_1-2_極細2
  6
CONTINUOUS
 62
    2
 10
1307.5000000000009
 20
434.20045163252871
 11
1307.5000000000009
 21
431.2004516325286
  0
LINE
  8
_1-2_極細2
  6
CONTINUOUS
 62
    2
 10
1305.0000000000005
 20
432
 11
1307.5000000000011
 21
432
  0
LINE
  8
_1-2_極細2
  6
CONTINUOUS
 62
    2
 10
1305.0000000000005
 20
433.00000000000006
 11
1307.5000000000011
 21
433.00000000000006
  0
LINE
  8
_1-2_極細2
  6
CONTINUOUS
 62
    2
 10
1305.0000000000005
 20
434.00000000000006
 11
1307.5000000000011
 21
434.00000000000006
  0
LINE
  8
_1-2_極細2
  6
CONTINUOUS
 62
    2
 10
1301.2500000000009
 20
428.7004516325286
 11
1336.25
 21
428.7004516325286
  0
LINE
  8
_1-2_極細2
  6
CONTINUOUS
 62
    2
 10
1301.2500000000009
 20
429.00000000000006
 11
1336.25
 21
429.00000000000006
  0
LINE
  8
_1-2_極細2
  6
CONTINUOUS
 62
    2
 10
1301.2500000000009
 20
430
 11
1336.25
 21
430
  0
LINE
  8
_1-2_極細2
  6
CONTINUOUS
 62
    2
 10
1301.2500000000009
 20
431
 11
1336.25
 21
431
  0
LINE
  8
_1-2_極細2
  6
CONTINUOUS
 62
    2
 10
1301.2500000000011
 20
435
 11
1336.2500000000005
 21
435
  0
LINE
  8
_1-2_極細2
  6
CONTINUOUS
 62
    2
 10
1301.2500000000011
 20
436
 11
1336.2500000000005
 21
436
  0
LINE
  8
_1-2_極細2
  6
CONTINUOUS
 62
    2
 10
1301.2500000000011
 20
436.70045163252871
 11
1336.25
 21
436.70045163252871
  0
LINE
  8
_1-2_極細2
  6
CONTINUOUS
 62
    2
 10
1279.75
 20
502.70045163252837
 11
1282.7499999999998
 21
502.70045163252837
  0
LINE
  8
_1-2_極細2
  6
CONTINUOUS
 62
    2
 10
1279.75
 20
502.70045163252837
 11
1279.75
 21
431.2004516325286
  0
ARC
  8
_1-3_細線2
  6
CONTINUOUS
 62
    4
 10
1275.766259999999
 20
435.20045022449813
 40
1.0000000000000004
 50
179.99999999999983
 51
269.99999999999977
  0
LINE
  8
_1-3_細線2
  6
CONTINUOUS
 62
    4
 10
1279.75
 20
434.2004502244979
 11
1275.766259999999
 21
434.2004502244979
  0
ARC
  8
_1-3_細線2
  6
CONTINUOUS
 62
    4
 10
1275.766259999999
 20
483.20045022449699
 40
1.0000000000000004
 50
89.999999999999915
 51
179.99999999999983
  0
LINE
  8
_1-3_細線2
  6
CONTINUOUS
 62
    4
 10
1279.75
 20
484.2004502244987
 11
1275.766259999999
 21
484.2004502244987
  0
LINE
  8
_1-3_細線2
  6
CONTINUOUS
 62
    4
 10
1274.7662599999971
 20
456.7004502244979
 11
1274.7662599999971
 21
435.20045022449813
  0
LINE
  8
_1-3_細線2
  6
CONTINUOUS
 62
    4
 10
1274.7662599999971
 20
483.20045022449699
 11
1274.7662599999971
 21
456.7004502244979
  0
LINE
  8
_1-2_極細2
  6
CONTINUOUS
 62
    2
 10
1274.7662599999971
 20
459.20045022449676
 11
1259.7436799999969
 21
459.20045022449676
  0
LINE
  8
_1-3_細線2
  6
CONTINUOUS
 62
    4
 10
1274.7662599999971
 20
441.70045022449904
 11
1259.7436199999997
 21
441.70045022449904
  0
ARC
  8
_1-3_細線2
  6
CONTINUOUS
 62
    4
 10
1259.7436199999997
 20
442.70045022449813
 40
1.0000000000000004
 50
179.99999999999983
 51
269.99999999999977
  0
ARC
  8
_1-2_極細2
  6
CONTINUOUS
 62
    2
 10
1297.5335199999977
 20
450.44972022449974
 40
38.78978
 50
166.96197800000505
 51
193.03566999999961
  0
ARC
  8
_1-3_細線2
  6
CONTINUOUS
 62
    4
 10
1259.7436199999997
 20
475.7004502244996
 40
1.0000000000000004
 50
89.999999999999915
 51
179.99999999999983
  0
ARC
  8
_1-2_極細2
  6
CONTINUOUS
 62
    2
 10
1297.5335199999977
 20
467.95117022449722
 40
38.78978
 50
166.96433000000002
 51
193.03802199999836
  0
LINE
  8
_1-3_細線2
  6
CONTINUOUS
 62
    4
 10
1274.7662599999971
 20
476.7004502244987
 11
1259.7436199999997
 21
476.7004502244987
  0
LINE
  8
_1-3_細線2
  6
CONTINUOUS
 62
    4
 10
1258.7436199999979
 20
442.70045022449813
 11
1258.7436199999979
 21
475.7004502244996
  0
LINE
  8
_1-2_極細2
  6
CONTINUOUS
 62
    2
 10
1891.4999999999995
 20
485.20045163252803
 11
1891.4999999999995
 21
521.7004516325278
  0
LINE
  8
_1-2_極細2
  6
CONTINUOUS
 62
    2
 10
1894.9999999999995
 20
485.20045163252803
 11
1895.0000000000009
 21
525.2004516325286
  0
LINE
  8
_1-2_極細2
  6
CONTINUOUS
 62
    2
 10
1891.4999999999995
 20
485.20045163252803
 11
1894.9999999999995
 21
485.20045163252803
  0
LINE
  8
_1-5_寸法2
  6
CONTINUOUS
 62
    7
 10
1175
 20
545.2004516325286
 11
1175.0000000000009
 21
758.70045233654469
  0
LINE
  8
_1-5_寸法2
  6
CONTINUOUS
 62
    7
 10
1175.0000000000009
 20
738.70045233654469
 11
1194.3185165257823
 21
743.87683323859494
  0
LINE
  8
_1-5_寸法2
  6
CONTINUOUS
 62
    7
 10
1175.0000000000009
 20
738.70045233654469
 11
1194.3185165257823
 21
733.52407143449432
  0
LINE
  8
_1-5_寸法2
  6
CONTINUOUS
 62
    7
 10
1895.0000000000009
 20
545.2004516325286
 11
1895.0000000000009
 21
758.70045233654469
  0
LINE
  8
_1-5_寸法2
  6
CONTINUOUS
 62
    7
 10
1895.0000000000009
 20
738.70045233654469
 11
1875.6814834742192
 21
733.52407143449432
  0
LINE
  8
_1-5_寸法2
  6
CONTINUOUS
 62
    7
 10
1895.0000000000009
 20
738.70045233654469
 11
1875.6814834742192
 21
743.87683323859505
  0
LINE
  8
_1-5_寸法2
  6
CONTINUOUS
 62
    7
 10
1175.0000000000009
 20
738.70045233654469
 11
1895.0000000000009
 21
738.70045233654469
  0
TEXT
  8
_1-5_寸法2
 62
    7
 10
1512.5000000000011
 20
738.70045233654469
 40
30
 41
1
 50
0
  1
144
  0
LINE
  8
_1-2_極細2
  6
CONTINUOUS
 62
    2
 10
1840.0000000000005
 20
428.7004516325286
 11
1840.0000000000005
 21
525.2004516325286
  0
LINE
  8
_1-2_極細2
  6
CONTINUOUS
 62
    2
 10
1843.4999999999973
 20
425.20045163252803
 11
1843.4999999999973
 21
521.7004516325278
  0
LINE
  8
_1-2_極細2
  6
CONTINUOUS
 62
    2
 10
1230
 20
428.7004516325286
 11
1840.0000000000005
 21
428.7004516325286
  0
LINE
  8
_1-2_極細2
  6
CONTINUOUS
 62
    2
 10
1843.4999999999973
 20
425.20045163252803
 11
1226.500000000002
 21
425.20045163252803
  0
LINE
  8
_1-2_極細2
  6
CONTINUOUS
 62
    2
 10
1840.0000000000005
 20
525.2004516325286
 11
1895.0000000000009
 21
525.2004516325286
  0
LINE
  8
_1-2_極細2
  6
CONTINUOUS
 62
    2
 10
1843.4999999999973
 20
521.7004516325278
 11
1891.4999999999995
 21
521.7004516325278
  0
LINE
  8
_1-5_寸法2
  6
CONTINUOUS
 62
    7
 10
1840.0000000000005
 20
545.2004516325286
 11
1840.0000000000005
 21
688.70045233654469
  0
LINE
  8
_1-5_寸法2
  6
CONTINUOUS
 62
    7
 10
1840.0000000000005
 20
668.70045233654469
 11
1859.3185165257819
 21
673.87683323859494
  0
LINE
  8
_1-5_寸法2
  6
CONTINUOUS
 62
    7
 10
1840.0000000000005
 20
668.70045233654469
 11
1859.3185165257819
 21
663.52407143449432
  0
LINE
  8
_1-5_寸法2
  6
CONTINUOUS
 62
    7
 10
1895.0000000000009
 20
545.2004516325286
 11
1895.0000000000009
 21
688.70045233654469
  0
LINE
  8
_1-5_寸法2
  6
CONTINUOUS
 62
    7
 10
1895.0000000000009
 20
668.70045233654469
 11
1875.6814834742192
 21
663.52407143449432
  0
LINE
  8
_1-5_寸法2
  6
CONTINUOUS
 62
    7
 10
1895.0000000000009
 20
668.70045233654469
 11
1875.6814834742192
 21
673.87683323859505
  0
LINE
  8
_1-5_寸法2
  6
CONTINUOUS
 62
    7
 10
1840.0000000000005
 20
668.70045233654469
 11
1895.0000000000009
 21
668.70045233654469
  0
TEXT
  8
_1-5_寸法2
 62
    7
 10
1852.5
 20
668.70045233654469
 40
30
 41
1
 50
0
  1
11
  0
LINE
  8
_1-3_細線2
  6
CONTINUOUS
 62
    4
 10
1670.2499994897526
 20
508.20045163252814
 11
1632.2499994897553
 21
508.20045163252814
  0
LINE
  8
_1-3_細線2
  6
CONTINUOUS
 62
    4
 10
1632.2499994897553
 20
508.20045163252814
 11
1632.2499994897553
 21
434.20045163252871
  0
ARC
  8
_1-3_細線2
  6
CONTINUOUS
 62
    4
 10
1670.2499994897537
 20
508.20045163252848
 40
6.0000000000000009
 50
0
 51
89.999999999999915
  0
LINE
  8
_1-3_細線2
  6
CONTINUOUS
 62
    4
 10
1626.2499994897539
 20
508.20045163252848
 11
1626.2499994897539
 21
434.20045163252871
  0
LINE
  8
_1-3_細線2
  6
CONTINUOUS
 62
    4
 10
1670.2499994897537
 20
514.20045163252871
 11
1632.2499994897539
 21
514.20045163252871
  0
ARC
  8
_1-3_細線2
  6
CONTINUOUS
 62
    4
 10
1632.2499994897539
 20
508.20045163252848
 40
6.0000000000000009
 50
89.999999999999915
 51
179.99999999999983
  0
LINE
  8
_1-3_細線2
  6
CONTINUOUS
 62
    4
 10
1626.2499994897539
 20
434.20045163252871
 11
1632.2499994897553
 21
434.20045163252871
  0
LINE
  8
_1-3_細線2
  6
CONTINUOUS
 62
    4
 10
1676.2499994897539
 20
484.20045092851274
 11
1670.2499994897526
 21
484.2004509285124
  0
LINE
  8
_1-3_細線2
  6
CONTINUOUS
 62
    4
 10
1670.2499994897526
 20
508.20045163252814
 11
1670.2499994897526
 21
484.20045092851274
  0
LINE
  8
_1-3_細線2
  6
CONTINUOUS
 62
    4
 10
1676.2499994897539
 20
508.20045163252848
 11
1676.2499994897539
 21
484.20045092851274
  0
LINE
  8
_1-3_細線2
  6
CONTINUOUS
 62
    4
 10
1703.7500000000002
 20
441.95045092851296
 11
1632.2500000000014
 21
441.95045092851296
  0
LINE
  8
_1-3_細線2
  6
CONTINUOUS
 62
    4
 10
1703.7500000000002
 20
476.45045092851296
 11
1632.2500000000014
 21
476.45045092851296
  0
LINE
  8
_1-3_細線2
  6
CONTINUOUS
 62
    4
 10
1787.2500000000002
 20
472.12545163252855
 11
1787.2500000000002
 21
452.27545163252842
  0
LINE
  8
_1-3_細線2
  6
CONTINUOUS
 62
    4
 10
1787.2500000000002
 20
508.20045163252814
 11
1787.2500000000002
 21
434.20045163252871
  0
LINE
  8
_1-3_細線2
  6
CONTINUOUS
 62
    4
 10
1747.7499999999982
 20
508.20045163252814
 11
1709.7499999999986
 21
508.20045163252814
  0
LINE
  8
_1-3_細線2
  6
CONTINUOUS
 62
    4
 10
1825.2499999999991
 20
508.20045163252814
 11
1787.2500000000002
 21
508.20045163252814
  0
LINE
  8
_1-3_細線2
  6
CONTINUOUS
 62
    4
 10
1709.7499999999986
 20
508.20045163252814
 11
1709.7499999999986
 21
434.20045163252871
  0
ARC
  8
_1-3_細線2
  6
CONTINUOUS
 62
    4
 10
1825.2500000000007
 20
508.20045163252848
 40
6.0000000000000009
 50
0
 51
89.999999999999915
  0
LINE
  8
_1-3_細線2
  6
CONTINUOUS
 62
    4
 10
1781.2499999999986
 20
508.20045163252848
 11
1781.2499999999986
 21
434.20045163252871
  0
LINE
  8
_1-3_細線2
  6
CONTINUOUS
 62
    4
 10
1825.2500000000007
 20
514.20045163252871
 11
1787.2499999999989
 21
514.20045163252871
  0
ARC
  8
_1-3_細線2
  6
CONTINUOUS
 62
    4
 10
1787.2499999999989
 20
508.20045163252848
 40
6.0000000000000009
 50
89.999999999999915
 51
179.99999999999983
  0
ARC
  8
_1-3_細線2
  6
CONTINUOUS
 62
    4
 10
1747.7499999999995
 20
508.20045163252848
 40
6.0000000000000009
 50
0
 51
89.999999999999915
  0
LINE
  8
_1-3_細線2
  6
CONTINUOUS
 62
    4
 10
1703.7500000000002
 20
508.20045163252848
 11
1703.7500000000002
 21
434.20045163252871
  0
LINE
  8
_1-3_細線2
  6
CONTINUOUS
 62
    4
 10
1747.7499999999995
 20
514.20045163252871
 11
1709.7500000000009
 21
514.20045163252871
  0
ARC
  8
_1-3_細線2
  6
CONTINUOUS
 62
    4
 10
1709.7500000000009
 20
508.20045163252848
 40
6.0000000000000009
 50
89.999999999999915
 51
179.99999999999983
  0
LINE
  8
_1-3_細線2
  6
CONTINUOUS
 62
    4
 10
1703.7500000000002
 20
434.20045163252871
 11
1709.7499999999986
 21
434.20045163252871
  0
LINE
  8
_1-3_細線2
  6
CONTINUOUS
 62
    4
 10
1781.2499999999986
 20
434.20045163252871
 11
1787.2500000000002
 21
434.20045163252871
  0
LINE
  8
_1-3_細線2
  6
CONTINUOUS
 62
    4
 10
1831.2500000000005
 20
484.20045092851274
 11
1825.2499999999991
 21
484.20045092851274
  0
LINE
  8
_1-3_細線2
  6
CONTINUOUS
 62
    4
 10
1753.7499999999995
 20
484.20045092851274
 11
1747.7499999999982
 21
484.20045092851274
  0
LINE
  8
_1-3_細線2
  6
CONTINUOUS
 62
    4
 10
1747.7499999999982
 20
508.20045163252814
 11
1747.7499999999982
 21
484.20045092851274
  0
LINE
  8
_1-3_細線2
  6
CONTINUOUS
 62
    4
 10
1825.2499999999991
 20
508.20045163252814
 11
1825.2499999999991
 21
484.20045092851274
  0
LINE
  8
_1-3_細線2
  6
CONTINUOUS
 62
    4
 10
1831.2500000000005
 20
508.20045163252848
 11
1831.2500000000005
 21
484.20045092851274
  0
LINE
  8
_1-3_細線2
  6
CONTINUOUS
 62
    4
 10
1753.7499999999995
 20
508.20045163252848
 11
1753.7499999999995
 21
484.20045092851274
  0
LINE
  8
_1-3_細線2
  6
CONTINUOUS
 62
    4
 10
1781.2500005102479
 20
441.95045092851296
 11
1709.7500005102493
 21
441.95045092851296
  0
LINE
  8
_1-3_細線2
  6
CONTINUOUS
 62
    4
 10
1781.2500005102479
 20
476.45045092851296
 11
1709.7500005102493
 21
476.45045092851296
  0
LINE
  8
_1-2_極細2
  6
CONTINUOUS
 62
    2
 10
1768.7499994897539
 20
436.70045163252871
 11
1768.7499994897539
 21
434.20045163252837
  0
LINE
  8
_1-2_極細2
  6
CONTINUOUS
 62
    2
 10
1768.7499994897539
 20
431.2004516325286
 11
1768.7499994897539
 21
428.7004516325286
  0
LINE
  8
_1-2_極細2
  6
CONTINUOUS
 62
    2
 10
1762.4999994897539
 20
434.20045163252871
 11
1762.4999994897539
 21
431.2004516325286
  0
LINE
  8
_1-2_極細2
  6
CONTINUOUS
 62
    2
 10
1764.9999994897539
 20
434.20045163252871
 11
1764.9999994897539
 21
431.2004516325286
  0
LINE
  8
_1-2_極細2
  6
CONTINUOUS
 62
    2
 10
1762.4999994897539
 20
432
 11
1764.9999994897539
 21
432
  0
LINE
  8
_1-2_極細2
  6
CONTINUOUS
 62
    2
 10
1762.4999994897539
 20
433.00000000000006
 11
1764.9999994897539
 21
433.00000000000006
  0
LINE
  8
_1-2_極細2
  6
CONTINUOUS
 62
    2
 10
1762.4999994897539
 20
434.00000000000006
 11
1764.9999994897539
 21
434.00000000000006
  0
LINE
  8
_1-2_極細2
  6
CONTINUOUS
 62
    2
 10
1733.7499994897539
 20
436.70045163252871
 11
1733.7499994897548
 21
434.20045163252871
  0
LINE
  8
_1-2_極細2
  6
CONTINUOUS
 62
    2
 10
1733.7499994897548
 20
431.2004516325286
 11
1733.7499994897539
 21
428.7004516325286
  0
LINE
  8
_1-2_極細2
  6
CONTINUOUS
 62
    2
 10
1737.4999994897539
 20
434.20045163252871
 11
1737.4999994897539
 21
431.2004516325286
  0
LINE
  8
_1-2_極細2
  6
CONTINUOUS
 62
    2
 10
1739.9999994897539
 20
434.20045163252871
 11
1739.9999994897539
 21
431.2004516325286
  0
LINE
  8
_1-2_極細2
  6
CONTINUOUS
 62
    2
 10
1737.4999994897539
 20
432
 11
1739.9999994897539
 21
432
  0
LINE
  8
_1-2_極細2
  6
CONTINUOUS
 62
    2
 10
1737.4999994897539
 20
433.00000000000006
 11
1739.9999994897539
 21
433.00000000000006
  0
LINE
  8
_1-2_極細2
  6
CONTINUOUS
 62
    2
 10
1737.4999994897539
 20
434.00000000000006
 11
1739.9999994897539
 21
434.00000000000006
  0
LINE
  8
_1-2_極細2
  6
CONTINUOUS
 62
    2
 10
1733.7499994897548
 20
436.70045163252871
 11
1768.7499994897539
 21
436.70045163252871
  0
LINE
  8
_1-2_極細2
  6
CONTINUOUS
 62
    2
 10
1733.7499994897548
 20
435
 11
1768.7499994897539
 21
435
  0
LINE
  8
_1-2_極細2
  6
CONTINUOUS
 62
    2
 10
1733.7499994897548
 20
436
 11
1768.7499994897539
 21
436
  0
LINE
  8
_1-2_極細2
  6
CONTINUOUS
 62
    2
 10
1733.7499994897539
 20
429.00000000000006
 11
1768.7499994897539
 21
429.00000000000006
  0
LINE
  8
_1-2_極細2
  6
CONTINUOUS
 62
    2
 10
1733.7499994897539
 20
430
 11
1768.7499994897539
 21
430
  0
LINE
  8
_1-2_極細2
  6
CONTINUOUS
 62
    2
 10
1733.7499994897539
 20
431
 11
1768.7499994897539
 21
431
  0
LINE
  8
_1-2_極細2
  6
CONTINUOUS
 62
    2
 10
1733.7499994897539
 20
428.7004516325286
 11
1768.7499994897539
 21
428.7004516325286
  0
LINE
  8
_1-2_極細2
  6
CONTINUOUS
 62
    2
 10
1790.2499994897544
 20
502.70045163252837
 11
1787.2499994897541
 21
502.70045163252837
  0
LINE
  8
_1-2_極細2
  6
CONTINUOUS
 62
    2
 10
1790.2499994897544
 20
502.70045163252837
 11
1790.2499994897544
 21
431.2004516325286
  0
LINE
  8
_1-2_極細2
  6
CONTINUOUS
 62
    2
 10
1795.2337394897572
 20
459.20045092851274
 11
1810.2563194897573
 21
459.20045092851274
  0
LINE
  8
_1-3_細線2
  6
CONTINUOUS
 62
    4
 10
1795.2337394897572
 20
441.70045092851501
 11
1810.2563794897546
 21
441.70045092851501
  0
ARC
  8
_1-3_細線2
  6
CONTINUOUS
 62
    4
 10
1810.2563794897546
 20
442.7004509285141
 40
1.0000000000000004
 50
269.99999999999977
 51
359.99999999999966
  0
ARC
  8
_1-2_極細2
  6
CONTINUOUS
 62
    2
 10
1772.4664794897567
 20
450.44972092851572
 40
38.78978
 50
346.96432999999968
 51
13.038021999994573
  0
ARC
  8
_1-3_細線2
  6
CONTINUOUS
 62
    4
 10
1810.2563794897546
 20
475.70045092851558
 40
1.0000000000000004
 50
0
 51
89.999999999999915
  0
ARC
  8
_1-2_極細2
  6
CONTINUOUS
 62
    2
 10
1772.4664794897567
 20
467.95117092851319
 40
38.78978
 50
346.96197800000095
 51
13.035669999999625
  0
LINE
  8
_1-3_細線2
  6
CONTINUOUS
 62
    4
 10
1795.2337394897572
 20
476.70045092851467
 11
1810.2563794897546
 21
476.70045092851467
  0
LINE
  8
_1-3_細線2
  6
CONTINUOUS
 62
    4
 10
1811.2563794897562
 20
442.7004509285141
 11
1811.2563794897562
 21
475.70045092851558
  0
ARC
  8
_1-3_細線2
  6
CONTINUOUS
 62
    4
 10
1794.2337394897554
 20
435.2004509285141
 40
1.0000000000000004
 50
269.99999999999977
 51
359.99999999999966
  0
LINE
  8
_1-3_細線2
  6
CONTINUOUS
 62
    4
 10
1790.2499994897544
 20
434.20045092851387
 11
1794.2337394897554
 21
434.20045092851387
  0
ARC
  8
_1-3_細線2
  6
CONTINUOUS
 62
    4
 10
1794.2337394897554
 20
483.20045092851296
 40
1.0000000000000004
 50
0
 51
89.999999999999915
  0
LINE
  8
_1-3_細線2
  6
CONTINUOUS
 62
    4
 10
1790.2499994897544
 20
484.20045092851467
 11
1794.2337394897554
 21
484.20045092851467
  0
LINE
  8
_1-3_細線2
  6
CONTINUOUS
 62
    4
 10
1795.2337394897572
 20
483.20045092851296
 11
1795.2337394897572
 21
435.2004509285141
  0
LINE
  8
_1-5_寸法2
  6
CONTINUOUS
 62
    7
 10
1238.7500000000041
 20
532.70045233654434
 11
1238.7500000000041
 21
678.70045233654469
  0
LINE
  8
_1-5_寸法2
  6
CONTINUOUS
 62
    7
 10
1238.7500000000041
 20
668.70045233654469
 11
1258.0685165257855
 21
673.87683323859494
  0
LINE
  8
_1-5_寸法2
  6
CONTINUOUS
 62
    7
 10
1238.7500000000041
 20
668.70045233654469
 11
1258.0685165257855
 21
663.52407143449432
  0
LINE
  8
_1-5_寸法2
  6
CONTINUOUS
 62
    7
 10
1831.2500000000005
 20
532.70045233654434
 11
1831.2500000000005
 21
678.70045233654469
  0
LINE
  8
_1-5_寸法2
  6
CONTINUOUS
 62
    7
 10
1831.2500000000005
 20
668.70045233654469
 11
1811.9314834742192
 21
663.52407143449432
  0
LINE
  8
_1-5_寸法2
  6
CONTINUOUS
 62
    7
 10
1831.2500000000005
 20
668.70045233654469
 11
1811.9314834742192
 21
673.87683323859505
  0
LINE
  8
_1-5_寸法2
  6
CONTINUOUS
 62
    7
 10
1238.7500000000041
 20
668.70045233654469
 11
1831.2500000000005
 21
668.70045233654469
  0
TEXT
  8
_1-5_寸法2
 62
    7
 10
1497.5000000000025
 20
668.70045233654469
 40
30
 41
1
 50
0
  1
118.5
  0
LINE
  8
_1-2_極細2
  6
CONTINUOUS
 62
    2
 10
1282.7499999999998
 20
434.20045163252871
 11
1787.2499994897541
 21
434.20045163252871
  0
LINE
  8
_1-2_極細2
  6
CONTINUOUS
 62
    2
 10
1279.75
 20
431.2004516325286
 11
1790.2499994897544
 21
431.2004516325286
  0
LINE
  8
_1-2_極細2
  6
CENTER1
 62
    2
 10
1251.9345729337892
 20
459.20045092851274
 11
1819.6810419146136
 21
459.20045092851274
  0
LINE
  8
_1-3_細線2
  6
CONTINUOUS
 62
    4
 10
1592.7499989795058
 20
508.20045163252814
 11
1554.7499989795085
 21
508.20045163252814
  0
LINE
  8
_1-3_細線2
  6
CONTINUOUS
 62
    4
 10
1554.7499989795085
 20
508.20045163252814
 11
1554.7499989795085
 21
434.20045163252871
  0
ARC
  8
_1-3_細線2
  6
CONTINUOUS
 62
    4
 10
1592.7499989795069
 20
508.20045163252848
 40
6.0000000000000009
 50
0
 51
89.999999999999915
  0
LINE
  8
_1-3_細線2
  6
CONTINUOUS
 62
    4
 10
1548.7499989795072
 20
508.20045163252848
 11
1548.7499989795072
 21
434.20045163252871
  0
LINE
  8
_1-3_細線2
  6
CONTINUOUS
 62
    4
 10
1592.7499989795069
 20
514.20045163252871
 11
1554.7499989795072
 21
514.20045163252871
  0
ARC
  8
_1-3_細線2
  6
CONTINUOUS
 62
    4
 10
1554.7499989795072
 20
508.20045163252848
 40
6.0000000000000009
 50
89.999999999999915
 51
179.99999999999983
  0
LINE
  8
_1-3_細線2
  6
CONTINUOUS
 62
    4
 10
1548.7499989795072
 20
434.20045163252871
 11
1554.7499989795085
 21
434.20045163252871
  0
LINE
  8
_1-3_細線2
  6
CONTINUOUS
 62
    4
 10
1598.7499989795072
 20
484.20045092851274
 11
1592.7499989795058
 21
484.2004509285124
  0
LINE
  8
_1-3_細線2
  6
CONTINUOUS
 62
    4
 10
1592.7499989795058
 20
508.20045163252814
 11
1592.7499989795058
 21
484.20045092851274
  0
LINE
  8
_1-3_細線2
  6
CONTINUOUS
 62
    4
 10
1598.7499989795072
 20
508.20045163252848
 11
1598.7499989795072
 21
484.20045092851274
  0
LINE
  8
_1-3_細線2
  6
CONTINUOUS
 62
    4
 10
1626.2499994897539
 20
441.95045092851296
 11
1554.7499994897548
 21
441.95045092851296
  0
LINE
  8
_1-3_細線2
  6
CONTINUOUS
 62
    4
 10
1626.2499994897539
 20
476.45045092851296
 11
1554.7499994897548
 21
476.45045092851296
  0
LINE
  8
_1-3_細線2
  6
CONTINUOUS
 62
    4
 10
1399.7500005102481
 20
508.20045163252814
 11
1437.7500005102454
 21
508.20045163252814
  0
LINE
  8
_1-3_細線2
  6
CONTINUOUS
 62
    4
 10
1437.7500005102454
 20
508.20045163252814
 11
1437.7500005102454
 21
434.20045163252871
  0
ARC
  8
_1-3_細線2
  6
CONTINUOUS
 62
    4
 10
1399.750000510247
 20
508.20045163252848
 40
6.0000000000000009
 50
89.999999999999915
 51
179.99999999999983
  0
LINE
  8
_1-3_細線2
  6
CONTINUOUS
 62
    4
 10
1443.7500005102468
 20
508.20045163252848
 11
1443.7500005102468
 21
434.20045163252871
  0
LINE
  8
_1-3_細線2
  6
CONTINUOUS
 62
    4
 10
1399.750000510247
 20
514.20045163252871
 11
1437.7500005102468
 21
514.20045163252871
  0
ARC
  8
_1-3_細線2
  6
CONTINUOUS
 62
    4
 10
1437.7500005102468
 20
508.20045163252848
 40
6.0000000000000009
 50
0
 51
89.999999999999915
  0
LINE
  8
_1-3_細線2
  6
CONTINUOUS
 62
    4
 10
1443.7500005102468
 20
434.20045163252871
 11
1437.7500005102454
 21
434.20045163252871
  0
LINE
  8
_1-3_細線2
  6
CONTINUOUS
 62
    4
 10
1393.7500005102468
 20
484.20045092851274
 11
1399.7500005102481
 21
484.2004509285124
  0
LINE
  8
_1-3_細線2
  6
CONTINUOUS
 62
    4
 10
1399.7500005102481
 20
508.20045163252814
 11
1399.7500005102481
 21
484.20045092851274
  0
LINE
  8
_1-3_細線2
  6
CONTINUOUS
 62
    4
 10
1393.7500005102468
 20
508.20045163252848
 11
1393.7500005102468
 21
484.20045092851274
  0
LINE
  8
_1-3_細線2
  6
CONTINUOUS
 62
    4
 10
1366.2500000000002
 20
441.95045092851296
 11
1437.7499999999991
 21
441.95045092851296
  0
LINE
  8
_1-3_細線2
  6
CONTINUOUS
 62
    4
 10
1366.2500000000002
 20
476.45045092851296
 11
1437.7499999999991
 21
476.45045092851296
  0
LINE
  8
_1-3_細線2
  6
CONTINUOUS
 62
    4
 10
1477.2500010204951
 20
508.20045163252814
 11
1515.2500010204924
 21
508.20045163252814
  0
LINE
  8
_1-3_細線2
  6
CONTINUOUS
 62
    4
 10
1515.2500010204924
 20
508.20045163252814
 11
1515.2500010204924
 21
434.20045163252871
  0
ARC
  8
_1-3_細線2
  6
CONTINUOUS
 62
    4
 10
1477.2500010204935
 20
508.20045163252848
 40
6.0000000000000009
 50
89.999999999999915
 51
179.99999999999983
  0
LINE
  8
_1-3_細線2
  6
CONTINUOUS
 62
    4
 10
1521.2500010204938
 20
508.20045163252848
 11
1521.2500010204938
 21
434.20045163252871
  0
LINE
  8
_1-3_細線2
  6
CONTINUOUS
 62
    4
 10
1477.2500010204935
 20
514.20045163252871
 11
1515.2500010204935
 21
514.20045163252871
  0
ARC
  8
_1-3_細線2
  6
CONTINUOUS
 62
    4
 10
1515.2500010204935
 20
508.20045163252848
 40
6.0000000000000009
 50
0
 51
89.999999999999915
  0
LINE
  8
_1-3_細線2
  6
CONTINUOUS
 62
    4
 10
1521.2500010204938
 20
434.20045163252871
 11
1515.2500010204924
 21
434.20045163252871
  0
LINE
  8
_1-3_細線2
  6
CONTINUOUS
 62
    4
 10
1471.2500010204938
 20
484.20045092851274
 11
1477.2500010204951
 21
484.2004509285124
  0
LINE
  8
_1-3_細線2
  6
CONTINUOUS
 62
    4
 10
1477.2500010204951
 20
508.20045163252814
 11
1477.2500010204951
 21
484.20045092851274
  0
LINE
  8
_1-3_細線2
  6
CONTINUOUS
 62
    4
 10
1471.2500010204938
 20
508.20045163252848
 11
1471.2500010204938
 21
484.20045092851274
  0
LINE
  8
_1-3_細線2
  6
CONTINUOUS
 62
    4
 10
1443.7500005102468
 20
441.95045092851296
 11
1515.2500005102456
 21
441.95045092851296
  0
LINE
  8
_1-3_細線2
  6
CONTINUOUS
 62
    4
 10
1443.7500005102468
 20
476.45045092851296
 11
1515.2500005102456
 21
476.45045092851296
  0
LINE
  8
_1-3_細線2
  6
CONTINUOUS
 62
    4
 10
1548.7499989795072
 20
476.45045092851296
 11
1521.2500010204938
 21
476.45045092851296
  0
LINE
  8
_1-3_細線2
  6
CONTINUOUS
 62
    4
 10
1548.7499989795072
 20
441.95045092851296
 11
1521.2500010204938
 21
441.95045092851296
  0
LINE
  8
_1-5_寸法2
  6
CONTINUOUS
 62
    7
 10
1443.7500010204926
 20
536.20045163252848
 11
1443.7500010204926
 21
618.70045233654457
  0
LINE
  8
_1-5_寸法2
  6
CONTINUOUS
 62
    7
 10
1443.7500010204926
 20
598.70045233654457
 11
1424.431484494711
 21
593.52407143449432
  0
LINE
  8
_1-5_寸法2
  6
CONTINUOUS
 62
    7
 10
1443.7500010204926
 20
598.70045233654457
 11
1424.431484494711
 21
603.87683323859505
  0
LINE
  8
_1-5_寸法2
  6
CONTINUOUS
 62
    7
 10
1471.2500010204926
 20
536.20045163252848
 11
1471.2500010204926
 21
618.70045233654457
  0
LINE
  8
_1-5_寸法2
  6
CONTINUOUS
 62
    7
 10
1396.4757068603694
 20
598.70045233654457
 11
1471.2500010204926
 21
598.70045233654457
  0
TEXT
  8
_1-5_寸法2
 62
    7
 10
1396.4757068603694
 20
598.70045233654457
 40
30
 41
1
 50
0
  1
5.5
  0
LINE
  8
_1-5_寸法2
  6
CONTINUOUS
 62
    7
 10
1471.2500010204926
 20
598.70045233654457
 11
1490.5685175462738
 21
603.87683323859483
  0
LINE
  8
_1-5_寸法2
  6
CONTINUOUS
 62
    7
 10
1471.2500010204926
 20
598.70045233654457
 11
1490.5685175462738
 21
593.52407143449409
  0
LINE
  8
_1-5_寸法2
  6
CONTINUOUS
 62
    7
 10
1521.2500010204926
 20
536.20045163252848
 11
1521.2500010204926
 21
618.70045233654457
  0
LINE
  8
_1-5_寸法2
  6
CONTINUOUS
 62
    7
 10
1521.2500010204926
 20
598.70045233654457
 11
1501.931484494711
 21
593.52407143449432
  0
LINE
  8
_1-5_寸法2
  6
CONTINUOUS
 62
    7
 10
1521.2500010204926
 20
598.70045233654457
 11
1501.931484494711
 21
603.87683323859505
  0
LINE
  8
_1-5_寸法2
  6
CONTINUOUS
 62
    7
 10
1471.2500010204926
 20
598.70045233654457
 11
1521.2500010204926
 21
598.70045233654457
  0
TEXT
  8
_1-5_寸法2
 62
    7
 10
1481.2500010204926
 20
598.70045233654457
 40
30
 41
1
 50
0
  1
10
  0
TEXT
  8
_0-7_枠細線
 62
    5
 10
1930.9999999999995
 20
140
 40
40.000000000000014
 41
0.5999999999999998
 50
0
  1
表面形状については記号表参照のこと
  0
LINE
  8
_1-2_極細2
  6
CENTER1
 62
    2
 10
2468.0089301475205
 20
646.31408061821321
 11
2492.8017257354868
 21
587.90591447691702
  0
CIRCLE
  8
_1-2_極細2
  6
DASHED2
 62
    2
 10
2482.0095831909084
 20
613.33060902287059
 40
15
  0
LINE
  8
_1-2_極細2
  6
CENTER1
 62
    2
 10
2509.6110960078995
 20
625.04675610296943
 11
2458.1203611708493
 21
603.19023589651522
  0
LINE
  8
_1-2_極細2
  6
CONTINUOUS
 62
    2
 10
2500.7992919360886
 20
637.64896247607919
 11
2514.9414275598197
 21
651.79109809981026
  0
LINE
  8
_1-2_極細2
  6
DASHED2
 62
    2
 10
2559.9966534905998
 20
517.7004516325286
 11
2502.0683598805904
 21
517.7004516325286
  0
LINE
  8
_1-2_極細2
  6
DASHED2
 62
    2
 10
2502.3315159614749
 20
651.83166807932537
 11
2559.3782607209068
 21
517.43795947526849
  0
LINE
  8
_1-2_極細2
  6
CONTINUOUS
 62
    2
 10
2278.1332937282732
 20
521.70045163252814
 11
2321.1332932632731
 21
521.70045163252951
  0
LINE
  8
_1-2_極細2
  6
CONTINUOUS
 62
    2
 10
2274.6332937632737
 20
525.20045163252814
 11
2324.6332932632722
 21
525.20045163252814
  0
LINE
  8
_1-2_極細2
  6
CONTINUOUS
 62
    2
 10
2274.6332937632737
 20
485.20045203252891
 11
2274.6332937632737
 21
525.2004516325286
  0
LINE
  8
_1-2_極細2
  6
CONTINUOUS
 62
    2
 10
2278.1332937282732
 20
485.20045203252891
 11
2278.1332937282732
 21
521.70045163252951
  0
LINE
  8
_1-2_極細2
  6
CONTINUOUS
 62
    2
 10
2274.6332937632737
 20
485.20045203252891
 11
2278.1332937282732
 21
485.20045203252891
  0
LINE
  8
_1-2_極細2
  6
CONTINUOUS
 62
    2
 10
2500.7992919360886
 20
637.64896247607919
 11
2505.9756728381394
 21
656.96747900186028
  0
LINE
  8
_1-2_極細2
  6
CONTINUOUS
 62
    2
 10
2567.0683598805904
 20
433.70045263252939
 11
2567.0683598805904
 21
437.20045263252985
  0
LINE
  8
_1-2_極細2
  6
CONTINUOUS
 62
    2
 10
2502.0683598805904
 20
466.90203672461388
 11
2502.0683598805904
 21
437.20045163252905
  0
LINE
  8
_1-2_極細2
  6
CONTINUOUS
 62
    2
 10
2367.0683598805899
 20
437.20045263252985
 11
2367.0683598805899
 21
433.70045263252939
  0
LINE
  8
_1-2_極細2
  6
CONTINUOUS
 62
    2
 10
2367.0683598805899
 20
437.20045263252985
 11
2567.0683575305902
 21
437.20045263252985
  0
LINE
  8
_1-2_極細2
  6
CONTINUOUS
 62
    2
 10
2367.0683598805899
 20
433.70045263252939
 11
2567.0683575305902
 21
433.70045263252939
  0
LINE
  8
_1-2_極細2
  6
CONTINUOUS
 62
    2
 10
2369.6332932632722
 20
437.20045263252985
 11
2439.6332932632722
 21
437.20045263252985
  0
LINE
  8
_1-2_極細2
  6
CONTINUOUS
 62
    2
 10
2321.1332932632731
 20
521.70045163252951
 11
2321.1332932632731
 21
425.20045263252939
  0
LINE
  8
_1-2_極細2
  6
CONTINUOUS
 62
    2
 10
2324.6332932632722
 20
525.2004516325286
 11
2324.6332932632722
 21
428.70045263252939
  0
LINE
  8
_1-2_極細2
  6
DASHED2
 62
    2
 10
2502.0683598805904
 20
517.7004516325286
 11
2502.0683598805904
 21
466.90203672461388
  0
LINE
  8
_1-5_寸法2
  6
CONTINUOUS
 62
    7
 10
2447.3044005907459
 20
553.95126236536851
 11
2429.3461677499604
 21
545.14774754252255
  0
ARC
  8
_1-5_寸法2
  6
CONTINUOUS
 62
    7
 10
2529.5683598805904
 20
459.70045163252905
 40
125.10225546263484
 50
131.11509464913786
 51
160.19528028383274
  0
LINE
  8
_1-5_寸法2
  6
CONTINUOUS
 62
    7
 10
2411.8655447401502
 20
502.08702533050598
 11
2413.5407433148694
 21
522.01674458932291
  0
LINE
  8
_1-5_寸法2
  6
CONTINUOUS
 62
    7
 10
2411.8655447401502
 20
502.08702533050598
 11
2423.2811688916481
 21
518.509069211574
  0
LINE
  8
_1-5_寸法2
  6
CONTINUOUS
 62
    7
 10
2447.3044005907459
 20
553.95126236536851
 11
2436.1538721549723
 21
537.34807846579713
  0
LINE
  8
_1-3_細線2
  6
CONTINUOUS
 62
    4
 10
2567.7129883310949
 20
478.60778672695403
 11
2552.4744743200149
 21
514.5074760115989
  0
LINE
  8
_1-3_細線2
  6
CONTINUOUS
 62
    4
 10
2444.3863644771809
 20
602.79230206117325
 11
2508.85700067791
 21
450.90900124152029
  0
ARC
  8
_1-3_細線2
  6
CONTINUOUS
 62
    4
 10
2529.5683598805904
 20
459.70045163252905
 40
22.499999999999996
 50
202.99999999999838
 51
292.99999999999989
  0
LINE
  8
_1-3_細線2
  6
CONTINUOUS
 62
    4
 10
2538.3598102715991
 20
438.98909242984871
 11
2554.4686452070159
 21
445.82688717841108
  0
ARC
  8
_1-3_細線2
  6
CONTINUOUS
 62
    4
 10
2544.700366994784
 20
468.83950851472207
 40
25
 50
292.99999999999989
 51
22.999999999998977
  0
LINE
  8
_1-3_細線2
  6
CONTINUOUS
 62
    4
 10
2563.9807849881704
 20
519.39161511771488
 11
2506.9340402287362
 21
653.78532372177176
  0
LINE
  8
_1-3_細線2
  6
CONTINUOUS
 62
    4
 10
2552.4744743200149
 20
514.5074760115989
 11
2563.9807849881704
 21
519.39161511771488
  0
LINE
  8
_1-3_細線2
  6
CONTINUOUS
 62
    4
 10
2506.9340402287362
 20
653.78532372177176
 11
2456.3062732888502
 21
632.29511165486144
  0
CIRCLE
  8
_1-3_細線2
  6
CONTINUOUS
 62
    4
 10
2482.0095831909084
 20
613.33060902287059
 40
8.75
  0
ARC
  8
_1-3_細線2
  6
CONTINUOUS
 62
    4
 10
2465.0977236798594
 20
611.58375245218201
 40
22.499999999999996
 50
113.00000000000134
 51
202.99999999999866
  0
CIRCLE
  8
_1-3_細線2
  6
CONTINUOUS
 62
    4
 10
2482.0095831909084
 20
613.33060902287059
 40
22.499999999999996
  0
LINE
  8
_1-2_極細2
  6
CONTINUOUS
 62
    2
 10
2644.8466470942408
 20
517.7004516325286
 11
2559.9966534905998
 21
517.7004516325286
  0
LINE
  8
_1-2_極細2
  6
CONTINUOUS
 62
    2
 10
2324.6332932632722
 20
428.70045263252939
 11
2673.2683600237096
 21
428.70045263252939
  0
LINE
  8
_1-2_極細2
  6
CONTINUOUS
 62
    2
 10
2321.1332932632731
 20
425.20045263252939
 11
2672.5704333692711
 21
425.20045263252939
  0
LINE
  8
_1-2_極細2
  6
CONTINUOUS
 62
    2
 10
2502.0683598805904
 20
437.20045163252905
 11
2673.9489627866869
 21
437.20045163252905
  0
LINE
  8
_1-2_極細2
  6
CONTINUOUS
 62
    2
 10
2656.7573553664597
 20
542.39955822952368
 11
2656.5766199086461
 21
542.08039779252829
  0
LINE
  8
_1-2_極細2
  6
CONTINUOUS
 62
    2
 10
2656.5766199086461
 20
542.08039779252829
 11
2656.0396016999193
 21
541.13161534193102
  0
LINE
  8
_1-2_極細2
  6
CONTINUOUS
 62
    2
 10
2656.0396016999193
 20
541.13161534193102
 11
2655.1631767605495
 21
539.5790307548549
  0
LINE
  8
_1-2_極細2
  6
CONTINUOUS
 62
    2
 10
2655.1631767605495
 20
539.5790307548549
 11
2653.9792933054032
 21
537.46477631843834
  0
LINE
  8
_1-2_極細2
  6
CONTINUOUS
 62
    2
 10
2653.9792933054032
 20
537.46477631843834
 11
2652.538934994097
 21
534.84601630281929
  0
LINE
  8
_1-2_極細2
  6
CONTINUOUS
 62
    2
 10
2652.538934994097
 20
534.84601630281929
 11
2650.9146555872867
 21
531.79328117206558
  0
LINE
  8
_1-2_極細2
  6
CONTINUOUS
 62
    2
 10
2650.9146555872867
 20
531.79328117206558
 11
2649.1997560530122
 21
528.3885123291742
  0
LINE
  8
_1-2_極細2
  6
CONTINUOUS
 62
    2
 10
2649.1997560530122
 20
528.3885123291742
 11
2647.5028536490545
 21
524.72290526429686
  0
LINE
  8
_1-2_極細2
  6
CONTINUOUS
 62
    2
 10
2647.5028536490545
 20
524.72290526429686
 11
2645.9377196788132
 21
520.8946173039102
  0
LINE
  8
_1-2_極細2
  6
CONTINUOUS
 62
    2
 10
2645.9377196788132
 20
520.8946173039102
 11
2644.6095633855698
 21
517.00637806291559
  0
LINE
  8
_1-2_極細2
  6
CONTINUOUS
 62
    2
 10
2644.6095633855698
 20
517.00637806291559
 11
2643.6000815925622
 21
513.16301499887129
  0
LINE
  8
_1-2_極細2
  6
CONTINUOUS
 62
    2
 10
2643.6000815925622
 20
513.16301499887129
 11
2642.9542700078327
 21
509.46889134807401
  0
LINE
  8
_1-2_極細2
  6
CONTINUOUS
 62
    2
 10
2642.9542700078327
 20
509.46889134807401
 11
2642.6719979351647
 21
506.0252546515643
  0
LINE
  8
_1-2_極細2
  6
CONTINUOUS
 62
    2
 10
2642.6719979351647
 20
506.0252546515643
 11
2642.7066352173706
 21
502.92751233453271
  0
LINE
  8
_1-2_極細2
  6
CONTINUOUS
 62
    2
 10
2642.7066352173706
 20
502.92751233453271
 11
2642.9717134584889
 21
500.26248302696553
  0
LINE
  8
_1-2_極細2
  6
CONTINUOUS
 62
    2
 10
2642.9717134584889
 20
500.26248302696553
 11
2643.3549759061448
 21
498.10571118865653
  0
LINE
  8
_1-2_極細2
  6
CONTINUOUS
 62
    2
 10
2643.3549759061448
 20
498.10571118865653
 11
2643.7375816446156
 21
496.51896850996343
  0
LINE
  8
_1-2_極細2
  6
CONTINUOUS
 62
    2
 10
2643.7375816446156
 20
496.51896850996343
 11
2644.0150433789468
 21
495.54808883726986
  0
LINE
  8
_1-2_極細2
  6
CONTINUOUS
 62
    2
 10
2644.0150433789468
 20
495.54808883726986
 11
2644.1159755896201
 21
495.22128662458493
  0
LINE
  8
_1-2_極細2
  6
CONTINUOUS
 62
    2
 10
2644.1159755896201
 20
495.22128662458493
 11
2644.220762462423
 21
494.89437943383462
  0
LINE
  8
_1-2_極細2
  6
CONTINUOUS
 62
    2
 10
2644.220762462423
 20
494.89437943383462
 11
2644.5545820879915
 21
493.9219461098586
  0
LINE
  8
_1-2_極細2
  6
CONTINUOUS
 62
    2
 10
2644.5545820879915
 20
493.9219461098586
 11
2645.1698644409448
 21
492.32864028923257
  0
LINE
  8
_1-2_極細2
  6
CONTINUOUS
 62
    2
 10
2645.1698644409448
 20
492.32864028923257
 11
2646.1356411119773
 21
490.1548646272289
  0
LINE
  8
_1-2_極細2
  6
CONTINUOUS
 62
    2
 10
2646.1356411119773
 20
490.1548646272289
 11
2647.5148127682173
 21
487.45579526641347
  0
LINE
  8
_1-2_極細2
  6
CONTINUOUS
 62
    2
 10
2647.5148127682173
 20
487.45579526641347
 11
2649.3407170762789
 21
484.30010943073455
  0
LINE
  8
_1-2_極細2
  6
CONTINUOUS
 62
    2
 10
2649.3407170762789
 20
484.30010943073455
 11
2651.5988930981753
 21
480.76847714917346
  0
LINE
  8
_1-2_極細2
  6
CONTINUOUS
 62
    2
 10
2651.5988930981753
 20
480.76847714917346
 11
2654.2187401340898
 21
476.95185990001613
  0
LINE
  8
_1-2_極細2
  6
CONTINUOUS
 62
    2
 10
2654.2187401340898
 20
476.95185990001613
 11
2657.0774276444463
 21
472.94962947435613
  0
LINE
  8
_1-2_極細2
  6
CONTINUOUS
 62
    2
 10
2657.0774276444463
 20
472.94962947435613
 11
2660.0154915004005
 21
468.86748903367277
  0
LINE
  8
_1-2_極細2
  6
CONTINUOUS
 62
    2
 10
2660.0154915004005
 20
468.86748903367277
 11
2662.8607540728417
 21
464.81515605762064
  0
LINE
  8
_1-2_極細2
  6
CONTINUOUS
 62
    2
 10
2662.8607540728417
 20
464.81515605762064
 11
2665.4552060332567
 21
460.90376309643483
  0
LINE
  8
_1-2_極細2
  6
CONTINUOUS
 62
    2
 10
2665.4552060332567
 20
460.90376309643483
 11
2667.6787687925453
 21
457.2429523602035
  0
LINE
  8
_1-2_極細2
  6
CONTINUOUS
 62
    2
 10
2667.6787687925453
 20
457.2429523602035
 11
2669.4645925349751
 21
453.93768381718735
  0
LINE
  8
_1-2_極細2
  6
CONTINUOUS
 62
    2
 10
2669.4645925349751
 20
453.93768381718735
 11
2670.8025596737566
 21
451.08483710372178
  0
LINE
  8
_1-2_極細2
  6
CONTINUOUS
 62
    2
 10
2670.8025596737566
 20
451.08483710372178
 11
2671.7304730243286
 21
448.76975360601625
  0
LINE
  8
_1-2_極細2
  6
CONTINUOUS
 62
    2
 10
2671.7304730243286
 20
448.76975360601625
 11
2672.3153363320985
 21
447.0629223632526
  0
LINE
  8
_1-2_極細2
  6
CONTINUOUS
 62
    2
 10
2672.3153363320985
 20
447.0629223632526
 11
2672.6294775633114
 21
446.01704827171977
  0
LINE
  8
_1-2_極細2
  6
CONTINUOUS
 62
    2
 10
2672.6294775633114
 20
446.01704827171977
 11
2672.727459151949
 21
445.66474341470837
  0
LINE
  8
_1-2_極細2
  6
CONTINUOUS
 62
    2
 10
2672.727459151949
 20
445.66474341470837
 11
2672.8214927321796
 21
445.31219516271574
  0
LINE
  8
_1-2_極細2
  6
CONTINUOUS
 62
    2
 10
2672.8214927321796
 20
445.31219516271574
 11
2673.0779011617478
 21
444.26274348697586
  0
LINE
  8
_1-2_極細2
  6
CONTINUOUS
 62
    2
 10
2673.0779011617478
 20
444.26274348697586
 11
2673.4243313357952
 21
442.54099176386296
  0
LINE
  8
_1-2_極細2
  6
CONTINUOUS
 62
    2
 10
2673.4243313357952
 20
442.54099176386296
 11
2673.7550104024076
 21
440.18797607585782
  0
LINE
  8
_1-2_極細2
  6
CONTINUOUS
 62
    2
 10
2673.7550104024076
 20
440.18797607585782
 11
2673.9499130908275
 21
437.26104804017717
  0
LINE
  8
_1-2_極細2
  6
CONTINUOUS
 62
    2
 10
2673.9499130908275
 20
437.26104804017717
 11
2673.8961593519634
 21
433.83342594157909
  0
LINE
  8
_1-2_極細2
  6
CONTINUOUS
 62
    2
 10
2673.8961593519634
 20
433.83342594157909
 11
2673.5076255580766
 21
429.99321510258085
  0
LINE
  8
_1-2_極細2
  6
CONTINUOUS
 62
    2
 10
2673.5076255580766
 20
429.99321510258085
 11
2672.739267449394
 21
425.84174159810061
  0
LINE
  8
_1-2_極細2
  6
CONTINUOUS
 62
    2
 10
2672.739267449394
 20
425.84174159810061
 11
2671.593868305692
 21
421.49112807563858
  0
LINE
  8
_1-2_極細2
  6
CONTINUOUS
 62
    2
 10
2671.593868305692
 20
421.49112807563858
 11
2670.1205531437945
 21
417.06114856164902
  0
LINE
  8
_1-2_極細2
  6
CONTINUOUS
 62
    2
 10
2670.1205531437945
 20
417.06114856164902
 11
2668.4060768849436
 21
412.6755075924529
  0
LINE
  8
_1-2_極細2
  6
CONTINUOUS
 62
    2
 10
2668.4060768849436
 20
412.6755075924529
 11
2666.5612328815332
 21
408.45777496186372
  0
LINE
  8
_1-2_極細2
  6
CONTINUOUS
 62
    2
 10
2666.5612328815332
 20
408.45777496186372
 11
2664.7054583634322
 21
404.52725352181358
  0
LINE
  8
_1-2_極細2
  6
CONTINUOUS
 62
    2
 10
2664.7054583634322
 20
404.52725352181358
 11
2662.9527073699201
 21
400.99505590215585
  0
LINE
  8
_1-2_極細2
  6
CONTINUOUS
 62
    2
 10
2662.9527073699201
 20
400.99505590215585
 11
2661.400968988457
 21
397.96061980577349
  0
LINE
  8
_1-2_極細2
  6
CONTINUOUS
 62
    2
 10
2661.400968988457
 20
397.96061980577349
 11
2660.1266388318045
 21
395.50881368395892
  0
LINE
  8
_1-2_極細2
  6
CONTINUOUS
 62
    2
 10
2660.1266388318045
 20
395.50881368395892
 11
2659.18361928283
 21
393.70769463032502
  0
LINE
  8
_1-2_極細2
  6
CONTINUOUS
 62
    2
 10
2659.18361928283
 20
393.70769463032502
 11
2658.6058693749824
 21
392.60689940912499
  0
LINE
  8
_1-2_極細2
  6
CONTINUOUS
 62
    2
 10
2658.6058693749824
 20
392.60689940912499
 11
2658.4114300025631
 21
392.23659526656036
  0
LINE
  8
_1-5_寸法2
  6
CONTINUOUS
 62
    7
 10
2577.4812665433278
 20
455.59516539064361
 11
2685.6405871630814
 21
501.50607313208411
  0
LINE
  8
_1-5_寸法2
  6
CONTINUOUS
 62
    7
 10
2681.0380628958192
 20
499.55241748963715
 11
2671.8031407659346
 21
511.37257879373794
  0
LINE
  8
_1-5_寸法2
  6
CONTINUOUS
 62
    7
 10
2681.0380628958192
 20
499.55241748963715
 11
2678.9504663814182
 21
514.40643852076073
  0
LINE
  8
_1-5_寸法2
  6
CONTINUOUS
 62
    7
 10
2529.9466615650481
 20
663.55360193400429
 11
2603.5870501803338
 21
694.81209235709184
  0
LINE
  8
_1-5_寸法2
  6
CONTINUOUS
 62
    7
 10
2598.9845259130716
 20
692.85843671464488
 11
2608.2194480429571
 21
681.0382754105442
  0
LINE
  8
_1-5_寸法2
  6
CONTINUOUS
 62
    7
 10
2598.9845259130716
 20
692.85843671464488
 11
2601.0721224274726
 21
678.0044156835213
  0
LINE
  8
_1-5_寸法2
  6
CONTINUOUS
 62
    7
 10
2681.0380628958192
 20
499.55241748963715
 11
2598.9845259130716
 21
692.85843671464488
  0
TEXT
  8
_1-5_寸法2
 62
    7
 10
2634.1503274771067
 20
610.01299990392772
 40
30
 41
1
 50
-66.999999999999744
  1
42
  0
LINE
  8
_1-5_寸法2
  6
CONTINUOUS
 62
    7
 10
2434.6180862649494
 20
625.80492339748491
 11
2394.5681455403878
 21
720.15667100457915
  0
LINE
  8
_1-5_寸法2
  6
CONTINUOUS
 62
    7
 10
2396.5218011828338
 20
715.55414673731673
 11
2408.3419624869343
 21
724.78906886720165
  0
LINE
  8
_1-5_寸法2
  6
CONTINUOUS
 62
    7
 10
2396.5218011828338
 20
715.55414673731673
 11
2411.3758222139577
 21
717.6417432517178
  0
LINE
  8
_1-5_寸法2
  6
CONTINUOUS
 62
    7
 10
2497.1657620165047
 20
676.79794505808343
 11
2465.9072716829487
 21
750.43833346249744
  0
LINE
  8
_1-5_寸法2
  6
CONTINUOUS
 62
    7
 10
2467.8609273253951
 20
745.83580919523502
 11
2456.0407660212941
 21
736.60088706535009
  0
LINE
  8
_1-5_寸法2
  6
CONTINUOUS
 62
    7
 10
2467.8609273253951
 20
745.83580919523502
 11
2453.0069062942712
 21
743.74821268083383
  0
LINE
  8
_1-5_寸法2
  6
CONTINUOUS
 62
    7
 10
2396.5218011828338
 20
715.55414673731673
 11
2467.8609273253951
 21
745.83580919523502
  0
TEXT
  8
_1-5_寸法2
 62
    7
 10
2404.5762186505413
 20
718.97304411159757
 40
30
 41
1
 50
23.000000000000313
  1
15.5
  0
LINE
  8
_1-2_極細2
  6
CENTER1
 62
    2
 10
2505.5928676075964
 20
462.97854186501934
 11
2553.4802018556197
 21
462.97854186501934
  0
LINE
  8
_1-2_極細2
  6
CENTER1
 62
    2
 10
2530.8927942191704
 20
437.97442911865016
 11
2530.8927942191704
 21
487.24561745396284
  0
CIRCLE
  8
_1-2_極細2
  6
CONTINUOUS
 62
    2
 10
2530.8927942191704
 20
462.97854202214955
 40
17.25
  0
CIRCLE
  8
_1-3_細線2
  6
CONTINUOUS
 62
    4
 10
2530.8927942191704
 20
462.97854202214955
 40
18
  0
TEXT
  8
_0-7_枠細線
 62
    5
 10
2577.497751798559
 20
800.13290259936912
 40
40
 41
0.6000000000000002
 50
0
  1
Ｓ＝１：２
  0
TEXT
  8
_0-7_枠細線
 62
    5
 10
2357.953662553356
 20
800.13290259936912
 40
40
 41
0.8
 50
0
  1
Ｂ部詳細図
  0
LINE
  8
_1-5_寸法2
  6
CONTINUOUS
 62
    7
 10
2500.7992919360886
 20
637.64896247607919
 11
2505.975672838139
 21
656.96747900186051
  0
LINE
  8
_1-5_寸法2
  6
CONTINUOUS
 62
    7
 10
2500.7992919360886
 20
637.64896247607919
 11
2514.9414275598197
 21
651.79109809981014
  0
LINE
  8
_1-5_寸法2
  6
CONTINUOUS
 62
    7
 10
2500.7992919360886
 20
637.64896247607919
 11
2545.2950992317337
 21
714.71796143593053
  0
LINE
  8
_1-5_寸法2
  6
CONTINUOUS
 62
    7
 10
2545.2950992317337
 20
714.71796143593053
 11
2641.2950992317333
 21
714.71796143593053
  0
TEXT
  8
_1-5_寸法2
 62
    7
 10
2545.2950992317337
 20
714.71796143593053
 40
30
 41
0.8000000000000001
 50
0
  1
取外し具
  0
LINE
  8
_0-7_枠細線
  6
CONTINUOUS
 62
    5
 10
1750
 20
354.99999999999915
 11
1750
 21
145
  0
TEXT
  8
_0-7_枠細線
 62
    5
 10
1568.0000000000018
 20
314.99999999999898
 40
30.000000000000004
 41
0.8
 50
0
  1
ノンスリップ
  0
LINE
  8
_0-7_枠細線
  6
CONTINUOUS
 62
    5
 10
1549.8554166756796
 20
209.50554330048234
 11
1739.6163899900384
 21
209.50554330048234
  0
LINE
  8
_0-7_枠細線
  6
CONTINUOUS
 62
    5
 10
1542.385030009759
 20
242.83887663048233
 11
1732.1460033241181
 21
242.83887663048233
  0
ARC
  8
_0-7_枠細線
  6
CONTINUOUS
 62
    5
 10
1571.6666666734989
 20
219.50554329948218
 40
6.6666666659999994
 50
51.317813000007412
 51
203.57817800000174
  0
ARC
  8
_0-7_枠細線
  6
CONTINUOUS
 62
    5
 10
1580.0000000059986
 20
229.91387329844159
 40
6.6666666659999994
 50
231.31781300000125
 51
308.68218699999647
  0
LINE
  8
_0-7_枠細線
  6
CONTINUOUS
 62
    5
 10
1565.5565666741106
 20
216.83887663308226
 11
1594.4434333378874
 21
216.83887663308226
  0
ARC
  8
_0-7_枠細線
  6
CONTINUOUS
 62
    5
 10
1588.333333338499
 20
219.50554329948218
 40
6.6666666659999994
 50
336.42182199999445
 51
128.68218699999832
  0
ARC
  8
_0-7_枠細線
  6
CONTINUOUS
 62
    5
 10
1631.6666666674994
 20
232.83887663148221
 40
6.6666666659999994
 50
156.42182199999678
 51
308.68218699999602
  0
ARC
  8
_0-7_枠細線
  6
CONTINUOUS
 62
    5
 10
1639.9999999999989
 20
222.43054663252281
 40
6.6666666659999994
 50
51.317813000008329
 51
128.68218699999778
  0
ARC
  8
_0-7_枠細線
  6
CONTINUOUS
 62
    5
 10
1648.3333333324993
 20
232.83887663148221
 40
6.6666666659999994
 50
231.31781299999562
 51
23.578178000004431
  0
LINE
  8
_0-7_枠細線
  6
CONTINUOUS
 62
    5
 10
1625.5565666681114
 20
235.50554329788213
 11
1654.443433331887
 21
235.50554329788213
  0
LINE
  8
_0-7_枠細線
  6
CONTINUOUS
 62
    5
 10
1685.556566662111
 20
216.83887663308226
 11
1714.4434333258878
 21
216.83887663308226
  0
ARC
  8
_0-7_枠細線
  6
CONTINUOUS
 62
    5
 10
1691.666666661499
 20
219.50554329948218
 40
6.6666666659999994
 50
51.317813000005891
 51
203.57817800000174
  0
ARC
  8
_0-7_枠細線
  6
CONTINUOUS
 62
    5
 10
1699.9999999939985
 20
229.91387329844159
 40
6.6666666659999994
 50
231.31781300000125
 51
308.68218699999801
  0
ARC
  8
_0-7_枠細線
  6
CONTINUOUS
 62
    5
 10
1708.3333333264989
 20
219.50554329948218
 40
6.6666666659999994
 50
336.42182199999598
 51
128.68218699999832
  0
ARC
  8
_0-7_枠細線
  6
CONTINUOUS
 62
    5
 10
1631.6666666674994
 20
232.83887663148221
 40
12.43333333209006
 50
151.14636799999636
 51
308.68218700000506
  0
LINE
  8
_0-7_枠細線
  6
CONTINUOUS
 62
    5
 10
1541.6524900098334
 20
238.83887663088217
 11
1620.7768666685863
 21
238.83887663088217
  0
LINE
  8
_0-7_枠細線
  6
CONTINUOUS
 62
    5
 10
1599.2231366707426
 20
213.50554330008251
 11
1680.7768666625896
 21
213.50554330008251
  0
ARC
  8
_0-7_枠細線
  6
CONTINUOUS
 62
    5
 10
1533.4407966773215
 20
214.57871996664139
 40
17.180713331615152
 50
317.56162899999947
 51
42.438371000002093
  0
ARC
  8
_0-7_枠細線
  6
CONTINUOUS
 62
    5
 10
1571.6666666734989
 20
219.50554329948218
 40
12.43333333209006
 50
51.317812999993059
 51
208.85363199999719
  0
ARC
  8
_0-7_枠細線
  6
CONTINUOUS
 62
    5
 10
1558.7996533414514
 20
237.76569996432315
 40
17.180713331615152
 50
137.56162900000021
 51
222.43837100000121
  0
LINE
  8
_0-7_枠細線
  6
CONTINUOUS
 62
    5
 10
1550.5879600089395
 20
213.50554330008251
 11
1560.7768666745867
 21
213.50554330008251
  0
ARC
  8
_0-7_枠細線
  6
CONTINUOUS
 62
    5
 10
1580.0000000059986
 20
229.91387329844159
 40
0.899999999909939
 50
231.31781300002788
 51
308.68218700000529
  0
ARC
  8
_0-7_枠細線
  6
CONTINUOUS
 62
    5
 10
1588.333333338499
 20
219.50554329948218
 40
12.43333333209006
 50
331.14636800000108
 51
128.68218700000659
  0
ARC
  8
_0-7_枠細線
  6
CONTINUOUS
 62
    5
 10
1723.2017699916807
 20
214.57871996664139
 40
17.180713331615152
 50
317.56162899999799
 51
42.438371000002093
  0
ARC
  8
_0-7_枠細線
  6
CONTINUOUS
 62
    5
 10
1748.5606266558111
 20
237.76569996432315
 40
17.180713331615152
 50
137.56162900000277
 51
222.43837100000016
  0
LINE
  8
_0-7_枠細線
  6
CONTINUOUS
 62
    5
 10
1719.2231366587428
 20
213.50554330008251
 11
1740.3489333232992
 21
213.50554330008251
  0
LINE
  8
_0-7_枠細線
  6
CONTINUOUS
 62
    5
 10
1659.2231366647432
 20
238.83887663088217
 11
1731.4134633241927
 21
238.83887663088217
  0
ARC
  8
_0-7_枠細線
  6
CONTINUOUS
 62
    5
 10
1691.666666661499
 20
219.50554329948218
 40
12.43333333209006
 50
51.317812999993059
 51
208.85363200000586
  0
ARC
  8
_0-7_枠細線
  6
CONTINUOUS
 62
    5
 10
1639.9999999999989
 20
222.43054663252281
 40
0.899999999909939
 50
51.317813000032764
 51
128.68218699998982
  0
ARC
  8
_0-7_枠細線
  6
CONTINUOUS
 62
    5
 10
1648.3333333324993
 20
232.83887663148221
 40
12.43333333209006
 50
231.31781299999017
 51
28.853631999998242
  0
ARC
  8
_0-7_枠細線
  6
CONTINUOUS
 62
    5
 10
1699.9999999939985
 20
229.91387329844159
 40
0.899999999909939
 50
231.31781300002788
 51
308.68218700000529
  0
ARC
  8
_0-7_枠細線
  6
CONTINUOUS
 62
    5
 10
1708.3333333264989
 20
219.50554329948218
 40
12.43333333209006
 50
331.14636800000056
 51
128.68218700000659
  0
LINE
  8
_0-7_枠細線
  6
CENTER1
 62
    5
 10
1580.0000000059986
 20
245.63845329686856
 11
1580.0000000059986
 21
206.94215663407192
  0
LINE
  8
_0-7_枠細線
  6
CENTER1
 62
    5
 10
1699.9999999939985
 20
245.63845329686856
 11
1699.9999999939985
 21
206.94215663407192
  0
LINE
  8
_0-7_枠細線
  6
CENTER1
 62
    5
 10
1639.9999999999989
 20
245.63845329686856
 11
1639.9999999999989
 21
206.94215663407192
  0
LINE
  8
_0-7_枠細線
  6
CONTINUOUS
 62
    5
 10
1580.0000000059986
 20
199.50554330048234
 11
1580.0000000059986
 21
149.50554330048234
  0
LINE
  8
_0-7_枠細線
  6
CONTINUOUS
 62
    5
 10
1580.0000000059986
 20
159.50554330048234
 11
1599.31851653178
 21
164.68192420253274
  0
LINE
  8
_0-7_枠細線
  6
CONTINUOUS
 62
    5
 10
1580.0000000059986
 20
159.50554330048234
 11
1599.31851653178
 21
154.32916239843195
  0
LINE
  8
_0-7_枠細線
  6
CONTINUOUS
 62
    5
 10
1639.9999999999989
 20
199.50554330048234
 11
1639.9999999999989
 21
149.50554330048234
  0
LINE
  8
_0-7_枠細線
  6
CONTINUOUS
 62
    5
 10
1639.9999999999989
 20
159.50554330048234
 11
1620.6814834742177
 21
154.32916239843195
  0
LINE
  8
_0-7_枠細線
  6
CONTINUOUS
 62
    5
 10
1639.9999999999989
 20
159.50554330048234
 11
1620.6814834742177
 21
164.68192420253274
  0
LINE
  8
_0-7_枠細線
  6
CONTINUOUS
 62
    5
 10
1580.0000000059986
 20
159.50554330048234
 11
1639.9999999999989
 21
159.50554330048234
  0
TEXT
  8
_0-7_枠細線
 62
    5
 10
1595.0000000029988
 20
159.50554330048234
 40
30
 41
1
 50
0
  1
18
  0
LINE
  8
_0-7_枠細線
  6
CONTINUOUS
 62
    5
 10
1639.9999999999989
 20
159.50554330048234
 11
1659.3185165257805
 21
164.6819242025326
  0
LINE
  8
_0-7_枠細線
  6
CONTINUOUS
 62
    5
 10
1639.9999999999989
 20
159.50554330048234
 11
1659.3185165257805
 21
154.32916239843181
  0
LINE
  8
_0-7_枠細線
  6
CONTINUOUS
 62
    5
 10
1699.9999999939985
 20
199.50554330048234
 11
1699.9999999939985
 21
149.50554330048234
  0
LINE
  8
_0-7_枠細線
  6
CONTINUOUS
 62
    5
 10
1699.9999999939985
 20
159.50554330048234
 11
1680.6814834682173
 21
154.32916239843195
  0
LINE
  8
_0-7_枠細線
  6
CONTINUOUS
 62
    5
 10
1699.9999999939985
 20
159.50554330048234
 11
1680.6814834682173
 21
164.68192420253274
  0
LINE
  8
_0-7_枠細線
  6
CONTINUOUS
 62
    5
 10
1639.9999999999989
 20
159.50554330048234
 11
1699.9999999939985
 21
159.50554330048234
  0
TEXT
  8
_0-7_枠細線
 62
    5
 10
1654.9999999969996
 20
159.50554330048234
 40
30
 41
1
 50
0
  1
18
  0
TEXT
  8
_0-7_枠細線
 62
    5
 10
1592.0000000000009
 20
264.99999999999932
 40
30.000000000000004
 41
0.7999999999999998
 50
0
  1
品番－Ｄ
  0
LINE
  8
_0-7_枠細線
  6
CONTINUOUS
 62
    5
 10
1529.9999999999998
 20
354.99999999999915
 11
1529.9999999999998
 21
145
  0
TEXT
  8
_0-7_枠細線
 62
    5
 10
1371.9999999999991
 20
314.99999999999932
 40
30.000000000000004
 41
0.8
 50
0
  1
プレーン
  0
LINE
  8
_0-7_枠細線
  6
CONTINUOUS
 62
    5
 10
1328.8547050091124
 20
209.50554330048234
 11
1518.6156783234717
 21
209.50554330048234
  0
LINE
  8
_0-7_枠細線
  6
CONTINUOUS
 62
    5
 10
1321.3843183431925
 20
242.83887663048233
 11
1511.1452916575522
 21
242.83887663048233
  0
ARC
  8
_0-7_枠細線
  6
CONTINUOUS
 62
    5
 10
1502.2010583251117
 20
214.57871996664139
 40
17.180713331615152
 50
317.56162900000425
 51
42.438370999996138
  0
ARC
  8
_0-7_枠細線
  6
CONTINUOUS
 62
    5
 10
1312.4400850107552
 20
214.57871996664139
 40
17.18071333161534
 50
317.56162899999958
 51
42.438371000000814
  0
LINE
  8
_0-7_枠細線
  6
CONTINUOUS
 62
    5
 10
1320.6517783432671
 20
238.83887663088217
 11
1510.4127516576261
 21
238.83887663088217
  0
LINE
  8
_0-7_枠細線
  6
CONTINUOUS
 62
    5
 10
1329.5872483423732
 20
213.50554330008251
 11
1519.3482216567315
 21
213.50554330008251
  0
ARC
  8
_0-7_枠細線
  6
CONTINUOUS
 62
    5
 10
1337.7989416748874
 20
237.76569996432315
 40
17.18071333161534
 50
137.56162900000015
 51
222.43837100000314
  0
ARC
  8
_0-7_枠細線
  6
CONTINUOUS
 62
    5
 10
1527.5599149892435
 20
237.76569996432315
 40
17.180713331615152
 50
137.5616289999997
 51
222.43837100000272
  0
TEXT
  8
_0-7_枠細線
 62
    5
 10
1372.0000000000009
 20
264.99999999999932
 40
30.000000000000004
 41
0.7999999999999998
 50
0
  1
品番－Ｆ
  0
TEXT
  8
_0-7_枠細線
 62
    5
 10
1212
 20
314.99999999999898
 40
30.000000000000004
 41
0.8
 50
0
  1
タ イ プ
  0
LINE
  8
_0-7_枠細線
  6
CONTINUOUS
 62
    5
 10
1209.9999999999986
 20
254.99999999999929
 11
1750
 21
254.99999999999929
  0
LINE
  8
_0-7_枠細線
  6
CONTINUOUS
 62
    5
 10
1209.9999999999986
 20
304.99999999999898
 11
1750
 21
304.99999999999898
  0
LINE
  8
_0-7_枠細線
  6
CONTINUOUS
 62
    5
 10
1209.9999999999986
 20
354.99999999999915
 11
1750
 21
354.99999999999915
  0
LINE
  8
_0-7_枠細線
  6
CONTINUOUS
 62
    5
 10
1209.9999999999986
 20
145
 11
1750
 21
145
  0
LINE
  8
_0-7_枠細線
  6
CONTINUOUS
 62
    5
 10
1310
 20
354.99999999999915
 11
1310
 21
145
  0
LINE
  8
_0-7_枠細線
  6
CONTINUOUS
 62
    5
 10
1209.9999999999986
 20
354.99999999999915
 11
1209.9999999999986
 21
145
  0
TEXT
  8
_0-7_枠細線
 62
    5
 10
1212
 20
184.99999999999957
 40
30.000000000000004
 41
0.8
 50
0
  1
表面形状
  0
TEXT
  8
_0-7_枠細線
 62
    5
 10
1225.5484226816211
 20
359.99999999999932
 40
35
 41
0.7999999999999998
 50
0
  1
記号表
  0
TEXT
  8
_0-7_枠細線
 62
    5
 10
1212
 20
264.99999999999943
 40
30.000000000000004
 41
0.8
 50
0
  1
記　　号
  0
ARC
  8
_0-1_計細線
  6
CONTINUOUS
 62
    3
 10
1313.226191419378
 20
1507.9998076593934
 40
32.499868667505325
 50
269.99999999999977
 51
89.999999999999545
  0
LINE
  8
_0-1_計細線
  6
CONTINUOUS
 62
    3
 10
1326.1487725323534
 20
1506.2183815248316
 11
1313.148825065351
 21
1506.2183815248316
  0
CIRCLE
  8
_0-1_計細線
  6
CONTINUOUS
 62
    3
 10
1318.8576353292874
 20
1502.2941573826849
 40
1.9999919180004326
  0
CIRCLE
  8
_0-1_計細線
  6
CONTINUOUS
 62
    3
 10
1325.3338291588843
 20
1500.9605027720047
 40
1.9999919180004326
  0
CIRCLE
  8
_0-1_計細線
  6
CONTINUOUS
 62
    3
 10
1320.1912832733287
 20
1495.8179568864491
 40
1.9999919180004326
  0
LINE
  8
_0-1_計細線
  6
CONTINUOUS
 62
    3
 10
1326.1487725323534
 20
1506.2183815248316
 11
1326.1487725323534
 21
1507.9683744530814
  0
CIRCLE
  8
_0-1_計細線
  6
CONTINUOUS
 62
    3
 10
1307.440014801412
 20
1502.2941573826849
 40
1.9999919180004326
  0
CIRCLE
  8
_0-1_計細線
  6
CONTINUOUS
 62
    3
 10
1300.963820971815
 20
1500.9605027720047
 40
1.9999919180004326
  0
CIRCLE
  8
_0-1_計細線
  6
CONTINUOUS
 62
    3
 10
1306.1063668573706
 20
1495.8179568864491
 40
1.9999919180004326
  0
CIRCLE
  8
_0-1_計細線
  6
CONTINUOUS
 62
    3
 10
1313.1312184698309
 20
1499.9367802422166
 40
1.9999919180004326
  0
CIRCLE
  8
_0-1_計細線
  6
CONTINUOUS
 62
    3
 10
1313.1312184698309
 20
1493.9356578261834
 40
1.9999919180004326
  0
LINE
  8
_0-1_計細線
  6
CONTINUOUS
 62
    3
 10
1300.1488775983489
 20
1506.2183815248316
 11
1300.1488775983489
 21
1507.9683744530814
  0
LINE
  8
_0-1_計細線
  6
CONTINUOUS
 62
    3
 10
1300.1488775983489
 20
1506.2183815248316
 11
1313.148825065351
 21
1506.2183815248316
  0
LINE
  8
_0-1_計細線
  6
CONTINUOUS
 62
    3
 10
1326.1487725323534
 20
1509.7183673813313
 11
1313.148825065351
 21
1509.7183673813313
  0
CIRCLE
  8
_0-1_計細線
  6
CONTINUOUS
 62
    3
 10
1318.8576353292874
 20
1513.6425915234793
 40
1.9999919180004326
  0
CIRCLE
  8
_0-1_計細線
  6
CONTINUOUS
 62
    3
 10
1325.3338291588843
 20
1514.9762394675192
 40
1.9999919180004326
  0
CIRCLE
  8
_0-1_計細線
  6
CONTINUOUS
 62
    3
 10
1320.1912832733287
 20
1520.1187853530748
 40
1.9999919180004326
  0
LINE
  8
_0-1_計細線
  6
CONTINUOUS
 62
    3
 10
1326.1487725323534
 20
1509.7183673813313
 11
1326.1487725323534
 21
1507.9683744530814
  0
CIRCLE
  8
_0-1_計細線
  6
CONTINUOUS
 62
    3
 10
1307.440014801412
 20
1513.6425915234793
 40
1.9999919180004326
  0
CIRCLE
  8
_0-1_計細線
  6
CONTINUOUS
 62
    3
 10
1300.963820971815
 20
1514.9762394675192
 40
1.9999919180004326
  0
CIRCLE
  8
_0-1_計細線
  6
CONTINUOUS
 62
    3
 10
1306.1063668573706
 20
1520.1187853530748
 40
1.9999919180004326
  0
CIRCLE
  8
_0-1_計細線
  6
CONTINUOUS
 62
    3
 10
1313.1312184698309
 20
1515.9999619973075
 40
1.9999919180004326
  0
CIRCLE
  8
_0-1_計細線
  6
CONTINUOUS
 62
    3
 10
1313.1312184698309
 20
1522.0010910799808
 40
1.9999919180004326
  0
LINE
  8
_0-1_計細線
  6
CONTINUOUS
 62
    3
 10
1300.1488775983489
 20
1509.7183673813313
 11
1300.1488775983489
 21
1507.9683744530814
  0
LINE
  8
_0-1_計細線
  6
CONTINUOUS
 62
    3
 10
1300.1488775983489
 20
1509.7183673813313
 11
1313.148825065351
 21
1509.7183673813313
  0
CIRCLE
  8
_0-1_計細線
  6
CONTINUOUS
 62
    3
 10
1313.0714587113218
 20
1507.9998076593934
 40
16.499933323502546
  0
CIRCLE
  8
_0-1_計細線
  6
CONTINUOUS
 62
    3
 10
1313.0714587113218
 20
1507.9998076593934
 40
19.999919180003303
  0
CIRCLE
  8
_0-1_計細線
  6
CONTINUOUS
 62
    3
 10
1313.0714587113218
 20
1507.9998076593934
 40
21.999911098003736
  0
CIRCLE
  8
_0-1_計細線
  6
CONTINUOUS
 62
    3
 10
1313.0714587113218
 20
1507.9998076593934
 40
32.249869677755441
  0
ARC
  8
_0-1_計細線
  6
CONTINUOUS
 62
    3
 10
1313.0714587113218
 20
1507.9998076593934
 40
32.499868667505325
 50
89.999999999999915
 51
269.99999999999977
  0
LINE
  8
_0-1_計細線
  6
CONTINUOUS
 62
    3
 10
327.64882506535116
 20
1458.7183744530842
 11
327.64882506535116
 21
1448.7183744530842
  0
LINE
  8
_0-1_計細線
  6
CONTINUOUS
 62
    3
 10
327.64882506535116
 20
1474.2183744530837
 11
327.64882506535116
 21
1464.2183744530837
  0
LINE
  8
_0-1_計細線
  6
CONTINUOUS
 62
    3
 10
327.64882506535116
 20
1489.7183744530832
 11
327.64882506535116
 21
1479.7183744530832
  0
LINE
  8
_0-1_計細線
  6
CONTINUOUS
 62
    3
 10
327.64882506535116
 20
1520.7183744530823
 11
327.64882506535116
 21
1510.7183744530823
  0
LINE
  8
_0-1_計細線
  6
CONTINUOUS
 62
    3
 10
327.64882506535116
 20
1536.2183744530819
 11
327.64882506535116
 21
1526.2183744530819
  0
LINE
  8
_0-1_計細線
  6
CONTINUOUS
 62
    3
 10
327.64882506535116
 20
1551.7183744530821
 11
327.64882506535116
 21
1541.7183744530821
  0
LINE
  8
_0-1_計細線
  6
CONTINUOUS
 62
    3
 10
327.64882506535116
 20
1567.2183744530817
 11
327.64882506535116
 21
1557.2183744530817
  0
LINE
  8
_0-0_計極細
  6
CENTER1
 62
    2
 10
306.97736580752547
 20
1507.9683744530814
 11
2320.0060864341585
 21
1507.9683744530814
  0
LINE
  8
_0-1_計細線
  6
CONTINUOUS
 62
    3
 10
326.1488250653511
 20
1568.9683744530817
 11
326.1488250653511
 21
1446.9683744530814
  0
LINE
  8
_0-1_計細線
  6
CONTINUOUS
 62
    3
 10
326.1488250653511
 20
1446.9683744530814
 11
2300.148825065351
 21
1446.9683744530814
  0
LINE
  8
_0-1_計細線
  6
CONTINUOUS
 62
    3
 10
2300.148825065351
 20
1446.9683744530814
 11
2300.148825065351
 21
1568.9683744530817
  0
LINE
  8
_0-1_計細線
  6
CONTINUOUS
 62
    3
 10
2300.148825065351
 20
1568.9683744530817
 11
326.1488250653511
 21
1568.9683744530817
  0
LINE
  8
_0-1_計細線
  6
CONTINUOUS
 62
    3
 10
2311.148825065351
 20
1435.9683744530817
 11
2311.148825065351
 21
1579.9683744530817
  0
LINE
  8
_0-1_計細線
  6
CONTINUOUS
 62
    3
 10
2311.148825065351
 20
1579.9683744530817
 11
315.14882506535105
 21
1579.9683744530817
  0
LINE
  8
_0-1_計細線
  6
CONTINUOUS
 62
    3
 10
315.14882506535105
 20
1579.9683744530817
 11
315.14882506535105
 21
1435.9683744530817
  0
LINE
  8
_0-1_計細線
  6
CONTINUOUS
 62
    3
 10
315.14882506535105
 20
1435.9683744530817
 11
2311.148825065351
 21
1435.9683744530817
  0
LINE
  8
_0-5_寸法線
  6
CONTINUOUS
 62
    7
 10
327.64882506535116
 20
1599.9683744530817
 11
327.64882506535116
 21
1689.9683744530817
  0
LINE
  8
_0-5_寸法線
  6
CONTINUOUS
 62
    7
 10
327.64882506535116
 20
1679.9683744530817
 11
346.96734159113248
 21
1685.1447553551318
  0
LINE
  8
_0-5_寸法線
  6
CONTINUOUS
 62
    7
 10
327.64882506535116
 20
1679.9683744530817
 11
346.96734159113248
 21
1674.7919935510311
  0
LINE
  8
_0-5_寸法線
  6
CONTINUOUS
 62
    7
 10
2298.648825065352
 20
1599.9683744530817
 11
2298.648825065352
 21
1689.9683744530817
  0
LINE
  8
_0-5_寸法線
  6
CONTINUOUS
 62
    7
 10
2298.648825065352
 20
1679.9683744530817
 11
2279.3303085395705
 21
1674.7919935510311
  0
LINE
  8
_0-5_寸法線
  6
CONTINUOUS
 62
    7
 10
2298.648825065352
 20
1679.9683744530817
 11
2279.3303085395705
 21
1685.1447553551318
  0
LINE
  8
_0-5_寸法線
  6
CONTINUOUS
 62
    7
 10
327.64882506535116
 20
1679.9683744530817
 11
2298.648825065352
 21
1679.9683744530817
  0
TEXT
  8
_0-5_寸法線
 62
    7
 10
1283.148825065351
 20
1679.9683744530817
 40
30
 41
1
 50
0
  1
1971
  0
LINE
  8
_0-5_寸法線
  6
CONTINUOUS
 62
    7
 10
1315.6771995999434
 20
1506.2183815248316
 11
1325.6771995999432
 21
1488.8978734491429
  0
LINE
  8
_0-5_寸法線
  6
CONTINUOUS
 62
    7
 10
1315.6771995999434
 20
1506.2183815248316
 11
1315.6771995999432
 21
1486.2183815248316
  0
LINE
  8
_0-5_寸法線
  6
CONTINUOUS
 62
    7
 10
1315.6771995999434
 20
1506.2183815248316
 11
1347.8980918846546
 21
1385.9683744530817
  0
LINE
  8
_0-5_寸法線
  6
CONTINUOUS
 62
    7
 10
1347.8980918846546
 20
1385.9683744530817
 11
1491.8980918846544
 21
1385.9683744530817
  0
TEXT
  8
_0-5_寸法線
 62
    7
 10
1347.8980918846546
 20
1385.9683744530817
 40
30
 41
0.7999999999999998
 50
0
  1
ストレーナー
  0
LINE
  8
_0-5_寸法線
  6
CONTINUOUS
 62
    7
 10
1305.7637418634804
 20
1487.2490639909881
 11
1305.7637418634804
 21
1467.2490639909881
  0
LINE
  8
_0-5_寸法線
  6
CONTINUOUS
 62
    7
 10
1305.7637418634804
 20
1487.2490639909881
 11
1295.7637418634804
 21
1469.9285559152995
  0
LINE
  8
_0-5_寸法線
  6
CONTINUOUS
 62
    7
 10
1305.7637418634804
 20
1487.2490639909881
 11
1278.6256628929304
 21
1385.9683744530817
  0
LINE
  8
_0-5_寸法線
  6
CONTINUOUS
 62
    7
 10
1278.6256628929304
 20
1385.9683744530817
 11
1206.6256628929302
 21
1385.9683744530817
  0
TEXT
  8
_0-5_寸法線
 62
    7
 10
1206.6256628929304
 20
1385.9683744530817
 40
30
 41
0.7999999999999998
 50
0
  1
排水口
  0
LINE
  8
_0-5_寸法線
  6
CONTINUOUS
 62
    7
 10
2331.148825065351
 20
1435.9683744530817
 11
2491.148825065351
 21
1435.968374453081
  0
LINE
  8
_0-5_寸法線
  6
CONTINUOUS
 62
    7
 10
2481.148825065351
 20
1435.968374453081
 11
2475.9724441633007
 21
1455.2868909788626
  0
LINE
  8
_0-5_寸法線
  6
CONTINUOUS
 62
    7
 10
2481.148825065351
 20
1435.968374453081
 11
2486.3252059674014
 21
1455.2868909788626
  0
LINE
  8
_0-5_寸法線
  6
CONTINUOUS
 62
    7
 10
2331.148825065351
 20
1579.9683744530817
 11
2491.148825065351
 21
1579.968374453081
  0
LINE
  8
_0-5_寸法線
  6
CONTINUOUS
 62
    7
 10
2481.148825065351
 20
1579.968374453081
 11
2486.3252059674014
 21
1560.6498579272998
  0
LINE
  8
_0-5_寸法線
  6
CONTINUOUS
 62
    7
 10
2481.148825065351
 20
1579.968374453081
 11
2475.9724441633007
 21
1560.6498579272998
  0
LINE
  8
_0-5_寸法線
  6
CONTINUOUS
 62
    7
 10
2481.148825065351
 20
1435.968374453081
 11
2481.148825065351
 21
1579.968374453081
  0
TEXT
  8
_0-5_寸法線
 62
    7
 10
2481.148825065351
 20
1485.4683744530812
 40
30
 41
1
 50
90
  1
144
  0
LINE
  8
_0-5_寸法線
  6
CONTINUOUS
 62
    7
 10
2331.148825065351
 20
1435.9683744530817
 11
2421.148825065351
 21
1435.968374453081
  0
LINE
  8
_0-5_寸法線
  6
CONTINUOUS
 62
    7
 10
2411.148825065351
 20
1435.968374453081
 11
2405.9724441633007
 21
1455.2868909788626
  0
LINE
  8
_0-5_寸法線
  6
CONTINUOUS
 62
    7
 10
2411.148825065351
 20
1435.968374453081
 11
2416.3252059674014
 21
1455.2868909788626
  0
LINE
  8
_0-5_寸法線
  6
CONTINUOUS
 62
    7
 10
2331.148825065351
 20
1507.9683744530817
 11
2421.148825065351
 21
1507.9683744530814
  0
LINE
  8
_0-5_寸法線
  6
CONTINUOUS
 62
    7
 10
2411.148825065351
 20
1507.9683744530814
 11
2416.3252059674014
 21
1488.6498579273002
  0
LINE
  8
_0-5_寸法線
  6
CONTINUOUS
 62
    7
 10
2411.148825065351
 20
1507.9683744530814
 11
2405.9724441633007
 21
1488.6498579273002
  0
LINE
  8
_0-5_寸法線
  6
CONTINUOUS
 62
    7
 10
2411.148825065351
 20
1435.968374453081
 11
2411.148825065351
 21
1507.9683744530814
  0
TEXT
  8
_0-5_寸法線
 62
    7
 10
2411.148825065351
 20
1456.9683744530812
 40
30
 41
1
 50
90
  1
72
  0
LINE
  8
_0-5_寸法線
  6
CONTINUOUS
 62
    7
 10
2411.148825065351
 20
1507.9683744530814
 11
2405.9724441633007
 21
1527.2868909788631
  0
LINE
  8
_0-5_寸法線
  6
CONTINUOUS
 62
    7
 10
2411.148825065351
 20
1507.9683744530814
 11
2416.3252059674014
 21
1527.2868909788631
  0
LINE
  8
_0-5_寸法線
  6
CONTINUOUS
 62
    7
 10
2331.148825065351
 20
1579.9683744530817
 11
2421.148825065351
 21
1579.968374453081
  0
LINE
  8
_0-5_寸法線
  6
CONTINUOUS
 62
    7
 10
2411.148825065351
 20
1579.968374453081
 11
2416.3252059674014
 21
1560.6498579272998
  0
LINE
  8
_0-5_寸法線
  6
CONTINUOUS
 62
    7
 10
2411.148825065351
 20
1579.968374453081
 11
2405.9724441633007
 21
1560.6498579272998
  0
LINE
  8
_0-5_寸法線
  6
CONTINUOUS
 62
    7
 10
2411.148825065351
 20
1507.9683744530814
 11
2411.148825065351
 21
1579.968374453081
  0
TEXT
  8
_0-5_寸法線
 62
    7
 10
2411.148825065351
 20
1528.9683744530814
 40
30
 41
1
 50
90
  1
72
  0
ARC
  8
_0-1_計細線
  6
CONTINUOUS
 62
    3
 10
2612.7959887710249
 20
1541.968374529622
 40
0.8000000000000001
 50
179.99999999999983
 51
269.99999999999977
  0
LINE
  8
_0-1_計細線
  6
CONTINUOUS
 62
    3
 10
2612.7959887710249
 20
1541.1683745296218
 11
2616.1959887710245
 21
1541.1683745296218
  0
ARC
  8
_0-1_計細線
  6
CONTINUOUS
 62
    3
 10
2616.1959887710245
 20
1539.6683745296218
 40
1.5000000000000002
 50
0
 51
89.999999999999915
  0
LINE
  8
_0-1_計細線
  6
CONTINUOUS
 62
    3
 10
2617.6959887710245
 20
1539.6683745296218
 11
2617.6959887710245
 21
1507.9683744530817
  0
LINE
  8
_0-0_計極細
  6
CONTINUOUS
 62
    2
 10
2612.7959887710249
 20
1507.9683744530814
 11
2612.7959887710249
 21
1541.1683745296218
  0
ARC
  8
_0-1_計細線
  6
CONTINUOUS
 62
    3
 10
2612.7959887710249
 20
1473.9683743765411
 40
0.8000000000000001
 50
89.999999999999915
 51
179.99999999999983
  0
LINE
  8
_0-1_計細線
  6
CONTINUOUS
 62
    3
 10
2612.7959887710249
 20
1474.768374376541
 11
2616.1959887710245
 21
1474.768374376541
  0
ARC
  8
_0-1_計細線
  6
CONTINUOUS
 62
    3
 10
2616.1959887710245
 20
1476.268374376541
 40
1.5000000000000002
 50
269.99999999999977
 51
359.99999999999966
  0
LINE
  8
_0-1_計細線
  6
CONTINUOUS
 62
    3
 10
2617.6959887710245
 20
1476.268374376541
 11
2617.6959887710245
 21
1507.9683744530812
  0
LINE
  8
_0-0_計極細
  6
CONTINUOUS
 62
    2
 10
2612.7959887710249
 20
1507.9683744530814
 11
2612.7959887710249
 21
1474.768374376541
  0
LINE
  8
_0-1_計細線
  6
CONTINUOUS
 62
    3
 10
2617.6959887710245
 20
1539.7183744213316
 11
2619.4959887709965
 21
1539.7183744213316
  0
LINE
  8
_0-1_計細線
  6
CONTINUOUS
 62
    3
 10
2599.9959564430264
 20
1570.668601961373
 11
2599.9959564430264
 21
1445.2685267987752
  0
LINE
  8
_0-1_計細線
  6
CONTINUOUS
 62
    3
 10
2599.9959564430264
 20
1445.2685267987752
 11
2611.9959079510268
 21
1445.2685267987752
  0
LINE
  8
_0-1_計細線
  6
CONTINUOUS
 62
    3
 10
2611.9959079510268
 20
1445.2685267987752
 11
2611.9959079510268
 21
1570.668601961373
  0
LINE
  8
_0-1_計細線
  6
CONTINUOUS
 62
    3
 10
2611.9959079510268
 20
1570.668601961373
 11
2599.9959564430264
 21
1570.668601961373
  0
LINE
  8
_0-1_計細線
  6
CONTINUOUS
 62
    3
 10
2591.9959887710247
 20
1435.9685643800749
 11
2591.9959887710247
 21
1507.9683744530814
  0
LINE
  8
_0-1_計細線
  6
CONTINUOUS
 62
    3
 10
2591.9959887710247
 20
1579.9685643800749
 11
2591.9959887710247
 21
1507.9683744530814
  0
LINE
  8
_0-1_計細線
  6
CONTINUOUS
 62
    3
 10
2591.9959887710247
 20
1579.9685643800749
 11
2599.9959564430264
 21
1579.9685643800749
  0
LINE
  8
_0-1_計細線
  6
CONTINUOUS
 62
    3
 10
2599.9959564430264
 20
1579.9685643800749
 11
2599.9959564430264
 21
1507.9683744530814
  0
LINE
  8
_0-1_計細線
  6
CONTINUOUS
 62
    3
 10
2599.9959564430264
 20
1435.9685643800749
 11
2599.9959564430264
 21
1507.9683744530814
  0
LINE
  8
_0-1_計細線
  6
CONTINUOUS
 62
    3
 10
2591.9959887710247
 20
1435.9685643800749
 11
2599.9959564430264
 21
1435.9685643800749
  0
LINE
  8
_0-1_計細線
  6
CONTINUOUS
 62
    3
 10
2599.9959079510263
 20
1571.8686019613729
 11
2599.9959079510263
 21
1570.668601961373
  0
LINE
  8
_0-1_計細線
  6
CONTINUOUS
 62
    3
 10
2599.9959079510263
 20
1570.668601961373
 11
2634.9959079510254
 21
1570.668601961373
  0
LINE
  8
_0-1_計細線
  6
CONTINUOUS
 62
    3
 10
2634.9959079510254
 20
1570.668601961373
 11
2634.9959079510254
 21
1571.8686019613729
  0
LINE
  8
_0-1_計細線
  6
CONTINUOUS
 62
    3
 10
2634.9959079510254
 20
1571.8686019613729
 11
2599.9959079510263
 21
1571.8686019613729
  0
LINE
  8
_0-0_計極細
  6
CONTINUOUS
 62
    2
 10
2601.9959079510268
 20
1570.668601961373
 11
2601.9959079510268
 21
1571.8686019613729
  0
LINE
  8
_0-0_計極細
  6
CONTINUOUS
 62
    2
 10
2613.9959079510263
 20
1570.668601961373
 11
2613.9959079510263
 21
1571.8686019613729
  0
LINE
  8
_0-0_計極細
  6
CONTINUOUS
 62
    2
 10
2615.9959079510254
 20
1570.668601961373
 11
2615.9959079510254
 21
1571.8686019613729
  0
LINE
  8
_0-0_計極細
  6
CONTINUOUS
 62
    2
 10
2617.9959079510259
 20
1570.668601961373
 11
2617.9959079510259
 21
1571.8686019613729
  0
LINE
  8
_0-0_計極細
  6
CONTINUOUS
 62
    2
 10
2631.9959079510254
 20
1570.668601961373
 11
2631.9959079510254
 21
1571.8686019613729
  0
LINE
  8
_0-0_計極細
  6
CONTINUOUS
 62
    2
 10
2611.9959079510268
 20
1570.668601961373
 11
2611.9959079510268
 21
1571.8686019613729
  0
LINE
  8
_0-1_計細線
  6
CONTINUOUS
 62
    3
 10
2599.9959079510263
 20
1445.2685267987752
 11
2599.9959079510263
 21
1444.0685267987756
  0
LINE
  8
_0-1_計細線
  6
CONTINUOUS
 62
    3
 10
2599.9959079510263
 20
1444.0685267987756
 11
2634.9959079510254
 21
1444.0685267987756
  0
LINE
  8
_0-1_計細線
  6
CONTINUOUS
 62
    3
 10
2634.9959079510254
 20
1444.0685267987756
 11
2634.9959079510254
 21
1445.2685267987752
  0
LINE
  8
_0-1_計細線
  6
CONTINUOUS
 62
    3
 10
2634.9959079510254
 20
1445.2685267987752
 11
2599.9959079510263
 21
1445.2685267987752
  0
LINE
  8
_0-0_計極細
  6
CONTINUOUS
 62
    2
 10
2601.9959079510268
 20
1444.0685267987756
 11
2601.9959079510268
 21
1445.2685267987752
  0
LINE
  8
_0-0_計極細
  6
CONTINUOUS
 62
    2
 10
2613.9959079510263
 20
1444.0685267987756
 11
2613.9959079510263
 21
1445.2685267987752
  0
LINE
  8
_0-0_計極細
  6
CONTINUOUS
 62
    2
 10
2615.9959079510254
 20
1444.0685267987756
 11
2615.9959079510254
 21
1445.2685267987752
  0
LINE
  8
_0-0_計極細
  6
CONTINUOUS
 62
    2
 10
2617.9959079510259
 20
1444.0685267987756
 11
2617.9959079510259
 21
1445.2685267987752
  0
LINE
  8
_0-0_計極細
  6
CONTINUOUS
 62
    2
 10
2631.9959079510254
 20
1444.0685267987756
 11
2631.9959079510254
 21
1445.2685267987752
  0
LINE
  8
_0-0_計極細
  6
CONTINUOUS
 62
    2
 10
2611.9959079510268
 20
1444.0685267987756
 11
2611.9959079510268
 21
1445.2685267987752
  0
ARC
  8
_0-1_計細線
  6
CONTINUOUS
 62
    3
 10
2619.4959887709965
 20
1536.7183744243314
 40
2.9999999969999998
 50
0
 51
89.999999999999915
  0
LINE
  8
_0-0_計極細
  6
CONTINUOUS
 62
    2
 10
2622.4959887709674
 20
1530.9683744300812
 11
2632.4959887708674
 21
1530.9683744300812
  0
LINE
  8
_0-1_計細線
  6
CONTINUOUS
 62
    3
 10
2622.4959887709674
 20
1533.9683744270815
 11
2632.4959887708674
 21
1533.9683744270815
  0
LINE
  8
_0-0_計極細
  6
CONTINUOUS
 62
    2
 10
2655.9990514377005
 20
1507.9683744530814
 11
2655.9990514377005
 21
1531.3183744297312
  0
LINE
  8
_0-1_計細線
  6
CONTINUOUS
 62
    3
 10
2656.9959887710247
 20
1507.9683744530814
 11
2656.9959887710247
 21
1530.318374430731
  0
LINE
  8
_0-0_計極細
  6
CONTINUOUS
 62
    2
 10
2632.4959887708674
 20
1530.318374430731
 11
2656.9959887710247
 21
1530.318374430731
  0
LINE
  8
_0-1_計細線
  6
CONTINUOUS
 62
    3
 10
2632.4959887708674
 20
1531.3183744297312
 11
2655.9990514377005
 21
1531.3183744297312
  0
LINE
  8
_0-1_計細線
  6
CONTINUOUS
 62
    3
 10
2632.4959887708674
 20
1507.9683744530814
 11
2632.4959887708674
 21
1533.9683744270815
  0
LINE
  8
_0-1_計細線
  6
CONTINUOUS
 62
    3
 10
2622.4959887709674
 20
1507.9683744530814
 11
2622.4959887709674
 21
1536.7183744243314
  0
LINE
  8
_0-1_計細線
  6
CONTINUOUS
 62
    3
 10
2617.6959887710245
 20
1476.2183744848314
 11
2619.4959887709965
 21
1476.2183744848314
  0
ARC
  8
_0-1_計細線
  6
CONTINUOUS
 62
    3
 10
2619.4959887709965
 20
1479.2183744818315
 40
2.9999999969999998
 50
269.99999999999977
 51
359.99999999999966
  0
LINE
  8
_0-0_計極細
  6
CONTINUOUS
 62
    2
 10
2622.4959887709674
 20
1484.9683744760816
 11
2632.4959887708674
 21
1484.9683744760816
  0
LINE
  8
_0-1_計細線
  6
CONTINUOUS
 62
    3
 10
2622.4959887709674
 20
1481.9683744790814
 11
2632.4959887708674
 21
1481.9683744790814
  0
LINE
  8
_0-0_計極細
  6
CONTINUOUS
 62
    2
 10
2655.9990514377005
 20
1507.9683744530814
 11
2655.9990514377005
 21
1484.6183744764321
  0
LINE
  8
_0-1_計細線
  6
CONTINUOUS
 62
    3
 10
2656.9959887710247
 20
1507.9683744530814
 11
2656.9959887710247
 21
1485.6183744754319
  0
LINE
  8
_0-0_計極細
  6
CONTINUOUS
 62
    2
 10
2632.4959887708674
 20
1485.6183744754319
 11
2656.9959887710247
 21
1485.6183744754319
  0
LINE
  8
_0-1_計細線
  6
CONTINUOUS
 62
    3
 10
2632.4959887708674
 20
1484.6183744764321
 11
2655.9990514377005
 21
1484.6183744764321
  0
LINE
  8
_0-1_計細線
  6
CONTINUOUS
 62
    3
 10
2632.4959887708674
 20
1507.9683744530814
 11
2632.4959887708674
 21
1481.9683744790814
  0
LINE
  8
_0-1_計細線
  6
CONTINUOUS
 62
    3
 10
2622.4959887709674
 20
1507.9683744530814
 11
2622.4959887709674
 21
1479.2183744818315
  0
LINE
  8
_0-0_計極細
  6
CONTINUOUS
 62
    2
 10
2622.4959887709674
 20
1510.9683744500812
 11
2632.4959887708674
 21
1510.9683744500812
  0
LINE
  8
_0-0_計極細
  6
CONTINUOUS
 62
    2
 10
2622.4959887709674
 20
1504.9683744560812
 11
2632.4959887708674
 21
1504.9683744560812
  0
LINE
  8
_0-1_計細線
  6
CONTINUOUS
 62
    3
 10
2655.9990514377005
 20
1531.3183744297312
 11
2656.9959887710247
 21
1530.318374430731
  0
LINE
  8
_0-1_計細線
  6
CONTINUOUS
 62
    3
 10
2655.9990514377005
 20
1484.6183744764321
 11
2656.9959887710247
 21
1485.6183744754319
  0
LINE
  8
_0-0_計極細
  6
CENTER1
 62
    2
 10
2565.3490922667283
 20
1507.9683744530814
 11
2677.1692361516198
 21
1507.9683744530814
  0
LINE
  8
_0-5_寸法線
  6
CONTINUOUS
 62
    7
 10
2591.9959887710247
 20
1599.9681845260884
 11
2591.9959887710229
 21
1759.9683744530817
  0
LINE
  8
_0-5_寸法線
  6
CONTINUOUS
 62
    7
 10
2591.9959887710229
 20
1749.9683744530817
 11
2611.3145052968043
 21
1755.1447553551318
  0
LINE
  8
_0-5_寸法線
  6
CONTINUOUS
 62
    7
 10
2591.9959887710229
 20
1749.9683744530817
 11
2611.3145052968043
 21
1744.7919935510311
  0
LINE
  8
_0-5_寸法線
  6
CONTINUOUS
 62
    7
 10
2634.9959079510254
 20
1591.8682221073877
 11
2634.995907951024
 21
1759.9683744530817
  0
LINE
  8
_0-5_寸法線
  6
CONTINUOUS
 62
    7
 10
2634.995907951024
 20
1749.9683744530817
 11
2615.6773914252421
 21
1744.7919935510311
  0
LINE
  8
_0-5_寸法線
  6
CONTINUOUS
 62
    7
 10
2634.995907951024
 20
1749.9683744530817
 11
2615.6773914252421
 21
1755.1447553551318
  0
LINE
  8
_0-5_寸法線
  6
CONTINUOUS
 62
    7
 10
2591.9959887710229
 20
1749.9683744530817
 11
2634.995907951024
 21
1749.9683744530817
  0
TEXT
  8
_0-5_寸法線
 62
    7
 10
2598.4959483610237
 20
1749.9683744530817
 40
30
 41
1
 50
0
  1
43
  0
LINE
  8
_0-5_寸法線
  6
CONTINUOUS
 62
    7
 10
2591.9959887710247
 20
1599.9681845260884
 11
2591.9959887710247
 21
1689.9683744530817
  0
LINE
  8
_0-5_寸法線
  6
CONTINUOUS
 62
    7
 10
2591.9959887710247
 20
1679.9683744530817
 11
2572.6774722452433
 21
1674.7919935510311
  0
LINE
  8
_0-5_寸法線
  6
CONTINUOUS
 62
    7
 10
2591.9959887710247
 20
1679.9683744530817
 11
2572.6774722452433
 21
1685.1447553551318
  0
LINE
  8
_0-5_寸法線
  6
CONTINUOUS
 62
    7
 10
2611.9959079510268
 20
1591.8682221073877
 11
2611.9959079510268
 21
1689.9683744530817
  0
CIRCLE
  8
_0-5_寸法線
  6
CONTINUOUS
 62
    1
 10
2611.9959079510268
 20
1679.9683744530817
 40
3.0000000000000004
  0
LINE
  8
_0-5_寸法線
  6
CONTINUOUS
 62
    7
 10
2549.9100211452346
 20
1679.9683744530817
 11
2611.9959079510268
 21
1679.9683744530817
  0
TEXT
  8
_0-5_寸法線
 62
    7
 10
2549.9100211452351
 20
1679.9683744530817
 40
30
 41
1
 50
0
  1
20
  0
LINE
  8
_0-5_寸法線
  6
CONTINUOUS
 62
    7
 10
2634.9959079510254
 20
1591.8682221073877
 11
2634.9959079510254
 21
1689.9683744530817
  0
LINE
  8
_0-5_寸法線
  6
CONTINUOUS
 62
    7
 10
2634.9959079510254
 20
1679.9683744530817
 11
2654.3144244768068
 21
1685.1447553551318
  0
LINE
  8
_0-5_寸法線
  6
CONTINUOUS
 62
    7
 10
2634.9959079510254
 20
1679.9683744530817
 11
2654.3144244768068
 21
1674.7919935510311
  0
LINE
  8
_0-5_寸法線
  6
CONTINUOUS
 62
    7
 10
2611.9959079510268
 20
1679.9683744530817
 11
2682.3289441168072
 21
1679.9683744530817
  0
TEXT
  8
_0-5_寸法線
 62
    7
 10
2652.3289441168072
 20
1679.968374453081
 40
30
 41
1
 50
0
  1
23
  0
LINE
  8
_0-5_寸法線
  6
CONTINUOUS
 62
    7
 10
2591.9959887710247
 20
1415.9681845260884
 11
2591.9959887710247
 21
1325.9683744530817
  0
LINE
  8
_0-5_寸法線
  6
CONTINUOUS
 62
    7
 10
2591.9959887710247
 20
1335.9683744530817
 11
2611.3145052968066
 21
1341.1447553551318
  0
LINE
  8
_0-5_寸法線
  6
CONTINUOUS
 62
    7
 10
2591.9959887710247
 20
1335.9683744530817
 11
2611.3145052968066
 21
1330.7919935510311
  0
LINE
  8
_0-5_寸法線
  6
CONTINUOUS
 62
    7
 10
2656.9959887710247
 20
1465.6153131269675
 11
2656.9959887710247
 21
1325.9683744530817
  0
LINE
  8
_0-5_寸法線
  6
CONTINUOUS
 62
    7
 10
2656.9959887710247
 20
1335.9683744530817
 11
2637.6774722452433
 21
1330.7919935510311
  0
LINE
  8
_0-5_寸法線
  6
CONTINUOUS
 62
    7
 10
2656.9959887710247
 20
1335.9683744530817
 11
2637.6774722452433
 21
1341.1447553551318
  0
LINE
  8
_0-5_寸法線
  6
CONTINUOUS
 62
    7
 10
2591.9959887710247
 20
1335.9683744530817
 11
2656.9959887710247
 21
1335.9683744530817
  0
TEXT
  8
_0-5_寸法線
 62
    7
 10
2609.4959887710247
 20
1335.9683744530817
 40
30
 41
1
 50
0
  1
65
  0
LINE
  8
_0-0_計極細
  6
CONTINUOUS
 62
    2
 10
374.64882318530101
 20
1489.7183763131302
 11
374.64882318530101
 21
1495.2183760931246
  0
LINE
  8
_0-0_計極細
  6
CONTINUOUS
 62
    2
 10
374.64882318530101
 20
1510.7183754731088
 11
374.64882318530101
 21
1505.2183756931142
  0
LINE
  8
_0-0_計極細
  6
CONTINUOUS
 62
    2
 10
363.69882579063824
 20
1510.7183744530823
 11
363.69882579063824
 21
1509.1183755371194
  0
LINE
  8
_0-0_計極細
  6
CONTINUOUS
 62
    2
 10
363.69882579063824
 20
1508.1183755771192
 11
363.69882579063824
 21
1505.2183744530826
  0
LINE
  8
_0-0_計極細
  6
CONTINUOUS
 62
    2
 10
370.5988257907606
 20
1510.7183744530823
 11
370.5988257907606
 21
1509.1183755371194
  0
LINE
  8
_0-0_計極細
  6
CONTINUOUS
 62
    2
 10
370.5988257907606
 20
1508.1183755771192
 11
370.5988257907606
 21
1505.2183744530826
  0
LINE
  8
_0-0_計極細
  6
CONTINUOUS
 62
    2
 10
363.69882579063824
 20
1489.718374453083
 11
363.69882579063824
 21
1491.3183762491199
  0
LINE
  8
_0-0_計極細
  6
CONTINUOUS
 62
    2
 10
363.69882579063824
 20
1492.3183762091196
 11
363.69882579063824
 21
1495.2183744530826
  0
LINE
  8
_0-0_計極細
  6
CONTINUOUS
 62
    2
 10
370.5988257907606
 20
1489.718374453083
 11
370.5988257907606
 21
1491.3183762491199
  0
LINE
  8
_0-0_計極細
  6
CONTINUOUS
 62
    2
 10
370.5988257907606
 20
1492.3183762091196
 11
370.5988257907606
 21
1495.2183744530826
  0
LINE
  8
_0-0_計極細
  6
CONTINUOUS
 62
    2
 10
331.1488249453086
 20
1490.3183762891197
 11
340.14882458530974
 21
1490.3183762891197
  0
LINE
  8
_0-0_計極細
  6
CONTINUOUS
 62
    2
 10
331.1488249453086
 20
1490.3183762891197
 11
331.1488249453086
 21
1491.3183762491199
  0
LINE
  8
_0-0_計極細
  6
CONTINUOUS
 62
    2
 10
340.14882458530974
 20
1490.3183762891197
 11
340.14882458530974
 21
1491.3183762491199
  0
LINE
  8
_0-0_計極細
  6
CONTINUOUS
 62
    2
 10
331.1488249453086
 20
1510.1183754971198
 11
340.14882458530974
 21
1510.1183754971198
  0
LINE
  8
_0-0_計極細
  6
CONTINUOUS
 62
    2
 10
331.1488249453086
 20
1510.1183754971198
 11
331.1488249453086
 21
1509.1183755371194
  0
LINE
  8
_0-0_計極細
  6
CONTINUOUS
 62
    2
 10
340.14882458530974
 20
1510.1183754971198
 11
340.14882458530974
 21
1509.1183755371194
  0
LINE
  8
_0-1_計細線
  6
CONTINUOUS
 62
    3
 10
372.14882330530912
 20
1508.1183755771192
 11
372.14882330530912
 21
1509.1183755371194
  0
LINE
  8
_0-1_計細線
  6
CONTINUOUS
 62
    3
 10
359.34882381731001
 20
1508.1183755771192
 11
372.14882330530912
 21
1508.1183755771192
  0
LINE
  8
_0-1_計細線
  6
CONTINUOUS
 62
    3
 10
372.14882330530912
 20
1509.1183755371194
 11
330.14882498530909
 21
1509.1183755371194
  0
LINE
  8
_0-1_計細線
  6
CONTINUOUS
 62
    3
 10
330.14882498530909
 20
1491.3183762491199
 11
372.14882330530912
 21
1491.3183762491199
  0
LINE
  8
_0-1_計細線
  6
CONTINUOUS
 62
    3
 10
372.14882330530912
 20
1492.3183762091196
 11
359.34882381731001
 21
1492.3183762091196
  0
LINE
  8
_0-1_計細線
  6
CONTINUOUS
 62
    3
 10
372.14882330530912
 20
1491.3183762491199
 11
372.14882330530912
 21
1492.3183762091196
  0
LINE
  8
_0-1_計細線
  6
CONTINUOUS
 62
    3
 10
359.34882381731001
 20
1491.3183762491199
 11
359.34882381731001
 21
1509.1183755371194
  0
LINE
  8
_0-1_計細線
  6
CONTINUOUS
 62
    3
 10
330.14882498530909
 20
1509.1183755371194
 11
330.14882498530909
 21
1491.3183762491199
  0
CIRCLE
  8
_0-5_寸法線
  6
CONTINUOUS
 62
    7
 10
346.65488485094158
 20
1500.2183758931196
 40
32.624478443415455
  0
LINE
  8
_0-0_計極細
  6
CONTINUOUS
 62
    2
 10
334.64882478530939
 20
1510.7183754731088
 11
334.64882478530939
 21
1510.1183754971198
  0
LINE
  8
_0-0_計極細
  6
CONTINUOUS
 62
    2
 10
334.64882478530939
 20
1490.3183762891197
 11
334.64882478530939
 21
1489.7183763131302
  0
LINE
  8
_0-0_計極細
  6
CONTINUOUS
 62
    2
 10
374.64882318530101
 20
1526.2183748530927
 11
374.64882318530101
 21
1520.7183750730985
  0
LINE
  8
_0-0_計極細
  6
CONTINUOUS
 62
    2
 10
334.64882478530939
 20
1526.2183748530927
 11
334.64882478530939
 21
1520.7183750730985
  0
LINE
  8
_0-0_計極細
  6
CONTINUOUS
 62
    2
 10
370.59882347020857
 20
1526.2183744530819
 11
370.59882578138655
 21
1520.7183744530823
  0
LINE
  8
_0-0_計極細
  6
CONTINUOUS
 62
    2
 10
363.69882350041138
 20
1526.2183744530819
 11
363.69882578138686
 21
1520.7183744530823
  0
LINE
  8
_0-0_計極細
  6
CONTINUOUS
 62
    2
 10
374.64882318530101
 20
1541.7183748530929
 11
374.64882318530101
 21
1536.2183750730987
  0
LINE
  8
_0-0_計極細
  6
CONTINUOUS
 62
    2
 10
334.64882478530939
 20
1541.7183748530929
 11
334.64882478530939
 21
1536.2183750730987
  0
LINE
  8
_0-0_計極細
  6
CONTINUOUS
 62
    2
 10
370.59882347020857
 20
1541.7183744530821
 11
370.59882578138655
 21
1536.2183744530826
  0
LINE
  8
_0-0_計極細
  6
CONTINUOUS
 62
    2
 10
363.69882350041138
 20
1541.7183744530821
 11
363.69882578138686
 21
1536.2183744530826
  0
LINE
  8
_0-0_計極細
  6
CONTINUOUS
 62
    2
 10
374.64882318530101
 20
1557.2183748530924
 11
374.64882318530101
 21
1551.7183750730983
  0
LINE
  8
_0-0_計極細
  6
CONTINUOUS
 62
    2
 10
334.64882478530939
 20
1557.2183748530924
 11
334.64882478530939
 21
1551.7183750730983
  0
LINE
  8
_0-0_計極細
  6
CONTINUOUS
 62
    2
 10
370.59882347020857
 20
1557.2183744530817
 11
370.59882578138655
 21
1551.7183744530821
  0
LINE
  8
_0-0_計極細
  6
CONTINUOUS
 62
    2
 10
363.69882350041138
 20
1557.2183744530817
 11
363.69882578138686
 21
1551.7183744530821
  0
LINE
  8
_0-0_計極細
  6
CONTINUOUS
 62
    2
 10
374.64882318530101
 20
1479.718374853094
 11
374.64882318530101
 21
1474.2183750730999
  0
LINE
  8
_0-0_計極細
  6
CONTINUOUS
 62
    2
 10
334.64882478530939
 20
1479.718374853094
 11
334.64882478530939
 21
1474.2183750730999
  0
LINE
  8
_0-0_計極細
  6
CONTINUOUS
 62
    2
 10
370.59882347020857
 20
1479.7183744530832
 11
370.59882578138655
 21
1474.2183744530837
  0
LINE
  8
_0-0_計極細
  6
CONTINUOUS
 62
    2
 10
363.69882350041138
 20
1479.7183744530832
 11
363.69882578138686
 21
1474.2183744530837
  0
LINE
  8
_0-0_計極細
  6
CONTINUOUS
 62
    2
 10
374.64882318530101
 20
1464.2183748530945
 11
374.64882318530101
 21
1458.7183750731003
  0
LINE
  8
_0-0_計極細
  6
CONTINUOUS
 62
    2
 10
334.64882478530939
 20
1464.2183748530945
 11
334.64882478530939
 21
1458.7183750731003
  0
LINE
  8
_0-0_計極細
  6
CONTINUOUS
 62
    2
 10
370.59882347020857
 20
1464.2183744530837
 11
370.59882578138655
 21
1458.7183744530842
  0
LINE
  8
_0-0_計極細
  6
CONTINUOUS
 62
    2
 10
363.69882350041138
 20
1464.2183744530837
 11
363.69882578138686
 21
1458.7183744530842
  0
LINE
  8
_0-1_計細線
  6
CONTINUOUS
 62
    3
 10
361.64882370530989
 20
1505.2183744530828
 11
361.64882370530989
 21
1495.2183744530828
  0
LINE
  8
_0-5_寸法線
  6
CONTINUOUS
 62
    7
 10
883.71071708518627
 20
1468.7917401386323
 11
878.53433618313557
 21
1449.4732236128511
  0
LINE
  8
_0-5_寸法線
  6
CONTINUOUS
 62
    7
 10
883.71071708518627
 20
1468.7917401386323
 11
869.56858146145521
 21
1454.6496045149015
  0
LINE
  8
_0-5_寸法線
  6
CONTINUOUS
 62
    7
 10
883.71071708518627
 20
1468.7917401386323
 11
835.89262461144187
 21
1385.9683744530817
  0
LINE
  8
_0-5_寸法線
  6
CONTINUOUS
 62
    7
 10
835.89262461144187
 20
1385.9683744530817
 11
763.89262461144187
 21
1385.9683744530817
  0
TEXT
  8
_0-5_寸法線
 62
    7
 10
763.89262461144187
 20
1385.9683744530817
 40
30
 41
0.7999999999999998
 50
0
  1
上フタ
  0
TEXT
  8
_0-5_寸法線
 62
    7
 10
244.93475327095666
 20
1477.6934834365838
 40
30
 41
1
 50
0
  1
Ｂ部
  0
LINE
  8
_0-0_計極細
  6
CENTER1
 62
    2
 10
637.43882348530997
 20
1620.979595783773
 11
637.43882348530997
 21
1371.513070947361
  0
LINE
  8
_0-5_寸法線
  6
CONTINUOUS
 62
    7
 10
637.43496989032201
 20
1596.5737815406796
 11
656.75348641610344
 21
1601.7501624427302
  0
LINE
  8
_0-5_寸法線
  6
CONTINUOUS
 62
    7
 10
637.43496989032201
 20
1596.5737815406796
 11
656.75348641610344
 21
1591.3974006386295
  0
LINE
  8
_0-5_寸法線
  6
CONTINUOUS
 62
    7
 10
637.43496989032201
 20
1596.5737815406796
 11
705.6708042059181
 21
1596.5737815406796
  0
LINE
  8
_0-5_寸法線
  6
CONTINUOUS
 62
    7
 10
705.6708042059181
 20
1596.5737815406796
 11
639.8208805564168
 21
1596.5737815406796
  0
LINE
  8
_0-0_計極細
  6
CONTINUOUS
 62
    2
 10
640.88882117413186
 20
1557.2183744530817
 11
640.88882348531024
 21
1551.7183744530821
  0
LINE
  8
_0-0_計極細
  6
CONTINUOUS
 62
    2
 10
633.98882120433518
 20
1557.2183744530817
 11
633.98882348531015
 21
1551.7183744530821
  0
LINE
  8
_0-0_計極細
  6
CONTINUOUS
 62
    2
 10
644.93882318530223
 20
1557.2183734130549
 11
644.93882318530223
 21
1551.7183736330612
  0
LINE
  8
_0-0_計極細
  6
CONTINUOUS
 62
    2
 10
629.93882378531771
 20
1557.2183734130549
 11
629.93882378531771
 21
1551.7183736330612
  0
LINE
  8
_0-0_計極細
  6
CONTINUOUS
 62
    2
 10
640.88882117413186
 20
1541.7183744530821
 11
640.88882348531024
 21
1536.2183744530826
  0
LINE
  8
_0-0_計極細
  6
CONTINUOUS
 62
    2
 10
633.98882120433518
 20
1541.7183744530821
 11
633.98882348531015
 21
1536.2183744530826
  0
LINE
  8
_0-0_計極細
  6
CONTINUOUS
 62
    2
 10
644.93882318530223
 20
1541.7183734130554
 11
644.93882318530223
 21
1536.2183736330617
  0
LINE
  8
_0-0_計極細
  6
CONTINUOUS
 62
    2
 10
629.93882378531771
 20
1541.7183734130554
 11
629.93882378531771
 21
1536.2183736330617
  0
LINE
  8
_0-0_計極細
  6
CONTINUOUS
 62
    2
 10
640.88882117413186
 20
1526.2183744530819
 11
640.88882348531024
 21
1520.7183744530823
  0
LINE
  8
_0-0_計極細
  6
CONTINUOUS
 62
    2
 10
633.98882120433518
 20
1526.2183744530819
 11
633.98882348531015
 21
1520.7183744530823
  0
LINE
  8
_0-0_計極細
  6
CONTINUOUS
 62
    2
 10
644.93882318530223
 20
1526.2183734130554
 11
644.93882318530223
 21
1520.7183736330614
  0
LINE
  8
_0-0_計極細
  6
CONTINUOUS
 62
    2
 10
629.93882378531771
 20
1526.2183734130554
 11
629.93882378531771
 21
1520.7183736330614
  0
LINE
  8
_0-0_計極細
  6
CONTINUOUS
 62
    2
 10
640.88882117413186
 20
1510.7183744530823
 11
640.88882348531024
 21
1505.2183744530828
  0
LINE
  8
_0-0_計極細
  6
CONTINUOUS
 62
    2
 10
633.98882120433518
 20
1510.7183744530823
 11
633.98882348531015
 21
1505.2183744530828
  0
LINE
  8
_0-0_計極細
  6
CONTINUOUS
 62
    2
 10
644.93882318530223
 20
1510.7183734130558
 11
644.93882318530223
 21
1505.2183736330619
  0
LINE
  8
_0-0_計極細
  6
CONTINUOUS
 62
    2
 10
629.93882378531771
 20
1510.7183734130558
 11
629.93882378531771
 21
1505.2183736330619
  0
LINE
  8
_0-0_計極細
  6
CONTINUOUS
 62
    2
 10
640.88882117413186
 20
1495.2183744530828
 11
640.88882348531024
 21
1489.7183744530832
  0
LINE
  8
_0-0_計極細
  6
CONTINUOUS
 62
    2
 10
633.98882120433518
 20
1495.2183744530828
 11
633.98882348531015
 21
1489.7183744530832
  0
LINE
  8
_0-0_計極細
  6
CONTINUOUS
 62
    2
 10
644.93882318530223
 20
1495.2183734130563
 11
644.93882318530223
 21
1489.7183736330624
  0
LINE
  8
_0-0_計極細
  6
CONTINUOUS
 62
    2
 10
629.93882378531771
 20
1495.2183734130563
 11
629.93882378531771
 21
1489.7183736330624
  0
LINE
  8
_0-0_計極細
  6
CONTINUOUS
 62
    2
 10
640.88882117413186
 20
1479.7183744530832
 11
640.88882348531024
 21
1474.2183744530837
  0
LINE
  8
_0-0_計極細
  6
CONTINUOUS
 62
    2
 10
633.98882120433518
 20
1479.7183744530832
 11
633.98882348531015
 21
1474.2183744530837
  0
LINE
  8
_0-0_計極細
  6
CONTINUOUS
 62
    2
 10
644.93882318530223
 20
1479.7183734130567
 11
644.93882318530223
 21
1474.2183736330628
  0
LINE
  8
_0-0_計極細
  6
CONTINUOUS
 62
    2
 10
629.93882378531771
 20
1479.7183734130567
 11
629.93882378531771
 21
1474.2183736330628
  0
LINE
  8
_0-0_計極細
  6
CONTINUOUS
 62
    2
 10
640.88882117413186
 20
1464.2183744530837
 11
640.88882348531024
 21
1458.7183744530842
  0
LINE
  8
_0-0_計極細
  6
CONTINUOUS
 62
    2
 10
633.98882120433518
 20
1464.2183744530837
 11
633.98882348531015
 21
1458.7183744530842
  0
LINE
  8
_0-0_計極細
  6
CONTINUOUS
 62
    2
 10
644.93882318530223
 20
1464.2183734130572
 11
644.93882318530223
 21
1458.7183736330633
  0
LINE
  8
_0-0_計極細
  6
CONTINUOUS
 62
    2
 10
629.93882378531771
 20
1464.2183734130572
 11
629.93882378531771
 21
1458.7183736330633
  0
LINE
  8
_0-0_計極細
  6
CONTINUOUS
 62
    2
 10
911.1788211741316
 20
1557.2183744530817
 11
911.17882348530998
 21
1551.7183744530821
  0
LINE
  8
_0-0_計極細
  6
CONTINUOUS
 62
    2
 10
904.27882120433526
 20
1557.2183744530817
 11
904.27882348531
 21
1551.7183744530821
  0
LINE
  8
_0-0_計極細
  6
CONTINUOUS
 62
    2
 10
915.22882318530219
 20
1557.2183734130549
 11
915.22882318530219
 21
1551.7183736330612
  0
LINE
  8
_0-0_計極細
  6
CONTINUOUS
 62
    2
 10
900.22882378531779
 20
1557.2183734130549
 11
900.22882378531779
 21
1551.7183736330612
  0
LINE
  8
_0-0_計極細
  6
CONTINUOUS
 62
    2
 10
911.1788211741316
 20
1541.7183744530821
 11
911.17882348530998
 21
1536.2183744530826
  0
LINE
  8
_0-0_計極細
  6
CONTINUOUS
 62
    2
 10
904.27882120433526
 20
1541.7183744530821
 11
904.27882348531
 21
1536.2183744530826
  0
LINE
  8
_0-0_計極細
  6
CONTINUOUS
 62
    2
 10
915.22882318530219
 20
1541.7183734130554
 11
915.22882318530219
 21
1536.2183736330617
  0
LINE
  8
_0-0_計極細
  6
CONTINUOUS
 62
    2
 10
900.22882378531779
 20
1541.7183734130554
 11
900.22882378531779
 21
1536.2183736330617
  0
LINE
  8
_0-0_計極細
  6
CONTINUOUS
 62
    2
 10
911.1788211741316
 20
1526.2183744530819
 11
911.17882348530998
 21
1520.7183744530823
  0
LINE
  8
_0-0_計極細
  6
CONTINUOUS
 62
    2
 10
904.27882120433526
 20
1526.2183744530819
 11
904.27882348531
 21
1520.7183744530823
  0
LINE
  8
_0-0_計極細
  6
CONTINUOUS
 62
    2
 10
915.22882318530219
 20
1526.2183734130554
 11
915.22882318530219
 21
1520.7183736330614
  0
LINE
  8
_0-0_計極細
  6
CONTINUOUS
 62
    2
 10
900.22882378531779
 20
1526.2183734130554
 11
900.22882378531779
 21
1520.7183736330614
  0
LINE
  8
_0-0_計極細
  6
CONTINUOUS
 62
    2
 10
911.1788211741316
 20
1510.7183744530823
 11
911.17882348530998
 21
1505.2183744530828
  0
LINE
  8
_0-0_計極細
  6
CONTINUOUS
 62
    2
 10
904.27882120433526
 20
1510.7183744530823
 11
904.27882348531
 21
1505.2183744530828
  0
LINE
  8
_0-0_計極細
  6
CONTINUOUS
 62
    2
 10
915.22882318530219
 20
1510.7183734130558
 11
915.22882318530219
 21
1505.2183736330619
  0
LINE
  8
_0-0_計極細
  6
CONTINUOUS
 62
    2
 10
900.22882378531779
 20
1510.7183734130558
 11
900.22882378531779
 21
1505.2183736330619
  0
LINE
  8
_0-0_計極細
  6
CONTINUOUS
 62
    2
 10
911.1788211741316
 20
1495.2183744530828
 11
911.17882348530998
 21
1489.7183744530832
  0
LINE
  8
_0-0_計極細
  6
CONTINUOUS
 62
    2
 10
904.27882120433526
 20
1495.2183744530828
 11
904.27882348531
 21
1489.7183744530832
  0
LINE
  8
_0-0_計極細
  6
CONTINUOUS
 62
    2
 10
915.22882318530219
 20
1495.2183734130563
 11
915.22882318530219
 21
1489.7183736330624
  0
LINE
  8
_0-0_計極細
  6
CONTINUOUS
 62
    2
 10
900.22882378531779
 20
1495.2183734130563
 11
900.22882378531779
 21
1489.7183736330624
  0
LINE
  8
_0-0_計極細
  6
CONTINUOUS
 62
    2
 10
911.1788211741316
 20
1479.7183744530832
 11
911.17882348530998
 21
1474.2183744530837
  0
LINE
  8
_0-0_計極細
  6
CONTINUOUS
 62
    2
 10
904.27882120433526
 20
1479.7183744530832
 11
904.27882348531
 21
1474.2183744530837
  0
LINE
  8
_0-0_計極細
  6
CONTINUOUS
 62
    2
 10
915.22882318530219
 20
1479.7183734130567
 11
915.22882318530219
 21
1474.2183736330628
  0
LINE
  8
_0-0_計極細
  6
CONTINUOUS
 62
    2
 10
900.22882378531779
 20
1479.7183734130567
 11
900.22882378531779
 21
1474.2183736330628
  0
LINE
  8
_0-0_計極細
  6
CONTINUOUS
 62
    2
 10
911.1788211741316
 20
1464.2183744530837
 11
911.17882348530998
 21
1458.7183744530842
  0
LINE
  8
_0-0_計極細
  6
CONTINUOUS
 62
    2
 10
904.27882120433526
 20
1464.2183744530837
 11
904.27882348531
 21
1458.7183744530842
  0
LINE
  8
_0-0_計極細
  6
CONTINUOUS
 62
    2
 10
915.22882318530219
 20
1464.2183734130572
 11
915.22882318530219
 21
1458.7183736330633
  0
LINE
  8
_0-0_計極細
  6
CONTINUOUS
 62
    2
 10
900.22882378531779
 20
1464.2183734130572
 11
900.22882378531779
 21
1458.7183736330633
  0
LINE
  8
_0-0_計極細
  6
CONTINUOUS
 62
    2
 10
1181.4688211741316
 20
1557.2183744530817
 11
1181.4688234853099
 21
1551.7183744530821
  0
LINE
  8
_0-0_計極細
  6
CONTINUOUS
 62
    2
 10
1174.5688212043351
 20
1557.2183744530817
 11
1174.5688234853101
 21
1551.7183744530821
  0
LINE
  8
_0-0_計極細
  6
CONTINUOUS
 62
    2
 10
1185.5188231853022
 20
1557.2183734130549
 11
1185.5188231853022
 21
1551.7183736330612
  0
LINE
  8
_0-0_計極細
  6
CONTINUOUS
 62
    2
 10
1170.5188237853176
 20
1557.2183734130549
 11
1170.5188237853176
 21
1551.7183736330612
  0
LINE
  8
_0-0_計極細
  6
CONTINUOUS
 62
    2
 10
1181.4688211741316
 20
1541.7183744530821
 11
1181.4688234853099
 21
1536.2183744530826
  0
LINE
  8
_0-0_計極細
  6
CONTINUOUS
 62
    2
 10
1174.5688212043351
 20
1541.7183744530821
 11
1174.5688234853101
 21
1536.2183744530826
  0
LINE
  8
_0-0_計極細
  6
CONTINUOUS
 62
    2
 10
1185.5188231853022
 20
1541.7183734130554
 11
1185.5188231853022
 21
1536.2183736330617
  0
LINE
  8
_0-0_計極細
  6
CONTINUOUS
 62
    2
 10
1170.5188237853176
 20
1541.7183734130554
 11
1170.5188237853176
 21
1536.2183736330617
  0
LINE
  8
_0-0_計極細
  6
CONTINUOUS
 62
    2
 10
1181.4688211741316
 20
1526.2183744530819
 11
1181.4688234853099
 21
1520.7183744530823
  0
LINE
  8
_0-0_計極細
  6
CONTINUOUS
 62
    2
 10
1174.5688212043351
 20
1526.2183744530819
 11
1174.5688234853101
 21
1520.7183744530823
  0
LINE
  8
_0-0_計極細
  6
CONTINUOUS
 62
    2
 10
1185.5188231853022
 20
1526.2183734130554
 11
1185.5188231853022
 21
1520.7183736330614
  0
LINE
  8
_0-0_計極細
  6
CONTINUOUS
 62
    2
 10
1170.5188237853176
 20
1526.2183734130554
 11
1170.5188237853176
 21
1520.7183736330614
  0
LINE
  8
_0-0_計極細
  6
CONTINUOUS
 62
    2
 10
1181.4688211741316
 20
1510.7183744530823
 11
1181.4688234853099
 21
1505.2183744530828
  0
LINE
  8
_0-0_計極細
  6
CONTINUOUS
 62
    2
 10
1174.5688212043351
 20
1510.7183744530823
 11
1174.5688234853101
 21
1505.2183744530828
  0
LINE
  8
_0-0_計極細
  6
CONTINUOUS
 62
    2
 10
1185.5188231853022
 20
1510.7183734130558
 11
1185.5188231853022
 21
1505.2183736330619
  0
LINE
  8
_0-0_計極細
  6
CONTINUOUS
 62
    2
 10
1170.5188237853176
 20
1510.7183734130558
 11
1170.5188237853176
 21
1505.2183736330619
  0
LINE
  8
_0-0_計極細
  6
CONTINUOUS
 62
    2
 10
1181.4688211741316
 20
1495.2183744530828
 11
1181.4688234853099
 21
1489.7183744530832
  0
LINE
  8
_0-0_計極細
  6
CONTINUOUS
 62
    2
 10
1174.5688212043351
 20
1495.2183744530828
 11
1174.5688234853101
 21
1489.7183744530832
  0
LINE
  8
_0-0_計極細
  6
CONTINUOUS
 62
    2
 10
1185.5188231853022
 20
1495.2183734130563
 11
1185.5188231853022
 21
1489.7183736330624
  0
LINE
  8
_0-0_計極細
  6
CONTINUOUS
 62
    2
 10
1170.5188237853176
 20
1495.2183734130563
 11
1170.5188237853176
 21
1489.7183736330624
  0
LINE
  8
_0-0_計極細
  6
CONTINUOUS
 62
    2
 10
1181.4688211741316
 20
1479.7183744530832
 11
1181.4688234853099
 21
1474.2183744530837
  0
LINE
  8
_0-0_計極細
  6
CONTINUOUS
 62
    2
 10
1174.5688212043351
 20
1479.7183744530832
 11
1174.5688234853101
 21
1474.2183744530837
  0
LINE
  8
_0-0_計極細
  6
CONTINUOUS
 62
    2
 10
1185.5188231853022
 20
1479.7183734130567
 11
1185.5188231853022
 21
1474.2183736330628
  0
LINE
  8
_0-0_計極細
  6
CONTINUOUS
 62
    2
 10
1170.5188237853176
 20
1479.7183734130567
 11
1170.5188237853176
 21
1474.2183736330628
  0
LINE
  8
_0-0_計極細
  6
CONTINUOUS
 62
    2
 10
1181.4688211741316
 20
1464.2183744530837
 11
1181.4688234853099
 21
1458.7183744530842
  0
LINE
  8
_0-0_計極細
  6
CONTINUOUS
 62
    2
 10
1174.5688212043351
 20
1464.2183744530837
 11
1174.5688234853101
 21
1458.7183744530842
  0
LINE
  8
_0-0_計極細
  6
CONTINUOUS
 62
    2
 10
1185.5188231853022
 20
1464.2183734130572
 11
1185.5188231853022
 21
1458.7183736330633
  0
LINE
  8
_0-0_計極細
  6
CONTINUOUS
 62
    2
 10
1170.5188237853176
 20
1464.2183734130572
 11
1170.5188237853176
 21
1458.7183736330633
  0
LINE
  8
_0-5_寸法線
  6
CONTINUOUS
 62
    7
 10
346.54835489002892
 20
1494.0350371105967
 11
356.54835489002863
 21
1476.7145290349081
  0
LINE
  8
_0-5_寸法線
  6
CONTINUOUS
 62
    7
 10
346.54835489002892
 20
1494.0350371105967
 11
346.54835489002863
 21
1474.0350371105967
  0
LINE
  8
_0-5_寸法線
  6
CONTINUOUS
 62
    7
 10
346.54835489002892
 20
1494.0350371105967
 11
375.50472987783633
 21
1385.9683744530817
  0
LINE
  8
_0-5_寸法線
  6
CONTINUOUS
 62
    7
 10
375.50472987783633
 20
1385.9683744530817
 11
471.50472987783644
 21
1385.9683744530817
  0
TEXT
  8
_0-5_寸法線
 62
    7
 10
375.50472987783633
 20
1385.9683744530817
 40
30
 41
0.8000000000000001
 50
0
  1
取外し具
  0
ARC
  8
_0-0_計極細
  6
CONTINUOUS
 62
    2
 10
1283.1339093306813
 20
1478.9683744531715
 40
54.312365187078854
 50
147.72737804884292
 51
213.8460561937558
  0
ARC
  8
_0-0_計極細
  6
CONTINUOUS
 62
    2
 10
1191.2898455656293
 20
1536.9683744529952
 40
54.312365187078854
 50
327.72737804884275
 51
33.846056193750599
  0
LINE
  8
_0-1_計細線
  6
CONTINUOUS
 62
    3
 10
327.64882506535116
 20
1448.7183744530842
 11
1238.025478719439
 21
1448.7183744530842
  0
LINE
  8
_0-1_計細線
  6
CONTINUOUS
 62
    3
 10
1232.737773444971
 20
1458.7183744530842
 11
327.64882506535116
 21
1458.7183744530842
  0
LINE
  8
_0-1_計細線
  6
CONTINUOUS
 62
    3
 10
327.64882506535116
 20
1464.2183744530837
 11
1230.8627842977144
 21
1464.2183744530837
  0
LINE
  8
_0-1_計細線
  6
CONTINUOUS
 62
    3
 10
1229.0296533778101
 20
1474.2183744530837
 11
327.64882506535116
 21
1474.2183744530837
  0
LINE
  8
_0-1_計細線
  6
CONTINUOUS
 62
    3
 10
327.64882506535116
 20
1479.7183744530832
 11
1228.8267227692809
 21
1479.7183744530832
  0
LINE
  8
_0-1_計細線
  6
CONTINUOUS
 62
    3
 10
1229.8960420535573
 20
1489.7183744530832
 11
327.64882506535116
 21
1489.7183744530832
  0
LINE
  8
_0-1_計細線
  6
CONTINUOUS
 62
    3
 10
361.64882370530989
 20
1495.2183744530828
 11
1231.3094892932368
 21
1495.2183744530828
  0
LINE
  8
_0-1_計細線
  6
CONTINUOUS
 62
    3
 10
1235.5863488020968
 20
1505.2183744530828
 11
361.64882370530989
 21
1505.2183744530828
  0
LINE
  8
_0-1_計細線
  6
CONTINUOUS
 62
    3
 10
327.64882506535116
 20
1510.7183744530823
 11
1238.837406094211
 21
1510.7183744530823
  0
LINE
  8
_0-1_計細線
  6
CONTINUOUS
 62
    3
 10
1243.1142656030729
 20
1520.7183744530823
 11
327.64882506535116
 21
1520.7183744530823
  0
LINE
  8
_0-1_計細線
  6
CONTINUOUS
 62
    3
 10
327.64882506535116
 20
1526.2183744530819
 11
1244.5277128427515
 21
1526.2183744530819
  0
LINE
  8
_0-1_計細線
  6
CONTINUOUS
 62
    3
 10
1245.5970321270288
 20
1536.2183744530819
 11
327.64882506535116
 21
1536.2183744530819
  0
LINE
  8
_0-1_計細線
  6
CONTINUOUS
 62
    3
 10
327.64882506535116
 20
1541.7183744530821
 11
1245.3941015185005
 21
1541.7183744530821
  0
LINE
  8
_0-1_計細線
  6
CONTINUOUS
 62
    3
 10
1243.5609705985971
 20
1551.7183744530821
 11
327.64882506535116
 21
1551.7183744530821
  0
LINE
  8
_0-1_計細線
  6
CONTINUOUS
 62
    3
 10
327.64882506535116
 20
1557.2183744530817
 11
1241.6859814513414
 21
1557.2183744530817
  0
LINE
  8
_0-1_計細線
  6
CONTINUOUS
 62
    3
 10
1236.3982761768743
 20
1567.2183744530817
 11
327.64882506535116
 21
1567.2183744530817
  0
LINE
  8
_0-5_寸法線
  6
CONTINUOUS
 62
    7
 10
315.14882506535116
 20
1599.9683744530817
 11
315.14882506535145
 21
1759.9683744530817
  0
LINE
  8
_0-5_寸法線
  6
CONTINUOUS
 62
    7
 10
315.14882506535145
 20
1749.9683744530817
 11
334.46734159113294
 21
1755.1447553551318
  0
LINE
  8
_0-5_寸法線
  6
CONTINUOUS
 62
    7
 10
315.14882506535145
 20
1749.9683744530817
 11
334.46734159113294
 21
1744.7919935510311
  0
LINE
  8
_0-5_寸法線
  6
CONTINUOUS
 62
    7
 10
2311.148825065351
 20
1599.9683744530817
 11
2311.1488250653515
 21
1759.9683744530817
  0
LINE
  8
_0-5_寸法線
  6
CONTINUOUS
 62
    7
 10
2311.1488250653515
 20
1749.9683744530817
 11
2291.8303085395701
 21
1744.7919935510311
  0
LINE
  8
_0-5_寸法線
  6
CONTINUOUS
 62
    7
 10
2311.1488250653515
 20
1749.9683744530817
 11
2291.8303085395701
 21
1755.1447553551318
  0
LINE
  8
_0-5_寸法線
  6
CONTINUOUS
 62
    7
 10
315.14882506535145
 20
1749.9683744530817
 11
2311.1488250653515
 21
1749.9683744530817
  0
TEXT
  8
_0-5_寸法線
 62
    7
 10
1283.1488250653515
 20
1749.9683744530817
 40
30
 41
1
 50
0
  1
1996
  0
LINE
  8
_0-5_寸法線
  6
CONTINUOUS
 62
    7
 10
315.14882506535105
 20
1415.9683744530817
 11
315.14882506535088
 21
1325.9683744530817
  0
LINE
  8
_0-5_寸法線
  6
CONTINUOUS
 62
    7
 10
315.14882506535088
 20
1335.9683744530817
 11
334.4673415911322
 21
1341.1447553551318
  0
LINE
  8
_0-5_寸法線
  6
CONTINUOUS
 62
    7
 10
315.14882506535088
 20
1335.9683744530817
 11
334.4673415911322
 21
1330.7919935510311
  0
LINE
  8
_0-5_寸法線
  6
CONTINUOUS
 62
    7
 10
1313.148825065351
 20
1415.9683744530817
 11
1313.148825065351
 21
1325.9683744530817
  0
LINE
  8
_0-5_寸法線
  6
CONTINUOUS
 62
    7
 10
1313.148825065351
 20
1335.9683744530817
 11
1293.8303085395694
 21
1330.7919935510311
  0
LINE
  8
_0-5_寸法線
  6
CONTINUOUS
 62
    7
 10
1313.148825065351
 20
1335.9683744530817
 11
1293.8303085395694
 21
1341.1447553551318
  0
LINE
  8
_0-5_寸法線
  6
CONTINUOUS
 62
    7
 10
315.14882506535088
 20
1335.9683744530817
 11
1313.148825065351
 21
1335.9683744530817
  0
TEXT
  8
_0-5_寸法線
 62
    7
 10
791.64882506535093
 20
1335.9683744530817
 40
30
 41
1
 50
0
  1
998
  0
LINE
  8
_0-5_寸法線
  6
CONTINUOUS
 62
    7
 10
1313.148825065351
 20
1335.9683744530817
 11
1332.4673415911323
 21
1341.1447553551318
  0
LINE
  8
_0-5_寸法線
  6
CONTINUOUS
 62
    7
 10
1313.148825065351
 20
1335.9683744530817
 11
1332.4673415911323
 21
1330.7919935510311
  0
LINE
  8
_0-5_寸法線
  6
CONTINUOUS
 62
    7
 10
2311.148825065351
 20
1415.9683744530817
 11
2311.148825065351
 21
1325.9683744530817
  0
LINE
  8
_0-5_寸法線
  6
CONTINUOUS
 62
    7
 10
2311.148825065351
 20
1335.9683744530817
 11
2291.8303085395696
 21
1330.7919935510311
  0
LINE
  8
_0-5_寸法線
  6
CONTINUOUS
 62
    7
 10
2311.148825065351
 20
1335.9683744530817
 11
2291.8303085395696
 21
1341.1447553551318
  0
LINE
  8
_0-5_寸法線
  6
CONTINUOUS
 62
    7
 10
1313.148825065351
 20
1335.9683744530817
 11
2311.148825065351
 21
1335.9683744530817
  0
TEXT
  8
_0-5_寸法線
 62
    7
 10
1789.648825065351
 20
1335.9683744530817
 40
30
 41
1
 50
0
  1
998
  0
LINE
  8
_0-5_寸法線
  6
CONTINUOUS
 62
    7
 10
637.43496989032224
 20
1381.6284763225169
 11
656.75348641610344
 21
1386.8048572245673
  0
LINE
  8
_0-5_寸法線
  6
CONTINUOUS
 62
    7
 10
637.43496989032224
 20
1381.6284763225169
 11
656.75348641610344
 21
1376.4520954204668
  0
LINE
  8
_0-5_寸法線
  6
CONTINUOUS
 62
    7
 10
637.43496989032224
 20
1381.6284763225169
 11
705.6708042059181
 21
1381.6284763225169
  0
LINE
  8
_0-5_寸法線
  6
CONTINUOUS
 62
    7
 10
705.6708042059181
 20
1381.6284763225169
 11
705.6708042059181
 21
1380.6438795759841
  0
TEXT
  8
_0-5_寸法線
 62
    7
 10
661.58721983391229
 20
1595.7634001297797
 40
40
 41
1
 50
0
  1
Ａ’
  0
TEXT
  8
_0-5_寸法線
 62
    7
 10
667.4712413663234
 20
1382.4372570257501
 40
40
 41
1
 50
0
  1
Ａ
  0
LINE
  8
_0-0_計極細
  6
CENTER1
 62
    2
 10
1313.148825065351
 20
1594.3692314304467
 11
1313.148825065351
 21
1040.9217892101583
  0
LINE
  8
_0-5_寸法線
  6
CONTINUOUS
 62
    7
 10
965.24630661013271
 20
1576.0331358619806
 11
975.24630661013293
 21
1593.3536439376689
  0
LINE
  8
_0-5_寸法線
  6
CONTINUOUS
 62
    7
 10
965.24630661013271
 20
1576.0331358619806
 11
982.56681468582156
 21
1586.0331358619806
  0
LINE
  8
_0-5_寸法線
  6
CONTINUOUS
 62
    7
 10
965.24630661013271
 20
1576.0331358619806
 11
1019.1815452012344
 21
1629.9683744530817
  0
LINE
  8
_0-5_寸法線
  6
CONTINUOUS
 62
    7
 10
1019.1815452012344
 20
1629.9683744530817
 11
1211.181545201234
 21
1629.9683744530817
  0
TEXT
  8
_0-5_寸法線
 62
    7
 10
1019.1815452012344
 20
1629.9683744530817
 40
30
 41
0.8000000000000001
 50
0
  1
排水ユニット本体
  0
ENDSEC
  0
EOF
